  0
SECTION
  2
HEADER
  9
$ACADVER
  1
AC1006
  9
$EXTMIN
 10
-2.099000
 20
-4.204409
  9
$EXTMAX
 10
2.101000
 20
4.204000
  9
$LTSCALE
 40
0.000394
  9
$PDMODE
 70
    35
  9
$PDSIZE
 40
0.000315
  0
ENDSEC
  0
SECTION
  2
TABLES
  0
TABLE
  2
LTYPE
 70
     9
  0
LTYPE
  2
CONTINUOUS
 70
    64
  3
Solid line
 72
    65
 73
     0
 40
0.000000
  0
LTYPE
  2
DASHED
 70
    64
  3
__ __ __ __ __ __ __ __ __ __ __ __ __ __ __
 72
    65
 73
     2
 40
0.000003
 49
0.000002
 49
-0.000001
  0
LTYPE
  2
HIDDEN
 70
    64
  3
 _ _ _ _ _ _ _ _ _ _ _ _ _ _ _ _ _ _ _ _ _ _
 72
    65
 73
     2
 40
0.000001
 49
0.000001
 49
-0.000000
  0
LTYPE
  2
CENTER
 70
    64
  3
____ _ ____ _ ____ _ ____ _ ____ _ ____ _ ____
 72
    65
 73
     4
 40
0.000008
 49
0.000005
 49
-0.000001
 49
0.000001
 49
-0.000001
  0
LTYPE
  2
PHANTOM
 70
    64
  3
_____ _ _ _____ _ _ _____ _ _ _____ _ _ ____
 72
    65
 73
     6
 40
0.000010
 49
0.000005
 49
-0.000001
 49
0.000001
 49
-0.000001
 49
0.000001
 49
-0.000001
  0
LTYPE
  2
DOT
 70
    64
  3
...............................................
 72
    65
 73
     2
 40
0.000001
 49
0.000000
 49
-0.000001
  0
LTYPE
  2
DASHDOT
 70
    64
  3
__ . __ . __ . __ . __ . __ . __ . __ . __ . __
 72
    65
 73
     4
 40
0.000004
 49
0.000002
 49
-0.000001
 49
0.000000
 49
-0.000001
  0
LTYPE
  2
BORDER
 70
    64
  3
__ __ . __ __ . __ __ . __ __ . __ __ . __ __
 72
    65
 73
     6
 40
0.000007
 49
0.000002
 49
-0.000001
 49
0.000002
 49
-0.000001
 49
0.000000
 49
-0.000001
  0
LTYPE
  2
DIVIDE
 70
    64
  3
__ . . __ . . __ . . __ . . __ . . __ . . __
 72
    65
 73
     6
 40
0.000005
 49
0.000002
 49
-0.000001
 49
0.000000
 49
-0.000001
 49
0.000000
 49
-0.000001
  0
LTYPE
  2
DOTDOT
 70
    64
  3
 . .  . .  . .  . .  . .  . . 
 72
    65
 73
     5
 40
0.000002
 49
-0.000001
 49
0.000000
 49
-0.000001
 49
0.000000
 49
-0.000001
  0
ENDTAB
  0
TABLE
  2
STYLE
 70
     0
  0
ENDTAB
  0
TABLE
  2
LAYER
 70
     3
  0
LAYER
  2
FOREGROUND
 70
    64
 62
     7
  6
CONTINUOUS
  0
LAYER
  2
BACKGROUND
 70
    65
 62
    -7
  6
CONTINUOUS
  0
LAYER
  2
PLAN_1
 70
    64
 62
     7
  6
CONTINUOUS
  0
ENDTAB
  0
ENDSEC
  0
SECTION
  2
ENTITIES
  0
POLYLINE
  8
PLAN_1
  6
CONTINUOUS
 66
     1
 40
0.003000
 41
0.003000
  0
VERTEX
  8
PLAN_1
  6
CONTINUOUS
 10
0.083508
 20
-4.199154
  0
VERTEX
  8
PLAN_1
  6
CONTINUOUS
 10
0.049874
 20
-4.199154
  0
VERTEX
  8
PLAN_1
  6
CONTINUOUS
 10
-0.003728
 20
-4.117169
  0
VERTEX
  8
PLAN_1
  6
CONTINUOUS
 10
-0.058909
 20
-4.199154
  0
VERTEX
  8
PLAN_1
  6
CONTINUOUS
 10
-0.091492
 20
-4.199154
  0
VERTEX
  8
PLAN_1
  6
CONTINUOUS
 10
-0.020020
 20
-4.097201
  0
VERTEX
  8
PLAN_1
  6
CONTINUOUS
 10
-0.086764
 20
-3.999980
  0
VERTEX
  8
PLAN_1
  6
CONTINUOUS
 10
-0.053130
 20
-3.999980
  0
VERTEX
  8
PLAN_1
  6
CONTINUOUS
 10
-0.002677
 20
-4.076181
  0
VERTEX
  8
PLAN_1
  6
CONTINUOUS
 10
0.047772
 20
-3.999980
  0
VERTEX
  8
PLAN_1
  6
CONTINUOUS
 10
0.080354
 20
-3.999980
  0
VERTEX
  8
PLAN_1
  6
CONTINUOUS
 10
0.013087
 20
-4.097201
  0
VERTEX
  8
PLAN_1
  6
CONTINUOUS
 10
0.083508
 20
-4.199154
  0
SEQEND
  8
0
  0
POLYLINE
  8
PLAN_1
  6
CONTINUOUS
 66
     1
 40
0.003000
 41
0.003000
  0
VERTEX
  8
PLAN_1
  6
CONTINUOUS
 10
0.249575
 20
-4.059890
  0
VERTEX
  8
PLAN_1
  6
CONTINUOUS
 10
0.247996
 20
-4.053583
  0
VERTEX
  8
PLAN_1
  6
CONTINUOUS
 10
0.245894
 20
-4.047803
  0
VERTEX
  8
PLAN_1
  6
CONTINUOUS
 10
0.243268
 20
-4.043071
  0
VERTEX
  8
PLAN_1
  6
CONTINUOUS
 10
0.240638
 20
-4.038343
  0
VERTEX
  8
PLAN_1
  6
CONTINUOUS
 10
0.237488
 20
-4.034665
  0
VERTEX
  8
PLAN_1
  6
CONTINUOUS
 10
0.233807
 20
-4.031512
  0
VERTEX
  8
PLAN_1
  6
CONTINUOUS
 10
0.230130
 20
-4.028358
  0
VERTEX
  8
PLAN_1
  6
CONTINUOUS
 10
0.225925
 20
-4.026256
  0
VERTEX
  8
PLAN_1
  6
CONTINUOUS
 10
0.222248
 20
-4.024154
  0
VERTEX
  8
PLAN_1
  6
CONTINUOUS
 10
0.218043
 20
-4.022575
  0
VERTEX
  8
PLAN_1
  6
CONTINUOUS
 10
0.213839
 20
-4.021000
  0
VERTEX
  8
PLAN_1
  6
CONTINUOUS
 10
0.209634
 20
-4.019949
  0
VERTEX
  8
PLAN_1
  6
CONTINUOUS
 10
0.201224
 20
-4.018898
  0
VERTEX
  8
PLAN_1
  6
CONTINUOUS
 10
0.193866
 20
-4.018374
  0
VERTEX
  8
PLAN_1
  6
CONTINUOUS
 10
0.187035
 20
-4.018898
  0
VERTEX
  8
PLAN_1
  6
CONTINUOUS
 10
0.180728
 20
-4.019949
  0
VERTEX
  8
PLAN_1
  6
CONTINUOUS
 10
0.174425
 20
-4.021524
  0
VERTEX
  8
PLAN_1
  6
CONTINUOUS
 10
0.168642
 20
-4.023626
  0
VERTEX
  8
PLAN_1
  6
CONTINUOUS
 10
0.162862
 20
-4.026256
  0
VERTEX
  8
PLAN_1
  6
CONTINUOUS
 10
0.157606
 20
-4.029409
  0
VERTEX
  8
PLAN_1
  6
CONTINUOUS
 10
0.152350
 20
-4.033614
  0
VERTEX
  8
PLAN_1
  6
CONTINUOUS
 10
0.147622
 20
-4.038343
  0
VERTEX
  8
PLAN_1
  6
CONTINUOUS
 10
0.143417
 20
-4.043598
  0
VERTEX
  8
PLAN_1
  6
CONTINUOUS
 10
0.139740
 20
-4.049378
  0
VERTEX
  8
PLAN_1
  6
CONTINUOUS
 10
0.136587
 20
-4.056209
  0
VERTEX
  8
PLAN_1
  6
CONTINUOUS
 10
0.133957
 20
-4.063043
  0
VERTEX
  8
PLAN_1
  6
CONTINUOUS
 10
0.131331
 20
-4.070925
  0
VERTEX
  8
PLAN_1
  6
CONTINUOUS
 10
0.129752
 20
-4.079335
  0
VERTEX
  8
PLAN_1
  6
CONTINUOUS
 10
0.128701
 20
-4.088268
  0
VERTEX
  8
PLAN_1
  6
CONTINUOUS
 10
0.128701
 20
-4.097728
  0
VERTEX
  8
PLAN_1
  6
CONTINUOUS
 10
0.128701
 20
-4.106134
  0
VERTEX
  8
PLAN_1
  6
CONTINUOUS
 10
0.129228
 20
-4.114543
  0
VERTEX
  8
PLAN_1
  6
CONTINUOUS
 10
0.130280
 20
-4.122425
  0
VERTEX
  8
PLAN_1
  6
CONTINUOUS
 10
0.131854
 20
-4.130311
  0
VERTEX
  8
PLAN_1
  6
CONTINUOUS
 10
0.133957
 20
-4.137665
  0
VERTEX
  8
PLAN_1
  6
CONTINUOUS
 10
0.136587
 20
-4.144500
  0
VERTEX
  8
PLAN_1
  6
CONTINUOUS
 10
0.139740
 20
-4.150803
  0
VERTEX
  8
PLAN_1
  6
CONTINUOUS
 10
0.142894
 20
-4.156587
  0
VERTEX
  8
PLAN_1
  6
CONTINUOUS
 10
0.147094
 20
-4.161843
  0
VERTEX
  8
PLAN_1
  6
CONTINUOUS
 10
0.151827
 20
-4.166571
  0
VERTEX
  8
PLAN_1
  6
CONTINUOUS
 10
0.157606
 20
-4.170776
  0
VERTEX
  8
PLAN_1
  6
CONTINUOUS
 10
0.163386
 20
-4.173929
  0
VERTEX
  8
PLAN_1
  6
CONTINUOUS
 10
0.170220
 20
-4.177083
  0
VERTEX
  8
PLAN_1
  6
CONTINUOUS
 10
0.177575
 20
-4.178657
  0
VERTEX
  8
PLAN_1
  6
CONTINUOUS
 10
0.185984
 20
-4.180232
  0
VERTEX
  8
PLAN_1
  6
CONTINUOUS
 10
0.194917
 20
-4.180760
  0
VERTEX
  8
PLAN_1
  6
CONTINUOUS
 10
0.201752
 20
-4.180232
  0
VERTEX
  8
PLAN_1
  6
CONTINUOUS
 10
0.209634
 20
-4.178657
  0
VERTEX
  8
PLAN_1
  6
CONTINUOUS
 10
0.213839
 20
-4.177083
  0
VERTEX
  8
PLAN_1
  6
CONTINUOUS
 10
0.218043
 20
-4.175504
  0
VERTEX
  8
PLAN_1
  6
CONTINUOUS
 10
0.222248
 20
-4.173402
  0
VERTEX
  8
PLAN_1
  6
CONTINUOUS
 10
0.226449
 20
-4.170776
  0
VERTEX
  8
PLAN_1
  6
CONTINUOUS
 10
0.230130
 20
-4.167094
  0
VERTEX
  8
PLAN_1
  6
CONTINUOUS
 10
0.234335
 20
-4.163417
  0
VERTEX
  8
PLAN_1
  6
CONTINUOUS
 10
0.238012
 20
-4.159213
  0
VERTEX
  8
PLAN_1
  6
CONTINUOUS
 10
0.241165
 20
-4.153957
  0
VERTEX
  8
PLAN_1
  6
CONTINUOUS
 10
0.244319
 20
-4.148177
  0
VERTEX
  8
PLAN_1
  6
CONTINUOUS
 10
0.247472
 20
-4.141346
  0
VERTEX
  8
PLAN_1
  6
CONTINUOUS
 10
0.249575
 20
-4.133988
  0
VERTEX
  8
PLAN_1
  6
CONTINUOUS
 10
0.251677
 20
-4.126106
  0
VERTEX
  8
PLAN_1
  6
CONTINUOUS
 10
0.277425
 20
-4.126106
  0
VERTEX
  8
PLAN_1
  6
CONTINUOUS
 10
0.276374
 20
-4.132937
  0
VERTEX
  8
PLAN_1
  6
CONTINUOUS
 10
0.274799
 20
-4.139244
  0
VERTEX
  8
PLAN_1
  6
CONTINUOUS
 10
0.273220
 20
-4.145024
  0
VERTEX
  8
PLAN_1
  6
CONTINUOUS
 10
0.271122
 20
-4.150803
  0
VERTEX
  8
PLAN_1
  6
CONTINUOUS
 10
0.269020
 20
-4.156059
  0
VERTEX
  8
PLAN_1
  6
CONTINUOUS
 10
0.266917
 20
-4.160791
  0
VERTEX
  8
PLAN_1
  6
CONTINUOUS
 10
0.264287
 20
-4.165520
  0
VERTEX
  8
PLAN_1
  6
CONTINUOUS
 10
0.261661
 20
-4.169724
  0
VERTEX
  8
PLAN_1
  6
CONTINUOUS
 10
0.258508
 20
-4.173929
  0
VERTEX
  8
PLAN_1
  6
CONTINUOUS
 10
0.255354
 20
-4.177606
  0
VERTEX
  8
PLAN_1
  6
CONTINUOUS
 10
0.252201
 20
-4.180760
  0
VERTEX
  8
PLAN_1
  6
CONTINUOUS
 10
0.249047
 20
-4.183913
  0
VERTEX
  8
PLAN_1
  6
CONTINUOUS
 10
0.242217
 20
-4.189169
  0
VERTEX
  8
PLAN_1
  6
CONTINUOUS
 10
0.235386
 20
-4.193374
  0
VERTEX
  8
PLAN_1
  6
CONTINUOUS
 10
0.228551
 20
-4.196524
  0
VERTEX
  8
PLAN_1
  6
CONTINUOUS
 10
0.221720
 20
-4.199154
  0
VERTEX
  8
PLAN_1
  6
CONTINUOUS
 10
0.214890
 20
-4.201256
  0
VERTEX
  8
PLAN_1
  6
CONTINUOUS
 10
0.209106
 20
-4.202831
  0
VERTEX
  8
PLAN_1
  6
CONTINUOUS
 10
0.198071
 20
-4.203882
  0
VERTEX
  8
PLAN_1
  6
CONTINUOUS
 10
0.190717
 20
-4.204409
  0
VERTEX
  8
PLAN_1
  6
CONTINUOUS
 10
0.182307
 20
-4.203882
  0
VERTEX
  8
PLAN_1
  6
CONTINUOUS
 10
0.173898
 20
-4.202831
  0
VERTEX
  8
PLAN_1
  6
CONTINUOUS
 10
0.165488
 20
-4.201256
  0
VERTEX
  8
PLAN_1
  6
CONTINUOUS
 10
0.157606
 20
-4.198626
  0
VERTEX
  8
PLAN_1
  6
CONTINUOUS
 10
0.149724
 20
-4.195476
  0
VERTEX
  8
PLAN_1
  6
CONTINUOUS
 10
0.142366
 20
-4.191272
  0
VERTEX
  8
PLAN_1
  6
CONTINUOUS
 10
0.135008
 20
-4.186016
  0
VERTEX
  8
PLAN_1
  6
CONTINUOUS
 10
0.128701
 20
-4.180232
  0
VERTEX
  8
PLAN_1
  6
CONTINUOUS
 10
0.122921
 20
-4.173402
  0
VERTEX
  8
PLAN_1
  6
CONTINUOUS
 10
0.117142
 20
-4.165520
  0
VERTEX
  8
PLAN_1
  6
CONTINUOUS
 10
0.115039
 20
-4.161315
  0
VERTEX
  8
PLAN_1
  6
CONTINUOUS
 10
0.112409
 20
-4.157110
  0
VERTEX
  8
PLAN_1
  6
CONTINUOUS
 10
0.110311
 20
-4.152382
  0
VERTEX
  8
PLAN_1
  6
CONTINUOUS
 10
0.108732
 20
-4.147126
  0
VERTEX
  8
PLAN_1
  6
CONTINUOUS
 10
0.106630
 20
-4.141870
  0
VERTEX
  8
PLAN_1
  6
CONTINUOUS
 10
0.105055
 20
-4.136614
  0
VERTEX
  8
PLAN_1
  6
CONTINUOUS
 10
0.104004
 20
-4.130835
  0
VERTEX
  8
PLAN_1
  6
CONTINUOUS
 10
0.102953
 20
-4.125055
  0
VERTEX
  8
PLAN_1
  6
CONTINUOUS
 10
0.101374
 20
-4.112441
  0
VERTEX
  8
PLAN_1
  6
CONTINUOUS
 10
0.100850
 20
-4.098252
  0
VERTEX
  8
PLAN_1
  6
CONTINUOUS
 10
0.101374
 20
-4.087217
  0
VERTEX
  8
PLAN_1
  6
CONTINUOUS
 10
0.102425
 20
-4.076181
  0
VERTEX
  8
PLAN_1
  6
CONTINUOUS
 10
0.104528
 20
-4.066197
  0
VERTEX
  8
PLAN_1
  6
CONTINUOUS
 10
0.107157
 20
-4.056209
  0
VERTEX
  8
PLAN_1
  6
CONTINUOUS
 10
0.110835
 20
-4.047276
  0
VERTEX
  8
PLAN_1
  6
CONTINUOUS
 10
0.115039
 20
-4.038343
  0
VERTEX
  8
PLAN_1
  6
CONTINUOUS
 10
0.119768
 20
-4.030461
  0
VERTEX
  8
PLAN_1
  6
CONTINUOUS
 10
0.125551
 20
-4.023626
  0
VERTEX
  8
PLAN_1
  6
CONTINUOUS
 10
0.131854
 20
-4.016795
  0
VERTEX
  8
PLAN_1
  6
CONTINUOUS
 10
0.138689
 20
-4.011016
  0
VERTEX
  8
PLAN_1
  6
CONTINUOUS
 10
0.146571
 20
-4.006283
  0
VERTEX
  8
PLAN_1
  6
CONTINUOUS
 10
0.154980
 20
-4.002083
  0
VERTEX
  8
PLAN_1
  6
CONTINUOUS
 10
0.163913
 20
-3.998929
  0
VERTEX
  8
PLAN_1
  6
CONTINUOUS
 10
0.173374
 20
-3.996299
  0
VERTEX
  8
PLAN_1
  6
CONTINUOUS
 10
0.183358
 20
-3.995248
  0
VERTEX
  8
PLAN_1
  6
CONTINUOUS
 10
0.193866
 20
-3.994724
  0
VERTEX
  8
PLAN_1
  6
CONTINUOUS
 10
0.203327
 20
-3.994724
  0
VERTEX
  8
PLAN_1
  6
CONTINUOUS
 10
0.211736
 20
-3.995776
  0
VERTEX
  8
PLAN_1
  6
CONTINUOUS
 10
0.220146
 20
-3.997878
  0
VERTEX
  8
PLAN_1
  6
CONTINUOUS
 10
0.227500
 20
-3.999980
  0
VERTEX
  8
PLAN_1
  6
CONTINUOUS
 10
0.234858
 20
-4.003134
  0
VERTEX
  8
PLAN_1
  6
CONTINUOUS
 10
0.241165
 20
-4.006283
  0
VERTEX
  8
PLAN_1
  6
CONTINUOUS
 10
0.247472
 20
-4.010488
  0
VERTEX
  8
PLAN_1
  6
CONTINUOUS
 10
0.252728
 20
-4.014693
  0
VERTEX
  8
PLAN_1
  6
CONTINUOUS
 10
0.257457
 20
-4.019425
  0
VERTEX
  8
PLAN_1
  6
CONTINUOUS
 10
0.261661
 20
-4.024677
  0
VERTEX
  8
PLAN_1
  6
CONTINUOUS
 10
0.265339
 20
-4.029933
  0
VERTEX
  8
PLAN_1
  6
CONTINUOUS
 10
0.268492
 20
-4.035717
  0
VERTEX
  8
PLAN_1
  6
CONTINUOUS
 10
0.271122
 20
-4.041496
  0
VERTEX
  8
PLAN_1
  6
CONTINUOUS
 10
0.273220
 20
-4.047276
  0
VERTEX
  8
PLAN_1
  6
CONTINUOUS
 10
0.274799
 20
-4.053583
  0
VERTEX
  8
PLAN_1
  6
CONTINUOUS
 10
0.275850
 20
-4.059890
  0
VERTEX
  8
PLAN_1
  6
CONTINUOUS
 10
0.249575
 20
-4.059890
  0
SEQEND
  8
0
  0
POLYLINE
  8
PLAN_1
  6
CONTINUOUS
 66
     1
 40
0.003000
 41
0.003000
  0
VERTEX
  8
PLAN_1
  6
CONTINUOUS
 10
0.337335
 20
-4.199154
  0
VERTEX
  8
PLAN_1
  6
CONTINUOUS
 10
0.310008
 20
-4.199154
  0
VERTEX
  8
PLAN_1
  6
CONTINUOUS
 10
0.310008
 20
-3.999980
  0
VERTEX
  8
PLAN_1
  6
CONTINUOUS
 10
0.337335
 20
-3.999980
  0
VERTEX
  8
PLAN_1
  6
CONTINUOUS
 10
0.337335
 20
-4.096677
  0
VERTEX
  8
PLAN_1
  6
CONTINUOUS
 10
0.433508
 20
-3.999980
  0
VERTEX
  8
PLAN_1
  6
CONTINUOUS
 10
0.470819
 20
-3.999980
  0
VERTEX
  8
PLAN_1
  6
CONTINUOUS
 10
0.387787
 20
-4.080386
  0
VERTEX
  8
PLAN_1
  6
CONTINUOUS
 10
0.472921
 20
-4.199154
  0
VERTEX
  8
PLAN_1
  6
CONTINUOUS
 10
0.438236
 20
-4.199154
  0
VERTEX
  8
PLAN_1
  6
CONTINUOUS
 10
0.368343
 20
-4.099303
  0
VERTEX
  8
PLAN_1
  6
CONTINUOUS
 10
0.337335
 20
-4.129260
  0
VERTEX
  8
PLAN_1
  6
CONTINUOUS
 10
0.337335
 20
-4.199154
  0
SEQEND
  8
0
  0
POLYLINE
  8
PLAN_1
  6
CONTINUOUS
 66
     1
 40
0.003000
 41
0.003000
  0
VERTEX
  8
PLAN_1
  6
CONTINUOUS
 10
0.504453
 20
-4.135039
  0
VERTEX
  8
PLAN_1
  6
CONTINUOUS
 10
0.504453
 20
-4.148701
  0
VERTEX
  8
PLAN_1
  6
CONTINUOUS
 10
0.504453
 20
-4.153433
  0
VERTEX
  8
PLAN_1
  6
CONTINUOUS
 10
0.504980
 20
-4.157110
  0
VERTEX
  8
PLAN_1
  6
CONTINUOUS
 10
0.505504
 20
-4.160791
  0
VERTEX
  8
PLAN_1
  6
CONTINUOUS
 10
0.506555
 20
-4.163945
  0
VERTEX
  8
PLAN_1
  6
CONTINUOUS
 10
0.507606
 20
-4.167094
  0
VERTEX
  8
PLAN_1
  6
CONTINUOUS
 10
0.509185
 20
-4.169724
  0
VERTEX
  8
PLAN_1
  6
CONTINUOUS
 10
0.510760
 20
-4.171827
  0
VERTEX
  8
PLAN_1
  6
CONTINUOUS
 10
0.512335
 20
-4.173929
  0
VERTEX
  8
PLAN_1
  6
CONTINUOUS
 10
0.514437
 20
-4.176031
  0
VERTEX
  8
PLAN_1
  6
CONTINUOUS
 10
0.516539
 20
-4.177606
  0
VERTEX
  8
PLAN_1
  6
CONTINUOUS
 10
0.519169
 20
-4.178657
  0
VERTEX
  8
PLAN_1
  6
CONTINUOUS
 10
0.521795
 20
-4.179709
  0
VERTEX
  8
PLAN_1
  6
CONTINUOUS
 10
0.527575
 20
-4.180760
  0
VERTEX
  8
PLAN_1
  6
CONTINUOUS
 10
0.534409
 20
-4.181283
  0
VERTEX
  8
PLAN_1
  6
CONTINUOUS
 10
0.538614
 20
-4.181283
  0
VERTEX
  8
PLAN_1
  6
CONTINUOUS
 10
0.542815
 20
-4.180760
  0
VERTEX
  8
PLAN_1
  6
CONTINUOUS
 10
0.546496
 20
-4.179709
  0
VERTEX
  8
PLAN_1
  6
CONTINUOUS
 10
0.549650
 20
-4.178657
  0
VERTEX
  8
PLAN_1
  6
CONTINUOUS
 10
0.552803
 20
-4.177083
  0
VERTEX
  8
PLAN_1
  6
CONTINUOUS
 10
0.555429
 20
-4.175504
  0
VERTEX
  8
PLAN_1
  6
CONTINUOUS
 10
0.557531
 20
-4.173402
  0
VERTEX
  8
PLAN_1
  6
CONTINUOUS
 10
0.559634
 20
-4.171299
  0
VERTEX
  8
PLAN_1
  6
CONTINUOUS
 10
0.561209
 20
-4.169197
  0
VERTEX
  8
PLAN_1
  6
CONTINUOUS
 10
0.562787
 20
-4.166571
  0
VERTEX
  8
PLAN_1
  6
CONTINUOUS
 10
0.563839
 20
-4.163417
  0
VERTEX
  8
PLAN_1
  6
CONTINUOUS
 10
0.564890
 20
-4.160791
  0
VERTEX
  8
PLAN_1
  6
CONTINUOUS
 10
0.565941
 20
-4.153957
  0
VERTEX
  8
PLAN_1
  6
CONTINUOUS
 10
0.566465
 20
-4.147126
  0
VERTEX
  8
PLAN_1
  6
CONTINUOUS
 10
0.566465
 20
-3.999980
  0
VERTEX
  8
PLAN_1
  6
CONTINUOUS
 10
0.593268
 20
-3.999980
  0
VERTEX
  8
PLAN_1
  6
CONTINUOUS
 10
0.593268
 20
-4.145551
  0
VERTEX
  8
PLAN_1
  6
CONTINUOUS
 10
0.592740
 20
-4.153433
  0
VERTEX
  8
PLAN_1
  6
CONTINUOUS
 10
0.591689
 20
-4.161315
  0
VERTEX
  8
PLAN_1
  6
CONTINUOUS
 10
0.590114
 20
-4.168146
  0
VERTEX
  8
PLAN_1
  6
CONTINUOUS
 10
0.588012
 20
-4.174453
  0
VERTEX
  8
PLAN_1
  6
CONTINUOUS
 10
0.585386
 20
-4.179709
  0
VERTEX
  8
PLAN_1
  6
CONTINUOUS
 10
0.582232
 20
-4.184437
  0
VERTEX
  8
PLAN_1
  6
CONTINUOUS
 10
0.578551
 20
-4.188642
  0
VERTEX
  8
PLAN_1
  6
CONTINUOUS
 10
0.574346
 20
-4.192323
  0
VERTEX
  8
PLAN_1
  6
CONTINUOUS
 10
0.570146
 20
-4.195476
  0
VERTEX
  8
PLAN_1
  6
CONTINUOUS
 10
0.565941
 20
-4.198102
  0
VERTEX
  8
PLAN_1
  6
CONTINUOUS
 10
0.561209
 20
-4.200205
  0
VERTEX
  8
PLAN_1
  6
CONTINUOUS
 10
0.555957
 20
-4.201780
  0
VERTEX
  8
PLAN_1
  6
CONTINUOUS
 10
0.551224
 20
-4.202831
  0
VERTEX
  8
PLAN_1
  6
CONTINUOUS
 10
0.545969
 20
-4.203882
  0
VERTEX
  8
PLAN_1
  6
CONTINUOUS
 10
0.540717
 20
-4.204409
  0
VERTEX
  8
PLAN_1
  6
CONTINUOUS
 10
0.535461
 20
-4.204409
  0
VERTEX
  8
PLAN_1
  6
CONTINUOUS
 10
0.527575
 20
-4.203882
  0
VERTEX
  8
PLAN_1
  6
CONTINUOUS
 10
0.520220
 20
-4.202831
  0
VERTEX
  8
PLAN_1
  6
CONTINUOUS
 10
0.513386
 20
-4.201256
  0
VERTEX
  8
PLAN_1
  6
CONTINUOUS
 10
0.507083
 20
-4.199154
  0
VERTEX
  8
PLAN_1
  6
CONTINUOUS
 10
0.501827
 20
-4.196524
  0
VERTEX
  8
PLAN_1
  6
CONTINUOUS
 10
0.497622
 20
-4.193374
  0
VERTEX
  8
PLAN_1
  6
CONTINUOUS
 10
0.493417
 20
-4.190220
  0
VERTEX
  8
PLAN_1
  6
CONTINUOUS
 10
0.490264
 20
-4.186539
  0
VERTEX
  8
PLAN_1
  6
CONTINUOUS
 10
0.487110
 20
-4.182862
  0
VERTEX
  8
PLAN_1
  6
CONTINUOUS
 10
0.485008
 20
-4.178657
  0
VERTEX
  8
PLAN_1
  6
CONTINUOUS
 10
0.482906
 20
-4.174453
  0
VERTEX
  8
PLAN_1
  6
CONTINUOUS
 10
0.481331
 20
-4.170248
  0
VERTEX
  8
PLAN_1
  6
CONTINUOUS
 10
0.480280
 20
-4.166043
  0
VERTEX
  8
PLAN_1
  6
CONTINUOUS
 10
0.479752
 20
-4.162366
  0
VERTEX
  8
PLAN_1
  6
CONTINUOUS
 10
0.479228
 20
-4.158161
  0
VERTEX
  8
PLAN_1
  6
CONTINUOUS
 10
0.479228
 20
-4.154484
  0
VERTEX
  8
PLAN_1
  6
CONTINUOUS
 10
0.479228
 20
-4.135039
  0
VERTEX
  8
PLAN_1
  6
CONTINUOUS
 10
0.504453
 20
-4.135039
  0
SEQEND
  8
0
  0
POLYLINE
  8
PLAN_1
  6
CONTINUOUS
 66
     1
 40
0.003000
 41
0.003000
  0
VERTEX
  8
PLAN_1
  6
CONTINUOUS
 10
0.797169
 20
-4.044650
  0
VERTEX
  8
PLAN_1
  6
CONTINUOUS
 10
0.816091
 20
-4.044650
  0
VERTEX
  8
PLAN_1
  6
CONTINUOUS
 10
0.811886
 20
-4.059362
  0
VERTEX
  8
PLAN_1
  6
CONTINUOUS
 10
0.807681
 20
-4.074079
  0
VERTEX
  8
PLAN_1
  6
CONTINUOUS
 10
0.803476
 20
-4.088791
  0
VERTEX
  8
PLAN_1
  6
CONTINUOUS
 10
0.799272
 20
-4.101929
  0
VERTEX
  8
PLAN_1
  6
CONTINUOUS
 10
0.796122
 20
-4.113492
  0
VERTEX
  8
PLAN_1
  6
CONTINUOUS
 10
0.793492
 20
-4.123476
  0
VERTEX
  8
PLAN_1
  6
CONTINUOUS
 10
0.791390
 20
-4.130835
  0
VERTEX
  8
PLAN_1
  6
CONTINUOUS
 10
0.790866
 20
-4.135039
  0
VERTEX
  8
PLAN_1
  6
CONTINUOUS
 10
0.790866
 20
-4.137142
  0
VERTEX
  8
PLAN_1
  6
CONTINUOUS
 10
0.791390
 20
-4.138717
  0
VERTEX
  8
PLAN_1
  6
CONTINUOUS
 10
0.791390
 20
-4.140295
  0
VERTEX
  8
PLAN_1
  6
CONTINUOUS
 10
0.791917
 20
-4.141346
  0
VERTEX
  8
PLAN_1
  6
CONTINUOUS
 10
0.792969
 20
-4.142398
  0
VERTEX
  8
PLAN_1
  6
CONTINUOUS
 10
0.794020
 20
-4.142921
  0
VERTEX
  8
PLAN_1
  6
CONTINUOUS
 10
0.795071
 20
-4.143449
  0
VERTEX
  8
PLAN_1
  6
CONTINUOUS
 10
0.796646
 20
-4.143449
  0
VERTEX
  8
PLAN_1
  6
CONTINUOUS
 10
0.800323
 20
-4.142921
  0
VERTEX
  8
PLAN_1
  6
CONTINUOUS
 10
0.804004
 20
-4.141870
  0
VERTEX
  8
PLAN_1
  6
CONTINUOUS
 10
0.807157
 20
-4.140295
  0
VERTEX
  8
PLAN_1
  6
CONTINUOUS
 10
0.810835
 20
-4.138193
  0
VERTEX
  8
PLAN_1
  6
CONTINUOUS
 10
0.813988
 20
-4.135563
  0
VERTEX
  8
PLAN_1
  6
CONTINUOUS
 10
0.817665
 20
-4.132409
  0
VERTEX
  8
PLAN_1
  6
CONTINUOUS
 10
0.820819
 20
-4.128732
  0
VERTEX
  8
PLAN_1
  6
CONTINUOUS
 10
0.823449
 20
-4.124528
  0
VERTEX
  8
PLAN_1
  6
CONTINUOUS
 10
0.826075
 20
-4.120323
  0
VERTEX
  8
PLAN_1
  6
CONTINUOUS
 10
0.828701
 20
-4.115594
  0
VERTEX
  8
PLAN_1
  6
CONTINUOUS
 10
0.830803
 20
-4.110339
  0
VERTEX
  8
PLAN_1
  6
CONTINUOUS
 10
0.832382
 20
-4.105083
  0
VERTEX
  8
PLAN_1
  6
CONTINUOUS
 10
0.833957
 20
-4.099831
  0
VERTEX
  8
PLAN_1
  6
CONTINUOUS
 10
0.835008
 20
-4.094575
  0
VERTEX
  8
PLAN_1
  6
CONTINUOUS
 10
0.836059
 20
-4.088791
  0
VERTEX
  8
PLAN_1
  6
CONTINUOUS
 10
0.836059
 20
-4.083539
  0
VERTEX
  8
PLAN_1
  6
CONTINUOUS
 10
0.835535
 20
-4.075130
  0
VERTEX
  8
PLAN_1
  6
CONTINUOUS
 10
0.834484
 20
-4.067772
  0
VERTEX
  8
PLAN_1
  6
CONTINUOUS
 10
0.832382
 20
-4.060413
  0
VERTEX
  8
PLAN_1
  6
CONTINUOUS
 10
0.829752
 20
-4.053583
  0
VERTEX
  8
PLAN_1
  6
CONTINUOUS
 10
0.826602
 20
-4.047276
  0
VERTEX
  8
PLAN_1
  6
CONTINUOUS
 10
0.822398
 20
-4.040969
  0
VERTEX
  8
PLAN_1
  6
CONTINUOUS
 10
0.818193
 20
-4.035717
  0
VERTEX
  8
PLAN_1
  6
CONTINUOUS
 10
0.812937
 20
-4.030984
  0
VERTEX
  8
PLAN_1
  6
CONTINUOUS
 10
0.807681
 20
-4.026780
  0
VERTEX
  8
PLAN_1
  6
CONTINUOUS
 10
0.801374
 20
-4.022575
  0
VERTEX
  8
PLAN_1
  6
CONTINUOUS
 10
0.795071
 20
-4.019425
  0
VERTEX
  8
PLAN_1
  6
CONTINUOUS
 10
0.788236
 20
-4.016795
  0
VERTEX
  8
PLAN_1
  6
CONTINUOUS
 10
0.781406
 20
-4.014693
  0
VERTEX
  8
PLAN_1
  6
CONTINUOUS
 10
0.774047
 20
-4.013118
  0
VERTEX
  8
PLAN_1
  6
CONTINUOUS
 10
0.766689
 20
-4.012067
  0
VERTEX
  8
PLAN_1
  6
CONTINUOUS
 10
0.758807
 20
-4.011539
  0
VERTEX
  8
PLAN_1
  6
CONTINUOUS
 10
0.749346
 20
-4.012067
  0
VERTEX
  8
PLAN_1
  6
CONTINUOUS
 10
0.740941
 20
-4.013642
  0
VERTEX
  8
PLAN_1
  6
CONTINUOUS
 10
0.732531
 20
-4.015744
  0
VERTEX
  8
PLAN_1
  6
CONTINUOUS
 10
0.724650
 20
-4.018898
  0
VERTEX
  8
PLAN_1
  6
CONTINUOUS
 10
0.717291
 20
-4.022575
  0
VERTEX
  8
PLAN_1
  6
CONTINUOUS
 10
0.710461
 20
-4.026780
  0
VERTEX
  8
PLAN_1
  6
CONTINUOUS
 10
0.703626
 20
-4.032035
  0
VERTEX
  8
PLAN_1
  6
CONTINUOUS
 10
0.697846
 20
-4.037815
  0
VERTEX
  8
PLAN_1
  6
CONTINUOUS
 10
0.692591
 20
-4.044122
  0
VERTEX
  8
PLAN_1
  6
CONTINUOUS
 10
0.687862
 20
-4.050957
  0
VERTEX
  8
PLAN_1
  6
CONTINUOUS
 10
0.683657
 20
-4.058311
  0
VERTEX
  8
PLAN_1
  6
CONTINUOUS
 10
0.680504
 20
-4.066197
  0
VERTEX
  8
PLAN_1
  6
CONTINUOUS
 10
0.677878
 20
-4.074079
  0
VERTEX
  8
PLAN_1
  6
CONTINUOUS
 10
0.675776
 20
-4.082488
  0
VERTEX
  8
PLAN_1
  6
CONTINUOUS
 10
0.674724
 20
-4.091421
  0
VERTEX
  8
PLAN_1
  6
CONTINUOUS
 10
0.674197
 20
-4.100354
  0
VERTEX
  8
PLAN_1
  6
CONTINUOUS
 10
0.674724
 20
-4.109815
  0
VERTEX
  8
PLAN_1
  6
CONTINUOUS
 10
0.675776
 20
-4.118220
  0
VERTEX
  8
PLAN_1
  6
CONTINUOUS
 10
0.677878
 20
-4.126630
  0
VERTEX
  8
PLAN_1
  6
CONTINUOUS
 10
0.681031
 20
-4.135039
  0
VERTEX
  8
PLAN_1
  6
CONTINUOUS
 10
0.684709
 20
-4.142398
  0
VERTEX
  8
PLAN_1
  6
CONTINUOUS
 10
0.688913
 20
-4.149752
  0
VERTEX
  8
PLAN_1
  6
CONTINUOUS
 10
0.693642
 20
-4.156059
  0
VERTEX
  8
PLAN_1
  6
CONTINUOUS
 10
0.699425
 20
-4.162366
  0
VERTEX
  8
PLAN_1
  6
CONTINUOUS
 10
0.705205
 20
-4.167622
  0
VERTEX
  8
PLAN_1
  6
CONTINUOUS
 10
0.712035
 20
-4.172878
  0
VERTEX
  8
PLAN_1
  6
CONTINUOUS
 10
0.718866
 20
-4.177083
  0
VERTEX
  8
PLAN_1
  6
CONTINUOUS
 10
0.726752
 20
-4.180760
  0
VERTEX
  8
PLAN_1
  6
CONTINUOUS
 10
0.734634
 20
-4.183386
  0
VERTEX
  8
PLAN_1
  6
CONTINUOUS
 10
0.743043
 20
-4.185488
  0
VERTEX
  8
PLAN_1
  6
CONTINUOUS
 10
0.751449
 20
-4.186539
  0
VERTEX
  8
PLAN_1
  6
CONTINUOUS
 10
0.760386
 20
-4.187067
  0
VERTEX
  8
PLAN_1
  6
CONTINUOUS
 10
0.765638
 20
-4.187067
  0
VERTEX
  8
PLAN_1
  6
CONTINUOUS
 10
0.770370
 20
-4.186539
  0
VERTEX
  8
PLAN_1
  6
CONTINUOUS
 10
0.775098
 20
-4.186016
  0
VERTEX
  8
PLAN_1
  6
CONTINUOUS
 10
0.779831
 20
-4.184965
  0
VERTEX
  8
PLAN_1
  6
CONTINUOUS
 10
0.789287
 20
-4.182335
  0
VERTEX
  8
PLAN_1
  6
CONTINUOUS
 10
0.798220
 20
-4.178657
  0
VERTEX
  8
PLAN_1
  6
CONTINUOUS
 10
0.806630
 20
-4.173929
  0
VERTEX
  8
PLAN_1
  6
CONTINUOUS
 10
0.814512
 20
-4.168673
  0
VERTEX
  8
PLAN_1
  6
CONTINUOUS
 10
0.818193
 20
-4.165520
  0
VERTEX
  8
PLAN_1
  6
CONTINUOUS
 10
0.821870
 20
-4.162366
  0
VERTEX
  8
PLAN_1
  6
CONTINUOUS
 10
0.825024
 20
-4.159213
  0
VERTEX
  8
PLAN_1
  6
CONTINUOUS
 10
0.828177
 20
-4.155535
  0
VERTEX
  8
PLAN_1
  6
CONTINUOUS
 10
0.846571
 20
-4.155535
  0
VERTEX
  8
PLAN_1
  6
CONTINUOUS
 10
0.842894
 20
-4.161315
  0
VERTEX
  8
PLAN_1
  6
CONTINUOUS
 10
0.839213
 20
-4.166571
  0
VERTEX
  8
PLAN_1
  6
CONTINUOUS
 10
0.835008
 20
-4.171299
  0
VERTEX
  8
PLAN_1
  6
CONTINUOUS
 10
0.830280
 20
-4.176031
  0
VERTEX
  8
PLAN_1
  6
CONTINUOUS
 10
0.825551
 20
-4.180232
  0
VERTEX
  8
PLAN_1
  6
CONTINUOUS
 10
0.820819
 20
-4.184437
  0
VERTEX
  8
PLAN_1
  6
CONTINUOUS
 10
0.815563
 20
-4.188118
  0
VERTEX
  8
PLAN_1
  6
CONTINUOUS
 10
0.809783
 20
-4.191272
  0
VERTEX
  8
PLAN_1
  6
CONTINUOUS
 10
0.804004
 20
-4.194425
  0
VERTEX
  8
PLAN_1
  6
CONTINUOUS
 10
0.798220
 20
-4.197051
  0
VERTEX
  8
PLAN_1
  6
CONTINUOUS
 10
0.792441
 20
-4.199154
  0
VERTEX
  8
PLAN_1
  6
CONTINUOUS
 10
0.786134
 20
-4.201256
  0
VERTEX
  8
PLAN_1
  6
CONTINUOUS
 10
0.779831
 20
-4.202307
  0
VERTEX
  8
PLAN_1
  6
CONTINUOUS
 10
0.772996
 20
-4.203358
  0
VERTEX
  8
PLAN_1
  6
CONTINUOUS
 10
0.766689
 20
-4.204409
  0
VERTEX
  8
PLAN_1
  6
CONTINUOUS
 10
0.759858
 20
-4.204409
  0
VERTEX
  8
PLAN_1
  6
CONTINUOUS
 10
0.754602
 20
-4.204409
  0
VERTEX
  8
PLAN_1
  6
CONTINUOUS
 10
0.748823
 20
-4.203882
  0
VERTEX
  8
PLAN_1
  6
CONTINUOUS
 10
0.743567
 20
-4.203358
  0
VERTEX
  8
PLAN_1
  6
CONTINUOUS
 10
0.738311
 20
-4.202307
  0
VERTEX
  8
PLAN_1
  6
CONTINUOUS
 10
0.728327
 20
-4.199677
  0
VERTEX
  8
PLAN_1
  6
CONTINUOUS
 10
0.718343
 20
-4.196000
  0
VERTEX
  8
PLAN_1
  6
CONTINUOUS
 10
0.708882
 20
-4.191795
  0
VERTEX
  8
PLAN_1
  6
CONTINUOUS
 10
0.700476
 20
-4.186539
  0
VERTEX
  8
PLAN_1
  6
CONTINUOUS
 10
0.692067
 20
-4.180760
  0
VERTEX
  8
PLAN_1
  6
CONTINUOUS
 10
0.684709
 20
-4.173929
  0
VERTEX
  8
PLAN_1
  6
CONTINUOUS
 10
0.677878
 20
-4.166571
  0
VERTEX
  8
PLAN_1
  6
CONTINUOUS
 10
0.672094
 20
-4.158161
  0
VERTEX
  8
PLAN_1
  6
CONTINUOUS
 10
0.666843
 20
-4.149752
  0
VERTEX
  8
PLAN_1
  6
CONTINUOUS
 10
0.662110
 20
-4.140295
  0
VERTEX
  8
PLAN_1
  6
CONTINUOUS
 10
0.658957
 20
-4.130835
  0
VERTEX
  8
PLAN_1
  6
CONTINUOUS
 10
0.656331
 20
-4.120323
  0
VERTEX
  8
PLAN_1
  6
CONTINUOUS
 10
0.655280
 20
-4.115071
  0
VERTEX
  8
PLAN_1
  6
CONTINUOUS
 10
0.654752
 20
-4.109815
  0
VERTEX
  8
PLAN_1
  6
CONTINUOUS
 10
0.654228
 20
-4.104559
  0
VERTEX
  8
PLAN_1
  6
CONTINUOUS
 10
0.654228
 20
-4.098780
  0
VERTEX
  8
PLAN_1
  6
CONTINUOUS
 10
0.654228
 20
-4.093524
  0
VERTEX
  8
PLAN_1
  6
CONTINUOUS
 10
0.654752
 20
-4.088268
  0
VERTEX
  8
PLAN_1
  6
CONTINUOUS
 10
0.655280
 20
-4.083012
  0
VERTEX
  8
PLAN_1
  6
CONTINUOUS
 10
0.656331
 20
-4.077756
  0
VERTEX
  8
PLAN_1
  6
CONTINUOUS
 10
0.658957
 20
-4.067772
  0
VERTEX
  8
PLAN_1
  6
CONTINUOUS
 10
0.662110
 20
-4.058311
  0
VERTEX
  8
PLAN_1
  6
CONTINUOUS
 10
0.666843
 20
-4.048854
  0
VERTEX
  8
PLAN_1
  6
CONTINUOUS
 10
0.672094
 20
-4.040445
  0
VERTEX
  8
PLAN_1
  6
CONTINUOUS
 10
0.677878
 20
-4.032563
  0
VERTEX
  8
PLAN_1
  6
CONTINUOUS
 10
0.684709
 20
-4.025205
  0
VERTEX
  8
PLAN_1
  6
CONTINUOUS
 10
0.692591
 20
-4.018374
  0
VERTEX
  8
PLAN_1
  6
CONTINUOUS
 10
0.700476
 20
-4.012067
  0
VERTEX
  8
PLAN_1
  6
CONTINUOUS
 10
0.708882
 20
-4.007335
  0
VERTEX
  8
PLAN_1
  6
CONTINUOUS
 10
0.718343
 20
-4.002606
  0
VERTEX
  8
PLAN_1
  6
CONTINUOUS
 10
0.727803
 20
-3.999453
  0
VERTEX
  8
PLAN_1
  6
CONTINUOUS
 10
0.737787
 20
-3.996827
  0
VERTEX
  8
PLAN_1
  6
CONTINUOUS
 10
0.743043
 20
-3.995776
  0
VERTEX
  8
PLAN_1
  6
CONTINUOUS
 10
0.748299
 20
-3.995248
  0
VERTEX
  8
PLAN_1
  6
CONTINUOUS
 10
0.753551
 20
-3.994724
  0
VERTEX
  8
PLAN_1
  6
CONTINUOUS
 10
0.758807
 20
-3.994724
  0
VERTEX
  8
PLAN_1
  6
CONTINUOUS
 10
0.768268
 20
-3.995248
  0
VERTEX
  8
PLAN_1
  6
CONTINUOUS
 10
0.777728
 20
-3.996299
  0
VERTEX
  8
PLAN_1
  6
CONTINUOUS
 10
0.786661
 20
-3.998402
  0
VERTEX
  8
PLAN_1
  6
CONTINUOUS
 10
0.795071
 20
-4.001031
  0
VERTEX
  8
PLAN_1
  6
CONTINUOUS
 10
0.803476
 20
-4.004709
  0
VERTEX
  8
PLAN_1
  6
CONTINUOUS
 10
0.811362
 20
-4.008913
  0
VERTEX
  8
PLAN_1
  6
CONTINUOUS
 10
0.818717
 20
-4.013642
  0
VERTEX
  8
PLAN_1
  6
CONTINUOUS
 10
0.825551
 20
-4.018898
  0
VERTEX
  8
PLAN_1
  6
CONTINUOUS
 10
0.831854
 20
-4.025205
  0
VERTEX
  8
PLAN_1
  6
CONTINUOUS
 10
0.837638
 20
-4.031512
  0
VERTEX
  8
PLAN_1
  6
CONTINUOUS
 10
0.842366
 20
-4.038866
  0
VERTEX
  8
PLAN_1
  6
CONTINUOUS
 10
0.846571
 20
-4.046224
  0
VERTEX
  8
PLAN_1
  6
CONTINUOUS
 10
0.849724
 20
-4.054634
  0
VERTEX
  8
PLAN_1
  6
CONTINUOUS
 10
0.852350
 20
-4.063043
  0
VERTEX
  8
PLAN_1
  6
CONTINUOUS
 10
0.853402
 20
-4.071976
  0
VERTEX
  8
PLAN_1
  6
CONTINUOUS
 10
0.853929
 20
-4.081437
  0
VERTEX
  8
PLAN_1
  6
CONTINUOUS
 10
0.853929
 20
-4.090370
  0
VERTEX
  8
PLAN_1
  6
CONTINUOUS
 10
0.852350
 20
-4.099303
  0
VERTEX
  8
PLAN_1
  6
CONTINUOUS
 10
0.850248
 20
-4.107185
  0
VERTEX
  8
PLAN_1
  6
CONTINUOUS
 10
0.847094
 20
-4.115071
  0
VERTEX
  8
PLAN_1
  6
CONTINUOUS
 10
0.843945
 20
-4.121902
  0
VERTEX
  8
PLAN_1
  6
CONTINUOUS
 10
0.839740
 20
-4.128732
  0
VERTEX
  8
PLAN_1
  6
CONTINUOUS
 10
0.835008
 20
-4.134512
  0
VERTEX
  8
PLAN_1
  6
CONTINUOUS
 10
0.830280
 20
-4.140295
  0
VERTEX
  8
PLAN_1
  6
CONTINUOUS
 10
0.825024
 20
-4.145024
  0
VERTEX
  8
PLAN_1
  6
CONTINUOUS
 10
0.819768
 20
-4.149228
  0
VERTEX
  8
PLAN_1
  6
CONTINUOUS
 10
0.813988
 20
-4.152906
  0
VERTEX
  8
PLAN_1
  6
CONTINUOUS
 10
0.808732
 20
-4.156059
  0
VERTEX
  8
PLAN_1
  6
CONTINUOUS
 10
0.802953
 20
-4.158161
  0
VERTEX
  8
PLAN_1
  6
CONTINUOUS
 10
0.797697
 20
-4.160264
  0
VERTEX
  8
PLAN_1
  6
CONTINUOUS
 10
0.792441
 20
-4.160791
  0
VERTEX
  8
PLAN_1
  6
CONTINUOUS
 10
0.787713
 20
-4.161315
  0
VERTEX
  8
PLAN_1
  6
CONTINUOUS
 10
0.784559
 20
-4.161315
  0
VERTEX
  8
PLAN_1
  6
CONTINUOUS
 10
0.780878
 20
-4.160264
  0
VERTEX
  8
PLAN_1
  6
CONTINUOUS
 10
0.778252
 20
-4.159213
  0
VERTEX
  8
PLAN_1
  6
CONTINUOUS
 10
0.775626
 20
-4.157110
  0
VERTEX
  8
PLAN_1
  6
CONTINUOUS
 10
0.773524
 20
-4.154484
  0
VERTEX
  8
PLAN_1
  6
CONTINUOUS
 10
0.771945
 20
-4.151854
  0
VERTEX
  8
PLAN_1
  6
CONTINUOUS
 10
0.770370
 20
-4.148177
  0
VERTEX
  8
PLAN_1
  6
CONTINUOUS
 10
0.769843
 20
-4.143972
  0
VERTEX
  8
PLAN_1
  6
CONTINUOUS
 10
0.769319
 20
-4.143972
  0
VERTEX
  8
PLAN_1
  6
CONTINUOUS
 10
0.766165
 20
-4.147654
  0
VERTEX
  8
PLAN_1
  6
CONTINUOUS
 10
0.762488
 20
-4.150280
  0
VERTEX
  8
PLAN_1
  6
CONTINUOUS
 10
0.758807
 20
-4.153433
  0
VERTEX
  8
PLAN_1
  6
CONTINUOUS
 10
0.754602
 20
-4.156059
  0
VERTEX
  8
PLAN_1
  6
CONTINUOUS
 10
0.750398
 20
-4.158161
  0
VERTEX
  8
PLAN_1
  6
CONTINUOUS
 10
0.745669
 20
-4.159740
  0
VERTEX
  8
PLAN_1
  6
CONTINUOUS
 10
0.740941
 20
-4.160791
  0
VERTEX
  8
PLAN_1
  6
CONTINUOUS
 10
0.736209
 20
-4.161315
  0
VERTEX
  8
PLAN_1
  6
CONTINUOUS
 10
0.732008
 20
-4.161315
  0
VERTEX
  8
PLAN_1
  6
CONTINUOUS
 10
0.727803
 20
-4.160264
  0
VERTEX
  8
PLAN_1
  6
CONTINUOUS
 10
0.723598
 20
-4.159213
  0
VERTEX
  8
PLAN_1
  6
CONTINUOUS
 10
0.719917
 20
-4.157638
  0
VERTEX
  8
PLAN_1
  6
CONTINUOUS
 10
0.716240
 20
-4.156059
  0
VERTEX
  8
PLAN_1
  6
CONTINUOUS
 10
0.712563
 20
-4.153957
  0
VERTEX
  8
PLAN_1
  6
CONTINUOUS
 10
0.709933
 20
-4.151331
  0
VERTEX
  8
PLAN_1
  6
CONTINUOUS
 10
0.706780
 20
-4.148177
  0
VERTEX
  8
PLAN_1
  6
CONTINUOUS
 10
0.704154
 20
-4.145024
  0
VERTEX
  8
PLAN_1
  6
CONTINUOUS
 10
0.702051
 20
-4.141870
  0
VERTEX
  8
PLAN_1
  6
CONTINUOUS
 10
0.699949
 20
-4.138193
  0
VERTEX
  8
PLAN_1
  6
CONTINUOUS
 10
0.698374
 20
-4.133988
  0
VERTEX
  8
PLAN_1
  6
CONTINUOUS
 10
0.697323
 20
-4.130311
  0
VERTEX
  8
PLAN_1
  6
CONTINUOUS
 10
0.696272
 20
-4.125579
  0
VERTEX
  8
PLAN_1
  6
CONTINUOUS
 10
0.695744
 20
-4.121374
  0
VERTEX
  8
PLAN_1
  6
CONTINUOUS
 10
0.695220
 20
-4.117169
  0
VERTEX
  8
PLAN_1
  6
CONTINUOUS
 10
0.695744
 20
-4.109815
  0
VERTEX
  8
PLAN_1
  6
CONTINUOUS
 10
0.696795
 20
-4.102980
  0
VERTEX
  8
PLAN_1
  6
CONTINUOUS
 10
0.697846
 20
-4.096150
  0
VERTEX
  8
PLAN_1
  6
CONTINUOUS
 10
0.699949
 20
-4.089319
  0
VERTEX
  8
PLAN_1
  6
CONTINUOUS
 10
0.702575
 20
-4.082488
  0
VERTEX
  8
PLAN_1
  6
CONTINUOUS
 10
0.705728
 20
-4.076181
  0
VERTEX
  8
PLAN_1
  6
CONTINUOUS
 10
0.708882
 20
-4.070398
  0
VERTEX
  8
PLAN_1
  6
CONTINUOUS
 10
0.713087
 20
-4.064618
  0
VERTEX
  8
PLAN_1
  6
CONTINUOUS
 10
0.717291
 20
-4.059362
  0
VERTEX
  8
PLAN_1
  6
CONTINUOUS
 10
0.722020
 20
-4.054634
  0
VERTEX
  8
PLAN_1
  6
CONTINUOUS
 10
0.727276
 20
-4.050429
  0
VERTEX
  8
PLAN_1
  6
CONTINUOUS
 10
0.733055
 20
-4.047276
  0
VERTEX
  8
PLAN_1
  6
CONTINUOUS
 10
0.739362
 20
-4.044122
  0
VERTEX
  8
PLAN_1
  6
CONTINUOUS
 10
0.745669
 20
-4.042020
  0
VERTEX
  8
PLAN_1
  6
CONTINUOUS
 10
0.752500
 20
-4.040969
  0
VERTEX
  8
PLAN_1
  6
CONTINUOUS
 10
0.759335
 20
-4.040445
  0
VERTEX
  8
PLAN_1
  6
CONTINUOUS
 10
0.764591
 20
-4.040445
  0
VERTEX
  8
PLAN_1
  6
CONTINUOUS
 10
0.769319
 20
-4.041496
  0
VERTEX
  8
PLAN_1
  6
CONTINUOUS
 10
0.773524
 20
-4.043071
  0
VERTEX
  8
PLAN_1
  6
CONTINUOUS
 10
0.777728
 20
-4.045173
  0
VERTEX
  8
PLAN_1
  6
CONTINUOUS
 10
0.781406
 20
-4.048327
  0
VERTEX
  8
PLAN_1
  6
CONTINUOUS
 10
0.785083
 20
-4.052008
  0
VERTEX
  8
PLAN_1
  6
CONTINUOUS
 10
0.788764
 20
-4.056736
  0
VERTEX
  8
PLAN_1
  6
CONTINUOUS
 10
0.791390
 20
-4.061992
  0
VERTEX
  8
PLAN_1
  6
CONTINUOUS
 10
0.797169
 20
-4.044650
  0
SEQEND
  8
0
  0
POLYLINE
  8
PLAN_1
  6
CONTINUOUS
 66
     1
 40
0.003000
 41
0.003000
  0
VERTEX
  8
PLAN_1
  6
CONTINUOUS
 10
0.759858
 20
-4.060413
  0
VERTEX
  8
PLAN_1
  6
CONTINUOUS
 10
0.755654
 20
-4.060941
  0
VERTEX
  8
PLAN_1
  6
CONTINUOUS
 10
0.750925
 20
-4.061992
  0
VERTEX
  8
PLAN_1
  6
CONTINUOUS
 10
0.747248
 20
-4.063567
  0
VERTEX
  8
PLAN_1
  6
CONTINUOUS
 10
0.743043
 20
-4.065669
  0
VERTEX
  8
PLAN_1
  6
CONTINUOUS
 10
0.739362
 20
-4.068299
  0
VERTEX
  8
PLAN_1
  6
CONTINUOUS
 10
0.735685
 20
-4.071449
  0
VERTEX
  8
PLAN_1
  6
CONTINUOUS
 10
0.732531
 20
-4.075130
  0
VERTEX
  8
PLAN_1
  6
CONTINUOUS
 10
0.729906
 20
-4.078807
  0
VERTEX
  8
PLAN_1
  6
CONTINUOUS
 10
0.727276
 20
-4.083012
  0
VERTEX
  8
PLAN_1
  6
CONTINUOUS
 10
0.724650
 20
-4.087217
  0
VERTEX
  8
PLAN_1
  6
CONTINUOUS
 10
0.723071
 20
-4.091945
  0
VERTEX
  8
PLAN_1
  6
CONTINUOUS
 10
0.720969
 20
-4.096150
  0
VERTEX
  8
PLAN_1
  6
CONTINUOUS
 10
0.719917
 20
-4.100878
  0
VERTEX
  8
PLAN_1
  6
CONTINUOUS
 10
0.718866
 20
-4.105610
  0
VERTEX
  8
PLAN_1
  6
CONTINUOUS
 10
0.718343
 20
-4.110339
  0
VERTEX
  8
PLAN_1
  6
CONTINUOUS
 10
0.718343
 20
-4.114543
  0
VERTEX
  8
PLAN_1
  6
CONTINUOUS
 10
0.718343
 20
-4.120323
  0
VERTEX
  8
PLAN_1
  6
CONTINUOUS
 10
0.719917
 20
-4.125579
  0
VERTEX
  8
PLAN_1
  6
CONTINUOUS
 10
0.722020
 20
-4.129783
  0
VERTEX
  8
PLAN_1
  6
CONTINUOUS
 10
0.724650
 20
-4.133988
  0
VERTEX
  8
PLAN_1
  6
CONTINUOUS
 10
0.727803
 20
-4.137142
  0
VERTEX
  8
PLAN_1
  6
CONTINUOUS
 10
0.732008
 20
-4.139244
  0
VERTEX
  8
PLAN_1
  6
CONTINUOUS
 10
0.736736
 20
-4.140819
  0
VERTEX
  8
PLAN_1
  6
CONTINUOUS
 10
0.741465
 20
-4.141346
  0
VERTEX
  8
PLAN_1
  6
CONTINUOUS
 10
0.745669
 20
-4.140819
  0
VERTEX
  8
PLAN_1
  6
CONTINUOUS
 10
0.749874
 20
-4.139768
  0
VERTEX
  8
PLAN_1
  6
CONTINUOUS
 10
0.754079
 20
-4.138193
  0
VERTEX
  8
PLAN_1
  6
CONTINUOUS
 10
0.757756
 20
-4.136091
  0
VERTEX
  8
PLAN_1
  6
CONTINUOUS
 10
0.761437
 20
-4.132937
  0
VERTEX
  8
PLAN_1
  6
CONTINUOUS
 10
0.765114
 20
-4.129783
  0
VERTEX
  8
PLAN_1
  6
CONTINUOUS
 10
0.768268
 20
-4.126106
  0
VERTEX
  8
PLAN_1
  6
CONTINUOUS
 10
0.770894
 20
-4.121902
  0
VERTEX
  8
PLAN_1
  6
CONTINUOUS
 10
0.773524
 20
-4.117697
  0
VERTEX
  8
PLAN_1
  6
CONTINUOUS
 10
0.776150
 20
-4.112969
  0
VERTEX
  8
PLAN_1
  6
CONTINUOUS
 10
0.777728
 20
-4.108764
  0
VERTEX
  8
PLAN_1
  6
CONTINUOUS
 10
0.779831
 20
-4.104031
  0
VERTEX
  8
PLAN_1
  6
CONTINUOUS
 10
0.780878
 20
-4.099303
  0
VERTEX
  8
PLAN_1
  6
CONTINUOUS
 10
0.781929
 20
-4.094575
  0
VERTEX
  8
PLAN_1
  6
CONTINUOUS
 10
0.782457
 20
-4.090370
  0
VERTEX
  8
PLAN_1
  6
CONTINUOUS
 10
0.782980
 20
-4.085638
  0
VERTEX
  8
PLAN_1
  6
CONTINUOUS
 10
0.782457
 20
-4.080909
  0
VERTEX
  8
PLAN_1
  6
CONTINUOUS
 10
0.780878
 20
-4.076181
  0
VERTEX
  8
PLAN_1
  6
CONTINUOUS
 10
0.778780
 20
-4.071976
  0
VERTEX
  8
PLAN_1
  6
CONTINUOUS
 10
0.776150
 20
-4.067772
  0
VERTEX
  8
PLAN_1
  6
CONTINUOUS
 10
0.772472
 20
-4.064618
  0
VERTEX
  8
PLAN_1
  6
CONTINUOUS
 10
0.768791
 20
-4.062516
  0
VERTEX
  8
PLAN_1
  6
CONTINUOUS
 10
0.764591
 20
-4.060941
  0
VERTEX
  8
PLAN_1
  6
CONTINUOUS
 10
0.759858
 20
-4.060413
  0
SEQEND
  8
0
  0
POLYLINE
  8
PLAN_1
  6
CONTINUOUS
 66
     1
 40
0.003000
 41
0.003000
  0
VERTEX
  8
PLAN_1
  6
CONTINUOUS
 10
0.915413
 20
-3.999980
  0
VERTEX
  8
PLAN_1
  6
CONTINUOUS
 10
1.003177
 20
-3.999980
  0
VERTEX
  8
PLAN_1
  6
CONTINUOUS
 10
1.010008
 20
-3.999980
  0
VERTEX
  8
PLAN_1
  6
CONTINUOUS
 10
1.016315
 20
-4.001031
  0
VERTEX
  8
PLAN_1
  6
CONTINUOUS
 10
1.022094
 20
-4.002083
  0
VERTEX
  8
PLAN_1
  6
CONTINUOUS
 10
1.027878
 20
-4.003657
  0
VERTEX
  8
PLAN_1
  6
CONTINUOUS
 10
1.033134
 20
-4.006283
  0
VERTEX
  8
PLAN_1
  6
CONTINUOUS
 10
1.037335
 20
-4.008386
  0
VERTEX
  8
PLAN_1
  6
CONTINUOUS
 10
1.041539
 20
-4.011539
  0
VERTEX
  8
PLAN_1
  6
CONTINUOUS
 10
1.045220
 20
-4.014693
  0
VERTEX
  8
PLAN_1
  6
CONTINUOUS
 10
1.048898
 20
-4.018374
  0
VERTEX
  8
PLAN_1
  6
CONTINUOUS
 10
1.051524
 20
-4.022051
  0
VERTEX
  8
PLAN_1
  6
CONTINUOUS
 10
1.054154
 20
-4.026256
  0
VERTEX
  8
PLAN_1
  6
CONTINUOUS
 10
1.056256
 20
-4.030984
  0
VERTEX
  8
PLAN_1
  6
CONTINUOUS
 10
1.057831
 20
-4.035189
  0
VERTEX
  8
PLAN_1
  6
CONTINUOUS
 10
1.058882
 20
-4.039917
  0
VERTEX
  8
PLAN_1
  6
CONTINUOUS
 10
1.059409
 20
-4.045173
  0
VERTEX
  8
PLAN_1
  6
CONTINUOUS
 10
1.059933
 20
-4.049906
  0
VERTEX
  8
PLAN_1
  6
CONTINUOUS
 10
1.059409
 20
-4.055157
  0
VERTEX
  8
PLAN_1
  6
CONTINUOUS
 10
1.058358
 20
-4.060413
  0
VERTEX
  8
PLAN_1
  6
CONTINUOUS
 10
1.056780
 20
-4.066197
  0
VERTEX
  8
PLAN_1
  6
CONTINUOUS
 10
1.054677
 20
-4.071976
  0
VERTEX
  8
PLAN_1
  6
CONTINUOUS
 10
1.053102
 20
-4.074602
  0
VERTEX
  8
PLAN_1
  6
CONTINUOUS
 10
1.051000
 20
-4.077232
  0
VERTEX
  8
PLAN_1
  6
CONTINUOUS
 10
1.048898
 20
-4.080386
  0
VERTEX
  8
PLAN_1
  6
CONTINUOUS
 10
1.046272
 20
-4.082488
  0
VERTEX
  8
PLAN_1
  6
CONTINUOUS
 10
1.043642
 20
-4.085114
  0
VERTEX
  8
PLAN_1
  6
CONTINUOUS
 10
1.040488
 20
-4.087740
  0
VERTEX
  8
PLAN_1
  6
CONTINUOUS
 10
1.036811
 20
-4.089843
  0
VERTEX
  8
PLAN_1
  6
CONTINUOUS
 10
1.033134
 20
-4.091945
  0
VERTEX
  8
PLAN_1
  6
CONTINUOUS
 10
1.038386
 20
-4.094047
  0
VERTEX
  8
PLAN_1
  6
CONTINUOUS
 10
1.044169
 20
-4.096677
  0
VERTEX
  8
PLAN_1
  6
CONTINUOUS
 10
1.049949
 20
-4.100354
  0
VERTEX
  8
PLAN_1
  6
CONTINUOUS
 10
1.055728
 20
-4.105083
  0
VERTEX
  8
PLAN_1
  6
CONTINUOUS
 10
1.058882
 20
-4.108236
  0
VERTEX
  8
PLAN_1
  6
CONTINUOUS
 10
1.060984
 20
-4.111390
  0
VERTEX
  8
PLAN_1
  6
CONTINUOUS
 10
1.063614
 20
-4.115071
  0
VERTEX
  8
PLAN_1
  6
CONTINUOUS
 10
1.065189
 20
-4.119272
  0
VERTEX
  8
PLAN_1
  6
CONTINUOUS
 10
1.066768
 20
-4.123476
  0
VERTEX
  8
PLAN_1
  6
CONTINUOUS
 10
1.068343
 20
-4.128732
  0
VERTEX
  8
PLAN_1
  6
CONTINUOUS
 10
1.068866
 20
-4.133988
  0
VERTEX
  8
PLAN_1
  6
CONTINUOUS
 10
1.068866
 20
-4.140295
  0
VERTEX
  8
PLAN_1
  6
CONTINUOUS
 10
1.068866
 20
-4.146075
  0
VERTEX
  8
PLAN_1
  6
CONTINUOUS
 10
1.067815
 20
-4.151854
  0
VERTEX
  8
PLAN_1
  6
CONTINUOUS
 10
1.066768
 20
-4.157638
  0
VERTEX
  8
PLAN_1
  6
CONTINUOUS
 10
1.064665
 20
-4.162894
  0
VERTEX
  8
PLAN_1
  6
CONTINUOUS
 10
1.062035
 20
-4.168146
  0
VERTEX
  8
PLAN_1
  6
CONTINUOUS
 10
1.059409
 20
-4.172878
  0
VERTEX
  8
PLAN_1
  6
CONTINUOUS
 10
1.055728
 20
-4.177606
  0
VERTEX
  8
PLAN_1
  6
CONTINUOUS
 10
1.052051
 20
-4.181811
  0
VERTEX
  8
PLAN_1
  6
CONTINUOUS
 10
1.047323
 20
-4.185488
  0
VERTEX
  8
PLAN_1
  6
CONTINUOUS
 10
1.042067
 20
-4.189169
  0
VERTEX
  8
PLAN_1
  6
CONTINUOUS
 10
1.036811
 20
-4.191795
  0
VERTEX
  8
PLAN_1
  6
CONTINUOUS
 10
1.030504
 20
-4.194425
  0
VERTEX
  8
PLAN_1
  6
CONTINUOUS
 10
1.024197
 20
-4.196524
  0
VERTEX
  8
PLAN_1
  6
CONTINUOUS
 10
1.016843
 20
-4.198102
  0
VERTEX
  8
PLAN_1
  6
CONTINUOUS
 10
1.009484
 20
-4.198626
  0
VERTEX
  8
PLAN_1
  6
CONTINUOUS
 10
1.001602
 20
-4.199154
  0
VERTEX
  8
PLAN_1
  6
CONTINUOUS
 10
0.915413
 20
-4.199154
  0
VERTEX
  8
PLAN_1
  6
CONTINUOUS
 10
0.915413
 20
-3.999980
  0
SEQEND
  8
0
  0
POLYLINE
  8
PLAN_1
  6
CONTINUOUS
 66
     1
 40
0.003000
 41
0.003000
  0
VERTEX
  8
PLAN_1
  6
CONTINUOUS
 10
0.942740
 20
-4.084063
  0
VERTEX
  8
PLAN_1
  6
CONTINUOUS
 10
0.991091
 20
-4.084063
  0
VERTEX
  8
PLAN_1
  6
CONTINUOUS
 10
1.000551
 20
-4.084063
  0
VERTEX
  8
PLAN_1
  6
CONTINUOUS
 10
1.008433
 20
-4.082488
  0
VERTEX
  8
PLAN_1
  6
CONTINUOUS
 10
1.012110
 20
-4.081437
  0
VERTEX
  8
PLAN_1
  6
CONTINUOUS
 10
1.015791
 20
-4.080386
  0
VERTEX
  8
PLAN_1
  6
CONTINUOUS
 10
1.018945
 20
-4.078807
  0
VERTEX
  8
PLAN_1
  6
CONTINUOUS
 10
1.021571
 20
-4.077232
  0
VERTEX
  8
PLAN_1
  6
CONTINUOUS
 10
1.024197
 20
-4.075130
  0
VERTEX
  8
PLAN_1
  6
CONTINUOUS
 10
1.026299
 20
-4.073028
  0
VERTEX
  8
PLAN_1
  6
CONTINUOUS
 10
1.028402
 20
-4.070398
  0
VERTEX
  8
PLAN_1
  6
CONTINUOUS
 10
1.029980
 20
-4.067248
  0
VERTEX
  8
PLAN_1
  6
CONTINUOUS
 10
1.031031
 20
-4.064094
  0
VERTEX
  8
PLAN_1
  6
CONTINUOUS
 10
1.032083
 20
-4.060413
  0
VERTEX
  8
PLAN_1
  6
CONTINUOUS
 10
1.032606
 20
-4.056209
  0
VERTEX
  8
PLAN_1
  6
CONTINUOUS
 10
1.032606
 20
-4.052008
  0
VERTEX
  8
PLAN_1
  6
CONTINUOUS
 10
1.032606
 20
-4.048854
  0
VERTEX
  8
PLAN_1
  6
CONTINUOUS
 10
1.032083
 20
-4.045701
  0
VERTEX
  8
PLAN_1
  6
CONTINUOUS
 10
1.031555
 20
-4.042547
  0
VERTEX
  8
PLAN_1
  6
CONTINUOUS
 10
1.030504
 20
-4.039394
  0
VERTEX
  8
PLAN_1
  6
CONTINUOUS
 10
1.029453
 20
-4.037291
  0
VERTEX
  8
PLAN_1
  6
CONTINUOUS
 10
1.027350
 20
-4.034665
  0
VERTEX
  8
PLAN_1
  6
CONTINUOUS
 10
1.025776
 20
-4.032563
  0
VERTEX
  8
PLAN_1
  6
CONTINUOUS
 10
1.023146
 20
-4.030461
  0
VERTEX
  8
PLAN_1
  6
CONTINUOUS
 10
1.020520
 20
-4.028882
  0
VERTEX
  8
PLAN_1
  6
CONTINUOUS
 10
1.017894
 20
-4.027307
  0
VERTEX
  8
PLAN_1
  6
CONTINUOUS
 10
1.014213
 20
-4.025728
  0
VERTEX
  8
PLAN_1
  6
CONTINUOUS
 10
1.010535
 20
-4.024677
  0
VERTEX
  8
PLAN_1
  6
CONTINUOUS
 10
1.006331
 20
-4.024154
  0
VERTEX
  8
PLAN_1
  6
CONTINUOUS
 10
1.001602
 20
-4.023626
  0
VERTEX
  8
PLAN_1
  6
CONTINUOUS
 10
0.996870
 20
-4.023102
  0
VERTEX
  8
PLAN_1
  6
CONTINUOUS
 10
0.991614
 20
-4.023102
  0
VERTEX
  8
PLAN_1
  6
CONTINUOUS
 10
0.942740
 20
-4.023102
  0
VERTEX
  8
PLAN_1
  6
CONTINUOUS
 10
0.942740
 20
-4.084063
  0
SEQEND
  8
0
  0
POLYLINE
  8
PLAN_1
  6
CONTINUOUS
 66
     1
 40
0.003000
 41
0.003000
  0
VERTEX
  8
PLAN_1
  6
CONTINUOUS
 10
0.942740
 20
-4.176031
  0
VERTEX
  8
PLAN_1
  6
CONTINUOUS
 10
1.000024
 20
-4.176031
  0
VERTEX
  8
PLAN_1
  6
CONTINUOUS
 10
1.005280
 20
-4.176031
  0
VERTEX
  8
PLAN_1
  6
CONTINUOUS
 10
1.010008
 20
-4.175504
  0
VERTEX
  8
PLAN_1
  6
CONTINUOUS
 10
1.014213
 20
-4.174453
  0
VERTEX
  8
PLAN_1
  6
CONTINUOUS
 10
1.018417
 20
-4.173402
  0
VERTEX
  8
PLAN_1
  6
CONTINUOUS
 10
1.022094
 20
-4.172350
  0
VERTEX
  8
PLAN_1
  6
CONTINUOUS
 10
1.025776
 20
-4.170248
  0
VERTEX
  8
PLAN_1
  6
CONTINUOUS
 10
1.028929
 20
-4.168673
  0
VERTEX
  8
PLAN_1
  6
CONTINUOUS
 10
1.031555
 20
-4.166043
  0
VERTEX
  8
PLAN_1
  6
CONTINUOUS
 10
1.034185
 20
-4.163945
  0
VERTEX
  8
PLAN_1
  6
CONTINUOUS
 10
1.036283
 20
-4.160791
  0
VERTEX
  8
PLAN_1
  6
CONTINUOUS
 10
1.037862
 20
-4.158161
  0
VERTEX
  8
PLAN_1
  6
CONTINUOUS
 10
1.039437
 20
-4.155008
  0
VERTEX
  8
PLAN_1
  6
CONTINUOUS
 10
1.040488
 20
-4.151331
  0
VERTEX
  8
PLAN_1
  6
CONTINUOUS
 10
1.041539
 20
-4.147654
  0
VERTEX
  8
PLAN_1
  6
CONTINUOUS
 10
1.042067
 20
-4.143972
  0
VERTEX
  8
PLAN_1
  6
CONTINUOUS
 10
1.042067
 20
-4.139768
  0
VERTEX
  8
PLAN_1
  6
CONTINUOUS
 10
1.042067
 20
-4.134512
  0
VERTEX
  8
PLAN_1
  6
CONTINUOUS
 10
1.041016
 20
-4.130311
  0
VERTEX
  8
PLAN_1
  6
CONTINUOUS
 10
1.039965
 20
-4.126106
  0
VERTEX
  8
PLAN_1
  6
CONTINUOUS
 10
1.037862
 20
-4.122425
  0
VERTEX
  8
PLAN_1
  6
CONTINUOUS
 10
1.035760
 20
-4.119799
  0
VERTEX
  8
PLAN_1
  6
CONTINUOUS
 10
1.033134
 20
-4.116646
  0
VERTEX
  8
PLAN_1
  6
CONTINUOUS
 10
1.030504
 20
-4.114543
  0
VERTEX
  8
PLAN_1
  6
CONTINUOUS
 10
1.027350
 20
-4.112441
  0
VERTEX
  8
PLAN_1
  6
CONTINUOUS
 10
1.023673
 20
-4.110866
  0
VERTEX
  8
PLAN_1
  6
CONTINUOUS
 10
1.019992
 20
-4.109287
  0
VERTEX
  8
PLAN_1
  6
CONTINUOUS
 10
1.016315
 20
-4.108236
  0
VERTEX
  8
PLAN_1
  6
CONTINUOUS
 10
1.012110
 20
-4.107713
  0
VERTEX
  8
PLAN_1
  6
CONTINUOUS
 10
1.003701
 20
-4.106661
  0
VERTEX
  8
PLAN_1
  6
CONTINUOUS
 10
0.995295
 20
-4.106134
  0
VERTEX
  8
PLAN_1
  6
CONTINUOUS
 10
0.942740
 20
-4.106134
  0
VERTEX
  8
PLAN_1
  6
CONTINUOUS
 10
0.942740
 20
-4.176031
  0
SEQEND
  8
0
  0
POLYLINE
  8
PLAN_1
  6
CONTINUOUS
 66
     1
 40
0.003000
 41
0.003000
  0
VERTEX
  8
PLAN_1
  6
CONTINUOUS
 10
1.103028
 20
-3.999980
  0
VERTEX
  8
PLAN_1
  6
CONTINUOUS
 10
1.183433
 20
-3.999980
  0
VERTEX
  8
PLAN_1
  6
CONTINUOUS
 10
1.192894
 20
-4.000504
  0
VERTEX
  8
PLAN_1
  6
CONTINUOUS
 10
1.201827
 20
-4.001555
  0
VERTEX
  8
PLAN_1
  6
CONTINUOUS
 10
1.210760
 20
-4.003657
  0
VERTEX
  8
PLAN_1
  6
CONTINUOUS
 10
1.218642
 20
-4.006811
  0
VERTEX
  8
PLAN_1
  6
CONTINUOUS
 10
1.226000
 20
-4.011016
  0
VERTEX
  8
PLAN_1
  6
CONTINUOUS
 10
1.232831
 20
-4.015220
  0
VERTEX
  8
PLAN_1
  6
CONTINUOUS
 10
1.239138
 20
-4.020476
  0
VERTEX
  8
PLAN_1
  6
CONTINUOUS
 10
1.244917
 20
-4.026780
  0
VERTEX
  8
PLAN_1
  6
CONTINUOUS
 10
1.250173
 20
-4.033614
  0
VERTEX
  8
PLAN_1
  6
CONTINUOUS
 10
1.254378
 20
-4.040969
  0
VERTEX
  8
PLAN_1
  6
CONTINUOUS
 10
1.258583
 20
-4.048854
  0
VERTEX
  8
PLAN_1
  6
CONTINUOUS
 10
1.261736
 20
-4.057260
  0
VERTEX
  8
PLAN_1
  6
CONTINUOUS
 10
1.263839
 20
-4.066197
  0
VERTEX
  8
PLAN_1
  6
CONTINUOUS
 10
1.265941
 20
-4.076181
  0
VERTEX
  8
PLAN_1
  6
CONTINUOUS
 10
1.266992
 20
-4.086165
  0
VERTEX
  8
PLAN_1
  6
CONTINUOUS
 10
1.267516
 20
-4.096677
  0
VERTEX
  8
PLAN_1
  6
CONTINUOUS
 10
1.266992
 20
-4.105083
  0
VERTEX
  8
PLAN_1
  6
CONTINUOUS
 10
1.266465
 20
-4.114020
  0
VERTEX
  8
PLAN_1
  6
CONTINUOUS
 10
1.265413
 20
-4.122953
  0
VERTEX
  8
PLAN_1
  6
CONTINUOUS
 10
1.263311
 20
-4.131362
  0
VERTEX
  8
PLAN_1
  6
CONTINUOUS
 10
1.260685
 20
-4.140295
  0
VERTEX
  8
PLAN_1
  6
CONTINUOUS
 10
1.257531
 20
-4.148701
  0
VERTEX
  8
PLAN_1
  6
CONTINUOUS
 10
1.253854
 20
-4.157110
  0
VERTEX
  8
PLAN_1
  6
CONTINUOUS
 10
1.249650
 20
-4.164469
  0
VERTEX
  8
PLAN_1
  6
CONTINUOUS
 10
1.244394
 20
-4.171827
  0
VERTEX
  8
PLAN_1
  6
CONTINUOUS
 10
1.238087
 20
-4.178657
  0
VERTEX
  8
PLAN_1
  6
CONTINUOUS
 10
1.234933
 20
-4.181811
  0
VERTEX
  8
PLAN_1
  6
CONTINUOUS
 10
1.231256
 20
-4.184437
  0
VERTEX
  8
PLAN_1
  6
CONTINUOUS
 10
1.227575
 20
-4.187067
  0
VERTEX
  8
PLAN_1
  6
CONTINUOUS
 10
1.223374
 20
-4.189169
  0
VERTEX
  8
PLAN_1
  6
CONTINUOUS
 10
1.219169
 20
-4.191795
  0
VERTEX
  8
PLAN_1
  6
CONTINUOUS
 10
1.214437
 20
-4.193374
  0
VERTEX
  8
PLAN_1
  6
CONTINUOUS
 10
1.209709
 20
-4.194949
  0
VERTEX
  8
PLAN_1
  6
CONTINUOUS
 10
1.204980
 20
-4.196524
  0
VERTEX
  8
PLAN_1
  6
CONTINUOUS
 10
1.199724
 20
-4.197575
  0
VERTEX
  8
PLAN_1
  6
CONTINUOUS
 10
1.193945
 20
-4.198626
  0
VERTEX
  8
PLAN_1
  6
CONTINUOUS
 10
1.188689
 20
-4.199154
  0
VERTEX
  8
PLAN_1
  6
CONTINUOUS
 10
1.182382
 20
-4.199154
  0
VERTEX
  8
PLAN_1
  6
CONTINUOUS
 10
1.103028
 20
-4.199154
  0
VERTEX
  8
PLAN_1
  6
CONTINUOUS
 10
1.103028
 20
-3.999980
  0
SEQEND
  8
0
  0
POLYLINE
  8
PLAN_1
  6
CONTINUOUS
 66
     1
 40
0.003000
 41
0.003000
  0
VERTEX
  8
PLAN_1
  6
CONTINUOUS
 10
1.129831
 20
-4.176031
  0
VERTEX
  8
PLAN_1
  6
CONTINUOUS
 10
1.181854
 20
-4.176031
  0
VERTEX
  8
PLAN_1
  6
CONTINUOUS
 10
1.188161
 20
-4.176031
  0
VERTEX
  8
PLAN_1
  6
CONTINUOUS
 10
1.194469
 20
-4.174980
  0
VERTEX
  8
PLAN_1
  6
CONTINUOUS
 10
1.200248
 20
-4.173402
  0
VERTEX
  8
PLAN_1
  6
CONTINUOUS
 10
1.205504
 20
-4.170776
  0
VERTEX
  8
PLAN_1
  6
CONTINUOUS
 10
1.210760
 20
-4.168146
  0
VERTEX
  8
PLAN_1
  6
CONTINUOUS
 10
1.215488
 20
-4.164992
  0
VERTEX
  8
PLAN_1
  6
CONTINUOUS
 10
1.219693
 20
-4.160791
  0
VERTEX
  8
PLAN_1
  6
CONTINUOUS
 10
1.223898
 20
-4.156059
  0
VERTEX
  8
PLAN_1
  6
CONTINUOUS
 10
1.227575
 20
-4.150803
  0
VERTEX
  8
PLAN_1
  6
CONTINUOUS
 10
1.230728
 20
-4.145024
  0
VERTEX
  8
PLAN_1
  6
CONTINUOUS
 10
1.233358
 20
-4.138717
  0
VERTEX
  8
PLAN_1
  6
CONTINUOUS
 10
1.235461
 20
-4.131886
  0
VERTEX
  8
PLAN_1
  6
CONTINUOUS
 10
1.237035
 20
-4.124004
  0
VERTEX
  8
PLAN_1
  6
CONTINUOUS
 10
1.238614
 20
-4.116122
  0
VERTEX
  8
PLAN_1
  6
CONTINUOUS
 10
1.239138
 20
-4.107713
  0
VERTEX
  8
PLAN_1
  6
CONTINUOUS
 10
1.239665
 20
-4.098252
  0
VERTEX
  8
PLAN_1
  6
CONTINUOUS
 10
1.239138
 20
-4.089319
  0
VERTEX
  8
PLAN_1
  6
CONTINUOUS
 10
1.238614
 20
-4.080909
  0
VERTEX
  8
PLAN_1
  6
CONTINUOUS
 10
1.237035
 20
-4.073028
  0
VERTEX
  8
PLAN_1
  6
CONTINUOUS
 10
1.235461
 20
-4.065146
  0
VERTEX
  8
PLAN_1
  6
CONTINUOUS
 10
1.233358
 20
-4.058839
  0
VERTEX
  8
PLAN_1
  6
CONTINUOUS
 10
1.230205
 20
-4.052531
  0
VERTEX
  8
PLAN_1
  6
CONTINUOUS
 10
1.227051
 20
-4.046752
  0
VERTEX
  8
PLAN_1
  6
CONTINUOUS
 10
1.223374
 20
-4.042020
  0
VERTEX
  8
PLAN_1
  6
CONTINUOUS
 10
1.219693
 20
-4.037291
  0
VERTEX
  8
PLAN_1
  6
CONTINUOUS
 10
1.214965
 20
-4.033614
  0
VERTEX
  8
PLAN_1
  6
CONTINUOUS
 10
1.210232
 20
-4.030461
  0
VERTEX
  8
PLAN_1
  6
CONTINUOUS
 10
1.204980
 20
-4.027831
  0
VERTEX
  8
PLAN_1
  6
CONTINUOUS
 10
1.199197
 20
-4.025728
  0
VERTEX
  8
PLAN_1
  6
CONTINUOUS
 10
1.192894
 20
-4.024154
  0
VERTEX
  8
PLAN_1
  6
CONTINUOUS
 10
1.186587
 20
-4.023102
  0
VERTEX
  8
PLAN_1
  6
CONTINUOUS
 10
1.179752
 20
-4.023102
  0
VERTEX
  8
PLAN_1
  6
CONTINUOUS
 10
1.129831
 20
-4.023102
  0
VERTEX
  8
PLAN_1
  6
CONTINUOUS
 10
1.129831
 20
-4.176031
  0
SEQEND
  8
0
  0
POLYLINE
  8
PLAN_1
  6
CONTINUOUS
 66
     1
 40
0.003000
 41
0.003000
  0
VERTEX
  8
PLAN_1
  6
CONTINUOUS
 10
1.332157
 20
-4.199154
  0
VERTEX
  8
PLAN_1
  6
CONTINUOUS
 10
1.305354
 20
-4.199154
  0
VERTEX
  8
PLAN_1
  6
CONTINUOUS
 10
1.305354
 20
-3.999980
  0
VERTEX
  8
PLAN_1
  6
CONTINUOUS
 10
1.397323
 20
-3.999980
  0
VERTEX
  8
PLAN_1
  6
CONTINUOUS
 10
1.403626
 20
-3.999980
  0
VERTEX
  8
PLAN_1
  6
CONTINUOUS
 10
1.409409
 20
-4.000504
  0
VERTEX
  8
PLAN_1
  6
CONTINUOUS
 10
1.415717
 20
-4.001031
  0
VERTEX
  8
PLAN_1
  6
CONTINUOUS
 10
1.421496
 20
-4.002083
  0
VERTEX
  8
PLAN_1
  6
CONTINUOUS
 10
1.427276
 20
-4.003657
  0
VERTEX
  8
PLAN_1
  6
CONTINUOUS
 10
1.432531
 20
-4.005760
  0
VERTEX
  8
PLAN_1
  6
CONTINUOUS
 10
1.437787
 20
-4.007862
  0
VERTEX
  8
PLAN_1
  6
CONTINUOUS
 10
1.442516
 20
-4.011016
  0
VERTEX
  8
PLAN_1
  6
CONTINUOUS
 10
1.446720
 20
-4.014169
  0
VERTEX
  8
PLAN_1
  6
CONTINUOUS
 10
1.450925
 20
-4.017846
  0
VERTEX
  8
PLAN_1
  6
CONTINUOUS
 10
1.454079
 20
-4.022051
  0
VERTEX
  8
PLAN_1
  6
CONTINUOUS
 10
1.457232
 20
-4.027307
  0
VERTEX
  8
PLAN_1
  6
CONTINUOUS
 10
1.459858
 20
-4.032563
  0
VERTEX
  8
PLAN_1
  6
CONTINUOUS
 10
1.461437
 20
-4.038866
  0
VERTEX
  8
PLAN_1
  6
CONTINUOUS
 10
1.462488
 20
-4.045701
  0
VERTEX
  8
PLAN_1
  6
CONTINUOUS
 10
1.463012
 20
-4.053583
  0
VERTEX
  8
PLAN_1
  6
CONTINUOUS
 10
1.462488
 20
-4.058839
  0
VERTEX
  8
PLAN_1
  6
CONTINUOUS
 10
1.461961
 20
-4.063567
  0
VERTEX
  8
PLAN_1
  6
CONTINUOUS
 10
1.461437
 20
-4.068299
  0
VERTEX
  8
PLAN_1
  6
CONTINUOUS
 10
1.460386
 20
-4.072500
  0
VERTEX
  8
PLAN_1
  6
CONTINUOUS
 10
1.458807
 20
-4.076181
  0
VERTEX
  8
PLAN_1
  6
CONTINUOUS
 10
1.457232
 20
-4.079335
  0
VERTEX
  8
PLAN_1
  6
CONTINUOUS
 10
1.455654
 20
-4.082488
  0
VERTEX
  8
PLAN_1
  6
CONTINUOUS
 10
1.453551
 20
-4.085638
  0
VERTEX
  8
PLAN_1
  6
CONTINUOUS
 10
1.449346
 20
-4.090370
  0
VERTEX
  8
PLAN_1
  6
CONTINUOUS
 10
1.444618
 20
-4.094575
  0
VERTEX
  8
PLAN_1
  6
CONTINUOUS
 10
1.439890
 20
-4.098252
  0
VERTEX
  8
PLAN_1
  6
CONTINUOUS
 10
1.435157
 20
-4.101406
  0
VERTEX
  8
PLAN_1
  6
CONTINUOUS
 10
1.439362
 20
-4.102980
  0
VERTEX
  8
PLAN_1
  6
CONTINUOUS
 10
1.443567
 20
-4.105083
  0
VERTEX
  8
PLAN_1
  6
CONTINUOUS
 10
1.447248
 20
-4.107713
  0
VERTEX
  8
PLAN_1
  6
CONTINUOUS
 10
1.450925
 20
-4.111390
  0
VERTEX
  8
PLAN_1
  6
CONTINUOUS
 10
1.452500
 20
-4.113492
  0
VERTEX
  8
PLAN_1
  6
CONTINUOUS
 10
1.454079
 20
-4.115594
  0
VERTEX
  8
PLAN_1
  6
CONTINUOUS
 10
1.455130
 20
-4.118748
  0
VERTEX
  8
PLAN_1
  6
CONTINUOUS
 10
1.456181
 20
-4.121902
  0
VERTEX
  8
PLAN_1
  6
CONTINUOUS
 10
1.457232
 20
-4.125055
  0
VERTEX
  8
PLAN_1
  6
CONTINUOUS
 10
1.458283
 20
-4.129260
  0
VERTEX
  8
PLAN_1
  6
CONTINUOUS
 10
1.458807
 20
-4.133461
  0
VERTEX
  8
PLAN_1
  6
CONTINUOUS
 10
1.458807
 20
-4.138717
  0
VERTEX
  8
PLAN_1
  6
CONTINUOUS
 10
1.460909
 20
-4.174453
  0
VERTEX
  8
PLAN_1
  6
CONTINUOUS
 10
1.460909
 20
-4.178657
  0
VERTEX
  8
PLAN_1
  6
CONTINUOUS
 10
1.460909
 20
-4.181811
  0
VERTEX
  8
PLAN_1
  6
CONTINUOUS
 10
1.461961
 20
-4.184437
  0
VERTEX
  8
PLAN_1
  6
CONTINUOUS
 10
1.462488
 20
-4.187067
  0
VERTEX
  8
PLAN_1
  6
CONTINUOUS
 10
1.464063
 20
-4.189169
  0
VERTEX
  8
PLAN_1
  6
CONTINUOUS
 10
1.465638
 20
-4.191272
  0
VERTEX
  8
PLAN_1
  6
CONTINUOUS
 10
1.467740
 20
-4.192846
  0
VERTEX
  8
PLAN_1
  6
CONTINUOUS
 10
1.470894
 20
-4.194949
  0
VERTEX
  8
PLAN_1
  6
CONTINUOUS
 10
1.470894
 20
-4.199154
  0
VERTEX
  8
PLAN_1
  6
CONTINUOUS
 10
1.437787
 20
-4.199154
  0
VERTEX
  8
PLAN_1
  6
CONTINUOUS
 10
1.436209
 20
-4.193898
  0
VERTEX
  8
PLAN_1
  6
CONTINUOUS
 10
1.435157
 20
-4.187067
  0
VERTEX
  8
PLAN_1
  6
CONTINUOUS
 10
1.434634
 20
-4.179709
  0
VERTEX
  8
PLAN_1
  6
CONTINUOUS
 10
1.433583
 20
-4.172350
  0
VERTEX
  8
PLAN_1
  6
CONTINUOUS
 10
1.433583
 20
-4.164992
  0
VERTEX
  8
PLAN_1
  6
CONTINUOUS
 10
1.433055
 20
-4.158689
  0
VERTEX
  8
PLAN_1
  6
CONTINUOUS
 10
1.433055
 20
-4.152906
  0
VERTEX
  8
PLAN_1
  6
CONTINUOUS
 10
1.433055
 20
-4.149228
  0
VERTEX
  8
PLAN_1
  6
CONTINUOUS
 10
1.432531
 20
-4.142921
  0
VERTEX
  8
PLAN_1
  6
CONTINUOUS
 10
1.432008
 20
-4.136614
  0
VERTEX
  8
PLAN_1
  6
CONTINUOUS
 10
1.430957
 20
-4.133461
  0
VERTEX
  8
PLAN_1
  6
CONTINUOUS
 10
1.429906
 20
-4.130835
  0
VERTEX
  8
PLAN_1
  6
CONTINUOUS
 10
1.428854
 20
-4.127681
  0
VERTEX
  8
PLAN_1
  6
CONTINUOUS
 10
1.427276
 20
-4.125055
  0
VERTEX
  8
PLAN_1
  6
CONTINUOUS
 10
1.425173
 20
-4.122953
  0
VERTEX
  8
PLAN_1
  6
CONTINUOUS
 10
1.422547
 20
-4.120323
  0
VERTEX
  8
PLAN_1
  6
CONTINUOUS
 10
1.419917
 20
-4.118748
  0
VERTEX
  8
PLAN_1
  6
CONTINUOUS
 10
1.416768
 20
-4.116646
  0
VERTEX
  8
PLAN_1
  6
CONTINUOUS
 10
1.412563
 20
-4.115594
  0
VERTEX
  8
PLAN_1
  6
CONTINUOUS
 10
1.408358
 20
-4.114543
  0
VERTEX
  8
PLAN_1
  6
CONTINUOUS
 10
1.403102
 20
-4.114020
  0
VERTEX
  8
PLAN_1
  6
CONTINUOUS
 10
1.397323
 20
-4.113492
  0
VERTEX
  8
PLAN_1
  6
CONTINUOUS
 10
1.332157
 20
-4.113492
  0
VERTEX
  8
PLAN_1
  6
CONTINUOUS
 10
1.332157
 20
-4.199154
  0
SEQEND
  8
0
  0
POLYLINE
  8
PLAN_1
  6
CONTINUOUS
 66
     1
 40
0.003000
 41
0.003000
  0
VERTEX
  8
PLAN_1
  6
CONTINUOUS
 10
1.332157
 20
-4.090370
  0
VERTEX
  8
PLAN_1
  6
CONTINUOUS
 10
1.394693
 20
-4.090370
  0
VERTEX
  8
PLAN_1
  6
CONTINUOUS
 10
1.402051
 20
-4.090370
  0
VERTEX
  8
PLAN_1
  6
CONTINUOUS
 10
1.409409
 20
-4.089319
  0
VERTEX
  8
PLAN_1
  6
CONTINUOUS
 10
1.412563
 20
-4.088791
  0
VERTEX
  8
PLAN_1
  6
CONTINUOUS
 10
1.416240
 20
-4.087740
  0
VERTEX
  8
PLAN_1
  6
CONTINUOUS
 10
1.419394
 20
-4.086165
  0
VERTEX
  8
PLAN_1
  6
CONTINUOUS
 10
1.422020
 20
-4.084591
  0
VERTEX
  8
PLAN_1
  6
CONTINUOUS
 10
1.425173
 20
-4.082488
  0
VERTEX
  8
PLAN_1
  6
CONTINUOUS
 10
1.427276
 20
-4.079858
  0
VERTEX
  8
PLAN_1
  6
CONTINUOUS
 10
1.429906
 20
-4.077232
  0
VERTEX
  8
PLAN_1
  6
CONTINUOUS
 10
1.431480
 20
-4.074079
  0
VERTEX
  8
PLAN_1
  6
CONTINUOUS
 10
1.433055
 20
-4.070398
  0
VERTEX
  8
PLAN_1
  6
CONTINUOUS
 10
1.434106
 20
-4.066197
  0
VERTEX
  8
PLAN_1
  6
CONTINUOUS
 10
1.434634
 20
-4.061465
  0
VERTEX
  8
PLAN_1
  6
CONTINUOUS
 10
1.435157
 20
-4.056209
  0
VERTEX
  8
PLAN_1
  6
CONTINUOUS
 10
1.434634
 20
-4.050957
  0
VERTEX
  8
PLAN_1
  6
CONTINUOUS
 10
1.434106
 20
-4.045701
  0
VERTEX
  8
PLAN_1
  6
CONTINUOUS
 10
1.433055
 20
-4.041496
  0
VERTEX
  8
PLAN_1
  6
CONTINUOUS
 10
1.431480
 20
-4.037815
  0
VERTEX
  8
PLAN_1
  6
CONTINUOUS
 10
1.429378
 20
-4.034665
  0
VERTEX
  8
PLAN_1
  6
CONTINUOUS
 10
1.427276
 20
-4.032035
  0
VERTEX
  8
PLAN_1
  6
CONTINUOUS
 10
1.424650
 20
-4.029933
  0
VERTEX
  8
PLAN_1
  6
CONTINUOUS
 10
1.422020
 20
-4.027831
  0
VERTEX
  8
PLAN_1
  6
CONTINUOUS
 10
1.419394
 20
-4.026256
  0
VERTEX
  8
PLAN_1
  6
CONTINUOUS
 10
1.416240
 20
-4.025205
  0
VERTEX
  8
PLAN_1
  6
CONTINUOUS
 10
1.413614
 20
-4.024677
  0
VERTEX
  8
PLAN_1
  6
CONTINUOUS
 10
1.410461
 20
-4.023626
  0
VERTEX
  8
PLAN_1
  6
CONTINUOUS
 10
1.404677
 20
-4.023102
  0
VERTEX
  8
PLAN_1
  6
CONTINUOUS
 10
1.399425
 20
-4.023102
  0
VERTEX
  8
PLAN_1
  6
CONTINUOUS
 10
1.332157
 20
-4.023102
  0
VERTEX
  8
PLAN_1
  6
CONTINUOUS
 10
1.332157
 20
-4.090370
  0
SEQEND
  8
0
  0
SOLID
  8
PLAN_1
 10
1.534484
 20
-4.199154
 11
1.505579
 21
-4.199154
 12
1.534484
 22
-4.169724
 13
1.505579
 23
-4.169724
  0
POLYLINE
  8
PLAN_1
  6
CONTINUOUS
 66
     1
 40
0.003000
 41
0.003000
  0
VERTEX
  8
PLAN_1
  6
CONTINUOUS
 10
1.534484
 20
-4.199154
  0
VERTEX
  8
PLAN_1
  6
CONTINUOUS
 10
1.505579
 20
-4.199154
  0
VERTEX
  8
PLAN_1
  6
CONTINUOUS
 10
1.505579
 20
-4.169724
  0
VERTEX
  8
PLAN_1
  6
CONTINUOUS
 10
1.534484
 20
-4.169724
  0
VERTEX
  8
PLAN_1
  6
CONTINUOUS
 10
1.534484
 20
-4.199154
  0
SEQEND
  8
0
  0
POLYLINE
  8
PLAN_1
  6
CONTINUOUS
 66
     1
 40
0.003000
 41
0.003000
  0
VERTEX
  8
PLAN_1
  6
CONTINUOUS
 10
1.729453
 20
-4.199154
  0
VERTEX
  8
PLAN_1
  6
CONTINUOUS
 10
1.582307
 20
-4.199154
  0
VERTEX
  8
PLAN_1
  6
CONTINUOUS
 10
1.582307
 20
-3.999980
  0
VERTEX
  8
PLAN_1
  6
CONTINUOUS
 10
1.727350
 20
-3.999980
  0
VERTEX
  8
PLAN_1
  6
CONTINUOUS
 10
1.727350
 20
-4.023626
  0
VERTEX
  8
PLAN_1
  6
CONTINUOUS
 10
1.609106
 20
-4.023626
  0
VERTEX
  8
PLAN_1
  6
CONTINUOUS
 10
1.609106
 20
-4.084591
  0
VERTEX
  8
PLAN_1
  6
CONTINUOUS
 10
1.718417
 20
-4.084591
  0
VERTEX
  8
PLAN_1
  6
CONTINUOUS
 10
1.718417
 20
-4.108764
  0
VERTEX
  8
PLAN_1
  6
CONTINUOUS
 10
1.609106
 20
-4.108764
  0
VERTEX
  8
PLAN_1
  6
CONTINUOUS
 10
1.609106
 20
-4.175504
  0
VERTEX
  8
PLAN_1
  6
CONTINUOUS
 10
1.729453
 20
-4.175504
  0
VERTEX
  8
PLAN_1
  6
CONTINUOUS
 10
1.729453
 20
-4.199154
  0
SEQEND
  8
0
  0
POLYLINE
  8
PLAN_1
  6
CONTINUOUS
 66
     1
 40
0.003000
 41
0.003000
  0
VERTEX
  8
PLAN_1
  6
CONTINUOUS
 10
1.794618
 20
-4.199154
  0
VERTEX
  8
PLAN_1
  6
CONTINUOUS
 10
1.767291
 20
-4.199154
  0
VERTEX
  8
PLAN_1
  6
CONTINUOUS
 10
1.767291
 20
-3.999980
  0
VERTEX
  8
PLAN_1
  6
CONTINUOUS
 10
1.857157
 20
-3.999980
  0
VERTEX
  8
PLAN_1
  6
CONTINUOUS
 10
1.863988
 20
-3.999980
  0
VERTEX
  8
PLAN_1
  6
CONTINUOUS
 10
1.870295
 20
-4.001031
  0
VERTEX
  8
PLAN_1
  6
CONTINUOUS
 10
1.876602
 20
-4.002083
  0
VERTEX
  8
PLAN_1
  6
CONTINUOUS
 10
1.881854
 20
-4.004185
  0
VERTEX
  8
PLAN_1
  6
CONTINUOUS
 10
1.887110
 20
-4.006283
  0
VERTEX
  8
PLAN_1
  6
CONTINUOUS
 10
1.892366
 20
-4.008913
  0
VERTEX
  8
PLAN_1
  6
CONTINUOUS
 10
1.896571
 20
-4.012067
  0
VERTEX
  8
PLAN_1
  6
CONTINUOUS
 10
1.900776
 20
-4.015744
  0
VERTEX
  8
PLAN_1
  6
CONTINUOUS
 10
1.904453
 20
-4.019949
  0
VERTEX
  8
PLAN_1
  6
CONTINUOUS
 10
1.907083
 20
-4.024154
  0
VERTEX
  8
PLAN_1
  6
CONTINUOUS
 10
1.910232
 20
-4.028882
  0
VERTEX
  8
PLAN_1
  6
CONTINUOUS
 10
1.912335
 20
-4.033614
  0
VERTEX
  8
PLAN_1
  6
CONTINUOUS
 10
1.913913
 20
-4.038866
  0
VERTEX
  8
PLAN_1
  6
CONTINUOUS
 10
1.915488
 20
-4.044122
  0
VERTEX
  8
PLAN_1
  6
CONTINUOUS
 10
1.916016
 20
-4.049906
  0
VERTEX
  8
PLAN_1
  6
CONTINUOUS
 10
1.916539
 20
-4.055685
  0
VERTEX
  8
PLAN_1
  6
CONTINUOUS
 10
1.916016
 20
-4.060941
  0
VERTEX
  8
PLAN_1
  6
CONTINUOUS
 10
1.915488
 20
-4.066197
  0
VERTEX
  8
PLAN_1
  6
CONTINUOUS
 10
1.914437
 20
-4.071449
  0
VERTEX
  8
PLAN_1
  6
CONTINUOUS
 10
1.913386
 20
-4.076705
  0
VERTEX
  8
PLAN_1
  6
CONTINUOUS
 10
1.911283
 20
-4.081961
  0
VERTEX
  8
PLAN_1
  6
CONTINUOUS
 10
1.909185
 20
-4.086689
  0
VERTEX
  8
PLAN_1
  6
CONTINUOUS
 10
1.906031
 20
-4.091421
  0
VERTEX
  8
PLAN_1
  6
CONTINUOUS
 10
1.902878
 20
-4.096150
  0
VERTEX
  8
PLAN_1
  6
CONTINUOUS
 10
1.899197
 20
-4.099831
  0
VERTEX
  8
PLAN_1
  6
CONTINUOUS
 10
1.894992
 20
-4.103508
  0
VERTEX
  8
PLAN_1
  6
CONTINUOUS
 10
1.890264
 20
-4.106661
  0
VERTEX
  8
PLAN_1
  6
CONTINUOUS
 10
1.884484
 20
-4.109815
  0
VERTEX
  8
PLAN_1
  6
CONTINUOUS
 10
1.878701
 20
-4.111917
  0
VERTEX
  8
PLAN_1
  6
CONTINUOUS
 10
1.872398
 20
-4.113492
  0
VERTEX
  8
PLAN_1
  6
CONTINUOUS
 10
1.865039
 20
-4.114543
  0
VERTEX
  8
PLAN_1
  6
CONTINUOUS
 10
1.857157
 20
-4.115071
  0
VERTEX
  8
PLAN_1
  6
CONTINUOUS
 10
1.794618
 20
-4.115071
  0
VERTEX
  8
PLAN_1
  6
CONTINUOUS
 10
1.794618
 20
-4.199154
  0
SEQEND
  8
0
  0
POLYLINE
  8
PLAN_1
  6
CONTINUOUS
 66
     1
 40
0.003000
 41
0.003000
  0
VERTEX
  8
PLAN_1
  6
CONTINUOUS
 10
1.794618
 20
-4.091945
  0
VERTEX
  8
PLAN_1
  6
CONTINUOUS
 10
1.848220
 20
-4.091945
  0
VERTEX
  8
PLAN_1
  6
CONTINUOUS
 10
1.856630
 20
-4.091421
  0
VERTEX
  8
PLAN_1
  6
CONTINUOUS
 10
1.864512
 20
-4.090370
  0
VERTEX
  8
PLAN_1
  6
CONTINUOUS
 10
1.868193
 20
-4.089319
  0
VERTEX
  8
PLAN_1
  6
CONTINUOUS
 10
1.871346
 20
-4.087740
  0
VERTEX
  8
PLAN_1
  6
CONTINUOUS
 10
1.874500
 20
-4.086165
  0
VERTEX
  8
PLAN_1
  6
CONTINUOUS
 10
1.877126
 20
-4.084063
  0
VERTEX
  8
PLAN_1
  6
CONTINUOUS
 10
1.879752
 20
-4.081961
  0
VERTEX
  8
PLAN_1
  6
CONTINUOUS
 10
1.881854
 20
-4.079335
  0
VERTEX
  8
PLAN_1
  6
CONTINUOUS
 10
1.883957
 20
-4.076181
  0
VERTEX
  8
PLAN_1
  6
CONTINUOUS
 10
1.885535
 20
-4.073028
  0
VERTEX
  8
PLAN_1
  6
CONTINUOUS
 10
1.887110
 20
-4.069346
  0
VERTEX
  8
PLAN_1
  6
CONTINUOUS
 10
1.887638
 20
-4.065669
  0
VERTEX
  8
PLAN_1
  6
CONTINUOUS
 10
1.888161
 20
-4.060941
  0
VERTEX
  8
PLAN_1
  6
CONTINUOUS
 10
1.888689
 20
-4.056209
  0
VERTEX
  8
PLAN_1
  6
CONTINUOUS
 10
1.888161
 20
-4.051480
  0
VERTEX
  8
PLAN_1
  6
CONTINUOUS
 10
1.887638
 20
-4.047276
  0
VERTEX
  8
PLAN_1
  6
CONTINUOUS
 10
1.886587
 20
-4.043598
  0
VERTEX
  8
PLAN_1
  6
CONTINUOUS
 10
1.885535
 20
-4.040445
  0
VERTEX
  8
PLAN_1
  6
CONTINUOUS
 10
1.883957
 20
-4.037291
  0
VERTEX
  8
PLAN_1
  6
CONTINUOUS
 10
1.881854
 20
-4.034665
  0
VERTEX
  8
PLAN_1
  6
CONTINUOUS
 10
1.879752
 20
-4.032035
  0
VERTEX
  8
PLAN_1
  6
CONTINUOUS
 10
1.877126
 20
-4.029933
  0
VERTEX
  8
PLAN_1
  6
CONTINUOUS
 10
1.874500
 20
-4.028358
  0
VERTEX
  8
PLAN_1
  6
CONTINUOUS
 10
1.871346
 20
-4.026780
  0
VERTEX
  8
PLAN_1
  6
CONTINUOUS
 10
1.868193
 20
-4.025728
  0
VERTEX
  8
PLAN_1
  6
CONTINUOUS
 10
1.864512
 20
-4.024677
  0
VERTEX
  8
PLAN_1
  6
CONTINUOUS
 10
1.857157
 20
-4.023102
  0
VERTEX
  8
PLAN_1
  6
CONTINUOUS
 10
1.849272
 20
-4.023102
  0
VERTEX
  8
PLAN_1
  6
CONTINUOUS
 10
1.794618
 20
-4.023102
  0
VERTEX
  8
PLAN_1
  6
CONTINUOUS
 10
1.794618
 20
-4.091945
  0
SEQEND
  8
0
  0
POLYLINE
  8
PLAN_1
  6
CONTINUOUS
 66
     1
 40
0.003000
 41
0.003000
  0
VERTEX
  8
PLAN_1
  6
CONTINUOUS
 10
2.069992
 20
-4.058311
  0
VERTEX
  8
PLAN_1
  6
CONTINUOUS
 10
2.069469
 20
-4.052531
  0
VERTEX
  8
PLAN_1
  6
CONTINUOUS
 10
2.068417
 20
-4.047803
  0
VERTEX
  8
PLAN_1
  6
CONTINUOUS
 10
2.066843
 20
-4.043071
  0
VERTEX
  8
PLAN_1
  6
CONTINUOUS
 10
2.065264
 20
-4.038866
  0
VERTEX
  8
PLAN_1
  6
CONTINUOUS
 10
2.062638
 20
-4.035189
  0
VERTEX
  8
PLAN_1
  6
CONTINUOUS
 10
2.060008
 20
-4.032035
  0
VERTEX
  8
PLAN_1
  6
CONTINUOUS
 10
2.056854
 20
-4.028882
  0
VERTEX
  8
PLAN_1
  6
CONTINUOUS
 10
2.053177
 20
-4.026256
  0
VERTEX
  8
PLAN_1
  6
CONTINUOUS
 10
2.050024
 20
-4.024154
  0
VERTEX
  8
PLAN_1
  6
CONTINUOUS
 10
2.045819
 20
-4.022575
  0
VERTEX
  8
PLAN_1
  6
CONTINUOUS
 10
2.042142
 20
-4.021000
  0
VERTEX
  8
PLAN_1
  6
CONTINUOUS
 10
2.037937
 20
-4.019425
  0
VERTEX
  8
PLAN_1
  6
CONTINUOUS
 10
2.029528
 20
-4.017846
  0
VERTEX
  8
PLAN_1
  6
CONTINUOUS
 10
2.020594
 20
-4.017846
  0
VERTEX
  8
PLAN_1
  6
CONTINUOUS
 10
2.013764
 20
-4.017846
  0
VERTEX
  8
PLAN_1
  6
CONTINUOUS
 10
2.006406
 20
-4.018898
  0
VERTEX
  8
PLAN_1
  6
CONTINUOUS
 10
2.002728
 20
-4.019425
  0
VERTEX
  8
PLAN_1
  6
CONTINUOUS
 10
1.999047
 20
-4.020476
  0
VERTEX
  8
PLAN_1
  6
CONTINUOUS
 10
1.995370
 20
-4.022051
  0
VERTEX
  8
PLAN_1
  6
CONTINUOUS
 10
1.991689
 20
-4.023626
  0
VERTEX
  8
PLAN_1
  6
CONTINUOUS
 10
1.988539
 20
-4.025728
  0
VERTEX
  8
PLAN_1
  6
CONTINUOUS
 10
1.985386
 20
-4.028358
  0
VERTEX
  8
PLAN_1
  6
CONTINUOUS
 10
1.982232
 20
-4.030984
  0
VERTEX
  8
PLAN_1
  6
CONTINUOUS
 10
1.980130
 20
-4.034138
  0
VERTEX
  8
PLAN_1
  6
CONTINUOUS
 10
1.978028
 20
-4.038343
  0
VERTEX
  8
PLAN_1
  6
CONTINUOUS
 10
1.976449
 20
-4.042547
  0
VERTEX
  8
PLAN_1
  6
CONTINUOUS
 10
1.975398
 20
-4.047276
  0
VERTEX
  8
PLAN_1
  6
CONTINUOUS
 10
1.975398
 20
-4.052531
  0
VERTEX
  8
PLAN_1
  6
CONTINUOUS
 10
1.975398
 20
-4.055685
  0
VERTEX
  8
PLAN_1
  6
CONTINUOUS
 10
1.975925
 20
-4.058311
  0
VERTEX
  8
PLAN_1
  6
CONTINUOUS
 10
1.976449
 20
-4.060941
  0
VERTEX
  8
PLAN_1
  6
CONTINUOUS
 10
1.977500
 20
-4.063043
  0
VERTEX
  8
PLAN_1
  6
CONTINUOUS
 10
1.979602
 20
-4.067248
  0
VERTEX
  8
PLAN_1
  6
CONTINUOUS
 10
1.982756
 20
-4.070398
  0
VERTEX
  8
PLAN_1
  6
CONTINUOUS
 10
1.986437
 20
-4.073028
  0
VERTEX
  8
PLAN_1
  6
CONTINUOUS
 10
1.990114
 20
-4.075130
  0
VERTEX
  8
PLAN_1
  6
CONTINUOUS
 10
1.994319
 20
-4.076705
  0
VERTEX
  8
PLAN_1
  6
CONTINUOUS
 10
1.999047
 20
-4.077756
  0
VERTEX
  8
PLAN_1
  6
CONTINUOUS
 10
2.055803
 20
-4.090894
  0
VERTEX
  8
PLAN_1
  6
CONTINUOUS
 10
2.060535
 20
-4.091945
  0
VERTEX
  8
PLAN_1
  6
CONTINUOUS
 10
2.065264
 20
-4.093524
  0
VERTEX
  8
PLAN_1
  6
CONTINUOUS
 10
2.069469
 20
-4.095626
  0
VERTEX
  8
PLAN_1
  6
CONTINUOUS
 10
2.073673
 20
-4.097201
  0
VERTEX
  8
PLAN_1
  6
CONTINUOUS
 10
2.077878
 20
-4.099831
  0
VERTEX
  8
PLAN_1
  6
CONTINUOUS
 10
2.081555
 20
-4.101929
  0
VERTEX
  8
PLAN_1
  6
CONTINUOUS
 10
2.084709
 20
-4.105083
  0
VERTEX
  8
PLAN_1
  6
CONTINUOUS
 10
2.087862
 20
-4.107713
  0
VERTEX
  8
PLAN_1
  6
CONTINUOUS
 10
2.091016
 20
-4.111390
  0
VERTEX
  8
PLAN_1
  6
CONTINUOUS
 10
2.093642
 20
-4.115071
  0
VERTEX
  8
PLAN_1
  6
CONTINUOUS
 10
2.095744
 20
-4.119272
  0
VERTEX
  8
PLAN_1
  6
CONTINUOUS
 10
2.097323
 20
-4.123476
  0
VERTEX
  8
PLAN_1
  6
CONTINUOUS
 10
2.098898
 20
-4.128209
  0
VERTEX
  8
PLAN_1
  6
CONTINUOUS
 10
2.099949
 20
-4.132937
  0
VERTEX
  8
PLAN_1
  6
CONTINUOUS
 10
2.101000
 20
-4.138193
  0
VERTEX
  8
PLAN_1
  6
CONTINUOUS
 10
2.101000
 20
-4.143972
  0
VERTEX
  8
PLAN_1
  6
CONTINUOUS
 10
2.100476
 20
-4.152382
  0
VERTEX
  8
PLAN_1
  6
CONTINUOUS
 10
2.098898
 20
-4.160264
  0
VERTEX
  8
PLAN_1
  6
CONTINUOUS
 10
2.096795
 20
-4.167094
  0
VERTEX
  8
PLAN_1
  6
CONTINUOUS
 10
2.093642
 20
-4.173402
  0
VERTEX
  8
PLAN_1
  6
CONTINUOUS
 10
2.089965
 20
-4.179185
  0
VERTEX
  8
PLAN_1
  6
CONTINUOUS
 10
2.085232
 20
-4.183913
  0
VERTEX
  8
PLAN_1
  6
CONTINUOUS
 10
2.080504
 20
-4.188118
  0
VERTEX
  8
PLAN_1
  6
CONTINUOUS
 10
2.074724
 20
-4.191795
  0
VERTEX
  8
PLAN_1
  6
CONTINUOUS
 10
2.068945
 20
-4.194949
  0
VERTEX
  8
PLAN_1
  6
CONTINUOUS
 10
2.062638
 20
-4.197575
  0
VERTEX
  8
PLAN_1
  6
CONTINUOUS
 10
2.056331
 20
-4.200205
  0
VERTEX
  8
PLAN_1
  6
CONTINUOUS
 10
2.049500
 20
-4.201780
  0
VERTEX
  8
PLAN_1
  6
CONTINUOUS
 10
2.042665
 20
-4.202831
  0
VERTEX
  8
PLAN_1
  6
CONTINUOUS
 10
2.036362
 20
-4.203882
  0
VERTEX
  8
PLAN_1
  6
CONTINUOUS
 10
2.029528
 20
-4.204409
  0
VERTEX
  8
PLAN_1
  6
CONTINUOUS
 10
2.023220
 20
-4.204409
  0
VERTEX
  8
PLAN_1
  6
CONTINUOUS
 10
2.010083
 20
-4.203882
  0
VERTEX
  8
PLAN_1
  6
CONTINUOUS
 10
1.999047
 20
-4.202307
  0
VERTEX
  8
PLAN_1
  6
CONTINUOUS
 10
1.990114
 20
-4.200728
  0
VERTEX
  8
PLAN_1
  6
CONTINUOUS
 10
1.982232
 20
-4.198102
  0
VERTEX
  8
PLAN_1
  6
CONTINUOUS
 10
1.975925
 20
-4.194949
  0
VERTEX
  8
PLAN_1
  6
CONTINUOUS
 10
1.970669
 20
-4.191795
  0
VERTEX
  8
PLAN_1
  6
CONTINUOUS
 10
1.966465
 20
-4.188642
  0
VERTEX
  8
PLAN_1
  6
CONTINUOUS
 10
1.962787
 20
-4.185488
  0
VERTEX
  8
PLAN_1
  6
CONTINUOUS
 10
1.957008
 20
-4.179709
  0
VERTEX
  8
PLAN_1
  6
CONTINUOUS
 10
1.952276
 20
-4.173402
  0
VERTEX
  8
PLAN_1
  6
CONTINUOUS
 10
1.949122
 20
-4.167622
  0
VERTEX
  8
PLAN_1
  6
CONTINUOUS
 10
1.946496
 20
-4.161315
  0
VERTEX
  8
PLAN_1
  6
CONTINUOUS
 10
1.944394
 20
-4.155008
  0
VERTEX
  8
PLAN_1
  6
CONTINUOUS
 10
1.943343
 20
-4.148177
  0
VERTEX
  8
PLAN_1
  6
CONTINUOUS
 10
1.942815
 20
-4.141870
  0
VERTEX
  8
PLAN_1
  6
CONTINUOUS
 10
1.942291
 20
-4.134512
  0
VERTEX
  8
PLAN_1
  6
CONTINUOUS
 10
1.967516
 20
-4.134512
  0
VERTEX
  8
PLAN_1
  6
CONTINUOUS
 10
1.968043
 20
-4.141346
  0
VERTEX
  8
PLAN_1
  6
CONTINUOUS
 10
1.969094
 20
-4.147126
  0
VERTEX
  8
PLAN_1
  6
CONTINUOUS
 10
1.970669
 20
-4.152382
  0
VERTEX
  8
PLAN_1
  6
CONTINUOUS
 10
1.972772
 20
-4.157110
  0
VERTEX
  8
PLAN_1
  6
CONTINUOUS
 10
1.975398
 20
-4.161315
  0
VERTEX
  8
PLAN_1
  6
CONTINUOUS
 10
1.978551
 20
-4.165520
  0
VERTEX
  8
PLAN_1
  6
CONTINUOUS
 10
1.981705
 20
-4.168673
  0
VERTEX
  8
PLAN_1
  6
CONTINUOUS
 10
1.985909
 20
-4.171827
  0
VERTEX
  8
PLAN_1
  6
CONTINUOUS
 10
1.989591
 20
-4.173929
  0
VERTEX
  8
PLAN_1
  6
CONTINUOUS
 10
1.994319
 20
-4.176031
  0
VERTEX
  8
PLAN_1
  6
CONTINUOUS
 10
1.998524
 20
-4.177606
  0
VERTEX
  8
PLAN_1
  6
CONTINUOUS
 10
2.003252
 20
-4.179185
  0
VERTEX
  8
PLAN_1
  6
CONTINUOUS
 10
2.007980
 20
-4.180232
  0
VERTEX
  8
PLAN_1
  6
CONTINUOUS
 10
2.013236
 20
-4.180760
  0
VERTEX
  8
PLAN_1
  6
CONTINUOUS
 10
2.017969
 20
-4.181283
  0
VERTEX
  8
PLAN_1
  6
CONTINUOUS
 10
2.022697
 20
-4.181283
  0
VERTEX
  8
PLAN_1
  6
CONTINUOUS
 10
2.030579
 20
-4.181283
  0
VERTEX
  8
PLAN_1
  6
CONTINUOUS
 10
2.038988
 20
-4.180232
  0
VERTEX
  8
PLAN_1
  6
CONTINUOUS
 10
2.043193
 20
-4.179185
  0
VERTEX
  8
PLAN_1
  6
CONTINUOUS
 10
2.047921
 20
-4.178134
  0
VERTEX
  8
PLAN_1
  6
CONTINUOUS
 10
2.052126
 20
-4.177083
  0
VERTEX
  8
PLAN_1
  6
CONTINUOUS
 10
2.056331
 20
-4.175504
  0
VERTEX
  8
PLAN_1
  6
CONTINUOUS
 10
2.060008
 20
-4.173402
  0
VERTEX
  8
PLAN_1
  6
CONTINUOUS
 10
2.063689
 20
-4.170776
  0
VERTEX
  8
PLAN_1
  6
CONTINUOUS
 10
2.066843
 20
-4.168146
  0
VERTEX
  8
PLAN_1
  6
CONTINUOUS
 10
2.069469
 20
-4.164992
  0
VERTEX
  8
PLAN_1
  6
CONTINUOUS
 10
2.071571
 20
-4.161315
  0
VERTEX
  8
PLAN_1
  6
CONTINUOUS
 10
2.073673
 20
-4.157638
  0
VERTEX
  8
PLAN_1
  6
CONTINUOUS
 10
2.074724
 20
-4.152906
  0
VERTEX
  8
PLAN_1
  6
CONTINUOUS
 10
2.074724
 20
-4.147654
  0
VERTEX
  8
PLAN_1
  6
CONTINUOUS
 10
2.074724
 20
-4.143972
  0
VERTEX
  8
PLAN_1
  6
CONTINUOUS
 10
2.074197
 20
-4.140819
  0
VERTEX
  8
PLAN_1
  6
CONTINUOUS
 10
2.073673
 20
-4.137665
  0
VERTEX
  8
PLAN_1
  6
CONTINUOUS
 10
2.072622
 20
-4.134512
  0
VERTEX
  8
PLAN_1
  6
CONTINUOUS
 10
2.071571
 20
-4.131886
  0
VERTEX
  8
PLAN_1
  6
CONTINUOUS
 10
2.069992
 20
-4.129783
  0
VERTEX
  8
PLAN_1
  6
CONTINUOUS
 10
2.068417
 20
-4.127157
  0
VERTEX
  8
PLAN_1
  6
CONTINUOUS
 10
2.065791
 20
-4.125055
  0
VERTEX
  8
PLAN_1
  6
CONTINUOUS
 10
2.063161
 20
-4.123476
  0
VERTEX
  8
PLAN_1
  6
CONTINUOUS
 10
2.060008
 20
-4.121374
  0
VERTEX
  8
PLAN_1
  6
CONTINUOUS
 10
2.056854
 20
-4.119799
  0
VERTEX
  8
PLAN_1
  6
CONTINUOUS
 10
2.052654
 20
-4.118220
  0
VERTEX
  8
PLAN_1
  6
CONTINUOUS
 10
2.043717
 20
-4.115594
  0
VERTEX
  8
PLAN_1
  6
CONTINUOUS
 10
2.032681
 20
-4.112441
  0
VERTEX
  8
PLAN_1
  6
CONTINUOUS
 10
1.991689
 20
-4.102980
  0
VERTEX
  8
PLAN_1
  6
CONTINUOUS
 10
1.985909
 20
-4.101406
  0
VERTEX
  8
PLAN_1
  6
CONTINUOUS
 10
1.979602
 20
-4.099303
  0
VERTEX
  8
PLAN_1
  6
CONTINUOUS
 10
1.975925
 20
-4.097728
  0
VERTEX
  8
PLAN_1
  6
CONTINUOUS
 10
1.972248
 20
-4.096150
  0
VERTEX
  8
PLAN_1
  6
CONTINUOUS
 10
1.969094
 20
-4.094047
  0
VERTEX
  8
PLAN_1
  6
CONTINUOUS
 10
1.965413
 20
-4.091421
  0
VERTEX
  8
PLAN_1
  6
CONTINUOUS
 10
1.962260
 20
-4.088791
  0
VERTEX
  8
PLAN_1
  6
CONTINUOUS
 10
1.959106
 20
-4.085638
  0
VERTEX
  8
PLAN_1
  6
CONTINUOUS
 10
1.956480
 20
-4.081961
  0
VERTEX
  8
PLAN_1
  6
CONTINUOUS
 10
1.953854
 20
-4.077756
  0
VERTEX
  8
PLAN_1
  6
CONTINUOUS
 10
1.951752
 20
-4.073028
  0
VERTEX
  8
PLAN_1
  6
CONTINUOUS
 10
1.950701
 20
-4.068299
  0
VERTEX
  8
PLAN_1
  6
CONTINUOUS
 10
1.949650
 20
-4.062516
  0
VERTEX
  8
PLAN_1
  6
CONTINUOUS
 10
1.949122
 20
-4.056209
  0
VERTEX
  8
PLAN_1
  6
CONTINUOUS
 10
1.949650
 20
-4.050429
  0
VERTEX
  8
PLAN_1
  6
CONTINUOUS
 10
1.950173
 20
-4.044650
  0
VERTEX
  8
PLAN_1
  6
CONTINUOUS
 10
1.951224
 20
-4.038866
  0
VERTEX
  8
PLAN_1
  6
CONTINUOUS
 10
1.953327
 20
-4.033614
  0
VERTEX
  8
PLAN_1
  6
CONTINUOUS
 10
1.955429
 20
-4.028358
  0
VERTEX
  8
PLAN_1
  6
CONTINUOUS
 10
1.958055
 20
-4.023102
  0
VERTEX
  8
PLAN_1
  6
CONTINUOUS
 10
1.961209
 20
-4.018374
  0
VERTEX
  8
PLAN_1
  6
CONTINUOUS
 10
1.965413
 20
-4.013642
  0
VERTEX
  8
PLAN_1
  6
CONTINUOUS
 10
1.969618
 20
-4.009437
  0
VERTEX
  8
PLAN_1
  6
CONTINUOUS
 10
1.974874
 20
-4.005760
  0
VERTEX
  8
PLAN_1
  6
CONTINUOUS
 10
1.980654
 20
-4.002606
  0
VERTEX
  8
PLAN_1
  6
CONTINUOUS
 10
1.986437
 20
-3.999980
  0
VERTEX
  8
PLAN_1
  6
CONTINUOUS
 10
1.993268
 20
-3.997350
  0
VERTEX
  8
PLAN_1
  6
CONTINUOUS
 10
2.001150
 20
-3.995776
  0
VERTEX
  8
PLAN_1
  6
CONTINUOUS
 10
2.009031
 20
-3.994724
  0
VERTEX
  8
PLAN_1
  6
CONTINUOUS
 10
2.017969
 20
-3.994724
  0
VERTEX
  8
PLAN_1
  6
CONTINUOUS
 10
2.030055
 20
-3.995248
  0
VERTEX
  8
PLAN_1
  6
CONTINUOUS
 10
2.041091
 20
-3.996299
  0
VERTEX
  8
PLAN_1
  6
CONTINUOUS
 10
2.050551
 20
-3.998402
  0
VERTEX
  8
PLAN_1
  6
CONTINUOUS
 10
2.058957
 20
-4.001555
  0
VERTEX
  8
PLAN_1
  6
CONTINUOUS
 10
2.066315
 20
-4.004709
  0
VERTEX
  8
PLAN_1
  6
CONTINUOUS
 10
2.072622
 20
-4.008913
  0
VERTEX
  8
PLAN_1
  6
CONTINUOUS
 10
2.077878
 20
-4.013118
  0
VERTEX
  8
PLAN_1
  6
CONTINUOUS
 10
2.082083
 20
-4.018374
  0
VERTEX
  8
PLAN_1
  6
CONTINUOUS
 10
2.085760
 20
-4.023102
  0
VERTEX
  8
PLAN_1
  6
CONTINUOUS
 10
2.088913
 20
-4.028358
  0
VERTEX
  8
PLAN_1
  6
CONTINUOUS
 10
2.091016
 20
-4.033614
  0
VERTEX
  8
PLAN_1
  6
CONTINUOUS
 10
2.092591
 20
-4.038866
  0
VERTEX
  8
PLAN_1
  6
CONTINUOUS
 10
2.094693
 20
-4.049378
  0
VERTEX
  8
PLAN_1
  6
CONTINUOUS
 10
2.095220
 20
-4.058311
  0
VERTEX
  8
PLAN_1
  6
CONTINUOUS
 10
2.069992
 20
-4.058311
  0
SEQEND
  8
0
  0
POLYLINE
  8
PLAN_1
  6
CONTINUOUS
 66
     1
 40
0.008406
 41
0.008406
  0
VERTEX
  8
PLAN_1
  6
CONTINUOUS
 10
-0.379480
 20
-1.072276
  0
VERTEX
  8
PLAN_1
  6
CONTINUOUS
 10
-0.379480
 20
2.849720
  0
VERTEX
  8
PLAN_1
  6
CONTINUOUS
 10
-1.677528
 20
2.849720
  0
VERTEX
  8
PLAN_1
  6
CONTINUOUS
 10
-1.677528
 20
2.014661
  0
VERTEX
  8
PLAN_1
  6
CONTINUOUS
 10
-1.997047
 20
2.014661
  0
VERTEX
  8
PLAN_1
  6
CONTINUOUS
 10
-1.997047
 20
-1.072276
  0
VERTEX
  8
PLAN_1
  6
CONTINUOUS
 10
-0.379480
 20
-1.072276
  0
SEQEND
  8
0
  0
POLYLINE
  8
PLAN_1
  6
CONTINUOUS
 66
     1
 40
0.008406
 41
0.008406
  0
VERTEX
  8
PLAN_1
  6
CONTINUOUS
 10
-1.365366
 20
2.014661
  0
VERTEX
  8
PLAN_1
  6
CONTINUOUS
 10
-1.365366
 20
2.214362
  0
VERTEX
  8
PLAN_1
  6
CONTINUOUS
 10
-1.678579
 20
2.214362
  0
SEQEND
  8
0
  0
POLYLINE
  8
PLAN_1
  6
CONTINUOUS
 66
     1
 40
0.008406
 41
0.008406
  0
VERTEX
  8
PLAN_1
  6
CONTINUOUS
 10
-0.379480
 20
2.214362
  0
VERTEX
  8
PLAN_1
  6
CONTINUOUS
 10
-0.696898
 20
2.214362
  0
VERTEX
  8
PLAN_1
  6
CONTINUOUS
 10
-0.696898
 20
2.014661
  0
SEQEND
  8
0
  0
POLYLINE
  8
PLAN_1
  6
CONTINUOUS
 66
     1
 40
0.008406
 41
0.008406
  0
VERTEX
  8
PLAN_1
  6
CONTINUOUS
 10
-0.357409
 20
1.680425
  0
VERTEX
  8
PLAN_1
  6
CONTINUOUS
 10
-0.357409
 20
1.981551
  0
VERTEX
  8
PLAN_1
  6
CONTINUOUS
 10
-0.376327
 20
1.981551
  0
VERTEX
  8
PLAN_1
  6
CONTINUOUS
 10
-0.376327
 20
1.680425
  0
VERTEX
  8
PLAN_1
  6
CONTINUOUS
 10
-0.357409
 20
1.680425
  0
SEQEND
  8
0
  0
POLYLINE
  8
PLAN_1
  6
CONTINUOUS
 66
     1
 40
0.008406
 41
0.008406
  0
VERTEX
  8
PLAN_1
  6
CONTINUOUS
 10
-0.357409
 20
-1.043374
  0
VERTEX
  8
PLAN_1
  6
CONTINUOUS
 10
-0.357409
 20
-0.742772
  0
VERTEX
  8
PLAN_1
  6
CONTINUOUS
 10
-0.376327
 20
-0.742772
  0
VERTEX
  8
PLAN_1
  6
CONTINUOUS
 10
-0.376327
 20
-1.043374
  0
VERTEX
  8
PLAN_1
  6
CONTINUOUS
 10
-0.357409
 20
-1.043374
  0
SEQEND
  8
0
  0
POLYLINE
  8
PLAN_1
  6
CONTINUOUS
 66
     1
 40
0.008406
 41
0.008406
  0
VERTEX
  8
PLAN_1
  6
CONTINUOUS
 10
-1.921898
 20
2.014661
  0
VERTEX
  8
PLAN_1
  6
CONTINUOUS
 10
-1.921898
 20
-1.072276
  0
SEQEND
  8
0
  0
POLYLINE
  8
PLAN_1
  6
CONTINUOUS
 66
     1
 40
0.008406
 41
0.008406
  0
VERTEX
  8
PLAN_1
  6
CONTINUOUS
 10
-1.838866
 20
2.014661
  0
VERTEX
  8
PLAN_1
  6
CONTINUOUS
 10
-1.838866
 20
-1.072276
  0
SEQEND
  8
0
  0
POLYLINE
  8
PLAN_1
  6
CONTINUOUS
 66
     1
 40
0.008406
 41
0.008406
  0
VERTEX
  8
PLAN_1
  6
CONTINUOUS
 10
-1.838866
 20
1.432378
  0
VERTEX
  8
PLAN_1
  6
CONTINUOUS
 10
-1.678579
 20
1.432378
  0
VERTEX
  8
PLAN_1
  6
CONTINUOUS
 10
-1.678579
 20
2.014661
  0
SEQEND
  8
0
  0
POLYLINE
  8
PLAN_1
  6
CONTINUOUS
 66
     1
 40
0.008406
 41
0.008406
  0
VERTEX
  8
PLAN_1
  6
CONTINUOUS
 10
-1.835185
 20
-0.524677
  0
VERTEX
  8
PLAN_1
  6
CONTINUOUS
 10
-1.677528
 20
-0.524677
  0
VERTEX
  8
PLAN_1
  6
CONTINUOUS
 10
-1.677528
 20
-1.073854
  0
SEQEND
  8
0
  0
POLYLINE
  8
PLAN_1
  6
CONTINUOUS
 66
     1
 40
0.008406
 41
0.008406
  0
VERTEX
  8
PLAN_1
  6
CONTINUOUS
 10
-1.997047
 20
-0.986091
  0
VERTEX
  8
PLAN_1
  6
CONTINUOUS
 10
-1.997047
 20
-0.730157
  0
VERTEX
  8
PLAN_1
  6
CONTINUOUS
 10
-2.094795
 20
-0.730157
  0
VERTEX
  8
PLAN_1
  6
CONTINUOUS
 10
-2.094795
 20
-0.986091
  0
VERTEX
  8
PLAN_1
  6
CONTINUOUS
 10
-1.997047
 20
-0.986091
  0
SEQEND
  8
0
  0
POLYLINE
  8
PLAN_1
  6
CONTINUOUS
 66
     1
 40
0.008406
 41
0.008406
  0
VERTEX
  8
PLAN_1
  6
CONTINUOUS
 10
-2.042244
 20
-0.963492
  0
VERTEX
  8
PLAN_1
  6
CONTINUOUS
 10
-2.042244
 20
-0.940894
  0
VERTEX
  8
PLAN_1
  6
CONTINUOUS
 10
-2.094795
 20
-0.940894
  0
VERTEX
  8
PLAN_1
  6
CONTINUOUS
 10
-2.094795
 20
-0.963492
  0
VERTEX
  8
PLAN_1
  6
CONTINUOUS
 10
-2.042244
 20
-0.963492
  0
SEQEND
  8
0
  0
POLYLINE
  8
PLAN_1
  6
CONTINUOUS
 66
     1
 40
0.008406
 41
0.008406
  0
VERTEX
  8
PLAN_1
  6
CONTINUOUS
 10
-1.997047
 20
1.931102
  0
VERTEX
  8
PLAN_1
  6
CONTINUOUS
 10
-1.997047
 20
1.675169
  0
VERTEX
  8
PLAN_1
  6
CONTINUOUS
 10
-2.094795
 20
1.675169
  0
VERTEX
  8
PLAN_1
  6
CONTINUOUS
 10
-2.094795
 20
1.931102
  0
VERTEX
  8
PLAN_1
  6
CONTINUOUS
 10
-1.997047
 20
1.931102
  0
SEQEND
  8
0
  0
POLYLINE
  8
PLAN_1
  6
CONTINUOUS
 66
     1
 40
0.008406
 41
0.008406
  0
VERTEX
  8
PLAN_1
  6
CONTINUOUS
 10
-2.042244
 20
1.908504
  0
VERTEX
  8
PLAN_1
  6
CONTINUOUS
 10
-2.042244
 20
1.885906
  0
VERTEX
  8
PLAN_1
  6
CONTINUOUS
 10
-2.094795
 20
1.885906
  0
VERTEX
  8
PLAN_1
  6
CONTINUOUS
 10
-2.094795
 20
1.908504
  0
VERTEX
  8
PLAN_1
  6
CONTINUOUS
 10
-2.042244
 20
1.908504
  0
SEQEND
  8
0
  0
POLYLINE
  8
PLAN_1
  6
CONTINUOUS
 66
     1
 40
0.008406
 41
0.008406
  0
VERTEX
  8
PLAN_1
  6
CONTINUOUS
 10
-0.379480
 20
2.013083
  0
VERTEX
  8
PLAN_1
  6
CONTINUOUS
 10
-1.675425
 20
2.013083
  0
SEQEND
  8
0
  0
POLYLINE
  8
PLAN_1
  6
CONTINUOUS
 66
     1
 40
0.008406
 41
0.008406
  0
VERTEX
  8
PLAN_1
  6
CONTINUOUS
 10
-0.664315
 20
2.849720
  0
VERTEX
  8
PLAN_1
  6
CONTINUOUS
 10
-0.664315
 20
2.870217
  0
VERTEX
  8
PLAN_1
  6
CONTINUOUS
 10
-1.401626
 20
2.870217
  0
VERTEX
  8
PLAN_1
  6
CONTINUOUS
 10
-1.401626
 20
2.849720
  0
VERTEX
  8
PLAN_1
  6
CONTINUOUS
 10
-0.664315
 20
2.849720
  0
SEQEND
  8
0
  0
POLYLINE
  8
PLAN_1
  6
CONTINUOUS
 66
     1
 40
0.008406
 41
0.008406
  0
VERTEX
  8
PLAN_1
  6
CONTINUOUS
 10
-0.918669
 20
3.294315
  0
VERTEX
  8
PLAN_1
  6
CONTINUOUS
 10
-0.918669
 20
3.095665
  0
VERTEX
  8
PLAN_1
  6
CONTINUOUS
 10
-1.129929
 20
3.095665
  0
VERTEX
  8
PLAN_1
  6
CONTINUOUS
 10
-1.129929
 20
3.293791
  0
SEQEND
  8
0
  0
POLYLINE
  8
PLAN_1
  6
CONTINUOUS
 66
     1
 40
0.008406
 41
0.008406
  0
VERTEX
  8
PLAN_1
  6
CONTINUOUS
 10
-1.223476
 20
3.496642
  0
VERTEX
  8
PLAN_1
  6
CONTINUOUS
 10
-1.129929
 20
3.496642
  0
SEQEND
  8
0
  0
POLYLINE
  8
PLAN_1
  6
CONTINUOUS
 66
     1
 40
0.008406
 41
0.008406
  0
VERTEX
  8
PLAN_1
  6
CONTINUOUS
 10
-0.918669
 20
3.496642
  0
VERTEX
  8
PLAN_1
  6
CONTINUOUS
 10
-0.831433
 20
3.496642
  0
SEQEND
  8
0
  0
POLYLINE
  8
PLAN_1
  6
CONTINUOUS
 66
     1
 40
0.008406
 41
0.008406
  0
VERTEX
  8
PLAN_1
  6
CONTINUOUS
 10
-0.918669
 20
3.214961
  0
VERTEX
  8
PLAN_1
  6
CONTINUOUS
 10
-1.129929
 20
3.214961
  0
SEQEND
  8
0
  0
POLYLINE
  8
PLAN_1
  6
CONTINUOUS
 66
     1
 40
0.008406
 41
0.008406
  0
VERTEX
  8
PLAN_1
  6
CONTINUOUS
 10
-1.303354
 20
3.451972
  0
VERTEX
  8
PLAN_1
  6
CONTINUOUS
 10
-1.129929
 20
3.451972
  0
SEQEND
  8
0
  0
POLYLINE
  8
PLAN_1
  6
CONTINUOUS
 66
     1
 40
0.008406
 41
0.008406
  0
VERTEX
  8
PLAN_1
  6
CONTINUOUS
 10
-0.918669
 20
3.451972
  0
VERTEX
  8
PLAN_1
  6
CONTINUOUS
 10
-0.736839
 20
3.451972
  0
SEQEND
  8
0
  0
POLYLINE
  8
PLAN_1
  6
CONTINUOUS
 66
     1
 40
0.008406
 41
0.008406
  0
VERTEX
  8
PLAN_1
  6
CONTINUOUS
 10
-0.918669
 20
3.295366
  0
VERTEX
  8
PLAN_1
  6
CONTINUOUS
 10
-1.129929
 20
3.295366
  0
VERTEX
  8
PLAN_1
  6
CONTINUOUS
 10
-1.129929
 20
3.216539
  0
VERTEX
  8
PLAN_1
  6
CONTINUOUS
 10
-0.918669
 20
3.216539
  0
VERTEX
  8
PLAN_1
  6
CONTINUOUS
 10
-0.918669
 20
3.295366
  0
SEQEND
  8
0
  0
POLYLINE
  8
PLAN_1
  6
CONTINUOUS
 66
     1
 40
0.008406
 41
0.008406
  0
VERTEX
  8
PLAN_1
  6
CONTINUOUS
 10
-1.224000
 20
3.684256
  0
VERTEX
  8
PLAN_1
  6
CONTINUOUS
 10
-1.224000
 20
3.685831
  0
SEQEND
  8
0
  0
POLYLINE
  8
PLAN_1
  6
CONTINUOUS
 66
     1
 40
0.008406
 41
0.008406
  0
VERTEX
  8
PLAN_1
  6
CONTINUOUS
 10
-1.224000
 20
3.685831
  0
VERTEX
  8
PLAN_1
  6
CONTINUOUS
 10
-1.212437
 20
3.695291
  0
VERTEX
  8
PLAN_1
  6
CONTINUOUS
 10
-1.200878
 20
3.703701
  0
VERTEX
  8
PLAN_1
  6
CONTINUOUS
 10
-1.189843
 20
3.712106
  0
VERTEX
  8
PLAN_1
  6
CONTINUOUS
 10
-1.178280
 20
3.719465
  0
VERTEX
  8
PLAN_1
  6
CONTINUOUS
 10
-1.166717
 20
3.726299
  0
VERTEX
  8
PLAN_1
  6
CONTINUOUS
 10
-1.155157
 20
3.732602
  0
VERTEX
  8
PLAN_1
  6
CONTINUOUS
 10
-1.142543
 20
3.738386
  0
VERTEX
  8
PLAN_1
  6
CONTINUOUS
 10
-1.129929
 20
3.743638
  0
SEQEND
  8
0
  0
POLYLINE
  8
PLAN_1
  6
CONTINUOUS
 66
     1
 40
0.008406
 41
0.008406
  0
VERTEX
  8
PLAN_1
  6
CONTINUOUS
 10
-1.224000
 20
3.684256
  0
VERTEX
  8
PLAN_1
  6
CONTINUOUS
 10
-1.224000
 20
3.495591
  0
VERTEX
  8
PLAN_1
  6
CONTINUOUS
 10
-1.313866
 20
3.452500
  0
VERTEX
  8
PLAN_1
  6
CONTINUOUS
 10
-1.313866
 20
2.870217
  0
VERTEX
  8
PLAN_1
  6
CONTINUOUS
 10
-0.735787
 20
2.870217
  0
VERTEX
  8
PLAN_1
  6
CONTINUOUS
 10
-0.735787
 20
3.452500
  0
VERTEX
  8
PLAN_1
  6
CONTINUOUS
 10
-0.828280
 20
3.495591
  0
VERTEX
  8
PLAN_1
  6
CONTINUOUS
 10
-0.828280
 20
3.686358
  0
SEQEND
  8
0
  0
POLYLINE
  8
PLAN_1
  6
CONTINUOUS
 66
     1
 40
0.008406
 41
0.008406
  0
VERTEX
  8
PLAN_1
  6
CONTINUOUS
 10
-0.828280
 20
3.686358
  0
VERTEX
  8
PLAN_1
  6
CONTINUOUS
 10
-0.838264
 20
3.694240
  0
VERTEX
  8
PLAN_1
  6
CONTINUOUS
 10
-0.848776
 20
3.701598
  0
VERTEX
  8
PLAN_1
  6
CONTINUOUS
 10
-0.859811
 20
3.708957
  0
VERTEX
  8
PLAN_1
  6
CONTINUOUS
 10
-0.870846
 20
3.715787
  0
VERTEX
  8
PLAN_1
  6
CONTINUOUS
 10
-0.882409
 20
3.722094
  0
VERTEX
  8
PLAN_1
  6
CONTINUOUS
 10
-0.893969
 20
3.728398
  0
VERTEX
  8
PLAN_1
  6
CONTINUOUS
 10
-0.906055
 20
3.733654
  0
VERTEX
  8
PLAN_1
  6
CONTINUOUS
 10
-0.918669
 20
3.738386
  0
SEQEND
  8
0
  0
POLYLINE
  8
PLAN_1
  6
CONTINUOUS
 66
     1
 40
0.008406
 41
0.008406
  0
VERTEX
  8
PLAN_1
  6
CONTINUOUS
 10
-1.224524
 20
3.684256
  0
VERTEX
  8
PLAN_1
  6
CONTINUOUS
 10
-1.224000
 20
3.684256
  0
SEQEND
  8
0
  0
POLYLINE
  8
PLAN_1
  6
CONTINUOUS
 66
     1
 40
0.008406
 41
0.008406
  0
VERTEX
  8
PLAN_1
  6
CONTINUOUS
 10
-0.831957
 20
3.684256
  0
VERTEX
  8
PLAN_1
  6
CONTINUOUS
 10
-0.918669
 20
3.684256
  0
SEQEND
  8
0
  0
POLYLINE
  8
PLAN_1
  6
CONTINUOUS
 66
     1
 40
0.008406
 41
0.008406
  0
VERTEX
  8
PLAN_1
  6
CONTINUOUS
 10
-1.224000
 20
3.684256
  0
VERTEX
  8
PLAN_1
  6
CONTINUOUS
 10
-1.129929
 20
3.684256
  0
SEQEND
  8
0
  0
POLYLINE
  8
PLAN_1
  6
CONTINUOUS
 66
     1
 40
0.008406
 41
0.008406
  0
VERTEX
  8
PLAN_1
  6
CONTINUOUS
 10
-0.918669
 20
3.738386
  0
VERTEX
  8
PLAN_1
  6
CONTINUOUS
 10
-0.918669
 20
3.791988
  0
VERTEX
  8
PLAN_1
  6
CONTINUOUS
 10
-1.129929
 20
3.791988
  0
VERTEX
  8
PLAN_1
  6
CONTINUOUS
 10
-1.129929
 20
3.743638
  0
SEQEND
  8
0
  0
POLYLINE
  8
PLAN_1
  6
CONTINUOUS
 66
     1
 40
0.008406
 41
0.008406
  0
VERTEX
  8
PLAN_1
  6
CONTINUOUS
 10
-0.918669
 20
3.684256
  0
VERTEX
  8
PLAN_1
  6
CONTINUOUS
 10
-0.918669
 20
3.295894
  0
VERTEX
  8
PLAN_1
  6
CONTINUOUS
 10
-1.129929
 20
3.295894
  0
VERTEX
  8
PLAN_1
  6
CONTINUOUS
 10
-1.129929
 20
3.684256
  0
SEQEND
  8
0
  0
POLYLINE
  8
PLAN_1
  6
CONTINUOUS
 66
     1
 40
0.008406
 41
0.008406
  0
VERTEX
  8
PLAN_1
  6
CONTINUOUS
 10
-0.918669
 20
3.738386
  0
VERTEX
  8
PLAN_1
  6
CONTINUOUS
 10
-0.918669
 20
3.684256
  0
SEQEND
  8
0
  0
POLYLINE
  8
PLAN_1
  6
CONTINUOUS
 66
     1
 40
0.008406
 41
0.008406
  0
VERTEX
  8
PLAN_1
  6
CONTINUOUS
 10
-1.129929
 20
3.743638
  0
VERTEX
  8
PLAN_1
  6
CONTINUOUS
 10
-1.129929
 20
3.684256
  0
SEQEND
  8
0
  0
POLYLINE
  8
PLAN_1
  6
CONTINUOUS
 66
     1
 40
0.008406
 41
0.008406
  0
VERTEX
  8
PLAN_1
  6
CONTINUOUS
 10
-0.536614
 20
-1.151106
  0
VERTEX
  8
PLAN_1
  6
CONTINUOUS
 10
-0.536614
 20
-1.072276
  0
VERTEX
  8
PLAN_1
  6
CONTINUOUS
 10
-1.402154
 20
-1.072276
  0
VERTEX
  8
PLAN_1
  6
CONTINUOUS
 10
-1.402154
 20
-1.151106
  0
VERTEX
  8
PLAN_1
  6
CONTINUOUS
 10
-0.536614
 20
-1.151106
  0
SEQEND
  8
0
  0
POLYLINE
  8
PLAN_1
  6
CONTINUOUS
 66
     1
 40
0.008406
 41
0.008406
  0
VERTEX
  8
PLAN_1
  6
CONTINUOUS
 10
-1.386913
 20
-1.072276
  0
VERTEX
  8
PLAN_1
  6
CONTINUOUS
 10
-1.386913
 20
-1.151106
  0
SEQEND
  8
0
  0
POLYLINE
  8
PLAN_1
  6
CONTINUOUS
 66
     1
 40
0.008406
 41
0.008406
  0
VERTEX
  8
PLAN_1
  6
CONTINUOUS
 10
-1.127303
 20
-1.544197
  0
VERTEX
  8
PLAN_1
  6
CONTINUOUS
 10
-0.811461
 20
-1.544197
  0
VERTEX
  8
PLAN_1
  6
CONTINUOUS
 10
-0.772575
 20
-1.504783
  0
VERTEX
  8
PLAN_1
  6
CONTINUOUS
 10
-0.772575
 20
-1.151106
  0
VERTEX
  8
PLAN_1
  6
CONTINUOUS
 10
-1.166193
 20
-1.151106
  0
VERTEX
  8
PLAN_1
  6
CONTINUOUS
 10
-1.166193
 20
-1.504783
  0
VERTEX
  8
PLAN_1
  6
CONTINUOUS
 10
-1.127303
 20
-1.544197
  0
SEQEND
  8
0
  0
POLYLINE
  8
PLAN_1
  6
CONTINUOUS
 66
     1
 40
0.004201
 41
0.004201
  0
VERTEX
  8
PLAN_1
  6
CONTINUOUS
 10
-1.126780
 20
-1.151106
  0
VERTEX
  8
PLAN_1
  6
CONTINUOUS
 10
-1.126780
 20
-1.544197
  0
SEQEND
  8
0
  0
POLYLINE
  8
PLAN_1
  6
CONTINUOUS
 66
     1
 40
0.004201
 41
0.004201
  0
VERTEX
  8
PLAN_1
  6
CONTINUOUS
 10
-0.811988
 20
-1.151106
  0
VERTEX
  8
PLAN_1
  6
CONTINUOUS
 10
-0.811988
 20
-1.544197
  0
SEQEND
  8
0
  0
POLYLINE
  8
PLAN_1
  6
CONTINUOUS
 66
     1
 40
0.008406
 41
0.008406
  0
VERTEX
  8
PLAN_1
  6
CONTINUOUS
 10
-0.772575
 20
-1.504783
  0
VERTEX
  8
PLAN_1
  6
CONTINUOUS
 10
-1.166193
 20
-1.504783
  0
SEQEND
  8
0
  0
POLYLINE
  8
PLAN_1
  6
CONTINUOUS
 66
     1
 40
0.008406
 41
0.008406
  0
VERTEX
  8
PLAN_1
  6
CONTINUOUS
 10
-0.553429
 20
-1.072276
  0
VERTEX
  8
PLAN_1
  6
CONTINUOUS
 10
-0.553429
 20
-1.151106
  0
SEQEND
  8
0
  0
POLYLINE
  8
PLAN_1
  6
CONTINUOUS
 66
     1
 40
0.008406
 41
0.008406
  0
VERTEX
  8
PLAN_1
  6
CONTINUOUS
 10
-1.037437
 20
-1.072276
  0
VERTEX
  8
PLAN_1
  6
CONTINUOUS
 10
-1.037437
 20
-1.151106
  0
SEQEND
  8
0
  0
POLYLINE
  8
PLAN_1
  6
CONTINUOUS
 66
     1
 40
0.008406
 41
0.008406
  0
VERTEX
  8
PLAN_1
  6
CONTINUOUS
 10
-0.901854
 20
-1.072276
  0
VERTEX
  8
PLAN_1
  6
CONTINUOUS
 10
-0.901854
 20
-1.151106
  0
SEQEND
  8
0
  0
POLYLINE
  8
PLAN_1
 62
     2
  6
CONTINUOUS
 66
     1
 40
0.004201
 41
0.004201
  0
VERTEX
  8
PLAN_1
 62
     2
  6
CONTINUOUS
 10
-0.357409
 20
-1.606736
  0
VERTEX
  8
PLAN_1
 62
     2
  6
CONTINUOUS
 10
-0.357409
 20
-1.880008
  0
SEQEND
  8
0
  0
POLYLINE
  8
PLAN_1
 62
     2
  6
CONTINUOUS
 66
     1
 40
0.004201
 41
0.004201
  0
VERTEX
  8
PLAN_1
 62
     2
  6
CONTINUOUS
 10
-1.677528
 20
-1.095925
  0
VERTEX
  8
PLAN_1
 62
     2
  6
CONTINUOUS
 10
-1.677528
 20
-1.722350
  0
SEQEND
  8
0
  0
POLYLINE
  8
PLAN_1
 62
     2
  6
CONTINUOUS
 66
     1
 40
0.004201
 41
0.004201
  0
VERTEX
  8
PLAN_1
 62
     2
  6
CONTINUOUS
 10
-1.647575
 20
-1.698701
  0
VERTEX
  8
PLAN_1
 62
     2
  6
CONTINUOUS
 10
-0.386839
 20
-1.698701
  0
SEQEND
  8
0
  0
SOLID
  8
PLAN_1
 62
     2
 10
-0.357409
 20
-1.698701
 11
-0.416268
 21
-1.682937
 12
-0.357409
 22
-1.698701
 13
-0.416268
 23
-1.714469
  0
POLYLINE
  8
PLAN_1
 62
     2
  6
CONTINUOUS
 66
     1
 40
0.003000
 41
0.003000
  0
VERTEX
  8
PLAN_1
 62
     2
  6
CONTINUOUS
 10
-0.357409
 20
-1.698701
  0
VERTEX
  8
PLAN_1
 62
     2
  6
CONTINUOUS
 10
-0.416268
 20
-1.682937
  0
VERTEX
  8
PLAN_1
 62
     2
  6
CONTINUOUS
 10
-0.416268
 20
-1.714469
  0
VERTEX
  8
PLAN_1
 62
     2
  6
CONTINUOUS
 10
-0.357409
 20
-1.698701
  0
SEQEND
  8
0
  0
SOLID
  8
PLAN_1
 62
     2
 10
-1.677528
 20
-1.698701
 11
-1.618146
 21
-1.682937
 12
-1.677528
 22
-1.698701
 13
-1.618146
 23
-1.714469
  0
POLYLINE
  8
PLAN_1
 62
     2
  6
CONTINUOUS
 66
     1
 40
0.003000
 41
0.003000
  0
VERTEX
  8
PLAN_1
 62
     2
  6
CONTINUOUS
 10
-1.677528
 20
-1.698701
  0
VERTEX
  8
PLAN_1
 62
     2
  6
CONTINUOUS
 10
-1.618146
 20
-1.682937
  0
VERTEX
  8
PLAN_1
 62
     2
  6
CONTINUOUS
 10
-1.618146
 20
-1.714469
  0
VERTEX
  8
PLAN_1
 62
     2
  6
CONTINUOUS
 10
-1.677528
 20
-1.698701
  0
SEQEND
  8
0
  0
POLYLINE
  8
PLAN_1
 62
     2
  6
CONTINUOUS
 66
     1
 40
0.003000
 41
0.003000
  0
VERTEX
  8
PLAN_1
 62
     2
  6
CONTINUOUS
 10
-1.095248
 20
-1.633539
  0
VERTEX
  8
PLAN_1
 62
     2
  6
CONTINUOUS
 10
-1.094720
 20
-1.633539
  0
VERTEX
  8
PLAN_1
 62
     2
  6
CONTINUOUS
 10
-1.094197
 20
-1.633539
  0
VERTEX
  8
PLAN_1
 62
     2
  6
CONTINUOUS
 10
-1.093669
 20
-1.633539
  0
VERTEX
  8
PLAN_1
 62
     2
  6
CONTINUOUS
 10
-1.093146
 20
-1.633539
  0
VERTEX
  8
PLAN_1
 62
     2
  6
CONTINUOUS
 10
-1.092094
 20
-1.633539
  0
VERTEX
  8
PLAN_1
 62
     2
  6
CONTINUOUS
 10
-1.091567
 20
-1.633539
  0
VERTEX
  8
PLAN_1
 62
     2
  6
CONTINUOUS
 10
-1.091043
 20
-1.634063
  0
VERTEX
  8
PLAN_1
 62
     2
  6
CONTINUOUS
 10
-1.090516
 20
-1.634063
  0
VERTEX
  8
PLAN_1
 62
     2
  6
CONTINUOUS
 10
-1.087890
 20
-1.633539
  0
VERTEX
  8
PLAN_1
 62
     2
  6
CONTINUOUS
 10
-1.085260
 20
-1.633012
  0
VERTEX
  8
PLAN_1
 62
     2
  6
CONTINUOUS
 10
-1.083157
 20
-1.632488
  0
VERTEX
  8
PLAN_1
 62
     2
  6
CONTINUOUS
 10
-1.081055
 20
-1.631437
  0
VERTEX
  8
PLAN_1
 62
     2
  6
CONTINUOUS
 10
-1.078957
 20
-1.629858
  0
VERTEX
  8
PLAN_1
 62
     2
  6
CONTINUOUS
 10
-1.077906
 20
-1.627756
  0
VERTEX
  8
PLAN_1
 62
     2
  6
CONTINUOUS
 10
-1.076854
 20
-1.625130
  0
VERTEX
  8
PLAN_1
 62
     2
  6
CONTINUOUS
 10
-1.076327
 20
-1.621976
  0
VERTEX
  8
PLAN_1
 62
     2
  6
CONTINUOUS
 10
-1.076854
 20
-1.619874
  0
VERTEX
  8
PLAN_1
 62
     2
  6
CONTINUOUS
 10
-1.077378
 20
-1.618299
  0
VERTEX
  8
PLAN_1
 62
     2
  6
CONTINUOUS
 10
-1.077906
 20
-1.616197
  0
VERTEX
  8
PLAN_1
 62
     2
  6
CONTINUOUS
 10
-1.079480
 20
-1.614618
  0
VERTEX
  8
PLAN_1
 62
     2
  6
CONTINUOUS
 10
-1.081055
 20
-1.613043
  0
VERTEX
  8
PLAN_1
 62
     2
  6
CONTINUOUS
 10
-1.083157
 20
-1.611465
  0
VERTEX
  8
PLAN_1
 62
     2
  6
CONTINUOUS
 10
-1.086311
 20
-1.610413
  0
VERTEX
  8
PLAN_1
 62
     2
  6
CONTINUOUS
 10
-1.089992
 20
-1.610413
  0
VERTEX
  8
PLAN_1
 62
     2
  6
CONTINUOUS
 10
-1.094197
 20
-1.610941
  0
VERTEX
  8
PLAN_1
 62
     2
  6
CONTINUOUS
 10
-1.097874
 20
-1.611992
  0
VERTEX
  8
PLAN_1
 62
     2
  6
CONTINUOUS
 10
-1.099976
 20
-1.614094
  0
VERTEX
  8
PLAN_1
 62
     2
  6
CONTINUOUS
 10
-1.102079
 20
-1.616197
  0
VERTEX
  8
PLAN_1
 62
     2
  6
CONTINUOUS
 10
-1.103130
 20
-1.618823
  0
VERTEX
  8
PLAN_1
 62
     2
  6
CONTINUOUS
 10
-1.103654
 20
-1.621449
  0
VERTEX
  8
PLAN_1
 62
     2
  6
CONTINUOUS
 10
-1.104181
 20
-1.624079
  0
VERTEX
  8
PLAN_1
 62
     2
  6
CONTINUOUS
 10
-1.104181
 20
-1.626181
  0
VERTEX
  8
PLAN_1
 62
     2
  6
CONTINUOUS
 10
-1.113114
 20
-1.626181
  0
VERTEX
  8
PLAN_1
 62
     2
  6
CONTINUOUS
 10
-1.113114
 20
-1.621976
  0
VERTEX
  8
PLAN_1
 62
     2
  6
CONTINUOUS
 10
-1.112063
 20
-1.617772
  0
VERTEX
  8
PLAN_1
 62
     2
  6
CONTINUOUS
 10
-1.111012
 20
-1.613567
  0
VERTEX
  8
PLAN_1
 62
     2
  6
CONTINUOUS
 10
-1.108909
 20
-1.609890
  0
VERTEX
  8
PLAN_1
 62
     2
  6
CONTINUOUS
 10
-1.107335
 20
-1.608311
  0
VERTEX
  8
PLAN_1
 62
     2
  6
CONTINUOUS
 10
-1.105756
 20
-1.606736
  0
VERTEX
  8
PLAN_1
 62
     2
  6
CONTINUOUS
 10
-1.103654
 20
-1.605685
  0
VERTEX
  8
PLAN_1
 62
     2
  6
CONTINUOUS
 10
-1.101551
 20
-1.604106
  0
VERTEX
  8
PLAN_1
 62
     2
  6
CONTINUOUS
 10
-1.098925
 20
-1.603583
  0
VERTEX
  8
PLAN_1
 62
     2
  6
CONTINUOUS
 10
-1.096299
 20
-1.602531
  0
VERTEX
  8
PLAN_1
 62
     2
  6
CONTINUOUS
 10
-1.093146
 20
-1.602008
  0
VERTEX
  8
PLAN_1
 62
     2
  6
CONTINUOUS
 10
-1.089465
 20
-1.602008
  0
VERTEX
  8
PLAN_1
 62
     2
  6
CONTINUOUS
 10
-1.084736
 20
-1.602531
  0
VERTEX
  8
PLAN_1
 62
     2
  6
CONTINUOUS
 10
-1.080008
 20
-1.603583
  0
VERTEX
  8
PLAN_1
 62
     2
  6
CONTINUOUS
 10
-1.076327
 20
-1.605157
  0
VERTEX
  8
PLAN_1
 62
     2
  6
CONTINUOUS
 10
-1.073173
 20
-1.607787
  0
VERTEX
  8
PLAN_1
 62
     2
  6
CONTINUOUS
 10
-1.070547
 20
-1.610413
  0
VERTEX
  8
PLAN_1
 62
     2
  6
CONTINUOUS
 10
-1.068445
 20
-1.613567
  0
VERTEX
  8
PLAN_1
 62
     2
  6
CONTINUOUS
 10
-1.067394
 20
-1.617248
  0
VERTEX
  8
PLAN_1
 62
     2
  6
CONTINUOUS
 10
-1.066866
 20
-1.621449
  0
VERTEX
  8
PLAN_1
 62
     2
  6
CONTINUOUS
 10
-1.067394
 20
-1.624602
  0
VERTEX
  8
PLAN_1
 62
     2
  6
CONTINUOUS
 10
-1.067917
 20
-1.627232
  0
VERTEX
  8
PLAN_1
 62
     2
  6
CONTINUOUS
 10
-1.068969
 20
-1.629858
  0
VERTEX
  8
PLAN_1
 62
     2
  6
CONTINUOUS
 10
-1.070547
 20
-1.631961
  0
VERTEX
  8
PLAN_1
 62
     2
  6
CONTINUOUS
 10
-1.071598
 20
-1.633539
  0
VERTEX
  8
PLAN_1
 62
     2
  6
CONTINUOUS
 10
-1.073173
 20
-1.634591
  0
VERTEX
  8
PLAN_1
 62
     2
  6
CONTINUOUS
 10
-1.074752
 20
-1.635638
  0
VERTEX
  8
PLAN_1
 62
     2
  6
CONTINUOUS
 10
-1.076327
 20
-1.636165
  0
VERTEX
  8
PLAN_1
 62
     2
  6
CONTINUOUS
 10
-1.076327
 20
-1.636689
  0
VERTEX
  8
PLAN_1
 62
     2
  6
CONTINUOUS
 10
-1.073701
 20
-1.637740
  0
VERTEX
  8
PLAN_1
 62
     2
  6
CONTINUOUS
 10
-1.071598
 20
-1.638791
  0
VERTEX
  8
PLAN_1
 62
     2
  6
CONTINUOUS
 10
-1.069496
 20
-1.640370
  0
VERTEX
  8
PLAN_1
 62
     2
  6
CONTINUOUS
 10
-1.067917
 20
-1.642472
  0
VERTEX
  8
PLAN_1
 62
     2
  6
CONTINUOUS
 10
-1.066343
 20
-1.644575
  0
VERTEX
  8
PLAN_1
 62
     2
  6
CONTINUOUS
 10
-1.065291
 20
-1.647201
  0
VERTEX
  8
PLAN_1
 62
     2
  6
CONTINUOUS
 10
-1.064768
 20
-1.650354
  0
VERTEX
  8
PLAN_1
 62
     2
  6
CONTINUOUS
 10
-1.064240
 20
-1.653508
  0
VERTEX
  8
PLAN_1
 62
     2
  6
CONTINUOUS
 10
-1.064768
 20
-1.658236
  0
VERTEX
  8
PLAN_1
 62
     2
  6
CONTINUOUS
 10
-1.065815
 20
-1.662441
  0
VERTEX
  8
PLAN_1
 62
     2
  6
CONTINUOUS
 10
-1.067917
 20
-1.666646
  0
VERTEX
  8
PLAN_1
 62
     2
  6
CONTINUOUS
 10
-1.070547
 20
-1.669799
  0
VERTEX
  8
PLAN_1
 62
     2
  6
CONTINUOUS
 10
-1.072122
 20
-1.671374
  0
VERTEX
  8
PLAN_1
 62
     2
  6
CONTINUOUS
 10
-1.074224
 20
-1.672953
  0
VERTEX
  8
PLAN_1
 62
     2
  6
CONTINUOUS
 10
-1.076327
 20
-1.674004
  0
VERTEX
  8
PLAN_1
 62
     2
  6
CONTINUOUS
 10
-1.078429
 20
-1.675055
  0
VERTEX
  8
PLAN_1
 62
     2
  6
CONTINUOUS
 10
-1.081055
 20
-1.676106
  0
VERTEX
  8
PLAN_1
 62
     2
  6
CONTINUOUS
 10
-1.084209
 20
-1.676630
  0
VERTEX
  8
PLAN_1
 62
     2
  6
CONTINUOUS
 10
-1.087362
 20
-1.677157
  0
VERTEX
  8
PLAN_1
 62
     2
  6
CONTINUOUS
 10
-1.090516
 20
-1.677157
  0
VERTEX
  8
PLAN_1
 62
     2
  6
CONTINUOUS
 10
-1.092618
 20
-1.677157
  0
VERTEX
  8
PLAN_1
 62
     2
  6
CONTINUOUS
 10
-1.094720
 20
-1.677157
  0
VERTEX
  8
PLAN_1
 62
     2
  6
CONTINUOUS
 10
-1.096299
 20
-1.676630
  0
VERTEX
  8
PLAN_1
 62
     2
  6
CONTINUOUS
 10
-1.097874
 20
-1.676106
  0
VERTEX
  8
PLAN_1
 62
     2
  6
CONTINUOUS
 10
-1.099976
 20
-1.675579
  0
VERTEX
  8
PLAN_1
 62
     2
  6
CONTINUOUS
 10
-1.101551
 20
-1.675055
  0
VERTEX
  8
PLAN_1
 62
     2
  6
CONTINUOUS
 10
-1.102602
 20
-1.674528
  0
VERTEX
  8
PLAN_1
 62
     2
  6
CONTINUOUS
 10
-1.104181
 20
-1.674004
  0
VERTEX
  8
PLAN_1
 62
     2
  6
CONTINUOUS
 10
-1.106807
 20
-1.672425
  0
VERTEX
  8
PLAN_1
 62
     2
  6
CONTINUOUS
 10
-1.109437
 20
-1.669799
  0
VERTEX
  8
PLAN_1
 62
     2
  6
CONTINUOUS
 10
-1.111012
 20
-1.667697
  0
VERTEX
  8
PLAN_1
 62
     2
  6
CONTINUOUS
 10
-1.112591
 20
-1.665071
  0
VERTEX
  8
PLAN_1
 62
     2
  6
CONTINUOUS
 10
-1.113638
 20
-1.661917
  0
VERTEX
  8
PLAN_1
 62
     2
  6
CONTINUOUS
 10
-1.114165
 20
-1.659287
  0
VERTEX
  8
PLAN_1
 62
     2
  6
CONTINUOUS
 10
-1.114689
 20
-1.656134
  0
VERTEX
  8
PLAN_1
 62
     2
  6
CONTINUOUS
 10
-1.115217
 20
-1.652980
  0
VERTEX
  8
PLAN_1
 62
     2
  6
CONTINUOUS
 10
-1.105756
 20
-1.652980
  0
VERTEX
  8
PLAN_1
 62
     2
  6
CONTINUOUS
 10
-1.105232
 20
-1.655610
  0
VERTEX
  8
PLAN_1
 62
     2
  6
CONTINUOUS
 10
-1.104705
 20
-1.658236
  0
VERTEX
  8
PLAN_1
 62
     2
  6
CONTINUOUS
 10
-1.104181
 20
-1.660866
  0
VERTEX
  8
PLAN_1
 62
     2
  6
CONTINUOUS
 10
-1.102602
 20
-1.663492
  0
VERTEX
  8
PLAN_1
 62
     2
  6
CONTINUOUS
 10
-1.101028
 20
-1.665594
  0
VERTEX
  8
PLAN_1
 62
     2
  6
CONTINUOUS
 10
-1.098398
 20
-1.667169
  0
VERTEX
  8
PLAN_1
 62
     2
  6
CONTINUOUS
 10
-1.094720
 20
-1.668748
  0
VERTEX
  8
PLAN_1
 62
     2
  6
CONTINUOUS
 10
-1.089992
 20
-1.668748
  0
VERTEX
  8
PLAN_1
 62
     2
  6
CONTINUOUS
 10
-1.086839
 20
-1.668748
  0
VERTEX
  8
PLAN_1
 62
     2
  6
CONTINUOUS
 10
-1.083685
 20
-1.667697
  0
VERTEX
  8
PLAN_1
 62
     2
  6
CONTINUOUS
 10
-1.081055
 20
-1.666646
  0
VERTEX
  8
PLAN_1
 62
     2
  6
CONTINUOUS
 10
-1.078429
 20
-1.665071
  0
VERTEX
  8
PLAN_1
 62
     2
  6
CONTINUOUS
 10
-1.076854
 20
-1.662969
  0
VERTEX
  8
PLAN_1
 62
     2
  6
CONTINUOUS
 10
-1.075276
 20
-1.660339
  0
VERTEX
  8
PLAN_1
 62
     2
  6
CONTINUOUS
 10
-1.074224
 20
-1.657713
  0
VERTEX
  8
PLAN_1
 62
     2
  6
CONTINUOUS
 10
-1.074224
 20
-1.655083
  0
VERTEX
  8
PLAN_1
 62
     2
  6
CONTINUOUS
 10
-1.074752
 20
-1.650878
  0
VERTEX
  8
PLAN_1
 62
     2
  6
CONTINUOUS
 10
-1.075803
 20
-1.647728
  0
VERTEX
  8
PLAN_1
 62
     2
  6
CONTINUOUS
 10
-1.077906
 20
-1.645098
  0
VERTEX
  8
PLAN_1
 62
     2
  6
CONTINUOUS
 10
-1.080531
 20
-1.643524
  0
VERTEX
  8
PLAN_1
 62
     2
  6
CONTINUOUS
 10
-1.083157
 20
-1.642472
  0
VERTEX
  8
PLAN_1
 62
     2
  6
CONTINUOUS
 10
-1.085787
 20
-1.641945
  0
VERTEX
  8
PLAN_1
 62
     2
  6
CONTINUOUS
 10
-1.088413
 20
-1.641421
  0
VERTEX
  8
PLAN_1
 62
     2
  6
CONTINUOUS
 10
-1.091043
 20
-1.641421
  0
VERTEX
  8
PLAN_1
 62
     2
  6
CONTINUOUS
 10
-1.091567
 20
-1.641421
  0
VERTEX
  8
PLAN_1
 62
     2
  6
CONTINUOUS
 10
-1.092094
 20
-1.641421
  0
VERTEX
  8
PLAN_1
 62
     2
  6
CONTINUOUS
 10
-1.092618
 20
-1.641421
  0
VERTEX
  8
PLAN_1
 62
     2
  6
CONTINUOUS
 10
-1.093146
 20
-1.641421
  0
VERTEX
  8
PLAN_1
 62
     2
  6
CONTINUOUS
 10
-1.093669
 20
-1.641421
  0
VERTEX
  8
PLAN_1
 62
     2
  6
CONTINUOUS
 10
-1.094197
 20
-1.641421
  0
VERTEX
  8
PLAN_1
 62
     2
  6
CONTINUOUS
 10
-1.094720
 20
-1.641421
  0
VERTEX
  8
PLAN_1
 62
     2
  6
CONTINUOUS
 10
-1.095248
 20
-1.641421
  0
VERTEX
  8
PLAN_1
 62
     2
  6
CONTINUOUS
 10
-1.095248
 20
-1.633539
  0
SEQEND
  8
0
  0
POLYLINE
  8
PLAN_1
 62
     2
  6
CONTINUOUS
 66
     1
 40
0.003000
 41
0.003000
  0
VERTEX
  8
PLAN_1
 62
     2
  6
CONTINUOUS
 10
-1.037437
 20
-1.633539
  0
VERTEX
  8
PLAN_1
 62
     2
  6
CONTINUOUS
 10
-1.036913
 20
-1.633539
  0
VERTEX
  8
PLAN_1
 62
     2
  6
CONTINUOUS
 10
-1.036386
 20
-1.633539
  0
VERTEX
  8
PLAN_1
 62
     2
  6
CONTINUOUS
 10
-1.035862
 20
-1.633539
  0
VERTEX
  8
PLAN_1
 62
     2
  6
CONTINUOUS
 10
-1.034811
 20
-1.633539
  0
VERTEX
  8
PLAN_1
 62
     2
  6
CONTINUOUS
 10
-1.034283
 20
-1.633539
  0
VERTEX
  8
PLAN_1
 62
     2
  6
CONTINUOUS
 10
-1.033760
 20
-1.633539
  0
VERTEX
  8
PLAN_1
 62
     2
  6
CONTINUOUS
 10
-1.033232
 20
-1.634063
  0
VERTEX
  8
PLAN_1
 62
     2
  6
CONTINUOUS
 10
-1.032709
 20
-1.634063
  0
VERTEX
  8
PLAN_1
 62
     2
  6
CONTINUOUS
 10
-1.030083
 20
-1.633539
  0
VERTEX
  8
PLAN_1
 62
     2
  6
CONTINUOUS
 10
-1.027453
 20
-1.633012
  0
VERTEX
  8
PLAN_1
 62
     2
  6
CONTINUOUS
 10
-1.025350
 20
-1.632488
  0
VERTEX
  8
PLAN_1
 62
     2
  6
CONTINUOUS
 10
-1.023248
 20
-1.631437
  0
VERTEX
  8
PLAN_1
 62
     2
  6
CONTINUOUS
 10
-1.021146
 20
-1.629858
  0
VERTEX
  8
PLAN_1
 62
     2
  6
CONTINUOUS
 10
-1.020094
 20
-1.627756
  0
VERTEX
  8
PLAN_1
 62
     2
  6
CONTINUOUS
 10
-1.019043
 20
-1.625130
  0
VERTEX
  8
PLAN_1
 62
     2
  6
CONTINUOUS
 10
-1.018520
 20
-1.621976
  0
VERTEX
  8
PLAN_1
 62
     2
  6
CONTINUOUS
 10
-1.019043
 20
-1.619874
  0
VERTEX
  8
PLAN_1
 62
     2
  6
CONTINUOUS
 10
-1.019043
 20
-1.618299
  0
VERTEX
  8
PLAN_1
 62
     2
  6
CONTINUOUS
 10
-1.020094
 20
-1.616197
  0
VERTEX
  8
PLAN_1
 62
     2
  6
CONTINUOUS
 10
-1.021146
 20
-1.614618
  0
VERTEX
  8
PLAN_1
 62
     2
  6
CONTINUOUS
 10
-1.023248
 20
-1.613043
  0
VERTEX
  8
PLAN_1
 62
     2
  6
CONTINUOUS
 10
-1.025350
 20
-1.611465
  0
VERTEX
  8
PLAN_1
 62
     2
  6
CONTINUOUS
 10
-1.028504
 20
-1.610413
  0
VERTEX
  8
PLAN_1
 62
     2
  6
CONTINUOUS
 10
-1.032185
 20
-1.610413
  0
VERTEX
  8
PLAN_1
 62
     2
  6
CONTINUOUS
 10
-1.036386
 20
-1.610941
  0
VERTEX
  8
PLAN_1
 62
     2
  6
CONTINUOUS
 10
-1.040067
 20
-1.611992
  0
VERTEX
  8
PLAN_1
 62
     2
  6
CONTINUOUS
 10
-1.042169
 20
-1.614094
  0
VERTEX
  8
PLAN_1
 62
     2
  6
CONTINUOUS
 10
-1.044272
 20
-1.616197
  0
VERTEX
  8
PLAN_1
 62
     2
  6
CONTINUOUS
 10
-1.045323
 20
-1.618823
  0
VERTEX
  8
PLAN_1
 62
     2
  6
CONTINUOUS
 10
-1.045846
 20
-1.621449
  0
VERTEX
  8
PLAN_1
 62
     2
  6
CONTINUOUS
 10
-1.046374
 20
-1.624079
  0
VERTEX
  8
PLAN_1
 62
     2
  6
CONTINUOUS
 10
-1.046374
 20
-1.626181
  0
VERTEX
  8
PLAN_1
 62
     2
  6
CONTINUOUS
 10
-1.055307
 20
-1.626181
  0
VERTEX
  8
PLAN_1
 62
     2
  6
CONTINUOUS
 10
-1.055307
 20
-1.621976
  0
VERTEX
  8
PLAN_1
 62
     2
  6
CONTINUOUS
 10
-1.054256
 20
-1.617772
  0
VERTEX
  8
PLAN_1
 62
     2
  6
CONTINUOUS
 10
-1.053205
 20
-1.613567
  0
VERTEX
  8
PLAN_1
 62
     2
  6
CONTINUOUS
 10
-1.050575
 20
-1.609890
  0
VERTEX
  8
PLAN_1
 62
     2
  6
CONTINUOUS
 10
-1.049524
 20
-1.608311
  0
VERTEX
  8
PLAN_1
 62
     2
  6
CONTINUOUS
 10
-1.047949
 20
-1.606736
  0
VERTEX
  8
PLAN_1
 62
     2
  6
CONTINUOUS
 10
-1.045846
 20
-1.605685
  0
VERTEX
  8
PLAN_1
 62
     2
  6
CONTINUOUS
 10
-1.043744
 20
-1.604106
  0
VERTEX
  8
PLAN_1
 62
     2
  6
CONTINUOUS
 10
-1.041118
 20
-1.603583
  0
VERTEX
  8
PLAN_1
 62
     2
  6
CONTINUOUS
 10
-1.038488
 20
-1.602531
  0
VERTEX
  8
PLAN_1
 62
     2
  6
CONTINUOUS
 10
-1.035335
 20
-1.602008
  0
VERTEX
  8
PLAN_1
 62
     2
  6
CONTINUOUS
 10
-1.031657
 20
-1.602008
  0
VERTEX
  8
PLAN_1
 62
     2
  6
CONTINUOUS
 10
-1.026929
 20
-1.602531
  0
VERTEX
  8
PLAN_1
 62
     2
  6
CONTINUOUS
 10
-1.022197
 20
-1.603583
  0
VERTEX
  8
PLAN_1
 62
     2
  6
CONTINUOUS
 10
-1.018520
 20
-1.605157
  0
VERTEX
  8
PLAN_1
 62
     2
  6
CONTINUOUS
 10
-1.015366
 20
-1.607787
  0
VERTEX
  8
PLAN_1
 62
     2
  6
CONTINUOUS
 10
-1.012740
 20
-1.610413
  0
VERTEX
  8
PLAN_1
 62
     2
  6
CONTINUOUS
 10
-1.010638
 20
-1.613567
  0
VERTEX
  8
PLAN_1
 62
     2
  6
CONTINUOUS
 10
-1.009587
 20
-1.617248
  0
VERTEX
  8
PLAN_1
 62
     2
  6
CONTINUOUS
 10
-1.009059
 20
-1.621449
  0
VERTEX
  8
PLAN_1
 62
     2
  6
CONTINUOUS
 10
-1.009587
 20
-1.624602
  0
VERTEX
  8
PLAN_1
 62
     2
  6
CONTINUOUS
 10
-1.010110
 20
-1.627232
  0
VERTEX
  8
PLAN_1
 62
     2
  6
CONTINUOUS
 10
-1.011161
 20
-1.629858
  0
VERTEX
  8
PLAN_1
 62
     2
  6
CONTINUOUS
 10
-1.012213
 20
-1.631961
  0
VERTEX
  8
PLAN_1
 62
     2
  6
CONTINUOUS
 10
-1.013791
 20
-1.633539
  0
VERTEX
  8
PLAN_1
 62
     2
  6
CONTINUOUS
 10
-1.015366
 20
-1.634591
  0
VERTEX
  8
PLAN_1
 62
     2
  6
CONTINUOUS
 10
-1.016945
 20
-1.635638
  0
VERTEX
  8
PLAN_1
 62
     2
  6
CONTINUOUS
 10
-1.018520
 20
-1.636165
  0
VERTEX
  8
PLAN_1
 62
     2
  6
CONTINUOUS
 10
-1.018520
 20
-1.636689
  0
VERTEX
  8
PLAN_1
 62
     2
  6
CONTINUOUS
 10
-1.015894
 20
-1.637740
  0
VERTEX
  8
PLAN_1
 62
     2
  6
CONTINUOUS
 10
-1.013791
 20
-1.638791
  0
VERTEX
  8
PLAN_1
 62
     2
  6
CONTINUOUS
 10
-1.011689
 20
-1.640370
  0
VERTEX
  8
PLAN_1
 62
     2
  6
CONTINUOUS
 10
-1.009587
 20
-1.642472
  0
VERTEX
  8
PLAN_1
 62
     2
  6
CONTINUOUS
 10
-1.008535
 20
-1.644575
  0
VERTEX
  8
PLAN_1
 62
     2
  6
CONTINUOUS
 10
-1.007484
 20
-1.647201
  0
VERTEX
  8
PLAN_1
 62
     2
  6
CONTINUOUS
 10
-1.006433
 20
-1.650354
  0
VERTEX
  8
PLAN_1
 62
     2
  6
CONTINUOUS
 10
-1.006433
 20
-1.653508
  0
VERTEX
  8
PLAN_1
 62
     2
  6
CONTINUOUS
 10
-1.006957
 20
-1.658236
  0
VERTEX
  8
PLAN_1
 62
     2
  6
CONTINUOUS
 10
-1.008008
 20
-1.662441
  0
VERTEX
  8
PLAN_1
 62
     2
  6
CONTINUOUS
 10
-1.009587
 20
-1.666646
  0
VERTEX
  8
PLAN_1
 62
     2
  6
CONTINUOUS
 10
-1.012740
 20
-1.669799
  0
VERTEX
  8
PLAN_1
 62
     2
  6
CONTINUOUS
 10
-1.014315
 20
-1.671374
  0
VERTEX
  8
PLAN_1
 62
     2
  6
CONTINUOUS
 10
-1.016417
 20
-1.672953
  0
VERTEX
  8
PLAN_1
 62
     2
  6
CONTINUOUS
 10
-1.018520
 20
-1.674004
  0
VERTEX
  8
PLAN_1
 62
     2
  6
CONTINUOUS
 10
-1.020622
 20
-1.675055
  0
VERTEX
  8
PLAN_1
 62
     2
  6
CONTINUOUS
 10
-1.023248
 20
-1.676106
  0
VERTEX
  8
PLAN_1
 62
     2
  6
CONTINUOUS
 10
-1.026402
 20
-1.676630
  0
VERTEX
  8
PLAN_1
 62
     2
  6
CONTINUOUS
 10
-1.029555
 20
-1.677157
  0
VERTEX
  8
PLAN_1
 62
     2
  6
CONTINUOUS
 10
-1.032709
 20
-1.677157
  0
VERTEX
  8
PLAN_1
 62
     2
  6
CONTINUOUS
 10
-1.034811
 20
-1.677157
  0
VERTEX
  8
PLAN_1
 62
     2
  6
CONTINUOUS
 10
-1.036386
 20
-1.677157
  0
VERTEX
  8
PLAN_1
 62
     2
  6
CONTINUOUS
 10
-1.038488
 20
-1.676630
  0
VERTEX
  8
PLAN_1
 62
     2
  6
CONTINUOUS
 10
-1.040067
 20
-1.676106
  0
VERTEX
  8
PLAN_1
 62
     2
  6
CONTINUOUS
 10
-1.041642
 20
-1.675579
  0
VERTEX
  8
PLAN_1
 62
     2
  6
CONTINUOUS
 10
-1.043220
 20
-1.675055
  0
VERTEX
  8
PLAN_1
 62
     2
  6
CONTINUOUS
 10
-1.044795
 20
-1.674528
  0
VERTEX
  8
PLAN_1
 62
     2
  6
CONTINUOUS
 10
-1.046374
 20
-1.674004
  0
VERTEX
  8
PLAN_1
 62
     2
  6
CONTINUOUS
 10
-1.049000
 20
-1.672425
  0
VERTEX
  8
PLAN_1
 62
     2
  6
CONTINUOUS
 10
-1.051102
 20
-1.669799
  0
VERTEX
  8
PLAN_1
 62
     2
  6
CONTINUOUS
 10
-1.053205
 20
-1.667697
  0
VERTEX
  8
PLAN_1
 62
     2
  6
CONTINUOUS
 10
-1.054256
 20
-1.665071
  0
VERTEX
  8
PLAN_1
 62
     2
  6
CONTINUOUS
 10
-1.055831
 20
-1.661917
  0
VERTEX
  8
PLAN_1
 62
     2
  6
CONTINUOUS
 10
-1.056358
 20
-1.659287
  0
VERTEX
  8
PLAN_1
 62
     2
  6
CONTINUOUS
 10
-1.056882
 20
-1.656134
  0
VERTEX
  8
PLAN_1
 62
     2
  6
CONTINUOUS
 10
-1.057409
 20
-1.652980
  0
VERTEX
  8
PLAN_1
 62
     2
  6
CONTINUOUS
 10
-1.047949
 20
-1.652980
  0
VERTEX
  8
PLAN_1
 62
     2
  6
CONTINUOUS
 10
-1.047425
 20
-1.655610
  0
VERTEX
  8
PLAN_1
 62
     2
  6
CONTINUOUS
 10
-1.046898
 20
-1.658236
  0
VERTEX
  8
PLAN_1
 62
     2
  6
CONTINUOUS
 10
-1.046374
 20
-1.660866
  0
VERTEX
  8
PLAN_1
 62
     2
  6
CONTINUOUS
 10
-1.044795
 20
-1.663492
  0
VERTEX
  8
PLAN_1
 62
     2
  6
CONTINUOUS
 10
-1.042693
 20
-1.665594
  0
VERTEX
  8
PLAN_1
 62
     2
  6
CONTINUOUS
 10
-1.040067
 20
-1.667169
  0
VERTEX
  8
PLAN_1
 62
     2
  6
CONTINUOUS
 10
-1.036913
 20
-1.668748
  0
VERTEX
  8
PLAN_1
 62
     2
  6
CONTINUOUS
 10
-1.032185
 20
-1.668748
  0
VERTEX
  8
PLAN_1
 62
     2
  6
CONTINUOUS
 10
-1.028504
 20
-1.668748
  0
VERTEX
  8
PLAN_1
 62
     2
  6
CONTINUOUS
 10
-1.025878
 20
-1.667697
  0
VERTEX
  8
PLAN_1
 62
     2
  6
CONTINUOUS
 10
-1.022724
 20
-1.666646
  0
VERTEX
  8
PLAN_1
 62
     2
  6
CONTINUOUS
 10
-1.020622
 20
-1.665071
  0
VERTEX
  8
PLAN_1
 62
     2
  6
CONTINUOUS
 10
-1.018520
 20
-1.662969
  0
VERTEX
  8
PLAN_1
 62
     2
  6
CONTINUOUS
 10
-1.017469
 20
-1.660339
  0
VERTEX
  8
PLAN_1
 62
     2
  6
CONTINUOUS
 10
-1.016417
 20
-1.657713
  0
VERTEX
  8
PLAN_1
 62
     2
  6
CONTINUOUS
 10
-1.016417
 20
-1.655083
  0
VERTEX
  8
PLAN_1
 62
     2
  6
CONTINUOUS
 10
-1.016417
 20
-1.650878
  0
VERTEX
  8
PLAN_1
 62
     2
  6
CONTINUOUS
 10
-1.017992
 20
-1.647728
  0
VERTEX
  8
PLAN_1
 62
     2
  6
CONTINUOUS
 10
-1.020094
 20
-1.645098
  0
VERTEX
  8
PLAN_1
 62
     2
  6
CONTINUOUS
 10
-1.022197
 20
-1.643524
  0
VERTEX
  8
PLAN_1
 62
     2
  6
CONTINUOUS
 10
-1.025350
 20
-1.642472
  0
VERTEX
  8
PLAN_1
 62
     2
  6
CONTINUOUS
 10
-1.027980
 20
-1.641945
  0
VERTEX
  8
PLAN_1
 62
     2
  6
CONTINUOUS
 10
-1.030606
 20
-1.641421
  0
VERTEX
  8
PLAN_1
 62
     2
  6
CONTINUOUS
 10
-1.033232
 20
-1.641421
  0
VERTEX
  8
PLAN_1
 62
     2
  6
CONTINUOUS
 10
-1.033760
 20
-1.641421
  0
VERTEX
  8
PLAN_1
 62
     2
  6
CONTINUOUS
 10
-1.034283
 20
-1.641421
  0
VERTEX
  8
PLAN_1
 62
     2
  6
CONTINUOUS
 10
-1.034811
 20
-1.641421
  0
VERTEX
  8
PLAN_1
 62
     2
  6
CONTINUOUS
 10
-1.035335
 20
-1.641421
  0
VERTEX
  8
PLAN_1
 62
     2
  6
CONTINUOUS
 10
-1.035862
 20
-1.641421
  0
VERTEX
  8
PLAN_1
 62
     2
  6
CONTINUOUS
 10
-1.036386
 20
-1.641421
  0
VERTEX
  8
PLAN_1
 62
     2
  6
CONTINUOUS
 10
-1.036913
 20
-1.641421
  0
VERTEX
  8
PLAN_1
 62
     2
  6
CONTINUOUS
 10
-1.037437
 20
-1.641421
  0
VERTEX
  8
PLAN_1
 62
     2
  6
CONTINUOUS
 10
-1.037437
 20
-1.633539
  0
SEQEND
  8
0
  0
POLYLINE
  8
PLAN_1
 62
     2
  6
CONTINUOUS
 66
     1
 40
0.003000
 41
0.003000
  0
VERTEX
  8
PLAN_1
 62
     2
  6
CONTINUOUS
 10
-0.993819
 20
-1.664020
  0
VERTEX
  8
PLAN_1
 62
     2
  6
CONTINUOUS
 10
-0.982783
 20
-1.664020
  0
VERTEX
  8
PLAN_1
 62
     2
  6
CONTINUOUS
 10
-0.982783
 20
-1.674528
  0
VERTEX
  8
PLAN_1
 62
     2
  6
CONTINUOUS
 10
-0.983311
 20
-1.679260
  0
VERTEX
  8
PLAN_1
 62
     2
  6
CONTINUOUS
 10
-0.984362
 20
-1.682937
  0
VERTEX
  8
PLAN_1
 62
     2
  6
CONTINUOUS
 10
-0.985937
 20
-1.685563
  0
VERTEX
  8
PLAN_1
 62
     2
  6
CONTINUOUS
 10
-0.987512
 20
-1.687665
  0
VERTEX
  8
PLAN_1
 62
     2
  6
CONTINUOUS
 10
-0.989614
 20
-1.689244
  0
VERTEX
  8
PLAN_1
 62
     2
  6
CONTINUOUS
 10
-0.991193
 20
-1.689768
  0
VERTEX
  8
PLAN_1
 62
     2
  6
CONTINUOUS
 10
-0.992768
 20
-1.690295
  0
VERTEX
  8
PLAN_1
 62
     2
  6
CONTINUOUS
 10
-0.993819
 20
-1.690295
  0
VERTEX
  8
PLAN_1
 62
     2
  6
CONTINUOUS
 10
-0.993819
 20
-1.685563
  0
VERTEX
  8
PLAN_1
 62
     2
  6
CONTINUOUS
 10
-0.992244
 20
-1.685563
  0
VERTEX
  8
PLAN_1
 62
     2
  6
CONTINUOUS
 10
-0.991193
 20
-1.684512
  0
VERTEX
  8
PLAN_1
 62
     2
  6
CONTINUOUS
 10
-0.990142
 20
-1.683461
  0
VERTEX
  8
PLAN_1
 62
     2
  6
CONTINUOUS
 10
-0.989614
 20
-1.681886
  0
VERTEX
  8
PLAN_1
 62
     2
  6
CONTINUOUS
 10
-0.989091
 20
-1.680835
  0
VERTEX
  8
PLAN_1
 62
     2
  6
CONTINUOUS
 10
-0.988563
 20
-1.678732
  0
VERTEX
  8
PLAN_1
 62
     2
  6
CONTINUOUS
 10
-0.988563
 20
-1.677157
  0
VERTEX
  8
PLAN_1
 62
     2
  6
CONTINUOUS
 10
-0.988039
 20
-1.675055
  0
VERTEX
  8
PLAN_1
 62
     2
  6
CONTINUOUS
 10
-0.993819
 20
-1.675055
  0
VERTEX
  8
PLAN_1
 62
     2
  6
CONTINUOUS
 10
-0.993819
 20
-1.664020
  0
SEQEND
  8
0
  0
POLYLINE
  8
PLAN_1
 62
     2
  6
CONTINUOUS
 66
     1
 40
0.003000
 41
0.003000
  0
VERTEX
  8
PLAN_1
 62
     2
  6
CONTINUOUS
 10
-0.958610
 20
-1.632488
  0
VERTEX
  8
PLAN_1
 62
     2
  6
CONTINUOUS
 10
-0.957559
 20
-1.631961
  0
VERTEX
  8
PLAN_1
 62
     2
  6
CONTINUOUS
 10
-0.955980
 20
-1.630909
  0
VERTEX
  8
PLAN_1
 62
     2
  6
CONTINUOUS
 10
-0.954406
 20
-1.630386
  0
VERTEX
  8
PLAN_1
 62
     2
  6
CONTINUOUS
 10
-0.952831
 20
-1.629335
  0
VERTEX
  8
PLAN_1
 62
     2
  6
CONTINUOUS
 10
-0.950728
 20
-1.628807
  0
VERTEX
  8
PLAN_1
 62
     2
  6
CONTINUOUS
 10
-0.949150
 20
-1.628283
  0
VERTEX
  8
PLAN_1
 62
     2
  6
CONTINUOUS
 10
-0.947047
 20
-1.628283
  0
VERTEX
  8
PLAN_1
 62
     2
  6
CONTINUOUS
 10
-0.944421
 20
-1.628283
  0
VERTEX
  8
PLAN_1
 62
     2
  6
CONTINUOUS
 10
-0.940217
 20
-1.628283
  0
VERTEX
  8
PLAN_1
 62
     2
  6
CONTINUOUS
 10
-0.935488
 20
-1.629858
  0
VERTEX
  8
PLAN_1
 62
     2
  6
CONTINUOUS
 10
-0.931807
 20
-1.631437
  0
VERTEX
  8
PLAN_1
 62
     2
  6
CONTINUOUS
 10
-0.928130
 20
-1.634063
  0
VERTEX
  8
PLAN_1
 62
     2
  6
CONTINUOUS
 10
-0.924976
 20
-1.637217
  0
VERTEX
  8
PLAN_1
 62
     2
  6
CONTINUOUS
 10
-0.922346
 20
-1.641421
  0
VERTEX
  8
PLAN_1
 62
     2
  6
CONTINUOUS
 10
-0.921823
 20
-1.643524
  0
VERTEX
  8
PLAN_1
 62
     2
  6
CONTINUOUS
 10
-0.920772
 20
-1.646150
  0
VERTEX
  8
PLAN_1
 62
     2
  6
CONTINUOUS
 10
-0.920772
 20
-1.648780
  0
VERTEX
  8
PLAN_1
 62
     2
  6
CONTINUOUS
 10
-0.920248
 20
-1.651406
  0
VERTEX
  8
PLAN_1
 62
     2
  6
CONTINUOUS
 10
-0.920772
 20
-1.655083
  0
VERTEX
  8
PLAN_1
 62
     2
  6
CONTINUOUS
 10
-0.921299
 20
-1.658764
  0
VERTEX
  8
PLAN_1
 62
     2
  6
CONTINUOUS
 10
-0.922874
 20
-1.662969
  0
VERTEX
  8
PLAN_1
 62
     2
  6
CONTINUOUS
 10
-0.924976
 20
-1.667169
  0
VERTEX
  8
PLAN_1
 62
     2
  6
CONTINUOUS
 10
-0.926551
 20
-1.669272
  0
VERTEX
  8
PLAN_1
 62
     2
  6
CONTINUOUS
 10
-0.928654
 20
-1.671374
  0
VERTEX
  8
PLAN_1
 62
     2
  6
CONTINUOUS
 10
-0.930756
 20
-1.672953
  0
VERTEX
  8
PLAN_1
 62
     2
  6
CONTINUOUS
 10
-0.933386
 20
-1.674528
  0
VERTEX
  8
PLAN_1
 62
     2
  6
CONTINUOUS
 10
-0.936012
 20
-1.675579
  0
VERTEX
  8
PLAN_1
 62
     2
  6
CONTINUOUS
 10
-0.939165
 20
-1.676630
  0
VERTEX
  8
PLAN_1
 62
     2
  6
CONTINUOUS
 10
-0.942843
 20
-1.677157
  0
VERTEX
  8
PLAN_1
 62
     2
  6
CONTINUOUS
 10
-0.947047
 20
-1.677157
  0
VERTEX
  8
PLAN_1
 62
     2
  6
CONTINUOUS
 10
-0.950728
 20
-1.677157
  0
VERTEX
  8
PLAN_1
 62
     2
  6
CONTINUOUS
 10
-0.954406
 20
-1.676106
  0
VERTEX
  8
PLAN_1
 62
     2
  6
CONTINUOUS
 10
-0.958083
 20
-1.675055
  0
VERTEX
  8
PLAN_1
 62
     2
  6
CONTINUOUS
 10
-0.961764
 20
-1.673476
  0
VERTEX
  8
PLAN_1
 62
     2
  6
CONTINUOUS
 10
-0.964917
 20
-1.670323
  0
VERTEX
  8
PLAN_1
 62
     2
  6
CONTINUOUS
 10
-0.967543
 20
-1.667169
  0
VERTEX
  8
PLAN_1
 62
     2
  6
CONTINUOUS
 10
-0.968594
 20
-1.665071
  0
VERTEX
  8
PLAN_1
 62
     2
  6
CONTINUOUS
 10
-0.969646
 20
-1.662441
  0
VERTEX
  8
PLAN_1
 62
     2
  6
CONTINUOUS
 10
-0.970169
 20
-1.659815
  0
VERTEX
  8
PLAN_1
 62
     2
  6
CONTINUOUS
 10
-0.970697
 20
-1.657185
  0
VERTEX
  8
PLAN_1
 62
     2
  6
CONTINUOUS
 10
-0.961236
 20
-1.657185
  0
VERTEX
  8
PLAN_1
 62
     2
  6
CONTINUOUS
 10
-0.960713
 20
-1.659815
  0
VERTEX
  8
PLAN_1
 62
     2
  6
CONTINUOUS
 10
-0.959661
 20
-1.662441
  0
VERTEX
  8
PLAN_1
 62
     2
  6
CONTINUOUS
 10
-0.958083
 20
-1.664543
  0
VERTEX
  8
PLAN_1
 62
     2
  6
CONTINUOUS
 10
-0.955980
 20
-1.666122
  0
VERTEX
  8
PLAN_1
 62
     2
  6
CONTINUOUS
 10
-0.953878
 20
-1.667697
  0
VERTEX
  8
PLAN_1
 62
     2
  6
CONTINUOUS
 10
-0.951252
 20
-1.668748
  0
VERTEX
  8
PLAN_1
 62
     2
  6
CONTINUOUS
 10
-0.948626
 20
-1.669272
  0
VERTEX
  8
PLAN_1
 62
     2
  6
CONTINUOUS
 10
-0.945472
 20
-1.669272
  0
VERTEX
  8
PLAN_1
 62
     2
  6
CONTINUOUS
 10
-0.942319
 20
-1.668748
  0
VERTEX
  8
PLAN_1
 62
     2
  6
CONTINUOUS
 10
-0.939165
 20
-1.668220
  0
VERTEX
  8
PLAN_1
 62
     2
  6
CONTINUOUS
 10
-0.936539
 20
-1.666646
  0
VERTEX
  8
PLAN_1
 62
     2
  6
CONTINUOUS
 10
-0.934437
 20
-1.664543
  0
VERTEX
  8
PLAN_1
 62
     2
  6
CONTINUOUS
 10
-0.932335
 20
-1.661917
  0
VERTEX
  8
PLAN_1
 62
     2
  6
CONTINUOUS
 10
-0.931283
 20
-1.658764
  0
VERTEX
  8
PLAN_1
 62
     2
  6
CONTINUOUS
 10
-0.930232
 20
-1.656134
  0
VERTEX
  8
PLAN_1
 62
     2
  6
CONTINUOUS
 10
-0.930232
 20
-1.652457
  0
VERTEX
  8
PLAN_1
 62
     2
  6
CONTINUOUS
 10
-0.930756
 20
-1.648780
  0
VERTEX
  8
PLAN_1
 62
     2
  6
CONTINUOUS
 10
-0.931283
 20
-1.645626
  0
VERTEX
  8
PLAN_1
 62
     2
  6
CONTINUOUS
 10
-0.932858
 20
-1.642996
  0
VERTEX
  8
PLAN_1
 62
     2
  6
CONTINUOUS
 10
-0.934961
 20
-1.640370
  0
VERTEX
  8
PLAN_1
 62
     2
  6
CONTINUOUS
 10
-0.937063
 20
-1.638791
  0
VERTEX
  8
PLAN_1
 62
     2
  6
CONTINUOUS
 10
-0.940217
 20
-1.637217
  0
VERTEX
  8
PLAN_1
 62
     2
  6
CONTINUOUS
 10
-0.943370
 20
-1.636689
  0
VERTEX
  8
PLAN_1
 62
     2
  6
CONTINUOUS
 10
-0.946524
 20
-1.636165
  0
VERTEX
  8
PLAN_1
 62
     2
  6
CONTINUOUS
 10
-0.948626
 20
-1.636165
  0
VERTEX
  8
PLAN_1
 62
     2
  6
CONTINUOUS
 10
-0.950201
 20
-1.636689
  0
VERTEX
  8
PLAN_1
 62
     2
  6
CONTINUOUS
 10
-0.952303
 20
-1.637217
  0
VERTEX
  8
PLAN_1
 62
     2
  6
CONTINUOUS
 10
-0.953878
 20
-1.638268
  0
VERTEX
  8
PLAN_1
 62
     2
  6
CONTINUOUS
 10
-0.955457
 20
-1.639319
  0
VERTEX
  8
PLAN_1
 62
     2
  6
CONTINUOUS
 10
-0.957031
 20
-1.640370
  0
VERTEX
  8
PLAN_1
 62
     2
  6
CONTINUOUS
 10
-0.958610
 20
-1.641945
  0
VERTEX
  8
PLAN_1
 62
     2
  6
CONTINUOUS
 10
-0.960185
 20
-1.643524
  0
VERTEX
  8
PLAN_1
 62
     2
  6
CONTINUOUS
 10
-0.968071
 20
-1.642996
  0
VERTEX
  8
PLAN_1
 62
     2
  6
CONTINUOUS
 10
-0.962287
 20
-1.603583
  0
VERTEX
  8
PLAN_1
 62
     2
  6
CONTINUOUS
 10
-0.924449
 20
-1.603583
  0
VERTEX
  8
PLAN_1
 62
     2
  6
CONTINUOUS
 10
-0.924449
 20
-1.612516
  0
VERTEX
  8
PLAN_1
 62
     2
  6
CONTINUOUS
 10
-0.955457
 20
-1.612516
  0
VERTEX
  8
PLAN_1
 62
     2
  6
CONTINUOUS
 10
-0.958610
 20
-1.632488
  0
SEQEND
  8
0
  0
POLYLINE
  8
PLAN_1
 62
     2
  6
CONTINUOUS
 66
     1
 40
0.004201
 41
0.004201
  0
VERTEX
  8
PLAN_1
 62
     2
  6
CONTINUOUS
 10
-2.094795
 20
-1.010264
  0
VERTEX
  8
PLAN_1
 62
     2
  6
CONTINUOUS
 10
-2.094795
 20
-1.888417
  0
SEQEND
  8
0
  0
POLYLINE
  8
PLAN_1
 62
     2
  6
CONTINUOUS
 66
     1
 40
0.004201
 41
0.004201
  0
VERTEX
  8
PLAN_1
 62
     2
  6
CONTINUOUS
 10
-2.065366
 20
-1.856362
  0
VERTEX
  8
PLAN_1
 62
     2
  6
CONTINUOUS
 10
-0.386839
 20
-1.856362
  0
SEQEND
  8
0
  0
SOLID
  8
PLAN_1
 62
     2
 10
-0.357409
 20
-1.856362
 11
-0.416268
 21
-1.840594
 12
-0.357409
 22
-1.856362
 13
-0.416268
 23
-1.872126
  0
POLYLINE
  8
PLAN_1
 62
     2
  6
CONTINUOUS
 66
     1
 40
0.003000
 41
0.003000
  0
VERTEX
  8
PLAN_1
 62
     2
  6
CONTINUOUS
 10
-0.357409
 20
-1.856362
  0
VERTEX
  8
PLAN_1
 62
     2
  6
CONTINUOUS
 10
-0.416268
 20
-1.840594
  0
VERTEX
  8
PLAN_1
 62
     2
  6
CONTINUOUS
 10
-0.416268
 20
-1.872126
  0
VERTEX
  8
PLAN_1
 62
     2
  6
CONTINUOUS
 10
-0.357409
 20
-1.856362
  0
SEQEND
  8
0
  0
SOLID
  8
PLAN_1
 62
     2
 10
-2.094795
 20
-1.856362
 11
-2.035937
 21
-1.840594
 12
-2.094795
 22
-1.856362
 13
-2.035937
 23
-1.872126
  0
POLYLINE
  8
PLAN_1
 62
     2
  6
CONTINUOUS
 66
     1
 40
0.003000
 41
0.003000
  0
VERTEX
  8
PLAN_1
 62
     2
  6
CONTINUOUS
 10
-2.094795
 20
-1.856362
  0
VERTEX
  8
PLAN_1
 62
     2
  6
CONTINUOUS
 10
-2.035937
 20
-1.840594
  0
VERTEX
  8
PLAN_1
 62
     2
  6
CONTINUOUS
 10
-2.035937
 20
-1.872126
  0
VERTEX
  8
PLAN_1
 62
     2
  6
CONTINUOUS
 10
-2.094795
 20
-1.856362
  0
SEQEND
  8
0
  0
POLYLINE
  8
PLAN_1
 62
     2
  6
CONTINUOUS
 66
     1
 40
0.003000
 41
0.003000
  0
VERTEX
  8
PLAN_1
 62
     2
  6
CONTINUOUS
 10
-1.240291
 20
-1.814843
  0
VERTEX
  8
PLAN_1
 62
     2
  6
CONTINUOUS
 10
-1.240291
 20
-1.832713
  0
VERTEX
  8
PLAN_1
 62
     2
  6
CONTINUOUS
 10
-1.249224
 20
-1.832713
  0
VERTEX
  8
PLAN_1
 62
     2
  6
CONTINUOUS
 10
-1.249224
 20
-1.814843
  0
VERTEX
  8
PLAN_1
 62
     2
  6
CONTINUOUS
 10
-1.281283
 20
-1.814843
  0
VERTEX
  8
PLAN_1
 62
     2
  6
CONTINUOUS
 10
-1.281283
 20
-1.805909
  0
VERTEX
  8
PLAN_1
 62
     2
  6
CONTINUOUS
 10
-1.247650
 20
-1.759665
  0
VERTEX
  8
PLAN_1
 62
     2
  6
CONTINUOUS
 10
-1.240291
 20
-1.759665
  0
VERTEX
  8
PLAN_1
 62
     2
  6
CONTINUOUS
 10
-1.240291
 20
-1.806961
  0
VERTEX
  8
PLAN_1
 62
     2
  6
CONTINUOUS
 10
-1.229780
 20
-1.806961
  0
VERTEX
  8
PLAN_1
 62
     2
  6
CONTINUOUS
 10
-1.229780
 20
-1.814843
  0
VERTEX
  8
PLAN_1
 62
     2
  6
CONTINUOUS
 10
-1.240291
 20
-1.814843
  0
SEQEND
  8
0
  0
SOLID
  8
PLAN_1
 62
     2
 10
-1.272874
 20
-1.806961
 11
-1.249224
 21
-1.806961
 12
-1.249752
 22
-1.773854
 13
-1.249224
 23
-1.773854
  0
POLYLINE
  8
PLAN_1
 62
     2
  6
CONTINUOUS
 66
     1
 40
0.003000
 41
0.003000
  0
VERTEX
  8
PLAN_1
 62
     2
  6
CONTINUOUS
 10
-1.272874
 20
-1.806961
  0
VERTEX
  8
PLAN_1
 62
     2
  6
CONTINUOUS
 10
-1.249224
 20
-1.806961
  0
VERTEX
  8
PLAN_1
 62
     2
  6
CONTINUOUS
 10
-1.249224
 20
-1.773854
  0
VERTEX
  8
PLAN_1
 62
     2
  6
CONTINUOUS
 10
-1.249752
 20
-1.773854
  0
VERTEX
  8
PLAN_1
 62
     2
  6
CONTINUOUS
 10
-1.272874
 20
-1.806961
  0
SEQEND
  8
0
  0
POLYLINE
  8
PLAN_1
 62
     2
  6
CONTINUOUS
 66
     1
 40
0.003000
 41
0.003000
  0
VERTEX
  8
PLAN_1
 62
     2
  6
CONTINUOUS
 10
-1.182484
 20
-1.814843
  0
VERTEX
  8
PLAN_1
 62
     2
  6
CONTINUOUS
 10
-1.182484
 20
-1.832713
  0
VERTEX
  8
PLAN_1
 62
     2
  6
CONTINUOUS
 10
-1.191417
 20
-1.832713
  0
VERTEX
  8
PLAN_1
 62
     2
  6
CONTINUOUS
 10
-1.191417
 20
-1.814843
  0
VERTEX
  8
PLAN_1
 62
     2
  6
CONTINUOUS
 10
-1.223476
 20
-1.814843
  0
VERTEX
  8
PLAN_1
 62
     2
  6
CONTINUOUS
 10
-1.223476
 20
-1.805909
  0
VERTEX
  8
PLAN_1
 62
     2
  6
CONTINUOUS
 10
-1.189843
 20
-1.759665
  0
VERTEX
  8
PLAN_1
 62
     2
  6
CONTINUOUS
 10
-1.182484
 20
-1.759665
  0
VERTEX
  8
PLAN_1
 62
     2
  6
CONTINUOUS
 10
-1.182484
 20
-1.806961
  0
VERTEX
  8
PLAN_1
 62
     2
  6
CONTINUOUS
 10
-1.171449
 20
-1.806961
  0
VERTEX
  8
PLAN_1
 62
     2
  6
CONTINUOUS
 10
-1.171449
 20
-1.814843
  0
VERTEX
  8
PLAN_1
 62
     2
  6
CONTINUOUS
 10
-1.182484
 20
-1.814843
  0
SEQEND
  8
0
  0
SOLID
  8
PLAN_1
 62
     2
 10
-1.215067
 20
-1.806961
 11
-1.191417
 21
-1.806961
 12
-1.191945
 22
-1.773854
 13
-1.191417
 23
-1.773854
  0
POLYLINE
  8
PLAN_1
 62
     2
  6
CONTINUOUS
 66
     1
 40
0.003000
 41
0.003000
  0
VERTEX
  8
PLAN_1
 62
     2
  6
CONTINUOUS
 10
-1.215067
 20
-1.806961
  0
VERTEX
  8
PLAN_1
 62
     2
  6
CONTINUOUS
 10
-1.191417
 20
-1.806961
  0
VERTEX
  8
PLAN_1
 62
     2
  6
CONTINUOUS
 10
-1.191417
 20
-1.773854
  0
VERTEX
  8
PLAN_1
 62
     2
  6
CONTINUOUS
 10
-1.191945
 20
-1.773854
  0
VERTEX
  8
PLAN_1
 62
     2
  6
CONTINUOUS
 10
-1.215067
 20
-1.806961
  0
SEQEND
  8
0
  0
POLYLINE
  8
PLAN_1
 62
     2
  6
CONTINUOUS
 66
     1
 40
0.004201
 41
0.004201
  0
VERTEX
  8
PLAN_1
 62
     2
  6
CONTINUOUS
 10
-0.174524
 20
-1.072276
  0
VERTEX
  8
PLAN_1
 62
     2
  6
CONTINUOUS
 10
-0.332185
 20
-1.072276
  0
SEQEND
  8
0
  0
POLYLINE
  8
PLAN_1
 62
     2
  6
CONTINUOUS
 66
     1
 40
0.004201
 41
0.004201
  0
VERTEX
  8
PLAN_1
 62
     2
  6
CONTINUOUS
 10
-0.174524
 20
3.791988
  0
VERTEX
  8
PLAN_1
 62
     2
  6
CONTINUOUS
 10
-0.895020
 20
3.791988
  0
SEQEND
  8
0
  0
POLYLINE
  8
PLAN_1
 62
     2
  6
CONTINUOUS
 66
     1
 40
0.004201
 41
0.004201
  0
VERTEX
  8
PLAN_1
 62
     2
  6
CONTINUOUS
 10
-0.198173
 20
-1.042846
  0
VERTEX
  8
PLAN_1
 62
     2
  6
CONTINUOUS
 10
-0.198173
 20
3.762559
  0
SEQEND
  8
0
  0
SOLID
  8
PLAN_1
 62
     2
 10
-0.198173
 20
3.791988
 11
-0.213941
 21
3.732602
 12
-0.198173
 22
3.791988
 13
-0.182409
 23
3.732602
  0
POLYLINE
  8
PLAN_1
 62
     2
  6
CONTINUOUS
 66
     1
 40
0.003000
 41
0.003000
  0
VERTEX
  8
PLAN_1
 62
     2
  6
CONTINUOUS
 10
-0.198173
 20
3.791988
  0
VERTEX
  8
PLAN_1
 62
     2
  6
CONTINUOUS
 10
-0.213941
 20
3.732602
  0
VERTEX
  8
PLAN_1
 62
     2
  6
CONTINUOUS
 10
-0.182409
 20
3.732602
  0
VERTEX
  8
PLAN_1
 62
     2
  6
CONTINUOUS
 10
-0.198173
 20
3.791988
  0
SEQEND
  8
0
  0
SOLID
  8
PLAN_1
 62
     2
 10
-0.198173
 20
-1.072276
 11
-0.213941
 21
-1.013417
 12
-0.198173
 22
-1.072276
 13
-0.182409
 23
-1.013417
  0
POLYLINE
  8
PLAN_1
 62
     2
  6
CONTINUOUS
 66
     1
 40
0.003000
 41
0.003000
  0
VERTEX
  8
PLAN_1
 62
     2
  6
CONTINUOUS
 10
-0.198173
 20
-1.072276
  0
VERTEX
  8
PLAN_1
 62
     2
  6
CONTINUOUS
 10
-0.213941
 20
-1.013417
  0
VERTEX
  8
PLAN_1
 62
     2
  6
CONTINUOUS
 10
-0.182409
 20
-1.013417
  0
VERTEX
  8
PLAN_1
 62
     2
  6
CONTINUOUS
 10
-0.198173
 20
-1.072276
  0
SEQEND
  8
0
  0
POLYLINE
  8
PLAN_1
 62
     2
  6
CONTINUOUS
 66
     1
 40
0.003000
 41
0.003000
  0
VERTEX
  8
PLAN_1
 62
     2
  6
CONTINUOUS
 10
-0.221823
 20
1.307303
  0
VERTEX
  8
PLAN_1
 62
     2
  6
CONTINUOUS
 10
-0.221823
 20
1.297843
  0
VERTEX
  8
PLAN_1
 62
     2
  6
CONTINUOUS
 10
-0.273850
 20
1.297843
  0
VERTEX
  8
PLAN_1
 62
     2
  6
CONTINUOUS
 10
-0.273850
 20
1.280500
  0
VERTEX
  8
PLAN_1
 62
     2
  6
CONTINUOUS
 10
-0.281209
 20
1.280500
  0
VERTEX
  8
PLAN_1
 62
     2
  6
CONTINUOUS
 10
-0.281209
 20
1.284705
  0
VERTEX
  8
PLAN_1
 62
     2
  6
CONTINUOUS
 10
-0.281732
 20
1.288386
  0
VERTEX
  8
PLAN_1
 62
     2
  6
CONTINUOUS
 10
-0.282783
 20
1.291012
  0
VERTEX
  8
PLAN_1
 62
     2
  6
CONTINUOUS
 10
-0.283835
 20
1.293638
  0
VERTEX
  8
PLAN_1
 62
     2
  6
CONTINUOUS
 10
-0.285409
 20
1.295740
  0
VERTEX
  8
PLAN_1
 62
     2
  6
CONTINUOUS
 10
-0.288039
 20
1.297843
  0
VERTEX
  8
PLAN_1
 62
     2
  6
CONTINUOUS
 10
-0.291193
 20
1.298894
  0
VERTEX
  8
PLAN_1
 62
     2
  6
CONTINUOUS
 10
-0.294870
 20
1.300472
  0
VERTEX
  8
PLAN_1
 62
     2
  6
CONTINUOUS
 10
-0.294870
 20
1.307303
  0
VERTEX
  8
PLAN_1
 62
     2
  6
CONTINUOUS
 10
-0.221823
 20
1.307303
  0
SEQEND
  8
0
  0
POLYLINE
  8
PLAN_1
 62
     2
  6
CONTINUOUS
 66
     1
 40
0.003000
 41
0.003000
  0
VERTEX
  8
PLAN_1
 62
     2
  6
CONTINUOUS
 10
-0.268594
 20
1.332528
  0
VERTEX
  8
PLAN_1
 62
     2
  6
CONTINUOUS
 10
-0.272799
 20
1.332528
  0
VERTEX
  8
PLAN_1
 62
     2
  6
CONTINUOUS
 10
-0.276476
 20
1.333579
  0
VERTEX
  8
PLAN_1
 62
     2
  6
CONTINUOUS
 10
-0.280157
 20
1.334106
  0
VERTEX
  8
PLAN_1
 62
     2
  6
CONTINUOUS
 10
-0.282783
 20
1.335157
  0
VERTEX
  8
PLAN_1
 62
     2
  6
CONTINUOUS
 10
-0.285409
 20
1.336732
  0
VERTEX
  8
PLAN_1
 62
     2
  6
CONTINUOUS
 10
-0.287512
 20
1.338311
  0
VERTEX
  8
PLAN_1
 62
     2
  6
CONTINUOUS
 10
-0.289091
 20
1.340409
  0
VERTEX
  8
PLAN_1
 62
     2
  6
CONTINUOUS
 10
-0.290665
 20
1.341988
  0
VERTEX
  8
PLAN_1
 62
     2
  6
CONTINUOUS
 10
-0.292768
 20
1.346193
  0
VERTEX
  8
PLAN_1
 62
     2
  6
CONTINUOUS
 10
-0.294346
 20
1.350398
  0
VERTEX
  8
PLAN_1
 62
     2
  6
CONTINUOUS
 10
-0.294870
 20
1.354602
  0
VERTEX
  8
PLAN_1
 62
     2
  6
CONTINUOUS
 10
-0.294870
 20
1.357752
  0
VERTEX
  8
PLAN_1
 62
     2
  6
CONTINUOUS
 10
-0.294346
 20
1.362484
  0
VERTEX
  8
PLAN_1
 62
     2
  6
CONTINUOUS
 10
-0.293295
 20
1.366689
  0
VERTEX
  8
PLAN_1
 62
     2
  6
CONTINUOUS
 10
-0.291717
 20
1.370894
  0
VERTEX
  8
PLAN_1
 62
     2
  6
CONTINUOUS
 10
-0.289091
 20
1.374043
  0
VERTEX
  8
PLAN_1
 62
     2
  6
CONTINUOUS
 10
-0.285937
 20
1.376673
  0
VERTEX
  8
PLAN_1
 62
     2
  6
CONTINUOUS
 10
-0.282260
 20
1.378776
  0
VERTEX
  8
PLAN_1
 62
     2
  6
CONTINUOUS
 10
-0.278055
 20
1.380350
  0
VERTEX
  8
PLAN_1
 62
     2
  6
CONTINUOUS
 10
-0.273323
 20
1.380878
  0
VERTEX
  8
PLAN_1
 62
     2
  6
CONTINUOUS
 10
-0.268594
 20
1.380350
  0
VERTEX
  8
PLAN_1
 62
     2
  6
CONTINUOUS
 10
-0.264390
 20
1.379299
  0
VERTEX
  8
PLAN_1
 62
     2
  6
CONTINUOUS
 10
-0.261236
 20
1.377197
  0
VERTEX
  8
PLAN_1
 62
     2
  6
CONTINUOUS
 10
-0.258083
 20
1.375094
  0
VERTEX
  8
PLAN_1
 62
     2
  6
CONTINUOUS
 10
-0.255457
 20
1.371945
  0
VERTEX
  8
PLAN_1
 62
     2
  6
CONTINUOUS
 10
-0.252831
 20
1.368791
  0
VERTEX
  8
PLAN_1
 62
     2
  6
CONTINUOUS
 10
-0.250728
 20
1.365110
  0
VERTEX
  8
PLAN_1
 62
     2
  6
CONTINUOUS
 10
-0.248626
 20
1.360906
  0
VERTEX
  8
PLAN_1
 62
     2
  6
CONTINUOUS
 10
-0.244421
 20
1.353551
  0
VERTEX
  8
PLAN_1
 62
     2
  6
CONTINUOUS
 10
-0.242319
 20
1.350398
  0
VERTEX
  8
PLAN_1
 62
     2
  6
CONTINUOUS
 10
-0.240217
 20
1.347244
  0
VERTEX
  8
PLAN_1
 62
     2
  6
CONTINUOUS
 10
-0.238114
 20
1.345142
  0
VERTEX
  8
PLAN_1
 62
     2
  6
CONTINUOUS
 10
-0.236539
 20
1.343563
  0
VERTEX
  8
PLAN_1
 62
     2
  6
CONTINUOUS
 10
-0.234437
 20
1.342512
  0
VERTEX
  8
PLAN_1
 62
     2
  6
CONTINUOUS
 10
-0.232858
 20
1.341461
  0
VERTEX
  8
PLAN_1
 62
     2
  6
CONTINUOUS
 10
-0.231807
 20
1.341461
  0
VERTEX
  8
PLAN_1
 62
     2
  6
CONTINUOUS
 10
-0.230232
 20
1.340937
  0
VERTEX
  8
PLAN_1
 62
     2
  6
CONTINUOUS
 10
-0.230232
 20
1.380878
  0
VERTEX
  8
PLAN_1
 62
     2
  6
CONTINUOUS
 10
-0.221823
 20
1.380878
  0
VERTEX
  8
PLAN_1
 62
     2
  6
CONTINUOUS
 10
-0.221823
 20
1.330425
  0
VERTEX
  8
PLAN_1
 62
     2
  6
CONTINUOUS
 10
-0.227079
 20
1.330953
  0
VERTEX
  8
PLAN_1
 62
     2
  6
CONTINUOUS
 10
-0.231807
 20
1.332004
  0
VERTEX
  8
PLAN_1
 62
     2
  6
CONTINUOUS
 10
-0.236012
 20
1.333579
  0
VERTEX
  8
PLAN_1
 62
     2
  6
CONTINUOUS
 10
-0.239689
 20
1.335681
  0
VERTEX
  8
PLAN_1
 62
     2
  6
CONTINUOUS
 10
-0.243370
 20
1.338311
  0
VERTEX
  8
PLAN_1
 62
     2
  6
CONTINUOUS
 10
-0.245996
 20
1.340937
  0
VERTEX
  8
PLAN_1
 62
     2
  6
CONTINUOUS
 10
-0.248626
 20
1.344091
  0
VERTEX
  8
PLAN_1
 62
     2
  6
CONTINUOUS
 10
-0.250728
 20
1.347768
  0
VERTEX
  8
PLAN_1
 62
     2
  6
CONTINUOUS
 10
-0.256508
 20
1.357752
  0
VERTEX
  8
PLAN_1
 62
     2
  6
CONTINUOUS
 10
-0.258083
 20
1.360382
  0
VERTEX
  8
PLAN_1
 62
     2
  6
CONTINUOUS
 10
-0.259661
 20
1.363008
  0
VERTEX
  8
PLAN_1
 62
     2
  6
CONTINUOUS
 10
-0.261236
 20
1.365110
  0
VERTEX
  8
PLAN_1
 62
     2
  6
CONTINUOUS
 10
-0.262815
 20
1.367213
  0
VERTEX
  8
PLAN_1
 62
     2
  6
CONTINUOUS
 10
-0.264917
 20
1.368791
  0
VERTEX
  8
PLAN_1
 62
     2
  6
CONTINUOUS
 10
-0.267543
 20
1.369843
  0
VERTEX
  8
PLAN_1
 62
     2
  6
CONTINUOUS
 10
-0.270169
 20
1.370894
  0
VERTEX
  8
PLAN_1
 62
     2
  6
CONTINUOUS
 10
-0.273323
 20
1.370894
  0
VERTEX
  8
PLAN_1
 62
     2
  6
CONTINUOUS
 10
-0.275953
 20
1.370894
  0
VERTEX
  8
PLAN_1
 62
     2
  6
CONTINUOUS
 10
-0.278055
 20
1.370366
  0
VERTEX
  8
PLAN_1
 62
     2
  6
CONTINUOUS
 10
-0.280157
 20
1.369315
  0
VERTEX
  8
PLAN_1
 62
     2
  6
CONTINUOUS
 10
-0.282260
 20
1.367740
  0
VERTEX
  8
PLAN_1
 62
     2
  6
CONTINUOUS
 10
-0.283835
 20
1.365638
  0
VERTEX
  8
PLAN_1
 62
     2
  6
CONTINUOUS
 10
-0.285409
 20
1.363008
  0
VERTEX
  8
PLAN_1
 62
     2
  6
CONTINUOUS
 10
-0.286461
 20
1.360382
  0
VERTEX
  8
PLAN_1
 62
     2
  6
CONTINUOUS
 10
-0.286988
 20
1.356701
  0
VERTEX
  8
PLAN_1
 62
     2
  6
CONTINUOUS
 10
-0.286461
 20
1.354075
  0
VERTEX
  8
PLAN_1
 62
     2
  6
CONTINUOUS
 10
-0.285937
 20
1.351972
  0
VERTEX
  8
PLAN_1
 62
     2
  6
CONTINUOUS
 10
-0.285409
 20
1.349870
  0
VERTEX
  8
PLAN_1
 62
     2
  6
CONTINUOUS
 10
-0.284886
 20
1.348295
  0
VERTEX
  8
PLAN_1
 62
     2
  6
CONTINUOUS
 10
-0.282260
 20
1.345665
  0
VERTEX
  8
PLAN_1
 62
     2
  6
CONTINUOUS
 10
-0.279630
 20
1.344091
  0
VERTEX
  8
PLAN_1
 62
     2
  6
CONTINUOUS
 10
-0.276476
 20
1.343039
  0
VERTEX
  8
PLAN_1
 62
     2
  6
CONTINUOUS
 10
-0.273850
 20
1.341988
  0
VERTEX
  8
PLAN_1
 62
     2
  6
CONTINUOUS
 10
-0.271220
 20
1.341988
  0
VERTEX
  8
PLAN_1
 62
     2
  6
CONTINUOUS
 10
-0.268594
 20
1.341461
  0
VERTEX
  8
PLAN_1
 62
     2
  6
CONTINUOUS
 10
-0.268594
 20
1.332528
  0
SEQEND
  8
0
  0
POLYLINE
  8
PLAN_1
 62
     2
  6
CONTINUOUS
 66
     1
 40
0.003000
 41
0.003000
  0
VERTEX
  8
PLAN_1
 62
     2
  6
CONTINUOUS
 10
-0.219720
 20
1.415035
  0
VERTEX
  8
PLAN_1
 62
     2
  6
CONTINUOUS
 10
-0.220248
 20
1.410831
  0
VERTEX
  8
PLAN_1
 62
     2
  6
CONTINUOUS
 10
-0.220772
 20
1.407677
  0
VERTEX
  8
PLAN_1
 62
     2
  6
CONTINUOUS
 10
-0.221823
 20
1.404524
  0
VERTEX
  8
PLAN_1
 62
     2
  6
CONTINUOUS
 10
-0.223398
 20
1.401898
  0
VERTEX
  8
PLAN_1
 62
     2
  6
CONTINUOUS
 10
-0.225500
 20
1.399795
  0
VERTEX
  8
PLAN_1
 62
     2
  6
CONTINUOUS
 10
-0.227602
 20
1.397693
  0
VERTEX
  8
PLAN_1
 62
     2
  6
CONTINUOUS
 10
-0.230232
 20
1.396118
  0
VERTEX
  8
PLAN_1
 62
     2
  6
CONTINUOUS
 10
-0.232858
 20
1.394539
  0
VERTEX
  8
PLAN_1
 62
     2
  6
CONTINUOUS
 10
-0.238638
 20
1.391913
  0
VERTEX
  8
PLAN_1
 62
     2
  6
CONTINUOUS
 10
-0.244945
 20
1.390862
  0
VERTEX
  8
PLAN_1
 62
     2
  6
CONTINUOUS
 10
-0.251252
 20
1.389811
  0
VERTEX
  8
PLAN_1
 62
     2
  6
CONTINUOUS
 10
-0.257559
 20
1.389811
  0
VERTEX
  8
PLAN_1
 62
     2
  6
CONTINUOUS
 10
-0.263339
 20
1.389811
  0
VERTEX
  8
PLAN_1
 62
     2
  6
CONTINUOUS
 10
-0.269646
 20
1.390862
  0
VERTEX
  8
PLAN_1
 62
     2
  6
CONTINUOUS
 10
-0.275953
 20
1.391913
  0
VERTEX
  8
PLAN_1
 62
     2
  6
CONTINUOUS
 10
-0.281732
 20
1.394539
  0
VERTEX
  8
PLAN_1
 62
     2
  6
CONTINUOUS
 10
-0.284362
 20
1.396118
  0
VERTEX
  8
PLAN_1
 62
     2
  6
CONTINUOUS
 10
-0.286988
 20
1.397693
  0
VERTEX
  8
PLAN_1
 62
     2
  6
CONTINUOUS
 10
-0.289091
 20
1.399795
  0
VERTEX
  8
PLAN_1
 62
     2
  6
CONTINUOUS
 10
-0.291193
 20
1.401898
  0
VERTEX
  8
PLAN_1
 62
     2
  6
CONTINUOUS
 10
-0.292768
 20
1.404524
  0
VERTEX
  8
PLAN_1
 62
     2
  6
CONTINUOUS
 10
-0.293819
 20
1.407677
  0
VERTEX
  8
PLAN_1
 62
     2
  6
CONTINUOUS
 10
-0.294870
 20
1.410831
  0
VERTEX
  8
PLAN_1
 62
     2
  6
CONTINUOUS
 10
-0.294870
 20
1.415035
  0
VERTEX
  8
PLAN_1
 62
     2
  6
CONTINUOUS
 10
-0.294870
 20
1.418717
  0
VERTEX
  8
PLAN_1
 62
     2
  6
CONTINUOUS
 10
-0.293819
 20
1.421866
  0
VERTEX
  8
PLAN_1
 62
     2
  6
CONTINUOUS
 10
-0.292768
 20
1.425020
  0
VERTEX
  8
PLAN_1
 62
     2
  6
CONTINUOUS
 10
-0.291193
 20
1.427650
  0
VERTEX
  8
PLAN_1
 62
     2
  6
CONTINUOUS
 10
-0.289091
 20
1.429752
  0
VERTEX
  8
PLAN_1
 62
     2
  6
CONTINUOUS
 10
-0.286988
 20
1.431854
  0
VERTEX
  8
PLAN_1
 62
     2
  6
CONTINUOUS
 10
-0.284362
 20
1.433957
  0
VERTEX
  8
PLAN_1
 62
     2
  6
CONTINUOUS
 10
-0.281732
 20
1.435008
  0
VERTEX
  8
PLAN_1
 62
     2
  6
CONTINUOUS
 10
-0.275953
 20
1.437634
  0
VERTEX
  8
PLAN_1
 62
     2
  6
CONTINUOUS
 10
-0.269646
 20
1.438685
  0
VERTEX
  8
PLAN_1
 62
     2
  6
CONTINUOUS
 10
-0.263339
 20
1.439736
  0
VERTEX
  8
PLAN_1
 62
     2
  6
CONTINUOUS
 10
-0.257559
 20
1.439736
  0
VERTEX
  8
PLAN_1
 62
     2
  6
CONTINUOUS
 10
-0.251252
 20
1.439736
  0
VERTEX
  8
PLAN_1
 62
     2
  6
CONTINUOUS
 10
-0.244945
 20
1.438685
  0
VERTEX
  8
PLAN_1
 62
     2
  6
CONTINUOUS
 10
-0.238638
 20
1.437634
  0
VERTEX
  8
PLAN_1
 62
     2
  6
CONTINUOUS
 10
-0.232858
 20
1.435008
  0
VERTEX
  8
PLAN_1
 62
     2
  6
CONTINUOUS
 10
-0.230232
 20
1.433957
  0
VERTEX
  8
PLAN_1
 62
     2
  6
CONTINUOUS
 10
-0.227602
 20
1.431854
  0
VERTEX
  8
PLAN_1
 62
     2
  6
CONTINUOUS
 10
-0.225500
 20
1.429752
  0
VERTEX
  8
PLAN_1
 62
     2
  6
CONTINUOUS
 10
-0.223398
 20
1.427650
  0
VERTEX
  8
PLAN_1
 62
     2
  6
CONTINUOUS
 10
-0.221823
 20
1.425020
  0
VERTEX
  8
PLAN_1
 62
     2
  6
CONTINUOUS
 10
-0.220772
 20
1.421866
  0
VERTEX
  8
PLAN_1
 62
     2
  6
CONTINUOUS
 10
-0.220248
 20
1.418717
  0
VERTEX
  8
PLAN_1
 62
     2
  6
CONTINUOUS
 10
-0.219720
 20
1.415035
  0
SEQEND
  8
0
  0
POLYLINE
  8
PLAN_1
 62
     2
  6
CONTINUOUS
 66
     1
 40
0.003000
 41
0.003000
  0
VERTEX
  8
PLAN_1
 62
     2
  6
CONTINUOUS
 10
-0.286988
 20
1.415035
  0
VERTEX
  8
PLAN_1
 62
     2
  6
CONTINUOUS
 10
-0.286461
 20
1.412933
  0
VERTEX
  8
PLAN_1
 62
     2
  6
CONTINUOUS
 10
-0.286461
 20
1.411358
  0
VERTEX
  8
PLAN_1
 62
     2
  6
CONTINUOUS
 10
-0.285409
 20
1.409256
  0
VERTEX
  8
PLAN_1
 62
     2
  6
CONTINUOUS
 10
-0.284886
 20
1.408205
  0
VERTEX
  8
PLAN_1
 62
     2
  6
CONTINUOUS
 10
-0.282260
 20
1.405575
  0
VERTEX
  8
PLAN_1
 62
     2
  6
CONTINUOUS
 10
-0.279106
 20
1.402949
  0
VERTEX
  8
PLAN_1
 62
     2
  6
CONTINUOUS
 10
-0.274902
 20
1.401374
  0
VERTEX
  8
PLAN_1
 62
     2
  6
CONTINUOUS
 10
-0.269646
 20
1.400323
  0
VERTEX
  8
PLAN_1
 62
     2
  6
CONTINUOUS
 10
-0.263866
 20
1.399795
  0
VERTEX
  8
PLAN_1
 62
     2
  6
CONTINUOUS
 10
-0.257559
 20
1.399272
  0
VERTEX
  8
PLAN_1
 62
     2
  6
CONTINUOUS
 10
-0.250728
 20
1.399795
  0
VERTEX
  8
PLAN_1
 62
     2
  6
CONTINUOUS
 10
-0.244945
 20
1.400323
  0
VERTEX
  8
PLAN_1
 62
     2
  6
CONTINUOUS
 10
-0.240217
 20
1.401374
  0
VERTEX
  8
PLAN_1
 62
     2
  6
CONTINUOUS
 10
-0.236012
 20
1.402949
  0
VERTEX
  8
PLAN_1
 62
     2
  6
CONTINUOUS
 10
-0.232335
 20
1.405575
  0
VERTEX
  8
PLAN_1
 62
     2
  6
CONTINUOUS
 10
-0.230232
 20
1.408205
  0
VERTEX
  8
PLAN_1
 62
     2
  6
CONTINUOUS
 10
-0.229181
 20
1.409256
  0
VERTEX
  8
PLAN_1
 62
     2
  6
CONTINUOUS
 10
-0.228654
 20
1.411358
  0
VERTEX
  8
PLAN_1
 62
     2
  6
CONTINUOUS
 10
-0.228130
 20
1.412933
  0
VERTEX
  8
PLAN_1
 62
     2
  6
CONTINUOUS
 10
-0.228130
 20
1.415035
  0
VERTEX
  8
PLAN_1
 62
     2
  6
CONTINUOUS
 10
-0.228130
 20
1.416614
  0
VERTEX
  8
PLAN_1
 62
     2
  6
CONTINUOUS
 10
-0.228654
 20
1.418717
  0
VERTEX
  8
PLAN_1
 62
     2
  6
CONTINUOUS
 10
-0.229181
 20
1.420291
  0
VERTEX
  8
PLAN_1
 62
     2
  6
CONTINUOUS
 10
-0.230232
 20
1.421866
  0
VERTEX
  8
PLAN_1
 62
     2
  6
CONTINUOUS
 10
-0.232335
 20
1.424496
  0
VERTEX
  8
PLAN_1
 62
     2
  6
CONTINUOUS
 10
-0.236012
 20
1.426598
  0
VERTEX
  8
PLAN_1
 62
     2
  6
CONTINUOUS
 10
-0.240217
 20
1.428173
  0
VERTEX
  8
PLAN_1
 62
     2
  6
CONTINUOUS
 10
-0.244945
 20
1.429224
  0
VERTEX
  8
PLAN_1
 62
     2
  6
CONTINUOUS
 10
-0.250728
 20
1.429752
  0
VERTEX
  8
PLAN_1
 62
     2
  6
CONTINUOUS
 10
-0.257559
 20
1.430276
  0
VERTEX
  8
PLAN_1
 62
     2
  6
CONTINUOUS
 10
-0.263866
 20
1.429752
  0
VERTEX
  8
PLAN_1
 62
     2
  6
CONTINUOUS
 10
-0.269646
 20
1.429224
  0
VERTEX
  8
PLAN_1
 62
     2
  6
CONTINUOUS
 10
-0.274902
 20
1.428173
  0
VERTEX
  8
PLAN_1
 62
     2
  6
CONTINUOUS
 10
-0.279106
 20
1.426598
  0
VERTEX
  8
PLAN_1
 62
     2
  6
CONTINUOUS
 10
-0.282260
 20
1.424496
  0
VERTEX
  8
PLAN_1
 62
     2
  6
CONTINUOUS
 10
-0.284886
 20
1.421866
  0
VERTEX
  8
PLAN_1
 62
     2
  6
CONTINUOUS
 10
-0.285409
 20
1.420291
  0
VERTEX
  8
PLAN_1
 62
     2
  6
CONTINUOUS
 10
-0.286461
 20
1.418717
  0
VERTEX
  8
PLAN_1
 62
     2
  6
CONTINUOUS
 10
-0.286461
 20
1.416614
  0
VERTEX
  8
PLAN_1
 62
     2
  6
CONTINUOUS
 10
-0.286988
 20
1.415035
  0
SEQEND
  8
0
  0
POLYLINE
  8
PLAN_1
 62
     2
  6
CONTINUOUS
 66
     1
 40
0.004201
 41
0.004201
  0
VERTEX
  8
PLAN_1
 62
     2
  6
CONTINUOUS
 10
-0.357409
 20
4.130953
  0
VERTEX
  8
PLAN_1
 62
     2
  6
CONTINUOUS
 10
-0.357409
 20
3.815638
  0
SEQEND
  8
0
  0
POLYLINE
  8
PLAN_1
 62
     2
  6
CONTINUOUS
 66
     1
 40
0.004201
 41
0.004201
  0
VERTEX
  8
PLAN_1
 62
     2
  6
CONTINUOUS
 10
-0.357409
 20
3.767815
  0
VERTEX
  8
PLAN_1
 62
     2
  6
CONTINUOUS
 10
-0.357409
 20
2.005201
  0
SEQEND
  8
0
  0
POLYLINE
  8
PLAN_1
 62
     2
  6
CONTINUOUS
 66
     1
 40
0.004201
 41
0.004201
  0
VERTEX
  8
PLAN_1
 62
     2
  6
CONTINUOUS
 10
-1.027453
 20
4.130953
  0
VERTEX
  8
PLAN_1
 62
     2
  6
CONTINUOUS
 10
-1.027453
 20
4.074197
  0
SEQEND
  8
0
  0
POLYLINE
  8
PLAN_1
 62
     2
  6
CONTINUOUS
 66
     1
 40
0.004201
 41
0.004201
  0
VERTEX
  8
PLAN_1
 62
     2
  6
CONTINUOUS
 10
-0.996449
 20
4.107303
  0
VERTEX
  8
PLAN_1
 62
     2
  6
CONTINUOUS
 10
-0.386839
 20
4.107303
  0
SEQEND
  8
0
  0
SOLID
  8
PLAN_1
 62
     2
 10
-0.357409
 20
4.107303
 11
-0.416268
 21
4.123071
 12
-0.357409
 22
4.107303
 13
-0.416268
 23
4.091539
  0
POLYLINE
  8
PLAN_1
 62
     2
  6
CONTINUOUS
 66
     1
 40
0.003000
 41
0.003000
  0
VERTEX
  8
PLAN_1
 62
     2
  6
CONTINUOUS
 10
-0.357409
 20
4.107303
  0
VERTEX
  8
PLAN_1
 62
     2
  6
CONTINUOUS
 10
-0.416268
 20
4.123071
  0
VERTEX
  8
PLAN_1
 62
     2
  6
CONTINUOUS
 10
-0.416268
 20
4.091539
  0
VERTEX
  8
PLAN_1
 62
     2
  6
CONTINUOUS
 10
-0.357409
 20
4.107303
  0
SEQEND
  8
0
  0
SOLID
  8
PLAN_1
 62
     2
 10
-1.025878
 20
4.107303
 11
-0.966492
 21
4.123071
 12
-1.025878
 22
4.107303
 13
-0.966492
 23
4.091539
  0
POLYLINE
  8
PLAN_1
 62
     2
  6
CONTINUOUS
 66
     1
 40
0.003000
 41
0.003000
  0
VERTEX
  8
PLAN_1
 62
     2
  6
CONTINUOUS
 10
-1.025878
 20
4.107303
  0
VERTEX
  8
PLAN_1
 62
     2
  6
CONTINUOUS
 10
-0.966492
 20
4.123071
  0
VERTEX
  8
PLAN_1
 62
     2
  6
CONTINUOUS
 10
-0.966492
 20
4.091539
  0
VERTEX
  8
PLAN_1
 62
     2
  6
CONTINUOUS
 10
-1.025878
 20
4.107303
  0
SEQEND
  8
0
  0
POLYLINE
  8
PLAN_1
 62
     2
  6
CONTINUOUS
 66
     1
 40
0.003000
 41
0.003000
  0
VERTEX
  8
PLAN_1
 62
     2
  6
CONTINUOUS
 10
-0.721071
 20
4.130953
  0
VERTEX
  8
PLAN_1
 62
     2
  6
CONTINUOUS
 10
-0.731055
 20
4.130953
  0
VERTEX
  8
PLAN_1
 62
     2
  6
CONTINUOUS
 10
-0.731055
 20
4.182980
  0
VERTEX
  8
PLAN_1
 62
     2
  6
CONTINUOUS
 10
-0.748398
 20
4.182980
  0
VERTEX
  8
PLAN_1
 62
     2
  6
CONTINUOUS
 10
-0.748398
 20
4.189811
  0
VERTEX
  8
PLAN_1
 62
     2
  6
CONTINUOUS
 10
-0.744197
 20
4.190335
  0
VERTEX
  8
PLAN_1
 62
     2
  6
CONTINUOUS
 10
-0.740516
 20
4.190862
  0
VERTEX
  8
PLAN_1
 62
     2
  6
CONTINUOUS
 10
-0.737362
 20
4.191913
  0
VERTEX
  8
PLAN_1
 62
     2
  6
CONTINUOUS
 10
-0.734736
 20
4.192965
  0
VERTEX
  8
PLAN_1
 62
     2
  6
CONTINUOUS
 10
-0.732634
 20
4.194539
  0
VERTEX
  8
PLAN_1
 62
     2
  6
CONTINUOUS
 10
-0.731055
 20
4.196642
  0
VERTEX
  8
PLAN_1
 62
     2
  6
CONTINUOUS
 10
-0.729480
 20
4.199795
  0
VERTEX
  8
PLAN_1
 62
     2
  6
CONTINUOUS
 10
-0.728429
 20
4.204000
  0
VERTEX
  8
PLAN_1
 62
     2
  6
CONTINUOUS
 10
-0.721071
 20
4.204000
  0
VERTEX
  8
PLAN_1
 62
     2
  6
CONTINUOUS
 10
-0.721071
 20
4.130953
  0
SEQEND
  8
0
  0
POLYLINE
  8
PLAN_1
 62
     2
  6
CONTINUOUS
 66
     1
 40
0.003000
 41
0.003000
  0
VERTEX
  8
PLAN_1
 62
     2
  6
CONTINUOUS
 10
-0.696898
 20
4.202425
  0
VERTEX
  8
PLAN_1
 62
     2
  6
CONTINUOUS
 10
-0.646449
 20
4.202425
  0
VERTEX
  8
PLAN_1
 62
     2
  6
CONTINUOUS
 10
-0.646449
 20
4.194539
  0
VERTEX
  8
PLAN_1
 62
     2
  6
CONTINUOUS
 10
-0.649602
 20
4.190862
  0
VERTEX
  8
PLAN_1
 62
     2
  6
CONTINUOUS
 10
-0.653280
 20
4.186134
  0
VERTEX
  8
PLAN_1
 62
     2
  6
CONTINUOUS
 10
-0.657484
 20
4.179827
  0
VERTEX
  8
PLAN_1
 62
     2
  6
CONTINUOUS
 10
-0.662213
 20
4.171945
  0
VERTEX
  8
PLAN_1
 62
     2
  6
CONTINUOUS
 10
-0.666417
 20
4.163535
  0
VERTEX
  8
PLAN_1
 62
     2
  6
CONTINUOUS
 10
-0.670622
 20
4.153551
  0
VERTEX
  8
PLAN_1
 62
     2
  6
CONTINUOUS
 10
-0.672197
 20
4.148295
  0
VERTEX
  8
PLAN_1
 62
     2
  6
CONTINUOUS
 10
-0.673776
 20
4.142512
  0
VERTEX
  8
PLAN_1
 62
     2
  6
CONTINUOUS
 10
-0.675350
 20
4.136732
  0
VERTEX
  8
PLAN_1
 62
     2
  6
CONTINUOUS
 10
-0.676402
 20
4.130953
  0
VERTEX
  8
PLAN_1
 62
     2
  6
CONTINUOUS
 10
-0.686386
 20
4.130953
  0
VERTEX
  8
PLAN_1
 62
     2
  6
CONTINUOUS
 10
-0.685335
 20
4.138835
  0
VERTEX
  8
PLAN_1
 62
     2
  6
CONTINUOUS
 10
-0.682709
 20
4.146717
  0
VERTEX
  8
PLAN_1
 62
     2
  6
CONTINUOUS
 10
-0.679555
 20
4.155126
  0
VERTEX
  8
PLAN_1
 62
     2
  6
CONTINUOUS
 10
-0.675878
 20
4.163535
  0
VERTEX
  8
PLAN_1
 62
     2
  6
CONTINUOUS
 10
-0.671673
 20
4.171945
  0
VERTEX
  8
PLAN_1
 62
     2
  6
CONTINUOUS
 10
-0.666945
 20
4.179827
  0
VERTEX
  8
PLAN_1
 62
     2
  6
CONTINUOUS
 10
-0.661689
 20
4.187185
  0
VERTEX
  8
PLAN_1
 62
     2
  6
CONTINUOUS
 10
-0.656433
 20
4.193488
  0
VERTEX
  8
PLAN_1
 62
     2
  6
CONTINUOUS
 10
-0.696898
 20
4.193488
  0
VERTEX
  8
PLAN_1
 62
     2
  6
CONTINUOUS
 10
-0.696898
 20
4.202425
  0
SEQEND
  8
0
  0
POLYLINE
  8
PLAN_1
 62
     2
  6
CONTINUOUS
 66
     1
 40
0.004201
 41
0.004201
  0
VERTEX
  8
PLAN_1
 62
     2
  6
CONTINUOUS
 10
-1.097874
 20
3.949646
  0
VERTEX
  8
PLAN_1
 62
     2
  6
CONTINUOUS
 10
-0.946524
 20
3.949646
  0
SEQEND
  8
0
  0
SOLID
  8
PLAN_1
 62
     2
 10
-0.917094
 20
3.949646
 11
-0.976476
 21
3.965409
 12
-0.917094
 22
3.949646
 13
-0.976476
 23
3.933878
  0
POLYLINE
  8
PLAN_1
 62
     2
  6
CONTINUOUS
 66
     1
 40
0.003000
 41
0.003000
  0
VERTEX
  8
PLAN_1
 62
     2
  6
CONTINUOUS
 10
-0.917094
 20
3.949646
  0
VERTEX
  8
PLAN_1
 62
     2
  6
CONTINUOUS
 10
-0.976476
 20
3.965409
  0
VERTEX
  8
PLAN_1
 62
     2
  6
CONTINUOUS
 10
-0.976476
 20
3.933878
  0
VERTEX
  8
PLAN_1
 62
     2
  6
CONTINUOUS
 10
-0.917094
 20
3.949646
  0
SEQEND
  8
0
  0
SOLID
  8
PLAN_1
 62
     2
 10
-1.127303
 20
3.949646
 11
-1.068445
 21
3.965409
 12
-1.127303
 22
3.949646
 13
-1.068445
 23
3.933878
  0
POLYLINE
  8
PLAN_1
 62
     2
  6
CONTINUOUS
 66
     1
 40
0.003000
 41
0.003000
  0
VERTEX
  8
PLAN_1
 62
     2
  6
CONTINUOUS
 10
-1.127303
 20
3.949646
  0
VERTEX
  8
PLAN_1
 62
     2
  6
CONTINUOUS
 10
-1.068445
 20
3.965409
  0
VERTEX
  8
PLAN_1
 62
     2
  6
CONTINUOUS
 10
-1.068445
 20
3.933878
  0
VERTEX
  8
PLAN_1
 62
     2
  6
CONTINUOUS
 10
-1.127303
 20
3.949646
  0
SEQEND
  8
0
  0
POLYLINE
  8
PLAN_1
 62
     2
  6
CONTINUOUS
 66
     1
 40
0.003000
 41
0.003000
  0
VERTEX
  8
PLAN_1
 62
     2
  6
CONTINUOUS
 10
-1.041642
 20
4.015862
  0
VERTEX
  8
PLAN_1
 62
     2
  6
CONTINUOUS
 10
-1.040067
 20
4.016913
  0
VERTEX
  8
PLAN_1
 62
     2
  6
CONTINUOUS
 10
-1.039016
 20
4.017965
  0
VERTEX
  8
PLAN_1
 62
     2
  6
CONTINUOUS
 10
-1.037437
 20
4.018488
  0
VERTEX
  8
PLAN_1
 62
     2
  6
CONTINUOUS
 10
-1.035862
 20
4.019016
  0
VERTEX
  8
PLAN_1
 62
     2
  6
CONTINUOUS
 10
-1.033760
 20
4.019539
  0
VERTEX
  8
PLAN_1
 62
     2
  6
CONTINUOUS
 10
-1.031657
 20
4.020067
  0
VERTEX
  8
PLAN_1
 62
     2
  6
CONTINUOUS
 10
-1.029555
 20
4.020591
  0
VERTEX
  8
PLAN_1
 62
     2
  6
CONTINUOUS
 10
-1.027453
 20
4.020591
  0
VERTEX
  8
PLAN_1
 62
     2
  6
CONTINUOUS
 10
-1.022724
 20
4.020067
  0
VERTEX
  8
PLAN_1
 62
     2
  6
CONTINUOUS
 10
-1.018520
 20
4.019016
  0
VERTEX
  8
PLAN_1
 62
     2
  6
CONTINUOUS
 10
-1.014315
 20
4.017437
  0
VERTEX
  8
PLAN_1
 62
     2
  6
CONTINUOUS
 10
-1.010638
 20
4.014811
  0
VERTEX
  8
PLAN_1
 62
     2
  6
CONTINUOUS
 10
-1.008008
 20
4.011134
  0
VERTEX
  8
PLAN_1
 62
     2
  6
CONTINUOUS
 10
-1.005382
 20
4.007453
  0
VERTEX
  8
PLAN_1
 62
     2
  6
CONTINUOUS
 10
-1.004331
 20
4.004827
  0
VERTEX
  8
PLAN_1
 62
     2
  6
CONTINUOUS
 10
-1.003803
 20
4.002724
  0
VERTEX
  8
PLAN_1
 62
     2
  6
CONTINUOUS
 10
-1.003280
 20
4.000094
  0
VERTEX
  8
PLAN_1
 62
     2
  6
CONTINUOUS
 10
-1.003280
 20
3.997469
  0
VERTEX
  8
PLAN_1
 62
     2
  6
CONTINUOUS
 10
-1.003280
 20
3.993791
  0
VERTEX
  8
PLAN_1
 62
     2
  6
CONTINUOUS
 10
-1.004331
 20
3.989587
  0
VERTEX
  8
PLAN_1
 62
     2
  6
CONTINUOUS
 10
-1.005906
 20
3.985382
  0
VERTEX
  8
PLAN_1
 62
     2
  6
CONTINUOUS
 10
-1.008008
 20
3.981177
  0
VERTEX
  8
PLAN_1
 62
     2
  6
CONTINUOUS
 10
-1.009587
 20
3.979602
  0
VERTEX
  8
PLAN_1
 62
     2
  6
CONTINUOUS
 10
-1.011161
 20
3.977500
  0
VERTEX
  8
PLAN_1
 62
     2
  6
CONTINUOUS
 10
-1.013791
 20
3.975921
  0
VERTEX
  8
PLAN_1
 62
     2
  6
CONTINUOUS
 10
-1.015894
 20
3.974346
  0
VERTEX
  8
PLAN_1
 62
     2
  6
CONTINUOUS
 10
-1.019043
 20
3.973295
  0
VERTEX
  8
PLAN_1
 62
     2
  6
CONTINUOUS
 10
-1.022197
 20
3.972244
  0
VERTEX
  8
PLAN_1
 62
     2
  6
CONTINUOUS
 10
-1.025878
 20
3.971717
  0
VERTEX
  8
PLAN_1
 62
     2
  6
CONTINUOUS
 10
-1.030083
 20
3.971717
  0
VERTEX
  8
PLAN_1
 62
     2
  6
CONTINUOUS
 10
-1.033760
 20
3.971717
  0
VERTEX
  8
PLAN_1
 62
     2
  6
CONTINUOUS
 10
-1.037437
 20
3.972244
  0
VERTEX
  8
PLAN_1
 62
     2
  6
CONTINUOUS
 10
-1.041118
 20
3.973819
  0
VERTEX
  8
PLAN_1
 62
     2
  6
CONTINUOUS
 10
-1.044795
 20
3.975398
  0
VERTEX
  8
PLAN_1
 62
     2
  6
CONTINUOUS
 10
-1.047949
 20
3.978024
  0
VERTEX
  8
PLAN_1
 62
     2
  6
CONTINUOUS
 10
-1.050575
 20
3.981701
  0
VERTEX
  8
PLAN_1
 62
     2
  6
CONTINUOUS
 10
-1.051626
 20
3.983803
  0
VERTEX
  8
PLAN_1
 62
     2
  6
CONTINUOUS
 10
-1.052154
 20
3.985906
  0
VERTEX
  8
PLAN_1
 62
     2
  6
CONTINUOUS
 10
-1.053205
 20
3.988535
  0
VERTEX
  8
PLAN_1
 62
     2
  6
CONTINUOUS
 10
-1.053205
 20
3.991689
  0
VERTEX
  8
PLAN_1
 62
     2
  6
CONTINUOUS
 10
-1.043744
 20
3.991689
  0
VERTEX
  8
PLAN_1
 62
     2
  6
CONTINUOUS
 10
-1.043220
 20
3.988535
  0
VERTEX
  8
PLAN_1
 62
     2
  6
CONTINUOUS
 10
-1.042169
 20
3.986433
  0
VERTEX
  8
PLAN_1
 62
     2
  6
CONTINUOUS
 10
-1.040591
 20
3.983803
  0
VERTEX
  8
PLAN_1
 62
     2
  6
CONTINUOUS
 10
-1.039016
 20
3.982228
  0
VERTEX
  8
PLAN_1
 62
     2
  6
CONTINUOUS
 10
-1.036913
 20
3.981177
  0
VERTEX
  8
PLAN_1
 62
     2
  6
CONTINUOUS
 10
-1.034283
 20
3.980126
  0
VERTEX
  8
PLAN_1
 62
     2
  6
CONTINUOUS
 10
-1.031657
 20
3.979602
  0
VERTEX
  8
PLAN_1
 62
     2
  6
CONTINUOUS
 10
-1.028504
 20
3.979602
  0
VERTEX
  8
PLAN_1
 62
     2
  6
CONTINUOUS
 10
-1.025350
 20
3.979602
  0
VERTEX
  8
PLAN_1
 62
     2
  6
CONTINUOUS
 10
-1.022197
 20
3.980654
  0
VERTEX
  8
PLAN_1
 62
     2
  6
CONTINUOUS
 10
-1.019571
 20
3.982228
  0
VERTEX
  8
PLAN_1
 62
     2
  6
CONTINUOUS
 10
-1.017469
 20
3.984331
  0
VERTEX
  8
PLAN_1
 62
     2
  6
CONTINUOUS
 10
-1.015366
 20
3.986957
  0
VERTEX
  8
PLAN_1
 62
     2
  6
CONTINUOUS
 10
-1.014315
 20
3.989587
  0
VERTEX
  8
PLAN_1
 62
     2
  6
CONTINUOUS
 10
-1.013264
 20
3.992740
  0
VERTEX
  8
PLAN_1
 62
     2
  6
CONTINUOUS
 10
-1.013264
 20
3.996417
  0
VERTEX
  8
PLAN_1
 62
     2
  6
CONTINUOUS
 10
-1.013264
 20
4.000094
  0
VERTEX
  8
PLAN_1
 62
     2
  6
CONTINUOUS
 10
-1.014315
 20
4.003248
  0
VERTEX
  8
PLAN_1
 62
     2
  6
CONTINUOUS
 10
-1.015894
 20
4.005878
  0
VERTEX
  8
PLAN_1
 62
     2
  6
CONTINUOUS
 10
-1.017992
 20
4.007980
  0
VERTEX
  8
PLAN_1
 62
     2
  6
CONTINUOUS
 10
-1.020094
 20
4.010083
  0
VERTEX
  8
PLAN_1
 62
     2
  6
CONTINUOUS
 10
-1.022724
 20
4.011134
  0
VERTEX
  8
PLAN_1
 62
     2
  6
CONTINUOUS
 10
-1.025878
 20
4.012185
  0
VERTEX
  8
PLAN_1
 62
     2
  6
CONTINUOUS
 10
-1.029555
 20
4.012185
  0
VERTEX
  8
PLAN_1
 62
     2
  6
CONTINUOUS
 10
-1.031134
 20
4.012185
  0
VERTEX
  8
PLAN_1
 62
     2
  6
CONTINUOUS
 10
-1.033232
 20
4.012185
  0
VERTEX
  8
PLAN_1
 62
     2
  6
CONTINUOUS
 10
-1.034811
 20
4.011134
  0
VERTEX
  8
PLAN_1
 62
     2
  6
CONTINUOUS
 10
-1.036913
 20
4.010606
  0
VERTEX
  8
PLAN_1
 62
     2
  6
CONTINUOUS
 10
-1.038488
 20
4.009555
  0
VERTEX
  8
PLAN_1
 62
     2
  6
CONTINUOUS
 10
-1.040067
 20
4.008504
  0
VERTEX
  8
PLAN_1
 62
     2
  6
CONTINUOUS
 10
-1.041642
 20
4.006929
  0
VERTEX
  8
PLAN_1
 62
     2
  6
CONTINUOUS
 10
-1.042693
 20
4.005350
  0
VERTEX
  8
PLAN_1
 62
     2
  6
CONTINUOUS
 10
-1.050575
 20
4.005878
  0
VERTEX
  8
PLAN_1
 62
     2
  6
CONTINUOUS
 10
-1.045323
 20
4.045291
  0
VERTEX
  8
PLAN_1
 62
     2
  6
CONTINUOUS
 10
-1.007484
 20
4.045291
  0
VERTEX
  8
PLAN_1
 62
     2
  6
CONTINUOUS
 10
-1.007484
 20
4.036358
  0
VERTEX
  8
PLAN_1
 62
     2
  6
CONTINUOUS
 10
-1.038488
 20
4.036358
  0
VERTEX
  8
PLAN_1
 62
     2
  6
CONTINUOUS
 10
-1.041642
 20
4.015862
  0
SEQEND
  8
0
  0
POLYLINE
  8
PLAN_1
 62
     2
  6
CONTINUOUS
 66
     1
 40
0.004201
 41
0.004201
  0
VERTEX
  8
PLAN_1
 62
     2
  6
CONTINUOUS
 10
-1.025878
 20
3.848220
  0
VERTEX
  8
PLAN_1
 62
     2
  6
CONTINUOUS
 10
-1.025878
 20
3.619091
  0
SEQEND
  8
0
  0
POLYLINE
  8
PLAN_1
 62
     2
  6
CONTINUOUS
 66
     1
 40
0.004201
 41
0.004201
  0
VERTEX
  8
PLAN_1
 62
     2
  6
CONTINUOUS
 10
-1.127303
 20
3.974346
  0
VERTEX
  8
PLAN_1
 62
     2
  6
CONTINUOUS
 10
-1.127303
 20
3.814059
  0
SEQEND
  8
0
  0
POLYLINE
  8
PLAN_1
 62
     2
  6
CONTINUOUS
 66
     1
 40
0.004201
 41
0.004201
  0
VERTEX
  8
PLAN_1
 62
     2
  6
CONTINUOUS
 10
-0.917094
 20
3.973295
  0
VERTEX
  8
PLAN_1
 62
     2
  6
CONTINUOUS
 10
-0.917094
 20
3.815638
  0
SEQEND
  8
0
  0
POLYLINE
  8
PLAN_1
 62
     2
  6
CONTINUOUS
 66
     1
 40
0.004201
 41
0.004201
  0
VERTEX
  8
PLAN_1
 62
     2
  6
CONTINUOUS
 10
-0.353728
 20
-1.095925
  0
VERTEX
  8
PLAN_1
 62
     2
  6
CONTINUOUS
 10
-0.353728
 20
-1.514768
  0
SEQEND
  8
0
  0
POLYLINE
  8
PLAN_1
 62
     2
  6
CONTINUOUS
 66
     1
 40
0.004201
 41
0.004201
  0
VERTEX
  8
PLAN_1
 62
     2
  6
CONTINUOUS
 10
-0.198173
 20
-1.514768
  0
VERTEX
  8
PLAN_1
 62
     2
  6
CONTINUOUS
 10
-0.198173
 20
-1.098028
  0
SEQEND
  8
0
  0
SOLID
  8
PLAN_1
 62
     2
 10
-0.198173
 20
-1.068598
 11
-0.213941
 21
-1.127980
 12
-0.198173
 22
-1.068598
 13
-0.182409
 23
-1.127980
  0
POLYLINE
  8
PLAN_1
 62
     2
  6
CONTINUOUS
 66
     1
 40
0.003000
 41
0.003000
  0
VERTEX
  8
PLAN_1
 62
     2
  6
CONTINUOUS
 10
-0.198173
 20
-1.068598
  0
VERTEX
  8
PLAN_1
 62
     2
  6
CONTINUOUS
 10
-0.213941
 20
-1.127980
  0
VERTEX
  8
PLAN_1
 62
     2
  6
CONTINUOUS
 10
-0.182409
 20
-1.127980
  0
VERTEX
  8
PLAN_1
 62
     2
  6
CONTINUOUS
 10
-0.198173
 20
-1.068598
  0
SEQEND
  8
0
  0
SOLID
  8
PLAN_1
 62
     2
 10
-0.198173
 20
-1.544197
 11
-0.213941
 21
-1.485339
 12
-0.198173
 22
-1.544197
 13
-0.182409
 23
-1.485339
  0
POLYLINE
  8
PLAN_1
 62
     2
  6
CONTINUOUS
 66
     1
 40
0.003000
 41
0.003000
  0
VERTEX
  8
PLAN_1
 62
     2
  6
CONTINUOUS
 10
-0.198173
 20
-1.544197
  0
VERTEX
  8
PLAN_1
 62
     2
  6
CONTINUOUS
 10
-0.213941
 20
-1.485339
  0
VERTEX
  8
PLAN_1
 62
     2
  6
CONTINUOUS
 10
-0.182409
 20
-1.485339
  0
VERTEX
  8
PLAN_1
 62
     2
  6
CONTINUOUS
 10
-0.198173
 20
-1.544197
  0
SEQEND
  8
0
  0
POLYLINE
  8
PLAN_1
 62
     2
  6
CONTINUOUS
 66
     1
 40
0.004201
 41
0.004201
  0
VERTEX
  8
PLAN_1
 62
     2
  6
CONTINUOUS
 10
-0.770996
 20
-1.544197
  0
VERTEX
  8
PLAN_1
 62
     2
  6
CONTINUOUS
 10
-0.179780
 20
-1.544197
  0
SEQEND
  8
0
  0
POLYLINE
  8
PLAN_1
 62
     2
  6
CONTINUOUS
 66
     1
 40
0.003000
 41
0.003000
  0
VERTEX
  8
PLAN_1
 62
     2
  6
CONTINUOUS
 10
-0.227079
 20
-1.327157
  0
VERTEX
  8
PLAN_1
 62
     2
  6
CONTINUOUS
 10
-0.227079
 20
-1.336614
  0
VERTEX
  8
PLAN_1
 62
     2
  6
CONTINUOUS
 10
-0.279106
 20
-1.336614
  0
VERTEX
  8
PLAN_1
 62
     2
  6
CONTINUOUS
 10
-0.279106
 20
-1.353957
  0
VERTEX
  8
PLAN_1
 62
     2
  6
CONTINUOUS
 10
-0.286461
 20
-1.353957
  0
VERTEX
  8
PLAN_1
 62
     2
  6
CONTINUOUS
 10
-0.286988
 20
-1.349752
  0
VERTEX
  8
PLAN_1
 62
     2
  6
CONTINUOUS
 10
-0.287512
 20
-1.346075
  0
VERTEX
  8
PLAN_1
 62
     2
  6
CONTINUOUS
 10
-0.288039
 20
-1.343449
  0
VERTEX
  8
PLAN_1
 62
     2
  6
CONTINUOUS
 10
-0.289091
 20
-1.340819
  0
VERTEX
  8
PLAN_1
 62
     2
  6
CONTINUOUS
 10
-0.290665
 20
-1.338717
  0
VERTEX
  8
PLAN_1
 62
     2
  6
CONTINUOUS
 10
-0.293295
 20
-1.336614
  0
VERTEX
  8
PLAN_1
 62
     2
  6
CONTINUOUS
 10
-0.296449
 20
-1.335563
  0
VERTEX
  8
PLAN_1
 62
     2
  6
CONTINUOUS
 10
-0.300126
 20
-1.333988
  0
VERTEX
  8
PLAN_1
 62
     2
  6
CONTINUOUS
 10
-0.300126
 20
-1.327157
  0
VERTEX
  8
PLAN_1
 62
     2
  6
CONTINUOUS
 10
-0.227079
 20
-1.327157
  0
SEQEND
  8
0
  0
POLYLINE
  8
PLAN_1
 62
     2
  6
CONTINUOUS
 66
     1
 40
0.003000
 41
0.003000
  0
VERTEX
  8
PLAN_1
 62
     2
  6
CONTINUOUS
 10
-0.274374
 20
-1.301929
  0
VERTEX
  8
PLAN_1
 62
     2
  6
CONTINUOUS
 10
-0.278579
 20
-1.301929
  0
VERTEX
  8
PLAN_1
 62
     2
  6
CONTINUOUS
 10
-0.282260
 20
-1.300878
  0
VERTEX
  8
PLAN_1
 62
     2
  6
CONTINUOUS
 10
-0.285409
 20
-1.300354
  0
VERTEX
  8
PLAN_1
 62
     2
  6
CONTINUOUS
 10
-0.288039
 20
-1.299303
  0
VERTEX
  8
PLAN_1
 62
     2
  6
CONTINUOUS
 10
-0.290665
 20
-1.297728
  0
VERTEX
  8
PLAN_1
 62
     2
  6
CONTINUOUS
 10
-0.292768
 20
-1.296150
  0
VERTEX
  8
PLAN_1
 62
     2
  6
CONTINUOUS
 10
-0.294870
 20
-1.294047
  0
VERTEX
  8
PLAN_1
 62
     2
  6
CONTINUOUS
 10
-0.296449
 20
-1.292472
  0
VERTEX
  8
PLAN_1
 62
     2
  6
CONTINUOUS
 10
-0.298551
 20
-1.288268
  0
VERTEX
  8
PLAN_1
 62
     2
  6
CONTINUOUS
 10
-0.299602
 20
-1.284063
  0
VERTEX
  8
PLAN_1
 62
     2
  6
CONTINUOUS
 10
-0.300126
 20
-1.279858
  0
VERTEX
  8
PLAN_1
 62
     2
  6
CONTINUOUS
 10
-0.300126
 20
-1.276705
  0
VERTEX
  8
PLAN_1
 62
     2
  6
CONTINUOUS
 10
-0.300126
 20
-1.271976
  0
VERTEX
  8
PLAN_1
 62
     2
  6
CONTINUOUS
 10
-0.299075
 20
-1.267772
  0
VERTEX
  8
PLAN_1
 62
     2
  6
CONTINUOUS
 10
-0.296972
 20
-1.263567
  0
VERTEX
  8
PLAN_1
 62
     2
  6
CONTINUOUS
 10
-0.294346
 20
-1.260413
  0
VERTEX
  8
PLAN_1
 62
     2
  6
CONTINUOUS
 10
-0.291193
 20
-1.257787
  0
VERTEX
  8
PLAN_1
 62
     2
  6
CONTINUOUS
 10
-0.287512
 20
-1.255685
  0
VERTEX
  8
PLAN_1
 62
     2
  6
CONTINUOUS
 10
-0.283311
 20
-1.254106
  0
VERTEX
  8
PLAN_1
 62
     2
  6
CONTINUOUS
 10
-0.278579
 20
-1.253583
  0
VERTEX
  8
PLAN_1
 62
     2
  6
CONTINUOUS
 10
-0.273850
 20
-1.254106
  0
VERTEX
  8
PLAN_1
 62
     2
  6
CONTINUOUS
 10
-0.270169
 20
-1.255157
  0
VERTEX
  8
PLAN_1
 62
     2
  6
CONTINUOUS
 10
-0.266492
 20
-1.257260
  0
VERTEX
  8
PLAN_1
 62
     2
  6
CONTINUOUS
 10
-0.263339
 20
-1.259362
  0
VERTEX
  8
PLAN_1
 62
     2
  6
CONTINUOUS
 10
-0.260713
 20
-1.262516
  0
VERTEX
  8
PLAN_1
 62
     2
  6
CONTINUOUS
 10
-0.258610
 20
-1.265669
  0
VERTEX
  8
PLAN_1
 62
     2
  6
CONTINUOUS
 10
-0.256508
 20
-1.269346
  0
VERTEX
  8
PLAN_1
 62
     2
  6
CONTINUOUS
 10
-0.253878
 20
-1.273028
  0
VERTEX
  8
PLAN_1
 62
     2
  6
CONTINUOUS
 10
-0.249677
 20
-1.280909
  0
VERTEX
  8
PLAN_1
 62
     2
  6
CONTINUOUS
 10
-0.248098
 20
-1.284063
  0
VERTEX
  8
PLAN_1
 62
     2
  6
CONTINUOUS
 10
-0.245996
 20
-1.287217
  0
VERTEX
  8
PLAN_1
 62
     2
  6
CONTINUOUS
 10
-0.243894
 20
-1.289319
  0
VERTEX
  8
PLAN_1
 62
     2
  6
CONTINUOUS
 10
-0.241791
 20
-1.290894
  0
VERTEX
  8
PLAN_1
 62
     2
  6
CONTINUOUS
 10
-0.240217
 20
-1.291945
  0
VERTEX
  8
PLAN_1
 62
     2
  6
CONTINUOUS
 10
-0.238638
 20
-1.292472
  0
VERTEX
  8
PLAN_1
 62
     2
  6
CONTINUOUS
 10
-0.237063
 20
-1.292996
  0
VERTEX
  8
PLAN_1
 62
     2
  6
CONTINUOUS
 10
-0.236012
 20
-1.293524
  0
VERTEX
  8
PLAN_1
 62
     2
  6
CONTINUOUS
 10
-0.236012
 20
-1.253583
  0
VERTEX
  8
PLAN_1
 62
     2
  6
CONTINUOUS
 10
-0.227079
 20
-1.253583
  0
VERTEX
  8
PLAN_1
 62
     2
  6
CONTINUOUS
 10
-0.227079
 20
-1.303508
  0
VERTEX
  8
PLAN_1
 62
     2
  6
CONTINUOUS
 10
-0.232858
 20
-1.303508
  0
VERTEX
  8
PLAN_1
 62
     2
  6
CONTINUOUS
 10
-0.237591
 20
-1.302457
  0
VERTEX
  8
PLAN_1
 62
     2
  6
CONTINUOUS
 10
-0.241791
 20
-1.300878
  0
VERTEX
  8
PLAN_1
 62
     2
  6
CONTINUOUS
 10
-0.245472
 20
-1.298780
  0
VERTEX
  8
PLAN_1
 62
     2
  6
CONTINUOUS
 10
-0.248626
 20
-1.296150
  0
VERTEX
  8
PLAN_1
 62
     2
  6
CONTINUOUS
 10
-0.251252
 20
-1.293524
  0
VERTEX
  8
PLAN_1
 62
     2
  6
CONTINUOUS
 10
-0.253878
 20
-1.290370
  0
VERTEX
  8
PLAN_1
 62
     2
  6
CONTINUOUS
 10
-0.256508
 20
-1.286689
  0
VERTEX
  8
PLAN_1
 62
     2
  6
CONTINUOUS
 10
-0.261764
 20
-1.276705
  0
VERTEX
  8
PLAN_1
 62
     2
  6
CONTINUOUS
 10
-0.263339
 20
-1.274079
  0
VERTEX
  8
PLAN_1
 62
     2
  6
CONTINUOUS
 10
-0.264917
 20
-1.271449
  0
VERTEX
  8
PLAN_1
 62
     2
  6
CONTINUOUS
 10
-0.266492
 20
-1.269346
  0
VERTEX
  8
PLAN_1
 62
     2
  6
CONTINUOUS
 10
-0.268594
 20
-1.267248
  0
VERTEX
  8
PLAN_1
 62
     2
  6
CONTINUOUS
 10
-0.270697
 20
-1.265669
  0
VERTEX
  8
PLAN_1
 62
     2
  6
CONTINUOUS
 10
-0.272799
 20
-1.264618
  0
VERTEX
  8
PLAN_1
 62
     2
  6
CONTINUOUS
 10
-0.275425
 20
-1.263567
  0
VERTEX
  8
PLAN_1
 62
     2
  6
CONTINUOUS
 10
-0.279106
 20
-1.263567
  0
VERTEX
  8
PLAN_1
 62
     2
  6
CONTINUOUS
 10
-0.281209
 20
-1.263567
  0
VERTEX
  8
PLAN_1
 62
     2
  6
CONTINUOUS
 10
-0.283311
 20
-1.264094
  0
VERTEX
  8
PLAN_1
 62
     2
  6
CONTINUOUS
 10
-0.285937
 20
-1.265146
  0
VERTEX
  8
PLAN_1
 62
     2
  6
CONTINUOUS
 10
-0.287512
 20
-1.266720
  0
VERTEX
  8
PLAN_1
 62
     2
  6
CONTINUOUS
 10
-0.289614
 20
-1.268823
  0
VERTEX
  8
PLAN_1
 62
     2
  6
CONTINUOUS
 10
-0.290665
 20
-1.270925
  0
VERTEX
  8
PLAN_1
 62
     2
  6
CONTINUOUS
 10
-0.291717
 20
-1.274079
  0
VERTEX
  8
PLAN_1
 62
     2
  6
CONTINUOUS
 10
-0.292244
 20
-1.277756
  0
VERTEX
  8
PLAN_1
 62
     2
  6
CONTINUOUS
 10
-0.292244
 20
-1.280386
  0
VERTEX
  8
PLAN_1
 62
     2
  6
CONTINUOUS
 10
-0.291717
 20
-1.282488
  0
VERTEX
  8
PLAN_1
 62
     2
  6
CONTINUOUS
 10
-0.290665
 20
-1.284591
  0
VERTEX
  8
PLAN_1
 62
     2
  6
CONTINUOUS
 10
-0.290142
 20
-1.286165
  0
VERTEX
  8
PLAN_1
 62
     2
  6
CONTINUOUS
 10
-0.288039
 20
-1.288791
  0
VERTEX
  8
PLAN_1
 62
     2
  6
CONTINUOUS
 10
-0.284886
 20
-1.290370
  0
VERTEX
  8
PLAN_1
 62
     2
  6
CONTINUOUS
 10
-0.282260
 20
-1.291421
  0
VERTEX
  8
PLAN_1
 62
     2
  6
CONTINUOUS
 10
-0.279106
 20
-1.292472
  0
VERTEX
  8
PLAN_1
 62
     2
  6
CONTINUOUS
 10
-0.276476
 20
-1.292472
  0
VERTEX
  8
PLAN_1
 62
     2
  6
CONTINUOUS
 10
-0.274374
 20
-1.292472
  0
VERTEX
  8
PLAN_1
 62
     2
  6
CONTINUOUS
 10
-0.274374
 20
-1.301929
  0
SEQEND
  8
0
  0
ENDSEC
  0
EOF
