  0
SECTION
  2
HEADER
  9
$ACADVER
  1
AC1012
  9
$DWGCODEPAGE
  3
ANSI_1252
  9
$INSBASE
 10
0.0
 20
0.0
 30
0.0
  9
$EXTMIN
 10
0.9270630173001705
 20
5.263549831769836
 30
-0.0000000349181948
  9
$EXTMAX
 10
6.654602072498065
 20
6.677352923524278
 30
0.0000000814935746
  9
$LIMMIN
 10
0.0
 20
0.0
  9
$LIMMAX
 10
12.0
 20
9.0
  9
$ORTHOMODE
 70
     1
  9
$REGENMODE
 70
     1
  9
$FILLMODE
 70
     1
  9
$QTEXTMODE
 70
     0
  9
$MIRRTEXT
 70
     1
  9
$DRAGMODE
 70
     2
  9
$LTSCALE
 40
1.0
  9
$OSMODE
 70
    33
  9
$ATTMODE
 70
     1
  9
$TEXTSIZE
 40
0.2
  9
$TRACEWID
 40
0.05
  9
$TEXTSTYLE
  7
STANDARD
  9
$CLAYER
  8
0
  9
$CELTYPE
  6
BYLAYER
  9
$CECOLOR
 62
   256
  9
$CELTSCALE
 40
1.0
  9
$DELOBJ
 70
     1
  9
$DISPSILH
 70
     0
  9
$DIMSCALE
 40
1.0
  9
$DIMASZ
 40
0.18
  9
$DIMEXO
 40
0.0625
  9
$DIMDLI
 40
0.38
  9
$DIMRND
 40
0.0
  9
$DIMDLE
 40
0.0
  9
$DIMEXE
 40
0.18
  9
$DIMTP
 40
0.0
  9
$DIMTM
 40
0.0
  9
$DIMTXT
 40
0.18
  9
$DIMCEN
 40
0.09
  9
$DIMTSZ
 40
0.0
  9
$DIMTOL
 70
     0
  9
$DIMLIM
 70
     0
  9
$DIMTIH
 70
     1
  9
$DIMTOH
 70
     1
  9
$DIMSE1
 70
     0
  9
$DIMSE2
 70
     0
  9
$DIMTAD
 70
     0
  9
$DIMZIN
 70
     0
  9
$DIMBLK
  1

  9
$DIMASO
 70
     1
  9
$DIMSHO
 70
     1
  9
$DIMPOST
  1

  9
$DIMAPOST
  1

  9
$DIMALT
 70
     0
  9
$DIMALTD
 70
     2
  9
$DIMALTF
 40
25.4
  9
$DIMLFAC
 40
1.0
  9
$DIMTOFL
 70
     0
  9
$DIMTVP
 40
0.0
  9
$DIMTIX
 70
     0
  9
$DIMSOXD
 70
     0
  9
$DIMSAH
 70
     0
  9
$DIMBLK1
  1

  9
$DIMBLK2
  1

  9
$DIMSTYLE
  2
STANDARD
  9
$DIMCLRD
 70
     0
  9
$DIMCLRE
 70
     0
  9
$DIMCLRT
 70
     0
  9
$DIMTFAC
 40
1.0
  9
$DIMGAP
 40
0.09
  9
$DIMJUST
 70
     0
  9
$DIMSD1
 70
     0
  9
$DIMSD2
 70
     0
  9
$DIMTOLJ
 70
     1
  9
$DIMTZIN
 70
     0
  9
$DIMALTZ
 70
     0
  9
$DIMALTTZ
 70
     0
  9
$DIMFIT
 70
     5
  9
$DIMUPT
 70
     0
  9
$DIMUNIT
 70
     2
  9
$DIMDEC
 70
     4
  9
$DIMTDEC
 70
     4
  9
$DIMALTU
 70
     2
  9
$DIMALTTD
 70
     2
  9
$DIMTXSTY
  7
STANDARD
  9
$DIMAUNIT
 70
     0
  9
$LUNITS
 70
     2
  9
$LUPREC
 70
     4
  9
$SKETCHINC
 40
0.1
  9
$FILLETRAD
 40
0.0
  9
$AUNITS
 70
     0
  9
$AUPREC
 70
     0
  9
$MENU
  1
acad
  9
$ELEVATION
 40
0.0
  9
$PELEVATION
 40
0.0
  9
$THICKNESS
 40
0.0
  9
$LIMCHECK
 70
     0
  9
$BLIPMODE
 70
     0
  9
$CHAMFERA
 40
0.0
  9
$CHAMFERB
 40
0.0
  9
$CHAMFERC
 40
0.0
  9
$CHAMFERD
 40
0.0
  9
$SKPOLY
 70
     0
  9
$TDCREATE
 40
2452221.535462963
  9
$TDUPDATE
 40
2452338.600725058
  9
$TDINDWG
 40
0.0015446065
  9
$TDUSRTIMER
 40
0.0015446065
  9
$USRTIMER
 70
     1
  9
$ANGBASE
 50
0.0
  9
$ANGDIR
 70
     0
  9
$PDMODE
 70
     0
  9
$PDSIZE
 40
0.0
  9
$PLINEWID
 40
0.0
  9
$COORDS
 70
     2
  9
$SPLFRAME
 70
     0
  9
$SPLINETYPE
 70
     6
  9
$SPLINESEGS
 70
     8
  9
$ATTDIA
 70
     0
  9
$ATTREQ
 70
     1
  9
$HANDLING
 70
  4097
  9
$HANDSEED
  5
3329
  9
$SURFTAB1
 70
     6
  9
$SURFTAB2
 70
     6
  9
$SURFTYPE
 70
     6
  9
$SURFU
 70
     6
  9
$SURFV
 70
     6
  9
$UCSNAME
  2

  9
$UCSORG
 10
0.0
 20
0.0
 30
0.0
  9
$UCSXDIR
 10
1.0
 20
0.0
 30
0.0
  9
$UCSYDIR
 10
0.0
 20
1.0
 30
0.0
  9
$PUCSNAME
  2

  9
$PUCSORG
 10
0.0
 20
0.0
 30
0.0
  9
$PUCSXDIR
 10
1.0
 20
0.0
 30
0.0
  9
$PUCSYDIR
 10
0.0
 20
1.0
 30
0.0
  9
$USERI1
 70
     0
  9
$USERI2
 70
     0
  9
$USERI3
 70
     0
  9
$USERI4
 70
     0
  9
$USERI5
 70
     0
  9
$USERR1
 40
0.0
  9
$USERR2
 40
0.0
  9
$USERR3
 40
0.0
  9
$USERR4
 40
0.0
  9
$USERR5
 40
0.0
  9
$WORLDVIEW
 70
     1
  9
$SHADEDGE
 70
     3
  9
$SHADEDIF
 70
    70
  9
$TILEMODE
 70
     1
  9
$MAXACTVP
 70
    16
  9
$PINSBASE
 10
0.0
 20
0.0
 30
0.0
  9
$PLIMCHECK
 70
     0
  9
$PEXTMIN
 10
1.000000000000000E+20
 20
1.000000000000000E+20
 30
1.000000000000000E+20
  9
$PEXTMAX
 10
-1.000000000000000E+20
 20
-1.000000000000000E+20
 30
-1.000000000000000E+20
  9
$PLIMMIN
 10
0.0
 20
0.0
  9
$PLIMMAX
 10
12.0
 20
9.0
  9
$UNITMODE
 70
     0
  9
$VISRETAIN
 70
     0
  9
$PLINEGEN
 70
     0
  9
$PSLTSCALE
 70
     1
  9
$TREEDEPTH
 70
  3020
  9
$PICKSTYLE
 70
     1
  9
$CMLSTYLE
  2
STANDARD
  9
$CMLJUST
 70
     0
  9
$CMLSCALE
 40
1.0
  9
$SAVEIMAGES
 70
     1
  0
ENDSEC
  0
SECTION
  2
CLASSES
  0
CLASS
  1
ACDBDICTIONARYWDFLT
  2
AcDbDictionaryWithDefault
  3
AutoCAD 2000
 90
    32768
280
     0
281
     0
  0
CLASS
  1
ACDBPLACEHOLDER
  2
AcDbPlaceHolder
  3
AutoCAD 2000
 90
    32768
280
     0
281
     0
  0
CLASS
  1
LAYOUT
  2
AcDbLayout
  3
AutoCAD 2000
 90
    32768
280
     0
281
     0
  0
CLASS
  1
LONG_TRANSACTION
  2
AcDbLongTransaction
  3
AutoCAD 2000
 90
    32768
280
     0
281
     0
  0
CLASS
  1
LWPOLYLINE
  2
AcDbPolyline
  3
AutoCAD 2000
 90
    32768
280
     0
281
     1
  0
CLASS
  1
HATCH
  2
AcDbHatch
  3
AutoCAD 2000
 90
    32768
280
     0
281
     1
  0
CLASS
  1
XRECORD
  2
AcDbXrecord
  3
AutoCAD 2000
 90
    32768
280
     0
281
     0
  0
CLASS
  1
LONG_TRANSACTION
  2
AcDbLongTransaction
  3
AutoCAD 2000
 90
    32768
280
     0
281
     0
  0
CLASS
  1
LWPOLYLINE
  2
AcDbPolyline
  3
AutoCAD 2000
 90
    32768
280
     0
281
     1
  0
CLASS
  1
HATCH
  2
AcDbHatch
  3
AutoCAD 2000
 90
    32768
280
     0
281
     1
  0
CLASS
  1
XRECORD
  2
AcDbXrecord
  3
AutoCAD 2000
 90
    32768
280
     0
281
     0
  0
ENDSEC
  0
SECTION
  2
TABLES
  0
TABLE
  2
VPORT
  5
8
330
0
100
AcDbSymbolTable
 70
     3
  0
VPORT
  5
3326
330
8
100
AcDbSymbolTableRecord
100
AcDbViewportTableRecord
  2
*ACTIVE
 70
     0
 10
0.0
 20
0.0
 11
1.0
 21
1.0
 12
3.790832544899117
 22
5.970451377647057
 13
0.0
 23
0.0
 14
1.0
 24
1.0
 15
0.0
 25
0.0
 16
0.0
 26
0.0
 36
1.0
 17
0.0
 27
0.0
 37
0.0
 40
3.557394535174555
 41
1.618083670715249
 42
50.0
 43
0.0
 44
0.0
 50
0.0
 51
0.0
 71
     0
 72
   100
 73
     1
 74
     1
 75
     0
 76
     0
 77
     0
 78
     0
  0
ENDTAB
  0
TABLE
  2
LTYPE
  5
5
330
0
100
AcDbSymbolTable
 70
    25
  0
LTYPE
  5
13
330
5
100
AcDbSymbolTableRecord
100
AcDbLinetypeTableRecord
  2
BYBLOCK
 70
     0
  3

 72
    65
 73
     0
 40
0.0
  0
LTYPE
  5
14
330
5
100
AcDbSymbolTableRecord
100
AcDbLinetypeTableRecord
  2
BYLAYER
 70
     0
  3

 72
    65
 73
     0
 40
0.0
  0
LTYPE
  5
15
330
5
100
AcDbSymbolTableRecord
100
AcDbLinetypeTableRecord
  2
CONTINUOUS
 70
     0
  3
Solid line
 72
    65
 73
     0
 40
0.0
  0
LTYPE
  5
22
330
5
100
AcDbSymbolTableRecord
100
AcDbLinetypeTableRecord
  2
BORDER
 70
     0
  3
__ __ . __ __ . __ __ . __ __ . __ __ . __ __ .
 72
    65
 73
     6
 40
1.75
 49
0.5
 74
     0
 49
-0.25
 74
     0
 49
0.5
 74
     0
 49
-0.25
 74
     0
 49
0.5
 74
     0
 49
-0.25
 74
     0
  0
LTYPE
  5
23
330
5
100
AcDbSymbolTableRecord
100
AcDbLinetypeTableRecord
  2
BORDER2
 70
     0
  3
__.__.__.__.__.__.__.__.__.__.__.__.__.__.__.__
 72
    65
 73
     6
 40
0.875
 49
0.25
 74
     0
 49
-0.125
 74
     0
 49
0.25
 74
     0
 49
-0.125
 74
     0
 49
0.25
 74
     0
 49
-0.125
 74
     0
  0
LTYPE
  5
24
330
5
100
AcDbSymbolTableRecord
100
AcDbLinetypeTableRecord
  2
BORDERX2
 70
     0
  3
____  ____  .  ____  ____  .  
 72
    65
 73
     6
 40
3.5
 49
1.0
 74
     0
 49
-0.5
 74
     0
 49
1.0
 74
     0
 49
-0.5
 74
     0
 49
1.0
 74
     0
 49
-0.5
 74
     0
  0
LTYPE
  5
25
330
5
100
AcDbSymbolTableRecord
100
AcDbLinetypeTableRecord
  2
CENTER
 70
     0
  3
____ _ ____ _ ____ _ ____ _ ____ _ ____ _ ____
 72
    65
 73
     4
 40
2.0
 49
1.25
 74
     0
 49
-0.25
 74
     0
 49
0.25
 74
     0
 49
-0.25
 74
     0
  0
LTYPE
  5
26
330
5
100
AcDbSymbolTableRecord
100
AcDbLinetypeTableRecord
  2
CENTER2
 70
     0
  3
____ _ ____ _ ____ _ ____ _ ____ _ ____ _ ____
 72
    65
 73
     4
 40
1.125
 49
0.75
 74
     0
 49
-0.125
 74
     0
 49
0.125
 74
     0
 49
-0.125
 74
     0
  0
LTYPE
  5
27
330
5
100
AcDbSymbolTableRecord
100
AcDbLinetypeTableRecord
  2
CENTERX2
 70
     0
  3
________  __  ________  __  ________  __  
 72
    65
 73
     4
 40
4.0
 49
2.5
 74
     0
 49
-0.5
 74
     0
 49
0.5
 74
     0
 49
-0.5
 74
     0
  0
LTYPE
  5
28
330
5
100
AcDbSymbolTableRecord
100
AcDbLinetypeTableRecord
  2
DASHDOT
 70
     0
  3
__ . __ . __ . __ . __ . __ . __ . 
 72
    65
 73
     4
 40
1.0
 49
0.5
 74
     0
 49
-0.25
 74
     0
 49
0.0
 74
     0
 49
-0.25
 74
     0
  0
LTYPE
  5
29
330
5
100
AcDbSymbolTableRecord
100
AcDbLinetypeTableRecord
  2
DASHDOT2
 70
     0
  3
_._._._._._._._._._._._._._._._.
 72
    65
 73
     4
 40
0.5
 49
0.25
 74
     0
 49
-0.125
 74
     0
 49
0.0
 74
     0
 49
-0.125
 74
     0
  0
LTYPE
  5
2A
330
5
100
AcDbSymbolTableRecord
100
AcDbLinetypeTableRecord
  2
DASHDOTX2
 70
     0
  3
____  .  ____  .  ____  .  ____  .  
 72
    65
 73
     4
 40
2.0
 49
1.0
 74
     0
 49
-0.5
 74
     0
 49
0.0
 74
     0
 49
-0.5
 74
     0
  0
LTYPE
  5
2B
330
5
100
AcDbSymbolTableRecord
100
AcDbLinetypeTableRecord
  2
DASHED
 70
     0
  3
__ __ __ __ __ __ __ __ __ __ __ __ 
 72
    65
 73
     2
 40
0.75
 49
0.5
 74
     0
 49
-0.25
 74
     0
  0
LTYPE
  5
2C
330
5
100
AcDbSymbolTableRecord
100
AcDbLinetypeTableRecord
  2
DASHED2
 70
     0
  3
_ _ _ _ _ _ _ _ _ _ _ _ _ _ _ _ _ _ 
 72
    65
 73
     2
 40
0.375
 49
0.25
 74
     0
 49
-0.125
 74
     0
  0
LTYPE
  5
2D
330
5
100
AcDbSymbolTableRecord
100
AcDbLinetypeTableRecord
  2
DASHEDX2
 70
     0
  3
____  ____  ____  ____  ____  ____  
 72
    65
 73
     2
 40
1.5
 49
1.0
 74
     0
 49
-0.5
 74
     0
  0
LTYPE
  5
2E
330
5
100
AcDbSymbolTableRecord
100
AcDbLinetypeTableRecord
  2
DIVIDE
 70
     0
  3
____ . . ____ . . ____ . . ____ . . 
 72
    65
 73
     6
 40
1.25
 49
0.5
 74
     0
 49
-0.25
 74
     0
 49
0.0
 74
     0
 49
-0.25
 74
     0
 49
0.0
 74
     0
 49
-0.25
 74
     0
  0
LTYPE
  5
2F
330
5
100
AcDbSymbolTableRecord
100
AcDbLinetypeTableRecord
  2
DIVIDE2
 70
     0
  3
__..__..__..__..__..__..__..__..__..
 72
    65
 73
     6
 40
0.625
 49
0.25
 74
     0
 49
-0.125
 74
     0
 49
0.0
 74
     0
 49
-0.125
 74
     0
 49
0.0
 74
     0
 49
-0.125
 74
     0
  0
LTYPE
  5
30
330
5
100
AcDbSymbolTableRecord
100
AcDbLinetypeTableRecord
  2
DIVIDEX2
 70
     0
  3
________  .  .  ________  .  .  ________  .  . 
 72
    65
 73
     6
 40
2.5
 49
1.0
 74
     0
 49
-0.5
 74
     0
 49
0.0
 74
     0
 49
-0.5
 74
     0
 49
0.0
 74
     0
 49
-0.5
 74
     0
  0
LTYPE
  5
31
330
5
100
AcDbSymbolTableRecord
100
AcDbLinetypeTableRecord
  2
DOT
 70
     0
  3
. . . . . . . . . . . . . . . . . . 
 72
    65
 73
     2
 40
0.25
 49
0.0
 74
     0
 49
-0.25
 74
     0
  0
LTYPE
  5
32
330
5
100
AcDbSymbolTableRecord
100
AcDbLinetypeTableRecord
  2
DOT2
 70
     0
  3
....................................
 72
    65
 73
     2
 40
0.125
 49
0.0
 74
     0
 49
-0.125
 74
     0
  0
LTYPE
  5
33
330
5
100
AcDbSymbolTableRecord
100
AcDbLinetypeTableRecord
  2
DOTX2
 70
     0
  3
.  .  .  .  .  .  .  .  .  .  .  .  .  
 72
    65
 73
     2
 40
0.5
 49
0.0
 74
     0
 49
-0.5
 74
     0
  0
LTYPE
  5
34
330
5
100
AcDbSymbolTableRecord
100
AcDbLinetypeTableRecord
  2
HIDDEN
 70
     0
  3
__ __ __ __ __ __ __ __ __ __ __ __ 
 72
    65
 73
     2
 40
0.375
 49
0.25
 74
     0
 49
-0.125
 74
     0
  0
LTYPE
  5
35
330
5
100
AcDbSymbolTableRecord
100
AcDbLinetypeTableRecord
  2
HIDDEN2
 70
     0
  3
_ _ _ _ _ _ _ _ _ _ _ _ _ _ _ _ _ _ 
 72
    65
 73
     2
 40
0.1875
 49
0.125
 74
     0
 49
-0.0625
 74
     0
  0
LTYPE
  5
36
330
5
100
AcDbSymbolTableRecord
100
AcDbLinetypeTableRecord
  2
HIDDENX2
 70
     0
  3
____ ____ ____ ____ ____ ____ ____ 
 72
    65
 73
     2
 40
0.75
 49
0.5
 74
     0
 49
-0.25
 74
     0
  0
LTYPE
  5
37
330
5
100
AcDbSymbolTableRecord
100
AcDbLinetypeTableRecord
  2
PHANTOM
 70
     0
  3
______  __  __  ______  __  __  
 72
    65
 73
     6
 40
2.5
 49
1.25
 74
     0
 49
-0.25
 74
     0
 49
0.25
 74
     0
 49
-0.25
 74
     0
 49
0.25
 74
     0
 49
-0.25
 74
     0
  0
LTYPE
  5
38
330
5
100
AcDbSymbolTableRecord
100
AcDbLinetypeTableRecord
  2
PHANTOM2
 70
     0
  3
___ _ _ ___ _ _ ___ _ _ ___ _ _ 
 72
    65
 73
     6
 40
1.25
 49
0.625
 74
     0
 49
-0.125
 74
     0
 49
0.125
 74
     0
 49
-0.125
 74
     0
 49
0.125
 74
     0
 49
-0.125
 74
     0
  0
LTYPE
  5
39
330
5
100
AcDbSymbolTableRecord
100
AcDbLinetypeTableRecord
  2
PHANTOMX2
 70
     0
  3
___ _ _ ___ _ _ ___ _ _ ___ _ _ 
 72
    65
 73
     6
 40
5.0
 49
2.5
 74
     0
 49
-0.5
 74
     0
 49
0.5
 74
     0
 49
-0.5
 74
     0
 49
0.5
 74
     0
 49
-0.5
 74
     0
  0
ENDTAB
  0
TABLE
  2
LAYER
  5
2
330
0
100
AcDbSymbolTable
 70
   257
  0
LAYER
  5
10
330
2
100
AcDbSymbolTableRecord
100
AcDbLayerTableRecord
  2
0
 70
     0
 62
     7
  6
CONTINUOUS
  0
LAYER
  5
3A
330
2
100
AcDbSymbolTableRecord
100
AcDbLayerTableRecord
  2
1
 70
     0
 62
     1
  6
CONTINUOUS
  0
LAYER
  5
3B
330
2
100
AcDbSymbolTableRecord
100
AcDbLayerTableRecord
  2
2
 70
     0
 62
     2
  6
CONTINUOUS
  0
LAYER
  5
3C
330
2
100
AcDbSymbolTableRecord
100
AcDbLayerTableRecord
  2
3
 70
     0
 62
     3
  6
CONTINUOUS
  0
LAYER
  5
3D
330
2
100
AcDbSymbolTableRecord
100
AcDbLayerTableRecord
  2
4
 70
     0
 62
     4
  6
CONTINUOUS
  0
LAYER
  5
3E
330
2
100
AcDbSymbolTableRecord
100
AcDbLayerTableRecord
  2
5
 70
     0
 62
     5
  6
CONTINUOUS
  0
LAYER
  5
3F
330
2
100
AcDbSymbolTableRecord
100
AcDbLayerTableRecord
  2
6
 70
     0
 62
     6
  6
CONTINUOUS
  0
LAYER
  5
40
330
2
100
AcDbSymbolTableRecord
100
AcDbLayerTableRecord
  2
7
 70
     0
 62
     7
  6
CONTINUOUS
  0
LAYER
  5
41
330
2
100
AcDbSymbolTableRecord
100
AcDbLayerTableRecord
  2
8
 70
     0
 62
     8
  6
CONTINUOUS
  0
LAYER
  5
42
330
2
100
AcDbSymbolTableRecord
100
AcDbLayerTableRecord
  2
9
 70
     0
 62
     9
  6
CONTINUOUS
  0
LAYER
  5
43
330
2
100
AcDbSymbolTableRecord
100
AcDbLayerTableRecord
  2
10
 70
     0
 62
    10
  6
CONTINUOUS
  0
LAYER
  5
44
330
2
100
AcDbSymbolTableRecord
100
AcDbLayerTableRecord
  2
11
 70
     0
 62
    11
  6
CONTINUOUS
  0
LAYER
  5
45
330
2
100
AcDbSymbolTableRecord
100
AcDbLayerTableRecord
  2
12
 70
     0
 62
    12
  6
CONTINUOUS
  0
LAYER
  5
46
330
2
100
AcDbSymbolTableRecord
100
AcDbLayerTableRecord
  2
13
 70
     0
 62
    13
  6
CONTINUOUS
  0
LAYER
  5
47
330
2
100
AcDbSymbolTableRecord
100
AcDbLayerTableRecord
  2
14
 70
     0
 62
    14
  6
CONTINUOUS
  0
LAYER
  5
48
330
2
100
AcDbSymbolTableRecord
100
AcDbLayerTableRecord
  2
15
 70
     0
 62
    15
  6
CONTINUOUS
  0
LAYER
  5
49
330
2
100
AcDbSymbolTableRecord
100
AcDbLayerTableRecord
  2
16
 70
     0
 62
    16
  6
CONTINUOUS
  0
LAYER
  5
4A
330
2
100
AcDbSymbolTableRecord
100
AcDbLayerTableRecord
  2
17
 70
     0
 62
    17
  6
CONTINUOUS
  0
LAYER
  5
4B
330
2
100
AcDbSymbolTableRecord
100
AcDbLayerTableRecord
  2
18
 70
     0
 62
    18
  6
CONTINUOUS
  0
LAYER
  5
4C
330
2
100
AcDbSymbolTableRecord
100
AcDbLayerTableRecord
  2
19
 70
     0
 62
    19
  6
CONTINUOUS
  0
LAYER
  5
4D
330
2
100
AcDbSymbolTableRecord
100
AcDbLayerTableRecord
  2
20
 70
     0
 62
    20
  6
CONTINUOUS
  0
LAYER
  5
4E
330
2
100
AcDbSymbolTableRecord
100
AcDbLayerTableRecord
  2
21
 70
     0
 62
    21
  6
CONTINUOUS
  0
LAYER
  5
4F
330
2
100
AcDbSymbolTableRecord
100
AcDbLayerTableRecord
  2
22
 70
     0
 62
    22
  6
CONTINUOUS
  0
LAYER
  5
50
330
2
100
AcDbSymbolTableRecord
100
AcDbLayerTableRecord
  2
23
 70
     0
 62
    23
  6
CONTINUOUS
  0
LAYER
  5
51
330
2
100
AcDbSymbolTableRecord
100
AcDbLayerTableRecord
  2
24
 70
     0
 62
    24
  6
CONTINUOUS
  0
LAYER
  5
52
330
2
100
AcDbSymbolTableRecord
100
AcDbLayerTableRecord
  2
25
 70
     0
 62
    25
  6
CONTINUOUS
  0
LAYER
  5
53
330
2
100
AcDbSymbolTableRecord
100
AcDbLayerTableRecord
  2
26
 70
     0
 62
    26
  6
CONTINUOUS
  0
LAYER
  5
54
330
2
100
AcDbSymbolTableRecord
100
AcDbLayerTableRecord
  2
27
 70
     0
 62
    27
  6
CONTINUOUS
  0
LAYER
  5
55
330
2
100
AcDbSymbolTableRecord
100
AcDbLayerTableRecord
  2
28
 70
     0
 62
    28
  6
CONTINUOUS
  0
LAYER
  5
56
330
2
100
AcDbSymbolTableRecord
100
AcDbLayerTableRecord
  2
29
 70
     0
 62
    29
  6
CONTINUOUS
  0
LAYER
  5
57
330
2
100
AcDbSymbolTableRecord
100
AcDbLayerTableRecord
  2
30
 70
     0
 62
    30
  6
CONTINUOUS
  0
LAYER
  5
58
330
2
100
AcDbSymbolTableRecord
100
AcDbLayerTableRecord
  2
31
 70
     0
 62
    31
  6
CONTINUOUS
  0
LAYER
  5
59
330
2
100
AcDbSymbolTableRecord
100
AcDbLayerTableRecord
  2
32
 70
     0
 62
    32
  6
CONTINUOUS
  0
LAYER
  5
5A
330
2
100
AcDbSymbolTableRecord
100
AcDbLayerTableRecord
  2
33
 70
     0
 62
    33
  6
CONTINUOUS
  0
LAYER
  5
5B
330
2
100
AcDbSymbolTableRecord
100
AcDbLayerTableRecord
  2
34
 70
     0
 62
    34
  6
CONTINUOUS
  0
LAYER
  5
5C
330
2
100
AcDbSymbolTableRecord
100
AcDbLayerTableRecord
  2
35
 70
     0
 62
    35
  6
CONTINUOUS
  0
LAYER
  5
5D
330
2
100
AcDbSymbolTableRecord
100
AcDbLayerTableRecord
  2
36
 70
     0
 62
    36
  6
CONTINUOUS
  0
LAYER
  5
5E
330
2
100
AcDbSymbolTableRecord
100
AcDbLayerTableRecord
  2
37
 70
     0
 62
    37
  6
CONTINUOUS
  0
LAYER
  5
5F
330
2
100
AcDbSymbolTableRecord
100
AcDbLayerTableRecord
  2
38
 70
     0
 62
    38
  6
CONTINUOUS
  0
LAYER
  5
60
330
2
100
AcDbSymbolTableRecord
100
AcDbLayerTableRecord
  2
39
 70
     0
 62
    39
  6
CONTINUOUS
  0
LAYER
  5
61
330
2
100
AcDbSymbolTableRecord
100
AcDbLayerTableRecord
  2
40
 70
     0
 62
    40
  6
CONTINUOUS
  0
LAYER
  5
62
330
2
100
AcDbSymbolTableRecord
100
AcDbLayerTableRecord
  2
41
 70
     0
 62
    41
  6
CONTINUOUS
  0
LAYER
  5
63
330
2
100
AcDbSymbolTableRecord
100
AcDbLayerTableRecord
  2
42
 70
     0
 62
    42
  6
CONTINUOUS
  0
LAYER
  5
64
330
2
100
AcDbSymbolTableRecord
100
AcDbLayerTableRecord
  2
43
 70
     0
 62
    43
  6
CONTINUOUS
  0
LAYER
  5
65
330
2
100
AcDbSymbolTableRecord
100
AcDbLayerTableRecord
  2
44
 70
     0
 62
    44
  6
CONTINUOUS
  0
LAYER
  5
66
330
2
100
AcDbSymbolTableRecord
100
AcDbLayerTableRecord
  2
45
 70
     0
 62
    45
  6
CONTINUOUS
  0
LAYER
  5
67
330
2
100
AcDbSymbolTableRecord
100
AcDbLayerTableRecord
  2
46
 70
     0
 62
    46
  6
CONTINUOUS
  0
LAYER
  5
68
330
2
100
AcDbSymbolTableRecord
100
AcDbLayerTableRecord
  2
47
 70
     0
 62
    47
  6
CONTINUOUS
  0
LAYER
  5
69
330
2
100
AcDbSymbolTableRecord
100
AcDbLayerTableRecord
  2
48
 70
     0
 62
    48
  6
CONTINUOUS
  0
LAYER
  5
6A
330
2
100
AcDbSymbolTableRecord
100
AcDbLayerTableRecord
  2
49
 70
     0
 62
    49
  6
CONTINUOUS
  0
LAYER
  5
6B
330
2
100
AcDbSymbolTableRecord
100
AcDbLayerTableRecord
  2
50
 70
     0
 62
    50
  6
CONTINUOUS
  0
LAYER
  5
6C
330
2
100
AcDbSymbolTableRecord
100
AcDbLayerTableRecord
  2
51
 70
     0
 62
    51
  6
CONTINUOUS
  0
LAYER
  5
6D
330
2
100
AcDbSymbolTableRecord
100
AcDbLayerTableRecord
  2
52
 70
     0
 62
    52
  6
CONTINUOUS
  0
LAYER
  5
6E
330
2
100
AcDbSymbolTableRecord
100
AcDbLayerTableRecord
  2
53
 70
     0
 62
    53
  6
CONTINUOUS
  0
LAYER
  5
6F
330
2
100
AcDbSymbolTableRecord
100
AcDbLayerTableRecord
  2
54
 70
     0
 62
    54
  6
CONTINUOUS
  0
LAYER
  5
70
330
2
100
AcDbSymbolTableRecord
100
AcDbLayerTableRecord
  2
55
 70
     0
 62
    55
  6
CONTINUOUS
  0
LAYER
  5
71
330
2
100
AcDbSymbolTableRecord
100
AcDbLayerTableRecord
  2
56
 70
     0
 62
    56
  6
CONTINUOUS
  0
LAYER
  5
72
330
2
100
AcDbSymbolTableRecord
100
AcDbLayerTableRecord
  2
57
 70
     0
 62
    57
  6
CONTINUOUS
  0
LAYER
  5
73
330
2
100
AcDbSymbolTableRecord
100
AcDbLayerTableRecord
  2
58
 70
     0
 62
    58
  6
CONTINUOUS
  0
LAYER
  5
74
330
2
100
AcDbSymbolTableRecord
100
AcDbLayerTableRecord
  2
59
 70
     0
 62
    59
  6
CONTINUOUS
  0
LAYER
  5
75
330
2
100
AcDbSymbolTableRecord
100
AcDbLayerTableRecord
  2
60
 70
     0
 62
    60
  6
CONTINUOUS
  0
LAYER
  5
76
330
2
100
AcDbSymbolTableRecord
100
AcDbLayerTableRecord
  2
61
 70
     0
 62
    61
  6
CONTINUOUS
  0
LAYER
  5
77
330
2
100
AcDbSymbolTableRecord
100
AcDbLayerTableRecord
  2
62
 70
     0
 62
    62
  6
CONTINUOUS
  0
LAYER
  5
78
330
2
100
AcDbSymbolTableRecord
100
AcDbLayerTableRecord
  2
63
 70
     0
 62
    63
  6
CONTINUOUS
  0
LAYER
  5
79
330
2
100
AcDbSymbolTableRecord
100
AcDbLayerTableRecord
  2
64
 70
     0
 62
    64
  6
CONTINUOUS
  0
LAYER
  5
7A
330
2
100
AcDbSymbolTableRecord
100
AcDbLayerTableRecord
  2
65
 70
     0
 62
    65
  6
CONTINUOUS
  0
LAYER
  5
7B
330
2
100
AcDbSymbolTableRecord
100
AcDbLayerTableRecord
  2
66
 70
     0
 62
    66
  6
CONTINUOUS
  0
LAYER
  5
7C
330
2
100
AcDbSymbolTableRecord
100
AcDbLayerTableRecord
  2
67
 70
     0
 62
    67
  6
CONTINUOUS
  0
LAYER
  5
7D
330
2
100
AcDbSymbolTableRecord
100
AcDbLayerTableRecord
  2
68
 70
     0
 62
    68
  6
CONTINUOUS
  0
LAYER
  5
7E
330
2
100
AcDbSymbolTableRecord
100
AcDbLayerTableRecord
  2
69
 70
     0
 62
    69
  6
CONTINUOUS
  0
LAYER
  5
7F
330
2
100
AcDbSymbolTableRecord
100
AcDbLayerTableRecord
  2
70
 70
     0
 62
    70
  6
CONTINUOUS
  0
LAYER
  5
80
330
2
100
AcDbSymbolTableRecord
100
AcDbLayerTableRecord
  2
71
 70
     0
 62
    71
  6
CONTINUOUS
  0
LAYER
  5
81
330
2
100
AcDbSymbolTableRecord
100
AcDbLayerTableRecord
  2
72
 70
     0
 62
    72
  6
CONTINUOUS
  0
LAYER
  5
82
330
2
100
AcDbSymbolTableRecord
100
AcDbLayerTableRecord
  2
73
 70
     0
 62
    73
  6
CONTINUOUS
  0
LAYER
  5
83
330
2
100
AcDbSymbolTableRecord
100
AcDbLayerTableRecord
  2
74
 70
     0
 62
    74
  6
CONTINUOUS
  0
LAYER
  5
84
330
2
100
AcDbSymbolTableRecord
100
AcDbLayerTableRecord
  2
75
 70
     0
 62
    75
  6
CONTINUOUS
  0
LAYER
  5
85
330
2
100
AcDbSymbolTableRecord
100
AcDbLayerTableRecord
  2
76
 70
     0
 62
    76
  6
CONTINUOUS
  0
LAYER
  5
86
330
2
100
AcDbSymbolTableRecord
100
AcDbLayerTableRecord
  2
77
 70
     0
 62
    77
  6
CONTINUOUS
  0
LAYER
  5
87
330
2
100
AcDbSymbolTableRecord
100
AcDbLayerTableRecord
  2
78
 70
     0
 62
    78
  6
CONTINUOUS
  0
LAYER
  5
88
330
2
100
AcDbSymbolTableRecord
100
AcDbLayerTableRecord
  2
79
 70
     0
 62
    79
  6
CONTINUOUS
  0
LAYER
  5
89
330
2
100
AcDbSymbolTableRecord
100
AcDbLayerTableRecord
  2
80
 70
     0
 62
    80
  6
CONTINUOUS
  0
LAYER
  5
8A
330
2
100
AcDbSymbolTableRecord
100
AcDbLayerTableRecord
  2
81
 70
     0
 62
    81
  6
CONTINUOUS
  0
LAYER
  5
8B
330
2
100
AcDbSymbolTableRecord
100
AcDbLayerTableRecord
  2
82
 70
     0
 62
    82
  6
CONTINUOUS
  0
LAYER
  5
8C
330
2
100
AcDbSymbolTableRecord
100
AcDbLayerTableRecord
  2
83
 70
     0
 62
    83
  6
CONTINUOUS
  0
LAYER
  5
8D
330
2
100
AcDbSymbolTableRecord
100
AcDbLayerTableRecord
  2
84
 70
     0
 62
    84
  6
CONTINUOUS
  0
LAYER
  5
8E
330
2
100
AcDbSymbolTableRecord
100
AcDbLayerTableRecord
  2
85
 70
     0
 62
    85
  6
CONTINUOUS
  0
LAYER
  5
8F
330
2
100
AcDbSymbolTableRecord
100
AcDbLayerTableRecord
  2
86
 70
     0
 62
    86
  6
CONTINUOUS
  0
LAYER
  5
90
330
2
100
AcDbSymbolTableRecord
100
AcDbLayerTableRecord
  2
87
 70
     0
 62
    87
  6
CONTINUOUS
  0
LAYER
  5
91
330
2
100
AcDbSymbolTableRecord
100
AcDbLayerTableRecord
  2
88
 70
     0
 62
    88
  6
CONTINUOUS
  0
LAYER
  5
92
330
2
100
AcDbSymbolTableRecord
100
AcDbLayerTableRecord
  2
89
 70
     0
 62
    89
  6
CONTINUOUS
  0
LAYER
  5
93
330
2
100
AcDbSymbolTableRecord
100
AcDbLayerTableRecord
  2
90
 70
     0
 62
    90
  6
CONTINUOUS
  0
LAYER
  5
94
330
2
100
AcDbSymbolTableRecord
100
AcDbLayerTableRecord
  2
91
 70
     0
 62
    91
  6
CONTINUOUS
  0
LAYER
  5
95
330
2
100
AcDbSymbolTableRecord
100
AcDbLayerTableRecord
  2
92
 70
     0
 62
    92
  6
CONTINUOUS
  0
LAYER
  5
96
330
2
100
AcDbSymbolTableRecord
100
AcDbLayerTableRecord
  2
93
 70
     0
 62
    93
  6
CONTINUOUS
  0
LAYER
  5
97
330
2
100
AcDbSymbolTableRecord
100
AcDbLayerTableRecord
  2
94
 70
     0
 62
    94
  6
CONTINUOUS
  0
LAYER
  5
98
330
2
100
AcDbSymbolTableRecord
100
AcDbLayerTableRecord
  2
95
 70
     0
 62
    95
  6
CONTINUOUS
  0
LAYER
  5
99
330
2
100
AcDbSymbolTableRecord
100
AcDbLayerTableRecord
  2
96
 70
     0
 62
    96
  6
CONTINUOUS
  0
LAYER
  5
9A
330
2
100
AcDbSymbolTableRecord
100
AcDbLayerTableRecord
  2
97
 70
     0
 62
    97
  6
CONTINUOUS
  0
LAYER
  5
9B
330
2
100
AcDbSymbolTableRecord
100
AcDbLayerTableRecord
  2
98
 70
     0
 62
    98
  6
CONTINUOUS
  0
LAYER
  5
9C
330
2
100
AcDbSymbolTableRecord
100
AcDbLayerTableRecord
  2
99
 70
     0
 62
    99
  6
CONTINUOUS
  0
LAYER
  5
9D
330
2
100
AcDbSymbolTableRecord
100
AcDbLayerTableRecord
  2
100
 70
     0
 62
   100
  6
CONTINUOUS
  0
LAYER
  5
9E
330
2
100
AcDbSymbolTableRecord
100
AcDbLayerTableRecord
  2
101
 70
     0
 62
   101
  6
CONTINUOUS
  0
LAYER
  5
9F
330
2
100
AcDbSymbolTableRecord
100
AcDbLayerTableRecord
  2
102
 70
     0
 62
   102
  6
CONTINUOUS
  0
LAYER
  5
A0
330
2
100
AcDbSymbolTableRecord
100
AcDbLayerTableRecord
  2
103
 70
     0
 62
   103
  6
CONTINUOUS
  0
LAYER
  5
A1
330
2
100
AcDbSymbolTableRecord
100
AcDbLayerTableRecord
  2
104
 70
     0
 62
   104
  6
CONTINUOUS
  0
LAYER
  5
A2
330
2
100
AcDbSymbolTableRecord
100
AcDbLayerTableRecord
  2
105
 70
     0
 62
   105
  6
CONTINUOUS
  0
LAYER
  5
A3
330
2
100
AcDbSymbolTableRecord
100
AcDbLayerTableRecord
  2
106
 70
     0
 62
   106
  6
CONTINUOUS
  0
LAYER
  5
A4
330
2
100
AcDbSymbolTableRecord
100
AcDbLayerTableRecord
  2
107
 70
     0
 62
   107
  6
CONTINUOUS
  0
LAYER
  5
A5
330
2
100
AcDbSymbolTableRecord
100
AcDbLayerTableRecord
  2
108
 70
     0
 62
   108
  6
CONTINUOUS
  0
LAYER
  5
A6
330
2
100
AcDbSymbolTableRecord
100
AcDbLayerTableRecord
  2
109
 70
     0
 62
   109
  6
CONTINUOUS
  0
LAYER
  5
A7
330
2
100
AcDbSymbolTableRecord
100
AcDbLayerTableRecord
  2
110
 70
     0
 62
   110
  6
CONTINUOUS
  0
LAYER
  5
A8
330
2
100
AcDbSymbolTableRecord
100
AcDbLayerTableRecord
  2
111
 70
     0
 62
   111
  6
CONTINUOUS
  0
LAYER
  5
A9
330
2
100
AcDbSymbolTableRecord
100
AcDbLayerTableRecord
  2
112
 70
     0
 62
   112
  6
CONTINUOUS
  0
LAYER
  5
AA
330
2
100
AcDbSymbolTableRecord
100
AcDbLayerTableRecord
  2
113
 70
     0
 62
   113
  6
CONTINUOUS
  0
LAYER
  5
AB
330
2
100
AcDbSymbolTableRecord
100
AcDbLayerTableRecord
  2
114
 70
     0
 62
   114
  6
CONTINUOUS
  0
LAYER
  5
AC
330
2
100
AcDbSymbolTableRecord
100
AcDbLayerTableRecord
  2
115
 70
     0
 62
   115
  6
CONTINUOUS
  0
LAYER
  5
AD
330
2
100
AcDbSymbolTableRecord
100
AcDbLayerTableRecord
  2
116
 70
     0
 62
   116
  6
CONTINUOUS
  0
LAYER
  5
AE
330
2
100
AcDbSymbolTableRecord
100
AcDbLayerTableRecord
  2
117
 70
     0
 62
   117
  6
CONTINUOUS
  0
LAYER
  5
AF
330
2
100
AcDbSymbolTableRecord
100
AcDbLayerTableRecord
  2
118
 70
     0
 62
   118
  6
CONTINUOUS
  0
LAYER
  5
B0
330
2
100
AcDbSymbolTableRecord
100
AcDbLayerTableRecord
  2
119
 70
     0
 62
   119
  6
CONTINUOUS
  0
LAYER
  5
B1
330
2
100
AcDbSymbolTableRecord
100
AcDbLayerTableRecord
  2
120
 70
     0
 62
   120
  6
CONTINUOUS
  0
LAYER
  5
B2
330
2
100
AcDbSymbolTableRecord
100
AcDbLayerTableRecord
  2
121
 70
     0
 62
   121
  6
CONTINUOUS
  0
LAYER
  5
B3
330
2
100
AcDbSymbolTableRecord
100
AcDbLayerTableRecord
  2
122
 70
     0
 62
   122
  6
CONTINUOUS
  0
LAYER
  5
B4
330
2
100
AcDbSymbolTableRecord
100
AcDbLayerTableRecord
  2
123
 70
     0
 62
   123
  6
CONTINUOUS
  0
LAYER
  5
B5
330
2
100
AcDbSymbolTableRecord
100
AcDbLayerTableRecord
  2
124
 70
     0
 62
   124
  6
CONTINUOUS
  0
LAYER
  5
B6
330
2
100
AcDbSymbolTableRecord
100
AcDbLayerTableRecord
  2
125
 70
     0
 62
   125
  6
CONTINUOUS
  0
LAYER
  5
B7
330
2
100
AcDbSymbolTableRecord
100
AcDbLayerTableRecord
  2
126
 70
     0
 62
   126
  6
CONTINUOUS
  0
LAYER
  5
B8
330
2
100
AcDbSymbolTableRecord
100
AcDbLayerTableRecord
  2
127
 70
     0
 62
   127
  6
CONTINUOUS
  0
LAYER
  5
B9
330
2
100
AcDbSymbolTableRecord
100
AcDbLayerTableRecord
  2
128
 70
     0
 62
   128
  6
CONTINUOUS
  0
LAYER
  5
BA
330
2
100
AcDbSymbolTableRecord
100
AcDbLayerTableRecord
  2
129
 70
     0
 62
   129
  6
CONTINUOUS
  0
LAYER
  5
BB
330
2
100
AcDbSymbolTableRecord
100
AcDbLayerTableRecord
  2
130
 70
     0
 62
   130
  6
CONTINUOUS
  0
LAYER
  5
BC
330
2
100
AcDbSymbolTableRecord
100
AcDbLayerTableRecord
  2
131
 70
     0
 62
   131
  6
CONTINUOUS
  0
LAYER
  5
BD
330
2
100
AcDbSymbolTableRecord
100
AcDbLayerTableRecord
  2
132
 70
     0
 62
   132
  6
CONTINUOUS
  0
LAYER
  5
BE
330
2
100
AcDbSymbolTableRecord
100
AcDbLayerTableRecord
  2
133
 70
     0
 62
   133
  6
CONTINUOUS
  0
LAYER
  5
BF
330
2
100
AcDbSymbolTableRecord
100
AcDbLayerTableRecord
  2
134
 70
     0
 62
   134
  6
CONTINUOUS
  0
LAYER
  5
C0
330
2
100
AcDbSymbolTableRecord
100
AcDbLayerTableRecord
  2
135
 70
     0
 62
   135
  6
CONTINUOUS
  0
LAYER
  5
C1
330
2
100
AcDbSymbolTableRecord
100
AcDbLayerTableRecord
  2
136
 70
     0
 62
   136
  6
CONTINUOUS
  0
LAYER
  5
C2
330
2
100
AcDbSymbolTableRecord
100
AcDbLayerTableRecord
  2
137
 70
     0
 62
   137
  6
CONTINUOUS
  0
LAYER
  5
C3
330
2
100
AcDbSymbolTableRecord
100
AcDbLayerTableRecord
  2
138
 70
     0
 62
   138
  6
CONTINUOUS
  0
LAYER
  5
C4
330
2
100
AcDbSymbolTableRecord
100
AcDbLayerTableRecord
  2
139
 70
     0
 62
   139
  6
CONTINUOUS
  0
LAYER
  5
C5
330
2
100
AcDbSymbolTableRecord
100
AcDbLayerTableRecord
  2
140
 70
     0
 62
   140
  6
CONTINUOUS
  0
LAYER
  5
C6
330
2
100
AcDbSymbolTableRecord
100
AcDbLayerTableRecord
  2
141
 70
     0
 62
   141
  6
CONTINUOUS
  0
LAYER
  5
C7
330
2
100
AcDbSymbolTableRecord
100
AcDbLayerTableRecord
  2
142
 70
     0
 62
   142
  6
CONTINUOUS
  0
LAYER
  5
C8
330
2
100
AcDbSymbolTableRecord
100
AcDbLayerTableRecord
  2
143
 70
     0
 62
   143
  6
CONTINUOUS
  0
LAYER
  5
C9
330
2
100
AcDbSymbolTableRecord
100
AcDbLayerTableRecord
  2
144
 70
     0
 62
   144
  6
CONTINUOUS
  0
LAYER
  5
CA
330
2
100
AcDbSymbolTableRecord
100
AcDbLayerTableRecord
  2
145
 70
     0
 62
   145
  6
CONTINUOUS
  0
LAYER
  5
CB
330
2
100
AcDbSymbolTableRecord
100
AcDbLayerTableRecord
  2
146
 70
     0
 62
   146
  6
CONTINUOUS
  0
LAYER
  5
CC
330
2
100
AcDbSymbolTableRecord
100
AcDbLayerTableRecord
  2
147
 70
     0
 62
   147
  6
CONTINUOUS
  0
LAYER
  5
CD
330
2
100
AcDbSymbolTableRecord
100
AcDbLayerTableRecord
  2
148
 70
     0
 62
   148
  6
CONTINUOUS
  0
LAYER
  5
CE
330
2
100
AcDbSymbolTableRecord
100
AcDbLayerTableRecord
  2
149
 70
     0
 62
   149
  6
CONTINUOUS
  0
LAYER
  5
CF
330
2
100
AcDbSymbolTableRecord
100
AcDbLayerTableRecord
  2
150
 70
     0
 62
   150
  6
CONTINUOUS
  0
LAYER
  5
D0
330
2
100
AcDbSymbolTableRecord
100
AcDbLayerTableRecord
  2
151
 70
     0
 62
   151
  6
CONTINUOUS
  0
LAYER
  5
D1
330
2
100
AcDbSymbolTableRecord
100
AcDbLayerTableRecord
  2
152
 70
     0
 62
   152
  6
CONTINUOUS
  0
LAYER
  5
D2
330
2
100
AcDbSymbolTableRecord
100
AcDbLayerTableRecord
  2
153
 70
     0
 62
   153
  6
CONTINUOUS
  0
LAYER
  5
D3
330
2
100
AcDbSymbolTableRecord
100
AcDbLayerTableRecord
  2
154
 70
     0
 62
   154
  6
CONTINUOUS
  0
LAYER
  5
D4
330
2
100
AcDbSymbolTableRecord
100
AcDbLayerTableRecord
  2
155
 70
     0
 62
   155
  6
CONTINUOUS
  0
LAYER
  5
D5
330
2
100
AcDbSymbolTableRecord
100
AcDbLayerTableRecord
  2
156
 70
     0
 62
   156
  6
CONTINUOUS
  0
LAYER
  5
D6
330
2
100
AcDbSymbolTableRecord
100
AcDbLayerTableRecord
  2
157
 70
     0
 62
   157
  6
CONTINUOUS
  0
LAYER
  5
D7
330
2
100
AcDbSymbolTableRecord
100
AcDbLayerTableRecord
  2
158
 70
     0
 62
   158
  6
CONTINUOUS
  0
LAYER
  5
D8
330
2
100
AcDbSymbolTableRecord
100
AcDbLayerTableRecord
  2
159
 70
     0
 62
   159
  6
CONTINUOUS
  0
LAYER
  5
D9
330
2
100
AcDbSymbolTableRecord
100
AcDbLayerTableRecord
  2
160
 70
     0
 62
   160
  6
CONTINUOUS
  0
LAYER
  5
DA
330
2
100
AcDbSymbolTableRecord
100
AcDbLayerTableRecord
  2
161
 70
     0
 62
   161
  6
CONTINUOUS
  0
LAYER
  5
DB
330
2
100
AcDbSymbolTableRecord
100
AcDbLayerTableRecord
  2
162
 70
     0
 62
   162
  6
CONTINUOUS
  0
LAYER
  5
DC
330
2
100
AcDbSymbolTableRecord
100
AcDbLayerTableRecord
  2
163
 70
     0
 62
   163
  6
CONTINUOUS
  0
LAYER
  5
DD
330
2
100
AcDbSymbolTableRecord
100
AcDbLayerTableRecord
  2
164
 70
     0
 62
   164
  6
CONTINUOUS
  0
LAYER
  5
DE
330
2
100
AcDbSymbolTableRecord
100
AcDbLayerTableRecord
  2
165
 70
     0
 62
   165
  6
CONTINUOUS
  0
LAYER
  5
DF
330
2
100
AcDbSymbolTableRecord
100
AcDbLayerTableRecord
  2
166
 70
     0
 62
   166
  6
CONTINUOUS
  0
LAYER
  5
E0
330
2
100
AcDbSymbolTableRecord
100
AcDbLayerTableRecord
  2
167
 70
     0
 62
   167
  6
CONTINUOUS
  0
LAYER
  5
E1
330
2
100
AcDbSymbolTableRecord
100
AcDbLayerTableRecord
  2
168
 70
     0
 62
   168
  6
CONTINUOUS
  0
LAYER
  5
E2
330
2
100
AcDbSymbolTableRecord
100
AcDbLayerTableRecord
  2
169
 70
     0
 62
   169
  6
CONTINUOUS
  0
LAYER
  5
E3
330
2
100
AcDbSymbolTableRecord
100
AcDbLayerTableRecord
  2
170
 70
     0
 62
   170
  6
CONTINUOUS
  0
LAYER
  5
E4
330
2
100
AcDbSymbolTableRecord
100
AcDbLayerTableRecord
  2
171
 70
     0
 62
   171
  6
CONTINUOUS
  0
LAYER
  5
E5
330
2
100
AcDbSymbolTableRecord
100
AcDbLayerTableRecord
  2
172
 70
     0
 62
   172
  6
CONTINUOUS
  0
LAYER
  5
E6
330
2
100
AcDbSymbolTableRecord
100
AcDbLayerTableRecord
  2
173
 70
     0
 62
   173
  6
CONTINUOUS
  0
LAYER
  5
E7
330
2
100
AcDbSymbolTableRecord
100
AcDbLayerTableRecord
  2
174
 70
     0
 62
   174
  6
CONTINUOUS
  0
LAYER
  5
E8
330
2
100
AcDbSymbolTableRecord
100
AcDbLayerTableRecord
  2
175
 70
     0
 62
   175
  6
CONTINUOUS
  0
LAYER
  5
E9
330
2
100
AcDbSymbolTableRecord
100
AcDbLayerTableRecord
  2
176
 70
     0
 62
   176
  6
CONTINUOUS
  0
LAYER
  5
EA
330
2
100
AcDbSymbolTableRecord
100
AcDbLayerTableRecord
  2
177
 70
     0
 62
   177
  6
CONTINUOUS
  0
LAYER
  5
EB
330
2
100
AcDbSymbolTableRecord
100
AcDbLayerTableRecord
  2
178
 70
     0
 62
   178
  6
CONTINUOUS
  0
LAYER
  5
EC
330
2
100
AcDbSymbolTableRecord
100
AcDbLayerTableRecord
  2
179
 70
     0
 62
   179
  6
CONTINUOUS
  0
LAYER
  5
ED
330
2
100
AcDbSymbolTableRecord
100
AcDbLayerTableRecord
  2
180
 70
     0
 62
   180
  6
CONTINUOUS
  0
LAYER
  5
EE
330
2
100
AcDbSymbolTableRecord
100
AcDbLayerTableRecord
  2
181
 70
     0
 62
   181
  6
CONTINUOUS
  0
LAYER
  5
EF
330
2
100
AcDbSymbolTableRecord
100
AcDbLayerTableRecord
  2
182
 70
     0
 62
   182
  6
CONTINUOUS
  0
LAYER
  5
F0
330
2
100
AcDbSymbolTableRecord
100
AcDbLayerTableRecord
  2
183
 70
     0
 62
   183
  6
CONTINUOUS
  0
LAYER
  5
F1
330
2
100
AcDbSymbolTableRecord
100
AcDbLayerTableRecord
  2
184
 70
     0
 62
   184
  6
CONTINUOUS
  0
LAYER
  5
F2
330
2
100
AcDbSymbolTableRecord
100
AcDbLayerTableRecord
  2
185
 70
     0
 62
   185
  6
CONTINUOUS
  0
LAYER
  5
F3
330
2
100
AcDbSymbolTableRecord
100
AcDbLayerTableRecord
  2
186
 70
     0
 62
   186
  6
CONTINUOUS
  0
LAYER
  5
F4
330
2
100
AcDbSymbolTableRecord
100
AcDbLayerTableRecord
  2
187
 70
     0
 62
   187
  6
CONTINUOUS
  0
LAYER
  5
F5
330
2
100
AcDbSymbolTableRecord
100
AcDbLayerTableRecord
  2
188
 70
     0
 62
   188
  6
CONTINUOUS
  0
LAYER
  5
F6
330
2
100
AcDbSymbolTableRecord
100
AcDbLayerTableRecord
  2
189
 70
     0
 62
   189
  6
CONTINUOUS
  0
LAYER
  5
F7
330
2
100
AcDbSymbolTableRecord
100
AcDbLayerTableRecord
  2
190
 70
     0
 62
   190
  6
CONTINUOUS
  0
LAYER
  5
F8
330
2
100
AcDbSymbolTableRecord
100
AcDbLayerTableRecord
  2
191
 70
     0
 62
   191
  6
CONTINUOUS
  0
LAYER
  5
F9
330
2
100
AcDbSymbolTableRecord
100
AcDbLayerTableRecord
  2
192
 70
     0
 62
   192
  6
CONTINUOUS
  0
LAYER
  5
FA
330
2
100
AcDbSymbolTableRecord
100
AcDbLayerTableRecord
  2
193
 70
     0
 62
   193
  6
CONTINUOUS
  0
LAYER
  5
FB
330
2
100
AcDbSymbolTableRecord
100
AcDbLayerTableRecord
  2
194
 70
     0
 62
   194
  6
CONTINUOUS
  0
LAYER
  5
FC
330
2
100
AcDbSymbolTableRecord
100
AcDbLayerTableRecord
  2
195
 70
     0
 62
   195
  6
CONTINUOUS
  0
LAYER
  5
FD
330
2
100
AcDbSymbolTableRecord
100
AcDbLayerTableRecord
  2
196
 70
     0
 62
   196
  6
CONTINUOUS
  0
LAYER
  5
FE
330
2
100
AcDbSymbolTableRecord
100
AcDbLayerTableRecord
  2
197
 70
     0
 62
   197
  6
CONTINUOUS
  0
LAYER
  5
FF
330
2
100
AcDbSymbolTableRecord
100
AcDbLayerTableRecord
  2
198
 70
     0
 62
   198
  6
CONTINUOUS
  0
LAYER
  5
100
330
2
100
AcDbSymbolTableRecord
100
AcDbLayerTableRecord
  2
199
 70
     0
 62
   199
  6
CONTINUOUS
  0
LAYER
  5
101
330
2
100
AcDbSymbolTableRecord
100
AcDbLayerTableRecord
  2
200
 70
     0
 62
   200
  6
CONTINUOUS
  0
LAYER
  5
102
330
2
100
AcDbSymbolTableRecord
100
AcDbLayerTableRecord
  2
201
 70
     0
 62
   201
  6
CONTINUOUS
  0
LAYER
  5
103
330
2
100
AcDbSymbolTableRecord
100
AcDbLayerTableRecord
  2
202
 70
     0
 62
   202
  6
CONTINUOUS
  0
LAYER
  5
104
330
2
100
AcDbSymbolTableRecord
100
AcDbLayerTableRecord
  2
203
 70
     0
 62
   203
  6
CONTINUOUS
  0
LAYER
  5
105
330
2
100
AcDbSymbolTableRecord
100
AcDbLayerTableRecord
  2
204
 70
     0
 62
   204
  6
CONTINUOUS
  0
LAYER
  5
106
330
2
100
AcDbSymbolTableRecord
100
AcDbLayerTableRecord
  2
205
 70
     0
 62
   205
  6
CONTINUOUS
  0
LAYER
  5
107
330
2
100
AcDbSymbolTableRecord
100
AcDbLayerTableRecord
  2
206
 70
     0
 62
   206
  6
CONTINUOUS
  0
LAYER
  5
108
330
2
100
AcDbSymbolTableRecord
100
AcDbLayerTableRecord
  2
207
 70
     0
 62
   207
  6
CONTINUOUS
  0
LAYER
  5
109
330
2
100
AcDbSymbolTableRecord
100
AcDbLayerTableRecord
  2
208
 70
     0
 62
   208
  6
CONTINUOUS
  0
LAYER
  5
10A
330
2
100
AcDbSymbolTableRecord
100
AcDbLayerTableRecord
  2
209
 70
     0
 62
   209
  6
CONTINUOUS
  0
LAYER
  5
10B
330
2
100
AcDbSymbolTableRecord
100
AcDbLayerTableRecord
  2
210
 70
     0
 62
   210
  6
CONTINUOUS
  0
LAYER
  5
10C
330
2
100
AcDbSymbolTableRecord
100
AcDbLayerTableRecord
  2
211
 70
     0
 62
   211
  6
CONTINUOUS
  0
LAYER
  5
10D
330
2
100
AcDbSymbolTableRecord
100
AcDbLayerTableRecord
  2
212
 70
     0
 62
   212
  6
CONTINUOUS
  0
LAYER
  5
10E
330
2
100
AcDbSymbolTableRecord
100
AcDbLayerTableRecord
  2
213
 70
     0
 62
   213
  6
CONTINUOUS
  0
LAYER
  5
10F
330
2
100
AcDbSymbolTableRecord
100
AcDbLayerTableRecord
  2
214
 70
     0
 62
   214
  6
CONTINUOUS
  0
LAYER
  5
110
330
2
100
AcDbSymbolTableRecord
100
AcDbLayerTableRecord
  2
215
 70
     0
 62
   215
  6
CONTINUOUS
  0
LAYER
  5
111
330
2
100
AcDbSymbolTableRecord
100
AcDbLayerTableRecord
  2
216
 70
     0
 62
   216
  6
CONTINUOUS
  0
LAYER
  5
112
330
2
100
AcDbSymbolTableRecord
100
AcDbLayerTableRecord
  2
217
 70
     0
 62
   217
  6
CONTINUOUS
  0
LAYER
  5
113
330
2
100
AcDbSymbolTableRecord
100
AcDbLayerTableRecord
  2
218
 70
     0
 62
   218
  6
CONTINUOUS
  0
LAYER
  5
114
330
2
100
AcDbSymbolTableRecord
100
AcDbLayerTableRecord
  2
219
 70
     0
 62
   219
  6
CONTINUOUS
  0
LAYER
  5
115
330
2
100
AcDbSymbolTableRecord
100
AcDbLayerTableRecord
  2
220
 70
     0
 62
   220
  6
CONTINUOUS
  0
LAYER
  5
116
330
2
100
AcDbSymbolTableRecord
100
AcDbLayerTableRecord
  2
221
 70
     0
 62
   221
  6
CONTINUOUS
  0
LAYER
  5
117
330
2
100
AcDbSymbolTableRecord
100
AcDbLayerTableRecord
  2
222
 70
     0
 62
   222
  6
CONTINUOUS
  0
LAYER
  5
118
330
2
100
AcDbSymbolTableRecord
100
AcDbLayerTableRecord
  2
223
 70
     0
 62
   223
  6
CONTINUOUS
  0
LAYER
  5
119
330
2
100
AcDbSymbolTableRecord
100
AcDbLayerTableRecord
  2
224
 70
     0
 62
   224
  6
CONTINUOUS
  0
LAYER
  5
11A
330
2
100
AcDbSymbolTableRecord
100
AcDbLayerTableRecord
  2
225
 70
     0
 62
   225
  6
CONTINUOUS
  0
LAYER
  5
11B
330
2
100
AcDbSymbolTableRecord
100
AcDbLayerTableRecord
  2
226
 70
     0
 62
   226
  6
CONTINUOUS
  0
LAYER
  5
11C
330
2
100
AcDbSymbolTableRecord
100
AcDbLayerTableRecord
  2
227
 70
     0
 62
   227
  6
CONTINUOUS
  0
LAYER
  5
11D
330
2
100
AcDbSymbolTableRecord
100
AcDbLayerTableRecord
  2
228
 70
     0
 62
   228
  6
CONTINUOUS
  0
LAYER
  5
11E
330
2
100
AcDbSymbolTableRecord
100
AcDbLayerTableRecord
  2
229
 70
     0
 62
   229
  6
CONTINUOUS
  0
LAYER
  5
11F
330
2
100
AcDbSymbolTableRecord
100
AcDbLayerTableRecord
  2
230
 70
     0
 62
   230
  6
CONTINUOUS
  0
LAYER
  5
120
330
2
100
AcDbSymbolTableRecord
100
AcDbLayerTableRecord
  2
231
 70
     0
 62
   231
  6
CONTINUOUS
  0
LAYER
  5
121
330
2
100
AcDbSymbolTableRecord
100
AcDbLayerTableRecord
  2
232
 70
     0
 62
   232
  6
CONTINUOUS
  0
LAYER
  5
122
330
2
100
AcDbSymbolTableRecord
100
AcDbLayerTableRecord
  2
233
 70
     0
 62
   233
  6
CONTINUOUS
  0
LAYER
  5
123
330
2
100
AcDbSymbolTableRecord
100
AcDbLayerTableRecord
  2
234
 70
     0
 62
   234
  6
CONTINUOUS
  0
LAYER
  5
124
330
2
100
AcDbSymbolTableRecord
100
AcDbLayerTableRecord
  2
235
 70
     0
 62
   235
  6
CONTINUOUS
  0
LAYER
  5
125
330
2
100
AcDbSymbolTableRecord
100
AcDbLayerTableRecord
  2
236
 70
     0
 62
   236
  6
CONTINUOUS
  0
LAYER
  5
126
330
2
100
AcDbSymbolTableRecord
100
AcDbLayerTableRecord
  2
237
 70
     0
 62
   237
  6
CONTINUOUS
  0
LAYER
  5
127
330
2
100
AcDbSymbolTableRecord
100
AcDbLayerTableRecord
  2
238
 70
     0
 62
   238
  6
CONTINUOUS
  0
LAYER
  5
128
330
2
100
AcDbSymbolTableRecord
100
AcDbLayerTableRecord
  2
239
 70
     0
 62
   239
  6
CONTINUOUS
  0
LAYER
  5
129
330
2
100
AcDbSymbolTableRecord
100
AcDbLayerTableRecord
  2
240
 70
     0
 62
   240
  6
CONTINUOUS
  0
LAYER
  5
12A
330
2
100
AcDbSymbolTableRecord
100
AcDbLayerTableRecord
  2
241
 70
     0
 62
   241
  6
CONTINUOUS
  0
LAYER
  5
12B
330
2
100
AcDbSymbolTableRecord
100
AcDbLayerTableRecord
  2
242
 70
     0
 62
   242
  6
CONTINUOUS
  0
LAYER
  5
12C
330
2
100
AcDbSymbolTableRecord
100
AcDbLayerTableRecord
  2
243
 70
     0
 62
   243
  6
CONTINUOUS
  0
LAYER
  5
12D
330
2
100
AcDbSymbolTableRecord
100
AcDbLayerTableRecord
  2
244
 70
     0
 62
   244
  6
CONTINUOUS
  0
LAYER
  5
12E
330
2
100
AcDbSymbolTableRecord
100
AcDbLayerTableRecord
  2
245
 70
     0
 62
   245
  6
CONTINUOUS
  0
LAYER
  5
12F
330
2
100
AcDbSymbolTableRecord
100
AcDbLayerTableRecord
  2
246
 70
     0
 62
   246
  6
CONTINUOUS
  0
LAYER
  5
130
330
2
100
AcDbSymbolTableRecord
100
AcDbLayerTableRecord
  2
247
 70
     0
 62
   247
  6
CONTINUOUS
  0
LAYER
  5
131
330
2
100
AcDbSymbolTableRecord
100
AcDbLayerTableRecord
  2
248
 70
     0
 62
   248
  6
CONTINUOUS
  0
LAYER
  5
132
330
2
100
AcDbSymbolTableRecord
100
AcDbLayerTableRecord
  2
249
 70
     0
 62
   249
  6
CONTINUOUS
  0
LAYER
  5
133
330
2
100
AcDbSymbolTableRecord
100
AcDbLayerTableRecord
  2
250
 70
     0
 62
   250
  6
CONTINUOUS
  0
LAYER
  5
134
330
2
100
AcDbSymbolTableRecord
100
AcDbLayerTableRecord
  2
251
 70
     0
 62
   251
  6
CONTINUOUS
  0
LAYER
  5
135
330
2
100
AcDbSymbolTableRecord
100
AcDbLayerTableRecord
  2
252
 70
     0
 62
   252
  6
CONTINUOUS
  0
LAYER
  5
136
330
2
100
AcDbSymbolTableRecord
100
AcDbLayerTableRecord
  2
253
 70
     0
 62
   253
  6
CONTINUOUS
  0
LAYER
  5
137
330
2
100
AcDbSymbolTableRecord
100
AcDbLayerTableRecord
  2
254
 70
     0
 62
   254
  6
CONTINUOUS
  0
LAYER
  5
138
330
2
100
AcDbSymbolTableRecord
100
AcDbLayerTableRecord
  2
255
 70
     0
 62
   255
  6
CONTINUOUS
  0
LAYER
  5
32E4
330
2
100
AcDbSymbolTableRecord
100
AcDbLayerTableRecord
  2
DEFPOINTS
 70
     0
 62
     7
  6
CONTINUOUS
  0
ENDTAB
  0
TABLE
  2
STYLE
  5
3
330
0
100
AcDbSymbolTable
 70
     1
  0
STYLE
  5
11
330
3
100
AcDbSymbolTableRecord
100
AcDbTextStyleTableRecord
  2
STANDARD
 70
     0
 40
0.0
 41
1.0
 50
0.0
 71
     0
 42
0.2
  3
monotxt
  4

  0
ENDTAB
  0
TABLE
  2
VIEW
  5
6
330
0
100
AcDbSymbolTable
 70
     0
  0
ENDTAB
  0
TABLE
  2
UCS
  5
7
330
0
100
AcDbSymbolTable
 70
     0
  0
ENDTAB
  0
TABLE
  2
APPID
  5
9
330
0
100
AcDbSymbolTable
 70
     1
  0
APPID
  5
12
330
9
100
AcDbSymbolTableRecord
100
AcDbRegAppTableRecord
  2
ACAD
 70
     0
  0
ENDTAB
  0
TABLE
  2
DIMSTYLE
  5
A
330
0
100
AcDbSymbolTable
 70
     1
  0
DIMSTYLE
105
2261
102
{ACAD_REACTORS
330
32E3
102
}
330
A
100
AcDbSymbolTableRecord
100
AcDbDimStyleTableRecord
  2
STANDARD
 70
     0
  3

  4

  5

  6

  7

 40
1.0
 41
0.18
 42
0.0625
 43
0.38
 44
0.18
 45
0.0
 46
0.0
 47
0.0
 48
0.0
140
0.18
141
0.09
142
0.0
143
25.4
144
1.0
145
0.0
146
1.0
147
0.09
 71
     0
 72
     0
 73
     1
 74
     1
 75
     0
 76
     0
 77
     0
 78
     0
170
     0
171
     2
172
     0
173
     0
174
     0
175
     0
176
     0
177
     0
178
     0
270
     2
271
     4
272
     4
273
     2
274
     2
340
11
275
     0
280
     0
281
     0
282
     0
283
     1
284
     0
285
     0
286
     0
287
     3
288
     0
  0
ENDTAB
  0
TABLE
  2
BLOCK_RECORD
  5
1
330
0
100
AcDbSymbolTable
 70
     1
  0
BLOCK_RECORD
  5
1E
102
{ACAD_XDICTIONARY
360
32AD
102
}
330
1
100
AcDbSymbolTableRecord
100
AcDbBlockTableRecord
  2
*MODEL_SPACE
  0
BLOCK_RECORD
  5
1A
102
{ACAD_XDICTIONARY
360
32AF
102
}
330
1
100
AcDbSymbolTableRecord
100
AcDbBlockTableRecord
  2
*PAPER_SPACE
  0
BLOCK_RECORD
  5
32E5
330
1
100
AcDbSymbolTableRecord
100
AcDbBlockTableRecord
  2
*D0
  0
ENDTAB
  0
ENDSEC
  0
SECTION
  2
BLOCKS
  0
BLOCK
  5
13B
330
1E
100
AcDbEntity
  8
0
100
AcDbBlockBegin
  2
*MODEL_SPACE
 70
     0
 10
0.0
 20
0.0
 30
0.0
  3
*MODEL_SPACE
  1

  0
ENDBLK
  5
13C
330
1E
100
AcDbEntity
  8
0
100
AcDbBlockEnd
  0
BLOCK
  5
139
330
1A
100
AcDbEntity
 67
     1
  8
0
100
AcDbBlockBegin
  2
*PAPER_SPACE
 70
     0
 10
0.0
 20
0.0
 30
0.0
  3
*PAPER_SPACE
  1

  0
ENDBLK
  5
13A
330
1A
100
AcDbEntity
 67
     1
  8
0
100
AcDbBlockEnd
  0
BLOCK
  5
32F0
330
32E5
100
AcDbEntity
  8
0
100
AcDbBlockBegin
  2
*D0
 70
     1
 10
0.0
 20
0.0
 30
0.0
  3
*D0
  1

  0
LINE
  5
32E6
330
32E5
100
AcDbEntity
  8
0
 62
     0
100
AcDbLine
 10
0.951771653543307
 20
5.975885826771653
 30
0.0
 11
0.9517716535433072
 21
7.788626044832982
 31
0.0
  0
LINE
  5
32E7
330
32E5
100
AcDbEntity
  8
0
 62
     0
100
AcDbLine
 10
3.852362204724409
 20
5.975885826771653
 30
0.0
 11
3.852362204724409
 21
7.788626044832982
 31
0.0
  0
LINE
  5
32E8
330
32E5
100
AcDbEntity
  8
0
 62
     0
100
AcDbLine
 10
1.131771653543307
 20
7.608626044832982
 30
0.0
 11
1.802066929133858
 21
7.608626044832982
 31
0.0
  0
LINE
  5
32E9
330
32E5
100
AcDbEntity
  8
0
 62
     0
100
AcDbLine
 10
3.672362204724409
 20
7.608626044832982
 30
0.0
 11
3.002066929133858
 21
7.608626044832982
 31
0.0
  0
SOLID
  5
32EA
330
32E5
100
AcDbEntity
  8
0
 62
     0
100
AcDbTrace
 10
1.131771653543307
 20
7.638626044832983
 30
0.0
 11
1.131771653543307
 21
7.578626044832982
 31
0.0
 12
0.9517716535433072
 22
7.608626044832982
 32
0.0
 13
0.9517716535433072
 23
7.608626044832982
 33
0.0
  0
SOLID
  5
32EB
330
32E5
100
AcDbEntity
  8
0
 62
     0
100
AcDbTrace
 10
3.672362204724409
 20
7.638626044832983
 30
0.0
 11
3.672362204724409
 21
7.578626044832982
 31
0.0
 12
3.852362204724409
 22
7.608626044832982
 32
0.0
 13
3.852362204724409
 23
7.608626044832982
 33
0.0
  0
MTEXT
  5
32EC
330
32E5
100
AcDbEntity
  8
0
 62
     0
100
AcDbMText
 10
2.402066929133858
 20
7.608626044832982
 30
0.0
 40
0.18
 41
0.0
 71
     5
 72
     1
  1
\A1;2.9006
1001
ACAD
1000
MTEXTBEGIN
1070
    73
1070
     1
1070
    44
1040
1.0
1070
    74
1070
     0
1000
MTEXTEND
  0
POINT
  5
32ED
330
32E5
100
AcDbEntity
  8
DEFPOINTS
 62
     0
100
AcDbPoint
 10
0.951771653543307
 20
5.913385826771653
 30
0.0
  0
POINT
  5
32EE
330
32E5
100
AcDbEntity
  8
DEFPOINTS
 62
     0
100
AcDbPoint
 10
3.852362204724409
 20
5.913385826771653
 30
0.0
  0
POINT
  5
32EF
330
32E5
100
AcDbEntity
  8
DEFPOINTS
 62
     0
100
AcDbPoint
 10
3.852362204724409
 20
7.608626044832982
 30
0.0
  0
ENDBLK
  5
32F1
330
32E5
100
AcDbEntity
  8
0
100
AcDbBlockEnd
  0
ENDSEC
  0
SECTION
  2
ENTITIES
  0
LINE
  5
1D8D
330
1E
100
AcDbEntity
  8
7
100
AcDbLine
 10
3.651574803149606
 20
5.913385826771653
 30
0.0
 11
3.651574803149606
 21
5.297244094488188
 31
0.0
  0
LINE
  5
1D8E
330
1E
100
AcDbEntity
  8
7
100
AcDbLine
 10
3.875984251968504
 20
5.948818897637795
 30
0.0
 11
3.850393700787401
 21
5.941929133858267
 31
0.0
  0
LINE
  5
1D8F
330
1E
100
AcDbEntity
  8
7
100
AcDbLine
 10
3.309055118110236
 20
5.883858267716535
 30
0.0
 11
3.309055118110236
 21
5.913385826771653
 31
0.0
  0
LINE
  5
1D90
330
1E
100
AcDbEntity
  8
7
100
AcDbLine
 10
3.341535433070866
 20
5.878937007874015
 30
0.0
 11
3.313976377952756
 21
5.878937007874015
 31
0.0
  0
LINE
  5
1D91
330
1E
100
AcDbEntity
  8
7
100
AcDbLine
 10
3.313976377952756
 20
5.880905511811024
 30
0.0
 11
3.341535433070866
 21
5.880905511811024
 31
0.0
  0
LINE
  5
1D92
330
1E
100
AcDbEntity
  8
7
100
AcDbLine
 10
3.313976377952756
 20
5.913385826771653
 30
0.0
 11
3.313976377952756
 21
5.880905511811024
 31
0.0
  0
LINE
  5
1DA2
330
1E
100
AcDbEntity
  8
7
100
AcDbLine
 10
3.818897637795275
 20
5.797244094488188
 30
0.0
 11
3.846456692913386
 21
5.779527559055118
 31
0.0
  0
LINE
  5
1DA3
330
1E
100
AcDbEntity
  8
7
100
AcDbLine
 10
3.809055118110236
 20
5.913385826771653
 30
0.0
 11
3.818897637795275
 21
5.797244094488188
 31
0.0
  0
LINE
  5
1DA4
330
1E
100
AcDbEntity
  8
7
100
AcDbLine
 10
3.846456692913386
 20
5.759842519685039
 30
0.0
 11
3.651574803149606
 21
5.441929133858267
 31
0.0
  0
LINE
  5
1DA5
330
1E
100
AcDbEntity
  8
7
100
AcDbLine
 10
3.846456692913386
 20
5.779527559055118
 30
0.0
 11
3.846456692913386
 21
5.759842519685039
 31
0.0
  0
LINE
  5
1DA6
330
1E
100
AcDbEntity
  8
7
100
AcDbLine
 10
2.713582677165354
 20
6.659448818897637
 30
0.0
 11
3.06003937007874
 21
6.313976377952755
 31
0.0
  0
LINE
  5
1DA7
330
1E
100
AcDbEntity
  8
7
100
AcDbLine
 10
3.852362204724409
 20
5.913385826771653
 30
0.0
 11
3.847440944881889
 21
5.913385826771653
 31
0.0
  0
LINE
  5
1DB7
330
1E
100
AcDbEntity
  8
7
100
AcDbLine
 10
1.084645669291338
 20
6.313976377952755
 30
0.0
 11
3.719488188976378
 21
6.313976377952755
 31
0.0
  0
LINE
  5
1DCC
330
1E
100
AcDbEntity
  8
7
100
AcDbLine
 10
3.340551181102362
 20
5.913385826771653
 30
0.0
 11
3.34251968503937
 21
5.813976377952755
 31
0.0
  0
LINE
  5
1DD2
330
1E
100
AcDbEntity
  8
7
100
AcDbLine
 10
3.732283464566929
 20
5.913385826771653
 30
0.0
 11
3.719488188976378
 21
6.198818897637795
 31
0.0
  0
LINE
  5
1DDD
330
1E
100
AcDbEntity
  8
7
100
AcDbLine
 10
2.908464566929133
 20
5.649606299212598
 30
0.0
 11
2.919291338582677
 21
5.638779527559055
 31
0.0
  0
LINE
  5
1DE5
330
1E
100
AcDbEntity
  8
7
100
AcDbLine
 10
2.828740157480315
 20
5.634842519685039
 30
0.0
 11
2.825787401574803
 21
5.764763779527559
 31
0.0
  0
LINE
  5
1DE6
330
1E
100
AcDbEntity
  8
7
100
AcDbLine
 10
2.853346456692913
 20
5.797244094488188
 30
0.0
 11
2.825787401574803
 21
5.764763779527559
 31
0.0
  0
LINE
  5
1DE7
330
1E
100
AcDbEntity
  8
7
100
AcDbLine
 10
2.853346456692913
 20
5.797244094488188
 30
0.0
 11
2.860236220472441
 21
5.789370078740157
 31
0.0
  0
LINE
  5
1DE8
330
1E
100
AcDbEntity
  8
7
100
AcDbLine
 10
2.862204724409449
 20
5.786417322834645
 30
0.0
 11
2.860236220472441
 21
5.789370078740157
 31
0.0
  0
LINE
  5
1DF0
330
1E
100
AcDbEntity
  8
7
100
AcDbLine
 10
2.933070866141732
 20
5.63779527559055
 30
0.0
 11
3.228346456692913
 21
5.913385826771653
 31
0.0
  0
LINE
  5
1DF1
330
1E
100
AcDbEntity
  8
7
100
AcDbLine
 10
3.21259842519685
 20
5.913385826771653
 30
0.0
 11
2.87007874015748
 21
5.616141732283464
 31
0.0
  0
LINE
  5
1DF2
330
1E
100
AcDbEntity
  8
7
100
AcDbLine
 10
2.901574803149606
 20
5.738188976377952
 30
0.0
 11
3.086614173228346
 21
5.913385826771653
 31
0.0
  0
LINE
  5
1DF3
330
1E
100
AcDbEntity
  8
7
100
AcDbLine
 10
3.622047244094488
 20
5.265748031496062
 30
0.0
 11
3.579724409448818
 21
5.263779527559055
 31
0.0
  0
LINE
  5
1DF4
330
1E
100
AcDbEntity
  8
7
100
AcDbLine
 10
1.271653543307086
 20
5.813976377952755
 30
0.0
 11
1.239173228346456
 21
5.813976377952755
 31
0.0
  0
LINE
  5
1DF5
330
1E
100
AcDbEntity
  8
7
100
AcDbLine
 10
1.042322834645669
 20
5.831692913385826
 30
0.0
 11
1.042322834645669
 21
5.905511811023622
 31
0.0
  0
LINE
  5
1DF6
330
1E
100
AcDbEntity
  8
7
100
AcDbLine
 10
0.9350393700787401
 20
5.823818897637795
 30
0.0
 11
1.033464566929133
 21
5.823818897637795
 31
0.0
  0
LINE
  5
1DF7
330
1E
100
AcDbEntity
  8
7
100
AcDbLine
 10
0.9271653543307087
 20
5.739173228346456
 30
0.0
 11
0.9271653543307087
 21
5.815944881889763
 31
0.0
  0
LINE
  5
1DF8
330
1E
100
AcDbEntity
  8
7
100
AcDbLine
 10
1.094488188976377
 20
5.723425196850393
 30
0.0
 11
0.9419291338582677
 21
5.723425196850393
 31
0.0
  0
LINE
  5
1DFE
330
1E
100
AcDbEntity
  8
7
100
AcDbLine
 10
1.113188976377952
 20
5.913385826771653
 30
0.0
 11
1.11023622047244
 21
5.738188976377952
 31
0.0
  0
LINE
  5
1E24
330
1E
100
AcDbEntity
  8
7
100
AcDbLine
 10
1.661417322834645
 20
6.313976377952755
 30
0.0
 11
2.650590551181102
 21
6.674212598425197
 31
0.0
  0
LINE
  5
1E25
330
1E
100
AcDbEntity
  8
7
100
AcDbLine
 10
0.951771653543307
 20
5.913385826771653
 30
0.0
 11
0.9645669291338583
 21
6.198818897637795
 31
0.0
  0
LINE
  5
1E2B
330
1E
100
AcDbEntity
  8
7
100
AcDbLine
 10
3.701771653543306
 20
5.913385826771653
 30
0.0
 11
3.701771653543306
 21
5.824803149606299
 31
0.0
  0
LINE
  5
1E31
330
1E
100
AcDbEntity
  8
7
100
AcDbLine
 10
3.700787401574803
 20
5.822834645669291
 30
0.0
 11
3.651574803149606
 21
5.737204724409449
 31
0.0
  0
LINE
  5
1E32
330
1E
100
AcDbEntity
  8
7
100
AcDbLine
 10
3.839566929133858
 20
6.198818897637795
 30
0.0
 11
3.852362204724409
 21
5.913385826771653
 31
0.0
  0
LINE
  5
1E33
330
1E
100
AcDbEntity
  8
7
100
AcDbLine
 10
3.881889763779527
 20
5.968503937007874
 30
0.0
 11
3.881889763779527
 21
5.955708661417323
 31
0.0
  0
LINE
  5
1E3B
330
1E
100
AcDbEntity
  8
7
100
AcDbLine
 10
3.754921259842519
 20
6.307086614173228
 30
0.0
 11
3.719488188976378
 21
6.312992125984251
 31
0.0
  0
LINE
  5
1EA4
330
1E
100
AcDbEntity
  8
7
100
AcDbLine
 10
1.27263779527559
 20
5.908464566929134
 30
0.0
 11
1.27263779527559
 21
5.913385826771653
 31
0.0
  0
LINE
  5
1EAA
330
1E
100
AcDbEntity
  8
7
100
AcDbLine
 10
1.238188976377952
 20
5.908464566929134
 30
0.0
 11
1.238188976377952
 21
5.913385826771653
 31
0.0
  0
LINE
  5
1EB0
330
1E
100
AcDbEntity
  8
7
100
AcDbLine
 10
3.651574803149606
 20
5.913385826771653
 30
0.0
 11
3.622047244094488
 21
5.911417322834645
 31
0.0
  0
LINE
  5
1EBE
330
1E
100
AcDbEntity
  8
7
100
AcDbLine
 10
3.849409448818897
 20
5.977362204724409
 30
0.0
 11
3.874015748031496
 21
5.977362204724409
 31
0.0
  0
LINE
  5
1EDE
330
1E
100
AcDbEntity
  8
7
100
AcDbLine
 10
3.875
 20
5.968503937007874
 30
0.0
 11
3.879921259842519
 21
5.968503937007874
 31
0.0
  0
LINE
  5
1EDF
330
1E
100
AcDbEntity
  8
7
100
AcDbLine
 10
3.879921259842519
 20
5.968503937007874
 30
0.0
 11
3.881889763779527
 21
5.968503937007874
 31
0.0
  0
LINE
  5
1EE0
330
1E
100
AcDbEntity
  8
7
100
AcDbLine
 10
6.199803149606299
 20
5.61023622047244
 30
0.0
 11
6.210629921259842
 21
5.61023622047244
 31
0.0
  0
LINE
  5
1EE1
330
1E
100
AcDbEntity
  8
7
100
AcDbLine
 10
5.393700787401574
 20
5.61023622047244
 30
0.0
 11
5.404527559055118
 21
5.61023622047244
 31
0.0
  0
LINE
  5
1EE2
330
1E
100
AcDbEntity
  8
7
100
AcDbLine
 10
6.437992125984251
 20
6.677165354330708
 30
0.0
 11
5.166338582677165
 21
6.677165354330708
 31
0.0
  0
LINE
  5
1EE3
330
1E
100
AcDbEntity
  8
7
100
AcDbLine
 10
6.032480314960629
 20
6.503937007874015
 30
0.0
 11
6.20767716535433
 21
6.503937007874015
 31
0.0
  0
LINE
  5
1EE4
330
1E
100
AcDbEntity
  8
7
100
AcDbLine
 10
5.39763779527559
 20
6.503937007874015
 30
0.0
 11
5.571850393700787
 21
6.503937007874015
 31
0.0
  0
LINE
  5
1EF2
330
1E
100
AcDbEntity
  8
7
100
AcDbLine
 10
6.459645669291338
 20
6.672244094488188
 30
0.0
 11
6.437992125984251
 21
6.676181102362204
 31
0.0
  0
LINE
  5
1EF3
330
1E
100
AcDbEntity
  8
7
100
AcDbLine
 10
5.581692913385826
 20
5.862204724409449
 30
0.0
 11
6.02263779527559
 21
5.862204724409449
 31
0.0
  0
LINE
  5
1EFC
330
1E
100
AcDbEntity
  8
7
100
AcDbLine
 10
5.406496062992125
 20
5.982283464566929
 30
0.0
 11
5.581692913385826
 21
5.982283464566929
 31
0.0
  0
LINE
  5
1EFD
330
1E
100
AcDbEntity
  8
7
100
AcDbLine
 10
5.406496062992125
 20
5.959645669291338
 30
0.0
 11
5.406496062992125
 21
5.982283464566929
 31
0.0
  0
LINE
  5
1F04
330
1E
100
AcDbEntity
  8
7
100
AcDbLine
 10
5.406496062992125
 20
5.463582677165354
 30
0.0
 11
5.406496062992125
 21
5.441929133858267
 31
0.0
  0
LINE
  5
1F11
330
1E
100
AcDbEntity
  8
7
100
AcDbLine
 10
5.343503937007874
 20
5.913385826771653
 30
0.0
 11
5.343503937007874
 21
5.463582677165354
 31
0.0
  0
LINE
  5
1F12
330
1E
100
AcDbEntity
  8
7
100
AcDbLine
 10
5.307086614173228
 20
5.913385826771653
 30
0.0
 11
5.343503937007874
 21
5.913385826771653
 31
0.0
  0
LINE
  5
1F18
330
1E
100
AcDbEntity
  8
7
100
AcDbLine
 10
5.261811023622047
 20
5.737204724409449
 30
0.0
 11
5.302165354330708
 21
5.737204724409449
 31
0.0
  0
LINE
  5
1F1E
330
1E
100
AcDbEntity
  8
7
100
AcDbLine
 10
5.224409448818898
 20
5.913385826771653
 30
0.0
 11
5.256889763779527
 21
5.913385826771653
 31
0.0
  0
LINE
  5
1F26
330
1E
100
AcDbEntity
  8
7
100
AcDbLine
 10
6.347440944881889
 20
5.913385826771653
 30
0.0
 11
6.380905511811024
 21
5.913385826771653
 31
0.0
  0
LINE
  5
1F2C
330
1E
100
AcDbEntity
  8
7
100
AcDbLine
 10
6.302165354330708
 20
5.737204724409449
 30
0.0
 11
6.34251968503937
 21
5.737204724409449
 31
0.0
  0
LINE
  5
1F32
330
1E
100
AcDbEntity
  8
7
100
AcDbLine
 10
6.260826771653543
 20
5.913385826771653
 30
0.0
 11
6.297244094488188
 21
5.913385826771653
 31
0.0
  0
LINE
  5
1F33
330
1E
100
AcDbEntity
  8
7
100
AcDbLine
 10
6.260826771653543
 20
5.913385826771653
 30
0.0
 11
6.260826771653543
 21
5.463582677165354
 31
0.0
  0
LINE
  5
1F3D
330
1E
100
AcDbEntity
  8
7
100
AcDbLine
 10
6.198818897637795
 20
5.441929133858267
 30
0.0
 11
6.198818897637795
 21
5.463582677165354
 31
0.0
  0
LINE
  5
1F3E
330
1E
100
AcDbEntity
  8
7
100
AcDbLine
 10
6.071850393700787
 20
5.441929133858267
 30
0.0
 11
6.198818897637795
 21
5.441929133858267
 31
0.0
  0
LINE
  5
1F45
330
1E
100
AcDbEntity
  8
7
100
AcDbLine
 10
6.02263779527559
 20
5.982283464566929
 30
0.0
 11
6.198818897637795
 21
5.982283464566929
 31
0.0
  0
LINE
  5
1F4E
330
1E
100
AcDbEntity
  8
7
100
AcDbLine
 10
6.011811023622047
 20
5.915354330708661
 30
0.0
 11
5.999015748031496
 21
5.948818897637795
 31
0.0
  0
LINE
  5
1F55
330
1E
100
AcDbEntity
  8
7
100
AcDbLine
 10
6.017716535433071
 20
5.900590551181102
 30
0.0
 11
5.586614173228346
 21
5.900590551181102
 31
0.0
  0
LINE
  5
1F56
330
1E
100
AcDbEntity
  8
7
100
AcDbLine
 10
6.017716535433071
 20
5.900590551181102
 30
0.0
 11
6.011811023622047
 21
5.915354330708661
 31
0.0
  0
LINE
  5
1F57
330
1E
100
AcDbEntity
  8
7
100
AcDbLine
 10
5.586614173228346
 20
5.900590551181102
 30
0.0
 11
5.581692913385826
 21
5.862204724409449
 31
0.0
  0
LINE
  5
1F58
330
1E
100
AcDbEntity
  8
7
100
AcDbLine
 10
6.02263779527559
 20
5.862204724409449
 30
0.0
 11
6.017716535433071
 21
5.900590551181102
 31
0.0
  0
LINE
  5
1F59
330
1E
100
AcDbEntity
  8
7
100
AcDbLine
 10
5.409448818897637
 20
5.797244094488188
 30
0.0
 11
5.409448818897637
 21
5.779527559055118
 31
0.0
  0
LINE
  5
1F5A
330
1E
100
AcDbEntity
  8
7
100
AcDbLine
 10
5.408464566929134
 20
5.913385826771653
 30
0.0
 11
5.409448818897637
 21
5.797244094488188
 31
0.0
  0
LINE
  5
1F62
330
1E
100
AcDbEntity
  8
7
100
AcDbLine
 10
5.404527559055118
 20
5.984251968503937
 30
0.0
 11
5.406496062992125
 21
5.982283464566929
 31
0.0
  0
LINE
  5
1F63
330
1E
100
AcDbEntity
  8
7
100
AcDbLine
 10
5.404527559055118
 20
5.984251968503937
 30
0.0
 11
5.404527559055118
 21
5.463582677165354
 31
0.0
  0
LINE
  5
1F64
330
1E
100
AcDbEntity
  8
7
100
AcDbLine
 10
5.404527559055118
 20
5.463582677165354
 30
0.0
 11
5.406496062992125
 21
5.463582677165354
 31
0.0
  0
LINE
  5
1F65
330
1E
100
AcDbEntity
  8
7
100
AcDbLine
 10
5.409448818897637
 20
5.759842519685039
 30
0.0
 11
5.406496062992125
 21
5.441929133858267
 31
0.0
  0
LINE
  5
1F66
330
1E
100
AcDbEntity
  8
7
100
AcDbLine
 10
5.409448818897637
 20
5.779527559055118
 30
0.0
 11
5.409448818897637
 21
5.759842519685039
 31
0.0
  0
LINE
  5
1F67
330
1E
100
AcDbEntity
  8
7
100
AcDbLine
 10
5.492125984251968
 20
5.502952755905512
 30
0.0
 11
5.481299212598425
 21
5.759842519685039
 31
0.0
  0
LINE
  5
1F68
330
1E
100
AcDbEntity
  8
7
100
AcDbLine
 10
5.492125984251968
 20
5.502952755905512
 30
0.0
 11
5.492125984251968
 21
5.920275590551181
 31
0.0
  0
LINE
  5
1F69
330
1E
100
AcDbEntity
  8
7
100
AcDbLine
 10
5.484251968503937
 20
5.913385826771653
 30
0.0
 11
5.492125984251968
 21
5.920275590551181
 31
0.0
  0
LINE
  5
1F6A
330
1E
100
AcDbEntity
  8
7
100
AcDbLine
 10
5.483267716535433
 20
5.797244094488188
 30
0.0
 11
5.484251968503937
 21
5.913385826771653
 31
0.0
  0
LINE
  5
1F6B
330
1E
100
AcDbEntity
  8
7
100
AcDbLine
 10
5.481299212598425
 20
5.779527559055118
 30
0.0
 11
5.483267716535433
 21
5.797244094488188
 31
0.0
  0
LINE
  5
1F71
330
1E
100
AcDbEntity
  8
7
100
AcDbLine
 10
5.481299212598425
 20
5.759842519685039
 30
0.0
 11
5.409448818897637
 21
5.759842519685039
 31
0.0
  0
LINE
  5
1F7C
330
1E
100
AcDbEntity
  8
7
100
AcDbLine
 10
6.198818897637795
 20
5.463582677165354
 30
0.0
 11
6.199803149606299
 21
5.463582677165354
 31
0.0
  0
LINE
  5
1F7D
330
1E
100
AcDbEntity
  8
7
100
AcDbLine
 10
6.199803149606299
 20
5.984251968503937
 30
0.0
 11
6.199803149606299
 21
5.463582677165354
 31
0.0
  0
LINE
  5
1F7E
330
1E
100
AcDbEntity
  8
7
100
AcDbLine
 10
6.199803149606299
 20
5.984251968503937
 30
0.0
 11
6.198818897637795
 21
5.982283464566929
 31
0.0
  0
LINE
  5
1F8F
330
1E
100
AcDbEntity
  8
7
100
AcDbLine
 10
6.123031496062992
 20
5.779527559055118
 30
0.0
 11
6.194881889763779
 21
5.779527559055118
 31
0.0
  0
LINE
  5
1F90
330
1E
100
AcDbEntity
  8
7
100
AcDbLine
 10
6.123031496062992
 20
5.759842519685039
 30
0.0
 11
6.194881889763779
 21
5.759842519685039
 31
0.0
  0
LINE
  5
1F91
330
1E
100
AcDbEntity
  8
7
100
AcDbLine
 10
5.172244094488188
 20
6.608267716535433
 30
0.0
 11
5.172244094488188
 21
6.229330708661417
 31
0.0
  0
LINE
  5
1F92
330
1E
100
AcDbEntity
  8
7
100
AcDbLine
 10
5.381889763779527
 20
6.608267716535433
 30
0.0
 11
5.172244094488188
 21
6.608267716535433
 31
0.0
  0
LINE
  5
1F93
330
1E
100
AcDbEntity
  8
7
100
AcDbLine
 10
5.380905511811024
 20
6.646653543307087
 30
0.0
 11
5.381889763779527
 21
6.608267716535433
 31
0.0
  0
LINE
  5
1F94
330
1E
100
AcDbEntity
  8
7
100
AcDbLine
 10
5.588582677165354
 20
6.646653543307087
 30
0.0
 11
5.380905511811024
 21
6.646653543307087
 31
0.0
  0
LINE
  5
1F95
330
1E
100
AcDbEntity
  8
7
100
AcDbLine
 10
5.58759842519685
 20
6.608267716535433
 30
0.0
 11
5.588582677165354
 21
6.646653543307087
 31
0.0
  0
LINE
  5
1F96
330
1E
100
AcDbEntity
  8
7
100
AcDbLine
 10
6.016732283464566
 20
6.608267716535433
 30
0.0
 11
5.58759842519685
 21
6.608267716535433
 31
0.0
  0
LINE
  5
1F97
330
1E
100
AcDbEntity
  8
7
100
AcDbLine
 10
6.015748031496062
 20
6.646653543307087
 30
0.0
 11
6.016732283464566
 21
6.608267716535433
 31
0.0
  0
LINE
  5
1F98
330
1E
100
AcDbEntity
  8
7
100
AcDbLine
 10
6.223425196850393
 20
6.646653543307087
 30
0.0
 11
6.015748031496062
 21
6.646653543307087
 31
0.0
  0
LINE
  5
1F99
330
1E
100
AcDbEntity
  8
7
100
AcDbLine
 10
6.222440944881889
 20
6.608267716535433
 30
0.0
 11
6.223425196850393
 21
6.646653543307087
 31
0.0
  0
LINE
  5
1F9A
330
1E
100
AcDbEntity
  8
7
100
AcDbLine
 10
6.432086614173228
 20
6.608267716535433
 30
0.0
 11
6.222440944881889
 21
6.608267716535433
 31
0.0
  0
LINE
  5
1F9B
330
1E
100
AcDbEntity
  8
7
100
AcDbLine
 10
6.432086614173228
 20
6.229330708661417
 30
0.0
 11
6.432086614173228
 21
6.608267716535433
 31
0.0
  0
LINE
  5
1FA1
330
1E
100
AcDbEntity
  8
7
100
AcDbLine
 10
6.452755905511811
 20
6.313976377952755
 30
0.0
 11
6.437992125984251
 21
6.659448818897637
 31
0.0
  0
LINE
  5
1FA2
330
1E
100
AcDbEntity
  8
7
100
AcDbLine
 10
5.144685039370078
 20
5.913385826771653
 30
0.0
 11
5.15255905511811
 21
5.913385826771653
 31
0.0
  0
LINE
  5
1FA3
330
1E
100
AcDbEntity
  8
7
100
AcDbLine
 10
5.069881889763779
 20
5.913385826771653
 30
0.0
 11
5.144685039370078
 21
5.913385826771653
 31
0.0
  0
LINE
  5
1FB6
330
1E
100
AcDbEntity
  8
7
100
AcDbLine
 10
6.459645669291338
 20
5.913385826771653
 30
0.0
 11
6.534448818897637
 21
5.913385826771653
 31
0.0
  0
LINE
  5
1FB7
330
1E
100
AcDbEntity
  8
7
100
AcDbLine
 10
6.459645669291338
 20
5.913385826771653
 30
0.0
 11
6.451771653543307
 21
5.913385826771653
 31
0.0
  0
LINE
  5
1FB8
330
1E
100
AcDbEntity
  8
7
100
AcDbLine
 10
5.081692913385826
 20
6.313976377952755
 30
0.0
 11
5.163385826771653
 21
6.313976377952755
 31
0.0
  0
LINE
  5
1FB9
330
1E
100
AcDbEntity
  8
7
100
AcDbLine
 10
6.440944881889763
 20
6.313976377952755
 30
0.0
 11
6.52263779527559
 21
6.313976377952755
 31
0.0
  0
LINE
  5
1FBF
330
1E
100
AcDbEntity
  8
7
100
AcDbLine
 10
6.416338582677165
 20
6.037401574803149
 30
0.0
 11
6.404527559055118
 21
5.362204724409449
 31
0.0
  0
LINE
  5
1FC5
330
1E
100
AcDbEntity
  8
7
100
AcDbLine
 10
6.260826771653543
 20
6.057086614173228
 30
0.0
 11
6.260826771653543
 21
5.913385826771653
 31
0.0
  0
LINE
  5
1FC6
330
1E
100
AcDbEntity
  8
7
100
AcDbLine
 10
6.259842519685039
 20
6.037401574803149
 30
0.0
 11
6.260826771653543
 21
6.057086614173228
 31
0.0
  0
LINE
  5
1FC7
330
1E
100
AcDbEntity
  8
7
100
AcDbLine
 10
6.259842519685039
 20
5.463582677165354
 30
0.0
 11
6.259842519685039
 21
6.037401574803149
 31
0.0
  0
LINE
  5
1FC8
330
1E
100
AcDbEntity
  8
7
100
AcDbLine
 10
6.259842519685039
 20
5.463582677165354
 30
0.0
 11
6.260826771653543
 21
5.463582677165354
 31
0.0
  0
LINE
  5
1FC9
330
1E
100
AcDbEntity
  8
7
100
AcDbLine
 10
5.299212598425197
 20
5.263779527559055
 30
0.0
 11
6.30511811023622
 21
5.263779527559055
 31
0.0
  0
LINE
  5
1FD2
330
1E
100
AcDbEntity
  8
7
100
AcDbLine
 10
5.187992125984251
 20
6.037401574803149
 30
0.0
 11
5.199803149606299
 21
5.362204724409449
 31
0.0
  0
LINE
  5
1FD3
330
1E
100
AcDbEntity
  8
7
100
AcDbLine
 10
5.344488188976377
 20
5.463582677165354
 30
0.0
 11
5.344488188976377
 21
6.037401574803149
 31
0.0
  0
LINE
  5
1FDD
330
1E
100
AcDbEntity
  8
7
100
AcDbLine
 10
5.404527559055118
 20
5.984251968503937
 30
0.0
 11
6.199803149606299
 21
5.984251968503937
 31
0.0
  0
LINE
  5
1FEE
330
1E
100
AcDbEntity
  8
7
100
AcDbLine
 10
6.335629921259842
 20
5.268700787401574
 30
0.0
 11
6.30511811023622
 21
5.263779527559055
 31
0.0
  0
LINE
  5
1FEF
330
1E
100
AcDbEntity
  8
7
100
AcDbLine
 10
5.343503937007874
 20
6.057086614173228
 30
0.0
 11
5.344488188976377
 21
6.037401574803149
 31
0.0
  0
LINE
  5
1FF0
330
1E
100
AcDbEntity
  8
7
100
AcDbLine
 10
5.343503937007874
 20
6.057086614173228
 30
0.0
 11
5.343503937007874
 21
5.913385826771653
 31
0.0
  0
LINE
  5
1FF1
330
1E
100
AcDbEntity
  8
7
100
AcDbLine
 10
5.343503937007874
 20
5.463582677165354
 30
0.0
 11
5.344488188976377
 21
5.463582677165354
 31
0.0
  0
LINE
  5
1FF8
330
1E
100
AcDbEntity
  8
7
100
AcDbLine
 10
5.188976377952755
 20
6.046259842519685
 30
0.0
 11
5.187992125984251
 21
6.037401574803149
 31
0.0
  0
LINE
  5
1FF9
330
1E
100
AcDbEntity
  8
7
100
AcDbLine
 10
6.259842519685039
 20
5.979330708661417
 30
0.0
 11
6.199803149606299
 21
5.979330708661417
 31
0.0
  0
LINE
  5
1FFA
330
1E
100
AcDbEntity
  8
7
100
AcDbLine
 10
5.404527559055118
 20
5.979330708661417
 30
0.0
 11
5.344488188976377
 21
5.979330708661417
 31
0.0
  0
LINE
  5
200B
330
1E
100
AcDbEntity
  8
7
100
AcDbLine
 10
5.188976377952755
 20
5.979330708661417
 30
0.0
 11
5.153543307086613
 21
5.979330708661417
 31
0.0
  0
LINE
  5
2011
330
1E
100
AcDbEntity
  8
7
100
AcDbLine
 10
6.642716535433071
 20
6.198818897637795
 30
0.0
 11
6.654527559055118
 21
5.913385826771653
 31
0.0
  0
LINE
  5
2012
330
1E
100
AcDbEntity
  8
7
100
AcDbLine
 10
6.450787401574802
 20
5.979330708661417
 30
0.0
 11
6.415354330708661
 21
5.979330708661417
 31
0.0
  0
LINE
  5
2013
330
1E
100
AcDbEntity
  8
7
100
AcDbLine
 10
4.949803149606299
 20
5.913385826771653
 30
0.0
 11
4.96259842519685
 21
6.198818897637795
 31
0.0
  0
LINE
  5
2014
330
1E
100
AcDbEntity
  8
7
100
AcDbLine
 10
5.136811023622047
 20
5.813976377952755
 30
0.0
 11
5.136811023622047
 21
5.913385826771653
 31
0.0
  0
LINE
  5
2015
330
1E
100
AcDbEntity
  8
7
100
AcDbLine
 10
5.191929133858267
 20
5.813976377952755
 30
0.0
 11
5.136811023622047
 21
5.813976377952755
 31
0.0
  0
LINE
  5
2016
330
1E
100
AcDbEntity
  8
7
100
AcDbLine
 10
5.392716535433071
 20
5.616141732283464
 30
0.0
 11
5.404527559055118
 21
5.616141732283464
 31
0.0
  0
LINE
  5
2017
330
1E
100
AcDbEntity
  8
7
100
AcDbLine
 10
5.393700787401574
 20
5.61023622047244
 30
0.0
 11
5.392716535433071
 21
5.616141732283464
 31
0.0
  0
LINE
  5
2018
330
1E
100
AcDbEntity
  8
7
100
AcDbLine
 10
6.210629921259842
 20
5.61023622047244
 30
0.0
 11
6.211614173228346
 21
5.616141732283464
 31
0.0
  0
LINE
  5
2019
330
1E
100
AcDbEntity
  8
7
100
AcDbLine
 10
6.199803149606299
 20
5.616141732283464
 30
0.0
 11
6.211614173228346
 21
5.616141732283464
 31
0.0
  0
LINE
  5
201A
330
1E
100
AcDbEntity
  8
7
100
AcDbLine
 10
6.199803149606299
 20
5.829724409448818
 30
0.0
 11
6.201771653543307
 21
5.979330708661417
 31
0.0
  0
LINE
  5
201B
330
1E
100
AcDbEntity
  8
7
100
AcDbLine
 10
5.404527559055118
 20
5.829724409448818
 30
0.0
 11
5.40255905511811
 21
5.979330708661417
 31
0.0
  0
LINE
  5
201C
330
1E
100
AcDbEntity
  8
7
100
AcDbLine
 10
5.364173228346456
 20
5.979330708661417
 30
0.0
 11
5.392716535433071
 21
5.616141732283464
 31
0.0
  0
LINE
  5
201D
330
1E
100
AcDbEntity
  8
7
100
AcDbLine
 10
6.241141732283464
 20
5.979330708661417
 30
0.0
 11
6.211614173228346
 21
5.616141732283464
 31
0.0
  0
LINE
  5
2023
330
1E
100
AcDbEntity
  8
7
100
AcDbLine
 10
6.30511811023622
 20
5.263779527559055
 30
0.0
 11
6.303149606299212
 21
5.265748031496062
 31
0.0
  0
LINE
  5
2024
330
1E
100
AcDbEntity
  8
7
100
AcDbLine
 10
6.032480314960629
 20
6.506889763779527
 30
0.0
 11
6.20767716535433
 21
6.506889763779527
 31
0.0
  0
LINE
  5
2025
330
1E
100
AcDbEntity
  8
7
100
AcDbLine
 10
6.20767716535433
 20
6.545275590551181
 30
0.0
 11
6.20767716535433
 21
6.506889763779527
 31
0.0
  0
LINE
  5
2026
330
1E
100
AcDbEntity
  8
7
100
AcDbLine
 10
6.032480314960629
 20
6.545275590551181
 30
0.0
 11
6.20767716535433
 21
6.545275590551181
 31
0.0
  0
LINE
  5
2027
330
1E
100
AcDbEntity
  8
7
100
AcDbLine
 10
6.032480314960629
 20
6.545275590551181
 30
0.0
 11
6.032480314960629
 21
6.506889763779527
 31
0.0
  0
LINE
  5
202D
330
1E
100
AcDbEntity
  8
7
100
AcDbLine
 10
6.032480314960629
 20
6.506889763779527
 30
0.0
 11
6.032480314960629
 21
6.504921259842519
 31
0.0
  0
LINE
  5
202E
330
1E
100
AcDbEntity
  8
7
100
AcDbLine
 10
6.032480314960629
 20
6.504921259842519
 30
0.0
 11
6.032480314960629
 21
6.503937007874015
 31
0.0
  0
LINE
  5
202F
330
1E
100
AcDbEntity
  8
7
100
AcDbLine
 10
5.39763779527559
 20
6.506889763779527
 30
0.0
 11
5.571850393700787
 21
6.506889763779527
 31
0.0
  0
LINE
  5
2030
330
1E
100
AcDbEntity
  8
7
100
AcDbLine
 10
5.571850393700787
 20
6.545275590551181
 30
0.0
 11
5.571850393700787
 21
6.506889763779527
 31
0.0
  0
LINE
  5
2031
330
1E
100
AcDbEntity
  8
7
100
AcDbLine
 10
5.39763779527559
 20
6.545275590551181
 30
0.0
 11
5.571850393700787
 21
6.545275590551181
 31
0.0
  0
LINE
  5
2032
330
1E
100
AcDbEntity
  8
7
100
AcDbLine
 10
5.39763779527559
 20
6.545275590551181
 30
0.0
 11
5.39763779527559
 21
6.506889763779527
 31
0.0
  0
LINE
  5
203D
330
1E
100
AcDbEntity
  8
7
100
AcDbLine
 10
6.20767716535433
 20
6.571850393700787
 30
0.0
 11
6.20767716535433
 21
6.545275590551181
 31
0.0
  0
LINE
  5
203E
330
1E
100
AcDbEntity
  8
7
100
AcDbLine
 10
6.032480314960629
 20
6.571850393700787
 30
0.0
 11
6.20767716535433
 21
6.571850393700787
 31
0.0
  0
LINE
  5
203F
330
1E
100
AcDbEntity
  8
7
100
AcDbLine
 10
6.032480314960629
 20
6.571850393700787
 30
0.0
 11
6.032480314960629
 21
6.545275590551181
 31
0.0
  0
LINE
  5
2040
330
1E
100
AcDbEntity
  8
7
100
AcDbLine
 10
5.571850393700787
 20
6.571850393700787
 30
0.0
 11
5.571850393700787
 21
6.545275590551181
 31
0.0
  0
LINE
  5
2041
330
1E
100
AcDbEntity
  8
7
100
AcDbLine
 10
5.39763779527559
 20
6.571850393700787
 30
0.0
 11
5.571850393700787
 21
6.571850393700787
 31
0.0
  0
LINE
  5
2042
330
1E
100
AcDbEntity
  8
7
100
AcDbLine
 10
5.39763779527559
 20
6.571850393700787
 30
0.0
 11
5.39763779527559
 21
6.545275590551181
 31
0.0
  0
LINE
  5
2043
330
1E
100
AcDbEntity
  8
7
100
AcDbLine
 10
5.374015748031496
 20
6.517716535433071
 30
0.0
 11
5.375
 21
6.517716535433071
 31
0.0
  0
LINE
  5
2044
330
1E
100
AcDbEntity
  8
7
100
AcDbLine
 10
5.375
 20
6.543307086614173
 30
0.0
 11
5.375
 21
6.517716535433071
 31
0.0
  0
LINE
  5
2045
330
1E
100
AcDbEntity
  8
7
100
AcDbLine
 10
5.374015748031496
 20
6.543307086614173
 30
0.0
 11
5.374015748031496
 21
6.517716535433071
 31
0.0
  0
LINE
  5
2046
330
1E
100
AcDbEntity
  8
7
100
AcDbLine
 10
5.594488188976377
 20
6.517716535433071
 30
0.0
 11
5.595472440944882
 21
6.517716535433071
 31
0.0
  0
LINE
  5
2047
330
1E
100
AcDbEntity
  8
7
100
AcDbLine
 10
5.595472440944882
 20
6.517716535433071
 30
0.0
 11
5.595472440944882
 21
6.543307086614173
 31
0.0
  0
LINE
  5
2048
330
1E
100
AcDbEntity
  8
7
100
AcDbLine
 10
5.594488188976377
 20
6.543307086614173
 30
0.0
 11
5.594488188976377
 21
6.517716535433071
 31
0.0
  0
LINE
  5
2049
330
1E
100
AcDbEntity
  8
7
100
AcDbLine
 10
5.594488188976377
 20
6.543307086614173
 30
0.0
 11
6.009842519685039
 21
6.543307086614173
 31
0.0
  0
LINE
  5
204A
330
1E
100
AcDbEntity
  8
7
100
AcDbLine
 10
6.010826771653543
 20
6.517716535433071
 30
0.0
 11
6.008858267716535
 21
6.517716535433071
 31
0.0
  0
LINE
  5
204B
330
1E
100
AcDbEntity
  8
7
100
AcDbLine
 10
6.009842519685039
 20
6.543307086614173
 30
0.0
 11
6.010826771653543
 21
6.517716535433071
 31
0.0
  0
LINE
  5
204C
330
1E
100
AcDbEntity
  8
7
100
AcDbLine
 10
6.008858267716535
 20
6.517716535433071
 30
0.0
 11
6.008858267716535
 21
6.543307086614173
 31
0.0
  0
LINE
  5
204D
330
1E
100
AcDbEntity
  8
7
100
AcDbLine
 10
5.172244094488188
 20
6.543307086614173
 30
0.0
 11
5.375
 21
6.543307086614173
 31
0.0
  0
LINE
  5
204E
330
1E
100
AcDbEntity
  8
7
100
AcDbLine
 10
5.344488188976377
 20
5.723425196850393
 30
0.0
 11
5.383858267716535
 21
5.723425196850393
 31
0.0
  0
LINE
  5
204F
330
1E
100
AcDbEntity
  8
7
100
AcDbLine
 10
5.382874015748031
 20
5.738188976377952
 30
0.0
 11
5.344488188976377
 21
5.738188976377952
 31
0.0
  0
LINE
  5
2050
330
1E
100
AcDbEntity
  8
7
100
AcDbLine
 10
6.220472440944881
 20
5.723425196850393
 30
0.0
 11
6.259842519685039
 21
5.723425196850393
 31
0.0
  0
LINE
  5
2051
330
1E
100
AcDbEntity
  8
7
100
AcDbLine
 10
6.259842519685039
 20
5.738188976377952
 30
0.0
 11
6.221456692913386
 21
5.738188976377952
 31
0.0
  0
LINE
  5
2052
330
1E
100
AcDbEntity
  8
7
100
AcDbLine
 10
6.229330708661417
 20
6.543307086614173
 30
0.0
 11
6.229330708661417
 21
6.517716535433071
 31
0.0
  0
LINE
  5
2053
330
1E
100
AcDbEntity
  8
7
100
AcDbLine
 10
6.230314960629921
 20
6.517716535433071
 30
0.0
 11
6.229330708661417
 21
6.517716535433071
 31
0.0
  0
LINE
  5
2054
330
1E
100
AcDbEntity
  8
7
100
AcDbLine
 10
6.230314960629921
 20
6.543307086614173
 30
0.0
 11
6.230314960629921
 21
6.517716535433071
 31
0.0
  0
LINE
  5
205A
330
1E
100
AcDbEntity
  8
7
100
AcDbLine
 10
6.20767716535433
 20
6.517716535433071
 30
0.0
 11
6.229330708661417
 21
6.517716535433071
 31
0.0
  0
LINE
  5
205B
330
1E
100
AcDbEntity
  8
7
100
AcDbLine
 10
6.229330708661417
 20
6.543307086614173
 30
0.0
 11
6.432086614173228
 21
6.543307086614173
 31
0.0
  0
LINE
  5
2066
330
1E
100
AcDbEntity
  8
7
100
AcDbLine
 10
5.594488188976377
 20
6.517716535433071
 30
0.0
 11
5.571850393700787
 21
6.517716535433071
 31
0.0
  0
LINE
  5
2067
330
1E
100
AcDbEntity
  8
7
100
AcDbLine
 10
6.010826771653543
 20
6.517716535433071
 30
0.0
 11
6.032480314960629
 21
6.517716535433071
 31
0.0
  0
LINE
  5
206D
330
1E
100
AcDbEntity
  8
7
100
AcDbLine
 10
5.39763779527559
 20
6.517716535433071
 30
0.0
 11
5.375
 21
6.517716535433071
 31
0.0
  0
LINE
  5
206E
330
1E
100
AcDbEntity
  8
7
100
AcDbLine
 10
5.172244094488188
 20
6.517716535433071
 30
0.0
 11
5.374015748031496
 21
6.517716535433071
 31
0.0
  0
LINE
  5
206F
330
1E
100
AcDbEntity
  8
7
100
AcDbLine
 10
5.595472440944882
 20
6.517716535433071
 30
0.0
 11
6.008858267716535
 21
6.517716535433071
 31
0.0
  0
LINE
  5
2070
330
1E
100
AcDbEntity
  8
7
100
AcDbLine
 10
6.432086614173228
 20
6.517716535433071
 30
0.0
 11
6.230314960629921
 21
6.517716535433071
 31
0.0
  0
LINE
  5
2071
330
1E
100
AcDbEntity
  8
7
100
AcDbLine
 10
5.172244094488188
 20
6.477362204724409
 30
0.0
 11
6.432086614173228
 21
6.477362204724409
 31
0.0
  0
LINE
  5
2072
330
1E
100
AcDbEntity
  8
7
100
AcDbLine
 10
5.172244094488188
 20
6.464566929133858
 30
0.0
 11
6.432086614173228
 21
6.464566929133858
 31
0.0
  0
LINE
  5
2073
330
1E
100
AcDbEntity
  8
7
100
AcDbLine
 10
6.498031496062992
 20
6.62007874015748
 30
0.0
 11
6.510826771653543
 21
6.313976377952755
 31
0.0
  0
LINE
  5
2074
330
1E
100
AcDbEntity
  8
7
100
AcDbLine
 10
5.093503937007874
 20
6.313976377952755
 30
0.0
 11
5.106299212598425
 21
6.62007874015748
 31
0.0
  0
LINE
  5
2082
330
1E
100
AcDbEntity
  8
7
100
AcDbLine
 10
6.34251968503937
 20
5.955708661417323
 30
0.0
 11
6.34251968503937
 21
5.989173228346456
 31
0.0
  0
LINE
  5
2091
330
1E
100
AcDbEntity
  8
7
100
AcDbLine
 10
6.459645669291338
 20
5.913385826771653
 30
0.0
 11
6.455708661417323
 21
6.132874015748031
 31
0.0
  0
LINE
  5
2092
330
1E
100
AcDbEntity
  8
7
100
AcDbLine
 10
6.455708661417323
 20
6.132874015748031
 30
0.0
 11
6.448818897637795
 21
6.100393700787401
 31
0.0
  0
LINE
  5
2093
330
1E
100
AcDbEntity
  8
7
100
AcDbLine
 10
6.451771653543307
 20
5.913385826771653
 30
0.0
 11
6.448818897637795
 21
6.100393700787401
 31
0.0
  0
LINE
  5
2094
330
1E
100
AcDbEntity
  8
7
100
AcDbLine
 10
5.144685039370078
 20
5.913385826771653
 30
0.0
 11
5.148622047244094
 21
6.132874015748031
 31
0.0
  0
LINE
  5
209F
330
1E
100
AcDbEntity
  8
7
100
AcDbLine
 10
6.297244094488188
 20
5.951771653543307
 30
0.0
 11
6.297244094488188
 21
5.982283464566929
 31
0.0
  0
LINE
  5
20A5
330
1E
100
AcDbEntity
  8
7
100
AcDbLine
 10
6.34251968503937
 20
5.737204724409449
 30
0.0
 11
6.34251968503937
 21
5.822834645669291
 31
0.0
  0
LINE
  5
20AB
330
1E
100
AcDbEntity
  8
7
100
AcDbLine
 10
6.347440944881889
 20
5.982283464566929
 30
0.0
 11
6.347440944881889
 21
5.951771653543307
 31
0.0
  0
LINE
  5
20B1
330
1E
100
AcDbEntity
  8
7
100
AcDbLine
 10
6.297244094488188
 20
5.982283464566929
 30
0.0
 11
6.302165354330708
 21
5.989173228346456
 31
0.0
  0
LINE
  5
20B2
330
1E
100
AcDbEntity
  8
7
100
AcDbLine
 10
6.34251968503937
 20
5.989173228346456
 30
0.0
 11
6.347440944881889
 21
5.982283464566929
 31
0.0
  0
LINE
  5
20B9
330
1E
100
AcDbEntity
  8
7
100
AcDbLine
 10
5.302165354330708
 20
5.822834645669291
 30
0.0
 11
5.261811023622047
 21
5.822834645669291
 31
0.0
  0
LINE
  5
20BA
330
1E
100
AcDbEntity
  8
7
100
AcDbLine
 10
5.261811023622047
 20
5.822834645669291
 30
0.0
 11
5.261811023622047
 21
5.737204724409449
 31
0.0
  0
LINE
  5
20BB
330
1E
100
AcDbEntity
  8
7
100
AcDbLine
 10
5.302165354330708
 20
5.737204724409449
 30
0.0
 11
5.302165354330708
 21
5.822834645669291
 31
0.0
  0
LINE
  5
20C1
330
1E
100
AcDbEntity
  8
7
100
AcDbLine
 10
5.307086614173228
 20
5.982283464566929
 30
0.0
 11
5.307086614173228
 21
5.951771653543307
 31
0.0
  0
LINE
  5
20C7
330
1E
100
AcDbEntity
  8
7
100
AcDbLine
 10
5.256889763779527
 20
5.982283464566929
 30
0.0
 11
5.261811023622047
 21
5.989173228346456
 31
0.0
  0
LINE
  5
20C8
330
1E
100
AcDbEntity
  8
7
100
AcDbLine
 10
5.302165354330708
 20
5.989173228346456
 30
0.0
 11
5.307086614173228
 21
5.982283464566929
 31
0.0
  0
LINE
  5
20C9
330
1E
100
AcDbEntity
  8
7
100
AcDbLine
 10
5.167322834645669
 20
6.229330708661417
 30
0.0
 11
6.437992125984251
 21
6.229330708661417
 31
0.0
  0
LINE
  5
20CA
330
1E
100
AcDbEntity
  8
7
100
AcDbLine
 10
5.188976377952755
 20
6.046259842519685
 30
0.0
 11
5.220472440944882
 21
6.057086614173228
 31
0.0
  0
LINE
  5
20CB
330
1E
100
AcDbEntity
  8
7
100
AcDbLine
 10
6.383858267716535
 20
6.057086614173228
 30
0.0
 11
6.415354330708661
 21
6.046259842519685
 31
0.0
  0
LINE
  5
20CC
330
1E
100
AcDbEntity
  8
7
100
AcDbLine
 10
5.148622047244094
 20
6.132874015748031
 30
0.0
 11
6.455708661417323
 21
6.132874015748031
 31
0.0
  0
LINE
  5
20E3
330
1E
100
AcDbEntity
  8
7
100
AcDbLine
 10
5.581692913385826
 20
5.982283464566929
 30
0.0
 11
6.02263779527559
 21
5.982283464566929
 31
0.0
  0
LINE
  5
20EA
330
1E
100
AcDbEntity
  8
7
100
AcDbLine
 10
6.197834645669291
 20
5.920275590551181
 30
0.0
 11
6.112204724409449
 21
5.920275590551181
 31
0.0
  0
LINE
  5
20EB
330
1E
100
AcDbEntity
  8
7
100
AcDbLine
 10
6.12007874015748
 20
5.913385826771653
 30
0.0
 11
6.195866141732283
 21
5.913385826771653
 31
0.0
  0
LINE
  5
20EC
330
1E
100
AcDbEntity
  8
7
100
AcDbLine
 10
6.121062992125984
 20
5.797244094488188
 30
0.0
 11
6.195866141732283
 21
5.797244094488188
 31
0.0
  0
LINE
  5
20ED
330
1E
100
AcDbEntity
  8
7
100
AcDbLine
 10
5.484251968503937
 20
5.913385826771653
 30
0.0
 11
5.408464566929134
 21
5.913385826771653
 31
0.0
  0
LINE
  5
20EE
330
1E
100
AcDbEntity
  8
7
100
AcDbLine
 10
5.483267716535433
 20
5.797244094488188
 30
0.0
 11
5.409448818897637
 21
5.797244094488188
 31
0.0
  0
LINE
  5
20EF
330
1E
100
AcDbEntity
  8
7
100
AcDbLine
 10
5.492125984251968
 20
5.920275590551181
 30
0.0
 11
5.406496062992125
 21
5.920275590551181
 31
0.0
  0
LINE
  5
2161
330
1E
100
AcDbEntity
  8
7
100
AcDbLine
 10
6.302165354330708
 20
5.955708661417323
 30
0.0
 11
6.299212598425197
 21
5.954724409448818
 31
0.0
  0
LINE
  5
2162
330
1E
100
AcDbEntity
  8
7
100
AcDbLine
 10
6.299212598425197
 20
5.954724409448818
 30
0.0
 11
6.297244094488188
 21
5.951771653543307
 31
0.0
  0
LINE
  5
21A6
330
1E
100
AcDbEntity
  8
7
100
AcDbLine
 10
5.302165354330708
 20
5.822834645669291
 30
0.0
 11
5.306102362204724
 21
5.823818897637795
 31
0.0
  0
LINE
  5
21A7
330
1E
100
AcDbEntity
  8
7
100
AcDbLine
 10
5.306102362204724
 20
5.823818897637795
 30
0.0
 11
5.307086614173228
 21
5.824803149606299
 31
0.0
  0
LINE
  5
21C1
330
1E
100
AcDbEntity
  8
7
100
AcDbLine
 10
6.46751968503937
 20
5.908464566929134
 30
0.0
 11
6.472440944881889
 21
5.913385826771653
 31
0.0
  0
LINE
  5
21C2
330
1E
100
AcDbEntity
  8
7
100
AcDbLine
 10
5.136811023622047
 20
5.908464566929134
 30
0.0
 11
5.131889763779527
 21
5.913385826771653
 31
0.0
  0
LINE
  5
21C3
330
1E
100
AcDbEntity
  8
7
100
AcDbLine
 10
5.223425196850393
 20
5.913385826771653
 30
0.0
 11
5.191929133858267
 21
5.911417322834645
 31
0.0
  0
LINE
  5
21CB
330
1E
100
AcDbEntity
  8
7
100
AcDbLine
 10
6.412401574803149
 20
5.911417322834645
 30
0.0
 11
6.380905511811024
 21
5.913385826771653
 31
0.0
  0
LINE
  5
21FF
330
1E
100
AcDbEntity
  8
7
100
AcDbLine
 10
6.019685039370078
 20
5.923228346456692
 30
0.0
 11
6.019685039370078
 21
5.973425196850393
 31
0.0
  0
LINE
  5
2212
330
1E
100
AcDbEntity
  8
7
100
AcDbLine
 10
6.019685039370078
 20
5.973425196850393
 30
0.0
 11
6.006889763779527
 21
5.968503937007874
 31
0.0
  0
LINE
  5
223C
330
1E
100
AcDbEntity
  8
7
100
AcDbLine
 10
5.999015748031496
 20
5.948818897637795
 30
0.0
 11
5.999015748031496
 21
5.951771653543307
 31
0.0
  0
LINE
  5
2264
330
1E
100
AcDbEntity
  8
7
100
AcDbLine
 10
5.597440944881889
 20
5.968503937007874
 30
0.0
 11
5.600393700787401
 21
5.968503937007874
 31
0.0
  0
LINE
  5
2265
330
1E
100
AcDbEntity
  8
7
100
AcDbLine
 10
5.600393700787401
 20
5.968503937007874
 30
0.0
 11
5.605314960629921
 21
5.968503937007874
 31
0.0
  0
LINE
  5
2266
330
1E
100
AcDbEntity
  8
7
100
AcDbLine
 10
5.605314960629921
 20
5.968503937007874
 30
0.0
 11
5.605314960629921
 21
5.974409448818898
 31
0.0
  0
LINE
  5
2267
330
1E
100
AcDbEntity
  8
7
100
AcDbLine
 10
5.605314960629921
 20
5.974409448818898
 30
0.0
 11
5.605314960629921
 21
5.977362204724409
 31
0.0
  0
LINE
  5
2268
330
1E
100
AcDbEntity
  8
7
100
AcDbLine
 10
5.597440944881889
 20
5.955708661417323
 30
0.0
 11
5.600393700787401
 21
5.955708661417323
 31
0.0
  0
LINE
  5
2269
330
1E
100
AcDbEntity
  8
7
100
AcDbLine
 10
5.600393700787401
 20
5.955708661417323
 30
0.0
 11
5.605314960629921
 21
5.955708661417323
 31
0.0
  0
LINE
  5
226A
330
1E
100
AcDbEntity
  8
7
100
AcDbLine
 10
5.999015748031496
 20
5.968503937007874
 30
0.0
 11
5.999015748031496
 21
5.974409448818898
 31
0.0
  0
LINE
  5
226B
330
1E
100
AcDbEntity
  8
7
100
AcDbLine
 10
5.999015748031496
 20
5.974409448818898
 30
0.0
 11
5.999015748031496
 21
5.977362204724409
 31
0.0
  0
LINE
  5
226C
330
1E
100
AcDbEntity
  8
7
100
AcDbLine
 10
5.605314960629921
 20
5.948818897637795
 30
0.0
 11
5.605314960629921
 21
5.951771653543307
 31
0.0
  0
LINE
  5
226D
330
1E
100
AcDbEntity
  8
7
100
AcDbLine
 10
5.605314960629921
 20
5.951771653543307
 30
0.0
 11
5.605314960629921
 21
5.955708661417323
 31
0.0
  0
LINE
  5
226E
330
1E
100
AcDbEntity
  8
7
100
AcDbLine
 10
5.999015748031496
 20
5.968503937007874
 30
0.0
 11
6.003937007874015
 21
5.968503937007874
 31
0.0
  0
LINE
  5
226F
330
1E
100
AcDbEntity
  8
7
100
AcDbLine
 10
6.003937007874015
 20
5.968503937007874
 30
0.0
 11
6.006889763779527
 21
5.968503937007874
 31
0.0
  0
LINE
  5
2270
330
1E
100
AcDbEntity
  8
7
100
AcDbLine
 10
5.999015748031496
 20
5.951771653543307
 30
0.0
 11
5.999015748031496
 21
5.955708661417323
 31
0.0
  0
LINE
  5
2271
330
1E
100
AcDbEntity
  8
7
100
AcDbLine
 10
5.999015748031496
 20
5.955708661417323
 30
0.0
 11
6.003937007874015
 21
5.955708661417323
 31
0.0
  0
LINE
  5
2272
330
1E
100
AcDbEntity
  8
7
100
AcDbLine
 10
6.003937007874015
 20
5.955708661417323
 30
0.0
 11
6.006889763779527
 21
5.955708661417323
 31
0.0
  0
LINE
  5
2273
330
1E
100
AcDbEntity
  8
7
100
AcDbLine
 10
5.597440944881889
 20
5.968503937007874
 30
0.0
 11
5.600393700787401
 21
5.974409448818898
 31
0.0
  0
LINE
  5
2274
330
1E
100
AcDbEntity
  8
7
100
AcDbLine
 10
5.600393700787401
 20
5.974409448818898
 30
0.0
 11
5.605314960629921
 21
5.977362204724409
 31
0.0
  0
LINE
  5
2275
330
1E
100
AcDbEntity
  8
7
100
AcDbLine
 10
5.999015748031496
 20
5.977362204724409
 30
0.0
 11
6.003937007874015
 21
5.974409448818898
 31
0.0
  0
LINE
  5
2276
330
1E
100
AcDbEntity
  8
7
100
AcDbLine
 10
6.003937007874015
 20
5.974409448818898
 30
0.0
 11
6.006889763779527
 21
5.968503937007874
 31
0.0
  0
LINE
  5
2277
330
1E
100
AcDbEntity
  8
7
100
AcDbLine
 10
5.586614173228346
 20
5.900590551181102
 30
0.0
 11
5.580708661417323
 21
5.90255905511811
 31
0.0
  0
LINE
  5
2278
330
1E
100
AcDbEntity
  8
7
100
AcDbLine
 10
5.580708661417323
 20
5.90255905511811
 30
0.0
 11
5.578740157480314
 21
5.907480314960629
 31
0.0
  0
LINE
  5
2279
330
1E
100
AcDbEntity
  8
7
100
AcDbLine
 10
5.605314960629921
 20
5.948818897637795
 30
0.0
 11
5.600393700787401
 21
5.950787401574802
 31
0.0
  0
LINE
  5
227A
330
1E
100
AcDbEntity
  8
7
100
AcDbLine
 10
5.600393700787401
 20
5.950787401574802
 30
0.0
 11
5.597440944881889
 21
5.955708661417323
 31
0.0
  0
LINE
  5
227B
330
1E
100
AcDbEntity
  8
7
100
AcDbLine
 10
6.025590551181102
 20
5.907480314960629
 30
0.0
 11
6.023622047244094
 21
5.90255905511811
 31
0.0
  0
LINE
  5
227C
330
1E
100
AcDbEntity
  8
7
100
AcDbLine
 10
6.023622047244094
 20
5.90255905511811
 30
0.0
 11
6.017716535433071
 21
5.900590551181102
 31
0.0
  0
LINE
  5
227D
330
1E
100
AcDbEntity
  8
7
100
AcDbLine
 10
6.006889763779527
 20
5.955708661417323
 30
0.0
 11
6.003937007874015
 21
5.950787401574802
 31
0.0
  0
LINE
  5
227E
330
1E
100
AcDbEntity
  8
7
100
AcDbLine
 10
6.003937007874015
 20
5.950787401574802
 30
0.0
 11
5.999015748031496
 21
5.948818897637795
 31
0.0
  0
LINE
  5
227F
330
1E
100
AcDbEntity
  8
7
100
AcDbLine
 10
5.584645669291338
 20
5.923228346456692
 30
0.0
 11
5.597440944881889
 21
5.955708661417323
 31
0.0
  0
LINE
  5
2280
330
1E
100
AcDbEntity
  8
7
100
AcDbLine
 10
5.597440944881889
 20
5.955708661417323
 30
0.0
 11
5.597440944881889
 21
5.968503937007874
 31
0.0
  0
LINE
  5
2281
330
1E
100
AcDbEntity
  8
7
100
AcDbLine
 10
5.597440944881889
 20
5.968503937007874
 30
0.0
 11
5.584645669291338
 21
5.973425196850393
 31
0.0
  0
LINE
  5
2282
330
1E
100
AcDbEntity
  8
7
100
AcDbLine
 10
6.006889763779527
 20
5.968503937007874
 30
0.0
 11
6.006889763779527
 21
5.955708661417323
 31
0.0
  0
LINE
  5
2283
330
1E
100
AcDbEntity
  8
7
100
AcDbLine
 10
6.006889763779527
 20
5.955708661417323
 30
0.0
 11
6.019685039370078
 21
5.923228346456692
 31
0.0
  0
LINE
  5
2284
330
1E
100
AcDbEntity
  8
7
100
AcDbLine
 10
5.59251968503937
 20
5.981299212598425
 30
0.0
 11
5.605314960629921
 21
5.977362204724409
 31
0.0
  0
LINE
  5
2285
330
1E
100
AcDbEntity
  8
7
100
AcDbLine
 10
5.605314960629921
 20
5.977362204724409
 30
0.0
 11
5.999015748031496
 21
5.977362204724409
 31
0.0
  0
LINE
  5
2286
330
1E
100
AcDbEntity
  8
7
100
AcDbLine
 10
5.999015748031496
 20
5.977362204724409
 30
0.0
 11
6.011811023622047
 21
5.981299212598425
 31
0.0
  0
LINE
  5
2287
330
1E
100
AcDbEntity
  8
7
100
AcDbLine
 10
6.019685039370078
 20
5.973425196850393
 30
0.0
 11
6.017716535433071
 21
5.979330708661417
 31
0.0
  0
LINE
  5
2288
330
1E
100
AcDbEntity
  8
7
100
AcDbLine
 10
6.017716535433071
 20
5.979330708661417
 30
0.0
 11
6.011811023622047
 21
5.981299212598425
 31
0.0
  0
LINE
  5
2289
330
1E
100
AcDbEntity
  8
7
100
AcDbLine
 10
6.019685039370078
 20
5.923228346456692
 30
0.0
 11
6.017716535433071
 21
5.917322834645669
 31
0.0
  0
LINE
  5
228A
330
1E
100
AcDbEntity
  8
7
100
AcDbLine
 10
6.017716535433071
 20
5.917322834645669
 30
0.0
 11
6.011811023622047
 21
5.915354330708661
 31
0.0
  0
LINE
  5
228B
330
1E
100
AcDbEntity
  8
7
100
AcDbLine
 10
6.011811023622047
 20
5.915354330708661
 30
0.0
 11
6.017716535433071
 21
5.917322834645669
 31
0.0
  0
LINE
  5
228C
330
1E
100
AcDbEntity
  8
7
100
AcDbLine
 10
6.017716535433071
 20
5.917322834645669
 30
0.0
 11
6.019685039370078
 21
5.923228346456692
 31
0.0
  0
LINE
  5
228D
330
1E
100
AcDbEntity
  8
7
100
AcDbLine
 10
5.584645669291338
 20
5.923228346456692
 30
0.0
 11
5.586614173228346
 21
5.917322834645669
 31
0.0
  0
LINE
  5
228E
330
1E
100
AcDbEntity
  8
7
100
AcDbLine
 10
5.586614173228346
 20
5.917322834645669
 30
0.0
 11
5.59251968503937
 21
5.915354330708661
 31
0.0
  0
LINE
  5
228F
330
1E
100
AcDbEntity
  8
7
100
AcDbLine
 10
5.59251968503937
 20
5.915354330708661
 30
0.0
 11
5.58759842519685
 21
5.917322834645669
 31
0.0
  0
LINE
  5
2290
330
1E
100
AcDbEntity
  8
7
100
AcDbLine
 10
5.58759842519685
 20
5.917322834645669
 30
0.0
 11
5.584645669291338
 21
5.923228346456692
 31
0.0
  0
LINE
  5
2291
330
1E
100
AcDbEntity
  8
7
100
AcDbLine
 10
5.584645669291338
 20
5.923228346456692
 30
0.0
 11
5.584645669291338
 21
5.973425196850393
 31
0.0
  0
LINE
  5
2292
330
1E
100
AcDbEntity
  8
7
100
AcDbLine
 10
5.584645669291338
 20
5.973425196850393
 30
0.0
 11
5.58759842519685
 21
5.979330708661417
 31
0.0
  0
LINE
  5
2293
330
1E
100
AcDbEntity
  8
7
100
AcDbLine
 10
5.58759842519685
 20
5.979330708661417
 30
0.0
 11
5.59251968503937
 21
5.981299212598425
 31
0.0
  0
LINE
  5
2294
330
1E
100
AcDbEntity
  8
7
100
AcDbLine
 10
5.59251968503937
 20
5.981299212598425
 30
0.0
 11
6.011811023622047
 21
5.981299212598425
 31
0.0
  0
LINE
  5
2295
330
1E
100
AcDbEntity
  8
7
100
AcDbLine
 10
6.011811023622047
 20
5.981299212598425
 30
0.0
 11
6.017716535433071
 21
5.979330708661417
 31
0.0
  0
LINE
  5
2296
330
1E
100
AcDbEntity
  8
7
100
AcDbLine
 10
6.017716535433071
 20
5.979330708661417
 30
0.0
 11
6.019685039370078
 21
5.973425196850393
 31
0.0
  0
LINE
  5
2297
330
1E
100
AcDbEntity
  8
7
100
AcDbLine
 10
5.59251968503937
 20
5.981299212598425
 30
0.0
 11
5.586614173228346
 21
5.979330708661417
 31
0.0
  0
LINE
  5
2298
330
1E
100
AcDbEntity
  8
7
100
AcDbLine
 10
5.586614173228346
 20
5.979330708661417
 30
0.0
 11
5.584645669291338
 21
5.973425196850393
 31
0.0
  0
LINE
  5
2299
330
1E
100
AcDbEntity
  8
7
100
AcDbLine
 10
5.532480314960629
 20
5.959645669291338
 30
0.0
 11
5.517716535433071
 21
5.944881889763779
 31
0.0
  0
LINE
  5
229A
330
1E
100
AcDbEntity
  8
7
100
AcDbLine
 10
5.517716535433071
 20
5.944881889763779
 30
0.0
 11
5.504921259842519
 21
5.933070866141732
 31
0.0
  0
LINE
  5
229B
330
1E
100
AcDbEntity
  8
7
100
AcDbLine
 10
5.504921259842519
 20
5.933070866141732
 30
0.0
 11
5.496062992125984
 21
5.924212598425197
 31
0.0
  0
LINE
  5
229C
330
1E
100
AcDbEntity
  8
7
100
AcDbLine
 10
5.496062992125984
 20
5.924212598425197
 30
0.0
 11
5.492125984251968
 21
5.920275590551181
 31
0.0
  0
LINE
  5
229D
330
1E
100
AcDbEntity
  8
7
100
AcDbLine
 10
6.112204724409449
 20
5.920275590551181
 30
0.0
 11
6.108267716535433
 21
5.924212598425197
 31
0.0
  0
LINE
  5
229E
330
1E
100
AcDbEntity
  8
7
100
AcDbLine
 10
6.108267716535433
 20
5.924212598425197
 30
0.0
 11
6.099409448818898
 21
5.933070866141732
 31
0.0
  0
LINE
  5
229F
330
1E
100
AcDbEntity
  8
7
100
AcDbLine
 10
6.099409448818898
 20
5.933070866141732
 30
0.0
 11
6.086614173228346
 21
5.944881889763779
 31
0.0
  0
LINE
  5
22A0
330
1E
100
AcDbEntity
  8
7
100
AcDbLine
 10
6.086614173228346
 20
5.944881889763779
 30
0.0
 11
6.071850393700787
 21
5.959645669291338
 31
0.0
  0
LINE
  5
22A1
330
1E
100
AcDbEntity
  8
7
100
AcDbLine
 10
6.303149606299212
 20
5.265748031496062
 30
0.0
 11
6.327755905511811
 21
5.269685039370078
 31
0.0
  0
LINE
  5
22A2
330
1E
100
AcDbEntity
  8
7
100
AcDbLine
 10
6.327755905511811
 20
5.269685039370078
 30
0.0
 11
6.351377952755905
 21
5.279527559055118
 31
0.0
  0
LINE
  5
22A3
330
1E
100
AcDbEntity
  8
7
100
AcDbLine
 10
6.351377952755905
 20
5.279527559055118
 30
0.0
 11
6.371062992125984
 21
5.296259842519685
 31
0.0
  0
LINE
  5
22A4
330
1E
100
AcDbEntity
  8
7
100
AcDbLine
 10
5.233267716535433
 20
5.296259842519685
 30
0.0
 11
5.252952755905512
 21
5.279527559055118
 31
0.0
  0
LINE
  5
22A5
330
1E
100
AcDbEntity
  8
7
100
AcDbLine
 10
5.252952755905512
 20
5.279527559055118
 30
0.0
 11
5.276574803149606
 21
5.269685039370078
 31
0.0
  0
LINE
  5
22A6
330
1E
100
AcDbEntity
  8
7
100
AcDbLine
 10
5.276574803149606
 20
5.269685039370078
 30
0.0
 11
5.302165354330708
 21
5.265748031496062
 31
0.0
  0
LINE
  5
22A7
330
1E
100
AcDbEntity
  8
7
100
AcDbLine
 10
6.37007874015748
 20
5.297244094488188
 30
0.0
 11
6.371062992125984
 21
5.296259842519685
 31
0.0
  0
LINE
  5
22A8
330
1E
100
AcDbEntity
  8
7
100
AcDbLine
 10
6.371062992125984
 20
5.296259842519685
 30
0.0
 11
6.38779527559055
 21
5.315944881889763
 31
0.0
  0
LINE
  5
22A9
330
1E
100
AcDbEntity
  8
7
100
AcDbLine
 10
6.38779527559055
 20
5.315944881889763
 30
0.0
 11
6.398622047244094
 21
5.338582677165354
 31
0.0
  0
LINE
  5
22AA
330
1E
100
AcDbEntity
  8
7
100
AcDbLine
 10
6.398622047244094
 20
5.338582677165354
 30
0.0
 11
6.40255905511811
 21
5.364173228346456
 31
0.0
  0
LINE
  5
22AB
330
1E
100
AcDbEntity
  8
7
100
AcDbLine
 10
5.201771653543307
 20
5.364173228346456
 30
0.0
 11
5.205708661417323
 21
5.338582677165354
 31
0.0
  0
LINE
  5
22AC
330
1E
100
AcDbEntity
  8
7
100
AcDbLine
 10
5.205708661417323
 20
5.338582677165354
 30
0.0
 11
5.216535433070866
 21
5.315944881889763
 31
0.0
  0
LINE
  5
22AD
330
1E
100
AcDbEntity
  8
7
100
AcDbLine
 10
5.216535433070866
 20
5.315944881889763
 30
0.0
 11
5.233267716535433
 21
5.296259842519685
 31
0.0
  0
LINE
  5
22AE
330
1E
100
AcDbEntity
  8
7
100
AcDbLine
 10
5.233267716535433
 20
5.296259842519685
 30
0.0
 11
5.234251968503937
 21
5.297244094488188
 31
0.0
  0
LINE
  5
22AF
330
1E
100
AcDbEntity
  8
7
100
AcDbLine
 10
5.261811023622047
 20
5.822834645669291
 30
0.0
 11
5.258858267716535
 21
5.823818897637795
 31
0.0
  0
LINE
  5
22B0
330
1E
100
AcDbEntity
  8
7
100
AcDbLine
 10
5.258858267716535
 20
5.823818897637795
 30
0.0
 11
5.256889763779527
 21
5.824803149606299
 31
0.0
  0
LINE
  5
22B1
330
1E
100
AcDbEntity
  8
7
100
AcDbLine
 10
5.261811023622047
 20
5.822834645669291
 30
0.0
 11
5.261811023622047
 21
5.823818897637795
 31
0.0
  0
LINE
  5
22B2
330
1E
100
AcDbEntity
  8
7
100
AcDbLine
 10
5.261811023622047
 20
5.823818897637795
 30
0.0
 11
5.261811023622047
 21
5.824803149606299
 31
0.0
  0
LINE
  5
22B3
330
1E
100
AcDbEntity
  8
7
100
AcDbLine
 10
5.261811023622047
 20
5.824803149606299
 30
0.0
 11
5.258858267716535
 21
5.824803149606299
 31
0.0
  0
LINE
  5
22B4
330
1E
100
AcDbEntity
  8
7
100
AcDbLine
 10
5.258858267716535
 20
5.824803149606299
 30
0.0
 11
5.256889763779527
 21
5.824803149606299
 31
0.0
  0
LINE
  5
22B5
330
1E
100
AcDbEntity
  8
7
100
AcDbLine
 10
5.302165354330708
 20
5.822834645669291
 30
0.0
 11
5.302165354330708
 21
5.823818897637795
 31
0.0
  0
LINE
  5
22B6
330
1E
100
AcDbEntity
  8
7
100
AcDbLine
 10
5.302165354330708
 20
5.823818897637795
 30
0.0
 11
5.302165354330708
 21
5.824803149606299
 31
0.0
  0
LINE
  5
22B7
330
1E
100
AcDbEntity
  8
7
100
AcDbLine
 10
5.261811023622047
 20
5.951771653543307
 30
0.0
 11
5.258858267716535
 21
5.951771653543307
 31
0.0
  0
LINE
  5
22B8
330
1E
100
AcDbEntity
  8
7
100
AcDbLine
 10
5.258858267716535
 20
5.951771653543307
 30
0.0
 11
5.256889763779527
 21
5.951771653543307
 31
0.0
  0
LINE
  5
22B9
330
1E
100
AcDbEntity
  8
7
100
AcDbLine
 10
5.307086614173228
 20
5.824803149606299
 30
0.0
 11
5.306102362204724
 21
5.824803149606299
 31
0.0
  0
LINE
  5
22BA
330
1E
100
AcDbEntity
  8
7
100
AcDbLine
 10
5.306102362204724
 20
5.824803149606299
 30
0.0
 11
5.302165354330708
 21
5.824803149606299
 31
0.0
  0
LINE
  5
22BB
330
1E
100
AcDbEntity
  8
7
100
AcDbLine
 10
5.261811023622047
 20
5.951771653543307
 30
0.0
 11
5.261811023622047
 21
5.953740157480314
 31
0.0
  0
LINE
  5
22BC
330
1E
100
AcDbEntity
  8
7
100
AcDbLine
 10
5.261811023622047
 20
5.953740157480314
 30
0.0
 11
5.261811023622047
 21
5.955708661417323
 31
0.0
  0
LINE
  5
22BD
330
1E
100
AcDbEntity
  8
7
100
AcDbLine
 10
5.261811023622047
 20
5.955708661417323
 30
0.0
 11
5.258858267716535
 21
5.954724409448818
 31
0.0
  0
LINE
  5
22BE
330
1E
100
AcDbEntity
  8
7
100
AcDbLine
 10
5.258858267716535
 20
5.954724409448818
 30
0.0
 11
5.256889763779527
 21
5.951771653543307
 31
0.0
  0
LINE
  5
22BF
330
1E
100
AcDbEntity
  8
7
100
AcDbLine
 10
5.307086614173228
 20
5.951771653543307
 30
0.0
 11
5.306102362204724
 21
5.951771653543307
 31
0.0
  0
LINE
  5
22C0
330
1E
100
AcDbEntity
  8
7
100
AcDbLine
 10
5.306102362204724
 20
5.951771653543307
 30
0.0
 11
5.302165354330708
 21
5.951771653543307
 31
0.0
  0
LINE
  5
22C1
330
1E
100
AcDbEntity
  8
7
100
AcDbLine
 10
5.302165354330708
 20
5.951771653543307
 30
0.0
 11
5.302165354330708
 21
5.953740157480314
 31
0.0
  0
LINE
  5
22C2
330
1E
100
AcDbEntity
  8
7
100
AcDbLine
 10
5.302165354330708
 20
5.953740157480314
 30
0.0
 11
5.302165354330708
 21
5.955708661417323
 31
0.0
  0
LINE
  5
22C3
330
1E
100
AcDbEntity
  8
7
100
AcDbLine
 10
5.307086614173228
 20
5.951771653543307
 30
0.0
 11
5.306102362204724
 21
5.954724409448818
 31
0.0
  0
LINE
  5
22C4
330
1E
100
AcDbEntity
  8
7
100
AcDbLine
 10
5.306102362204724
 20
5.954724409448818
 30
0.0
 11
5.302165354330708
 21
5.955708661417323
 31
0.0
  0
LINE
  5
22C5
330
1E
100
AcDbEntity
  8
7
100
AcDbLine
 10
6.302165354330708
 20
5.822834645669291
 30
0.0
 11
6.299212598425197
 21
5.823818897637795
 31
0.0
  0
LINE
  5
22C6
330
1E
100
AcDbEntity
  8
7
100
AcDbLine
 10
6.299212598425197
 20
5.823818897637795
 30
0.0
 11
6.297244094488188
 21
5.824803149606299
 31
0.0
  0
LINE
  5
22C7
330
1E
100
AcDbEntity
  8
7
100
AcDbLine
 10
6.302165354330708
 20
5.822834645669291
 30
0.0
 11
6.302165354330708
 21
5.823818897637795
 31
0.0
  0
LINE
  5
22C8
330
1E
100
AcDbEntity
  8
7
100
AcDbLine
 10
6.302165354330708
 20
5.823818897637795
 30
0.0
 11
6.302165354330708
 21
5.824803149606299
 31
0.0
  0
LINE
  5
22C9
330
1E
100
AcDbEntity
  8
7
100
AcDbLine
 10
6.302165354330708
 20
5.824803149606299
 30
0.0
 11
6.299212598425197
 21
5.824803149606299
 31
0.0
  0
LINE
  5
22CA
330
1E
100
AcDbEntity
  8
7
100
AcDbLine
 10
6.299212598425197
 20
5.824803149606299
 30
0.0
 11
6.297244094488188
 21
5.824803149606299
 31
0.0
  0
LINE
  5
22CB
330
1E
100
AcDbEntity
  8
7
100
AcDbLine
 10
6.34251968503937
 20
5.822834645669291
 30
0.0
 11
6.34251968503937
 21
5.823818897637795
 31
0.0
  0
LINE
  5
22CC
330
1E
100
AcDbEntity
  8
7
100
AcDbLine
 10
6.34251968503937
 20
5.823818897637795
 30
0.0
 11
6.34251968503937
 21
5.824803149606299
 31
0.0
  0
LINE
  5
22CD
330
1E
100
AcDbEntity
  8
7
100
AcDbLine
 10
6.302165354330708
 20
5.951771653543307
 30
0.0
 11
6.299212598425197
 21
5.951771653543307
 31
0.0
  0
LINE
  5
22CE
330
1E
100
AcDbEntity
  8
7
100
AcDbLine
 10
6.299212598425197
 20
5.951771653543307
 30
0.0
 11
6.297244094488188
 21
5.951771653543307
 31
0.0
  0
LINE
  5
22CF
330
1E
100
AcDbEntity
  8
7
100
AcDbLine
 10
6.34251968503937
 20
5.822834645669291
 30
0.0
 11
6.345472440944881
 21
5.823818897637795
 31
0.0
  0
LINE
  5
22D0
330
1E
100
AcDbEntity
  8
7
100
AcDbLine
 10
6.345472440944881
 20
5.823818897637795
 30
0.0
 11
6.347440944881889
 21
5.824803149606299
 31
0.0
  0
LINE
  5
22D1
330
1E
100
AcDbEntity
  8
7
100
AcDbLine
 10
6.347440944881889
 20
5.824803149606299
 30
0.0
 11
6.345472440944881
 21
5.824803149606299
 31
0.0
  0
LINE
  5
22D2
330
1E
100
AcDbEntity
  8
7
100
AcDbLine
 10
6.345472440944881
 20
5.824803149606299
 30
0.0
 11
6.34251968503937
 21
5.824803149606299
 31
0.0
  0
LINE
  5
22D3
330
1E
100
AcDbEntity
  8
7
100
AcDbLine
 10
6.302165354330708
 20
5.951771653543307
 30
0.0
 11
6.302165354330708
 21
5.953740157480314
 31
0.0
  0
LINE
  5
22D4
330
1E
100
AcDbEntity
  8
7
100
AcDbLine
 10
6.302165354330708
 20
5.953740157480314
 30
0.0
 11
6.302165354330708
 21
5.955708661417323
 31
0.0
  0
LINE
  5
22D5
330
1E
100
AcDbEntity
  8
7
100
AcDbLine
 10
6.347440944881889
 20
5.951771653543307
 30
0.0
 11
6.345472440944881
 21
5.951771653543307
 31
0.0
  0
LINE
  5
22D6
330
1E
100
AcDbEntity
  8
7
100
AcDbLine
 10
6.345472440944881
 20
5.951771653543307
 30
0.0
 11
6.34251968503937
 21
5.951771653543307
 31
0.0
  0
LINE
  5
22D7
330
1E
100
AcDbEntity
  8
7
100
AcDbLine
 10
6.34251968503937
 20
5.951771653543307
 30
0.0
 11
6.34251968503937
 21
5.953740157480314
 31
0.0
  0
LINE
  5
22D8
330
1E
100
AcDbEntity
  8
7
100
AcDbLine
 10
6.34251968503937
 20
5.953740157480314
 30
0.0
 11
6.34251968503937
 21
5.955708661417323
 31
0.0
  0
LINE
  5
22D9
330
1E
100
AcDbEntity
  8
7
100
AcDbLine
 10
6.347440944881889
 20
5.951771653543307
 30
0.0
 11
6.345472440944881
 21
5.954724409448818
 31
0.0
  0
LINE
  5
22DA
330
1E
100
AcDbEntity
  8
7
100
AcDbLine
 10
6.345472440944881
 20
5.954724409448818
 30
0.0
 11
6.34251968503937
 21
5.955708661417323
 31
0.0
  0
LINE
  5
22DB
330
1E
100
AcDbEntity
  8
7
100
AcDbLine
 10
5.166338582677165
 20
6.659448818897637
 30
0.0
 11
5.143700787401574
 21
6.657480314960629
 31
0.0
  0
LINE
  5
22DC
330
1E
100
AcDbEntity
  8
7
100
AcDbLine
 10
5.143700787401574
 20
6.657480314960629
 30
0.0
 11
5.125
 21
6.648622047244094
 31
0.0
  0
LINE
  5
22DD
330
1E
100
AcDbEntity
  8
7
100
AcDbLine
 10
5.125
 20
6.648622047244094
 30
0.0
 11
5.112204724409449
 21
6.635826771653543
 31
0.0
  0
LINE
  5
22DE
330
1E
100
AcDbEntity
  8
7
100
AcDbLine
 10
5.112204724409449
 20
6.635826771653543
 30
0.0
 11
5.106299212598425
 21
6.62007874015748
 31
0.0
  0
LINE
  5
22DF
330
1E
100
AcDbEntity
  8
7
100
AcDbLine
 10
5.166338582677165
 20
6.659448818897637
 30
0.0
 11
5.166338582677165
 21
6.673228346456692
 31
0.0
  0
LINE
  5
22E0
330
1E
100
AcDbEntity
  8
7
100
AcDbLine
 10
5.166338582677165
 20
6.673228346456692
 30
0.0
 11
5.166338582677165
 21
6.677165354330708
 31
0.0
  0
LINE
  5
22E1
330
1E
100
AcDbEntity
  8
7
100
AcDbLine
 10
6.437992125984251
 20
6.659448818897637
 30
0.0
 11
6.437992125984251
 21
6.673228346456692
 31
0.0
  0
LINE
  5
22E2
330
1E
100
AcDbEntity
  8
7
100
AcDbLine
 10
6.437992125984251
 20
6.673228346456692
 30
0.0
 11
6.437992125984251
 21
6.677165354330708
 31
0.0
  0
LINE
  5
22E3
330
1E
100
AcDbEntity
  8
7
100
AcDbLine
 10
6.437992125984251
 20
6.659448818897637
 30
0.0
 11
6.460629921259842
 21
6.657480314960629
 31
0.0
  0
LINE
  5
22E4
330
1E
100
AcDbEntity
  8
7
100
AcDbLine
 10
6.460629921259842
 20
6.657480314960629
 30
0.0
 11
6.479330708661417
 21
6.648622047244094
 31
0.0
  0
LINE
  5
22E5
330
1E
100
AcDbEntity
  8
7
100
AcDbLine
 10
6.479330708661417
 20
6.648622047244094
 30
0.0
 11
6.493110236220472
 21
6.635826771653543
 31
0.0
  0
LINE
  5
22E6
330
1E
100
AcDbEntity
  8
7
100
AcDbLine
 10
6.493110236220472
 20
6.635826771653543
 30
0.0
 11
6.498031496062992
 21
6.62007874015748
 31
0.0
  0
LINE
  5
22E7
330
1E
100
AcDbEntity
  8
7
100
AcDbLine
 10
6.641732283464566
 20
6.198818897637795
 30
0.0
 11
6.634842519685039
 21
6.234251968503937
 31
0.0
  0
LINE
  5
22E8
330
1E
100
AcDbEntity
  8
7
100
AcDbLine
 10
6.634842519685039
 20
6.234251968503937
 30
0.0
 11
6.617125984251968
 21
6.266732283464566
 31
0.0
  0
LINE
  5
22E9
330
1E
100
AcDbEntity
  8
7
100
AcDbLine
 10
6.617125984251968
 20
6.266732283464566
 30
0.0
 11
6.590551181102362
 21
6.291338582677165
 31
0.0
  0
LINE
  5
22EA
330
1E
100
AcDbEntity
  8
7
100
AcDbLine
 10
6.590551181102362
 20
6.291338582677165
 30
0.0
 11
6.558070866141732
 21
6.307086614173228
 31
0.0
  0
LINE
  5
22EB
330
1E
100
AcDbEntity
  8
7
100
AcDbLine
 10
6.558070866141732
 20
6.307086614173228
 30
0.0
 11
6.52263779527559
 21
6.312992125984251
 31
0.0
  0
LINE
  5
22EC
330
1E
100
AcDbEntity
  8
7
100
AcDbLine
 10
6.52263779527559
 20
6.198818897637795
 30
0.0
 11
6.553149606299212
 21
6.199803149606299
 31
0.0
  0
LINE
  5
22ED
330
1E
100
AcDbEntity
  8
7
100
AcDbLine
 10
6.553149606299212
 20
6.199803149606299
 30
0.0
 11
6.58267716535433
 21
6.200787401574802
 31
0.0
  0
LINE
  5
22EE
330
1E
100
AcDbEntity
  8
7
100
AcDbLine
 10
6.58267716535433
 20
6.200787401574802
 30
0.0
 11
6.607283464566929
 21
6.200787401574802
 31
0.0
  0
LINE
  5
22EF
330
1E
100
AcDbEntity
  8
7
100
AcDbLine
 10
6.607283464566929
 20
6.200787401574802
 30
0.0
 11
6.625984251968503
 21
6.200787401574802
 31
0.0
  0
LINE
  5
22F0
330
1E
100
AcDbEntity
  8
7
100
AcDbLine
 10
6.625984251968503
 20
6.200787401574802
 30
0.0
 11
6.63779527559055
 21
6.199803149606299
 31
0.0
  0
LINE
  5
22F1
330
1E
100
AcDbEntity
  8
7
100
AcDbLine
 10
6.63779527559055
 20
6.199803149606299
 30
0.0
 11
6.642716535433071
 21
6.198818897637795
 31
0.0
  0
LINE
  5
22F2
330
1E
100
AcDbEntity
  8
7
100
AcDbLine
 10
5.081692913385826
 20
6.312992125984251
 30
0.0
 11
5.046259842519685
 21
6.307086614173228
 31
0.0
  0
LINE
  5
22F3
330
1E
100
AcDbEntity
  8
7
100
AcDbLine
 10
5.046259842519685
 20
6.307086614173228
 30
0.0
 11
5.013779527559055
 21
6.291338582677165
 31
0.0
  0
LINE
  5
22F4
330
1E
100
AcDbEntity
  8
7
100
AcDbLine
 10
5.013779527559055
 20
6.291338582677165
 30
0.0
 11
4.987204724409449
 21
6.266732283464566
 31
0.0
  0
LINE
  5
22F5
330
1E
100
AcDbEntity
  8
7
100
AcDbLine
 10
4.987204724409449
 20
6.266732283464566
 30
0.0
 11
4.969488188976377
 21
6.234251968503937
 31
0.0
  0
LINE
  5
22F6
330
1E
100
AcDbEntity
  8
7
100
AcDbLine
 10
4.969488188976377
 20
6.234251968503937
 30
0.0
 11
4.96259842519685
 21
6.198818897637795
 31
0.0
  0
LINE
  5
22F7
330
1E
100
AcDbEntity
  8
7
100
AcDbLine
 10
4.96259842519685
 20
6.198818897637795
 30
0.0
 11
4.966535433070866
 21
6.199803149606299
 31
0.0
  0
LINE
  5
22F8
330
1E
100
AcDbEntity
  8
7
100
AcDbLine
 10
4.966535433070866
 20
6.199803149606299
 30
0.0
 11
4.978346456692913
 21
6.200787401574802
 31
0.0
  0
LINE
  5
22F9
330
1E
100
AcDbEntity
  8
7
100
AcDbLine
 10
4.978346456692913
 20
6.200787401574802
 30
0.0
 11
4.997047244094487
 21
6.200787401574802
 31
0.0
  0
LINE
  5
22FA
330
1E
100
AcDbEntity
  8
7
100
AcDbLine
 10
4.997047244094487
 20
6.200787401574802
 30
0.0
 11
5.02263779527559
 21
6.200787401574802
 31
0.0
  0
LINE
  5
22FB
330
1E
100
AcDbEntity
  8
7
100
AcDbLine
 10
5.02263779527559
 20
6.200787401574802
 30
0.0
 11
5.051181102362204
 21
6.199803149606299
 31
0.0
  0
LINE
  5
22FC
330
1E
100
AcDbEntity
  8
7
100
AcDbLine
 10
5.051181102362204
 20
6.199803149606299
 30
0.0
 11
5.081692913385826
 21
6.198818897637795
 31
0.0
  0
LINE
  5
22FD
330
1E
100
AcDbEntity
  8
7
100
AcDbLine
 10
5.081692913385826
 20
6.313976377952755
 30
0.0
 11
5.081692913385826
 21
6.308070866141732
 31
0.0
  0
LINE
  5
22FE
330
1E
100
AcDbEntity
  8
7
100
AcDbLine
 10
5.081692913385826
 20
6.308070866141732
 30
0.0
 11
5.081692913385826
 21
6.292322834645669
 31
0.0
  0
LINE
  5
22FF
330
1E
100
AcDbEntity
  8
7
100
AcDbLine
 10
5.081692913385826
 20
6.292322834645669
 30
0.0
 11
5.081692913385826
 21
6.266732283464566
 31
0.0
  0
LINE
  5
2300
330
1E
100
AcDbEntity
  8
7
100
AcDbLine
 10
5.081692913385826
 20
6.266732283464566
 30
0.0
 11
5.081692913385826
 21
6.23523622047244
 31
0.0
  0
LINE
  5
2301
330
1E
100
AcDbEntity
  8
7
100
AcDbLine
 10
5.081692913385826
 20
6.23523622047244
 30
0.0
 11
5.081692913385826
 21
6.198818897637795
 31
0.0
  0
LINE
  5
2302
330
1E
100
AcDbEntity
  8
7
100
AcDbLine
 10
6.52263779527559
 20
6.198818897637795
 30
0.0
 11
6.52263779527559
 21
6.23523622047244
 31
0.0
  0
LINE
  5
2303
330
1E
100
AcDbEntity
  8
7
100
AcDbLine
 10
6.52263779527559
 20
6.23523622047244
 30
0.0
 11
6.52263779527559
 21
6.266732283464566
 31
0.0
  0
LINE
  5
2304
330
1E
100
AcDbEntity
  8
7
100
AcDbLine
 10
6.52263779527559
 20
6.266732283464566
 30
0.0
 11
6.52263779527559
 21
6.292322834645669
 31
0.0
  0
LINE
  5
2305
330
1E
100
AcDbEntity
  8
7
100
AcDbLine
 10
6.52263779527559
 20
6.292322834645669
 30
0.0
 11
6.52263779527559
 21
6.308070866141732
 31
0.0
  0
LINE
  5
2306
330
1E
100
AcDbEntity
  8
7
100
AcDbLine
 10
6.52263779527559
 20
6.308070866141732
 30
0.0
 11
6.52263779527559
 21
6.313976377952755
 31
0.0
  0
LINE
  5
2307
330
1E
100
AcDbEntity
  8
7
100
AcDbLine
 10
5.605314960629921
 20
5.955708661417323
 30
0.0
 11
5.999015748031496
 21
5.955708661417323
 31
0.0
  0
LINE
  5
2308
330
1E
100
AcDbEntity
  8
7
100
AcDbLine
 10
5.999015748031496
 20
5.955708661417323
 30
0.0
 11
5.999015748031496
 21
5.968503937007874
 31
0.0
  0
LINE
  5
2309
330
1E
100
AcDbEntity
  8
7
100
AcDbLine
 10
5.999015748031496
 20
5.968503937007874
 30
0.0
 11
5.605314960629921
 21
5.968503937007874
 31
0.0
  0
LINE
  5
230A
330
1E
100
AcDbEntity
  8
7
100
AcDbLine
 10
5.605314960629921
 20
5.968503937007874
 30
0.0
 11
5.605314960629921
 21
5.955708661417323
 31
0.0
  0
LINE
  5
230B
330
1E
100
AcDbEntity
  8
7
100
AcDbLine
 10
6.030511811023622
 20
5.974409448818898
 30
0.0
 11
6.019685039370078
 21
5.973425196850393
 31
0.0
  0
LINE
  5
230C
330
1E
100
AcDbEntity
  8
7
100
AcDbLine
 10
6.019685039370078
 20
5.973425196850393
 30
0.0
 11
6.019685039370078
 21
5.923228346456692
 31
0.0
  0
LINE
  5
230D
330
1E
100
AcDbEntity
  8
7
100
AcDbLine
 10
6.019685039370078
 20
5.923228346456692
 30
0.0
 11
6.025590551181102
 21
5.907480314960629
 31
0.0
  0
LINE
  5
230E
330
1E
100
AcDbEntity
  8
7
100
AcDbLine
 10
6.025590551181102
 20
5.907480314960629
 30
0.0
 11
6.030511811023622
 21
5.872047244094487
 31
0.0
  0
LINE
  5
230F
330
1E
100
AcDbEntity
  8
7
100
AcDbLine
 10
5.573818897637795
 20
5.872047244094487
 30
0.0
 11
5.578740157480314
 21
5.907480314960629
 31
0.0
  0
LINE
  5
2310
330
1E
100
AcDbEntity
  8
7
100
AcDbLine
 10
5.578740157480314
 20
5.907480314960629
 30
0.0
 11
5.584645669291338
 21
5.923228346456692
 31
0.0
  0
LINE
  5
2311
330
1E
100
AcDbEntity
  8
7
100
AcDbLine
 10
5.584645669291338
 20
5.923228346456692
 30
0.0
 11
5.584645669291338
 21
5.973425196850393
 31
0.0
  0
LINE
  5
2312
330
1E
100
AcDbEntity
  8
7
100
AcDbLine
 10
5.584645669291338
 20
5.973425196850393
 30
0.0
 11
5.573818897637795
 21
5.974409448818898
 31
0.0
  0
LINE
  5
2313
330
1E
100
AcDbEntity
  8
7
100
AcDbLine
 10
5.581692913385826
 20
5.982283464566929
 30
0.0
 11
5.59251968503937
 21
5.981299212598425
 31
0.0
  0
LINE
  5
2314
330
1E
100
AcDbEntity
  8
7
100
AcDbLine
 10
5.59251968503937
 20
5.981299212598425
 30
0.0
 11
6.011811023622047
 21
5.981299212598425
 31
0.0
  0
LINE
  5
2315
330
1E
100
AcDbEntity
  8
7
100
AcDbLine
 10
6.011811023622047
 20
5.981299212598425
 30
0.0
 11
6.02263779527559
 21
5.982283464566929
 31
0.0
  0
LINE
  5
2316
330
1E
100
AcDbEntity
  8
7
100
AcDbLine
 10
5.163385826771653
 20
6.313976377952755
 30
0.0
 11
5.163385826771653
 21
6.310039370078739
 31
0.0
  0
LINE
  5
2317
330
1E
100
AcDbEntity
  8
7
100
AcDbLine
 10
5.163385826771653
 20
6.310039370078739
 30
0.0
 11
5.164370078740157
 21
6.298228346456692
 31
0.0
  0
LINE
  5
2318
330
1E
100
AcDbEntity
  8
7
100
AcDbLine
 10
5.164370078740157
 20
6.298228346456692
 30
0.0
 11
5.164370078740157
 21
6.280511811023622
 31
0.0
  0
LINE
  5
2319
330
1E
100
AcDbEntity
  8
7
100
AcDbLine
 10
5.164370078740157
 20
6.280511811023622
 30
0.0
 11
5.165354330708661
 21
6.256889763779527
 31
0.0
  0
LINE
  5
231A
330
1E
100
AcDbEntity
  8
7
100
AcDbLine
 10
5.165354330708661
 20
6.256889763779527
 30
0.0
 11
5.167322834645669
 21
6.229330708661417
 31
0.0
  0
LINE
  5
231B
330
1E
100
AcDbEntity
  8
7
100
AcDbLine
 10
6.437992125984251
 20
6.229330708661417
 30
0.0
 11
6.438976377952755
 21
6.256889763779527
 31
0.0
  0
LINE
  5
231C
330
1E
100
AcDbEntity
  8
7
100
AcDbLine
 10
6.438976377952755
 20
6.256889763779527
 30
0.0
 11
6.43996062992126
 21
6.280511811023622
 31
0.0
  0
LINE
  5
231D
330
1E
100
AcDbEntity
  8
7
100
AcDbLine
 10
6.43996062992126
 20
6.280511811023622
 30
0.0
 11
6.440944881889763
 21
6.298228346456692
 31
0.0
  0
LINE
  5
231E
330
1E
100
AcDbEntity
  8
7
100
AcDbLine
 10
6.440944881889763
 20
6.298228346456692
 30
0.0
 11
6.440944881889763
 21
6.310039370078739
 31
0.0
  0
LINE
  5
231F
330
1E
100
AcDbEntity
  8
7
100
AcDbLine
 10
6.440944881889763
 20
6.310039370078739
 30
0.0
 11
6.440944881889763
 21
6.313976377952755
 31
0.0
  0
LINE
  5
2320
330
1E
100
AcDbEntity
  8
7
100
AcDbLine
 10
6.534448818897637
 20
5.913385826771653
 30
0.0
 11
6.52263779527559
 21
6.198818897637795
 31
0.0
  0
LINE
  5
2321
330
1E
100
AcDbEntity
  8
7
100
AcDbLine
 10
6.52263779527559
 20
6.198818897637795
 30
0.0
 11
5.081692913385826
 21
6.198818897637795
 31
0.0
  0
LINE
  5
2322
330
1E
100
AcDbEntity
  8
7
100
AcDbLine
 10
5.081692913385826
 20
6.198818897637795
 30
0.0
 11
5.069881889763779
 21
5.913385826771653
 31
0.0
  0
LINE
  5
2323
330
1E
100
AcDbEntity
  8
7
100
AcDbLine
 10
5.343503937007874
 20
6.057086614173228
 30
0.0
 11
5.220472440944882
 21
6.057086614173228
 31
0.0
  0
LINE
  5
2324
330
1E
100
AcDbEntity
  8
7
100
AcDbLine
 10
5.220472440944882
 20
6.057086614173228
 30
0.0
 11
5.224409448818898
 21
5.913385826771653
 31
0.0
  0
LINE
  5
2325
330
1E
100
AcDbEntity
  8
7
100
AcDbLine
 10
5.307086614173228
 20
5.951771653543307
 30
0.0
 11
5.307086614173228
 21
5.824803149606299
 31
0.0
  0
LINE
  5
2326
330
1E
100
AcDbEntity
  8
7
100
AcDbLine
 10
5.307086614173228
 20
5.824803149606299
 30
0.0
 11
5.307086614173228
 21
5.747047244094487
 31
0.0
  0
LINE
  5
2327
330
1E
100
AcDbEntity
  8
7
100
AcDbLine
 10
5.256889763779527
 20
5.747047244094487
 30
0.0
 11
5.256889763779527
 21
5.824803149606299
 31
0.0
  0
LINE
  5
2328
330
1E
100
AcDbEntity
  8
7
100
AcDbLine
 10
5.256889763779527
 20
5.824803149606299
 30
0.0
 11
5.256889763779527
 21
5.951771653543307
 31
0.0
  0
LINE
  5
2329
330
1E
100
AcDbEntity
  8
7
100
AcDbLine
 10
5.256889763779527
 20
5.951771653543307
 30
0.0
 11
5.256889763779527
 21
5.982283464566929
 31
0.0
  0
LINE
  5
232A
330
1E
100
AcDbEntity
  8
7
100
AcDbLine
 10
6.380905511811024
 20
5.913385826771653
 30
0.0
 11
6.383858267716535
 21
6.057086614173228
 31
0.0
  0
LINE
  5
232B
330
1E
100
AcDbEntity
  8
7
100
AcDbLine
 10
6.383858267716535
 20
6.057086614173228
 30
0.0
 11
6.260826771653543
 21
6.057086614173228
 31
0.0
  0
LINE
  5
232C
330
1E
100
AcDbEntity
  8
7
100
AcDbLine
 10
6.347440944881889
 20
5.951771653543307
 30
0.0
 11
6.347440944881889
 21
5.824803149606299
 31
0.0
  0
LINE
  5
232D
330
1E
100
AcDbEntity
  8
7
100
AcDbLine
 10
6.347440944881889
 20
5.824803149606299
 30
0.0
 11
6.347440944881889
 21
5.747047244094487
 31
0.0
  0
LINE
  5
232E
330
1E
100
AcDbEntity
  8
7
100
AcDbLine
 10
6.34251968503937
 20
5.822834645669291
 30
0.0
 11
6.302165354330708
 21
5.822834645669291
 31
0.0
  0
LINE
  5
232F
330
1E
100
AcDbEntity
  8
7
100
AcDbLine
 10
6.302165354330708
 20
5.822834645669291
 30
0.0
 11
6.302165354330708
 21
5.737204724409449
 31
0.0
  0
LINE
  5
2330
330
1E
100
AcDbEntity
  8
7
100
AcDbLine
 10
6.297244094488188
 20
5.747047244094487
 30
0.0
 11
6.297244094488188
 21
5.824803149606299
 31
0.0
  0
LINE
  5
2331
330
1E
100
AcDbEntity
  8
7
100
AcDbLine
 10
6.297244094488188
 20
5.824803149606299
 30
0.0
 11
6.297244094488188
 21
5.951771653543307
 31
0.0
  0
LINE
  5
2332
330
1E
100
AcDbEntity
  8
7
100
AcDbLine
 10
5.15255905511811
 20
5.913385826771653
 30
0.0
 11
5.155511811023622
 21
6.100393700787401
 31
0.0
  0
LINE
  5
2333
330
1E
100
AcDbEntity
  8
7
100
AcDbLine
 10
5.155511811023622
 20
6.100393700787401
 30
0.0
 11
5.148622047244094
 21
6.132874015748031
 31
0.0
  0
LINE
  5
2334
330
1E
100
AcDbEntity
  8
7
100
AcDbLine
 10
5.302165354330708
 20
5.989173228346456
 30
0.0
 11
5.261811023622047
 21
5.989173228346456
 31
0.0
  0
LINE
  5
2335
330
1E
100
AcDbEntity
  8
7
100
AcDbLine
 10
5.261811023622047
 20
5.989173228346456
 30
0.0
 11
5.261811023622047
 21
5.955708661417323
 31
0.0
  0
LINE
  5
2336
330
1E
100
AcDbEntity
  8
7
100
AcDbLine
 10
5.261811023622047
 20
5.955708661417323
 30
0.0
 11
5.302165354330708
 21
5.955708661417323
 31
0.0
  0
LINE
  5
2337
330
1E
100
AcDbEntity
  8
7
100
AcDbLine
 10
5.302165354330708
 20
5.955708661417323
 30
0.0
 11
5.302165354330708
 21
5.989173228346456
 31
0.0
  0
LINE
  5
2338
330
1E
100
AcDbEntity
  8
7
100
AcDbLine
 10
5.261811023622047
 20
5.951771653543307
 30
0.0
 11
5.261811023622047
 21
5.824803149606299
 31
0.0
  0
LINE
  5
2339
330
1E
100
AcDbEntity
  8
7
100
AcDbLine
 10
5.261811023622047
 20
5.824803149606299
 30
0.0
 11
5.302165354330708
 21
5.824803149606299
 31
0.0
  0
LINE
  5
233A
330
1E
100
AcDbEntity
  8
7
100
AcDbLine
 10
5.302165354330708
 20
5.824803149606299
 30
0.0
 11
5.302165354330708
 21
5.951771653543307
 31
0.0
  0
LINE
  5
233B
330
1E
100
AcDbEntity
  8
7
100
AcDbLine
 10
5.302165354330708
 20
5.951771653543307
 30
0.0
 11
5.261811023622047
 21
5.951771653543307
 31
0.0
  0
LINE
  5
233C
330
1E
100
AcDbEntity
  8
7
100
AcDbLine
 10
6.34251968503937
 20
5.989173228346456
 30
0.0
 11
6.302165354330708
 21
5.989173228346456
 31
0.0
  0
LINE
  5
233D
330
1E
100
AcDbEntity
  8
7
100
AcDbLine
 10
6.302165354330708
 20
5.989173228346456
 30
0.0
 11
6.302165354330708
 21
5.955708661417323
 31
0.0
  0
LINE
  5
233E
330
1E
100
AcDbEntity
  8
7
100
AcDbLine
 10
6.302165354330708
 20
5.955708661417323
 30
0.0
 11
6.34251968503937
 21
5.955708661417323
 31
0.0
  0
LINE
  5
233F
330
1E
100
AcDbEntity
  8
7
100
AcDbLine
 10
6.302165354330708
 20
5.951771653543307
 30
0.0
 11
6.302165354330708
 21
5.824803149606299
 31
0.0
  0
LINE
  5
2340
330
1E
100
AcDbEntity
  8
7
100
AcDbLine
 10
6.302165354330708
 20
5.824803149606299
 30
0.0
 11
6.34251968503937
 21
5.824803149606299
 31
0.0
  0
LINE
  5
2341
330
1E
100
AcDbEntity
  8
7
100
AcDbLine
 10
6.34251968503937
 20
5.824803149606299
 30
0.0
 11
6.34251968503937
 21
5.951771653543307
 31
0.0
  0
LINE
  5
2342
330
1E
100
AcDbEntity
  8
7
100
AcDbLine
 10
6.34251968503937
 20
5.951771653543307
 30
0.0
 11
6.302165354330708
 21
5.951771653543307
 31
0.0
  0
LINE
  5
2343
330
1E
100
AcDbEntity
  8
7
100
AcDbLine
 10
5.39763779527559
 20
6.571850393700787
 30
0.0
 11
5.381889763779527
 21
6.571850393700787
 31
0.0
  0
LINE
  5
2344
330
1E
100
AcDbEntity
  8
7
100
AcDbLine
 10
5.381889763779527
 20
6.571850393700787
 30
0.0
 11
5.381889763779527
 21
6.608267716535433
 31
0.0
  0
LINE
  5
2345
330
1E
100
AcDbEntity
  8
7
100
AcDbLine
 10
5.58759842519685
 20
6.608267716535433
 30
0.0
 11
5.58759842519685
 21
6.571850393700787
 31
0.0
  0
LINE
  5
2346
330
1E
100
AcDbEntity
  8
7
100
AcDbLine
 10
5.58759842519685
 20
6.571850393700787
 30
0.0
 11
5.571850393700787
 21
6.571850393700787
 31
0.0
  0
LINE
  5
2347
330
1E
100
AcDbEntity
  8
7
100
AcDbLine
 10
6.032480314960629
 20
6.571850393700787
 30
0.0
 11
6.017716535433071
 21
6.571850393700787
 31
0.0
  0
LINE
  5
2348
330
1E
100
AcDbEntity
  8
7
100
AcDbLine
 10
6.017716535433071
 20
6.571850393700787
 30
0.0
 11
6.016732283464566
 21
6.608267716535433
 31
0.0
  0
LINE
  5
2349
330
1E
100
AcDbEntity
  8
7
100
AcDbLine
 10
6.222440944881889
 20
6.608267716535433
 30
0.0
 11
6.222440944881889
 21
6.571850393700787
 31
0.0
  0
LINE
  5
234A
330
1E
100
AcDbEntity
  8
7
100
AcDbLine
 10
6.222440944881889
 20
6.571850393700787
 30
0.0
 11
6.20767716535433
 21
6.571850393700787
 31
0.0
  0
LINE
  5
234B
330
1E
100
AcDbEntity
  8
7
100
AcDbLine
 10
5.39763779527559
 20
6.506889763779527
 30
0.0
 11
5.39763779527559
 21
6.504921259842519
 31
0.0
  0
LINE
  5
234C
330
1E
100
AcDbEntity
  8
7
100
AcDbLine
 10
5.39763779527559
 20
6.504921259842519
 30
0.0
 11
5.39763779527559
 21
6.503937007874015
 31
0.0
  0
LINE
  5
234D
330
1E
100
AcDbEntity
  8
7
100
AcDbLine
 10
5.571850393700787
 20
6.506889763779527
 30
0.0
 11
5.571850393700787
 21
6.504921259842519
 31
0.0
  0
LINE
  5
234E
330
1E
100
AcDbEntity
  8
7
100
AcDbLine
 10
5.571850393700787
 20
6.504921259842519
 30
0.0
 11
5.571850393700787
 21
6.503937007874015
 31
0.0
  0
LINE
  5
234F
330
1E
100
AcDbEntity
  8
7
100
AcDbLine
 10
6.20767716535433
 20
6.506889763779527
 30
0.0
 11
6.20767716535433
 21
6.504921259842519
 31
0.0
  0
LINE
  5
2350
330
1E
100
AcDbEntity
  8
7
100
AcDbLine
 10
6.20767716535433
 20
6.504921259842519
 30
0.0
 11
6.20767716535433
 21
6.503937007874015
 31
0.0
  0
LINE
  5
2351
330
1E
100
AcDbEntity
  8
7
100
AcDbLine
 10
6.303149606299212
 20
5.265748031496062
 30
0.0
 11
5.302165354330708
 21
5.265748031496062
 31
0.0
  0
LINE
  5
2352
330
1E
100
AcDbEntity
  8
7
100
AcDbLine
 10
5.302165354330708
 20
5.265748031496062
 30
0.0
 11
5.299212598425197
 21
5.263779527559055
 31
0.0
  0
LINE
  5
2353
330
1E
100
AcDbEntity
  8
7
100
AcDbLine
 10
6.412401574803149
 20
5.813976377952755
 30
0.0
 11
6.46751968503937
 21
5.813976377952755
 31
0.0
  0
LINE
  5
2354
330
1E
100
AcDbEntity
  8
7
100
AcDbLine
 10
6.46751968503937
 20
5.813976377952755
 30
0.0
 11
6.46751968503937
 21
5.913385826771653
 31
0.0
  0
LINE
  5
2355
330
1E
100
AcDbEntity
  8
7
100
AcDbLine
 10
5.532480314960629
 20
5.441929133858267
 30
0.0
 11
5.520669291338582
 21
5.444881889763779
 31
0.0
  0
LINE
  5
2356
330
1E
100
AcDbEntity
  8
7
100
AcDbLine
 10
5.520669291338582
 20
5.444881889763779
 30
0.0
 11
5.509842519685039
 21
5.453740157480314
 31
0.0
  0
LINE
  5
2357
330
1E
100
AcDbEntity
  8
7
100
AcDbLine
 10
5.509842519685039
 20
5.453740157480314
 30
0.0
 11
5.500984251968503
 21
5.466535433070865
 31
0.0
  0
LINE
  5
2358
330
1E
100
AcDbEntity
  8
7
100
AcDbLine
 10
5.500984251968503
 20
5.466535433070865
 30
0.0
 11
5.49507874015748
 21
5.483267716535433
 31
0.0
  0
LINE
  5
2359
330
1E
100
AcDbEntity
  8
7
100
AcDbLine
 10
5.49507874015748
 20
5.483267716535433
 30
0.0
 11
5.492125984251968
 21
5.502952755905512
 31
0.0
  0
LINE
  5
235A
330
1E
100
AcDbEntity
  8
7
100
AcDbLine
 10
6.112204724409449
 20
5.502952755905512
 30
0.0
 11
6.109251968503937
 21
5.483267716535433
 31
0.0
  0
LINE
  5
235B
330
1E
100
AcDbEntity
  8
7
100
AcDbLine
 10
6.109251968503937
 20
5.483267716535433
 30
0.0
 11
6.103346456692913
 21
5.466535433070865
 31
0.0
  0
LINE
  5
235C
330
1E
100
AcDbEntity
  8
7
100
AcDbLine
 10
6.103346456692913
 20
5.466535433070865
 30
0.0
 11
6.094488188976377
 21
5.453740157480314
 31
0.0
  0
LINE
  5
235D
330
1E
100
AcDbEntity
  8
7
100
AcDbLine
 10
6.094488188976377
 20
5.453740157480314
 30
0.0
 11
6.083661417322834
 21
5.444881889763779
 31
0.0
  0
LINE
  5
235E
330
1E
100
AcDbEntity
  8
7
100
AcDbLine
 10
6.083661417322834
 20
5.444881889763779
 30
0.0
 11
6.071850393700787
 21
5.441929133858267
 31
0.0
  0
LINE
  5
235F
330
1E
100
AcDbEntity
  8
7
100
AcDbLine
 10
5.199803149606299
 20
5.362204724409449
 30
0.0
 11
5.201771653543307
 21
5.364173228346456
 31
0.0
  0
LINE
  5
2360
330
1E
100
AcDbEntity
  8
7
100
AcDbLine
 10
5.201771653543307
 20
5.364173228346456
 30
0.0
 11
5.191929133858267
 21
5.911417322834645
 31
0.0
  0
LINE
  5
2361
330
1E
100
AcDbEntity
  8
7
100
AcDbLine
 10
5.191929133858267
 20
5.911417322834645
 30
0.0
 11
5.188976377952755
 21
6.046259842519685
 31
0.0
  0
LINE
  5
2362
330
1E
100
AcDbEntity
  8
7
100
AcDbLine
 10
6.404527559055118
 20
5.362204724409449
 30
0.0
 11
6.399606299212598
 21
5.331692913385826
 31
0.0
  0
LINE
  5
2363
330
1E
100
AcDbEntity
  8
7
100
AcDbLine
 10
6.399606299212598
 20
5.331692913385826
 30
0.0
 11
6.384842519685039
 21
5.304133858267716
 31
0.0
  0
LINE
  5
2364
330
1E
100
AcDbEntity
  8
7
100
AcDbLine
 10
6.384842519685039
 20
5.304133858267716
 30
0.0
 11
6.363188976377952
 21
5.282480314960629
 31
0.0
  0
LINE
  5
2365
330
1E
100
AcDbEntity
  8
7
100
AcDbLine
 10
6.363188976377952
 20
5.282480314960629
 30
0.0
 11
6.335629921259842
 21
5.268700787401574
 31
0.0
  0
LINE
  5
2366
330
1E
100
AcDbEntity
  8
7
100
AcDbLine
 10
6.199803149606299
 20
5.463582677165354
 30
0.0
 11
6.203740157480314
 21
5.448818897637795
 31
0.0
  0
LINE
  5
2367
330
1E
100
AcDbEntity
  8
7
100
AcDbLine
 10
6.203740157480314
 20
5.448818897637795
 30
0.0
 11
6.214566929133858
 21
5.437992125984251
 31
0.0
  0
LINE
  5
2368
330
1E
100
AcDbEntity
  8
7
100
AcDbLine
 10
6.214566929133858
 20
5.437992125984251
 30
0.0
 11
6.229330708661417
 21
5.434055118110236
 31
0.0
  0
LINE
  5
2369
330
1E
100
AcDbEntity
  8
7
100
AcDbLine
 10
6.229330708661417
 20
5.434055118110236
 30
0.0
 11
6.244094488188976
 21
5.437992125984251
 31
0.0
  0
LINE
  5
236A
330
1E
100
AcDbEntity
  8
7
100
AcDbLine
 10
6.244094488188976
 20
5.437992125984251
 30
0.0
 11
6.254921259842519
 21
5.448818897637795
 31
0.0
  0
LINE
  5
236B
330
1E
100
AcDbEntity
  8
7
100
AcDbLine
 10
6.254921259842519
 20
5.448818897637795
 30
0.0
 11
6.258858267716535
 21
5.463582677165354
 31
0.0
  0
LINE
  5
236C
330
1E
100
AcDbEntity
  8
7
100
AcDbLine
 10
5.345472440944882
 20
5.463582677165354
 30
0.0
 11
5.349409448818898
 21
5.448818897637795
 31
0.0
  0
LINE
  5
236D
330
1E
100
AcDbEntity
  8
7
100
AcDbLine
 10
5.349409448818898
 20
5.448818897637795
 30
0.0
 11
5.36023622047244
 21
5.437992125984251
 31
0.0
  0
LINE
  5
236E
330
1E
100
AcDbEntity
  8
7
100
AcDbLine
 10
5.36023622047244
 20
5.437992125984251
 30
0.0
 11
5.375
 21
5.434055118110236
 31
0.0
  0
LINE
  5
236F
330
1E
100
AcDbEntity
  8
7
100
AcDbLine
 10
5.375
 20
5.434055118110236
 30
0.0
 11
5.389763779527559
 21
5.437992125984251
 31
0.0
  0
LINE
  5
2370
330
1E
100
AcDbEntity
  8
7
100
AcDbLine
 10
5.389763779527559
 20
5.437992125984251
 30
0.0
 11
5.400590551181102
 21
5.448818897637795
 31
0.0
  0
LINE
  5
2371
330
1E
100
AcDbEntity
  8
7
100
AcDbLine
 10
5.400590551181102
 20
5.448818897637795
 30
0.0
 11
5.404527559055118
 21
5.463582677165354
 31
0.0
  0
LINE
  5
2372
330
1E
100
AcDbEntity
  8
7
100
AcDbLine
 10
5.299212598425197
 20
5.263779527559055
 30
0.0
 11
5.268700787401574
 21
5.268700787401574
 31
0.0
  0
LINE
  5
2373
330
1E
100
AcDbEntity
  8
7
100
AcDbLine
 10
5.268700787401574
 20
5.268700787401574
 30
0.0
 11
5.241141732283464
 21
5.282480314960629
 31
0.0
  0
LINE
  5
2374
330
1E
100
AcDbEntity
  8
7
100
AcDbLine
 10
5.241141732283464
 20
5.282480314960629
 30
0.0
 11
5.219488188976377
 21
5.304133858267716
 31
0.0
  0
LINE
  5
2375
330
1E
100
AcDbEntity
  8
7
100
AcDbLine
 10
5.219488188976377
 20
5.304133858267716
 30
0.0
 11
5.204724409448818
 21
5.331692913385826
 31
0.0
  0
LINE
  5
2376
330
1E
100
AcDbEntity
  8
7
100
AcDbLine
 10
5.204724409448818
 20
5.331692913385826
 30
0.0
 11
5.199803149606299
 21
5.362204724409449
 31
0.0
  0
LINE
  5
2377
330
1E
100
AcDbEntity
  8
7
100
AcDbLine
 10
6.416338582677165
 20
6.037401574803149
 30
0.0
 11
6.415354330708661
 21
6.046259842519685
 31
0.0
  0
LINE
  5
2378
330
1E
100
AcDbEntity
  8
7
100
AcDbLine
 10
6.415354330708661
 20
6.046259842519685
 30
0.0
 11
6.412401574803149
 21
5.911417322834645
 31
0.0
  0
LINE
  5
2379
330
1E
100
AcDbEntity
  8
7
100
AcDbLine
 10
6.412401574803149
 20
5.911417322834645
 30
0.0
 11
6.40255905511811
 21
5.364173228346456
 31
0.0
  0
LINE
  5
237A
330
1E
100
AcDbEntity
  8
7
100
AcDbLine
 10
6.40255905511811
 20
5.364173228346456
 30
0.0
 11
6.404527559055118
 21
5.362204724409449
 31
0.0
  0
LINE
  5
237B
330
1E
100
AcDbEntity
  8
7
100
AcDbLine
 10
6.654527559055118
 20
5.913385826771653
 30
0.0
 11
6.650590551181102
 21
5.913385826771653
 31
0.0
  0
LINE
  5
237C
330
1E
100
AcDbEntity
  8
7
100
AcDbLine
 10
6.650590551181102
 20
5.913385826771653
 30
0.0
 11
6.638779527559055
 21
5.913385826771653
 31
0.0
  0
LINE
  5
237D
330
1E
100
AcDbEntity
  8
7
100
AcDbLine
 10
6.638779527559055
 20
5.913385826771653
 30
0.0
 11
6.62007874015748
 21
5.913385826771653
 31
0.0
  0
LINE
  5
237E
330
1E
100
AcDbEntity
  8
7
100
AcDbLine
 10
6.62007874015748
 20
5.913385826771653
 30
0.0
 11
6.594488188976377
 21
5.913385826771653
 31
0.0
  0
LINE
  5
237F
330
1E
100
AcDbEntity
  8
7
100
AcDbLine
 10
6.594488188976377
 20
5.913385826771653
 30
0.0
 11
6.565944881889763
 21
5.913385826771653
 31
0.0
  0
LINE
  5
2380
330
1E
100
AcDbEntity
  8
7
100
AcDbLine
 10
6.565944881889763
 20
5.913385826771653
 30
0.0
 11
6.534448818897637
 21
5.913385826771653
 31
0.0
  0
LINE
  5
2381
330
1E
100
AcDbEntity
  8
7
100
AcDbLine
 10
5.069881889763779
 20
5.913385826771653
 30
0.0
 11
5.038385826771653
 21
5.913385826771653
 31
0.0
  0
LINE
  5
2382
330
1E
100
AcDbEntity
  8
7
100
AcDbLine
 10
5.038385826771653
 20
5.913385826771653
 30
0.0
 11
5.009842519685039
 21
5.913385826771653
 31
0.0
  0
LINE
  5
2383
330
1E
100
AcDbEntity
  8
7
100
AcDbLine
 10
5.009842519685039
 20
5.913385826771653
 30
0.0
 11
4.98523622047244
 21
5.913385826771653
 31
0.0
  0
LINE
  5
2384
330
1E
100
AcDbEntity
  8
7
100
AcDbLine
 10
4.98523622047244
 20
5.913385826771653
 30
0.0
 11
4.965551181102362
 21
5.913385826771653
 31
0.0
  0
LINE
  5
2385
330
1E
100
AcDbEntity
  8
7
100
AcDbLine
 10
4.965551181102362
 20
5.913385826771653
 30
0.0
 11
4.953740157480314
 21
5.913385826771653
 31
0.0
  0
LINE
  5
2386
330
1E
100
AcDbEntity
  8
7
100
AcDbLine
 10
4.953740157480314
 20
5.913385826771653
 30
0.0
 11
4.949803149606299
 21
5.913385826771653
 31
0.0
  0
LINE
  5
2387
330
1E
100
AcDbEntity
  8
7
100
AcDbLine
 10
6.437992125984251
 20
6.659448818897637
 30
0.0
 11
5.166338582677165
 21
6.659448818897637
 31
0.0
  0
LINE
  5
2388
330
1E
100
AcDbEntity
  8
7
100
AcDbLine
 10
5.166338582677165
 20
6.659448818897637
 30
0.0
 11
5.151574803149606
 21
6.313976377952755
 31
0.0
  0
LINE
  5
2389
330
1E
100
AcDbEntity
  8
7
100
AcDbLine
 10
6.12007874015748
 20
5.913385826771653
 30
0.0
 11
6.112204724409449
 21
5.920275590551181
 31
0.0
  0
LINE
  5
238A
330
1E
100
AcDbEntity
  8
7
100
AcDbLine
 10
6.112204724409449
 20
5.920275590551181
 30
0.0
 11
6.112204724409449
 21
5.502952755905512
 31
0.0
  0
LINE
  5
238B
330
1E
100
AcDbEntity
  8
7
100
AcDbLine
 10
6.112204724409449
 20
5.502952755905512
 30
0.0
 11
6.123031496062992
 21
5.759842519685039
 31
0.0
  0
LINE
  5
238C
330
1E
100
AcDbEntity
  8
7
100
AcDbLine
 10
6.123031496062992
 20
5.759842519685039
 30
0.0
 11
6.123031496062992
 21
5.779527559055118
 31
0.0
  0
LINE
  5
238D
330
1E
100
AcDbEntity
  8
7
100
AcDbLine
 10
6.123031496062992
 20
5.779527559055118
 30
0.0
 11
6.121062992125984
 21
5.797244094488188
 31
0.0
  0
LINE
  5
238E
330
1E
100
AcDbEntity
  8
7
100
AcDbLine
 10
6.121062992125984
 20
5.797244094488188
 30
0.0
 11
6.12007874015748
 21
5.913385826771653
 31
0.0
  0
LINE
  5
238F
330
1E
100
AcDbEntity
  8
7
100
AcDbLine
 10
6.198818897637795
 20
5.959645669291338
 30
0.0
 11
6.198818897637795
 21
5.940944881889763
 31
0.0
  0
LINE
  5
2390
330
1E
100
AcDbEntity
  8
7
100
AcDbLine
 10
6.198818897637795
 20
5.940944881889763
 30
0.0
 11
6.197834645669291
 21
5.926181102362204
 31
0.0
  0
LINE
  5
2391
330
1E
100
AcDbEntity
  8
7
100
AcDbLine
 10
6.197834645669291
 20
5.926181102362204
 30
0.0
 11
6.197834645669291
 21
5.920275590551181
 31
0.0
  0
LINE
  5
2392
330
1E
100
AcDbEntity
  8
7
100
AcDbLine
 10
6.197834645669291
 20
5.920275590551181
 30
0.0
 11
6.195866141732283
 21
5.913385826771653
 31
0.0
  0
LINE
  5
2393
330
1E
100
AcDbEntity
  8
7
100
AcDbLine
 10
6.194881889763779
 20
5.779527559055118
 30
0.0
 11
6.194881889763779
 21
5.759842519685039
 31
0.0
  0
LINE
  5
2394
330
1E
100
AcDbEntity
  8
7
100
AcDbLine
 10
6.194881889763779
 20
5.759842519685039
 30
0.0
 11
6.198818897637795
 21
5.441929133858267
 31
0.0
  0
LINE
  5
2395
330
1E
100
AcDbEntity
  8
7
100
AcDbLine
 10
6.195866141732283
 20
5.913385826771653
 30
0.0
 11
6.195866141732283
 21
5.797244094488188
 31
0.0
  0
LINE
  5
2396
330
1E
100
AcDbEntity
  8
7
100
AcDbLine
 10
6.195866141732283
 20
5.797244094488188
 30
0.0
 11
6.194881889763779
 21
5.779527559055118
 31
0.0
  0
LINE
  5
2397
330
1E
100
AcDbEntity
  8
7
100
AcDbLine
 10
5.481299212598425
 20
5.759842519685039
 30
0.0
 11
5.481299212598425
 21
5.779527559055118
 31
0.0
  0
LINE
  5
2398
330
1E
100
AcDbEntity
  8
7
100
AcDbLine
 10
5.481299212598425
 20
5.779527559055118
 30
0.0
 11
5.409448818897637
 21
5.779527559055118
 31
0.0
  0
LINE
  5
2399
330
1E
100
AcDbEntity
  8
7
100
AcDbLine
 10
5.408464566929134
 20
5.913385826771653
 30
0.0
 11
5.406496062992125
 21
5.920275590551181
 31
0.0
  0
LINE
  5
239A
330
1E
100
AcDbEntity
  8
7
100
AcDbLine
 10
5.406496062992125
 20
5.920275590551181
 30
0.0
 11
5.406496062992125
 21
5.926181102362204
 31
0.0
  0
LINE
  5
239B
330
1E
100
AcDbEntity
  8
7
100
AcDbLine
 10
5.406496062992125
 20
5.926181102362204
 30
0.0
 11
5.406496062992125
 21
5.940944881889763
 31
0.0
  0
LINE
  5
239C
330
1E
100
AcDbEntity
  8
7
100
AcDbLine
 10
5.406496062992125
 20
5.940944881889763
 30
0.0
 11
5.406496062992125
 21
5.959645669291338
 31
0.0
  0
LINE
  5
239D
330
1E
100
AcDbEntity
  8
7
100
AcDbLine
 10
5.999015748031496
 20
5.948818897637795
 30
0.0
 11
5.605314960629921
 21
5.948818897637795
 31
0.0
  0
LINE
  5
239E
330
1E
100
AcDbEntity
  8
7
100
AcDbLine
 10
5.605314960629921
 20
5.948818897637795
 30
0.0
 11
5.59251968503937
 21
5.915354330708661
 31
0.0
  0
LINE
  5
239F
330
1E
100
AcDbEntity
  8
7
100
AcDbLine
 10
5.59251968503937
 20
5.915354330708661
 30
0.0
 11
5.586614173228346
 21
5.900590551181102
 31
0.0
  0
LINE
  5
23A0
330
1E
100
AcDbEntity
  8
7
100
AcDbLine
 10
6.02263779527559
 20
5.982283464566929
 30
0.0
 11
6.028543307086613
 21
5.980314960629921
 31
0.0
  0
LINE
  5
23A1
330
1E
100
AcDbEntity
  8
7
100
AcDbLine
 10
6.028543307086613
 20
5.980314960629921
 30
0.0
 11
6.030511811023622
 21
5.974409448818898
 31
0.0
  0
LINE
  5
23A2
330
1E
100
AcDbEntity
  8
7
100
AcDbLine
 10
6.030511811023622
 20
5.974409448818898
 30
0.0
 11
6.030511811023622
 21
5.872047244094487
 31
0.0
  0
LINE
  5
23A3
330
1E
100
AcDbEntity
  8
7
100
AcDbLine
 10
6.030511811023622
 20
5.872047244094487
 30
0.0
 11
6.028543307086613
 21
5.865157480314961
 31
0.0
  0
LINE
  5
23A4
330
1E
100
AcDbEntity
  8
7
100
AcDbLine
 10
6.028543307086613
 20
5.865157480314961
 30
0.0
 11
6.02263779527559
 21
5.862204724409449
 31
0.0
  0
LINE
  5
23A5
330
1E
100
AcDbEntity
  8
7
100
AcDbLine
 10
6.071850393700787
 20
5.441929133858267
 30
0.0
 11
6.071850393700787
 21
5.959645669291338
 31
0.0
  0
LINE
  5
23A6
330
1E
100
AcDbEntity
  8
7
100
AcDbLine
 10
6.071850393700787
 20
5.959645669291338
 30
0.0
 11
6.198818897637795
 21
5.959645669291338
 31
0.0
  0
LINE
  5
23A7
330
1E
100
AcDbEntity
  8
7
100
AcDbLine
 10
6.198818897637795
 20
5.959645669291338
 30
0.0
 11
6.198818897637795
 21
5.982283464566929
 31
0.0
  0
LINE
  5
23A8
330
1E
100
AcDbEntity
  8
7
100
AcDbLine
 10
6.198818897637795
 20
5.463582677165354
 30
0.0
 11
6.202755905511811
 21
5.448818897637795
 31
0.0
  0
LINE
  5
23A9
330
1E
100
AcDbEntity
  8
7
100
AcDbLine
 10
6.202755905511811
 20
5.448818897637795
 30
0.0
 11
6.213582677165354
 21
5.437007874015748
 31
0.0
  0
LINE
  5
23AA
330
1E
100
AcDbEntity
  8
7
100
AcDbLine
 10
6.213582677165354
 20
5.437007874015748
 30
0.0
 11
6.229330708661417
 21
5.433070866141732
 31
0.0
  0
LINE
  5
23AB
330
1E
100
AcDbEntity
  8
7
100
AcDbLine
 10
6.229330708661417
 20
5.433070866141732
 30
0.0
 11
6.244094488188976
 21
5.437007874015748
 31
0.0
  0
LINE
  5
23AC
330
1E
100
AcDbEntity
  8
7
100
AcDbLine
 10
6.244094488188976
 20
5.437007874015748
 30
0.0
 11
6.255905511811024
 21
5.447834645669291
 31
0.0
  0
LINE
  5
23AD
330
1E
100
AcDbEntity
  8
7
100
AcDbLine
 10
6.255905511811024
 20
5.447834645669291
 30
0.0
 11
6.259842519685039
 21
5.463582677165354
 31
0.0
  0
LINE
  5
23AE
330
1E
100
AcDbEntity
  8
7
100
AcDbLine
 10
6.302165354330708
 20
5.737204724409449
 30
0.0
 11
6.299212598425197
 21
5.740157480314961
 31
0.0
  0
LINE
  5
23AF
330
1E
100
AcDbEntity
  8
7
100
AcDbLine
 10
6.299212598425197
 20
5.740157480314961
 30
0.0
 11
6.297244094488188
 21
5.747047244094487
 31
0.0
  0
LINE
  5
23B0
330
1E
100
AcDbEntity
  8
7
100
AcDbLine
 10
6.347440944881889
 20
5.747047244094487
 30
0.0
 11
6.345472440944881
 21
5.740157480314961
 31
0.0
  0
LINE
  5
23B1
330
1E
100
AcDbEntity
  8
7
100
AcDbLine
 10
6.345472440944881
 20
5.740157480314961
 30
0.0
 11
6.34251968503937
 21
5.737204724409449
 31
0.0
  0
LINE
  5
23B2
330
1E
100
AcDbEntity
  8
7
100
AcDbLine
 10
5.224409448818898
 20
5.913385826771653
 30
0.0
 11
5.223425196850393
 21
5.913385826771653
 31
0.0
  0
LINE
  5
23B3
330
1E
100
AcDbEntity
  8
7
100
AcDbLine
 10
5.223425196850393
 20
5.913385826771653
 30
0.0
 11
5.234251968503937
 21
5.297244094488188
 31
0.0
  0
LINE
  5
23B4
330
1E
100
AcDbEntity
  8
7
100
AcDbLine
 10
5.234251968503937
 20
5.297244094488188
 30
0.0
 11
6.37007874015748
 21
5.297244094488188
 31
0.0
  0
LINE
  5
23B5
330
1E
100
AcDbEntity
  8
7
100
AcDbLine
 10
6.37007874015748
 20
5.297244094488188
 30
0.0
 11
6.380905511811024
 21
5.913385826771653
 31
0.0
  0
LINE
  5
23B6
330
1E
100
AcDbEntity
  8
7
100
AcDbLine
 10
5.261811023622047
 20
5.737204724409449
 30
0.0
 11
5.258858267716535
 21
5.740157480314961
 31
0.0
  0
LINE
  5
23B7
330
1E
100
AcDbEntity
  8
7
100
AcDbLine
 10
5.258858267716535
 20
5.740157480314961
 30
0.0
 11
5.256889763779527
 21
5.747047244094487
 31
0.0
  0
LINE
  5
23B8
330
1E
100
AcDbEntity
  8
7
100
AcDbLine
 10
5.307086614173228
 20
5.747047244094487
 30
0.0
 11
5.306102362204724
 21
5.740157480314961
 31
0.0
  0
LINE
  5
23B9
330
1E
100
AcDbEntity
  8
7
100
AcDbLine
 10
5.306102362204724
 20
5.740157480314961
 30
0.0
 11
5.302165354330708
 21
5.737204724409449
 31
0.0
  0
LINE
  5
23BA
330
1E
100
AcDbEntity
  8
7
100
AcDbLine
 10
5.389763779527559
 20
5.437007874015748
 30
0.0
 11
5.401574803149606
 21
5.447834645669291
 31
0.0
  0
LINE
  5
23BB
330
1E
100
AcDbEntity
  8
7
100
AcDbLine
 10
5.401574803149606
 20
5.447834645669291
 30
0.0
 11
5.405511811023622
 21
5.463582677165354
 31
0.0
  0
LINE
  5
23BC
330
1E
100
AcDbEntity
  8
7
100
AcDbLine
 10
5.344488188976377
 20
5.463582677165354
 30
0.0
 11
5.348425196850393
 21
5.448818897637795
 31
0.0
  0
LINE
  5
23BD
330
1E
100
AcDbEntity
  8
7
100
AcDbLine
 10
5.348425196850393
 20
5.448818897637795
 30
0.0
 11
5.359251968503937
 21
5.437007874015748
 31
0.0
  0
LINE
  5
23BE
330
1E
100
AcDbEntity
  8
7
100
AcDbLine
 10
5.359251968503937
 20
5.437007874015748
 30
0.0
 11
5.375
 21
5.433070866141732
 31
0.0
  0
LINE
  5
23BF
330
1E
100
AcDbEntity
  8
7
100
AcDbLine
 10
5.375
 20
5.433070866141732
 30
0.0
 11
5.389763779527559
 21
5.437007874015748
 31
0.0
  0
LINE
  5
23C0
330
1E
100
AcDbEntity
  8
7
100
AcDbLine
 10
5.406496062992125
 20
5.959645669291338
 30
0.0
 11
5.532480314960629
 21
5.959645669291338
 31
0.0
  0
LINE
  5
23C1
330
1E
100
AcDbEntity
  8
7
100
AcDbLine
 10
5.532480314960629
 20
5.959645669291338
 30
0.0
 11
5.532480314960629
 21
5.441929133858267
 31
0.0
  0
LINE
  5
23C2
330
1E
100
AcDbEntity
  8
7
100
AcDbLine
 10
5.532480314960629
 20
5.441929133858267
 30
0.0
 11
5.406496062992125
 21
5.441929133858267
 31
0.0
  0
LINE
  5
23C3
330
1E
100
AcDbEntity
  8
7
100
AcDbLine
 10
5.581692913385826
 20
5.862204724409449
 30
0.0
 11
5.576771653543307
 21
5.865157480314961
 31
0.0
  0
LINE
  5
23C4
330
1E
100
AcDbEntity
  8
7
100
AcDbLine
 10
5.576771653543307
 20
5.865157480314961
 30
0.0
 11
5.573818897637795
 21
5.872047244094487
 31
0.0
  0
LINE
  5
23C5
330
1E
100
AcDbEntity
  8
7
100
AcDbLine
 10
5.573818897637795
 20
5.872047244094487
 30
0.0
 11
5.573818897637795
 21
5.974409448818898
 31
0.0
  0
LINE
  5
23C6
330
1E
100
AcDbEntity
  8
7
100
AcDbLine
 10
5.573818897637795
 20
5.974409448818898
 30
0.0
 11
5.576771653543307
 21
5.980314960629921
 31
0.0
  0
LINE
  5
23C7
330
1E
100
AcDbEntity
  8
7
100
AcDbLine
 10
5.576771653543307
 20
5.980314960629921
 30
0.0
 11
5.581692913385826
 21
5.982283464566929
 31
0.0
  0
LINE
  5
23C8
330
1E
100
AcDbEntity
  8
7
100
AcDbLine
 10
6.497047244094487
 20
6.62007874015748
 30
0.0
 11
6.492125984251968
 21
6.641732283464566
 31
0.0
  0
LINE
  5
23C9
330
1E
100
AcDbEntity
  8
7
100
AcDbLine
 10
6.492125984251968
 20
6.641732283464566
 30
0.0
 11
6.478346456692913
 21
6.659448818897637
 31
0.0
  0
LINE
  5
23CA
330
1E
100
AcDbEntity
  8
7
100
AcDbLine
 10
6.478346456692913
 20
6.659448818897637
 30
0.0
 11
6.459645669291338
 21
6.672244094488188
 31
0.0
  0
LINE
  5
23CB
330
1E
100
AcDbEntity
  8
7
100
AcDbLine
 10
5.166338582677165
 20
6.676181102362204
 30
0.0
 11
5.144685039370078
 21
6.672244094488188
 31
0.0
  0
LINE
  5
23CC
330
1E
100
AcDbEntity
  8
7
100
AcDbLine
 10
5.144685039370078
 20
6.672244094488188
 30
0.0
 11
5.125984251968503
 21
6.659448818897637
 31
0.0
  0
LINE
  5
23CD
330
1E
100
AcDbEntity
  8
7
100
AcDbLine
 10
5.125984251968503
 20
6.659448818897637
 30
0.0
 11
5.112204724409449
 21
6.641732283464566
 31
0.0
  0
LINE
  5
23CE
330
1E
100
AcDbEntity
  8
7
100
AcDbLine
 10
5.112204724409449
 20
6.641732283464566
 30
0.0
 11
5.107283464566929
 21
6.62007874015748
 31
0.0
  0
LINE
  5
23CF
330
1E
100
AcDbEntity
  8
7
100
AcDbLine
 10
3.881889763779527
 20
5.968503937007874
 30
0.0
 11
3.879921259842519
 21
5.974409448818898
 31
0.0
  0
LINE
  5
23D0
330
1E
100
AcDbEntity
  8
7
100
AcDbLine
 10
3.879921259842519
 20
5.974409448818898
 30
0.0
 11
3.874015748031496
 21
5.976377952755905
 31
0.0
  0
LINE
  5
23D1
330
1E
100
AcDbEntity
  8
7
100
AcDbLine
 10
3.875
 20
5.955708661417323
 30
0.0
 11
3.879921259842519
 21
5.955708661417323
 31
0.0
  0
LINE
  5
23D2
330
1E
100
AcDbEntity
  8
7
100
AcDbLine
 10
3.879921259842519
 20
5.955708661417323
 30
0.0
 11
3.881889763779527
 21
5.955708661417323
 31
0.0
  0
LINE
  5
23D3
330
1E
100
AcDbEntity
  8
7
100
AcDbLine
 10
3.875984251968504
 20
5.947834645669291
 30
0.0
 11
3.879921259842519
 21
5.950787401574802
 31
0.0
  0
LINE
  5
23D4
330
1E
100
AcDbEntity
  8
7
100
AcDbLine
 10
3.879921259842519
 20
5.950787401574802
 30
0.0
 11
3.881889763779527
 21
5.955708661417323
 31
0.0
  0
LINE
  5
23D5
330
1E
100
AcDbEntity
  8
7
100
AcDbLine
 10
3.875
 20
5.968503937007874
 30
0.0
 11
3.875
 21
5.974409448818898
 31
0.0
  0
LINE
  5
23D6
330
1E
100
AcDbEntity
  8
7
100
AcDbLine
 10
3.875
 20
5.974409448818898
 30
0.0
 11
3.874015748031496
 21
5.977362204724409
 31
0.0
  0
LINE
  5
23D7
330
1E
100
AcDbEntity
  8
7
100
AcDbLine
 10
3.875984251968504
 20
5.948818897637795
 30
0.0
 11
3.875984251968504
 21
5.950787401574802
 31
0.0
  0
LINE
  5
23D8
330
1E
100
AcDbEntity
  8
7
100
AcDbLine
 10
3.875984251968504
 20
5.950787401574802
 30
0.0
 11
3.875
 21
5.955708661417323
 31
0.0
  0
LINE
  5
23D9
330
1E
100
AcDbEntity
  8
7
100
AcDbLine
 10
3.850393700787401
 20
5.949803149606299
 30
0.0
 11
3.875
 21
5.955708661417323
 31
0.0
  0
LINE
  5
23DA
330
1E
100
AcDbEntity
  8
7
100
AcDbLine
 10
3.875
 20
5.955708661417323
 30
0.0
 11
3.875
 21
5.968503937007874
 31
0.0
  0
LINE
  5
23DB
330
1E
100
AcDbEntity
  8
7
100
AcDbLine
 10
3.875
 20
5.968503937007874
 30
0.0
 11
3.849409448818897
 21
5.969488188976377
 31
0.0
  0
LINE
  5
23DC
330
1E
100
AcDbEntity
  8
7
100
AcDbLine
 10
3.650590551181102
 20
5.296259842519685
 30
0.0
 11
3.634842519685039
 21
5.279527559055118
 31
0.0
  0
LINE
  5
23DD
330
1E
100
AcDbEntity
  8
7
100
AcDbLine
 10
3.634842519685039
 20
5.279527559055118
 30
0.0
 11
3.625
 21
5.269685039370078
 31
0.0
  0
LINE
  5
23DE
330
1E
100
AcDbEntity
  8
7
100
AcDbLine
 10
3.625
 20
5.269685039370078
 30
0.0
 11
3.622047244094488
 21
5.265748031496062
 31
0.0
  0
LINE
  5
23DF
330
1E
100
AcDbEntity
  8
7
100
AcDbLine
 10
3.622047244094488
 20
5.364173228346456
 30
0.0
 11
3.625
 21
5.338582677165354
 31
0.0
  0
LINE
  5
23E0
330
1E
100
AcDbEntity
  8
7
100
AcDbLine
 10
3.625
 20
5.338582677165354
 30
0.0
 11
3.634842519685039
 21
5.315944881889763
 31
0.0
  0
LINE
  5
23E1
330
1E
100
AcDbEntity
  8
7
100
AcDbLine
 10
3.634842519685039
 20
5.315944881889763
 30
0.0
 11
3.650590551181102
 21
5.296259842519685
 31
0.0
  0
LINE
  5
23E2
330
1E
100
AcDbEntity
  8
7
100
AcDbLine
 10
3.650590551181102
 20
5.296259842519685
 30
0.0
 11
3.651574803149606
 21
5.297244094488188
 31
0.0
  0
LINE
  5
23E3
330
1E
100
AcDbEntity
  8
7
100
AcDbLine
 10
1.233267716535432
 20
5.908464566929134
 30
0.0
 11
1.234251968503936
 21
5.908464566929134
 31
0.0
  0
LINE
  5
23E4
330
1E
100
AcDbEntity
  8
7
100
AcDbLine
 10
1.234251968503936
 20
5.908464566929134
 30
0.0
 11
1.238188976377952
 21
5.908464566929134
 31
0.0
  0
LINE
  5
23E5
330
1E
100
AcDbEntity
  8
7
100
AcDbLine
 10
1.234251968503936
 20
5.818897637795275
 30
0.0
 11
1.236220472440944
 21
5.818897637795275
 31
0.0
  0
LINE
  5
23E6
330
1E
100
AcDbEntity
  8
7
100
AcDbLine
 10
1.236220472440944
 20
5.818897637795275
 30
0.0
 11
1.239173228346456
 21
5.818897637795275
 31
0.0
  0
LINE
  5
23E7
330
1E
100
AcDbEntity
  8
7
100
AcDbLine
 10
1.234251968503936
 20
5.818897637795275
 30
0.0
 11
1.23523622047244
 21
5.81496062992126
 31
0.0
  0
LINE
  5
23E8
330
1E
100
AcDbEntity
  8
7
100
AcDbLine
 10
1.23523622047244
 20
5.81496062992126
 30
0.0
 11
1.239173228346456
 21
5.813976377952755
 31
0.0
  0
LINE
  5
23E9
330
1E
100
AcDbEntity
  8
7
100
AcDbLine
 10
1.239173228346456
 20
5.813976377952755
 30
0.0
 11
1.239173228346456
 21
5.81496062992126
 31
0.0
  0
LINE
  5
23EA
330
1E
100
AcDbEntity
  8
7
100
AcDbLine
 10
1.239173228346456
 20
5.81496062992126
 30
0.0
 11
1.239173228346456
 21
5.818897637795275
 31
0.0
  0
LINE
  5
23EB
330
1E
100
AcDbEntity
  8
7
100
AcDbLine
 10
1.27263779527559
 20
5.908464566929134
 30
0.0
 11
1.276574803149606
 21
5.908464566929134
 31
0.0
  0
LINE
  5
23EC
330
1E
100
AcDbEntity
  8
7
100
AcDbLine
 10
1.276574803149606
 20
5.908464566929134
 30
0.0
 11
1.27755905511811
 21
5.908464566929134
 31
0.0
  0
LINE
  5
23ED
330
1E
100
AcDbEntity
  8
7
100
AcDbLine
 10
1.271653543307086
 20
5.813976377952755
 30
0.0
 11
1.271653543307086
 21
5.81496062992126
 31
0.0
  0
LINE
  5
23EE
330
1E
100
AcDbEntity
  8
7
100
AcDbLine
 10
1.271653543307086
 20
5.81496062992126
 30
0.0
 11
1.271653543307086
 21
5.818897637795275
 31
0.0
  0
LINE
  5
23EF
330
1E
100
AcDbEntity
  8
7
100
AcDbLine
 10
1.271653543307086
 20
5.818897637795275
 30
0.0
 11
1.274606299212598
 21
5.818897637795275
 31
0.0
  0
LINE
  5
23F0
330
1E
100
AcDbEntity
  8
7
100
AcDbLine
 10
1.274606299212598
 20
5.818897637795275
 30
0.0
 11
1.276574803149606
 21
5.818897637795275
 31
0.0
  0
LINE
  5
23F1
330
1E
100
AcDbEntity
  8
7
100
AcDbLine
 10
1.271653543307086
 20
5.813976377952755
 30
0.0
 11
1.275590551181102
 21
5.81496062992126
 31
0.0
  0
LINE
  5
23F2
330
1E
100
AcDbEntity
  8
7
100
AcDbLine
 10
1.275590551181102
 20
5.81496062992126
 30
0.0
 11
1.276574803149606
 21
5.818897637795275
 31
0.0
  0
LINE
  5
23F3
330
1E
100
AcDbEntity
  8
7
100
AcDbLine
 10
3.700787401574803
 20
5.822834645669291
 30
0.0
 11
3.699803149606299
 21
5.823818897637795
 31
0.0
  0
LINE
  5
23F4
330
1E
100
AcDbEntity
  8
7
100
AcDbLine
 10
3.699803149606299
 20
5.823818897637795
 30
0.0
 11
3.696850393700787
 21
5.824803149606299
 31
0.0
  0
LINE
  5
23F5
330
1E
100
AcDbEntity
  8
7
100
AcDbLine
 10
3.700787401574803
 20
5.821850393700787
 30
0.0
 11
3.701771653543306
 21
5.823818897637795
 31
0.0
  0
LINE
  5
23F6
330
1E
100
AcDbEntity
  8
7
100
AcDbLine
 10
3.701771653543306
 20
5.823818897637795
 30
0.0
 11
3.701771653543306
 21
5.824803149606299
 31
0.0
  0
LINE
  5
23F7
330
1E
100
AcDbEntity
  8
7
100
AcDbLine
 10
3.701771653543306
 20
5.824803149606299
 30
0.0
 11
3.700787401574803
 21
5.824803149606299
 31
0.0
  0
LINE
  5
23F8
330
1E
100
AcDbEntity
  8
7
100
AcDbLine
 10
3.700787401574803
 20
5.824803149606299
 30
0.0
 11
3.696850393700787
 21
5.824803149606299
 31
0.0
  0
LINE
  5
23F9
330
1E
100
AcDbEntity
  8
7
100
AcDbLine
 10
2.713582677165354
 20
6.659448818897637
 30
0.0
 11
2.710629921259842
 21
6.657480314960629
 31
0.0
  0
LINE
  5
23FA
330
1E
100
AcDbEntity
  8
7
100
AcDbLine
 10
2.710629921259842
 20
6.657480314960629
 30
0.0
 11
2.700787401574803
 21
6.648622047244094
 31
0.0
  0
LINE
  5
23FB
330
1E
100
AcDbEntity
  8
7
100
AcDbLine
 10
2.700787401574803
 20
6.648622047244094
 30
0.0
 11
2.687007874015748
 21
6.635826771653543
 31
0.0
  0
LINE
  5
23FC
330
1E
100
AcDbEntity
  8
7
100
AcDbLine
 10
2.687007874015748
 20
6.635826771653543
 30
0.0
 11
2.671259842519685
 21
6.62007874015748
 31
0.0
  0
LINE
  5
23FD
330
1E
100
AcDbEntity
  8
7
100
AcDbLine
 10
2.71259842519685
 20
6.658464566929134
 30
0.0
 11
2.694881889763779
 21
6.671259842519685
 31
0.0
  0
LINE
  5
23FE
330
1E
100
AcDbEntity
  8
7
100
AcDbLine
 10
2.694881889763779
 20
6.671259842519685
 30
0.0
 11
2.673228346456693
 21
6.676181102362204
 31
0.0
  0
LINE
  5
23FF
330
1E
100
AcDbEntity
  8
7
100
AcDbLine
 10
2.673228346456693
 20
6.676181102362204
 30
0.0
 11
2.650590551181102
 21
6.672244094488188
 31
0.0
  0
LINE
  5
2400
330
1E
100
AcDbEntity
  8
7
100
AcDbLine
 10
2.650590551181102
 20
6.674212598425197
 30
0.0
 11
2.65255905511811
 21
6.670275590551181
 31
0.0
  0
LINE
  5
2401
330
1E
100
AcDbEntity
  8
7
100
AcDbLine
 10
2.65255905511811
 20
6.670275590551181
 30
0.0
 11
2.65748031496063
 21
6.658464566929134
 31
0.0
  0
LINE
  5
2402
330
1E
100
AcDbEntity
  8
7
100
AcDbLine
 10
2.65748031496063
 20
6.658464566929134
 30
0.0
 11
2.663385826771653
 21
6.640748031496062
 31
0.0
  0
LINE
  5
2403
330
1E
100
AcDbEntity
  8
7
100
AcDbLine
 10
2.663385826771653
 20
6.640748031496062
 30
0.0
 11
2.671259842519685
 21
6.62007874015748
 31
0.0
  0
LINE
  5
2404
330
1E
100
AcDbEntity
  8
7
100
AcDbLine
 10
1.084645669291338
 20
6.198818897637795
 30
0.0
 11
1.053149606299212
 21
6.199803149606299
 31
0.0
  0
LINE
  5
2405
330
1E
100
AcDbEntity
  8
7
100
AcDbLine
 10
1.053149606299212
 20
6.199803149606299
 30
0.0
 11
1.024606299212598
 21
6.200787401574802
 31
0.0
  0
LINE
  5
2406
330
1E
100
AcDbEntity
  8
7
100
AcDbLine
 10
1.024606299212598
 20
6.200787401574802
 30
0.0
 11
1.0
 21
6.200787401574802
 31
0.0
  0
LINE
  5
2407
330
1E
100
AcDbEntity
  8
7
100
AcDbLine
 10
1.0
 20
6.200787401574802
 30
0.0
 11
0.9803149606299212
 21
6.200787401574802
 31
0.0
  0
LINE
  5
2408
330
1E
100
AcDbEntity
  8
7
100
AcDbLine
 10
0.9803149606299212
 20
6.200787401574802
 30
0.0
 11
0.968503937007874
 21
6.199803149606299
 31
0.0
  0
LINE
  5
2409
330
1E
100
AcDbEntity
  8
7
100
AcDbLine
 10
0.968503937007874
 20
6.199803149606299
 30
0.0
 11
0.9645669291338583
 21
6.198818897637795
 31
0.0
  0
LINE
  5
240A
330
1E
100
AcDbEntity
  8
7
100
AcDbLine
 10
1.084645669291338
 20
6.312992125984251
 30
0.0
 11
1.049212598425196
 21
6.307086614173228
 31
0.0
  0
LINE
  5
240B
330
1E
100
AcDbEntity
  8
7
100
AcDbLine
 10
1.049212598425196
 20
6.307086614173228
 30
0.0
 11
1.016732283464566
 21
6.291338582677165
 31
0.0
  0
LINE
  5
240C
330
1E
100
AcDbEntity
  8
7
100
AcDbLine
 10
1.016732283464566
 20
6.291338582677165
 30
0.0
 11
0.9901574803149607
 21
6.266732283464566
 31
0.0
  0
LINE
  5
240D
330
1E
100
AcDbEntity
  8
7
100
AcDbLine
 10
0.9901574803149607
 20
6.266732283464566
 30
0.0
 11
0.9724409448818898
 21
6.234251968503937
 31
0.0
  0
LINE
  5
240E
330
1E
100
AcDbEntity
  8
7
100
AcDbLine
 10
0.9724409448818898
 20
6.234251968503937
 30
0.0
 11
0.9655511811023622
 21
6.198818897637795
 31
0.0
  0
LINE
  5
240F
330
1E
100
AcDbEntity
  8
7
100
AcDbLine
 10
1.084645669291338
 20
6.313976377952755
 30
0.0
 11
1.084645669291338
 21
6.308070866141732
 31
0.0
  0
LINE
  5
2410
330
1E
100
AcDbEntity
  8
7
100
AcDbLine
 10
1.084645669291338
 20
6.308070866141732
 30
0.0
 11
1.084645669291338
 21
6.292322834645669
 31
0.0
  0
LINE
  5
2411
330
1E
100
AcDbEntity
  8
7
100
AcDbLine
 10
1.084645669291338
 20
6.292322834645669
 30
0.0
 11
1.084645669291338
 21
6.266732283464566
 31
0.0
  0
LINE
  5
2412
330
1E
100
AcDbEntity
  8
7
100
AcDbLine
 10
1.084645669291338
 20
6.266732283464566
 30
0.0
 11
1.084645669291338
 21
6.23523622047244
 31
0.0
  0
LINE
  5
2413
330
1E
100
AcDbEntity
  8
7
100
AcDbLine
 10
1.084645669291338
 20
6.23523622047244
 30
0.0
 11
1.084645669291338
 21
6.198818897637795
 31
0.0
  0
LINE
  5
2414
330
1E
100
AcDbEntity
  8
7
100
AcDbLine
 10
3.719488188976378
 20
6.198818897637795
 30
0.0
 11
3.719488188976378
 21
6.23523622047244
 31
0.0
  0
LINE
  5
2415
330
1E
100
AcDbEntity
  8
7
100
AcDbLine
 10
3.719488188976378
 20
6.23523622047244
 30
0.0
 11
3.719488188976378
 21
6.266732283464566
 31
0.0
  0
LINE
  5
2416
330
1E
100
AcDbEntity
  8
7
100
AcDbLine
 10
3.719488188976378
 20
6.266732283464566
 30
0.0
 11
3.719488188976378
 21
6.292322834645669
 31
0.0
  0
LINE
  5
2417
330
1E
100
AcDbEntity
  8
7
100
AcDbLine
 10
3.719488188976378
 20
6.292322834645669
 30
0.0
 11
3.719488188976378
 21
6.308070866141732
 31
0.0
  0
LINE
  5
2418
330
1E
100
AcDbEntity
  8
7
100
AcDbLine
 10
3.719488188976378
 20
6.308070866141732
 30
0.0
 11
3.719488188976378
 21
6.313976377952755
 31
0.0
  0
LINE
  5
2419
330
1E
100
AcDbEntity
  8
7
100
AcDbLine
 10
3.719488188976378
 20
6.198818897637795
 30
0.0
 11
3.750984251968504
 21
6.199803149606299
 31
0.0
  0
LINE
  5
241A
330
1E
100
AcDbEntity
  8
7
100
AcDbLine
 10
3.750984251968504
 20
6.199803149606299
 30
0.0
 11
3.779527559055118
 21
6.200787401574802
 31
0.0
  0
LINE
  5
241B
330
1E
100
AcDbEntity
  8
7
100
AcDbLine
 10
3.779527559055118
 20
6.200787401574802
 30
0.0
 11
3.804133858267716
 21
6.200787401574802
 31
0.0
  0
LINE
  5
241C
330
1E
100
AcDbEntity
  8
7
100
AcDbLine
 10
3.804133858267716
 20
6.200787401574802
 30
0.0
 11
3.822834645669291
 21
6.200787401574802
 31
0.0
  0
LINE
  5
241D
330
1E
100
AcDbEntity
  8
7
100
AcDbLine
 10
3.822834645669291
 20
6.200787401574802
 30
0.0
 11
3.835629921259842
 21
6.199803149606299
 31
0.0
  0
LINE
  5
241E
330
1E
100
AcDbEntity
  8
7
100
AcDbLine
 10
3.835629921259842
 20
6.199803149606299
 30
0.0
 11
3.839566929133858
 21
6.198818897637795
 31
0.0
  0
LINE
  5
241F
330
1E
100
AcDbEntity
  8
7
100
AcDbLine
 10
3.838582677165354
 20
6.198818897637795
 30
0.0
 11
3.831692913385826
 21
6.234251968503937
 31
0.0
  0
LINE
  5
2420
330
1E
100
AcDbEntity
  8
7
100
AcDbLine
 10
3.831692913385826
 20
6.234251968503937
 30
0.0
 11
3.813976377952755
 21
6.266732283464566
 31
0.0
  0
LINE
  5
2421
330
1E
100
AcDbEntity
  8
7
100
AcDbLine
 10
3.813976377952755
 20
6.266732283464566
 30
0.0
 11
3.787401574803149
 21
6.291338582677165
 31
0.0
  0
LINE
  5
2422
330
1E
100
AcDbEntity
  8
7
100
AcDbLine
 10
3.787401574803149
 20
6.291338582677165
 30
0.0
 11
3.754921259842519
 21
6.307086614173228
 31
0.0
  0
LINE
  5
2423
330
1E
100
AcDbEntity
  8
7
100
AcDbLine
 10
3.651574803149606
 20
5.747047244094487
 30
0.0
 11
3.696850393700787
 21
5.824803149606299
 31
0.0
  0
LINE
  5
2424
330
1E
100
AcDbEntity
  8
7
100
AcDbLine
 10
3.696850393700787
 20
5.824803149606299
 30
0.0
 11
3.696850393700787
 21
5.913385826771653
 31
0.0
  0
LINE
  5
2425
330
1E
100
AcDbEntity
  8
7
100
AcDbLine
 10
2.977362204724409
 20
6.313976377952755
 30
0.0
 11
2.671259842519685
 21
6.62007874015748
 31
0.0
  0
LINE
  5
2426
330
1E
100
AcDbEntity
  8
7
100
AcDbLine
 10
2.671259842519685
 20
6.62007874015748
 30
0.0
 11
1.829724409448818
 21
6.313976377952755
 31
0.0
  0
LINE
  5
2427
330
1E
100
AcDbEntity
  8
7
100
AcDbLine
 10
1.271653543307086
 20
5.818897637795275
 30
0.0
 11
1.27263779527559
 21
5.908464566929134
 31
0.0
  0
LINE
  5
2428
330
1E
100
AcDbEntity
  8
7
100
AcDbLine
 10
1.27263779527559
 20
5.908464566929134
 30
0.0
 11
1.238188976377952
 21
5.908464566929134
 31
0.0
  0
LINE
  5
2429
330
1E
100
AcDbEntity
  8
7
100
AcDbLine
 10
1.238188976377952
 20
5.908464566929134
 30
0.0
 11
1.239173228346456
 21
5.818897637795275
 31
0.0
  0
LINE
  5
242A
330
1E
100
AcDbEntity
  8
7
100
AcDbLine
 10
1.239173228346456
 20
5.818897637795275
 30
0.0
 11
1.271653543307086
 21
5.818897637795275
 31
0.0
  0
LINE
  5
242B
330
1E
100
AcDbEntity
  8
7
100
AcDbLine
 10
1.042322834645669
 20
5.831692913385826
 30
0.0
 11
1.039370078740157
 21
5.825787401574802
 31
0.0
  0
LINE
  5
242C
330
1E
100
AcDbEntity
  8
7
100
AcDbLine
 10
1.039370078740157
 20
5.825787401574802
 30
0.0
 11
1.033464566929133
 21
5.823818897637795
 31
0.0
  0
LINE
  5
242D
330
1E
100
AcDbEntity
  8
7
100
AcDbLine
 10
1.033464566929133
 20
5.913385826771653
 30
0.0
 11
1.039370078740157
 21
5.911417322834645
 31
0.0
  0
LINE
  5
242E
330
1E
100
AcDbEntity
  8
7
100
AcDbLine
 10
1.039370078740157
 20
5.911417322834645
 30
0.0
 11
1.042322834645669
 21
5.905511811023622
 31
0.0
  0
LINE
  5
242F
330
1E
100
AcDbEntity
  8
7
100
AcDbLine
 10
0.9271653543307087
 20
5.739173228346456
 30
0.0
 11
0.9311023622047244
 21
5.728346456692913
 31
0.0
  0
LINE
  5
2430
330
1E
100
AcDbEntity
  8
7
100
AcDbLine
 10
0.9311023622047244
 20
5.728346456692913
 30
0.0
 11
0.9419291338582677
 21
5.723425196850393
 31
0.0
  0
LINE
  5
2431
330
1E
100
AcDbEntity
  8
7
100
AcDbLine
 10
0.9350393700787401
 20
5.823818897637795
 30
0.0
 11
0.9291338582677164
 21
5.821850393700787
 31
0.0
  0
LINE
  5
2432
330
1E
100
AcDbEntity
  8
7
100
AcDbLine
 10
0.9291338582677164
 20
5.821850393700787
 30
0.0
 11
0.9271653543307087
 21
5.815944881889763
 31
0.0
  0
LINE
  5
2433
330
1E
100
AcDbEntity
  8
7
100
AcDbLine
 10
1.27755905511811
 20
5.913385826771653
 30
0.0
 11
1.27755905511811
 21
5.908464566929134
 31
0.0
  0
LINE
  5
2434
330
1E
100
AcDbEntity
  8
7
100
AcDbLine
 10
1.27755905511811
 20
5.908464566929134
 30
0.0
 11
1.276574803149606
 21
5.818897637795275
 31
0.0
  0
LINE
  5
2435
330
1E
100
AcDbEntity
  8
7
100
AcDbLine
 10
1.234251968503936
 20
5.818897637795275
 30
0.0
 11
1.233267716535432
 21
5.908464566929134
 31
0.0
  0
LINE
  5
2436
330
1E
100
AcDbEntity
  8
7
100
AcDbLine
 10
1.233267716535432
 20
5.908464566929134
 30
0.0
 11
1.233267716535432
 21
5.913385826771653
 31
0.0
  0
LINE
  5
2437
330
1E
100
AcDbEntity
  8
7
100
AcDbLine
 10
1.11023622047244
 20
5.738188976377952
 30
0.0
 11
1.105314960629921
 21
5.728346456692913
 31
0.0
  0
LINE
  5
2438
330
1E
100
AcDbEntity
  8
7
100
AcDbLine
 10
1.105314960629921
 20
5.728346456692913
 30
0.0
 11
1.094488188976377
 21
5.723425196850393
 31
0.0
  0
LINE
  5
2439
330
1E
100
AcDbEntity
  8
7
100
AcDbLine
 10
2.862204724409449
 20
5.786417322834645
 30
0.0
 11
2.867125984251968
 21
5.767716535433071
 31
0.0
  0
LINE
  5
243A
330
1E
100
AcDbEntity
  8
7
100
AcDbLine
 10
2.867125984251968
 20
5.767716535433071
 30
0.0
 11
2.879921259842519
 21
5.752952755905512
 31
0.0
  0
LINE
  5
243B
330
1E
100
AcDbEntity
  8
7
100
AcDbLine
 10
2.879921259842519
 20
5.752952755905512
 30
0.0
 11
2.894685039370078
 21
5.738188976377952
 31
0.0
  0
LINE
  5
243C
330
1E
100
AcDbEntity
  8
7
100
AcDbLine
 10
2.894685039370078
 20
5.738188976377952
 30
0.0
 11
2.901574803149606
 21
5.738188976377952
 31
0.0
  0
LINE
  5
243D
330
1E
100
AcDbEntity
  8
7
100
AcDbLine
 10
2.828740157480315
 20
5.634842519685039
 30
0.0
 11
2.832677165354331
 21
5.621062992125984
 31
0.0
  0
LINE
  5
243E
330
1E
100
AcDbEntity
  8
7
100
AcDbLine
 10
2.832677165354331
 20
5.621062992125984
 30
0.0
 11
2.843503937007874
 21
5.612204724409449
 31
0.0
  0
LINE
  5
243F
330
1E
100
AcDbEntity
  8
7
100
AcDbLine
 10
2.843503937007874
 20
5.612204724409449
 30
0.0
 11
2.857283464566929
 21
5.61023622047244
 31
0.0
  0
LINE
  5
2440
330
1E
100
AcDbEntity
  8
7
100
AcDbLine
 10
2.857283464566929
 20
5.61023622047244
 30
0.0
 11
2.87007874015748
 21
5.616141732283464
 31
0.0
  0
LINE
  5
2441
330
1E
100
AcDbEntity
  8
7
100
AcDbLine
 10
2.919291338582677
 20
5.638779527559055
 30
0.0
 11
2.926181102362204
 21
5.635826771653543
 31
0.0
  0
LINE
  5
2442
330
1E
100
AcDbEntity
  8
7
100
AcDbLine
 10
2.926181102362204
 20
5.635826771653543
 30
0.0
 11
2.933070866141732
 21
5.63779527559055
 31
0.0
  0
LINE
  5
2443
330
1E
100
AcDbEntity
  8
7
100
AcDbLine
 10
3.34251968503937
 20
5.813976377952755
 30
0.0
 11
3.378937007874015
 21
5.813976377952755
 31
0.0
  0
LINE
  5
2444
330
1E
100
AcDbEntity
  8
7
100
AcDbLine
 10
3.378937007874015
 20
5.813976377952755
 30
0.0
 11
3.380905511811023
 21
5.913385826771653
 31
0.0
  0
LINE
  5
2445
330
1E
100
AcDbEntity
  8
7
100
AcDbLine
 10
3.719488188976378
 20
6.198818897637795
 30
0.0
 11
1.084645669291338
 21
6.198818897637795
 31
0.0
  0
LINE
  5
2446
330
1E
100
AcDbEntity
  8
7
100
AcDbLine
 10
1.084645669291338
 20
6.198818897637795
 30
0.0
 11
1.071850393700787
 21
5.913385826771653
 31
0.0
  0
LINE
  5
2447
330
1E
100
AcDbEntity
  8
7
100
AcDbLine
 10
3.379921259842519
 20
5.846456692913386
 30
0.0
 11
3.519685039370078
 21
5.604330708661417
 31
0.0
  0
LINE
  5
2448
330
1E
100
AcDbEntity
  8
7
100
AcDbLine
 10
3.519685039370078
 20
5.604330708661417
 30
0.0
 11
3.579724409448818
 21
5.604330708661417
 31
0.0
  0
LINE
  5
2449
330
1E
100
AcDbEntity
  8
7
100
AcDbLine
 10
3.579724409448818
 20
5.913385826771653
 30
0.0
 11
3.579724409448818
 21
5.362204724409449
 31
0.0
  0
LINE
  5
244A
330
1E
100
AcDbEntity
  8
7
100
AcDbLine
 10
3.579724409448818
 20
5.362204724409449
 30
0.0
 11
3.622047244094488
 21
5.364173228346456
 31
0.0
  0
LINE
  5
244B
330
1E
100
AcDbEntity
  8
7
100
AcDbLine
 10
3.622047244094488
 20
5.364173228346456
 30
0.0
 11
3.622047244094488
 21
5.911417322834645
 31
0.0
  0
LINE
  5
244C
330
1E
100
AcDbEntity
  8
7
100
AcDbLine
 10
3.622047244094488
 20
5.911417322834645
 30
0.0
 11
3.622047244094488
 21
5.913385826771653
 31
0.0
  0
LINE
  5
244D
330
1E
100
AcDbEntity
  8
7
100
AcDbLine
 10
3.579724409448818
 20
5.263779527559055
 30
0.0
 11
3.579724409448818
 21
5.268700787401574
 31
0.0
  0
LINE
  5
244E
330
1E
100
AcDbEntity
  8
7
100
AcDbLine
 10
3.579724409448818
 20
5.268700787401574
 30
0.0
 11
3.579724409448818
 21
5.282480314960629
 31
0.0
  0
LINE
  5
244F
330
1E
100
AcDbEntity
  8
7
100
AcDbLine
 10
3.579724409448818
 20
5.282480314960629
 30
0.0
 11
3.579724409448818
 21
5.304133858267716
 31
0.0
  0
LINE
  5
2450
330
1E
100
AcDbEntity
  8
7
100
AcDbLine
 10
3.579724409448818
 20
5.304133858267716
 30
0.0
 11
3.579724409448818
 21
5.331692913385826
 31
0.0
  0
LINE
  5
2451
330
1E
100
AcDbEntity
  8
7
100
AcDbLine
 10
3.579724409448818
 20
5.331692913385826
 30
0.0
 11
3.579724409448818
 21
5.362204724409449
 31
0.0
  0
LINE
  5
2452
330
1E
100
AcDbEntity
  8
7
100
AcDbLine
 10
3.847440944881889
 20
5.913385826771653
 30
0.0
 11
3.835629921259842
 21
5.913385826771653
 31
0.0
  0
LINE
  5
2453
330
1E
100
AcDbEntity
  8
7
100
AcDbLine
 10
3.835629921259842
 20
5.913385826771653
 30
0.0
 11
3.816929133858267
 21
5.913385826771653
 31
0.0
  0
LINE
  5
2454
330
1E
100
AcDbEntity
  8
7
100
AcDbLine
 10
3.816929133858267
 20
5.913385826771653
 30
0.0
 11
3.792322834645669
 21
5.913385826771653
 31
0.0
  0
LINE
  5
2455
330
1E
100
AcDbEntity
  8
7
100
AcDbLine
 10
3.792322834645669
 20
5.913385826771653
 30
0.0
 11
3.762795275590551
 21
5.913385826771653
 31
0.0
  0
LINE
  5
2456
330
1E
100
AcDbEntity
  8
7
100
AcDbLine
 10
3.762795275590551
 20
5.913385826771653
 30
0.0
 11
3.732283464566929
 21
5.913385826771653
 31
0.0
  0
LINE
  5
2457
330
1E
100
AcDbEntity
  8
7
100
AcDbLine
 10
3.732283464566929
 20
5.913385826771653
 30
0.0
 11
1.071850393700787
 21
5.913385826771653
 31
0.0
  0
LINE
  5
2458
330
1E
100
AcDbEntity
  8
7
100
AcDbLine
 10
1.071850393700787
 20
5.913385826771653
 30
0.0
 11
1.040354330708661
 21
5.913385826771653
 31
0.0
  0
LINE
  5
2459
330
1E
100
AcDbEntity
  8
7
100
AcDbLine
 10
1.040354330708661
 20
5.913385826771653
 30
0.0
 11
1.011811023622047
 21
5.913385826771653
 31
0.0
  0
LINE
  5
245A
330
1E
100
AcDbEntity
  8
7
100
AcDbLine
 10
1.011811023622047
 20
5.913385826771653
 30
0.0
 11
0.9872047244094488
 21
5.913385826771653
 31
0.0
  0
LINE
  5
245B
330
1E
100
AcDbEntity
  8
7
100
AcDbLine
 10
0.9872047244094488
 20
5.913385826771653
 30
0.0
 11
0.9675196850393701
 21
5.913385826771653
 31
0.0
  0
LINE
  5
245C
330
1E
100
AcDbEntity
  8
7
100
AcDbLine
 10
0.9675196850393701
 20
5.913385826771653
 30
0.0
 11
0.9557086614173227
 21
5.913385826771653
 31
0.0
  0
LINE
  5
245D
330
1E
100
AcDbEntity
  8
7
100
AcDbLine
 10
0.9557086614173227
 20
5.913385826771653
 30
0.0
 11
0.951771653543307
 21
5.913385826771653
 31
0.0
  0
LINE
  5
245E
330
1E
100
AcDbEntity
  8
7
100
AcDbLine
 10
3.313976377952756
 20
5.880905511811024
 30
0.0
 11
3.313976377952756
 21
5.879921259842519
 31
0.0
  0
LINE
  5
245F
330
1E
100
AcDbEntity
  8
7
100
AcDbLine
 10
3.313976377952756
 20
5.879921259842519
 30
0.0
 11
3.313976377952756
 21
5.878937007874015
 31
0.0
  0
LINE
  5
2460
330
1E
100
AcDbEntity
  8
7
100
AcDbLine
 10
3.313976377952756
 20
5.880905511811024
 30
0.0
 11
3.311023622047243
 21
5.881889763779527
 31
0.0
  0
LINE
  5
2461
330
1E
100
AcDbEntity
  8
7
100
AcDbLine
 10
3.311023622047243
 20
5.881889763779527
 30
0.0
 11
3.309055118110236
 21
5.883858267716535
 31
0.0
  0
LINE
  5
2462
330
1E
100
AcDbEntity
  8
7
100
AcDbLine
 10
3.309055118110236
 20
5.883858267716535
 30
0.0
 11
3.31003937007874
 21
5.879921259842519
 31
0.0
  0
LINE
  5
2463
330
1E
100
AcDbEntity
  8
7
100
AcDbLine
 10
3.31003937007874
 20
5.879921259842519
 30
0.0
 11
3.313976377952756
 21
5.878937007874015
 31
0.0
  0
ENDSEC
  0
SECTION
  2
OBJECTS
  0
DICTIONARY
  5
C
330
0
100
AcDbDictionary
  3
ACAD_GROUP
350
D
  3
ACAD_LAYOUT
350
19
  3
ACAD_MLINESTYLE
350
16
  3
ACAD_PLOTSETTINGS
350
18
1001
ACAD
1000
TREAT_AS_HARD
1070
     0
  0
DICTIONARY
  5
32AD
330
1E
100
AcDbDictionary
  3
ACAD_LAYOUTSELFREF
350
3328
1001
ACAD
1000
TREAT_AS_HARD
1070
     1
  0
DICTIONARY
  5
32AF
330
1A
100
AcDbDictionary
  3
ACAD_LAYOUTSELFREF
350
3327
1001
ACAD
1000
TREAT_AS_HARD
1070
     1
  0
DICTIONARY
  5
D
102
{ACAD_REACTORS
330
C
102
}
330
C
100
AcDbDictionary
1001
ACAD
1000
TREAT_AS_HARD
1070
     0
  0
DICTIONARY
  5
19
102
{ACAD_REACTORS
330
C
102
}
330
C
100
AcDbDictionary
1001
ACAD
1000
TREAT_AS_HARD
1070
     0
  0
DICTIONARY
  5
16
102
{ACAD_REACTORS
330
C
102
}
330
C
100
AcDbDictionary
  3
STANDARD
350
17
1001
ACAD
1000
TREAT_AS_HARD
1070
     0
  0
DICTIONARY
  5
18
102
{ACAD_REACTORS
330
C
102
}
330
C
100
AcDbDictionary
1001
ACAD
1000
TREAT_AS_HARD
1070
     0
  0
XRECORD
  5
3328
102
{ACAD_REACTORS
330
32AD
102
}
330
32AD
100
AcDbXrecord
340
1E
  0
XRECORD
  5
3327
102
{ACAD_REACTORS
330
32AF
102
}
330
32AF
100
AcDbXrecord
340
1A
  0
MLINESTYLE
  5
17
102
{ACAD_REACTORS
330
16
102
}
330
16
100
AcDbMlineStyle
  2
STANDARD
 70
     0
  3

 62
   256
 51
90.0
 52
90.0
 71
     2
 49
0.5
 62
   256
  6
BYLAYER
 49
-0.5
 62
   256
  6
BYLAYER
  0
ENDSEC
  0
EOF
