  0
SECTION
  2
HEADER
  9
$ACADVER
  1
AC1012
  9
$DWGCODEPAGE
  3
ANSI_1252
  9
$INSBASE
 10
0.0
 20
0.0
 30
0.0
  9
$EXTMIN
 10
-0.0168456752049338
 20
1.719772361824023
 30
-0.0000000349181948
  9
$EXTMAX
 10
2.735229509341564
 20
8.114501973048902
 30
0.0000000814935746
  9
$LIMMIN
 10
0.0
 20
0.0
  9
$LIMMAX
 10
12.0
 20
9.0
  9
$ORTHOMODE
 70
     0
  9
$REGENMODE
 70
     1
  9
$FILLMODE
 70
     1
  9
$QTEXTMODE
 70
     0
  9
$MIRRTEXT
 70
     1
  9
$DRAGMODE
 70
     2
  9
$LTSCALE
 40
1.0
  9
$OSMODE
 70
    33
  9
$ATTMODE
 70
     1
  9
$TEXTSIZE
 40
0.2
  9
$TRACEWID
 40
0.05
  9
$TEXTSTYLE
  7
STANDARD
  9
$CLAYER
  8
0
  9
$CELTYPE
  6
BYLAYER
  9
$CECOLOR
 62
   256
  9
$CELTSCALE
 40
1.0
  9
$DELOBJ
 70
     1
  9
$DISPSILH
 70
     0
  9
$DIMSCALE
 40
1.0
  9
$DIMASZ
 40
0.18
  9
$DIMEXO
 40
0.0625
  9
$DIMDLI
 40
0.38
  9
$DIMRND
 40
0.0
  9
$DIMDLE
 40
0.0
  9
$DIMEXE
 40
0.18
  9
$DIMTP
 40
0.0
  9
$DIMTM
 40
0.0
  9
$DIMTXT
 40
0.18
  9
$DIMCEN
 40
0.09
  9
$DIMTSZ
 40
0.0
  9
$DIMTOL
 70
     0
  9
$DIMLIM
 70
     0
  9
$DIMTIH
 70
     1
  9
$DIMTOH
 70
     1
  9
$DIMSE1
 70
     0
  9
$DIMSE2
 70
     0
  9
$DIMTAD
 70
     0
  9
$DIMZIN
 70
     0
  9
$DIMBLK
  1

  9
$DIMASO
 70
     1
  9
$DIMSHO
 70
     1
  9
$DIMPOST
  1

  9
$DIMAPOST
  1

  9
$DIMALT
 70
     0
  9
$DIMALTD
 70
     2
  9
$DIMALTF
 40
25.4
  9
$DIMLFAC
 40
1.0
  9
$DIMTOFL
 70
     0
  9
$DIMTVP
 40
0.0
  9
$DIMTIX
 70
     0
  9
$DIMSOXD
 70
     0
  9
$DIMSAH
 70
     0
  9
$DIMBLK1
  1

  9
$DIMBLK2
  1

  9
$DIMSTYLE
  2
STANDARD
  9
$DIMCLRD
 70
     0
  9
$DIMCLRE
 70
     0
  9
$DIMCLRT
 70
     0
  9
$DIMTFAC
 40
1.0
  9
$DIMGAP
 40
0.09
  9
$DIMJUST
 70
     0
  9
$DIMSD1
 70
     0
  9
$DIMSD2
 70
     0
  9
$DIMTOLJ
 70
     1
  9
$DIMTZIN
 70
     0
  9
$DIMALTZ
 70
     0
  9
$DIMALTTZ
 70
     0
  9
$DIMFIT
 70
     5
  9
$DIMUPT
 70
     0
  9
$DIMUNIT
 70
     2
  9
$DIMDEC
 70
     4
  9
$DIMTDEC
 70
     4
  9
$DIMALTU
 70
     2
  9
$DIMALTTD
 70
     2
  9
$DIMTXSTY
  7
STANDARD
  9
$DIMAUNIT
 70
     0
  9
$LUNITS
 70
     2
  9
$LUPREC
 70
     4
  9
$SKETCHINC
 40
0.1
  9
$FILLETRAD
 40
0.0
  9
$AUNITS
 70
     0
  9
$AUPREC
 70
     0
  9
$MENU
  1
acad
  9
$ELEVATION
 40
0.0
  9
$PELEVATION
 40
0.0
  9
$THICKNESS
 40
0.0
  9
$LIMCHECK
 70
     0
  9
$BLIPMODE
 70
     0
  9
$CHAMFERA
 40
0.0
  9
$CHAMFERB
 40
0.0
  9
$CHAMFERC
 40
0.0
  9
$CHAMFERD
 40
0.0
  9
$SKPOLY
 70
     0
  9
$TDCREATE
 40
2452254.536990740
  9
$TDUPDATE
 40
2452338.420921817
  9
$TDINDWG
 40
0.0016758796
  9
$TDUSRTIMER
 40
0.0016758796
  9
$USRTIMER
 70
     1
  9
$ANGBASE
 50
0.0
  9
$ANGDIR
 70
     0
  9
$PDMODE
 70
     0
  9
$PDSIZE
 40
0.0
  9
$PLINEWID
 40
0.0
  9
$COORDS
 70
     2
  9
$SPLFRAME
 70
     0
  9
$SPLINETYPE
 70
     6
  9
$SPLINESEGS
 70
     8
  9
$ATTDIA
 70
     0
  9
$ATTREQ
 70
     1
  9
$HANDLING
 70
  4097
  9
$HANDSEED
  5
42B6
  9
$SURFTAB1
 70
     6
  9
$SURFTAB2
 70
     6
  9
$SURFTYPE
 70
     6
  9
$SURFU
 70
     6
  9
$SURFV
 70
     6
  9
$UCSNAME
  2

  9
$UCSORG
 10
0.0
 20
0.0
 30
0.0
  9
$UCSXDIR
 10
1.0
 20
0.0
 30
0.0
  9
$UCSYDIR
 10
0.0
 20
1.0
 30
0.0
  9
$PUCSNAME
  2

  9
$PUCSORG
 10
0.0
 20
0.0
 30
0.0
  9
$PUCSXDIR
 10
1.0
 20
0.0
 30
0.0
  9
$PUCSYDIR
 10
0.0
 20
1.0
 30
0.0
  9
$USERI1
 70
     0
  9
$USERI2
 70
     0
  9
$USERI3
 70
     0
  9
$USERI4
 70
     0
  9
$USERI5
 70
     0
  9
$USERR1
 40
0.0
  9
$USERR2
 40
0.0
  9
$USERR3
 40
0.0
  9
$USERR4
 40
0.0
  9
$USERR5
 40
0.0
  9
$WORLDVIEW
 70
     1
  9
$SHADEDGE
 70
     3
  9
$SHADEDIF
 70
    70
  9
$TILEMODE
 70
     1
  9
$MAXACTVP
 70
    16
  9
$PINSBASE
 10
0.0
 20
0.0
 30
0.0
  9
$PLIMCHECK
 70
     0
  9
$PEXTMIN
 10
1.000000000000000E+20
 20
1.000000000000000E+20
 30
1.000000000000000E+20
  9
$PEXTMAX
 10
-1.000000000000000E+20
 20
-1.000000000000000E+20
 30
-1.000000000000000E+20
  9
$PLIMMIN
 10
0.0
 20
0.0
  9
$PLIMMAX
 10
12.0
 20
9.0
  9
$UNITMODE
 70
     0
  9
$VISRETAIN
 70
     0
  9
$PLINEGEN
 70
     0
  9
$PSLTSCALE
 70
     1
  9
$TREEDEPTH
 70
  3020
  9
$PICKSTYLE
 70
     1
  9
$CMLSTYLE
  2
STANDARD
  9
$CMLJUST
 70
     0
  9
$CMLSCALE
 40
1.0
  9
$SAVEIMAGES
 70
     1
  0
ENDSEC
  0
SECTION
  2
CLASSES
  0
CLASS
  1
ACDBDICTIONARYWDFLT
  2
AcDbDictionaryWithDefault
  3
AutoCAD 2000
 90
    32768
280
     0
281
     0
  0
CLASS
  1
ACDBPLACEHOLDER
  2
AcDbPlaceHolder
  3
AutoCAD 2000
 90
    32768
280
     0
281
     0
  0
CLASS
  1
LAYOUT
  2
AcDbLayout
  3
AutoCAD 2000
 90
    32768
280
     0
281
     0
  0
CLASS
  1
LONG_TRANSACTION
  2
AcDbLongTransaction
  3
AutoCAD 2000
 90
    32768
280
     0
281
     0
  0
CLASS
  1
LWPOLYLINE
  2
AcDbPolyline
  3
AutoCAD 2000
 90
    32768
280
     0
281
     1
  0
CLASS
  1
HATCH
  2
AcDbHatch
  3
AutoCAD 2000
 90
    32768
280
     0
281
     1
  0
CLASS
  1
XRECORD
  2
AcDbXrecord
  3
AutoCAD 2000
 90
    32768
280
     0
281
     0
  0
CLASS
  1
LONG_TRANSACTION
  2
AcDbLongTransaction
  3
AutoCAD 2000
 90
    32768
280
     0
281
     0
  0
CLASS
  1
LWPOLYLINE
  2
AcDbPolyline
  3
AutoCAD 2000
 90
    32768
280
     0
281
     1
  0
CLASS
  1
HATCH
  2
AcDbHatch
  3
AutoCAD 2000
 90
    32768
280
     0
281
     1
  0
CLASS
  1
XRECORD
  2
AcDbXrecord
  3
AutoCAD 2000
 90
    32768
280
     0
281
     0
  0
ENDSEC
  0
SECTION
  2
TABLES
  0
TABLE
  2
VPORT
  5
8
330
0
100
AcDbSymbolTable
 70
     3
  0
VPORT
  5
42B3
330
8
100
AcDbSymbolTableRecord
100
AcDbViewportTableRecord
  2
*ACTIVE
 70
     0
 10
0.0
 20
0.0
 11
1.0
 21
1.0
 12
1.359191917068315
 22
4.917137167436463
 13
0.0
 23
0.0
 14
1.0
 24
1.0
 15
0.0
 25
0.0
 16
0.0
 26
0.0
 36
1.0
 17
0.0
 27
0.0
 37
0.0
 40
6.444558673130526
 41
1.637191157347204
 42
50.0
 43
0.0
 44
0.0
 50
0.0
 51
0.0
 71
     0
 72
   100
 73
     1
 74
     1
 75
     0
 76
     0
 77
     0
 78
     0
  0
ENDTAB
  0
TABLE
  2
LTYPE
  5
5
330
0
100
AcDbSymbolTable
 70
    25
  0
LTYPE
  5
13
330
5
100
AcDbSymbolTableRecord
100
AcDbLinetypeTableRecord
  2
BYBLOCK
 70
     0
  3

 72
    65
 73
     0
 40
0.0
  0
LTYPE
  5
14
330
5
100
AcDbSymbolTableRecord
100
AcDbLinetypeTableRecord
  2
BYLAYER
 70
     0
  3

 72
    65
 73
     0
 40
0.0
  0
LTYPE
  5
15
330
5
100
AcDbSymbolTableRecord
100
AcDbLinetypeTableRecord
  2
CONTINUOUS
 70
     0
  3
Solid line
 72
    65
 73
     0
 40
0.0
  0
LTYPE
  5
22
330
5
100
AcDbSymbolTableRecord
100
AcDbLinetypeTableRecord
  2
BORDER
 70
     0
  3
__ __ . __ __ . __ __ . __ __ . __ __ . __ __ .
 72
    65
 73
     6
 40
1.75
 49
0.5
 74
     0
 49
-0.25
 74
     0
 49
0.5
 74
     0
 49
-0.25
 74
     0
 49
0.5
 74
     0
 49
-0.25
 74
     0
  0
LTYPE
  5
23
330
5
100
AcDbSymbolTableRecord
100
AcDbLinetypeTableRecord
  2
BORDER2
 70
     0
  3
__.__.__.__.__.__.__.__.__.__.__.__.__.__.__.__
 72
    65
 73
     6
 40
0.875
 49
0.25
 74
     0
 49
-0.125
 74
     0
 49
0.25
 74
     0
 49
-0.125
 74
     0
 49
0.25
 74
     0
 49
-0.125
 74
     0
  0
LTYPE
  5
24
330
5
100
AcDbSymbolTableRecord
100
AcDbLinetypeTableRecord
  2
BORDERX2
 70
     0
  3
____  ____  .  ____  ____  .  
 72
    65
 73
     6
 40
3.5
 49
1.0
 74
     0
 49
-0.5
 74
     0
 49
1.0
 74
     0
 49
-0.5
 74
     0
 49
1.0
 74
     0
 49
-0.5
 74
     0
  0
LTYPE
  5
25
330
5
100
AcDbSymbolTableRecord
100
AcDbLinetypeTableRecord
  2
CENTER
 70
     0
  3
____ _ ____ _ ____ _ ____ _ ____ _ ____ _ ____
 72
    65
 73
     4
 40
2.0
 49
1.25
 74
     0
 49
-0.25
 74
     0
 49
0.25
 74
     0
 49
-0.25
 74
     0
  0
LTYPE
  5
26
330
5
100
AcDbSymbolTableRecord
100
AcDbLinetypeTableRecord
  2
CENTER2
 70
     0
  3
____ _ ____ _ ____ _ ____ _ ____ _ ____ _ ____
 72
    65
 73
     4
 40
1.125
 49
0.75
 74
     0
 49
-0.125
 74
     0
 49
0.125
 74
     0
 49
-0.125
 74
     0
  0
LTYPE
  5
27
330
5
100
AcDbSymbolTableRecord
100
AcDbLinetypeTableRecord
  2
CENTERX2
 70
     0
  3
________  __  ________  __  ________  __  
 72
    65
 73
     4
 40
4.0
 49
2.5
 74
     0
 49
-0.5
 74
     0
 49
0.5
 74
     0
 49
-0.5
 74
     0
  0
LTYPE
  5
28
330
5
100
AcDbSymbolTableRecord
100
AcDbLinetypeTableRecord
  2
DASHDOT
 70
     0
  3
__ . __ . __ . __ . __ . __ . __ . 
 72
    65
 73
     4
 40
1.0
 49
0.5
 74
     0
 49
-0.25
 74
     0
 49
0.0
 74
     0
 49
-0.25
 74
     0
  0
LTYPE
  5
29
330
5
100
AcDbSymbolTableRecord
100
AcDbLinetypeTableRecord
  2
DASHDOT2
 70
     0
  3
_._._._._._._._._._._._._._._._.
 72
    65
 73
     4
 40
0.5
 49
0.25
 74
     0
 49
-0.125
 74
     0
 49
0.0
 74
     0
 49
-0.125
 74
     0
  0
LTYPE
  5
2A
330
5
100
AcDbSymbolTableRecord
100
AcDbLinetypeTableRecord
  2
DASHDOTX2
 70
     0
  3
____  .  ____  .  ____  .  ____  .  
 72
    65
 73
     4
 40
2.0
 49
1.0
 74
     0
 49
-0.5
 74
     0
 49
0.0
 74
     0
 49
-0.5
 74
     0
  0
LTYPE
  5
2B
330
5
100
AcDbSymbolTableRecord
100
AcDbLinetypeTableRecord
  2
DASHED
 70
     0
  3
__ __ __ __ __ __ __ __ __ __ __ __ 
 72
    65
 73
     2
 40
0.75
 49
0.5
 74
     0
 49
-0.25
 74
     0
  0
LTYPE
  5
2C
330
5
100
AcDbSymbolTableRecord
100
AcDbLinetypeTableRecord
  2
DASHED2
 70
     0
  3
_ _ _ _ _ _ _ _ _ _ _ _ _ _ _ _ _ _ 
 72
    65
 73
     2
 40
0.375
 49
0.25
 74
     0
 49
-0.125
 74
     0
  0
LTYPE
  5
2D
330
5
100
AcDbSymbolTableRecord
100
AcDbLinetypeTableRecord
  2
DASHEDX2
 70
     0
  3
____  ____  ____  ____  ____  ____  
 72
    65
 73
     2
 40
1.5
 49
1.0
 74
     0
 49
-0.5
 74
     0
  0
LTYPE
  5
2E
330
5
100
AcDbSymbolTableRecord
100
AcDbLinetypeTableRecord
  2
DIVIDE
 70
     0
  3
____ . . ____ . . ____ . . ____ . . 
 72
    65
 73
     6
 40
1.25
 49
0.5
 74
     0
 49
-0.25
 74
     0
 49
0.0
 74
     0
 49
-0.25
 74
     0
 49
0.0
 74
     0
 49
-0.25
 74
     0
  0
LTYPE
  5
2F
330
5
100
AcDbSymbolTableRecord
100
AcDbLinetypeTableRecord
  2
DIVIDE2
 70
     0
  3
__..__..__..__..__..__..__..__..__..
 72
    65
 73
     6
 40
0.625
 49
0.25
 74
     0
 49
-0.125
 74
     0
 49
0.0
 74
     0
 49
-0.125
 74
     0
 49
0.0
 74
     0
 49
-0.125
 74
     0
  0
LTYPE
  5
30
330
5
100
AcDbSymbolTableRecord
100
AcDbLinetypeTableRecord
  2
DIVIDEX2
 70
     0
  3
________  .  .  ________  .  .  ________  .  . 
 72
    65
 73
     6
 40
2.5
 49
1.0
 74
     0
 49
-0.5
 74
     0
 49
0.0
 74
     0
 49
-0.5
 74
     0
 49
0.0
 74
     0
 49
-0.5
 74
     0
  0
LTYPE
  5
31
330
5
100
AcDbSymbolTableRecord
100
AcDbLinetypeTableRecord
  2
DOT
 70
     0
  3
. . . . . . . . . . . . . . . . . . 
 72
    65
 73
     2
 40
0.25
 49
0.0
 74
     0
 49
-0.25
 74
     0
  0
LTYPE
  5
32
330
5
100
AcDbSymbolTableRecord
100
AcDbLinetypeTableRecord
  2
DOT2
 70
     0
  3
....................................
 72
    65
 73
     2
 40
0.125
 49
0.0
 74
     0
 49
-0.125
 74
     0
  0
LTYPE
  5
33
330
5
100
AcDbSymbolTableRecord
100
AcDbLinetypeTableRecord
  2
DOTX2
 70
     0
  3
.  .  .  .  .  .  .  .  .  .  .  .  .  
 72
    65
 73
     2
 40
0.5
 49
0.0
 74
     0
 49
-0.5
 74
     0
  0
LTYPE
  5
34
330
5
100
AcDbSymbolTableRecord
100
AcDbLinetypeTableRecord
  2
HIDDEN
 70
     0
  3
__ __ __ __ __ __ __ __ __ __ __ __ 
 72
    65
 73
     2
 40
0.375
 49
0.25
 74
     0
 49
-0.125
 74
     0
  0
LTYPE
  5
35
330
5
100
AcDbSymbolTableRecord
100
AcDbLinetypeTableRecord
  2
HIDDEN2
 70
     0
  3
_ _ _ _ _ _ _ _ _ _ _ _ _ _ _ _ _ _ 
 72
    65
 73
     2
 40
0.1875
 49
0.125
 74
     0
 49
-0.0625
 74
     0
  0
LTYPE
  5
36
330
5
100
AcDbSymbolTableRecord
100
AcDbLinetypeTableRecord
  2
HIDDENX2
 70
     0
  3
____ ____ ____ ____ ____ ____ ____ 
 72
    65
 73
     2
 40
0.75
 49
0.5
 74
     0
 49
-0.25
 74
     0
  0
LTYPE
  5
37
330
5
100
AcDbSymbolTableRecord
100
AcDbLinetypeTableRecord
  2
PHANTOM
 70
     0
  3
______  __  __  ______  __  __  
 72
    65
 73
     6
 40
2.5
 49
1.25
 74
     0
 49
-0.25
 74
     0
 49
0.25
 74
     0
 49
-0.25
 74
     0
 49
0.25
 74
     0
 49
-0.25
 74
     0
  0
LTYPE
  5
38
330
5
100
AcDbSymbolTableRecord
100
AcDbLinetypeTableRecord
  2
PHANTOM2
 70
     0
  3
___ _ _ ___ _ _ ___ _ _ ___ _ _ 
 72
    65
 73
     6
 40
1.25
 49
0.625
 74
     0
 49
-0.125
 74
     0
 49
0.125
 74
     0
 49
-0.125
 74
     0
 49
0.125
 74
     0
 49
-0.125
 74
     0
  0
LTYPE
  5
39
330
5
100
AcDbSymbolTableRecord
100
AcDbLinetypeTableRecord
  2
PHANTOMX2
 70
     0
  3
___ _ _ ___ _ _ ___ _ _ ___ _ _ 
 72
    65
 73
     6
 40
5.0
 49
2.5
 74
     0
 49
-0.5
 74
     0
 49
0.5
 74
     0
 49
-0.5
 74
     0
 49
0.5
 74
     0
 49
-0.5
 74
     0
  0
ENDTAB
  0
TABLE
  2
LAYER
  5
2
330
0
100
AcDbSymbolTable
 70
   257
  0
LAYER
  5
10
330
2
100
AcDbSymbolTableRecord
100
AcDbLayerTableRecord
  2
0
 70
     0
 62
     7
  6
CONTINUOUS
  0
LAYER
  5
3A
330
2
100
AcDbSymbolTableRecord
100
AcDbLayerTableRecord
  2
1
 70
     0
 62
     1
  6
CONTINUOUS
  0
LAYER
  5
3B
330
2
100
AcDbSymbolTableRecord
100
AcDbLayerTableRecord
  2
2
 70
     0
 62
     2
  6
CONTINUOUS
  0
LAYER
  5
3C
330
2
100
AcDbSymbolTableRecord
100
AcDbLayerTableRecord
  2
3
 70
     0
 62
     3
  6
CONTINUOUS
  0
LAYER
  5
3D
330
2
100
AcDbSymbolTableRecord
100
AcDbLayerTableRecord
  2
4
 70
     0
 62
     4
  6
CONTINUOUS
  0
LAYER
  5
3E
330
2
100
AcDbSymbolTableRecord
100
AcDbLayerTableRecord
  2
5
 70
     0
 62
     5
  6
CONTINUOUS
  0
LAYER
  5
3F
330
2
100
AcDbSymbolTableRecord
100
AcDbLayerTableRecord
  2
6
 70
     0
 62
     6
  6
CONTINUOUS
  0
LAYER
  5
40
330
2
100
AcDbSymbolTableRecord
100
AcDbLayerTableRecord
  2
7
 70
     0
 62
     7
  6
CONTINUOUS
  0
LAYER
  5
41
330
2
100
AcDbSymbolTableRecord
100
AcDbLayerTableRecord
  2
8
 70
     0
 62
     8
  6
CONTINUOUS
  0
LAYER
  5
42
330
2
100
AcDbSymbolTableRecord
100
AcDbLayerTableRecord
  2
9
 70
     0
 62
     9
  6
CONTINUOUS
  0
LAYER
  5
43
330
2
100
AcDbSymbolTableRecord
100
AcDbLayerTableRecord
  2
10
 70
     0
 62
    10
  6
CONTINUOUS
  0
LAYER
  5
44
330
2
100
AcDbSymbolTableRecord
100
AcDbLayerTableRecord
  2
11
 70
     0
 62
    11
  6
CONTINUOUS
  0
LAYER
  5
45
330
2
100
AcDbSymbolTableRecord
100
AcDbLayerTableRecord
  2
12
 70
     0
 62
    12
  6
CONTINUOUS
  0
LAYER
  5
46
330
2
100
AcDbSymbolTableRecord
100
AcDbLayerTableRecord
  2
13
 70
     0
 62
    13
  6
CONTINUOUS
  0
LAYER
  5
47
330
2
100
AcDbSymbolTableRecord
100
AcDbLayerTableRecord
  2
14
 70
     0
 62
    14
  6
CONTINUOUS
  0
LAYER
  5
48
330
2
100
AcDbSymbolTableRecord
100
AcDbLayerTableRecord
  2
15
 70
     0
 62
    15
  6
CONTINUOUS
  0
LAYER
  5
49
330
2
100
AcDbSymbolTableRecord
100
AcDbLayerTableRecord
  2
16
 70
     0
 62
    16
  6
CONTINUOUS
  0
LAYER
  5
4A
330
2
100
AcDbSymbolTableRecord
100
AcDbLayerTableRecord
  2
17
 70
     0
 62
    17
  6
CONTINUOUS
  0
LAYER
  5
4B
330
2
100
AcDbSymbolTableRecord
100
AcDbLayerTableRecord
  2
18
 70
     0
 62
    18
  6
CONTINUOUS
  0
LAYER
  5
4C
330
2
100
AcDbSymbolTableRecord
100
AcDbLayerTableRecord
  2
19
 70
     0
 62
    19
  6
CONTINUOUS
  0
LAYER
  5
4D
330
2
100
AcDbSymbolTableRecord
100
AcDbLayerTableRecord
  2
20
 70
     0
 62
    20
  6
CONTINUOUS
  0
LAYER
  5
4E
330
2
100
AcDbSymbolTableRecord
100
AcDbLayerTableRecord
  2
21
 70
     0
 62
    21
  6
CONTINUOUS
  0
LAYER
  5
4F
330
2
100
AcDbSymbolTableRecord
100
AcDbLayerTableRecord
  2
22
 70
     0
 62
    22
  6
CONTINUOUS
  0
LAYER
  5
50
330
2
100
AcDbSymbolTableRecord
100
AcDbLayerTableRecord
  2
23
 70
     0
 62
    23
  6
CONTINUOUS
  0
LAYER
  5
51
330
2
100
AcDbSymbolTableRecord
100
AcDbLayerTableRecord
  2
24
 70
     0
 62
    24
  6
CONTINUOUS
  0
LAYER
  5
52
330
2
100
AcDbSymbolTableRecord
100
AcDbLayerTableRecord
  2
25
 70
     0
 62
    25
  6
CONTINUOUS
  0
LAYER
  5
53
330
2
100
AcDbSymbolTableRecord
100
AcDbLayerTableRecord
  2
26
 70
     0
 62
    26
  6
CONTINUOUS
  0
LAYER
  5
54
330
2
100
AcDbSymbolTableRecord
100
AcDbLayerTableRecord
  2
27
 70
     0
 62
    27
  6
CONTINUOUS
  0
LAYER
  5
55
330
2
100
AcDbSymbolTableRecord
100
AcDbLayerTableRecord
  2
28
 70
     0
 62
    28
  6
CONTINUOUS
  0
LAYER
  5
56
330
2
100
AcDbSymbolTableRecord
100
AcDbLayerTableRecord
  2
29
 70
     0
 62
    29
  6
CONTINUOUS
  0
LAYER
  5
57
330
2
100
AcDbSymbolTableRecord
100
AcDbLayerTableRecord
  2
30
 70
     0
 62
    30
  6
CONTINUOUS
  0
LAYER
  5
58
330
2
100
AcDbSymbolTableRecord
100
AcDbLayerTableRecord
  2
31
 70
     0
 62
    31
  6
CONTINUOUS
  0
LAYER
  5
59
330
2
100
AcDbSymbolTableRecord
100
AcDbLayerTableRecord
  2
32
 70
     0
 62
    32
  6
CONTINUOUS
  0
LAYER
  5
5A
330
2
100
AcDbSymbolTableRecord
100
AcDbLayerTableRecord
  2
33
 70
     0
 62
    33
  6
CONTINUOUS
  0
LAYER
  5
5B
330
2
100
AcDbSymbolTableRecord
100
AcDbLayerTableRecord
  2
34
 70
     0
 62
    34
  6
CONTINUOUS
  0
LAYER
  5
5C
330
2
100
AcDbSymbolTableRecord
100
AcDbLayerTableRecord
  2
35
 70
     0
 62
    35
  6
CONTINUOUS
  0
LAYER
  5
5D
330
2
100
AcDbSymbolTableRecord
100
AcDbLayerTableRecord
  2
36
 70
     0
 62
    36
  6
CONTINUOUS
  0
LAYER
  5
5E
330
2
100
AcDbSymbolTableRecord
100
AcDbLayerTableRecord
  2
37
 70
     0
 62
    37
  6
CONTINUOUS
  0
LAYER
  5
5F
330
2
100
AcDbSymbolTableRecord
100
AcDbLayerTableRecord
  2
38
 70
     0
 62
    38
  6
CONTINUOUS
  0
LAYER
  5
60
330
2
100
AcDbSymbolTableRecord
100
AcDbLayerTableRecord
  2
39
 70
     0
 62
    39
  6
CONTINUOUS
  0
LAYER
  5
61
330
2
100
AcDbSymbolTableRecord
100
AcDbLayerTableRecord
  2
40
 70
     0
 62
    40
  6
CONTINUOUS
  0
LAYER
  5
62
330
2
100
AcDbSymbolTableRecord
100
AcDbLayerTableRecord
  2
41
 70
     0
 62
    41
  6
CONTINUOUS
  0
LAYER
  5
63
330
2
100
AcDbSymbolTableRecord
100
AcDbLayerTableRecord
  2
42
 70
     0
 62
    42
  6
CONTINUOUS
  0
LAYER
  5
64
330
2
100
AcDbSymbolTableRecord
100
AcDbLayerTableRecord
  2
43
 70
     0
 62
    43
  6
CONTINUOUS
  0
LAYER
  5
65
330
2
100
AcDbSymbolTableRecord
100
AcDbLayerTableRecord
  2
44
 70
     0
 62
    44
  6
CONTINUOUS
  0
LAYER
  5
66
330
2
100
AcDbSymbolTableRecord
100
AcDbLayerTableRecord
  2
45
 70
     0
 62
    45
  6
CONTINUOUS
  0
LAYER
  5
67
330
2
100
AcDbSymbolTableRecord
100
AcDbLayerTableRecord
  2
46
 70
     0
 62
    46
  6
CONTINUOUS
  0
LAYER
  5
68
330
2
100
AcDbSymbolTableRecord
100
AcDbLayerTableRecord
  2
47
 70
     0
 62
    47
  6
CONTINUOUS
  0
LAYER
  5
69
330
2
100
AcDbSymbolTableRecord
100
AcDbLayerTableRecord
  2
48
 70
     0
 62
    48
  6
CONTINUOUS
  0
LAYER
  5
6A
330
2
100
AcDbSymbolTableRecord
100
AcDbLayerTableRecord
  2
49
 70
     0
 62
    49
  6
CONTINUOUS
  0
LAYER
  5
6B
330
2
100
AcDbSymbolTableRecord
100
AcDbLayerTableRecord
  2
50
 70
     0
 62
    50
  6
CONTINUOUS
  0
LAYER
  5
6C
330
2
100
AcDbSymbolTableRecord
100
AcDbLayerTableRecord
  2
51
 70
     0
 62
    51
  6
CONTINUOUS
  0
LAYER
  5
6D
330
2
100
AcDbSymbolTableRecord
100
AcDbLayerTableRecord
  2
52
 70
     0
 62
    52
  6
CONTINUOUS
  0
LAYER
  5
6E
330
2
100
AcDbSymbolTableRecord
100
AcDbLayerTableRecord
  2
53
 70
     0
 62
    53
  6
CONTINUOUS
  0
LAYER
  5
6F
330
2
100
AcDbSymbolTableRecord
100
AcDbLayerTableRecord
  2
54
 70
     0
 62
    54
  6
CONTINUOUS
  0
LAYER
  5
70
330
2
100
AcDbSymbolTableRecord
100
AcDbLayerTableRecord
  2
55
 70
     0
 62
    55
  6
CONTINUOUS
  0
LAYER
  5
71
330
2
100
AcDbSymbolTableRecord
100
AcDbLayerTableRecord
  2
56
 70
     0
 62
    56
  6
CONTINUOUS
  0
LAYER
  5
72
330
2
100
AcDbSymbolTableRecord
100
AcDbLayerTableRecord
  2
57
 70
     0
 62
    57
  6
CONTINUOUS
  0
LAYER
  5
73
330
2
100
AcDbSymbolTableRecord
100
AcDbLayerTableRecord
  2
58
 70
     0
 62
    58
  6
CONTINUOUS
  0
LAYER
  5
74
330
2
100
AcDbSymbolTableRecord
100
AcDbLayerTableRecord
  2
59
 70
     0
 62
    59
  6
CONTINUOUS
  0
LAYER
  5
75
330
2
100
AcDbSymbolTableRecord
100
AcDbLayerTableRecord
  2
60
 70
     0
 62
    60
  6
CONTINUOUS
  0
LAYER
  5
76
330
2
100
AcDbSymbolTableRecord
100
AcDbLayerTableRecord
  2
61
 70
     0
 62
    61
  6
CONTINUOUS
  0
LAYER
  5
77
330
2
100
AcDbSymbolTableRecord
100
AcDbLayerTableRecord
  2
62
 70
     0
 62
    62
  6
CONTINUOUS
  0
LAYER
  5
78
330
2
100
AcDbSymbolTableRecord
100
AcDbLayerTableRecord
  2
63
 70
     0
 62
    63
  6
CONTINUOUS
  0
LAYER
  5
79
330
2
100
AcDbSymbolTableRecord
100
AcDbLayerTableRecord
  2
64
 70
     0
 62
    64
  6
CONTINUOUS
  0
LAYER
  5
7A
330
2
100
AcDbSymbolTableRecord
100
AcDbLayerTableRecord
  2
65
 70
     0
 62
    65
  6
CONTINUOUS
  0
LAYER
  5
7B
330
2
100
AcDbSymbolTableRecord
100
AcDbLayerTableRecord
  2
66
 70
     0
 62
    66
  6
CONTINUOUS
  0
LAYER
  5
7C
330
2
100
AcDbSymbolTableRecord
100
AcDbLayerTableRecord
  2
67
 70
     0
 62
    67
  6
CONTINUOUS
  0
LAYER
  5
7D
330
2
100
AcDbSymbolTableRecord
100
AcDbLayerTableRecord
  2
68
 70
     0
 62
    68
  6
CONTINUOUS
  0
LAYER
  5
7E
330
2
100
AcDbSymbolTableRecord
100
AcDbLayerTableRecord
  2
69
 70
     0
 62
    69
  6
CONTINUOUS
  0
LAYER
  5
7F
330
2
100
AcDbSymbolTableRecord
100
AcDbLayerTableRecord
  2
70
 70
     0
 62
    70
  6
CONTINUOUS
  0
LAYER
  5
80
330
2
100
AcDbSymbolTableRecord
100
AcDbLayerTableRecord
  2
71
 70
     0
 62
    71
  6
CONTINUOUS
  0
LAYER
  5
81
330
2
100
AcDbSymbolTableRecord
100
AcDbLayerTableRecord
  2
72
 70
     0
 62
    72
  6
CONTINUOUS
  0
LAYER
  5
82
330
2
100
AcDbSymbolTableRecord
100
AcDbLayerTableRecord
  2
73
 70
     0
 62
    73
  6
CONTINUOUS
  0
LAYER
  5
83
330
2
100
AcDbSymbolTableRecord
100
AcDbLayerTableRecord
  2
74
 70
     0
 62
    74
  6
CONTINUOUS
  0
LAYER
  5
84
330
2
100
AcDbSymbolTableRecord
100
AcDbLayerTableRecord
  2
75
 70
     0
 62
    75
  6
CONTINUOUS
  0
LAYER
  5
85
330
2
100
AcDbSymbolTableRecord
100
AcDbLayerTableRecord
  2
76
 70
     0
 62
    76
  6
CONTINUOUS
  0
LAYER
  5
86
330
2
100
AcDbSymbolTableRecord
100
AcDbLayerTableRecord
  2
77
 70
     0
 62
    77
  6
CONTINUOUS
  0
LAYER
  5
87
330
2
100
AcDbSymbolTableRecord
100
AcDbLayerTableRecord
  2
78
 70
     0
 62
    78
  6
CONTINUOUS
  0
LAYER
  5
88
330
2
100
AcDbSymbolTableRecord
100
AcDbLayerTableRecord
  2
79
 70
     0
 62
    79
  6
CONTINUOUS
  0
LAYER
  5
89
330
2
100
AcDbSymbolTableRecord
100
AcDbLayerTableRecord
  2
80
 70
     0
 62
    80
  6
CONTINUOUS
  0
LAYER
  5
8A
330
2
100
AcDbSymbolTableRecord
100
AcDbLayerTableRecord
  2
81
 70
     0
 62
    81
  6
CONTINUOUS
  0
LAYER
  5
8B
330
2
100
AcDbSymbolTableRecord
100
AcDbLayerTableRecord
  2
82
 70
     0
 62
    82
  6
CONTINUOUS
  0
LAYER
  5
8C
330
2
100
AcDbSymbolTableRecord
100
AcDbLayerTableRecord
  2
83
 70
     0
 62
    83
  6
CONTINUOUS
  0
LAYER
  5
8D
330
2
100
AcDbSymbolTableRecord
100
AcDbLayerTableRecord
  2
84
 70
     0
 62
    84
  6
CONTINUOUS
  0
LAYER
  5
8E
330
2
100
AcDbSymbolTableRecord
100
AcDbLayerTableRecord
  2
85
 70
     0
 62
    85
  6
CONTINUOUS
  0
LAYER
  5
8F
330
2
100
AcDbSymbolTableRecord
100
AcDbLayerTableRecord
  2
86
 70
     0
 62
    86
  6
CONTINUOUS
  0
LAYER
  5
90
330
2
100
AcDbSymbolTableRecord
100
AcDbLayerTableRecord
  2
87
 70
     0
 62
    87
  6
CONTINUOUS
  0
LAYER
  5
91
330
2
100
AcDbSymbolTableRecord
100
AcDbLayerTableRecord
  2
88
 70
     0
 62
    88
  6
CONTINUOUS
  0
LAYER
  5
92
330
2
100
AcDbSymbolTableRecord
100
AcDbLayerTableRecord
  2
89
 70
     0
 62
    89
  6
CONTINUOUS
  0
LAYER
  5
93
330
2
100
AcDbSymbolTableRecord
100
AcDbLayerTableRecord
  2
90
 70
     0
 62
    90
  6
CONTINUOUS
  0
LAYER
  5
94
330
2
100
AcDbSymbolTableRecord
100
AcDbLayerTableRecord
  2
91
 70
     0
 62
    91
  6
CONTINUOUS
  0
LAYER
  5
95
330
2
100
AcDbSymbolTableRecord
100
AcDbLayerTableRecord
  2
92
 70
     0
 62
    92
  6
CONTINUOUS
  0
LAYER
  5
96
330
2
100
AcDbSymbolTableRecord
100
AcDbLayerTableRecord
  2
93
 70
     0
 62
    93
  6
CONTINUOUS
  0
LAYER
  5
97
330
2
100
AcDbSymbolTableRecord
100
AcDbLayerTableRecord
  2
94
 70
     0
 62
    94
  6
CONTINUOUS
  0
LAYER
  5
98
330
2
100
AcDbSymbolTableRecord
100
AcDbLayerTableRecord
  2
95
 70
     0
 62
    95
  6
CONTINUOUS
  0
LAYER
  5
99
330
2
100
AcDbSymbolTableRecord
100
AcDbLayerTableRecord
  2
96
 70
     0
 62
    96
  6
CONTINUOUS
  0
LAYER
  5
9A
330
2
100
AcDbSymbolTableRecord
100
AcDbLayerTableRecord
  2
97
 70
     0
 62
    97
  6
CONTINUOUS
  0
LAYER
  5
9B
330
2
100
AcDbSymbolTableRecord
100
AcDbLayerTableRecord
  2
98
 70
     0
 62
    98
  6
CONTINUOUS
  0
LAYER
  5
9C
330
2
100
AcDbSymbolTableRecord
100
AcDbLayerTableRecord
  2
99
 70
     0
 62
    99
  6
CONTINUOUS
  0
LAYER
  5
9D
330
2
100
AcDbSymbolTableRecord
100
AcDbLayerTableRecord
  2
100
 70
     0
 62
   100
  6
CONTINUOUS
  0
LAYER
  5
9E
330
2
100
AcDbSymbolTableRecord
100
AcDbLayerTableRecord
  2
101
 70
     0
 62
   101
  6
CONTINUOUS
  0
LAYER
  5
9F
330
2
100
AcDbSymbolTableRecord
100
AcDbLayerTableRecord
  2
102
 70
     0
 62
   102
  6
CONTINUOUS
  0
LAYER
  5
A0
330
2
100
AcDbSymbolTableRecord
100
AcDbLayerTableRecord
  2
103
 70
     0
 62
   103
  6
CONTINUOUS
  0
LAYER
  5
A1
330
2
100
AcDbSymbolTableRecord
100
AcDbLayerTableRecord
  2
104
 70
     0
 62
   104
  6
CONTINUOUS
  0
LAYER
  5
A2
330
2
100
AcDbSymbolTableRecord
100
AcDbLayerTableRecord
  2
105
 70
     0
 62
   105
  6
CONTINUOUS
  0
LAYER
  5
A3
330
2
100
AcDbSymbolTableRecord
100
AcDbLayerTableRecord
  2
106
 70
     0
 62
   106
  6
CONTINUOUS
  0
LAYER
  5
A4
330
2
100
AcDbSymbolTableRecord
100
AcDbLayerTableRecord
  2
107
 70
     0
 62
   107
  6
CONTINUOUS
  0
LAYER
  5
A5
330
2
100
AcDbSymbolTableRecord
100
AcDbLayerTableRecord
  2
108
 70
     0
 62
   108
  6
CONTINUOUS
  0
LAYER
  5
A6
330
2
100
AcDbSymbolTableRecord
100
AcDbLayerTableRecord
  2
109
 70
     0
 62
   109
  6
CONTINUOUS
  0
LAYER
  5
A7
330
2
100
AcDbSymbolTableRecord
100
AcDbLayerTableRecord
  2
110
 70
     0
 62
   110
  6
CONTINUOUS
  0
LAYER
  5
A8
330
2
100
AcDbSymbolTableRecord
100
AcDbLayerTableRecord
  2
111
 70
     0
 62
   111
  6
CONTINUOUS
  0
LAYER
  5
A9
330
2
100
AcDbSymbolTableRecord
100
AcDbLayerTableRecord
  2
112
 70
     0
 62
   112
  6
CONTINUOUS
  0
LAYER
  5
AA
330
2
100
AcDbSymbolTableRecord
100
AcDbLayerTableRecord
  2
113
 70
     0
 62
   113
  6
CONTINUOUS
  0
LAYER
  5
AB
330
2
100
AcDbSymbolTableRecord
100
AcDbLayerTableRecord
  2
114
 70
     0
 62
   114
  6
CONTINUOUS
  0
LAYER
  5
AC
330
2
100
AcDbSymbolTableRecord
100
AcDbLayerTableRecord
  2
115
 70
     0
 62
   115
  6
CONTINUOUS
  0
LAYER
  5
AD
330
2
100
AcDbSymbolTableRecord
100
AcDbLayerTableRecord
  2
116
 70
     0
 62
   116
  6
CONTINUOUS
  0
LAYER
  5
AE
330
2
100
AcDbSymbolTableRecord
100
AcDbLayerTableRecord
  2
117
 70
     0
 62
   117
  6
CONTINUOUS
  0
LAYER
  5
AF
330
2
100
AcDbSymbolTableRecord
100
AcDbLayerTableRecord
  2
118
 70
     0
 62
   118
  6
CONTINUOUS
  0
LAYER
  5
B0
330
2
100
AcDbSymbolTableRecord
100
AcDbLayerTableRecord
  2
119
 70
     0
 62
   119
  6
CONTINUOUS
  0
LAYER
  5
B1
330
2
100
AcDbSymbolTableRecord
100
AcDbLayerTableRecord
  2
120
 70
     0
 62
   120
  6
CONTINUOUS
  0
LAYER
  5
B2
330
2
100
AcDbSymbolTableRecord
100
AcDbLayerTableRecord
  2
121
 70
     0
 62
   121
  6
CONTINUOUS
  0
LAYER
  5
B3
330
2
100
AcDbSymbolTableRecord
100
AcDbLayerTableRecord
  2
122
 70
     0
 62
   122
  6
CONTINUOUS
  0
LAYER
  5
B4
330
2
100
AcDbSymbolTableRecord
100
AcDbLayerTableRecord
  2
123
 70
     0
 62
   123
  6
CONTINUOUS
  0
LAYER
  5
B5
330
2
100
AcDbSymbolTableRecord
100
AcDbLayerTableRecord
  2
124
 70
     0
 62
   124
  6
CONTINUOUS
  0
LAYER
  5
B6
330
2
100
AcDbSymbolTableRecord
100
AcDbLayerTableRecord
  2
125
 70
     0
 62
   125
  6
CONTINUOUS
  0
LAYER
  5
B7
330
2
100
AcDbSymbolTableRecord
100
AcDbLayerTableRecord
  2
126
 70
     0
 62
   126
  6
CONTINUOUS
  0
LAYER
  5
B8
330
2
100
AcDbSymbolTableRecord
100
AcDbLayerTableRecord
  2
127
 70
     0
 62
   127
  6
CONTINUOUS
  0
LAYER
  5
B9
330
2
100
AcDbSymbolTableRecord
100
AcDbLayerTableRecord
  2
128
 70
     0
 62
   128
  6
CONTINUOUS
  0
LAYER
  5
BA
330
2
100
AcDbSymbolTableRecord
100
AcDbLayerTableRecord
  2
129
 70
     0
 62
   129
  6
CONTINUOUS
  0
LAYER
  5
BB
330
2
100
AcDbSymbolTableRecord
100
AcDbLayerTableRecord
  2
130
 70
     0
 62
   130
  6
CONTINUOUS
  0
LAYER
  5
BC
330
2
100
AcDbSymbolTableRecord
100
AcDbLayerTableRecord
  2
131
 70
     0
 62
   131
  6
CONTINUOUS
  0
LAYER
  5
BD
330
2
100
AcDbSymbolTableRecord
100
AcDbLayerTableRecord
  2
132
 70
     0
 62
   132
  6
CONTINUOUS
  0
LAYER
  5
BE
330
2
100
AcDbSymbolTableRecord
100
AcDbLayerTableRecord
  2
133
 70
     0
 62
   133
  6
CONTINUOUS
  0
LAYER
  5
BF
330
2
100
AcDbSymbolTableRecord
100
AcDbLayerTableRecord
  2
134
 70
     0
 62
   134
  6
CONTINUOUS
  0
LAYER
  5
C0
330
2
100
AcDbSymbolTableRecord
100
AcDbLayerTableRecord
  2
135
 70
     0
 62
   135
  6
CONTINUOUS
  0
LAYER
  5
C1
330
2
100
AcDbSymbolTableRecord
100
AcDbLayerTableRecord
  2
136
 70
     0
 62
   136
  6
CONTINUOUS
  0
LAYER
  5
C2
330
2
100
AcDbSymbolTableRecord
100
AcDbLayerTableRecord
  2
137
 70
     0
 62
   137
  6
CONTINUOUS
  0
LAYER
  5
C3
330
2
100
AcDbSymbolTableRecord
100
AcDbLayerTableRecord
  2
138
 70
     0
 62
   138
  6
CONTINUOUS
  0
LAYER
  5
C4
330
2
100
AcDbSymbolTableRecord
100
AcDbLayerTableRecord
  2
139
 70
     0
 62
   139
  6
CONTINUOUS
  0
LAYER
  5
C5
330
2
100
AcDbSymbolTableRecord
100
AcDbLayerTableRecord
  2
140
 70
     0
 62
   140
  6
CONTINUOUS
  0
LAYER
  5
C6
330
2
100
AcDbSymbolTableRecord
100
AcDbLayerTableRecord
  2
141
 70
     0
 62
   141
  6
CONTINUOUS
  0
LAYER
  5
C7
330
2
100
AcDbSymbolTableRecord
100
AcDbLayerTableRecord
  2
142
 70
     0
 62
   142
  6
CONTINUOUS
  0
LAYER
  5
C8
330
2
100
AcDbSymbolTableRecord
100
AcDbLayerTableRecord
  2
143
 70
     0
 62
   143
  6
CONTINUOUS
  0
LAYER
  5
C9
330
2
100
AcDbSymbolTableRecord
100
AcDbLayerTableRecord
  2
144
 70
     0
 62
   144
  6
CONTINUOUS
  0
LAYER
  5
CA
330
2
100
AcDbSymbolTableRecord
100
AcDbLayerTableRecord
  2
145
 70
     0
 62
   145
  6
CONTINUOUS
  0
LAYER
  5
CB
330
2
100
AcDbSymbolTableRecord
100
AcDbLayerTableRecord
  2
146
 70
     0
 62
   146
  6
CONTINUOUS
  0
LAYER
  5
CC
330
2
100
AcDbSymbolTableRecord
100
AcDbLayerTableRecord
  2
147
 70
     0
 62
   147
  6
CONTINUOUS
  0
LAYER
  5
CD
330
2
100
AcDbSymbolTableRecord
100
AcDbLayerTableRecord
  2
148
 70
     0
 62
   148
  6
CONTINUOUS
  0
LAYER
  5
CE
330
2
100
AcDbSymbolTableRecord
100
AcDbLayerTableRecord
  2
149
 70
     0
 62
   149
  6
CONTINUOUS
  0
LAYER
  5
CF
330
2
100
AcDbSymbolTableRecord
100
AcDbLayerTableRecord
  2
150
 70
     0
 62
   150
  6
CONTINUOUS
  0
LAYER
  5
D0
330
2
100
AcDbSymbolTableRecord
100
AcDbLayerTableRecord
  2
151
 70
     0
 62
   151
  6
CONTINUOUS
  0
LAYER
  5
D1
330
2
100
AcDbSymbolTableRecord
100
AcDbLayerTableRecord
  2
152
 70
     0
 62
   152
  6
CONTINUOUS
  0
LAYER
  5
D2
330
2
100
AcDbSymbolTableRecord
100
AcDbLayerTableRecord
  2
153
 70
     0
 62
   153
  6
CONTINUOUS
  0
LAYER
  5
D3
330
2
100
AcDbSymbolTableRecord
100
AcDbLayerTableRecord
  2
154
 70
     0
 62
   154
  6
CONTINUOUS
  0
LAYER
  5
D4
330
2
100
AcDbSymbolTableRecord
100
AcDbLayerTableRecord
  2
155
 70
     0
 62
   155
  6
CONTINUOUS
  0
LAYER
  5
D5
330
2
100
AcDbSymbolTableRecord
100
AcDbLayerTableRecord
  2
156
 70
     0
 62
   156
  6
CONTINUOUS
  0
LAYER
  5
D6
330
2
100
AcDbSymbolTableRecord
100
AcDbLayerTableRecord
  2
157
 70
     0
 62
   157
  6
CONTINUOUS
  0
LAYER
  5
D7
330
2
100
AcDbSymbolTableRecord
100
AcDbLayerTableRecord
  2
158
 70
     0
 62
   158
  6
CONTINUOUS
  0
LAYER
  5
D8
330
2
100
AcDbSymbolTableRecord
100
AcDbLayerTableRecord
  2
159
 70
     0
 62
   159
  6
CONTINUOUS
  0
LAYER
  5
D9
330
2
100
AcDbSymbolTableRecord
100
AcDbLayerTableRecord
  2
160
 70
     0
 62
   160
  6
CONTINUOUS
  0
LAYER
  5
DA
330
2
100
AcDbSymbolTableRecord
100
AcDbLayerTableRecord
  2
161
 70
     0
 62
   161
  6
CONTINUOUS
  0
LAYER
  5
DB
330
2
100
AcDbSymbolTableRecord
100
AcDbLayerTableRecord
  2
162
 70
     0
 62
   162
  6
CONTINUOUS
  0
LAYER
  5
DC
330
2
100
AcDbSymbolTableRecord
100
AcDbLayerTableRecord
  2
163
 70
     0
 62
   163
  6
CONTINUOUS
  0
LAYER
  5
DD
330
2
100
AcDbSymbolTableRecord
100
AcDbLayerTableRecord
  2
164
 70
     0
 62
   164
  6
CONTINUOUS
  0
LAYER
  5
DE
330
2
100
AcDbSymbolTableRecord
100
AcDbLayerTableRecord
  2
165
 70
     0
 62
   165
  6
CONTINUOUS
  0
LAYER
  5
DF
330
2
100
AcDbSymbolTableRecord
100
AcDbLayerTableRecord
  2
166
 70
     0
 62
   166
  6
CONTINUOUS
  0
LAYER
  5
E0
330
2
100
AcDbSymbolTableRecord
100
AcDbLayerTableRecord
  2
167
 70
     0
 62
   167
  6
CONTINUOUS
  0
LAYER
  5
E1
330
2
100
AcDbSymbolTableRecord
100
AcDbLayerTableRecord
  2
168
 70
     0
 62
   168
  6
CONTINUOUS
  0
LAYER
  5
E2
330
2
100
AcDbSymbolTableRecord
100
AcDbLayerTableRecord
  2
169
 70
     0
 62
   169
  6
CONTINUOUS
  0
LAYER
  5
E3
330
2
100
AcDbSymbolTableRecord
100
AcDbLayerTableRecord
  2
170
 70
     0
 62
   170
  6
CONTINUOUS
  0
LAYER
  5
E4
330
2
100
AcDbSymbolTableRecord
100
AcDbLayerTableRecord
  2
171
 70
     0
 62
   171
  6
CONTINUOUS
  0
LAYER
  5
E5
330
2
100
AcDbSymbolTableRecord
100
AcDbLayerTableRecord
  2
172
 70
     0
 62
   172
  6
CONTINUOUS
  0
LAYER
  5
E6
330
2
100
AcDbSymbolTableRecord
100
AcDbLayerTableRecord
  2
173
 70
     0
 62
   173
  6
CONTINUOUS
  0
LAYER
  5
E7
330
2
100
AcDbSymbolTableRecord
100
AcDbLayerTableRecord
  2
174
 70
     0
 62
   174
  6
CONTINUOUS
  0
LAYER
  5
E8
330
2
100
AcDbSymbolTableRecord
100
AcDbLayerTableRecord
  2
175
 70
     0
 62
   175
  6
CONTINUOUS
  0
LAYER
  5
E9
330
2
100
AcDbSymbolTableRecord
100
AcDbLayerTableRecord
  2
176
 70
     0
 62
   176
  6
CONTINUOUS
  0
LAYER
  5
EA
330
2
100
AcDbSymbolTableRecord
100
AcDbLayerTableRecord
  2
177
 70
     0
 62
   177
  6
CONTINUOUS
  0
LAYER
  5
EB
330
2
100
AcDbSymbolTableRecord
100
AcDbLayerTableRecord
  2
178
 70
     0
 62
   178
  6
CONTINUOUS
  0
LAYER
  5
EC
330
2
100
AcDbSymbolTableRecord
100
AcDbLayerTableRecord
  2
179
 70
     0
 62
   179
  6
CONTINUOUS
  0
LAYER
  5
ED
330
2
100
AcDbSymbolTableRecord
100
AcDbLayerTableRecord
  2
180
 70
     0
 62
   180
  6
CONTINUOUS
  0
LAYER
  5
EE
330
2
100
AcDbSymbolTableRecord
100
AcDbLayerTableRecord
  2
181
 70
     0
 62
   181
  6
CONTINUOUS
  0
LAYER
  5
EF
330
2
100
AcDbSymbolTableRecord
100
AcDbLayerTableRecord
  2
182
 70
     0
 62
   182
  6
CONTINUOUS
  0
LAYER
  5
F0
330
2
100
AcDbSymbolTableRecord
100
AcDbLayerTableRecord
  2
183
 70
     0
 62
   183
  6
CONTINUOUS
  0
LAYER
  5
F1
330
2
100
AcDbSymbolTableRecord
100
AcDbLayerTableRecord
  2
184
 70
     0
 62
   184
  6
CONTINUOUS
  0
LAYER
  5
F2
330
2
100
AcDbSymbolTableRecord
100
AcDbLayerTableRecord
  2
185
 70
     0
 62
   185
  6
CONTINUOUS
  0
LAYER
  5
F3
330
2
100
AcDbSymbolTableRecord
100
AcDbLayerTableRecord
  2
186
 70
     0
 62
   186
  6
CONTINUOUS
  0
LAYER
  5
F4
330
2
100
AcDbSymbolTableRecord
100
AcDbLayerTableRecord
  2
187
 70
     0
 62
   187
  6
CONTINUOUS
  0
LAYER
  5
F5
330
2
100
AcDbSymbolTableRecord
100
AcDbLayerTableRecord
  2
188
 70
     0
 62
   188
  6
CONTINUOUS
  0
LAYER
  5
F6
330
2
100
AcDbSymbolTableRecord
100
AcDbLayerTableRecord
  2
189
 70
     0
 62
   189
  6
CONTINUOUS
  0
LAYER
  5
F7
330
2
100
AcDbSymbolTableRecord
100
AcDbLayerTableRecord
  2
190
 70
     0
 62
   190
  6
CONTINUOUS
  0
LAYER
  5
F8
330
2
100
AcDbSymbolTableRecord
100
AcDbLayerTableRecord
  2
191
 70
     0
 62
   191
  6
CONTINUOUS
  0
LAYER
  5
F9
330
2
100
AcDbSymbolTableRecord
100
AcDbLayerTableRecord
  2
192
 70
     0
 62
   192
  6
CONTINUOUS
  0
LAYER
  5
FA
330
2
100
AcDbSymbolTableRecord
100
AcDbLayerTableRecord
  2
193
 70
     0
 62
   193
  6
CONTINUOUS
  0
LAYER
  5
FB
330
2
100
AcDbSymbolTableRecord
100
AcDbLayerTableRecord
  2
194
 70
     0
 62
   194
  6
CONTINUOUS
  0
LAYER
  5
FC
330
2
100
AcDbSymbolTableRecord
100
AcDbLayerTableRecord
  2
195
 70
     0
 62
   195
  6
CONTINUOUS
  0
LAYER
  5
FD
330
2
100
AcDbSymbolTableRecord
100
AcDbLayerTableRecord
  2
196
 70
     0
 62
   196
  6
CONTINUOUS
  0
LAYER
  5
FE
330
2
100
AcDbSymbolTableRecord
100
AcDbLayerTableRecord
  2
197
 70
     0
 62
   197
  6
CONTINUOUS
  0
LAYER
  5
FF
330
2
100
AcDbSymbolTableRecord
100
AcDbLayerTableRecord
  2
198
 70
     0
 62
   198
  6
CONTINUOUS
  0
LAYER
  5
100
330
2
100
AcDbSymbolTableRecord
100
AcDbLayerTableRecord
  2
199
 70
     0
 62
   199
  6
CONTINUOUS
  0
LAYER
  5
101
330
2
100
AcDbSymbolTableRecord
100
AcDbLayerTableRecord
  2
200
 70
     0
 62
   200
  6
CONTINUOUS
  0
LAYER
  5
102
330
2
100
AcDbSymbolTableRecord
100
AcDbLayerTableRecord
  2
201
 70
     0
 62
   201
  6
CONTINUOUS
  0
LAYER
  5
103
330
2
100
AcDbSymbolTableRecord
100
AcDbLayerTableRecord
  2
202
 70
     0
 62
   202
  6
CONTINUOUS
  0
LAYER
  5
104
330
2
100
AcDbSymbolTableRecord
100
AcDbLayerTableRecord
  2
203
 70
     0
 62
   203
  6
CONTINUOUS
  0
LAYER
  5
105
330
2
100
AcDbSymbolTableRecord
100
AcDbLayerTableRecord
  2
204
 70
     0
 62
   204
  6
CONTINUOUS
  0
LAYER
  5
106
330
2
100
AcDbSymbolTableRecord
100
AcDbLayerTableRecord
  2
205
 70
     0
 62
   205
  6
CONTINUOUS
  0
LAYER
  5
107
330
2
100
AcDbSymbolTableRecord
100
AcDbLayerTableRecord
  2
206
 70
     0
 62
   206
  6
CONTINUOUS
  0
LAYER
  5
108
330
2
100
AcDbSymbolTableRecord
100
AcDbLayerTableRecord
  2
207
 70
     0
 62
   207
  6
CONTINUOUS
  0
LAYER
  5
109
330
2
100
AcDbSymbolTableRecord
100
AcDbLayerTableRecord
  2
208
 70
     0
 62
   208
  6
CONTINUOUS
  0
LAYER
  5
10A
330
2
100
AcDbSymbolTableRecord
100
AcDbLayerTableRecord
  2
209
 70
     0
 62
   209
  6
CONTINUOUS
  0
LAYER
  5
10B
330
2
100
AcDbSymbolTableRecord
100
AcDbLayerTableRecord
  2
210
 70
     0
 62
   210
  6
CONTINUOUS
  0
LAYER
  5
10C
330
2
100
AcDbSymbolTableRecord
100
AcDbLayerTableRecord
  2
211
 70
     0
 62
   211
  6
CONTINUOUS
  0
LAYER
  5
10D
330
2
100
AcDbSymbolTableRecord
100
AcDbLayerTableRecord
  2
212
 70
     0
 62
   212
  6
CONTINUOUS
  0
LAYER
  5
10E
330
2
100
AcDbSymbolTableRecord
100
AcDbLayerTableRecord
  2
213
 70
     0
 62
   213
  6
CONTINUOUS
  0
LAYER
  5
10F
330
2
100
AcDbSymbolTableRecord
100
AcDbLayerTableRecord
  2
214
 70
     0
 62
   214
  6
CONTINUOUS
  0
LAYER
  5
110
330
2
100
AcDbSymbolTableRecord
100
AcDbLayerTableRecord
  2
215
 70
     0
 62
   215
  6
CONTINUOUS
  0
LAYER
  5
111
330
2
100
AcDbSymbolTableRecord
100
AcDbLayerTableRecord
  2
216
 70
     0
 62
   216
  6
CONTINUOUS
  0
LAYER
  5
112
330
2
100
AcDbSymbolTableRecord
100
AcDbLayerTableRecord
  2
217
 70
     0
 62
   217
  6
CONTINUOUS
  0
LAYER
  5
113
330
2
100
AcDbSymbolTableRecord
100
AcDbLayerTableRecord
  2
218
 70
     0
 62
   218
  6
CONTINUOUS
  0
LAYER
  5
114
330
2
100
AcDbSymbolTableRecord
100
AcDbLayerTableRecord
  2
219
 70
     0
 62
   219
  6
CONTINUOUS
  0
LAYER
  5
115
330
2
100
AcDbSymbolTableRecord
100
AcDbLayerTableRecord
  2
220
 70
     0
 62
   220
  6
CONTINUOUS
  0
LAYER
  5
116
330
2
100
AcDbSymbolTableRecord
100
AcDbLayerTableRecord
  2
221
 70
     0
 62
   221
  6
CONTINUOUS
  0
LAYER
  5
117
330
2
100
AcDbSymbolTableRecord
100
AcDbLayerTableRecord
  2
222
 70
     0
 62
   222
  6
CONTINUOUS
  0
LAYER
  5
118
330
2
100
AcDbSymbolTableRecord
100
AcDbLayerTableRecord
  2
223
 70
     0
 62
   223
  6
CONTINUOUS
  0
LAYER
  5
119
330
2
100
AcDbSymbolTableRecord
100
AcDbLayerTableRecord
  2
224
 70
     0
 62
   224
  6
CONTINUOUS
  0
LAYER
  5
11A
330
2
100
AcDbSymbolTableRecord
100
AcDbLayerTableRecord
  2
225
 70
     0
 62
   225
  6
CONTINUOUS
  0
LAYER
  5
11B
330
2
100
AcDbSymbolTableRecord
100
AcDbLayerTableRecord
  2
226
 70
     0
 62
   226
  6
CONTINUOUS
  0
LAYER
  5
11C
330
2
100
AcDbSymbolTableRecord
100
AcDbLayerTableRecord
  2
227
 70
     0
 62
   227
  6
CONTINUOUS
  0
LAYER
  5
11D
330
2
100
AcDbSymbolTableRecord
100
AcDbLayerTableRecord
  2
228
 70
     0
 62
   228
  6
CONTINUOUS
  0
LAYER
  5
11E
330
2
100
AcDbSymbolTableRecord
100
AcDbLayerTableRecord
  2
229
 70
     0
 62
   229
  6
CONTINUOUS
  0
LAYER
  5
11F
330
2
100
AcDbSymbolTableRecord
100
AcDbLayerTableRecord
  2
230
 70
     0
 62
   230
  6
CONTINUOUS
  0
LAYER
  5
120
330
2
100
AcDbSymbolTableRecord
100
AcDbLayerTableRecord
  2
231
 70
     0
 62
   231
  6
CONTINUOUS
  0
LAYER
  5
121
330
2
100
AcDbSymbolTableRecord
100
AcDbLayerTableRecord
  2
232
 70
     0
 62
   232
  6
CONTINUOUS
  0
LAYER
  5
122
330
2
100
AcDbSymbolTableRecord
100
AcDbLayerTableRecord
  2
233
 70
     0
 62
   233
  6
CONTINUOUS
  0
LAYER
  5
123
330
2
100
AcDbSymbolTableRecord
100
AcDbLayerTableRecord
  2
234
 70
     0
 62
   234
  6
CONTINUOUS
  0
LAYER
  5
124
330
2
100
AcDbSymbolTableRecord
100
AcDbLayerTableRecord
  2
235
 70
     0
 62
   235
  6
CONTINUOUS
  0
LAYER
  5
125
330
2
100
AcDbSymbolTableRecord
100
AcDbLayerTableRecord
  2
236
 70
     0
 62
   236
  6
CONTINUOUS
  0
LAYER
  5
126
330
2
100
AcDbSymbolTableRecord
100
AcDbLayerTableRecord
  2
237
 70
     0
 62
   237
  6
CONTINUOUS
  0
LAYER
  5
127
330
2
100
AcDbSymbolTableRecord
100
AcDbLayerTableRecord
  2
238
 70
     0
 62
   238
  6
CONTINUOUS
  0
LAYER
  5
128
330
2
100
AcDbSymbolTableRecord
100
AcDbLayerTableRecord
  2
239
 70
     0
 62
   239
  6
CONTINUOUS
  0
LAYER
  5
129
330
2
100
AcDbSymbolTableRecord
100
AcDbLayerTableRecord
  2
240
 70
     0
 62
   240
  6
CONTINUOUS
  0
LAYER
  5
12A
330
2
100
AcDbSymbolTableRecord
100
AcDbLayerTableRecord
  2
241
 70
     0
 62
   241
  6
CONTINUOUS
  0
LAYER
  5
12B
330
2
100
AcDbSymbolTableRecord
100
AcDbLayerTableRecord
  2
242
 70
     0
 62
   242
  6
CONTINUOUS
  0
LAYER
  5
12C
330
2
100
AcDbSymbolTableRecord
100
AcDbLayerTableRecord
  2
243
 70
     0
 62
   243
  6
CONTINUOUS
  0
LAYER
  5
12D
330
2
100
AcDbSymbolTableRecord
100
AcDbLayerTableRecord
  2
244
 70
     0
 62
   244
  6
CONTINUOUS
  0
LAYER
  5
12E
330
2
100
AcDbSymbolTableRecord
100
AcDbLayerTableRecord
  2
245
 70
     0
 62
   245
  6
CONTINUOUS
  0
LAYER
  5
12F
330
2
100
AcDbSymbolTableRecord
100
AcDbLayerTableRecord
  2
246
 70
     0
 62
   246
  6
CONTINUOUS
  0
LAYER
  5
130
330
2
100
AcDbSymbolTableRecord
100
AcDbLayerTableRecord
  2
247
 70
     0
 62
   247
  6
CONTINUOUS
  0
LAYER
  5
131
330
2
100
AcDbSymbolTableRecord
100
AcDbLayerTableRecord
  2
248
 70
     0
 62
   248
  6
CONTINUOUS
  0
LAYER
  5
132
330
2
100
AcDbSymbolTableRecord
100
AcDbLayerTableRecord
  2
249
 70
     0
 62
   249
  6
CONTINUOUS
  0
LAYER
  5
133
330
2
100
AcDbSymbolTableRecord
100
AcDbLayerTableRecord
  2
250
 70
     0
 62
   250
  6
CONTINUOUS
  0
LAYER
  5
134
330
2
100
AcDbSymbolTableRecord
100
AcDbLayerTableRecord
  2
251
 70
     0
 62
   251
  6
CONTINUOUS
  0
LAYER
  5
135
330
2
100
AcDbSymbolTableRecord
100
AcDbLayerTableRecord
  2
252
 70
     0
 62
   252
  6
CONTINUOUS
  0
LAYER
  5
136
330
2
100
AcDbSymbolTableRecord
100
AcDbLayerTableRecord
  2
253
 70
     0
 62
   253
  6
CONTINUOUS
  0
LAYER
  5
137
330
2
100
AcDbSymbolTableRecord
100
AcDbLayerTableRecord
  2
254
 70
     0
 62
   254
  6
CONTINUOUS
  0
LAYER
  5
138
330
2
100
AcDbSymbolTableRecord
100
AcDbLayerTableRecord
  2
255
 70
     0
 62
   255
  6
CONTINUOUS
  0
LAYER
  5
4267
330
2
100
AcDbSymbolTableRecord
100
AcDbLayerTableRecord
  2
DEFPOINTS
 70
     0
 62
     7
  6
CONTINUOUS
  0
ENDTAB
  0
TABLE
  2
STYLE
  5
3
330
0
100
AcDbSymbolTable
 70
     1
  0
STYLE
  5
11
330
3
100
AcDbSymbolTableRecord
100
AcDbTextStyleTableRecord
  2
STANDARD
 70
     0
 40
0.0
 41
1.0
 50
0.0
 71
     0
 42
0.2
  3
monotxt
  4

  0
ENDTAB
  0
TABLE
  2
VIEW
  5
6
330
0
100
AcDbSymbolTable
 70
     0
  0
ENDTAB
  0
TABLE
  2
UCS
  5
7
330
0
100
AcDbSymbolTable
 70
     0
  0
ENDTAB
  0
TABLE
  2
APPID
  5
9
330
0
100
AcDbSymbolTable
 70
     1
  0
APPID
  5
12
330
9
100
AcDbSymbolTableRecord
100
AcDbRegAppTableRecord
  2
ACAD
 70
     0
  0
ENDTAB
  0
TABLE
  2
DIMSTYLE
  5
A
330
0
100
AcDbSymbolTable
 70
     1
  0
DIMSTYLE
105
2C4F
102
{ACAD_REACTORS
330
4266
102
}
330
A
100
AcDbSymbolTableRecord
100
AcDbDimStyleTableRecord
  2
STANDARD
 70
     0
  3

  4

  5

  6

  7

 40
1.0
 41
0.18
 42
0.0625
 43
0.38
 44
0.18
 45
0.0
 46
0.0
 47
0.0
 48
0.0
140
0.18
141
0.09
142
0.0
143
25.4
144
1.0
145
0.0
146
1.0
147
0.09
 71
     0
 72
     0
 73
     1
 74
     1
 75
     0
 76
     0
 77
     0
 78
     0
170
     0
171
     2
172
     0
173
     0
174
     0
175
     0
176
     0
177
     0
178
     0
270
     2
271
     4
272
     4
273
     2
274
     2
340
11
275
     0
280
     0
281
     0
282
     0
283
     1
284
     0
285
     0
286
     0
287
     3
288
     0
  0
ENDTAB
  0
TABLE
  2
BLOCK_RECORD
  5
1
330
0
100
AcDbSymbolTable
 70
     1
  0
BLOCK_RECORD
  5
1E
102
{ACAD_XDICTIONARY
360
4230
102
}
330
1
100
AcDbSymbolTableRecord
100
AcDbBlockTableRecord
  2
*MODEL_SPACE
  0
BLOCK_RECORD
  5
1A
102
{ACAD_XDICTIONARY
360
4232
102
}
330
1
100
AcDbSymbolTableRecord
100
AcDbBlockTableRecord
  2
*PAPER_SPACE
  0
BLOCK_RECORD
  5
4268
330
1
100
AcDbSymbolTableRecord
100
AcDbBlockTableRecord
  2
*D0
  0
ENDTAB
  0
ENDSEC
  0
SECTION
  2
BLOCKS
  0
BLOCK
  5
13B
330
1E
100
AcDbEntity
  8
0
100
AcDbBlockBegin
  2
*MODEL_SPACE
 70
     0
 10
0.0
 20
0.0
 30
0.0
  3
*MODEL_SPACE
  1

  0
ENDBLK
  5
13C
330
1E
100
AcDbEntity
  8
0
100
AcDbBlockEnd
  0
BLOCK
  5
139
330
1A
100
AcDbEntity
 67
     1
  8
0
100
AcDbBlockBegin
  2
*PAPER_SPACE
 70
     0
 10
0.0
 20
0.0
 30
0.0
  3
*PAPER_SPACE
  1

  0
ENDBLK
  5
13A
330
1A
100
AcDbEntity
 67
     1
  8
0
100
AcDbBlockEnd
  0
BLOCK
  5
4273
330
4268
100
AcDbEntity
  8
0
100
AcDbBlockBegin
  2
*D0
 70
     1
 10
0.0
 20
0.0
 30
0.0
  3
*D0
  1

  0
LINE
  5
4275
330
4268
100
AcDbEntity
  8
0
 62
     0
100
AcDbLine
 10
2.736500651737014
 20
8.113817905795196
 30
0.0
 11
6.302153554693573
 21
8.113817905795194
 31
0.0
  0
LINE
  5
4276
330
4268
100
AcDbEntity
  8
0
 62
     0
100
AcDbLine
 10
2.736500651737014
 20
3.613817905795197
 30
0.0
 11
6.302153554693572
 21
3.613817905795195
 31
0.0
  0
LINE
  5
4277
330
4268
100
AcDbEntity
  8
0
 62
     0
100
AcDbLine
 10
6.122153554693572
 20
7.933817905795194
 30
0.0
 11
6.122153554693572
 21
6.043817905795195
 31
0.0
  0
LINE
  5
4278
330
4268
100
AcDbEntity
  8
0
 62
     0
100
AcDbLine
 10
6.122153554693571
 20
3.793817905795196
 30
0.0
 11
6.122153554693571
 21
5.683817905795195
 31
0.0
  0
SOLID
  5
4279
330
4268
100
AcDbEntity
  8
0
 62
     0
100
AcDbTrace
 10
6.092153554693572
 20
7.933817905795194
 30
0.0
 11
6.152153554693573
 21
7.933817905795194
 31
0.0
 12
6.122153554693572
 22
8.113817905795194
 32
0.0
 13
6.122153554693572
 23
8.113817905795194
 33
0.0
  0
SOLID
  5
427A
330
4268
100
AcDbEntity
  8
0
 62
     0
100
AcDbTrace
 10
6.092153554693571
 20
3.793817905795196
 30
0.0
 11
6.152153554693572
 21
3.793817905795196
 31
0.0
 12
6.122153554693571
 22
3.613817905795196
 32
0.0
 13
6.122153554693571
 23
3.613817905795196
 33
0.0
  0
MTEXT
  5
427B
330
4268
100
AcDbEntity
  8
0
 62
     0
100
AcDbMText
 10
6.122153554693571
 20
5.863817905795197
 30
0.0
 40
0.18
 41
0.0
 71
     5
 72
     1
  1
\A1;4.5000
1001
ACAD
1000
MTEXTBEGIN
1070
    73
1070
     1
1070
    44
1040
1.0
1070
    74
1070
     0
1000
MTEXTEND
  0
POINT
  5
427C
330
4268
100
AcDbEntity
  8
DEFPOINTS
 62
     0
100
AcDbPoint
 10
2.674000651737014
 20
8.113817905795196
 30
0.0
  0
POINT
  5
427D
330
4268
100
AcDbEntity
  8
DEFPOINTS
 62
     0
100
AcDbPoint
 10
2.674000651737014
 20
3.613817905795197
 30
0.0
  0
POINT
  5
427E
330
4268
100
AcDbEntity
  8
DEFPOINTS
 62
     0
100
AcDbPoint
 10
6.122153554693571
 20
3.613817905795196
 30
0.0
  0
ENDBLK
  5
4274
330
4268
100
AcDbEntity
  8
0
100
AcDbBlockEnd
  0
ENDSEC
  0
SECTION
  2
ENTITIES
  0
LINE
  5
1370
330
1E
100
AcDbEntity
  8
3
100
AcDbLine
 10
2.565076767222578
 20
2.071823155139029
 30
0.0
 11
2.567701439138589
 21
2.07444782705504
 31
0.0
  0
LINE
  5
2959
330
1E
100
AcDbEntity
  8
7
100
AcDbLine
 10
2.124131885332815
 20
4.804106619705958
 30
0.0
 11
2.082137134676647
 21
4.804106619705958
 31
0.0
  0
LINE
  5
295F
330
1E
100
AcDbEntity
  8
7
100
AcDbLine
 10
2.082137134676647
 20
5.359224729942178
 30
0.0
 11
2.082137134676647
 21
5.699119743065538
 31
0.0
  0
LINE
  5
2960
330
1E
100
AcDbEntity
  8
7
100
AcDbLine
 10
2.124131885332815
 20
5.699119743065538
 30
0.0
 11
2.082137134676647
 21
5.699119743065538
 31
0.0
  0
LINE
  5
2961
330
1E
100
AcDbEntity
  8
7
100
AcDbLine
 10
2.124131885332815
 20
6.02720373256685
 30
0.0
 11
2.124131885332815
 21
5.699119743065538
 31
0.0
  0
LINE
  5
2968
330
1E
100
AcDbEntity
  8
7
100
AcDbLine
 10
2.124131885332815
 20
6.92221685592643
 30
0.0
 11
2.124131885332815
 21
6.367098745690209
 31
0.0
  0
LINE
  5
296E
330
1E
100
AcDbEntity
  8
7
100
AcDbLine
 10
0.6359429089548621
 20
7.200432079023542
 30
0.0
 11
2.082137134676647
 21
7.200432079023542
 31
0.0
  0
LINE
  5
296F
330
1E
100
AcDbEntity
  8
7
100
AcDbLine
 10
0.6359429089548621
 20
6.92221685592643
 30
0.0
 11
0.6359429089548621
 21
7.200432079023542
 31
0.0
  0
LINE
  5
2970
330
1E
100
AcDbEntity
  8
7
100
AcDbLine
 10
0.5939481582986943
 20
6.92221685592643
 30
0.0
 11
0.6359429089548621
 21
6.92221685592643
 31
0.0
  0
LINE
  5
2971
330
1E
100
AcDbEntity
  8
7
100
AcDbLine
 10
0.5939481582986943
 20
6.92221685592643
 30
0.0
 11
0.5939481582986943
 21
6.367098745690209
 31
0.0
  0
LINE
  5
2972
330
1E
100
AcDbEntity
  8
7
100
AcDbLine
 10
0.6359429089548621
 20
6.367098745690209
 30
0.0
 11
0.5939481582986943
 21
6.367098745690209
 31
0.0
  0
LINE
  5
2973
330
1E
100
AcDbEntity
  8
7
100
AcDbLine
 10
0.6359429089548621
 20
6.02720373256685
 30
0.0
 11
0.6359429089548621
 21
6.367098745690209
 31
0.0
  0
LINE
  5
2974
330
1E
100
AcDbEntity
  8
7
100
AcDbLine
 10
0.5939481582986943
 20
6.02720373256685
 30
0.0
 11
0.6359429089548621
 21
6.02720373256685
 31
0.0
  0
LINE
  5
297A
330
1E
100
AcDbEntity
  8
7
100
AcDbLine
 10
0.6359429089548621
 20
5.359224729942178
 30
0.0
 11
0.6359429089548621
 21
5.699119743065538
 31
0.0
  0
LINE
  5
297B
330
1E
100
AcDbEntity
  8
7
100
AcDbLine
 10
0.5939481582986943
 20
5.359224729942178
 30
0.0
 11
0.6359429089548621
 21
5.359224729942178
 31
0.0
  0
LINE
  5
297C
330
1E
100
AcDbEntity
  8
7
100
AcDbLine
 10
0.5939481582986943
 20
4.804106619705958
 30
0.0
 11
0.5939481582986943
 21
5.359224729942178
 31
0.0
  0
LINE
  5
297D
330
1E
100
AcDbEntity
  8
7
100
AcDbLine
 10
0.5939481582986943
 20
4.804106619705958
 30
0.0
 11
0.6359429089548621
 21
4.804106619705958
 31
0.0
  0
LINE
  5
297E
330
1E
100
AcDbEntity
  8
7
100
AcDbLine
 10
0.6359429089548621
 20
4.525891396608845
 30
0.0
 11
0.6359429089548621
 21
4.804106619705958
 31
0.0
  0
LINE
  5
297F
330
1E
100
AcDbEntity
  8
7
100
AcDbLine
 10
2.082137134676647
 20
4.525891396608845
 30
0.0
 11
2.086074142550662
 21
4.523266724692835
 31
0.0
  0
LINE
  5
2980
330
1E
100
AcDbEntity
  8
7
100
AcDbLine
 10
2.086074142550662
 20
4.797544939915932
 30
0.0
 11
2.086074142550662
 21
4.523266724692835
 31
0.0
  0
LINE
  5
2981
330
1E
100
AcDbEntity
  8
7
100
AcDbLine
 10
2.086074142550662
 20
4.797544939915932
 30
0.0
 11
2.082137134676647
 21
4.804106619705958
 31
0.0
  0
LINE
  5
2982
330
1E
100
AcDbEntity
  8
7
100
AcDbLine
 10
2.086074142550662
 20
7.203056750939554
 30
0.0
 11
2.086074142550662
 21
6.928778535716456
 31
0.0
  0
LINE
  5
2983
330
1E
100
AcDbEntity
  8
7
100
AcDbLine
 10
2.082137134676647
 20
7.200432079023542
 30
0.0
 11
2.086074142550662
 21
7.203056750939554
 31
0.0
  0
LINE
  5
2984
330
1E
100
AcDbEntity
  8
7
100
AcDbLine
 10
2.082137134676647
 20
6.92221685592643
 30
0.0
 11
2.086074142550662
 21
6.928778535716456
 31
0.0
  0
LINE
  5
2985
330
1E
100
AcDbEntity
  8
7
100
AcDbLine
 10
2.145129260660898
 20
6.928778535716456
 30
0.0
 11
2.124131885332815
 21
6.92221685592643
 31
0.0
  0
LINE
  5
2986
330
1E
100
AcDbEntity
  8
7
100
AcDbLine
 10
2.086074142550662
 20
6.928778535716456
 30
0.0
 11
2.145129260660898
 21
6.928778535716456
 31
0.0
  0
LINE
  5
2987
330
1E
100
AcDbEntity
  8
7
100
AcDbLine
 10
2.124131885332815
 20
6.367098745690209
 30
0.0
 11
2.145129260660898
 21
6.360537065900183
 31
0.0
  0
LINE
  5
2988
330
1E
100
AcDbEntity
  8
7
100
AcDbLine
 10
2.086074142550662
 20
6.360537065900183
 30
0.0
 11
2.082137134676647
 21
6.367098745690209
 31
0.0
  0
LINE
  5
2989
330
1E
100
AcDbEntity
  8
7
100
AcDbLine
 10
2.145129260660898
 20
6.360537065900183
 30
0.0
 11
2.086074142550662
 21
6.360537065900183
 31
0.0
  0
LINE
  5
298A
330
1E
100
AcDbEntity
  8
7
100
AcDbLine
 10
2.082137134676647
 20
6.02720373256685
 30
0.0
 11
2.086074142550662
 21
6.032453076398871
 31
0.0
  0
LINE
  5
298B
330
1E
100
AcDbEntity
  8
7
100
AcDbLine
 10
2.086074142550662
 20
6.360537065900183
 30
0.0
 11
2.086074142550662
 21
6.032453076398871
 31
0.0
  0
LINE
  5
298C
330
1E
100
AcDbEntity
  8
7
100
AcDbLine
 10
2.124131885332815
 20
6.02720373256685
 30
0.0
 11
2.145129260660898
 21
6.032453076398871
 31
0.0
  0
LINE
  5
298D
330
1E
100
AcDbEntity
  8
7
100
AcDbLine
 10
2.145129260660898
 20
6.032453076398871
 30
0.0
 11
2.086074142550662
 21
6.032453076398871
 31
0.0
  0
LINE
  5
298E
330
1E
100
AcDbEntity
  8
7
100
AcDbLine
 10
2.086074142550662
 20
5.693870399233516
 30
0.0
 11
2.082137134676647
 21
5.699119743065538
 31
0.0
  0
LINE
  5
298F
330
1E
100
AcDbEntity
  8
7
100
AcDbLine
 10
2.086074142550662
 20
5.693870399233516
 30
0.0
 11
2.145129260660898
 21
5.693870399233516
 31
0.0
  0
LINE
  5
2990
330
1E
100
AcDbEntity
  8
7
100
AcDbLine
 10
2.124131885332815
 20
5.699119743065538
 30
0.0
 11
2.145129260660898
 21
5.693870399233516
 31
0.0
  0
LINE
  5
2991
330
1E
100
AcDbEntity
  8
7
100
AcDbLine
 10
2.082137134676647
 20
5.359224729942178
 30
0.0
 11
2.086074142550662
 21
5.365786409732204
 31
0.0
  0
LINE
  5
2992
330
1E
100
AcDbEntity
  8
7
100
AcDbLine
 10
2.086074142550662
 20
5.693870399233516
 30
0.0
 11
2.086074142550662
 21
5.365786409732204
 31
0.0
  0
LINE
  5
2998
330
1E
100
AcDbEntity
  8
7
100
AcDbLine
 10
2.145129260660898
 20
4.797544939915932
 30
0.0
 11
2.124131885332815
 21
4.804106619705958
 31
0.0
  0
LINE
  5
2999
330
1E
100
AcDbEntity
  8
7
100
AcDbLine
 10
2.086074142550662
 20
4.797544939915932
 30
0.0
 11
2.145129260660898
 21
4.797544939915932
 31
0.0
  0
LINE
  5
299F
330
1E
100
AcDbEntity
  8
7
100
AcDbLine
 10
2.192373355149087
 20
5.121691921543228
 30
0.0
 11
2.15300327640893
 21
5.121691921543228
 31
0.0
  0
LINE
  5
29A0
330
1E
100
AcDbEntity
  8
7
100
AcDbLine
 10
2.192373355149087
 20
5.121691921543228
 30
0.0
 11
2.192373355149087
 21
5.26998588479782
 31
0.0
  0
LINE
  5
29A1
330
1E
100
AcDbEntity
  8
7
100
AcDbLine
 10
2.15300327640893
 20
5.26998588479782
 30
0.0
 11
2.192373355149087
 21
5.26998588479782
 31
0.0
  0
LINE
  5
29AD
330
1E
100
AcDbEntity
  8
7
100
AcDbLine
 10
2.145129260660898
 20
5.113817905795196
 30
0.0
 11
2.145129260660898
 21
4.797544939915932
 31
0.0
  0
LINE
  5
29AE
330
1E
100
AcDbEntity
  8
7
100
AcDbLine
 10
2.145129260660898
 20
5.365786409732204
 30
0.0
 11
2.145129260660898
 21
5.277859900545853
 31
0.0
  0
LINE
  5
29AF
330
1E
100
AcDbEntity
  8
7
100
AcDbLine
 10
2.145129260660898
 20
5.365786409732204
 30
0.0
 11
2.145129260660898
 21
5.693870399233516
 31
0.0
  0
LINE
  5
29B0
330
1E
100
AcDbEntity
  8
7
100
AcDbLine
 10
2.192373355149087
 20
6.456337590834566
 30
0.0
 11
2.15300327640893
 21
6.456337590834566
 31
0.0
  0
LINE
  5
29B1
330
1E
100
AcDbEntity
  8
7
100
AcDbLine
 10
2.192373355149087
 20
6.456337590834566
 30
0.0
 11
2.192373355149087
 21
6.604631554089159
 31
0.0
  0
LINE
  5
29B2
330
1E
100
AcDbEntity
  8
7
100
AcDbLine
 10
2.15300327640893
 20
6.604631554089159
 30
0.0
 11
2.192373355149087
 21
6.604631554089159
 31
0.0
  0
LINE
  5
29B3
330
1E
100
AcDbEntity
  8
7
100
AcDbLine
 10
2.15300327640893
 20
6.604631554089159
 30
0.0
 11
2.145129260660898
 21
6.612505569837191
 31
0.0
  0
LINE
  5
29B4
330
1E
100
AcDbEntity
  8
7
100
AcDbLine
 10
2.145129260660898
 20
6.448463575086535
 30
0.0
 11
2.145129260660898
 21
6.612505569837191
 31
0.0
  0
LINE
  5
29B5
330
1E
100
AcDbEntity
  8
7
100
AcDbLine
 10
2.145129260660898
 20
6.448463575086535
 30
0.0
 11
2.15300327640893
 21
6.456337590834566
 31
0.0
  0
LINE
  5
29B6
330
1E
100
AcDbEntity
  8
7
100
AcDbLine
 10
2.145129260660898
 20
6.360537065900183
 30
0.0
 11
2.145129260660898
 21
6.448463575086535
 31
0.0
  0
LINE
  5
29B7
330
1E
100
AcDbEntity
  8
7
100
AcDbLine
 10
2.145129260660898
 20
6.612505569837191
 30
0.0
 11
2.145129260660898
 21
6.928778535716456
 31
0.0
  0
LINE
  5
29B8
330
1E
100
AcDbEntity
  8
7
100
AcDbLine
 10
2.145129260660898
 20
7.203056750939554
 30
0.0
 11
2.086074142550662
 21
7.203056750939554
 31
0.0
  0
LINE
  5
29B9
330
1E
100
AcDbEntity
  8
7
100
AcDbLine
 10
2.145129260660898
 20
6.928778535716456
 30
0.0
 11
2.145129260660898
 21
7.203056750939554
 31
0.0
  0
LINE
  5
29DC
330
1E
100
AcDbEntity
  8
7
100
AcDbLine
 10
2.145129260660898
 20
5.277859900545853
 30
0.0
 11
2.149066268534914
 21
5.281796908419869
 31
0.0
  0
LINE
  5
29FA
330
1E
100
AcDbEntity
  8
7
100
AcDbLine
 10
2.141192252786883
 20
7.206993758813569
 30
0.0
 11
0.5782001268026314
 21
7.206993758813569
 31
0.0
  0
LINE
  5
2A00
330
1E
100
AcDbEntity
  8
7
100
AcDbLine
 10
0.5782001268026314
 20
4.519329716818818
 30
0.0
 11
2.141192252786883
 21
4.519329716818818
 31
0.0
  0
LINE
  5
2A06
330
1E
100
AcDbEntity
  8
7
100
AcDbLine
 10
0.5729507829706098
 20
6.928778535716456
 30
0.0
 11
0.5729507829706098
 21
7.203056750939554
 31
0.0
  0
LINE
  5
2A07
330
1E
100
AcDbEntity
  8
7
100
AcDbLine
 10
0.6333182370388517
 20
6.928778535716456
 30
0.0
 11
0.5729507829706098
 21
6.928778535716456
 31
0.0
  0
LINE
  5
2A08
330
1E
100
AcDbEntity
  8
7
100
AcDbLine
 10
0.6333182370388517
 20
7.203056750939554
 30
0.0
 11
0.6333182370388517
 21
6.928778535716456
 31
0.0
  0
LINE
  5
2A09
330
1E
100
AcDbEntity
  8
7
100
AcDbLine
 10
0.5270190244404267
 20
6.832978010782072
 30
0.0
 11
0.5650767672225792
 21
6.832978010782072
 31
0.0
  0
LINE
  5
2A0A
330
1E
100
AcDbEntity
  8
7
100
AcDbLine
 10
0.5270190244404267
 20
6.832978010782072
 30
0.0
 11
0.5270190244404267
 21
6.684684047527479
 31
0.0
  0
LINE
  5
2A0B
330
1E
100
AcDbEntity
  8
7
100
AcDbLine
 10
0.5650767672225792
 20
6.684684047527479
 30
0.0
 11
0.5270190244404267
 21
6.684684047527479
 31
0.0
  0
LINE
  5
2A0C
330
1E
100
AcDbEntity
  8
7
100
AcDbLine
 10
0.5650767672225792
 20
6.684684047527479
 30
0.0
 11
0.5729507829706098
 21
6.676810031779448
 31
0.0
  0
LINE
  5
2A0D
330
1E
100
AcDbEntity
  8
7
100
AcDbLine
 10
0.5729507829706098
 20
6.840852026530104
 30
0.0
 11
0.5729507829706098
 21
6.676810031779448
 31
0.0
  0
LINE
  5
2A0E
330
1E
100
AcDbEntity
  8
7
100
AcDbLine
 10
0.5729507829706098
 20
6.840852026530104
 30
0.0
 11
0.5650767672225792
 21
6.832978010782072
 31
0.0
  0
LINE
  5
2A0F
330
1E
100
AcDbEntity
  8
7
100
AcDbLine
 10
0.5729507829706098
 20
6.032453076398871
 30
0.0
 11
0.6333182370388517
 21
6.032453076398871
 31
0.0
  0
LINE
  5
2A10
330
1E
100
AcDbEntity
  8
7
100
AcDbLine
 10
0.6333182370388517
 20
6.360537065900183
 30
0.0
 11
0.6333182370388517
 21
6.032453076398871
 31
0.0
  0
LINE
  5
2A11
330
1E
100
AcDbEntity
  8
7
100
AcDbLine
 10
0.5729507829706098
 20
6.360537065900183
 30
0.0
 11
0.6333182370388517
 21
6.360537065900183
 31
0.0
  0
LINE
  5
2A12
330
1E
100
AcDbEntity
  8
7
100
AcDbLine
 10
0.5729507829706098
 20
6.032453076398871
 30
0.0
 11
0.5729507829706098
 21
6.360537065900183
 31
0.0
  0
LINE
  5
2A1A
330
1E
100
AcDbEntity
  8
7
100
AcDbLine
 10
0.5729507829706098
 20
5.945838903170524
 30
0.0
 11
0.5729507829706098
 21
5.780484572461863
 31
0.0
  0
LINE
  5
2A1B
330
1E
100
AcDbEntity
  8
7
100
AcDbLine
 10
0.5729507829706098
 20
5.945838903170524
 30
0.0
 11
0.5650767672225792
 21
5.937964887422493
 31
0.0
  0
LINE
  5
2A1C
330
1E
100
AcDbEntity
  8
7
100
AcDbLine
 10
0.6333182370388517
 20
5.693870399233516
 30
0.0
 11
0.5729507829706098
 21
5.693870399233516
 31
0.0
  0
LINE
  5
2A1D
330
1E
100
AcDbEntity
  8
7
100
AcDbLine
 10
0.5729507829706098
 20
5.365786409732204
 30
0.0
 11
0.5729507829706098
 21
5.693870399233516
 31
0.0
  0
LINE
  5
2A1E
330
1E
100
AcDbEntity
  8
7
100
AcDbLine
 10
0.5729507829706098
 20
5.365786409732204
 30
0.0
 11
0.6333182370388517
 21
5.365786409732204
 31
0.0
  0
LINE
  5
2A1F
330
1E
100
AcDbEntity
  8
7
100
AcDbLine
 10
0.6333182370388517
 20
5.693870399233516
 30
0.0
 11
0.6333182370388517
 21
5.365786409732204
 31
0.0
  0
LINE
  5
2A27
330
1E
100
AcDbEntity
  8
7
100
AcDbLine
 10
0.5729507829706098
 20
5.049513443852939
 30
0.0
 11
0.5729507829706098
 21
4.885471449102284
 31
0.0
  0
LINE
  5
2A28
330
1E
100
AcDbEntity
  8
7
100
AcDbLine
 10
0.5729507829706098
 20
5.049513443852939
 30
0.0
 11
0.5650767672225792
 21
5.041639428104908
 31
0.0
  0
LINE
  5
2A29
330
1E
100
AcDbEntity
  8
7
100
AcDbLine
 10
0.6333182370388517
 20
4.797544939915932
 30
0.0
 11
0.6333182370388517
 21
4.523266724692835
 31
0.0
  0
LINE
  5
2A2A
330
1E
100
AcDbEntity
  8
7
100
AcDbLine
 10
0.6333182370388517
 20
4.797544939915932
 30
0.0
 11
0.5729507829706098
 21
4.797544939915932
 31
0.0
  0
LINE
  5
2A2B
330
1E
100
AcDbEntity
  8
7
100
AcDbLine
 10
0.5729507829706098
 20
4.523266724692835
 30
0.0
 11
0.5729507829706098
 21
4.797544939915932
 31
0.0
  0
LINE
  5
2A2C
330
1E
100
AcDbEntity
  8
7
100
AcDbLine
 10
0.6333182370388517
 20
4.797544939915932
 30
0.0
 11
0.6359429089548621
 21
4.804106619705958
 31
0.0
  0
LINE
  5
2A2D
330
1E
100
AcDbEntity
  8
7
100
AcDbLine
 10
0.5729507829706098
 20
4.797544939915932
 30
0.0
 11
0.5939481582986943
 21
4.804106619705958
 31
0.0
  0
LINE
  5
2A33
330
1E
100
AcDbEntity
  8
7
100
AcDbLine
 10
0.5729507829706098
 20
4.885471449102284
 30
0.0
 11
0.5729507829706098
 21
4.797544939915932
 31
0.0
  0
LINE
  5
2A34
330
1E
100
AcDbEntity
  8
7
100
AcDbLine
 10
0.6359429089548621
 20
5.359224729942178
 30
0.0
 11
0.6333182370388517
 21
5.365786409732204
 31
0.0
  0
LINE
  5
2A35
330
1E
100
AcDbEntity
  8
7
100
AcDbLine
 10
0.6333182370388517
 20
5.693870399233516
 30
0.0
 11
0.6359429089548621
 21
5.699119743065538
 31
0.0
  0
LINE
  5
2A36
330
1E
100
AcDbEntity
  8
7
100
AcDbLine
 10
0.5939481582986943
 20
5.699119743065538
 30
0.0
 11
0.5729507829706098
 21
5.693870399233516
 31
0.0
  0
LINE
  5
2A37
330
1E
100
AcDbEntity
  8
7
100
AcDbLine
 10
0.5939481582986943
 20
6.02720373256685
 30
0.0
 11
0.5729507829706098
 21
6.032453076398871
 31
0.0
  0
LINE
  5
2A38
330
1E
100
AcDbEntity
  8
7
100
AcDbLine
 10
0.5729507829706098
 20
5.945838903170524
 30
0.0
 11
0.5729507829706098
 21
6.032453076398871
 31
0.0
  0
LINE
  5
2A39
330
1E
100
AcDbEntity
  8
7
100
AcDbLine
 10
0.5729507829706098
 20
5.693870399233516
 30
0.0
 11
0.5729507829706098
 21
5.780484572461863
 31
0.0
  0
LINE
  5
2A3A
330
1E
100
AcDbEntity
  8
7
100
AcDbLine
 10
0.6359429089548621
 20
6.02720373256685
 30
0.0
 11
0.6333182370388517
 21
6.032453076398871
 31
0.0
  0
LINE
  5
2A3B
330
1E
100
AcDbEntity
  8
7
100
AcDbLine
 10
0.6333182370388517
 20
6.360537065900183
 30
0.0
 11
0.6359429089548621
 21
6.367098745690209
 31
0.0
  0
LINE
  5
2A3C
330
1E
100
AcDbEntity
  8
7
100
AcDbLine
 10
0.5939481582986943
 20
6.367098745690209
 30
0.0
 11
0.5729507829706098
 21
6.360537065900183
 31
0.0
  0
LINE
  5
2A3D
330
1E
100
AcDbEntity
  8
7
100
AcDbLine
 10
0.5729507829706098
 20
6.928778535716456
 30
0.0
 11
0.5939481582986943
 21
6.92221685592643
 31
0.0
  0
LINE
  5
2A3E
330
1E
100
AcDbEntity
  8
7
100
AcDbLine
 10
0.5729507829706098
 20
6.840852026530104
 30
0.0
 11
0.5729507829706098
 21
6.928778535716456
 31
0.0
  0
LINE
  5
2A3F
330
1E
100
AcDbEntity
  8
7
100
AcDbLine
 10
0.5729507829706098
 20
6.360537065900183
 30
0.0
 11
0.5729507829706098
 21
6.676810031779448
 31
0.0
  0
LINE
  5
2A40
330
1E
100
AcDbEntity
  8
7
100
AcDbLine
 10
0.6359429089548621
 20
6.92221685592643
 30
0.0
 11
0.6333182370388517
 21
6.928778535716456
 31
0.0
  0
LINE
  5
2A41
330
1E
100
AcDbEntity
  8
7
100
AcDbLine
 10
0.5690137750965945
 20
6.84478903440412
 30
0.0
 11
0.5690137750965945
 21
7.199119743065537
 31
0.0
  0
LINE
  5
2A42
330
1E
100
AcDbEntity
  8
7
100
AcDbLine
 10
0.5690137750965945
 20
6.84478903440412
 30
0.0
 11
0.5729507829706098
 21
6.840852026530104
 31
0.0
  0
LINE
  5
2A5B
330
1E
100
AcDbEntity
  8
7
100
AcDbLine
 10
0.5729507829706098
 20
6.676810031779448
 30
0.0
 11
0.5690137750965945
 21
6.672873023905433
 31
0.0
  0
LINE
  5
2A5C
330
1E
100
AcDbEntity
  8
7
100
AcDbLine
 10
0.5690137750965945
 20
5.948463575086536
 30
0.0
 11
0.5690137750965945
 21
6.672873023905433
 31
0.0
  0
LINE
  5
2A5D
330
1E
100
AcDbEntity
  8
7
100
AcDbLine
 10
0.5690137750965945
 20
5.948463575086536
 30
0.0
 11
0.5729507829706098
 21
5.945838903170524
 31
0.0
  0
LINE
  5
2A63
330
1E
100
AcDbEntity
  8
7
100
AcDbLine
 10
0.5650767672225792
 20
5.937964887422493
 30
0.0
 11
0.561139759348563
 21
5.940589559338503
 31
0.0
  0
LINE
  5
2A64
330
1E
100
AcDbEntity
  8
7
100
AcDbLine
 10
0.5178326727343903
 20
5.940589559338503
 30
0.0
 11
0.561139759348563
 21
5.940589559338503
 31
0.0
  0
LINE
  5
2A6B
330
1E
100
AcDbEntity
  8
7
100
AcDbLine
 10
0.5099586569863579
 20
5.793607932041916
 30
0.0
 11
0.5099586569863579
 21
5.932715543590473
 31
0.0
  0
LINE
  5
2A71
330
1E
100
AcDbEntity
  8
7
100
AcDbLine
 10
0.561139759348563
 20
5.785733916293883
 30
0.0
 11
0.5178326727343903
 21
5.785733916293883
 31
0.0
  0
LINE
  5
2A72
330
1E
100
AcDbEntity
  8
7
100
AcDbLine
 10
0.561139759348563
 20
5.785733916293883
 30
0.0
 11
0.5650767672225792
 21
5.788358588209894
 31
0.0
  0
LINE
  5
2A73
330
1E
100
AcDbEntity
  8
7
100
AcDbLine
 10
0.5690137750965945
 20
5.053450451726956
 30
0.0
 11
0.5690137750965945
 21
5.777859900545853
 31
0.0
  0
LINE
  5
2A74
330
1E
100
AcDbEntity
  8
7
100
AcDbLine
 10
0.5690137750965945
 20
5.053450451726956
 30
0.0
 11
0.5729507829706098
 21
5.049513443852939
 31
0.0
  0
LINE
  5
2A75
330
1E
100
AcDbEntity
  8
7
100
AcDbLine
 10
0.5729507829706098
 20
5.780484572461863
 30
0.0
 11
0.5690137750965945
 21
5.777859900545853
 31
0.0
  0
LINE
  5
2A7B
330
1E
100
AcDbEntity
  8
7
100
AcDbLine
 10
0.5650767672225792
 20
5.041639428104908
 30
0.0
 11
0.561139759348563
 21
5.045576435978923
 31
0.0
  0
LINE
  5
2A7C
330
1E
100
AcDbEntity
  8
7
100
AcDbLine
 10
0.5178326727343903
 20
5.045576435978923
 30
0.0
 11
0.561139759348563
 21
5.045576435978923
 31
0.0
  0
LINE
  5
2A83
330
1E
100
AcDbEntity
  8
7
100
AcDbLine
 10
0.5099586569863579
 20
4.898594808682336
 30
0.0
 11
0.5099586569863579
 21
5.037702420230893
 31
0.0
  0
LINE
  5
2A89
330
1E
100
AcDbEntity
  8
7
100
AcDbLine
 10
0.561139759348563
 20
4.890720792934304
 30
0.0
 11
0.5178326727343903
 21
4.890720792934304
 31
0.0
  0
LINE
  5
2A8A
330
1E
100
AcDbEntity
  8
7
100
AcDbLine
 10
0.561139759348563
 20
4.890720792934304
 30
0.0
 11
0.5650767672225792
 21
4.893345464850314
 31
0.0
  0
LINE
  5
2A8B
330
1E
100
AcDbEntity
  8
7
100
AcDbLine
 10
0.5729507829706098
 20
4.885471449102284
 30
0.0
 11
0.5690137750965945
 21
4.882846777186273
 31
0.0
  0
LINE
  5
2A8C
330
1E
100
AcDbEntity
  8
7
100
AcDbLine
 10
0.5690137750965945
 20
4.528516068524855
 30
0.0
 11
0.5690137750965945
 21
4.882846777186273
 31
0.0
  0
LINE
  5
2AB0
330
1E
100
AcDbEntity
  8
7
100
AcDbLine
 10
0.561139759348563
 20
5.940589559338503
 30
0.0
 11
0.5690137750965945
 21
5.948463575086536
 31
0.0
  0
LINE
  5
2AB7
330
1E
100
AcDbEntity
  8
7
100
AcDbLine
 10
0.5099586569863579
 20
5.932715543590473
 30
0.0
 11
0.5178326727343903
 21
5.940589559338503
 31
0.0
  0
LINE
  5
2AB8
330
1E
100
AcDbEntity
  8
7
100
AcDbLine
 10
0.5690137750965945
 20
5.777859900545853
 30
0.0
 11
0.561139759348563
 21
5.785733916293883
 31
0.0
  0
LINE
  5
2ABF
330
1E
100
AcDbEntity
  8
7
100
AcDbLine
 10
0.5178326727343903
 20
5.785733916293883
 30
0.0
 11
0.5099586569863579
 21
5.793607932041916
 31
0.0
  0
LINE
  5
2AC0
330
1E
100
AcDbEntity
  8
7
100
AcDbLine
 10
0.561139759348563
 20
5.045576435978923
 30
0.0
 11
0.5690137750965945
 21
5.053450451726956
 31
0.0
  0
LINE
  5
2AC7
330
1E
100
AcDbEntity
  8
7
100
AcDbLine
 10
0.5099586569863579
 20
5.037702420230893
 30
0.0
 11
0.5178326727343903
 21
5.045576435978923
 31
0.0
  0
LINE
  5
2AC8
330
1E
100
AcDbEntity
  8
7
100
AcDbLine
 10
0.5690137750965945
 20
4.882846777186273
 30
0.0
 11
0.561139759348563
 21
4.890720792934304
 31
0.0
  0
LINE
  5
2ACF
330
1E
100
AcDbEntity
  8
7
100
AcDbLine
 10
0.5178326727343903
 20
4.890720792934304
 30
0.0
 11
0.5099586569863579
 21
4.898594808682336
 31
0.0
  0
LINE
  5
2AD6
330
1E
100
AcDbEntity
  8
7
100
AcDbLine
 10
2.200247370897119
 20
5.272610556713832
 30
0.0
 11
2.20812138664515
 21
5.2647365409658
 31
0.0
  0
LINE
  5
2AD7
330
1E
100
AcDbEntity
  8
7
100
AcDbLine
 10
2.149066268534914
 20
5.281796908419869
 30
0.0
 11
2.156940284282946
 21
5.272610556713832
 31
0.0
  0
LINE
  5
2ADE
330
1E
100
AcDbEntity
  8
7
100
AcDbLine
 10
2.20812138664515
 20
5.125628929417244
 30
0.0
 11
2.200247370897119
 21
5.117754913669212
 31
0.0
  0
LINE
  5
2ADF
330
1E
100
AcDbEntity
  8
7
100
AcDbLine
 10
2.156940284282946
 20
5.117754913669212
 30
0.0
 11
2.149066268534914
 21
5.109880897921181
 31
0.0
  0
LINE
  5
2AE5
330
1E
100
AcDbEntity
  8
7
100
AcDbLine
 10
2.205496714729139
 20
6.602006882173149
 30
0.0
 11
2.206809050687145
 21
6.598069874299133
 31
0.0
  0
LINE
  5
2AE6
330
1E
100
AcDbEntity
  8
7
100
AcDbLine
 10
2.200247370897119
 20
6.608568561963174
 30
0.0
 11
2.20812138664515
 21
6.600694546215144
 31
0.0
  0
LINE
  5
2AE7
330
1E
100
AcDbEntity
  8
7
100
AcDbLine
 10
2.149066268534914
 20
6.616442577711207
 30
0.0
 11
2.156940284282946
 21
6.608568561963174
 31
0.0
  0
LINE
  5
2AEE
330
1E
100
AcDbEntity
  8
7
100
AcDbLine
 10
2.20812138664515
 20
6.461586934666587
 30
0.0
 11
2.200247370897119
 21
6.453712918918556
 31
0.0
  0
LINE
  5
2AEF
330
1E
100
AcDbEntity
  8
7
100
AcDbLine
 10
2.156940284282946
 20
6.453712918918556
 30
0.0
 11
2.149066268534914
 21
6.445838903170524
 31
0.0
  0
LINE
  5
2AF0
330
1E
100
AcDbEntity
  8
7
100
AcDbLine
 10
0.561139759348563
 20
6.835602682698083
 30
0.0
 11
0.5690137750965945
 21
6.84478903440412
 31
0.0
  0
LINE
  5
2AF7
330
1E
100
AcDbEntity
  8
7
100
AcDbLine
 10
0.5099586569863579
 20
6.827728666950051
 30
0.0
 11
0.5178326727343903
 21
6.835602682698083
 31
0.0
  0
LINE
  5
2AF8
330
1E
100
AcDbEntity
  8
7
100
AcDbLine
 10
0.5690137750965945
 20
6.672873023905433
 30
0.0
 11
0.561139759348563
 21
6.680747039653463
 31
0.0
  0
LINE
  5
2AFF
330
1E
100
AcDbEntity
  8
7
100
AcDbLine
 10
0.5178326727343903
 20
6.680747039653463
 30
0.0
 11
0.5099586569863579
 21
6.688621055401496
 31
0.0
  0
LINE
  5
2B47
330
1E
100
AcDbEntity
  8
7
100
AcDbLine
 10
2.734368105805255
 20
3.672873023905433
 30
0.0
 11
2.734368105805255
 21
8.053450451726956
 31
0.0
  0
LINE
  5
2B48
330
1E
100
AcDbEntity
  8
7
100
AcDbLine
 10
0.0440793918944951
 20
3.613817905795196
 30
0.0
 11
2.674000651737014
 21
3.613817905795196
 31
0.0
  0
LINE
  5
2B49
330
1E
100
AcDbEntity
  8
7
100
AcDbLine
 10
-0.0162880621737469
 20
8.053450451726956
 30
0.0
 11
-0.0162880621737469
 21
3.672873023905433
 31
0.0
  0
LINE
  5
2B4A
330
1E
100
AcDbEntity
  8
7
100
AcDbLine
 10
2.674000651737014
 20
8.113817905795196
 30
0.0
 11
0.0440793918944951
 21
8.113817905795196
 31
0.0
  0
LINE
  5
2B55
330
1E
100
AcDbEntity
  8
7
100
AcDbLine
 10
-0.0110387183417258
 20
8.049513443852939
 30
0.0
 11
-0.0162880621737469
 21
8.053450451726956
 31
0.0
  0
LINE
  5
2BD7
330
1E
100
AcDbEntity
  8
7
100
AcDbLine
 10
1.328856294781633
 20
7.571823155139028
 30
0.0
 11
1.303921911579533
 21
7.553450451726955
 31
0.0
  0
LINE
  5
2BDF
330
1E
100
AcDbEntity
  8
7
100
AcDbLine
 10
1.41547046800998
 20
7.553450451726955
 30
0.0
 11
1.303921911579533
 21
7.553450451726955
 31
0.0
  0
LINE
  5
2BE0
330
1E
100
AcDbEntity
  8
7
100
AcDbLine
 10
1.303921911579533
 20
7.453712918918556
 30
0.0
 11
1.41547046800998
 21
7.453712918918556
 31
0.0
  0
LINE
  5
2BE1
330
1E
100
AcDbEntity
  8
7
100
AcDbLine
 10
1.303921911579533
 20
4.172873023905433
 30
0.0
 11
1.41547046800998
 21
4.172873023905433
 31
0.0
  0
LINE
  5
2BE2
330
1E
100
AcDbEntity
  8
7
100
AcDbLine
 10
1.41547046800998
 20
4.272610556713832
 30
0.0
 11
1.303921911579533
 21
4.272610556713832
 31
0.0
  0
LINE
  5
2BE3
330
1E
100
AcDbEntity
  8
7
100
AcDbLine
 10
0.0440793918944951
 20
1.857912393984174
 30
0.0
 11
2.674000651737014
 21
1.857912393984174
 31
0.0
  0
LINE
  5
2BE4
330
1E
100
AcDbEntity
  8
7
100
AcDbLine
 10
0.2094337226031562
 20
2.082321842803071
 30
0.0
 11
2.508646321028352
 21
2.082321842803071
 31
0.0
  0
LINE
  5
2C17
330
1E
100
AcDbEntity
  8
7
100
AcDbLine
 10
0.5112709929443638
 20
1.720117118393623
 30
0.0
 11
0.5532657436005315
 21
1.720117118393623
 31
0.0
  0
LINE
  5
2C1D
330
1E
100
AcDbEntity
  8
7
100
AcDbLine
 10
2.20812138664515
 20
1.810668299495985
 30
0.0
 11
2.209433722603156
 21
1.857912393984174
 31
0.0
  0
LINE
  5
2C1E
330
1E
100
AcDbEntity
  8
7
100
AcDbLine
 10
2.206809050687145
 20
1.720117118393623
 30
0.0
 11
2.20812138664515
 21
1.810668299495985
 31
0.0
  0
LINE
  5
2C1F
330
1E
100
AcDbEntity
  8
7
100
AcDbLine
 10
2.167438971946987
 20
1.810668299495985
 30
0.0
 11
2.20812138664515
 21
1.810668299495985
 31
0.0
  0
LINE
  5
2C20
330
1E
100
AcDbEntity
  8
7
100
AcDbLine
 10
0.5519534076425261
 20
1.810668299495985
 30
0.0
 11
0.5099586569863579
 21
1.810668299495985
 31
0.0
  0
LINE
  5
2C21
330
1E
100
AcDbEntity
  8
7
100
AcDbLine
 10
0.5532657436005315
 20
1.720117118393623
 30
0.0
 11
0.5519534076425261
 21
1.810668299495985
 31
0.0
  0
LINE
  5
2C22
330
1E
100
AcDbEntity
  8
7
100
AcDbLine
 10
2.164814300030977
 20
1.720117118393623
 30
0.0
 11
2.167438971946987
 21
1.810668299495985
 31
0.0
  0
LINE
  5
2C23
330
1E
100
AcDbEntity
  8
7
100
AcDbLine
 10
2.20812138664515
 20
1.798857275873937
 30
0.0
 11
2.223869418141213
 21
1.857912393984174
 31
0.0
  0
LINE
  5
2C24
330
1E
100
AcDbEntity
  8
7
100
AcDbLine
 10
0.5099586569863579
 20
1.798857275873937
 30
0.0
 11
0.494210625490295
 21
1.857912393984174
 31
0.0
  0
LINE
  5
2C25
330
1E
100
AcDbEntity
  8
7
100
AcDbLine
 10
0.2094337226031562
 20
2.082321842803071
 30
0.0
 11
2.508646321028352
 21
2.082321842803071
 31
0.0
  0
LINE
  5
2C2C
330
1E
100
AcDbEntity
  8
7
100
AcDbLine
 10
0.0440793918944951
 20
1.857912393984174
 30
0.0
 11
2.674000651737014
 21
1.857912393984174
 31
0.0
  0
LINE
  5
2C52
330
1E
100
AcDbEntity
  8
7
100
AcDbLine
 10
2.629381229164835
 20
2.048201107894935
 30
0.0
 11
2.664814300030977
 21
2.019329716818819
 31
0.0
  0
LINE
  5
2C53
330
1E
100
AcDbEntity
  8
7
100
AcDbLine
 10
2.664814300030977
 20
2.019329716818819
 30
0.0
 11
2.694998027065098
 21
1.985208981910683
 31
0.0
  0
LINE
  5
2C54
330
1E
100
AcDbEntity
  8
7
100
AcDbLine
 10
2.694998027065098
 20
1.985208981910683
 30
0.0
 11
2.715995402393182
 21
1.945838903170525
 31
0.0
  0
LINE
  5
2C55
330
1E
100
AcDbEntity
  8
7
100
AcDbLine
 10
2.715995402393182
 20
1.945838903170525
 30
0.0
 11
2.729118761973234
 21
1.902531816556352
 31
0.0
  0
LINE
  5
2C56
330
1E
100
AcDbEntity
  8
7
100
AcDbLine
 10
2.729118761973234
 20
1.902531816556352
 30
0.0
 11
2.734368105805255
 21
1.857912393984174
 31
0.0
  0
LINE
  5
2C57
330
1E
100
AcDbEntity
  8
7
100
AcDbLine
 10
2.546704063810504
 20
2.079697170887061
 30
0.0
 11
2.590011150424678
 21
2.067886147265013
 31
0.0
  0
LINE
  5
2C58
330
1E
100
AcDbEntity
  8
7
100
AcDbLine
 10
2.590011150424678
 20
2.067886147265013
 30
0.0
 11
2.629381229164835
 21
2.048201107894935
 31
0.0
  0
LINE
  5
2C59
330
1E
100
AcDbEntity
  8
7
100
AcDbLine
 10
0.2094337226031562
 20
2.082321842803071
 30
0.0
 11
0.1766253236530249
 21
2.078384834929055
 31
0.0
  0
LINE
  5
2C5A
330
1E
100
AcDbEntity
  8
7
100
AcDbLine
 10
0.1766253236530249
 20
2.078384834929055
 30
0.0
 11
0.1464415966189043
 21
2.065261475349003
 31
0.0
  0
LINE
  5
2C5B
330
1E
100
AcDbEntity
  8
7
100
AcDbLine
 10
0.1464415966189043
 20
2.065261475349003
 30
0.0
 11
0.1175702055427887
 21
2.044264100020919
 31
0.0
  0
LINE
  5
2C5C
330
1E
100
AcDbEntity
  8
7
100
AcDbLine
 10
0.1175702055427887
 20
2.044264100020919
 30
0.0
 11
0.0926358223406889
 21
2.016705044902809
 31
0.0
  0
LINE
  5
2C5D
330
1E
100
AcDbEntity
  8
7
100
AcDbLine
 10
0.0926358223406889
 20
2.016705044902809
 30
0.0
 11
0.0716384470126048
 21
1.982584309994673
 31
0.0
  0
LINE
  5
2C5E
330
1E
100
AcDbEntity
  8
7
100
AcDbLine
 10
0.0716384470126048
 20
1.982584309994673
 30
0.0
 11
0.0572027514745468
 21
1.94452656721252
 31
0.0
  0
LINE
  5
2C5F
330
1E
100
AcDbEntity
  8
7
100
AcDbLine
 10
0.0572027514745468
 20
1.94452656721252
 30
0.0
 11
0.046704063810505
 21
1.901219480598347
 31
0.0
  0
LINE
  5
2C60
330
1E
100
AcDbEntity
  8
7
100
AcDbLine
 10
0.046704063810505
 20
1.901219480598347
 30
0.0
 11
0.0440793918944951
 21
1.857912393984174
 31
0.0
  0
LINE
  5
2C61
330
1E
100
AcDbEntity
  8
7
100
AcDbLine
 10
0.0440793918944951
 20
1.857912393984174
 30
0.0
 11
0.0138956648603741
 21
1.857912393984174
 31
0.0
  0
LINE
  5
2C62
330
1E
100
AcDbEntity
  8
7
100
AcDbLine
 10
0.0138956648603741
 20
1.857912393984174
 30
0.0
 11
-0.008414046425715
 21
1.857912393984174
 31
0.0
  0
LINE
  5
2C63
330
1E
100
AcDbEntity
  8
7
100
AcDbLine
 10
-0.008414046425715
 20
1.857912393984174
 30
0.0
 11
-0.0162880621737469
 21
1.857912393984174
 31
0.0
  0
LINE
  5
2C64
330
1E
100
AcDbEntity
  8
7
100
AcDbLine
 10
-0.0162880621737469
 20
1.857912393984174
 30
0.0
 11
-0.0110387183417258
 21
1.906468824430368
 31
0.0
  0
LINE
  5
2C65
330
1E
100
AcDbEntity
  8
7
100
AcDbLine
 10
-0.0110387183417258
 20
1.906468824430368
 30
0.0
 11
0.0047093131543372
 21
1.952400582960552
 31
0.0
  0
LINE
  5
2C66
330
1E
100
AcDbEntity
  8
7
100
AcDbLine
 10
0.0047093131543372
 20
1.952400582960552
 30
0.0
 11
0.0296436963564371
 21
1.993082997658714
 31
0.0
  0
LINE
  5
2C67
330
1E
100
AcDbEntity
  8
7
100
AcDbLine
 10
0.0296436963564371
 20
1.993082997658714
 30
0.0
 11
0.0624520953065679
 21
2.028516068524856
 31
0.0
  0
LINE
  5
2C68
330
1E
100
AcDbEntity
  8
7
100
AcDbLine
 10
2.734368105805255
 20
1.857912393984174
 30
0.0
 11
2.726494090057224
 21
1.857912393984174
 31
0.0
  0
LINE
  5
2C69
330
1E
100
AcDbEntity
  8
7
100
AcDbLine
 10
2.726494090057224
 20
1.857912393984174
 30
0.0
 11
2.704184378771135
 21
1.857912393984174
 31
0.0
  0
LINE
  5
2C6A
330
1E
100
AcDbEntity
  8
7
100
AcDbLine
 10
2.704184378771135
 20
1.857912393984174
 30
0.0
 11
2.674000651737014
 21
1.857912393984174
 31
0.0
  0
LINE
  5
2C6B
330
1E
100
AcDbEntity
  8
7
100
AcDbLine
 10
0.5112709929443638
 20
1.720117118393623
 30
0.0
 11
0.5099586569863579
 21
1.810668299495985
 31
0.0
  0
LINE
  5
2C6C
330
1E
100
AcDbEntity
  8
7
100
AcDbLine
 10
0.5099586569863579
 20
1.810668299495985
 30
0.0
 11
0.508646321028353
 21
1.857912393984174
 31
0.0
  0
LINE
  5
2C6D
330
1E
100
AcDbEntity
  8
7
100
AcDbLine
 10
2.206809050687145
 20
1.720117118393623
 30
0.0
 11
2.164814300030977
 21
1.720117118393623
 31
0.0
  0
LINE
  5
2C6E
330
1E
100
AcDbEntity
  8
7
100
AcDbLine
 10
2.164814300030977
 20
1.720117118393623
 30
0.0
 11
0.5532657436005315
 21
1.720117118393623
 31
0.0
  0
LINE
  5
2C6F
330
1E
100
AcDbEntity
  8
7
100
AcDbLine
 10
0.1740006517370149
 20
2.079697170887061
 30
0.0
 11
0.1556279483249408
 21
2.075760163013045
 31
0.0
  0
LINE
  5
2C70
330
1E
100
AcDbEntity
  8
7
100
AcDbLine
 10
0.1556279483249408
 20
2.075760163013045
 30
0.0
 11
0.1333182370388517
 21
2.069198483223019
 31
0.0
  0
LINE
  5
2C71
330
1E
100
AcDbEntity
  8
7
100
AcDbLine
 10
0.1333182370388517
 20
2.069198483223019
 30
0.0
 11
0.113633197668773
 21
2.061324467474987
 31
0.0
  0
LINE
  5
2C72
330
1E
100
AcDbEntity
  8
7
100
AcDbLine
 10
0.113633197668773
 20
2.061324467474987
 30
0.0
 11
0.0939481582986943
 21
2.050825779810945
 31
0.0
  0
LINE
  5
2C73
330
1E
100
AcDbEntity
  8
7
100
AcDbLine
 10
0.0939481582986943
 20
2.050825779810945
 30
0.0
 11
0.074263118928616
 21
2.037702420230893
 31
0.0
  0
LINE
  5
2C74
330
1E
100
AcDbEntity
  8
7
100
AcDbLine
 10
0.074263118928616
 20
2.037702420230893
 30
0.0
 11
0.0637644312645733
 21
2.029828404482862
 31
0.0
  0
LINE
  5
2C7B
330
1E
100
AcDbEntity
  8
7
100
AcDbLine
 10
2.668751307904993
 20
2.016705044902809
 30
0.0
 11
2.696310363023103
 21
1.982584309994673
 31
0.0
  0
LINE
  5
2C7C
330
1E
100
AcDbEntity
  8
7
100
AcDbLine
 10
2.696310363023103
 20
1.982584309994673
 30
0.0
 11
2.717307738351187
 21
1.94452656721252
 31
0.0
  0
LINE
  5
2C7D
330
1E
100
AcDbEntity
  8
7
100
AcDbLine
 10
2.717307738351187
 20
1.94452656721252
 30
0.0
 11
2.73043109793124
 21
1.901219480598347
 31
0.0
  0
LINE
  5
2C7E
330
1E
100
AcDbEntity
  8
7
100
AcDbLine
 10
2.73043109793124
 20
1.901219480598347
 30
0.0
 11
2.734368105805255
 21
1.857912393984174
 31
0.0
  0
LINE
  5
2C7F
330
1E
100
AcDbEntity
  8
7
100
AcDbLine
 10
2.508646321028352
 20
2.082321842803071
 30
0.0
 11
2.553265743600531
 21
2.078384834929055
 31
0.0
  0
LINE
  5
2C80
330
1E
100
AcDbEntity
  8
7
100
AcDbLine
 10
2.553265743600531
 20
2.078384834929055
 30
0.0
 11
2.595260494256699
 21
2.065261475349003
 31
0.0
  0
LINE
  5
2C81
330
1E
100
AcDbEntity
  8
7
100
AcDbLine
 10
2.595260494256699
 20
2.065261475349003
 30
0.0
 11
2.634630572996856
 21
2.044264100020919
 31
0.0
  0
LINE
  5
2C82
330
1E
100
AcDbEntity
  8
7
100
AcDbLine
 10
2.634630572996856
 20
2.044264100020919
 30
0.0
 11
2.668751307904993
 21
2.016705044902809
 31
0.0
  0
LINE
  5
2C83
330
1E
100
AcDbEntity
  8
7
100
AcDbLine
 10
2.734368105805255
 20
1.857912393984174
 30
0.0
 11
2.726494090057224
 21
1.857912393984174
 31
0.0
  0
LINE
  5
2C84
330
1E
100
AcDbEntity
  8
7
100
AcDbLine
 10
2.726494090057224
 20
1.857912393984174
 30
0.0
 11
2.704184378771135
 21
1.857912393984174
 31
0.0
  0
LINE
  5
2C85
330
1E
100
AcDbEntity
  8
7
100
AcDbLine
 10
2.704184378771135
 20
1.857912393984174
 30
0.0
 11
2.674000651737014
 21
1.857912393984174
 31
0.0
  0
LINE
  5
2C89
330
1E
100
AcDbEntity
  8
7
100
AcDbLine
 10
1.303921911579533
 20
7.453712918918556
 30
0.0
 11
1.328856294781633
 21
7.435340215506482
 31
0.0
  0
LINE
  5
2C8A
330
1E
100
AcDbEntity
  8
7
100
AcDbLine
 10
1.328856294781633
 20
7.435340215506482
 30
0.0
 11
1.359040021815754
 21
7.428778535716456
 31
0.0
  0
LINE
  5
2C8B
330
1E
100
AcDbEntity
  8
7
100
AcDbLine
 10
1.359040021815754
 20
7.428778535716456
 30
0.0
 11
1.389223748849875
 21
7.435340215506482
 31
0.0
  0
LINE
  5
2C8C
330
1E
100
AcDbEntity
  8
7
100
AcDbLine
 10
1.389223748849875
 20
7.435340215506482
 30
0.0
 11
1.414158132051974
 21
7.453712918918556
 31
0.0
  0
LINE
  5
2C8D
330
1E
100
AcDbEntity
  8
7
100
AcDbLine
 10
1.414158132051974
 20
7.553450451726955
 30
0.0
 11
1.389223748849875
 21
7.571823155139028
 31
0.0
  0
LINE
  5
2C8E
330
1E
100
AcDbEntity
  8
7
100
AcDbLine
 10
1.389223748849875
 20
7.571823155139028
 30
0.0
 11
1.359040021815754
 21
7.578384834929055
 31
0.0
  0
LINE
  5
2C8F
330
1E
100
AcDbEntity
  8
7
100
AcDbLine
 10
1.359040021815754
 20
7.578384834929055
 30
0.0
 11
1.328856294781633
 21
7.571823155139028
 31
0.0
  0
LINE
  5
2C90
330
1E
100
AcDbEntity
  8
7
100
AcDbLine
 10
1.414158132051974
 20
7.453712918918556
 30
0.0
 11
1.431218499506043
 21
7.485208981910682
 31
0.0
  0
LINE
  5
2C91
330
1E
100
AcDbEntity
  8
7
100
AcDbLine
 10
1.431218499506043
 20
7.485208981910682
 30
0.0
 11
1.431218499506043
 21
7.521954388734829
 31
0.0
  0
LINE
  5
2C92
330
1E
100
AcDbEntity
  8
7
100
AcDbLine
 10
1.431218499506043
 20
7.521954388734829
 30
0.0
 11
1.414158132051974
 21
7.553450451726955
 31
0.0
  0
LINE
  5
2C93
330
1E
100
AcDbEntity
  8
7
100
AcDbLine
 10
1.303921911579533
 20
7.553450451726955
 30
0.0
 11
1.286861544125465
 21
7.521954388734829
 31
0.0
  0
LINE
  5
2C94
330
1E
100
AcDbEntity
  8
7
100
AcDbLine
 10
1.286861544125465
 20
7.521954388734829
 30
0.0
 11
1.286861544125465
 21
7.485208981910682
 31
0.0
  0
LINE
  5
2C95
330
1E
100
AcDbEntity
  8
7
100
AcDbLine
 10
1.286861544125465
 20
7.485208981910682
 30
0.0
 11
1.303921911579533
 21
7.453712918918556
 31
0.0
  0
LINE
  5
2C96
330
1E
100
AcDbEntity
  8
7
100
AcDbLine
 10
1.414158132051974
 20
4.272610556713832
 30
0.0
 11
1.389223748849875
 21
4.290983260125905
 31
0.0
  0
LINE
  5
2C97
330
1E
100
AcDbEntity
  8
7
100
AcDbLine
 10
1.389223748849875
 20
4.290983260125905
 30
0.0
 11
1.359040021815754
 21
4.297544939915932
 31
0.0
  0
LINE
  5
2C98
330
1E
100
AcDbEntity
  8
7
100
AcDbLine
 10
1.359040021815754
 20
4.297544939915932
 30
0.0
 11
1.328856294781633
 21
4.290983260125905
 31
0.0
  0
LINE
  5
2C99
330
1E
100
AcDbEntity
  8
7
100
AcDbLine
 10
1.328856294781633
 20
4.290983260125905
 30
0.0
 11
1.303921911579533
 21
4.272610556713832
 31
0.0
  0
LINE
  5
2C9A
330
1E
100
AcDbEntity
  8
7
100
AcDbLine
 10
1.303921911579533
 20
4.172873023905433
 30
0.0
 11
1.328856294781633
 21
4.154500320493359
 31
0.0
  0
LINE
  5
2C9B
330
1E
100
AcDbEntity
  8
7
100
AcDbLine
 10
1.328856294781633
 20
4.154500320493359
 30
0.0
 11
1.359040021815754
 21
4.147938640703333
 31
0.0
  0
LINE
  5
2C9C
330
1E
100
AcDbEntity
  8
7
100
AcDbLine
 10
1.359040021815754
 20
4.147938640703333
 30
0.0
 11
1.389223748849875
 21
4.154500320493359
 31
0.0
  0
LINE
  5
2C9D
330
1E
100
AcDbEntity
  8
7
100
AcDbLine
 10
1.389223748849875
 20
4.154500320493359
 30
0.0
 11
1.414158132051974
 21
4.172873023905433
 31
0.0
  0
LINE
  5
2C9E
330
1E
100
AcDbEntity
  8
7
100
AcDbLine
 10
1.414158132051974
 20
4.172873023905433
 30
0.0
 11
1.431218499506043
 21
4.204369086897559
 31
0.0
  0
LINE
  5
2C9F
330
1E
100
AcDbEntity
  8
7
100
AcDbLine
 10
1.431218499506043
 20
4.204369086897559
 30
0.0
 11
1.431218499506043
 21
4.241114493721706
 31
0.0
  0
LINE
  5
2CA0
330
1E
100
AcDbEntity
  8
7
100
AcDbLine
 10
1.431218499506043
 20
4.241114493721706
 30
0.0
 11
1.414158132051974
 21
4.272610556713832
 31
0.0
  0
LINE
  5
2CA1
330
1E
100
AcDbEntity
  8
7
100
AcDbLine
 10
1.303921911579533
 20
4.272610556713832
 30
0.0
 11
1.286861544125465
 21
4.241114493721706
 31
0.0
  0
LINE
  5
2CA2
330
1E
100
AcDbEntity
  8
7
100
AcDbLine
 10
1.286861544125465
 20
4.241114493721706
 30
0.0
 11
1.286861544125465
 21
4.204369086897559
 31
0.0
  0
LINE
  5
2CA3
330
1E
100
AcDbEntity
  8
7
100
AcDbLine
 10
1.286861544125465
 20
4.204369086897559
 30
0.0
 11
1.303921911579533
 21
4.172873023905433
 31
0.0
  0
LINE
  5
2CA4
330
1E
100
AcDbEntity
  8
7
100
AcDbLine
 10
2.734368105805255
 20
8.053450451726956
 30
0.0
 11
2.73043109793124
 21
8.049513443852939
 31
0.0
  0
LINE
  5
2CA5
330
1E
100
AcDbEntity
  8
7
100
AcDbLine
 10
2.73043109793124
 20
8.049513443852939
 30
0.0
 11
2.717307738351187
 21
8.040327092146902
 31
0.0
  0
LINE
  5
2CA6
330
1E
100
AcDbEntity
  8
7
100
AcDbLine
 10
2.717307738351187
 20
8.040327092146902
 30
0.0
 11
2.696310363023103
 21
8.025891396608844
 31
0.0
  0
LINE
  5
2CA7
330
1E
100
AcDbEntity
  8
7
100
AcDbLine
 10
2.696310363023103
 20
8.025891396608844
 30
0.0
 11
2.668751307904993
 21
8.00489402128076
 31
0.0
  0
LINE
  5
2CA8
330
1E
100
AcDbEntity
  8
7
100
AcDbLine
 10
2.668751307904993
 20
8.00489402128076
 30
0.0
 11
2.634630572996856
 21
7.979959638078661
 31
0.0
  0
LINE
  5
2CA9
330
1E
100
AcDbEntity
  8
7
100
AcDbLine
 10
2.634630572996856
 20
7.979959638078661
 30
0.0
 11
2.595260494256699
 21
7.951088247002545
 31
0.0
  0
LINE
  5
2CAA
330
1E
100
AcDbEntity
  8
7
100
AcDbLine
 10
2.595260494256699
 20
7.951088247002545
 30
0.0
 11
2.553265743600531
 21
7.920904519968424
 31
0.0
  0
LINE
  5
2CAB
330
1E
100
AcDbEntity
  8
7
100
AcDbLine
 10
2.553265743600531
 20
7.920904519968424
 30
0.0
 11
2.508646321028352
 21
7.888096121018293
 31
0.0
  0
LINE
  5
2CAC
330
1E
100
AcDbEntity
  8
7
100
AcDbLine
 10
2.700247370897119
 20
3.697807407107533
 30
0.0
 11
2.721244746225202
 21
3.683371711569475
 31
0.0
  0
LINE
  5
2CAD
330
1E
100
AcDbEntity
  8
7
100
AcDbLine
 10
2.721244746225202
 20
3.683371711569475
 30
0.0
 11
2.731743433889245
 21
3.675497695821443
 31
0.0
  0
LINE
  5
2CAE
330
1E
100
AcDbEntity
  8
7
100
AcDbLine
 10
2.508646321028352
 20
3.838227354614095
 30
0.0
 11
2.554578079558536
 21
3.805418955663963
 31
0.0
  0
LINE
  5
2CAF
330
1E
100
AcDbEntity
  8
7
100
AcDbLine
 10
2.554578079558536
 20
3.805418955663963
 30
0.0
 11
2.59788516617271
 21
3.772610556713832
 31
0.0
  0
LINE
  5
2CB0
330
1E
100
AcDbEntity
  8
7
100
AcDbLine
 10
2.59788516617271
 20
3.772610556713832
 30
0.0
 11
2.638567580870872
 21
3.743739165637716
 31
0.0
  0
LINE
  5
2CB1
330
1E
100
AcDbEntity
  8
7
100
AcDbLine
 10
2.638567580870872
 20
3.743739165637716
 30
0.0
 11
2.672688315779008
 21
3.718804782435617
 31
0.0
  0
LINE
  5
2CB2
330
1E
100
AcDbEntity
  8
7
100
AcDbLine
 10
2.672688315779008
 20
3.718804782435617
 30
0.0
 11
2.700247370897119
 21
3.697807407107533
 31
0.0
  0
LINE
  5
2CB3
330
1E
100
AcDbEntity
  8
7
100
AcDbLine
 10
0.1464415966189043
 20
3.751613181385748
 30
0.0
 11
0.1175702055427887
 21
3.713555438603596
 31
0.0
  0
LINE
  5
2CB4
330
1E
100
AcDbEntity
  8
7
100
AcDbLine
 10
0.1175702055427887
 20
3.713555438603596
 30
0.0
 11
0.0926358223406889
 21
3.679434703695459
 31
0.0
  0
LINE
  5
2CB5
330
1E
100
AcDbEntity
  8
7
100
AcDbLine
 10
0.0926358223406889
 20
3.679434703695459
 30
0.0
 11
0.0716384470126048
 21
3.650563312619343
 31
0.0
  0
LINE
  5
2CB6
330
1E
100
AcDbEntity
  8
7
100
AcDbLine
 10
0.0716384470126048
 20
3.650563312619343
 30
0.0
 11
0.0572027514745468
 21
3.630878273249265
 31
0.0
  0
LINE
  5
2CB7
330
1E
100
AcDbEntity
  8
7
100
AcDbLine
 10
0.0572027514745468
 20
3.630878273249265
 30
0.0
 11
0.046704063810505
 21
3.617754913669212
 31
0.0
  0
LINE
  5
2CB8
330
1E
100
AcDbEntity
  8
7
100
AcDbLine
 10
0.046704063810505
 20
3.617754913669212
 30
0.0
 11
0.0440793918944951
 21
3.613817905795196
 31
0.0
  0
LINE
  5
2CB9
330
1E
100
AcDbEntity
  8
7
100
AcDbLine
 10
0.2094337226031562
 20
3.838227354614095
 30
0.0
 11
0.1766253236530249
 21
3.794920267999921
 31
0.0
  0
LINE
  5
2CBA
330
1E
100
AcDbEntity
  8
7
100
AcDbLine
 10
0.1766253236530249
 20
3.794920267999921
 30
0.0
 11
0.1464415966189043
 21
3.751613181385748
 31
0.0
  0
LINE
  5
2CBB
330
1E
100
AcDbEntity
  8
7
100
AcDbLine
 10
2.674000651737014
 20
3.613817905795196
 30
0.0
 11
2.671375979821003
 21
3.617754913669212
 31
0.0
  0
LINE
  5
2CBC
330
1E
100
AcDbEntity
  8
7
100
AcDbLine
 10
2.671375979821003
 20
3.617754913669212
 30
0.0
 11
2.662189628114966
 21
3.630878273249265
 31
0.0
  0
LINE
  5
2CBD
330
1E
100
AcDbEntity
  8
7
100
AcDbLine
 10
2.662189628114966
 20
3.630878273249265
 30
0.0
 11
2.646441596618903
 21
3.650563312619343
 31
0.0
  0
LINE
  5
2CBE
330
1E
100
AcDbEntity
  8
7
100
AcDbLine
 10
2.646441596618903
 20
3.650563312619343
 30
0.0
 11
2.625444221290819
 21
3.679434703695459
 31
0.0
  0
LINE
  5
2CBF
330
1E
100
AcDbEntity
  8
7
100
AcDbLine
 10
2.625444221290819
 20
3.679434703695459
 30
0.0
 11
2.60050983808872
 21
3.713555438603596
 31
0.0
  0
LINE
  5
2CC0
330
1E
100
AcDbEntity
  8
7
100
AcDbLine
 10
2.60050983808872
 20
3.713555438603596
 30
0.0
 11
2.572950782970609
 21
3.751613181385748
 31
0.0
  0
LINE
  5
2CC1
330
1E
100
AcDbEntity
  8
7
100
AcDbLine
 10
2.572950782970609
 20
3.751613181385748
 30
0.0
 11
2.541454719978483
 21
3.794920267999921
 31
0.0
  0
LINE
  5
2CC2
330
1E
100
AcDbEntity
  8
7
100
AcDbLine
 10
2.541454719978483
 20
3.794920267999921
 30
0.0
 11
2.508646321028352
 21
3.838227354614095
 31
0.0
  0
LINE
  5
2CC3
330
1E
100
AcDbEntity
  8
7
100
AcDbLine
 10
0.0440793918944951
 20
8.113817905795196
 30
0.0
 11
0.046704063810505
 21
8.108568561963174
 31
0.0
  0
LINE
  5
2CC4
330
1E
100
AcDbEntity
  8
7
100
AcDbLine
 10
0.046704063810505
 20
8.108568561963174
 30
0.0
 11
0.0572027514745468
 21
8.095445202383123
 31
0.0
  0
LINE
  5
2CC5
330
1E
100
AcDbEntity
  8
7
100
AcDbLine
 10
0.0572027514745468
 20
8.095445202383123
 30
0.0
 11
0.0716384470126048
 21
8.075760163013043
 31
0.0
  0
LINE
  5
2CC6
330
1E
100
AcDbEntity
  8
7
100
AcDbLine
 10
0.0716384470126048
 20
8.075760163013043
 30
0.0
 11
0.0926358223406889
 21
8.046888771936929
 31
0.0
  0
LINE
  5
2CC7
330
1E
100
AcDbEntity
  8
7
100
AcDbLine
 10
0.0926358223406889
 20
8.046888771936929
 30
0.0
 11
0.1175702055427887
 21
8.012768037028791
 31
0.0
  0
LINE
  5
2CC8
330
1E
100
AcDbEntity
  8
7
100
AcDbLine
 10
0.1175702055427887
 20
8.012768037028791
 30
0.0
 11
0.1464415966189043
 21
7.97471029424664
 31
0.0
  0
LINE
  5
2CC9
330
1E
100
AcDbEntity
  8
7
100
AcDbLine
 10
0.1464415966189043
 20
7.97471029424664
 30
0.0
 11
0.1766253236530249
 21
7.932715543590472
 31
0.0
  0
LINE
  5
2CCA
330
1E
100
AcDbEntity
  8
7
100
AcDbLine
 10
0.1766253236530249
 20
7.932715543590472
 30
0.0
 11
0.2094337226031562
 21
7.888096121018293
 31
0.0
  0
LINE
  5
2CCB
330
1E
100
AcDbEntity
  8
7
100
AcDbLine
 10
2.60050983808872
 20
8.012768037028791
 30
0.0
 11
2.625444221290819
 21
8.046888771936929
 31
0.0
  0
LINE
  5
2CCC
330
1E
100
AcDbEntity
  8
7
100
AcDbLine
 10
2.625444221290819
 20
8.046888771936929
 30
0.0
 11
2.646441596618903
 21
8.075760163013043
 31
0.0
  0
LINE
  5
2CCD
330
1E
100
AcDbEntity
  8
7
100
AcDbLine
 10
2.646441596618903
 20
8.075760163013043
 30
0.0
 11
2.662189628114966
 21
8.095445202383123
 31
0.0
  0
LINE
  5
2CCE
330
1E
100
AcDbEntity
  8
7
100
AcDbLine
 10
2.662189628114966
 20
8.095445202383123
 30
0.0
 11
2.671375979821003
 21
8.108568561963174
 31
0.0
  0
LINE
  5
2CCF
330
1E
100
AcDbEntity
  8
7
100
AcDbLine
 10
2.671375979821003
 20
8.108568561963174
 30
0.0
 11
2.674000651737014
 21
8.113817905795196
 31
0.0
  0
LINE
  5
2CD0
330
1E
100
AcDbEntity
  8
7
100
AcDbLine
 10
2.508646321028352
 20
7.888096121018293
 30
0.0
 11
2.541454719978483
 21
7.932715543590472
 31
0.0
  0
LINE
  5
2CD1
330
1E
100
AcDbEntity
  8
7
100
AcDbLine
 10
2.541454719978483
 20
7.932715543590472
 30
0.0
 11
2.572950782970609
 21
7.97471029424664
 31
0.0
  0
LINE
  5
2CD2
330
1E
100
AcDbEntity
  8
7
100
AcDbLine
 10
2.572950782970609
 20
7.97471029424664
 30
0.0
 11
2.60050983808872
 21
8.012768037028791
 31
0.0
  0
LINE
  5
2CD3
330
1E
100
AcDbEntity
  8
7
100
AcDbLine
 10
-0.0162880621737469
 20
3.672873023905433
 30
0.0
 11
-0.0110387183417258
 21
3.676810031779449
 31
0.0
  0
LINE
  5
2CD4
330
1E
100
AcDbEntity
  8
7
100
AcDbLine
 10
-0.0110387183417258
 20
3.676810031779449
 30
0.0
 11
0.0007723052803215
 21
3.685996383485485
 31
0.0
  0
LINE
  5
2CD5
330
1E
100
AcDbEntity
  8
7
100
AcDbLine
 10
0.0007723052803215
 20
3.685996383485485
 30
0.0
 11
0.0217696806084056
 21
3.700432079023543
 31
0.0
  0
LINE
  5
2CD6
330
1E
100
AcDbEntity
  8
7
100
AcDbLine
 10
0.0217696806084056
 20
3.700432079023543
 30
0.0
 11
0.0506410716845212
 21
3.721429454351627
 31
0.0
  0
LINE
  5
2CD7
330
1E
100
AcDbEntity
  8
7
100
AcDbLine
 10
0.0506410716845212
 20
3.721429454351627
 30
0.0
 11
0.0847618065926579
 21
3.746363837553727
 31
0.0
  0
LINE
  5
2CD8
330
1E
100
AcDbEntity
  8
7
100
AcDbLine
 10
0.0847618065926579
 20
3.746363837553727
 30
0.0
 11
0.1228195493748099
 21
3.775235228629842
 31
0.0
  0
LINE
  5
2CD9
330
1E
100
AcDbEntity
  8
7
100
AcDbLine
 10
0.1228195493748099
 20
3.775235228629842
 30
0.0
 11
0.1648143000309776
 21
3.805418955663963
 31
0.0
  0
LINE
  5
2CDA
330
1E
100
AcDbEntity
  8
7
100
AcDbLine
 10
0.1648143000309776
 20
3.805418955663963
 30
0.0
 11
0.2094337226031562
 21
3.838227354614095
 31
0.0
  0
LINE
  5
2CDB
330
1E
100
AcDbEntity
  8
7
100
AcDbLine
 10
0.2094337226031562
 20
7.888096121018293
 30
0.0
 11
0.1648143000309776
 21
7.920904519968424
 31
0.0
  0
LINE
  5
2CDC
330
1E
100
AcDbEntity
  8
7
100
AcDbLine
 10
0.1648143000309776
 20
7.920904519968424
 30
0.0
 11
0.1228195493748099
 21
7.951088247002545
 31
0.0
  0
LINE
  5
2CDD
330
1E
100
AcDbEntity
  8
7
100
AcDbLine
 10
0.1228195493748099
 20
7.951088247002545
 30
0.0
 11
0.0847618065926579
 21
7.979959638078661
 31
0.0
  0
LINE
  5
2CDE
330
1E
100
AcDbEntity
  8
7
100
AcDbLine
 10
0.0847618065926579
 20
7.979959638078661
 30
0.0
 11
0.0506410716845212
 21
8.00489402128076
 31
0.0
  0
LINE
  5
2CDF
330
1E
100
AcDbEntity
  8
7
100
AcDbLine
 10
0.0506410716845212
 20
8.00489402128076
 30
0.0
 11
0.0217696806084056
 21
8.025891396608844
 31
0.0
  0
LINE
  5
2CE0
330
1E
100
AcDbEntity
  8
7
100
AcDbLine
 10
0.0217696806084056
 20
8.025891396608844
 30
0.0
 11
0.0007723052803215
 21
8.040327092146902
 31
0.0
  0
LINE
  5
2CE1
330
1E
100
AcDbEntity
  8
7
100
AcDbLine
 10
0.0007723052803215
 20
8.040327092146902
 30
0.0
 11
-0.0110387183417258
 21
8.049513443852939
 31
0.0
  0
LINE
  5
2CE2
330
1E
100
AcDbEntity
  8
7
100
AcDbLine
 10
1.289486216041475
 20
7.63743995303929
 30
0.0
 11
1.256677817091345
 21
7.613817905795196
 31
0.0
  0
LINE
  5
2CE3
330
1E
100
AcDbEntity
  8
7
100
AcDbLine
 10
1.256677817091345
 20
7.613817905795196
 30
0.0
 11
1.23043109793124
 21
7.58232184280307
 31
0.0
  0
LINE
  5
2CE4
330
1E
100
AcDbEntity
  8
7
100
AcDbLine
 10
1.23043109793124
 20
7.58232184280307
 30
0.0
 11
1.213370730477171
 21
7.544264100020917
 31
0.0
  0
LINE
  5
2CE5
330
1E
100
AcDbEntity
  8
7
100
AcDbLine
 10
1.213370730477171
 20
7.544264100020917
 30
0.0
 11
1.20812138664515
 21
7.503581685322755
 31
0.0
  0
LINE
  5
2CE6
330
1E
100
AcDbEntity
  8
7
100
AcDbLine
 10
1.289486216041475
 20
7.36972341760622
 30
0.0
 11
1.328856294781633
 21
7.355287722068162
 31
0.0
  0
LINE
  5
2CE7
330
1E
100
AcDbEntity
  8
7
100
AcDbLine
 10
1.328856294781633
 20
7.355287722068162
 30
0.0
 11
1.369538709479796
 21
7.352663050152151
 31
0.0
  0
LINE
  5
2CE8
330
1E
100
AcDbEntity
  8
7
100
AcDbLine
 10
1.369538709479796
 20
7.352663050152151
 30
0.0
 11
1.410221124177959
 21
7.361849401858188
 31
0.0
  0
LINE
  5
2CE9
330
1E
100
AcDbEntity
  8
7
100
AcDbLine
 10
1.410221124177959
 20
7.361849401858188
 30
0.0
 11
1.4456541950441
 21
7.380222105270262
 31
0.0
  0
LINE
  5
2CEA
330
1E
100
AcDbEntity
  8
7
100
AcDbLine
 10
1.4456541950441
 20
7.380222105270262
 30
0.0
 11
1.475837922078222
 21
7.407781160388372
 31
0.0
  0
LINE
  5
2CEB
330
1E
100
AcDbEntity
  8
7
100
AcDbLine
 10
1.475837922078222
 20
7.407781160388372
 30
0.0
 11
1.496835297406305
 21
7.443214231254514
 31
0.0
  0
LINE
  5
2CEC
330
1E
100
AcDbEntity
  8
7
100
AcDbLine
 10
1.496835297406305
 20
7.443214231254514
 30
0.0
 11
1.508646321028353
 21
7.48258430999467
 31
0.0
  0
LINE
  5
2CED
330
1E
100
AcDbEntity
  8
7
100
AcDbLine
 10
1.508646321028353
 20
7.48258430999467
 30
0.0
 11
1.508646321028353
 21
7.524579060650839
 31
0.0
  0
LINE
  5
2CEE
330
1E
100
AcDbEntity
  8
7
100
AcDbLine
 10
1.508646321028353
 20
7.524579060650839
 30
0.0
 11
1.496835297406305
 21
7.563949139390997
 31
0.0
  0
LINE
  5
2CEF
330
1E
100
AcDbEntity
  8
7
100
AcDbLine
 10
1.496835297406305
 20
7.563949139390997
 30
0.0
 11
1.475837922078222
 21
7.599382210257139
 31
0.0
  0
LINE
  5
2CF0
330
1E
100
AcDbEntity
  8
7
100
AcDbLine
 10
1.475837922078222
 20
7.599382210257139
 30
0.0
 11
1.4456541950441
 21
7.626941265375249
 31
0.0
  0
LINE
  5
2CF1
330
1E
100
AcDbEntity
  8
7
100
AcDbLine
 10
1.4456541950441
 20
7.626941265375249
 30
0.0
 11
1.410221124177959
 21
7.645313968787322
 31
0.0
  0
LINE
  5
2CF2
330
1E
100
AcDbEntity
  8
7
100
AcDbLine
 10
1.410221124177959
 20
7.645313968787322
 30
0.0
 11
1.369538709479796
 21
7.654500320493358
 31
0.0
  0
LINE
  5
2CF3
330
1E
100
AcDbEntity
  8
7
100
AcDbLine
 10
1.369538709479796
 20
7.654500320493358
 30
0.0
 11
1.328856294781633
 21
7.651875648577348
 31
0.0
  0
LINE
  5
2CF4
330
1E
100
AcDbEntity
  8
7
100
AcDbLine
 10
1.328856294781633
 20
7.651875648577348
 30
0.0
 11
1.289486216041475
 21
7.63743995303929
 31
0.0
  0
LINE
  5
2CF5
330
1E
100
AcDbEntity
  8
7
100
AcDbLine
 10
1.20812138664515
 20
7.503581685322755
 30
0.0
 11
1.213370730477171
 21
7.462899270624592
 31
0.0
  0
LINE
  5
2CF6
330
1E
100
AcDbEntity
  8
7
100
AcDbLine
 10
1.213370730477171
 20
7.462899270624592
 30
0.0
 11
1.23043109793124
 21
7.42484152784244
 31
0.0
  0
LINE
  5
2CF7
330
1E
100
AcDbEntity
  8
7
100
AcDbLine
 10
1.23043109793124
 20
7.42484152784244
 30
0.0
 11
1.256677817091345
 21
7.393345464850314
 31
0.0
  0
LINE
  5
2CF8
330
1E
100
AcDbEntity
  8
7
100
AcDbLine
 10
1.256677817091345
 20
7.393345464850314
 30
0.0
 11
1.289486216041475
 21
7.36972341760622
 31
0.0
  0
LINE
  5
2CF9
330
1E
100
AcDbEntity
  8
7
100
AcDbLine
 10
1.328856294781633
 20
4.371035753564226
 30
0.0
 11
1.289486216041475
 21
4.356600058026168
 31
0.0
  0
LINE
  5
2CFA
330
1E
100
AcDbEntity
  8
7
100
AcDbLine
 10
1.289486216041475
 20
4.356600058026168
 30
0.0
 11
1.256677817091345
 21
4.332978010782074
 31
0.0
  0
LINE
  5
2CFB
330
1E
100
AcDbEntity
  8
7
100
AcDbLine
 10
1.256677817091345
 20
4.332978010782074
 30
0.0
 11
1.23043109793124
 21
4.301481947789946
 31
0.0
  0
LINE
  5
2CFC
330
1E
100
AcDbEntity
  8
7
100
AcDbLine
 10
1.23043109793124
 20
4.301481947789946
 30
0.0
 11
1.213370730477171
 21
4.263424205007795
 31
0.0
  0
LINE
  5
2CFD
330
1E
100
AcDbEntity
  8
7
100
AcDbLine
 10
1.213370730477171
 20
4.263424205007795
 30
0.0
 11
1.20812138664515
 21
4.222741790309632
 31
0.0
  0
LINE
  5
2CFE
330
1E
100
AcDbEntity
  8
7
100
AcDbLine
 10
1.256677817091345
 20
4.112505569837191
 30
0.0
 11
1.289486216041475
 21
4.088883522593097
 31
0.0
  0
LINE
  5
2CFF
330
1E
100
AcDbEntity
  8
7
100
AcDbLine
 10
1.289486216041475
 20
4.088883522593097
 30
0.0
 11
1.328856294781633
 21
4.074447827055039
 31
0.0
  0
LINE
  5
2D00
330
1E
100
AcDbEntity
  8
7
100
AcDbLine
 10
1.328856294781633
 20
4.074447827055039
 30
0.0
 11
1.369538709479796
 21
4.071823155139028
 31
0.0
  0
LINE
  5
2D01
330
1E
100
AcDbEntity
  8
7
100
AcDbLine
 10
1.369538709479796
 20
4.071823155139028
 30
0.0
 11
1.410221124177959
 21
4.081009506845065
 31
0.0
  0
LINE
  5
2D02
330
1E
100
AcDbEntity
  8
7
100
AcDbLine
 10
1.410221124177959
 20
4.081009506845065
 30
0.0
 11
1.4456541950441
 21
4.09938221025714
 31
0.0
  0
LINE
  5
2D03
330
1E
100
AcDbEntity
  8
7
100
AcDbLine
 10
1.4456541950441
 20
4.09938221025714
 30
0.0
 11
1.475837922078222
 21
4.126941265375249
 31
0.0
  0
LINE
  5
2D04
330
1E
100
AcDbEntity
  8
7
100
AcDbLine
 10
1.475837922078222
 20
4.126941265375249
 30
0.0
 11
1.496835297406305
 21
4.162374336241391
 31
0.0
  0
LINE
  5
2D05
330
1E
100
AcDbEntity
  8
7
100
AcDbLine
 10
1.496835297406305
 20
4.162374336241391
 30
0.0
 11
1.508646321028353
 21
4.201744414981548
 31
0.0
  0
LINE
  5
2D06
330
1E
100
AcDbEntity
  8
7
100
AcDbLine
 10
1.508646321028353
 20
4.201744414981548
 30
0.0
 11
1.508646321028353
 21
4.243739165637716
 31
0.0
  0
LINE
  5
2D07
330
1E
100
AcDbEntity
  8
7
100
AcDbLine
 10
1.508646321028353
 20
4.243739165637716
 30
0.0
 11
1.496835297406305
 21
4.283109244377873
 31
0.0
  0
LINE
  5
2D08
330
1E
100
AcDbEntity
  8
7
100
AcDbLine
 10
1.496835297406305
 20
4.283109244377873
 30
0.0
 11
1.475837922078222
 21
4.318542315244016
 31
0.0
  0
LINE
  5
2D09
330
1E
100
AcDbEntity
  8
7
100
AcDbLine
 10
1.475837922078222
 20
4.318542315244016
 30
0.0
 11
1.4456541950441
 21
4.346101370362125
 31
0.0
  0
LINE
  5
2D0A
330
1E
100
AcDbEntity
  8
7
100
AcDbLine
 10
1.4456541950441
 20
4.346101370362125
 30
0.0
 11
1.410221124177959
 21
4.3644740737742
 31
0.0
  0
LINE
  5
2D0B
330
1E
100
AcDbEntity
  8
7
100
AcDbLine
 10
1.410221124177959
 20
4.3644740737742
 30
0.0
 11
1.369538709479796
 21
4.373660425480236
 31
0.0
  0
LINE
  5
2D0C
330
1E
100
AcDbEntity
  8
7
100
AcDbLine
 10
1.369538709479796
 20
4.373660425480236
 30
0.0
 11
1.328856294781633
 21
4.371035753564226
 31
0.0
  0
LINE
  5
2D0D
330
1E
100
AcDbEntity
  8
7
100
AcDbLine
 10
1.20812138664515
 20
4.222741790309632
 30
0.0
 11
1.213370730477171
 21
4.18205937561147
 31
0.0
  0
LINE
  5
2D0E
330
1E
100
AcDbEntity
  8
7
100
AcDbLine
 10
1.213370730477171
 20
4.18205937561147
 30
0.0
 11
1.23043109793124
 21
4.144001632829317
 31
0.0
  0
LINE
  5
2D0F
330
1E
100
AcDbEntity
  8
7
100
AcDbLine
 10
1.23043109793124
 20
4.144001632829317
 30
0.0
 11
1.256677817091345
 21
4.112505569837191
 31
0.0
  0
LINE
  5
2D10
330
1E
100
AcDbEntity
  8
7
100
AcDbLine
 10
0.2094337226031562
 20
3.838227354614095
 30
0.0
 11
2.508646321028352
 21
3.838227354614095
 31
0.0
  0
LINE
  5
2D11
330
1E
100
AcDbEntity
  8
7
100
AcDbLine
 10
2.508646321028352
 20
3.838227354614095
 30
0.0
 11
2.508646321028352
 21
7.888096121018293
 31
0.0
  0
LINE
  5
2D12
330
1E
100
AcDbEntity
  8
7
100
AcDbLine
 10
2.508646321028352
 20
7.888096121018293
 30
0.0
 11
0.2094337226031562
 21
7.888096121018293
 31
0.0
  0
LINE
  5
2D13
330
1E
100
AcDbEntity
  8
7
100
AcDbLine
 10
0.2094337226031562
 20
7.888096121018293
 30
0.0
 11
0.2094337226031562
 21
3.838227354614095
 31
0.0
  0
LINE
  5
2D14
330
1E
100
AcDbEntity
  8
7
100
AcDbLine
 10
0.5204573446504002
 20
6.684684047527479
 30
0.0
 11
0.5165203367763845
 21
6.684684047527479
 31
0.0
  0
LINE
  5
2D15
330
1E
100
AcDbEntity
  8
7
100
AcDbLine
 10
0.5165203367763845
 20
6.684684047527479
 30
0.0
 11
0.5125833289023692
 21
6.687308719443491
 31
0.0
  0
LINE
  5
2D16
330
1E
100
AcDbEntity
  8
7
100
AcDbLine
 10
0.5125833289023692
 20
6.687308719443491
 30
0.0
 11
0.5125833289023692
 21
6.691245727317506
 31
0.0
  0
LINE
  5
2D17
330
1E
100
AcDbEntity
  8
7
100
AcDbLine
 10
0.5125833289023692
 20
6.826416330992046
 30
0.0
 11
0.5125833289023692
 21
6.830353338866062
 31
0.0
  0
LINE
  5
2D18
330
1E
100
AcDbEntity
  8
7
100
AcDbLine
 10
0.5125833289023692
 20
6.830353338866062
 30
0.0
 11
0.5165203367763845
 21
6.832978010782072
 31
0.0
  0
LINE
  5
2D19
330
1E
100
AcDbEntity
  8
7
100
AcDbLine
 10
0.5165203367763845
 20
6.832978010782072
 30
0.0
 11
0.5204573446504002
 21
6.832978010782072
 31
0.0
  0
LINE
  5
2D1A
330
1E
100
AcDbEntity
  8
7
100
AcDbLine
 10
2.206809050687145
 20
6.464211606582598
 30
0.0
 11
2.205496714729139
 21
6.460274598708582
 31
0.0
  0
LINE
  5
2D1B
330
1E
100
AcDbEntity
  8
7
100
AcDbLine
 10
2.205496714729139
 20
6.460274598708582
 30
0.0
 11
2.201559706855125
 21
6.456337590834566
 31
0.0
  0
LINE
  5
2D1C
330
1E
100
AcDbEntity
  8
7
100
AcDbLine
 10
2.201559706855125
 20
6.456337590834566
 30
0.0
 11
2.197622698981108
 21
6.456337590834566
 31
0.0
  0
LINE
  5
2D1D
330
1E
100
AcDbEntity
  8
7
100
AcDbLine
 10
2.197622698981108
 20
6.605943890047164
 30
0.0
 11
2.201559706855125
 21
6.604631554089159
 31
0.0
  0
LINE
  5
2D1E
330
1E
100
AcDbEntity
  8
7
100
AcDbLine
 10
2.201559706855125
 20
6.604631554089159
 30
0.0
 11
2.205496714729139
 21
6.602006882173149
 31
0.0
  0
LINE
  5
2D1F
330
1E
100
AcDbEntity
  8
7
100
AcDbLine
 10
2.206809050687145
 20
5.128253601333254
 30
0.0
 11
2.205496714729139
 21
5.124316593459238
 31
0.0
  0
LINE
  5
2D20
330
1E
100
AcDbEntity
  8
7
100
AcDbLine
 10
2.205496714729139
 20
5.124316593459238
 30
0.0
 11
2.201559706855125
 21
5.121691921543228
 31
0.0
  0
LINE
  5
2D21
330
1E
100
AcDbEntity
  8
7
100
AcDbLine
 10
2.201559706855125
 20
5.121691921543228
 30
0.0
 11
2.197622698981108
 21
5.121691921543228
 31
0.0
  0
LINE
  5
2D22
330
1E
100
AcDbEntity
  8
7
100
AcDbLine
 10
2.197622698981108
 20
5.26998588479782
 30
0.0
 11
2.201559706855125
 21
5.26998588479782
 31
0.0
  0
LINE
  5
2D23
330
1E
100
AcDbEntity
  8
7
100
AcDbLine
 10
2.201559706855125
 20
5.26998588479782
 30
0.0
 11
2.205496714729139
 21
5.267361212881811
 31
0.0
  0
LINE
  5
2D24
330
1E
100
AcDbEntity
  8
7
100
AcDbLine
 10
2.205496714729139
 20
5.267361212881811
 30
0.0
 11
2.206809050687145
 21
5.263424205007795
 31
0.0
  0
LINE
  5
2D25
330
1E
100
AcDbEntity
  8
7
100
AcDbLine
 10
0.5204573446504002
 20
4.893345464850314
 30
0.0
 11
0.5165203367763845
 21
4.893345464850314
 31
0.0
  0
LINE
  5
2D26
330
1E
100
AcDbEntity
  8
7
100
AcDbLine
 10
0.5165203367763845
 20
4.893345464850314
 30
0.0
 11
0.5125833289023692
 21
4.897282472724331
 31
0.0
  0
LINE
  5
2D27
330
1E
100
AcDbEntity
  8
7
100
AcDbLine
 10
0.5125833289023692
 20
4.897282472724331
 30
0.0
 11
0.5125833289023692
 21
4.901219480598347
 31
0.0
  0
LINE
  5
2D28
330
1E
100
AcDbEntity
  8
7
100
AcDbLine
 10
0.5125833289023692
 20
5.035077748314881
 30
0.0
 11
0.5125833289023692
 21
5.039014756188898
 31
0.0
  0
LINE
  5
2D29
330
1E
100
AcDbEntity
  8
7
100
AcDbLine
 10
0.5125833289023692
 20
5.039014756188898
 30
0.0
 11
0.5165203367763845
 21
5.041639428104908
 31
0.0
  0
LINE
  5
2D2A
330
1E
100
AcDbEntity
  8
7
100
AcDbLine
 10
0.5165203367763845
 20
5.041639428104908
 30
0.0
 11
0.5204573446504002
 21
5.041639428104908
 31
0.0
  0
LINE
  5
2D2B
330
1E
100
AcDbEntity
  8
7
100
AcDbLine
 10
0.5204573446504002
 20
5.788358588209894
 30
0.0
 11
0.5165203367763845
 21
5.789670924167899
 31
0.0
  0
LINE
  5
2D2C
330
1E
100
AcDbEntity
  8
7
100
AcDbLine
 10
0.5165203367763845
 20
5.789670924167899
 30
0.0
 11
0.5125833289023692
 21
5.792295596083911
 31
0.0
  0
LINE
  5
2D2D
330
1E
100
AcDbEntity
  8
7
100
AcDbLine
 10
0.5125833289023692
 20
5.792295596083911
 30
0.0
 11
0.5125833289023692
 21
5.796232603957926
 31
0.0
  0
LINE
  5
2D2E
330
1E
100
AcDbEntity
  8
7
100
AcDbLine
 10
0.5125833289023692
 20
5.930090871674461
 30
0.0
 11
0.5125833289023692
 21
5.934027879548477
 31
0.0
  0
LINE
  5
2D2F
330
1E
100
AcDbEntity
  8
7
100
AcDbLine
 10
0.5125833289023692
 20
5.934027879548477
 30
0.0
 11
0.5165203367763845
 21
5.936652551464487
 31
0.0
  0
LINE
  5
2D30
330
1E
100
AcDbEntity
  8
7
100
AcDbLine
 10
0.5165203367763845
 20
5.936652551464487
 30
0.0
 11
0.5204573446504002
 21
5.937964887422493
 31
0.0
  0
LINE
  5
2D31
330
1E
100
AcDbEntity
  8
7
100
AcDbLine
 10
2.146441596618903
 20
4.523266724692835
 30
0.0
 11
2.145129260660898
 21
4.520642052776825
 31
0.0
  0
LINE
  5
2D32
330
1E
100
AcDbEntity
  8
7
100
AcDbLine
 10
2.145129260660898
 20
4.520642052776825
 30
0.0
 11
2.142504588744888
 21
4.520642052776825
 31
0.0
  0
LINE
  5
2D33
330
1E
100
AcDbEntity
  8
7
100
AcDbLine
 10
2.142504588744888
 20
4.520642052776825
 30
0.0
 11
2.141192252786883
 21
4.519329716818818
 31
0.0
  0
LINE
  5
2D34
330
1E
100
AcDbEntity
  8
7
100
AcDbLine
 10
2.149066268534914
 20
4.528516068524855
 30
0.0
 11
2.147753932576909
 21
4.525891396608845
 31
0.0
  0
LINE
  5
2D35
330
1E
100
AcDbEntity
  8
7
100
AcDbLine
 10
2.147753932576909
 20
4.525891396608845
 30
0.0
 11
2.146441596618903
 21
4.523266724692835
 31
0.0
  0
LINE
  5
2D36
330
1E
100
AcDbEntity
  8
7
100
AcDbLine
 10
0.5782001268026314
 20
4.519329716818818
 30
0.0
 11
0.575575454886621
 21
4.520642052776825
 31
0.0
  0
LINE
  5
2D37
330
1E
100
AcDbEntity
  8
7
100
AcDbLine
 10
0.575575454886621
 20
4.520642052776825
 30
0.0
 11
0.5729507829706098
 21
4.52195438873483
 31
0.0
  0
LINE
  5
2D38
330
1E
100
AcDbEntity
  8
7
100
AcDbLine
 10
0.5729507829706098
 20
4.52195438873483
 30
0.0
 11
0.5703261110545999
 21
4.523266724692835
 31
0.0
  0
LINE
  5
2D39
330
1E
100
AcDbEntity
  8
7
100
AcDbLine
 10
0.5703261110545999
 20
4.523266724692835
 30
0.0
 11
0.5703261110545999
 21
4.525891396608845
 31
0.0
  0
LINE
  5
2D3A
330
1E
100
AcDbEntity
  8
7
100
AcDbLine
 10
0.5703261110545999
 20
4.525891396608845
 30
0.0
 11
0.5690137750965945
 21
4.528516068524855
 31
0.0
  0
LINE
  5
2D3B
330
1E
100
AcDbEntity
  8
7
100
AcDbLine
 10
2.141192252786883
 20
7.206993758813569
 30
0.0
 11
2.143816924702893
 21
7.205681422855564
 31
0.0
  0
LINE
  5
2D3C
330
1E
100
AcDbEntity
  8
7
100
AcDbLine
 10
2.143816924702893
 20
7.205681422855564
 30
0.0
 11
2.145129260660898
 21
7.204369086897559
 31
0.0
  0
LINE
  5
2D3D
330
1E
100
AcDbEntity
  8
7
100
AcDbLine
 10
2.145129260660898
 20
7.204369086897559
 30
0.0
 11
2.147753932576909
 21
7.203056750939554
 31
0.0
  0
LINE
  5
2D3E
330
1E
100
AcDbEntity
  8
7
100
AcDbLine
 10
2.147753932576909
 20
7.203056750939554
 30
0.0
 11
2.149066268534914
 21
7.200432079023542
 31
0.0
  0
LINE
  5
2D3F
330
1E
100
AcDbEntity
  8
7
100
AcDbLine
 10
2.149066268534914
 20
7.200432079023542
 30
0.0
 11
2.149066268534914
 21
7.199119743065537
 31
0.0
  0
LINE
  5
2D40
330
1E
100
AcDbEntity
  8
7
100
AcDbLine
 10
0.5690137750965945
 20
7.199119743065537
 30
0.0
 11
0.5703261110545999
 21
7.201744414981547
 31
0.0
  0
LINE
  5
2D41
330
1E
100
AcDbEntity
  8
7
100
AcDbLine
 10
0.5703261110545999
 20
7.201744414981547
 30
0.0
 11
0.5716384470126048
 21
7.203056750939554
 31
0.0
  0
LINE
  5
2D42
330
1E
100
AcDbEntity
  8
7
100
AcDbLine
 10
0.5716384470126048
 20
7.203056750939554
 30
0.0
 11
0.5729507829706098
 21
7.205681422855564
 31
0.0
  0
LINE
  5
2D43
330
1E
100
AcDbEntity
  8
7
100
AcDbLine
 10
0.5729507829706098
 20
7.205681422855564
 30
0.0
 11
0.575575454886621
 21
7.205681422855564
 31
0.0
  0
LINE
  5
2D44
330
1E
100
AcDbEntity
  8
7
100
AcDbLine
 10
0.575575454886621
 20
7.205681422855564
 30
0.0
 11
0.5782001268026314
 21
7.206993758813569
 31
0.0
  0
LINE
  5
2D45
330
1E
100
AcDbEntity
  8
7
100
AcDbLine
 10
0.5270190244404267
 20
4.893345464850314
 30
0.0
 11
0.5204573446504002
 21
4.893345464850314
 31
0.0
  0
LINE
  5
2D46
330
1E
100
AcDbEntity
  8
7
100
AcDbLine
 10
0.5204573446504002
 20
4.893345464850314
 30
0.0
 11
0.5178326727343903
 21
4.890720792934304
 31
0.0
  0
LINE
  5
2D47
330
1E
100
AcDbEntity
  8
7
100
AcDbLine
 10
0.5099586569863579
 20
4.898594808682336
 30
0.0
 11
0.5125833289023692
 21
4.901219480598347
 31
0.0
  0
LINE
  5
2D48
330
1E
100
AcDbEntity
  8
7
100
AcDbLine
 10
0.5125833289023692
 20
4.901219480598347
 30
0.0
 11
0.5125833289023692
 21
5.035077748314881
 31
0.0
  0
LINE
  5
2D49
330
1E
100
AcDbEntity
  8
7
100
AcDbLine
 10
0.5125833289023692
 20
5.035077748314881
 30
0.0
 11
0.5099586569863579
 21
5.037702420230893
 31
0.0
  0
LINE
  5
2D4A
330
1E
100
AcDbEntity
  8
7
100
AcDbLine
 10
0.5178326727343903
 20
5.045576435978923
 30
0.0
 11
0.5204573446504002
 21
5.041639428104908
 31
0.0
  0
LINE
  5
2D4B
330
1E
100
AcDbEntity
  8
7
100
AcDbLine
 10
0.5204573446504002
 20
5.041639428104908
 30
0.0
 11
0.5270190244404267
 21
5.041639428104908
 31
0.0
  0
LINE
  5
2D4C
330
1E
100
AcDbEntity
  8
7
100
AcDbLine
 10
0.5270190244404267
 20
5.788358588209894
 30
0.0
 11
0.5204573446504002
 21
5.788358588209894
 31
0.0
  0
LINE
  5
2D4D
330
1E
100
AcDbEntity
  8
7
100
AcDbLine
 10
0.5204573446504002
 20
5.788358588209894
 30
0.0
 11
0.5178326727343903
 21
5.785733916293883
 31
0.0
  0
LINE
  5
2D4E
330
1E
100
AcDbEntity
  8
7
100
AcDbLine
 10
0.5099586569863579
 20
5.793607932041916
 30
0.0
 11
0.5125833289023692
 21
5.796232603957926
 31
0.0
  0
LINE
  5
2D4F
330
1E
100
AcDbEntity
  8
7
100
AcDbLine
 10
0.5125833289023692
 20
5.796232603957926
 30
0.0
 11
0.5125833289023692
 21
5.930090871674461
 31
0.0
  0
LINE
  5
2D50
330
1E
100
AcDbEntity
  8
7
100
AcDbLine
 10
0.5125833289023692
 20
5.930090871674461
 30
0.0
 11
0.5099586569863579
 21
5.932715543590473
 31
0.0
  0
LINE
  5
2D51
330
1E
100
AcDbEntity
  8
7
100
AcDbLine
 10
0.5178326727343903
 20
5.940589559338503
 30
0.0
 11
0.5204573446504002
 21
5.937964887422493
 31
0.0
  0
LINE
  5
2D52
330
1E
100
AcDbEntity
  8
7
100
AcDbLine
 10
0.5204573446504002
 20
5.937964887422493
 30
0.0
 11
0.5270190244404267
 21
5.937964887422493
 31
0.0
  0
LINE
  5
2D53
330
1E
100
AcDbEntity
  8
7
100
AcDbLine
 10
0.5270190244404267
 20
6.684684047527479
 30
0.0
 11
0.5204573446504002
 21
6.684684047527479
 31
0.0
  0
LINE
  5
2D54
330
1E
100
AcDbEntity
  8
7
100
AcDbLine
 10
0.5204573446504002
 20
6.684684047527479
 30
0.0
 11
0.5178326727343903
 21
6.680747039653463
 31
0.0
  0
LINE
  5
2D55
330
1E
100
AcDbEntity
  8
7
100
AcDbLine
 10
0.5178326727343903
 20
6.680747039653463
 30
0.0
 11
0.561139759348563
 21
6.680747039653463
 31
0.0
  0
LINE
  5
2D56
330
1E
100
AcDbEntity
  8
7
100
AcDbLine
 10
0.561139759348563
 20
6.680747039653463
 30
0.0
 11
0.5650767672225792
 21
6.684684047527479
 31
0.0
  0
LINE
  5
2D57
330
1E
100
AcDbEntity
  8
7
100
AcDbLine
 10
0.5099586569863579
 20
6.688621055401496
 30
0.0
 11
0.5125833289023692
 21
6.691245727317506
 31
0.0
  0
LINE
  5
2D58
330
1E
100
AcDbEntity
  8
7
100
AcDbLine
 10
0.5125833289023692
 20
6.691245727317506
 30
0.0
 11
0.5125833289023692
 21
6.826416330992046
 31
0.0
  0
LINE
  5
2D59
330
1E
100
AcDbEntity
  8
7
100
AcDbLine
 10
0.5125833289023692
 20
6.826416330992046
 30
0.0
 11
0.5099586569863579
 21
6.827728666950051
 31
0.0
  0
LINE
  5
2D5A
330
1E
100
AcDbEntity
  8
7
100
AcDbLine
 10
0.5099586569863579
 20
6.827728666950051
 30
0.0
 11
0.5099586569863579
 21
6.688621055401496
 31
0.0
  0
LINE
  5
2D5B
330
1E
100
AcDbEntity
  8
7
100
AcDbLine
 10
0.5650767672225792
 20
6.832978010782072
 30
0.0
 11
0.561139759348563
 21
6.835602682698083
 31
0.0
  0
LINE
  5
2D5C
330
1E
100
AcDbEntity
  8
7
100
AcDbLine
 10
0.561139759348563
 20
6.835602682698083
 30
0.0
 11
0.5178326727343903
 21
6.835602682698083
 31
0.0
  0
LINE
  5
2D5D
330
1E
100
AcDbEntity
  8
7
100
AcDbLine
 10
0.5178326727343903
 20
6.835602682698083
 30
0.0
 11
0.5204573446504002
 21
6.832978010782072
 31
0.0
  0
LINE
  5
2D5E
330
1E
100
AcDbEntity
  8
7
100
AcDbLine
 10
0.5204573446504002
 20
6.832978010782072
 30
0.0
 11
0.5270190244404267
 21
6.832978010782072
 31
0.0
  0
LINE
  5
2D5F
330
1E
100
AcDbEntity
  8
7
100
AcDbLine
 10
0.5939481582986943
 20
5.359224729942178
 30
0.0
 11
0.5729507829706098
 21
5.365786409732204
 31
0.0
  0
LINE
  5
2D60
330
1E
100
AcDbEntity
  8
7
100
AcDbLine
 10
0.5729507829706098
 20
5.365786409732204
 30
0.0
 11
0.5729507829706098
 21
5.049513443852939
 31
0.0
  0
LINE
  5
2D61
330
1E
100
AcDbEntity
  8
7
100
AcDbLine
 10
0.5650767672225792
 20
5.041639428104908
 30
0.0
 11
0.5270190244404267
 21
5.041639428104908
 31
0.0
  0
LINE
  5
2D62
330
1E
100
AcDbEntity
  8
7
100
AcDbLine
 10
0.5270190244404267
 20
5.041639428104908
 30
0.0
 11
0.5270190244404267
 21
4.893345464850314
 31
0.0
  0
LINE
  5
2D63
330
1E
100
AcDbEntity
  8
7
100
AcDbLine
 10
0.5270190244404267
 20
4.893345464850314
 30
0.0
 11
0.5650767672225792
 21
4.893345464850314
 31
0.0
  0
LINE
  5
2D64
330
1E
100
AcDbEntity
  8
7
100
AcDbLine
 10
0.5650767672225792
 20
4.893345464850314
 30
0.0
 11
0.5729507829706098
 21
4.885471449102284
 31
0.0
  0
LINE
  5
2D65
330
1E
100
AcDbEntity
  8
7
100
AcDbLine
 10
0.5650767672225792
 20
5.937964887422493
 30
0.0
 11
0.5270190244404267
 21
5.937964887422493
 31
0.0
  0
LINE
  5
2D66
330
1E
100
AcDbEntity
  8
7
100
AcDbLine
 10
0.5270190244404267
 20
5.937964887422493
 30
0.0
 11
0.5270190244404267
 21
5.788358588209894
 31
0.0
  0
LINE
  5
2D67
330
1E
100
AcDbEntity
  8
7
100
AcDbLine
 10
0.5270190244404267
 20
5.788358588209894
 30
0.0
 11
0.5650767672225792
 21
5.788358588209894
 31
0.0
  0
LINE
  5
2D68
330
1E
100
AcDbEntity
  8
7
100
AcDbLine
 10
0.5650767672225792
 20
5.788358588209894
 30
0.0
 11
0.5729507829706098
 21
5.780484572461863
 31
0.0
  0
LINE
  5
2D69
330
1E
100
AcDbEntity
  8
7
100
AcDbLine
 10
0.6359429089548621
 20
4.525891396608845
 30
0.0
 11
0.6333182370388517
 21
4.523266724692835
 31
0.0
  0
LINE
  5
2D6A
330
1E
100
AcDbEntity
  8
7
100
AcDbLine
 10
0.6333182370388517
 20
4.523266724692835
 30
0.0
 11
0.5729507829706098
 21
4.523266724692835
 31
0.0
  0
LINE
  5
2D6B
330
1E
100
AcDbEntity
  8
7
100
AcDbLine
 10
0.5729507829706098
 20
7.203056750939554
 30
0.0
 11
0.6333182370388517
 21
7.203056750939554
 31
0.0
  0
LINE
  5
2D6C
330
1E
100
AcDbEntity
  8
7
100
AcDbLine
 10
0.6333182370388517
 20
7.203056750939554
 30
0.0
 11
0.6359429089548621
 21
7.200432079023542
 31
0.0
  0
LINE
  5
2D6D
330
1E
100
AcDbEntity
  8
7
100
AcDbLine
 10
2.145129260660898
 20
6.612505569837191
 30
0.0
 11
2.149066268534914
 21
6.616442577711207
 31
0.0
  0
LINE
  5
2D6E
330
1E
100
AcDbEntity
  8
7
100
AcDbLine
 10
2.149066268534914
 20
6.616442577711207
 30
0.0
 11
2.149066268534914
 21
7.199119743065537
 31
0.0
  0
LINE
  5
2D6F
330
1E
100
AcDbEntity
  8
7
100
AcDbLine
 10
2.192373355149087
 20
6.604631554089159
 30
0.0
 11
2.197622698981108
 21
6.605943890047164
 31
0.0
  0
LINE
  5
2D70
330
1E
100
AcDbEntity
  8
7
100
AcDbLine
 10
2.197622698981108
 20
6.605943890047164
 30
0.0
 11
2.200247370897119
 21
6.608568561963174
 31
0.0
  0
LINE
  5
2D71
330
1E
100
AcDbEntity
  8
7
100
AcDbLine
 10
2.200247370897119
 20
6.608568561963174
 30
0.0
 11
2.156940284282946
 21
6.608568561963174
 31
0.0
  0
LINE
  5
2D72
330
1E
100
AcDbEntity
  8
7
100
AcDbLine
 10
2.156940284282946
 20
6.608568561963174
 30
0.0
 11
2.15300327640893
 21
6.604631554089159
 31
0.0
  0
LINE
  5
2D73
330
1E
100
AcDbEntity
  8
7
100
AcDbLine
 10
2.20812138664515
 20
6.600694546215144
 30
0.0
 11
2.206809050687145
 21
6.598069874299133
 31
0.0
  0
LINE
  5
2D74
330
1E
100
AcDbEntity
  8
7
100
AcDbLine
 10
2.206809050687145
 20
6.598069874299133
 30
0.0
 11
2.206809050687145
 21
6.464211606582598
 31
0.0
  0
LINE
  5
2D75
330
1E
100
AcDbEntity
  8
7
100
AcDbLine
 10
2.206809050687145
 20
6.464211606582598
 30
0.0
 11
2.20812138664515
 21
6.461586934666587
 31
0.0
  0
LINE
  5
2D76
330
1E
100
AcDbEntity
  8
7
100
AcDbLine
 10
2.20812138664515
 20
6.461586934666587
 30
0.0
 11
2.20812138664515
 21
6.600694546215144
 31
0.0
  0
LINE
  5
2D77
330
1E
100
AcDbEntity
  8
7
100
AcDbLine
 10
2.15300327640893
 20
6.456337590834566
 30
0.0
 11
2.156940284282946
 21
6.453712918918556
 31
0.0
  0
LINE
  5
2D78
330
1E
100
AcDbEntity
  8
7
100
AcDbLine
 10
2.156940284282946
 20
6.453712918918556
 30
0.0
 11
2.200247370897119
 21
6.453712918918556
 31
0.0
  0
LINE
  5
2D79
330
1E
100
AcDbEntity
  8
7
100
AcDbLine
 10
2.200247370897119
 20
6.453712918918556
 30
0.0
 11
2.197622698981108
 21
6.456337590834566
 31
0.0
  0
LINE
  5
2D7A
330
1E
100
AcDbEntity
  8
7
100
AcDbLine
 10
2.197622698981108
 20
6.456337590834566
 30
0.0
 11
2.192373355149087
 21
6.456337590834566
 31
0.0
  0
LINE
  5
2D7B
330
1E
100
AcDbEntity
  8
7
100
AcDbLine
 10
2.149066268534914
 20
5.281796908419869
 30
0.0
 11
2.149066268534914
 21
6.445838903170524
 31
0.0
  0
LINE
  5
2D7C
330
1E
100
AcDbEntity
  8
7
100
AcDbLine
 10
2.149066268534914
 20
6.445838903170524
 30
0.0
 11
2.145129260660898
 21
6.448463575086535
 31
0.0
  0
LINE
  5
2D7D
330
1E
100
AcDbEntity
  8
7
100
AcDbLine
 10
2.192373355149087
 20
5.26998588479782
 30
0.0
 11
2.197622698981108
 21
5.26998588479782
 31
0.0
  0
LINE
  5
2D7E
330
1E
100
AcDbEntity
  8
7
100
AcDbLine
 10
2.197622698981108
 20
5.26998588479782
 30
0.0
 11
2.200247370897119
 21
5.272610556713832
 31
0.0
  0
LINE
  5
2D7F
330
1E
100
AcDbEntity
  8
7
100
AcDbLine
 10
2.200247370897119
 20
5.272610556713832
 30
0.0
 11
2.156940284282946
 21
5.272610556713832
 31
0.0
  0
LINE
  5
2D80
330
1E
100
AcDbEntity
  8
7
100
AcDbLine
 10
2.156940284282946
 20
5.272610556713832
 30
0.0
 11
2.15300327640893
 21
5.26998588479782
 31
0.0
  0
LINE
  5
2D81
330
1E
100
AcDbEntity
  8
7
100
AcDbLine
 10
2.20812138664515
 20
5.2647365409658
 30
0.0
 11
2.206809050687145
 21
5.263424205007795
 31
0.0
  0
LINE
  5
2D82
330
1E
100
AcDbEntity
  8
7
100
AcDbLine
 10
2.206809050687145
 20
5.263424205007795
 30
0.0
 11
2.206809050687145
 21
5.128253601333254
 31
0.0
  0
LINE
  5
2D83
330
1E
100
AcDbEntity
  8
7
100
AcDbLine
 10
2.206809050687145
 20
5.128253601333254
 30
0.0
 11
2.20812138664515
 21
5.125628929417244
 31
0.0
  0
LINE
  5
2D84
330
1E
100
AcDbEntity
  8
7
100
AcDbLine
 10
2.20812138664515
 20
5.125628929417244
 30
0.0
 11
2.20812138664515
 21
5.2647365409658
 31
0.0
  0
LINE
  5
2D85
330
1E
100
AcDbEntity
  8
7
100
AcDbLine
 10
2.15300327640893
 20
5.121691921543228
 30
0.0
 11
2.156940284282946
 21
5.117754913669212
 31
0.0
  0
LINE
  5
2D86
330
1E
100
AcDbEntity
  8
7
100
AcDbLine
 10
2.156940284282946
 20
5.117754913669212
 30
0.0
 11
2.200247370897119
 21
5.117754913669212
 31
0.0
  0
LINE
  5
2D87
330
1E
100
AcDbEntity
  8
7
100
AcDbLine
 10
2.200247370897119
 20
5.117754913669212
 30
0.0
 11
2.197622698981108
 21
5.121691921543228
 31
0.0
  0
LINE
  5
2D88
330
1E
100
AcDbEntity
  8
7
100
AcDbLine
 10
2.197622698981108
 20
5.121691921543228
 30
0.0
 11
2.192373355149087
 21
5.121691921543228
 31
0.0
  0
LINE
  5
2D89
330
1E
100
AcDbEntity
  8
7
100
AcDbLine
 10
2.149066268534914
 20
4.528516068524855
 30
0.0
 11
2.149066268534914
 21
5.109880897921181
 31
0.0
  0
LINE
  5
2D8A
330
1E
100
AcDbEntity
  8
7
100
AcDbLine
 10
2.149066268534914
 20
5.109880897921181
 30
0.0
 11
2.145129260660898
 21
5.113817905795196
 31
0.0
  0
LINE
  5
2D8B
330
1E
100
AcDbEntity
  8
7
100
AcDbLine
 10
2.145129260660898
 20
5.693870399233516
 30
0.0
 11
2.145129260660898
 21
6.032453076398871
 31
0.0
  0
LINE
  5
2D8C
330
1E
100
AcDbEntity
  8
7
100
AcDbLine
 10
2.145129260660898
 20
6.032453076398871
 30
0.0
 11
2.145129260660898
 21
6.360537065900183
 31
0.0
  0
LINE
  5
2D8D
330
1E
100
AcDbEntity
  8
7
100
AcDbLine
 10
2.15300327640893
 20
5.26998588479782
 30
0.0
 11
2.145129260660898
 21
5.277859900545853
 31
0.0
  0
LINE
  5
2D8E
330
1E
100
AcDbEntity
  8
7
100
AcDbLine
 10
2.145129260660898
 20
5.277859900545853
 30
0.0
 11
2.145129260660898
 21
5.113817905795196
 31
0.0
  0
LINE
  5
2D8F
330
1E
100
AcDbEntity
  8
7
100
AcDbLine
 10
2.145129260660898
 20
5.113817905795196
 30
0.0
 11
2.15300327640893
 21
5.121691921543228
 31
0.0
  0
LINE
  5
2D90
330
1E
100
AcDbEntity
  8
7
100
AcDbLine
 10
2.086074142550662
 20
4.523266724692835
 30
0.0
 11
2.145129260660898
 21
4.523266724692835
 31
0.0
  0
LINE
  5
2D91
330
1E
100
AcDbEntity
  8
7
100
AcDbLine
 10
2.145129260660898
 20
4.523266724692835
 30
0.0
 11
2.145129260660898
 21
4.797544939915932
 31
0.0
  0
LINE
  5
2D92
330
1E
100
AcDbEntity
  8
7
100
AcDbLine
 10
2.124131885332815
 20
5.359224729942178
 30
0.0
 11
2.145129260660898
 21
5.365786409732204
 31
0.0
  0
LINE
  5
2D93
330
1E
100
AcDbEntity
  8
7
100
AcDbLine
 10
2.145129260660898
 20
5.365786409732204
 30
0.0
 11
2.086074142550662
 21
5.365786409732204
 31
0.0
  0
LINE
  5
2D94
330
1E
100
AcDbEntity
  8
7
100
AcDbLine
 10
0.5939481582986943
 20
6.02720373256685
 30
0.0
 11
0.5939481582986943
 21
5.699119743065538
 31
0.0
  0
LINE
  5
2D95
330
1E
100
AcDbEntity
  8
7
100
AcDbLine
 10
0.5939481582986943
 20
5.699119743065538
 30
0.0
 11
0.6359429089548621
 21
5.699119743065538
 31
0.0
  0
LINE
  5
2D96
330
1E
100
AcDbEntity
  8
7
100
AcDbLine
 10
2.124131885332815
 20
6.92221685592643
 30
0.0
 11
2.082137134676647
 21
6.92221685592643
 31
0.0
  0
LINE
  5
2D97
330
1E
100
AcDbEntity
  8
7
100
AcDbLine
 10
2.082137134676647
 20
6.92221685592643
 30
0.0
 11
2.082137134676647
 21
7.200432079023542
 31
0.0
  0
LINE
  5
2D98
330
1E
100
AcDbEntity
  8
7
100
AcDbLine
 10
2.124131885332815
 20
6.02720373256685
 30
0.0
 11
2.082137134676647
 21
6.02720373256685
 31
0.0
  0
LINE
  5
2D99
330
1E
100
AcDbEntity
  8
7
100
AcDbLine
 10
2.082137134676647
 20
6.02720373256685
 30
0.0
 11
2.082137134676647
 21
6.367098745690209
 31
0.0
  0
LINE
  5
2D9A
330
1E
100
AcDbEntity
  8
7
100
AcDbLine
 10
2.082137134676647
 20
6.367098745690209
 30
0.0
 11
2.124131885332815
 21
6.367098745690209
 31
0.0
  0
LINE
  5
2D9B
330
1E
100
AcDbEntity
  8
7
100
AcDbLine
 10
2.124131885332815
 20
4.804106619705958
 30
0.0
 11
2.124131885332815
 21
5.359224729942178
 31
0.0
  0
LINE
  5
2D9C
330
1E
100
AcDbEntity
  8
7
100
AcDbLine
 10
2.124131885332815
 20
5.359224729942178
 30
0.0
 11
2.082137134676647
 21
5.359224729942178
 31
0.0
  0
LINE
  5
2D9D
330
1E
100
AcDbEntity
  8
7
100
AcDbLine
 10
0.6359429089548621
 20
4.525891396608845
 30
0.0
 11
2.082137134676647
 21
4.525891396608845
 31
0.0
  0
LINE
  5
2D9E
330
1E
100
AcDbEntity
  8
7
100
AcDbLine
 10
2.082137134676647
 20
4.525891396608845
 30
0.0
 11
2.082137134676647
 21
4.804106619705958
 31
0.0
  0
LINE
  5
2D9F
330
1E
100
AcDbEntity
  8
7
100
AcDbLine
 10
0.0020846412383273
 20
3.651875648577349
 30
0.0
 11
0.0060216491123426
 21
3.647938640703333
 31
0.0
  0
LINE
  5
2DA0
330
1E
100
AcDbEntity
  8
7
100
AcDbLine
 10
0.0060216491123426
 20
3.647938640703333
 30
0.0
 11
0.0099586569863579
 21
3.642689296871312
 31
0.0
  0
LINE
  5
2DA1
330
1E
100
AcDbEntity
  8
7
100
AcDbLine
 10
0.0099586569863579
 20
3.642689296871312
 30
0.0
 11
0.0178326727343903
 21
3.636127617081286
 31
0.0
  0
LINE
  5
2DA2
330
1E
100
AcDbEntity
  8
7
100
AcDbLine
 10
0.0178326727343903
 20
3.636127617081286
 30
0.0
 11
0.0270190244404267
 21
3.629565937291259
 31
0.0
  0
LINE
  5
2DA3
330
1E
100
AcDbEntity
  8
7
100
AcDbLine
 10
0.0270190244404267
 20
3.629565937291259
 30
0.0
 11
0.0414547199784838
 21
3.624316593459238
 31
0.0
  0
LINE
  5
2DA4
330
1E
100
AcDbEntity
  8
7
100
AcDbLine
 10
0.0414547199784838
 20
3.624316593459238
 30
0.0
 11
0.0506410716845212
 21
3.623004257501233
 31
0.0
  0
LINE
  5
2DA5
330
1E
100
AcDbEntity
  8
7
100
AcDbLine
 10
0.0506410716845212
 20
3.623004257501233
 30
0.0
 11
0.0519534076425261
 21
3.623004257501233
 31
0.0
  0
LINE
  5
2DA6
330
1E
100
AcDbEntity
  8
7
100
AcDbLine
 10
-0.0136633902577357
 20
3.675497695821443
 30
0.0
 11
-0.0123510542997307
 21
3.668936016031417
 31
0.0
  0
LINE
  5
2DA7
330
1E
100
AcDbEntity
  8
7
100
AcDbLine
 10
-0.0123510542997307
 20
3.668936016031417
 30
0.0
 11
-0.0097263823837204
 21
3.663686672199396
 31
0.0
  0
LINE
  5
2DA8
330
1E
100
AcDbEntity
  8
7
100
AcDbLine
 10
-0.0097263823837204
 20
3.663686672199396
 30
0.0
 11
-0.0057893745097051
 21
3.65974966432538
 31
0.0
  0
LINE
  5
2DA9
330
1E
100
AcDbEntity
  8
7
100
AcDbLine
 10
-0.0057893745097051
 20
3.65974966432538
 30
0.0
 11
0.0020846412383273
 21
3.651875648577349
 31
0.0
  0
LINE
  5
2DAA
330
1E
100
AcDbEntity
  8
7
100
AcDbLine
 10
0.0165203367763844
 20
8.102006882173149
 30
0.0
 11
0.0112709929443637
 21
8.098069874299133
 31
0.0
  0
LINE
  5
2DAB
330
1E
100
AcDbEntity
  8
7
100
AcDbLine
 10
0.0112709929443637
 20
8.098069874299133
 30
0.0
 11
0.0060216491123426
 21
8.095445202383123
 31
0.0
  0
LINE
  5
2DAC
330
1E
100
AcDbEntity
  8
7
100
AcDbLine
 10
0.0060216491123426
 20
8.095445202383123
 30
0.0
 11
0.0033969771963323
 21
8.090195858551101
 31
0.0
  0
LINE
  5
2DAD
330
1E
100
AcDbEntity
  8
7
100
AcDbLine
 10
0.0033969771963323
 20
8.090195858551101
 30
0.0
 11
-0.0005400306776839
 21
8.086258850677086
 31
0.0
  0
LINE
  5
2DAE
330
1E
100
AcDbEntity
  8
7
100
AcDbLine
 10
-0.0005400306776839
 20
8.086258850677086
 30
0.0
 11
-0.0018523666356889
 21
8.07969717088706
 31
0.0
  0
LINE
  5
2DAF
330
1E
100
AcDbEntity
  8
7
100
AcDbLine
 10
-0.0018523666356889
 20
8.07969717088706
 30
0.0
 11
-0.0031647025936938
 21
8.073135491097033
 31
0.0
  0
LINE
  5
2DB0
330
1E
100
AcDbEntity
  8
7
100
AcDbLine
 10
-0.0031647025936938
 20
8.073135491097033
 30
0.0
 11
-0.0044770385516992
 21
8.066573811307007
 31
0.0
  0
LINE
  5
2DB1
330
1E
100
AcDbEntity
  8
7
100
AcDbLine
 10
-0.0044770385516992
 20
8.066573811307007
 30
0.0
 11
-0.0057893745097051
 21
8.05738745960097
 31
0.0
  0
LINE
  5
2DB2
330
1E
100
AcDbEntity
  8
7
100
AcDbLine
 10
-0.0057893745097051
 20
8.05738745960097
 30
0.0
 11
-0.00710171046771
 21
8.046888771936929
 31
0.0
  0
LINE
  5
2DB3
330
1E
100
AcDbEntity
  8
7
100
AcDbLine
 10
-0.00710171046771
 20
8.046888771936929
 30
0.0
 11
-0.00710171046771
 21
8.045576435978922
 31
0.0
  0
LINE
  5
2DB4
330
1E
100
AcDbEntity
  8
7
100
AcDbLine
 10
0.0519534076425261
 20
8.104631554089159
 30
0.0
 11
0.0440793918944951
 21
8.104631554089159
 31
0.0
  0
LINE
  5
2DB5
330
1E
100
AcDbEntity
  8
7
100
AcDbLine
 10
0.0440793918944951
 20
8.104631554089159
 30
0.0
 11
0.0362053761464631
 21
8.104631554089159
 31
0.0
  0
LINE
  5
2DB6
330
1E
100
AcDbEntity
  8
7
100
AcDbLine
 10
0.0362053761464631
 20
8.104631554089159
 30
0.0
 11
0.0283313603984321
 21
8.104631554089159
 31
0.0
  0
LINE
  5
2DB7
330
1E
100
AcDbEntity
  8
7
100
AcDbLine
 10
0.0283313603984321
 20
8.104631554089159
 30
0.0
 11
0.0165203367763844
 21
8.102006882173149
 31
0.0
  0
LINE
  5
2DB8
330
1E
100
AcDbEntity
  8
7
100
AcDbLine
 10
2.715995402393182
 20
8.07969717088706
 30
0.0
 11
2.715995402393182
 21
8.08232184280307
 31
0.0
  0
LINE
  5
2DB9
330
1E
100
AcDbEntity
  8
7
100
AcDbLine
 10
2.715995402393182
 20
8.08232184280307
 30
0.0
 11
2.713370730477171
 21
8.088883522593096
 31
0.0
  0
LINE
  5
2DBA
330
1E
100
AcDbEntity
  8
7
100
AcDbLine
 10
2.713370730477171
 20
8.088883522593096
 30
0.0
 11
2.710746058561161
 21
8.092820530467111
 31
0.0
  0
LINE
  5
2DBB
330
1E
100
AcDbEntity
  8
7
100
AcDbLine
 10
2.710746058561161
 20
8.092820530467111
 30
0.0
 11
2.70812138664515
 21
8.095445202383123
 31
0.0
  0
LINE
  5
2DBC
330
1E
100
AcDbEntity
  8
7
100
AcDbLine
 10
2.70812138664515
 20
8.095445202383123
 30
0.0
 11
2.706809050687145
 21
8.096757538341128
 31
0.0
  0
LINE
  5
2DBD
330
1E
100
AcDbEntity
  8
7
100
AcDbLine
 10
2.706809050687145
 20
8.096757538341128
 30
0.0
 11
2.704184378771135
 21
8.098069874299133
 31
0.0
  0
LINE
  5
2DBE
330
1E
100
AcDbEntity
  8
7
100
AcDbLine
 10
2.704184378771135
 20
8.098069874299133
 30
0.0
 11
2.701559706855124
 21
8.09938221025714
 31
0.0
  0
LINE
  5
2DBF
330
1E
100
AcDbEntity
  8
7
100
AcDbLine
 10
2.701559706855124
 20
8.09938221025714
 30
0.0
 11
2.694998027065098
 21
8.100694546215144
 31
0.0
  0
LINE
  5
2DC0
330
1E
100
AcDbEntity
  8
7
100
AcDbLine
 10
2.694998027065098
 20
8.100694546215144
 30
0.0
 11
2.687124011317066
 21
8.102006882173149
 31
0.0
  0
LINE
  5
2DC1
330
1E
100
AcDbEntity
  8
7
100
AcDbLine
 10
2.687124011317066
 20
8.102006882173149
 30
0.0
 11
2.67793765961103
 21
8.103319218131154
 31
0.0
  0
LINE
  5
2DC2
330
1E
100
AcDbEntity
  8
7
100
AcDbLine
 10
2.67793765961103
 20
8.103319218131154
 30
0.0
 11
2.667438971946987
 21
8.104631554089159
 31
0.0
  0
LINE
  5
2DC3
330
1E
100
AcDbEntity
  8
7
100
AcDbLine
 10
2.667438971946987
 20
8.104631554089159
 30
0.0
 11
2.666126635988982
 21
8.104631554089159
 31
0.0
  0
LINE
  5
2DC4
330
1E
100
AcDbEntity
  8
7
100
AcDbLine
 10
2.729118761973234
 20
8.049513443852939
 30
0.0
 11
2.729118761973234
 21
8.052138115768951
 31
0.0
  0
LINE
  5
2DC5
330
1E
100
AcDbEntity
  8
7
100
AcDbLine
 10
2.729118761973234
 20
8.052138115768951
 30
0.0
 11
2.729118761973234
 21
8.056075123642965
 31
0.0
  0
LINE
  5
2DC6
330
1E
100
AcDbEntity
  8
7
100
AcDbLine
 10
2.729118761973234
 20
8.056075123642965
 30
0.0
 11
2.729118761973234
 21
8.05738745960097
 31
0.0
  0
LINE
  5
2DC7
330
1E
100
AcDbEntity
  8
7
100
AcDbLine
 10
2.729118761973234
 20
8.05738745960097
 30
0.0
 11
2.729118761973234
 21
8.06001213151698
 31
0.0
  0
LINE
  5
2DC8
330
1E
100
AcDbEntity
  8
7
100
AcDbLine
 10
2.729118761973234
 20
8.06001213151698
 30
0.0
 11
2.729118761973234
 21
8.061324467474985
 31
0.0
  0
LINE
  5
2DC9
330
1E
100
AcDbEntity
  8
7
100
AcDbLine
 10
2.729118761973234
 20
8.061324467474985
 30
0.0
 11
2.727806426015229
 21
8.062636803432992
 31
0.0
  0
LINE
  5
2DCA
330
1E
100
AcDbEntity
  8
7
100
AcDbLine
 10
2.727806426015229
 20
8.062636803432992
 30
0.0
 11
2.723869418141213
 21
8.067886147265014
 31
0.0
  0
LINE
  5
2DCB
330
1E
100
AcDbEntity
  8
7
100
AcDbLine
 10
2.723869418141213
 20
8.067886147265014
 30
0.0
 11
2.721244746225202
 21
8.071823155139028
 31
0.0
  0
LINE
  5
2DCC
330
1E
100
AcDbEntity
  8
7
100
AcDbLine
 10
2.721244746225202
 20
8.071823155139028
 30
0.0
 11
2.718620074309192
 21
8.074447827055038
 31
0.0
  0
LINE
  5
2DCD
330
1E
100
AcDbEntity
  8
7
100
AcDbLine
 10
2.718620074309192
 20
8.074447827055038
 30
0.0
 11
2.717307738351187
 21
8.077072498971048
 31
0.0
  0
LINE
  5
2DCE
330
1E
100
AcDbEntity
  8
7
100
AcDbLine
 10
2.717307738351187
 20
8.077072498971048
 30
0.0
 11
2.715995402393182
 21
8.07969717088706
 31
0.0
  0
LINE
  5
2DCF
330
1E
100
AcDbEntity
  8
7
100
AcDbLine
 10
2.700247370897119
 20
3.630878273249265
 30
0.0
 11
2.702872042813129
 21
3.63219060920727
 31
0.0
  0
LINE
  5
2DD0
330
1E
100
AcDbEntity
  8
7
100
AcDbLine
 10
2.702872042813129
 20
3.63219060920727
 30
0.0
 11
2.709433722603156
 21
3.633502945165275
 31
0.0
  0
LINE
  5
2DD1
330
1E
100
AcDbEntity
  8
7
100
AcDbLine
 10
2.709433722603156
 20
3.633502945165275
 30
0.0
 11
2.718620074309192
 21
3.640064624955301
 31
0.0
  0
LINE
  5
2DD2
330
1E
100
AcDbEntity
  8
7
100
AcDbLine
 10
2.718620074309192
 20
3.640064624955301
 30
0.0
 11
2.722557082183208
 21
3.644001632829317
 31
0.0
  0
LINE
  5
2DD3
330
1E
100
AcDbEntity
  8
7
100
AcDbLine
 10
2.722557082183208
 20
3.644001632829317
 30
0.0
 11
2.725181754099219
 21
3.649250976661338
 31
0.0
  0
LINE
  5
2DD4
330
1E
100
AcDbEntity
  8
7
100
AcDbLine
 10
2.725181754099219
 20
3.649250976661338
 30
0.0
 11
2.73043109793124
 21
3.663686672199396
 31
0.0
  0
LINE
  5
2DD5
330
1E
100
AcDbEntity
  8
7
100
AcDbLine
 10
2.73043109793124
 20
3.663686672199396
 30
0.0
 11
2.731743433889245
 21
3.674185359863438
 31
0.0
  0
LINE
  5
2DD6
330
1E
100
AcDbEntity
  8
7
100
AcDbLine
 10
2.731743433889245
 20
3.674185359863438
 30
0.0
 11
2.731743433889245
 21
3.675497695821443
 31
0.0
  0
LINE
  5
2DD7
330
1E
100
AcDbEntity
  8
7
100
AcDbLine
 10
2.671375979821003
 20
3.616442577711207
 30
0.0
 11
2.67793765961103
 21
3.616442577711207
 31
0.0
  0
LINE
  5
2DD8
330
1E
100
AcDbEntity
  8
7
100
AcDbLine
 10
2.67793765961103
 20
3.616442577711207
 30
0.0
 11
2.684499339401056
 21
3.619067249627217
 31
0.0
  0
LINE
  5
2DD9
330
1E
100
AcDbEntity
  8
7
100
AcDbLine
 10
2.684499339401056
 20
3.619067249627217
 30
0.0
 11
2.688436347275072
 21
3.623004257501233
 31
0.0
  0
LINE
  5
2DDA
330
1E
100
AcDbEntity
  8
7
100
AcDbLine
 10
2.688436347275072
 20
3.623004257501233
 30
0.0
 11
2.692373355149087
 21
3.626941265375249
 31
0.0
  0
LINE
  5
2DDB
330
1E
100
AcDbEntity
  8
7
100
AcDbLine
 10
2.692373355149087
 20
3.626941265375249
 30
0.0
 11
2.694998027065098
 21
3.628253601333254
 31
0.0
  0
LINE
  5
2DDC
330
1E
100
AcDbEntity
  8
7
100
AcDbLine
 10
2.694998027065098
 20
3.628253601333254
 30
0.0
 11
2.697622698981108
 21
3.629565937291259
 31
0.0
  0
LINE
  5
2DDD
330
1E
100
AcDbEntity
  8
7
100
AcDbLine
 10
2.697622698981108
 20
3.629565937291259
 30
0.0
 11
2.700247370897119
 21
3.630878273249265
 31
0.0
  0
ENDSEC
  0
SECTION
  2
OBJECTS
  0
DICTIONARY
  5
C
330
0
100
AcDbDictionary
  3
ACAD_GROUP
350
D
  3
ACAD_LAYOUT
350
19
  3
ACAD_MLINESTYLE
350
16
  3
ACAD_PLOTSETTINGS
350
18
1001
ACAD
1000
TREAT_AS_HARD
1070
     0
  0
DICTIONARY
  5
4230
330
1E
100
AcDbDictionary
  3
ACAD_LAYOUTSELFREF
350
42B5
1001
ACAD
1000
TREAT_AS_HARD
1070
     1
  0
DICTIONARY
  5
4232
330
1A
100
AcDbDictionary
  3
ACAD_LAYOUTSELFREF
350
42B4
1001
ACAD
1000
TREAT_AS_HARD
1070
     1
  0
DICTIONARY
  5
D
102
{ACAD_REACTORS
330
C
102
}
330
C
100
AcDbDictionary
1001
ACAD
1000
TREAT_AS_HARD
1070
     0
  0
DICTIONARY
  5
19
102
{ACAD_REACTORS
330
C
102
}
330
C
100
AcDbDictionary
1001
ACAD
1000
TREAT_AS_HARD
1070
     0
  0
DICTIONARY
  5
16
102
{ACAD_REACTORS
330
C
102
}
330
C
100
AcDbDictionary
  3
STANDARD
350
17
1001
ACAD
1000
TREAT_AS_HARD
1070
     0
  0
DICTIONARY
  5
18
102
{ACAD_REACTORS
330
C
102
}
330
C
100
AcDbDictionary
1001
ACAD
1000
TREAT_AS_HARD
1070
     0
  0
XRECORD
  5
42B5
102
{ACAD_REACTORS
330
4230
102
}
330
4230
100
AcDbXrecord
340
1E
  0
XRECORD
  5
42B4
102
{ACAD_REACTORS
330
4232
102
}
330
4232
100
AcDbXrecord
340
1A
  0
MLINESTYLE
  5
17
102
{ACAD_REACTORS
330
16
102
}
330
16
100
AcDbMlineStyle
  2
STANDARD
 70
     0
  3

 62
   256
 51
90.0
 52
90.0
 71
     2
 49
0.5
 62
   256
  6
BYLAYER
 49
-0.5
 62
   256
  6
BYLAYER
  0
ENDSEC
  0
EOF
