  0
SECTION
  2
HEADER
  9
$ACADVER
  1
AC1012
  9
$DWGCODEPAGE
  3
ANSI_1252
  9
$INSBASE
 10
0.0
 20
0.0
 30
0.0
  9
$EXTMIN
 10
0.8089599898189305
 20
1.405288718879791
 30
-0.0015258207003583
  9
$EXTMAX
 10
4.222045917322446
 20
2.446929944966605
 30
0.0000000349246037
  9
$LIMMIN
 10
0.0
 20
0.0
  9
$LIMMAX
 10
12.0
 20
9.0
  9
$ORTHOMODE
 70
     0
  9
$REGENMODE
 70
     1
  9
$FILLMODE
 70
     1
  9
$QTEXTMODE
 70
     0
  9
$MIRRTEXT
 70
     1
  9
$DRAGMODE
 70
     2
  9
$LTSCALE
 40
1.0
  9
$OSMODE
 70
    33
  9
$ATTMODE
 70
     1
  9
$TEXTSIZE
 40
0.2
  9
$TRACEWID
 40
0.05
  9
$TEXTSTYLE
  7
STANDARD
  9
$CLAYER
  8
0
  9
$CELTYPE
  6
BYLAYER
  9
$CECOLOR
 62
   256
  9
$CELTSCALE
 40
1.0
  9
$DELOBJ
 70
     1
  9
$DISPSILH
 70
     0
  9
$DIMSCALE
 40
1.0
  9
$DIMASZ
 40
0.18
  9
$DIMEXO
 40
0.0625
  9
$DIMDLI
 40
0.38
  9
$DIMRND
 40
0.0
  9
$DIMDLE
 40
0.0
  9
$DIMEXE
 40
0.18
  9
$DIMTP
 40
0.0
  9
$DIMTM
 40
0.0
  9
$DIMTXT
 40
0.18
  9
$DIMCEN
 40
0.09
  9
$DIMTSZ
 40
0.0
  9
$DIMTOL
 70
     0
  9
$DIMLIM
 70
     0
  9
$DIMTIH
 70
     1
  9
$DIMTOH
 70
     1
  9
$DIMSE1
 70
     0
  9
$DIMSE2
 70
     0
  9
$DIMTAD
 70
     0
  9
$DIMZIN
 70
     0
  9
$DIMBLK
  1

  9
$DIMASO
 70
     1
  9
$DIMSHO
 70
     1
  9
$DIMPOST
  1

  9
$DIMAPOST
  1

  9
$DIMALT
 70
     0
  9
$DIMALTD
 70
     2
  9
$DIMALTF
 40
25.4
  9
$DIMLFAC
 40
1.0
  9
$DIMTOFL
 70
     0
  9
$DIMTVP
 40
0.0
  9
$DIMTIX
 70
     0
  9
$DIMSOXD
 70
     0
  9
$DIMSAH
 70
     0
  9
$DIMBLK1
  1

  9
$DIMBLK2
  1

  9
$DIMSTYLE
  2
STANDARD
  9
$DIMCLRD
 70
     0
  9
$DIMCLRE
 70
     0
  9
$DIMCLRT
 70
     0
  9
$DIMTFAC
 40
1.0
  9
$DIMGAP
 40
0.09
  9
$DIMJUST
 70
     0
  9
$DIMSD1
 70
     0
  9
$DIMSD2
 70
     0
  9
$DIMTOLJ
 70
     1
  9
$DIMTZIN
 70
     0
  9
$DIMALTZ
 70
     0
  9
$DIMALTTZ
 70
     0
  9
$DIMFIT
 70
     5
  9
$DIMUPT
 70
     0
  9
$DIMUNIT
 70
     2
  9
$DIMDEC
 70
     4
  9
$DIMTDEC
 70
     4
  9
$DIMALTU
 70
     2
  9
$DIMALTTD
 70
     2
  9
$DIMTXSTY
  7
STANDARD
  9
$DIMAUNIT
 70
     0
  9
$LUNITS
 70
     2
  9
$LUPREC
 70
     4
  9
$SKETCHINC
 40
0.1
  9
$FILLETRAD
 40
0.0
  9
$AUNITS
 70
     0
  9
$AUPREC
 70
     0
  9
$MENU
  1
acad
  9
$ELEVATION
 40
0.0
  9
$PELEVATION
 40
0.0
  9
$THICKNESS
 40
0.0
  9
$LIMCHECK
 70
     0
  9
$BLIPMODE
 70
     0
  9
$CHAMFERA
 40
0.0
  9
$CHAMFERB
 40
0.0
  9
$CHAMFERC
 40
0.0
  9
$CHAMFERD
 40
0.0
  9
$SKPOLY
 70
     0
  9
$TDCREATE
 40
2452601.412615741
  9
$TDUPDATE
 40
2452601.416582002
  9
$TDINDWG
 40
0.0007877546
  9
$TDUSRTIMER
 40
0.0007877546
  9
$USRTIMER
 70
     1
  9
$ANGBASE
 50
0.0
  9
$ANGDIR
 70
     0
  9
$PDMODE
 70
     0
  9
$PDSIZE
 40
0.0
  9
$PLINEWID
 40
0.0
  9
$COORDS
 70
     2
  9
$SPLFRAME
 70
     0
  9
$SPLINETYPE
 70
     6
  9
$SPLINESEGS
 70
     8
  9
$ATTDIA
 70
     0
  9
$ATTREQ
 70
     1
  9
$HANDLING
 70
  4097
  9
$HANDSEED
  5
30F6
  9
$SURFTAB1
 70
     6
  9
$SURFTAB2
 70
     6
  9
$SURFTYPE
 70
     6
  9
$SURFU
 70
     6
  9
$SURFV
 70
     6
  9
$UCSNAME
  2

  9
$UCSORG
 10
0.0
 20
0.0
 30
0.0
  9
$UCSXDIR
 10
1.0
 20
0.0
 30
0.0
  9
$UCSYDIR
 10
0.0
 20
1.0
 30
0.0
  9
$PUCSNAME
  2

  9
$PUCSORG
 10
0.0
 20
0.0
 30
0.0
  9
$PUCSXDIR
 10
1.0
 20
0.0
 30
0.0
  9
$PUCSYDIR
 10
0.0
 20
1.0
 30
0.0
  9
$USERI1
 70
     0
  9
$USERI2
 70
     0
  9
$USERI3
 70
     0
  9
$USERI4
 70
     0
  9
$USERI5
 70
     0
  9
$USERR1
 40
0.0
  9
$USERR2
 40
0.0
  9
$USERR3
 40
0.0
  9
$USERR4
 40
0.0
  9
$USERR5
 40
0.0
  9
$WORLDVIEW
 70
     1
  9
$SHADEDGE
 70
     3
  9
$SHADEDIF
 70
    70
  9
$TILEMODE
 70
     1
  9
$MAXACTVP
 70
    16
  9
$PINSBASE
 10
0.0
 20
0.0
 30
0.0
  9
$PLIMCHECK
 70
     0
  9
$PEXTMIN
 10
1.000000000000000E+20
 20
1.000000000000000E+20
 30
1.000000000000000E+20
  9
$PEXTMAX
 10
-1.000000000000000E+20
 20
-1.000000000000000E+20
 30
-1.000000000000000E+20
  9
$PLIMMIN
 10
0.0
 20
0.0
  9
$PLIMMAX
 10
12.0
 20
9.0
  9
$UNITMODE
 70
     0
  9
$VISRETAIN
 70
     0
  9
$PLINEGEN
 70
     0
  9
$PSLTSCALE
 70
     1
  9
$TREEDEPTH
 70
  3020
  9
$PICKSTYLE
 70
     1
  9
$CMLSTYLE
  2
STANDARD
  9
$CMLJUST
 70
     0
  9
$CMLSCALE
 40
1.0
  9
$SAVEIMAGES
 70
     1
  0
ENDSEC
  0
SECTION
  2
CLASSES
  0
CLASS
  1
ACDBDICTIONARYWDFLT
  2
AcDbDictionaryWithDefault
  3
AutoCAD 2000
 90
    32768
280
     0
281
     0
  0
CLASS
  1
ACDBPLACEHOLDER
  2
AcDbPlaceHolder
  3
AutoCAD 2000
 90
    32768
280
     0
281
     0
  0
CLASS
  1
LAYOUT
  2
AcDbLayout
  3
AutoCAD 2000
 90
    32768
280
     0
281
     0
  0
CLASS
  1
LONG_TRANSACTION
  2
AcDbLongTransaction
  3
AutoCAD 2000
 90
    32768
280
     0
281
     0
  0
CLASS
  1
LWPOLYLINE
  2
AcDbPolyline
  3
AutoCAD 2000
 90
    32768
280
     0
281
     1
  0
CLASS
  1
HATCH
  2
AcDbHatch
  3
AutoCAD 2000
 90
    32768
280
     0
281
     1
  0
CLASS
  1
XRECORD
  2
AcDbXrecord
  3
AutoCAD 2000
 90
    32768
280
     0
281
     0
  0
ENDSEC
  0
SECTION
  2
TABLES
  0
TABLE
  2
VPORT
  5
8
330
0
100
AcDbSymbolTable
 70
     3
  0
VPORT
  5
30F1
330
8
100
AcDbSymbolTableRecord
100
AcDbViewportTableRecord
  2
*ACTIVE
 70
     0
 10
0.0
 20
0.0
 11
1.0
 21
1.0
 12
2.515502953570688
 22
1.926109331923198
 13
0.0
 23
0.0
 14
1.0
 24
1.0
 15
0.0
 25
0.0
 16
0.0
 26
0.0
 36
1.0
 17
0.0
 27
0.0
 37
0.0
 40
2.104997225050405
 41
1.62928759894459
 42
50.0
 43
0.0
 44
0.0
 50
0.0
 51
0.0
 71
     0
 72
   100
 73
     1
 74
     1
 75
     0
 76
     0
 77
     0
 78
     0
  0
ENDTAB
  0
TABLE
  2
LTYPE
  5
5
330
0
100
AcDbSymbolTable
 70
    25
  0
LTYPE
  5
13
330
5
100
AcDbSymbolTableRecord
100
AcDbLinetypeTableRecord
  2
BYBLOCK
 70
     0
  3

 72
    65
 73
     0
 40
0.0
  0
LTYPE
  5
14
330
5
100
AcDbSymbolTableRecord
100
AcDbLinetypeTableRecord
  2
BYLAYER
 70
     0
  3

 72
    65
 73
     0
 40
0.0
  0
LTYPE
  5
15
330
5
100
AcDbSymbolTableRecord
100
AcDbLinetypeTableRecord
  2
CONTINUOUS
 70
     0
  3
Solid line
 72
    65
 73
     0
 40
0.0
  0
LTYPE
  5
22
330
5
100
AcDbSymbolTableRecord
100
AcDbLinetypeTableRecord
  2
BORDER
 70
     0
  3
__ __ . __ __ . __ __ . __ __ . __ __ . __ __ .
 72
    65
 73
     6
 40
1.75
 49
0.5
 74
     0
 49
-0.25
 74
     0
 49
0.5
 74
     0
 49
-0.25
 74
     0
 49
0.5
 74
     0
 49
-0.25
 74
     0
  0
LTYPE
  5
23
330
5
100
AcDbSymbolTableRecord
100
AcDbLinetypeTableRecord
  2
BORDER2
 70
     0
  3
__.__.__.__.__.__.__.__.__.__.__.__.__.__.__.__
 72
    65
 73
     6
 40
0.875
 49
0.25
 74
     0
 49
-0.125
 74
     0
 49
0.25
 74
     0
 49
-0.125
 74
     0
 49
0.25
 74
     0
 49
-0.125
 74
     0
  0
LTYPE
  5
24
330
5
100
AcDbSymbolTableRecord
100
AcDbLinetypeTableRecord
  2
BORDERX2
 70
     0
  3
____  ____  .  ____  ____  .  
 72
    65
 73
     6
 40
3.5
 49
1.0
 74
     0
 49
-0.5
 74
     0
 49
1.0
 74
     0
 49
-0.5
 74
     0
 49
1.0
 74
     0
 49
-0.5
 74
     0
  0
LTYPE
  5
25
330
5
100
AcDbSymbolTableRecord
100
AcDbLinetypeTableRecord
  2
CENTER
 70
     0
  3
____ _ ____ _ ____ _ ____ _ ____ _ ____ _ ____
 72
    65
 73
     4
 40
2.0
 49
1.25
 74
     0
 49
-0.25
 74
     0
 49
0.25
 74
     0
 49
-0.25
 74
     0
  0
LTYPE
  5
26
330
5
100
AcDbSymbolTableRecord
100
AcDbLinetypeTableRecord
  2
CENTER2
 70
     0
  3
____ _ ____ _ ____ _ ____ _ ____ _ ____ _ ____
 72
    65
 73
     4
 40
1.125
 49
0.75
 74
     0
 49
-0.125
 74
     0
 49
0.125
 74
     0
 49
-0.125
 74
     0
  0
LTYPE
  5
27
330
5
100
AcDbSymbolTableRecord
100
AcDbLinetypeTableRecord
  2
CENTERX2
 70
     0
  3
________  __  ________  __  ________  __  
 72
    65
 73
     4
 40
4.0
 49
2.5
 74
     0
 49
-0.5
 74
     0
 49
0.5
 74
     0
 49
-0.5
 74
     0
  0
LTYPE
  5
28
330
5
100
AcDbSymbolTableRecord
100
AcDbLinetypeTableRecord
  2
DASHDOT
 70
     0
  3
__ . __ . __ . __ . __ . __ . __ . 
 72
    65
 73
     4
 40
1.0
 49
0.5
 74
     0
 49
-0.25
 74
     0
 49
0.0
 74
     0
 49
-0.25
 74
     0
  0
LTYPE
  5
29
330
5
100
AcDbSymbolTableRecord
100
AcDbLinetypeTableRecord
  2
DASHDOT2
 70
     0
  3
_._._._._._._._._._._._._._._._.
 72
    65
 73
     4
 40
0.5
 49
0.25
 74
     0
 49
-0.125
 74
     0
 49
0.0
 74
     0
 49
-0.125
 74
     0
  0
LTYPE
  5
2A
330
5
100
AcDbSymbolTableRecord
100
AcDbLinetypeTableRecord
  2
DASHDOTX2
 70
     0
  3
____  .  ____  .  ____  .  ____  .  
 72
    65
 73
     4
 40
2.0
 49
1.0
 74
     0
 49
-0.5
 74
     0
 49
0.0
 74
     0
 49
-0.5
 74
     0
  0
LTYPE
  5
2B
330
5
100
AcDbSymbolTableRecord
100
AcDbLinetypeTableRecord
  2
DASHED
 70
     0
  3
__ __ __ __ __ __ __ __ __ __ __ __ 
 72
    65
 73
     2
 40
0.75
 49
0.5
 74
     0
 49
-0.25
 74
     0
  0
LTYPE
  5
2C
330
5
100
AcDbSymbolTableRecord
100
AcDbLinetypeTableRecord
  2
DASHED2
 70
     0
  3
_ _ _ _ _ _ _ _ _ _ _ _ _ _ _ _ _ _ 
 72
    65
 73
     2
 40
0.375
 49
0.25
 74
     0
 49
-0.125
 74
     0
  0
LTYPE
  5
2D
330
5
100
AcDbSymbolTableRecord
100
AcDbLinetypeTableRecord
  2
DASHEDX2
 70
     0
  3
____  ____  ____  ____  ____  ____  
 72
    65
 73
     2
 40
1.5
 49
1.0
 74
     0
 49
-0.5
 74
     0
  0
LTYPE
  5
2E
330
5
100
AcDbSymbolTableRecord
100
AcDbLinetypeTableRecord
  2
DIVIDE
 70
     0
  3
____ . . ____ . . ____ . . ____ . . 
 72
    65
 73
     6
 40
1.25
 49
0.5
 74
     0
 49
-0.25
 74
     0
 49
0.0
 74
     0
 49
-0.25
 74
     0
 49
0.0
 74
     0
 49
-0.25
 74
     0
  0
LTYPE
  5
2F
330
5
100
AcDbSymbolTableRecord
100
AcDbLinetypeTableRecord
  2
DIVIDE2
 70
     0
  3
__..__..__..__..__..__..__..__..__..
 72
    65
 73
     6
 40
0.625
 49
0.25
 74
     0
 49
-0.125
 74
     0
 49
0.0
 74
     0
 49
-0.125
 74
     0
 49
0.0
 74
     0
 49
-0.125
 74
     0
  0
LTYPE
  5
30
330
5
100
AcDbSymbolTableRecord
100
AcDbLinetypeTableRecord
  2
DIVIDEX2
 70
     0
  3
________  .  .  ________  .  .  ________  .  . 
 72
    65
 73
     6
 40
2.5
 49
1.0
 74
     0
 49
-0.5
 74
     0
 49
0.0
 74
     0
 49
-0.5
 74
     0
 49
0.0
 74
     0
 49
-0.5
 74
     0
  0
LTYPE
  5
31
330
5
100
AcDbSymbolTableRecord
100
AcDbLinetypeTableRecord
  2
DOT
 70
     0
  3
. . . . . . . . . . . . . . . . . . 
 72
    65
 73
     2
 40
0.25
 49
0.0
 74
     0
 49
-0.25
 74
     0
  0
LTYPE
  5
32
330
5
100
AcDbSymbolTableRecord
100
AcDbLinetypeTableRecord
  2
DOT2
 70
     0
  3
....................................
 72
    65
 73
     2
 40
0.125
 49
0.0
 74
     0
 49
-0.125
 74
     0
  0
LTYPE
  5
33
330
5
100
AcDbSymbolTableRecord
100
AcDbLinetypeTableRecord
  2
DOTX2
 70
     0
  3
.  .  .  .  .  .  .  .  .  .  .  .  .  
 72
    65
 73
     2
 40
0.5
 49
0.0
 74
     0
 49
-0.5
 74
     0
  0
LTYPE
  5
34
330
5
100
AcDbSymbolTableRecord
100
AcDbLinetypeTableRecord
  2
HIDDEN
 70
     0
  3
__ __ __ __ __ __ __ __ __ __ __ __ 
 72
    65
 73
     2
 40
0.375
 49
0.25
 74
     0
 49
-0.125
 74
     0
  0
LTYPE
  5
35
330
5
100
AcDbSymbolTableRecord
100
AcDbLinetypeTableRecord
  2
HIDDEN2
 70
     0
  3
_ _ _ _ _ _ _ _ _ _ _ _ _ _ _ _ _ _ 
 72
    65
 73
     2
 40
0.1875
 49
0.125
 74
     0
 49
-0.0625
 74
     0
  0
LTYPE
  5
36
330
5
100
AcDbSymbolTableRecord
100
AcDbLinetypeTableRecord
  2
HIDDENX2
 70
     0
  3
____ ____ ____ ____ ____ ____ ____ 
 72
    65
 73
     2
 40
0.75
 49
0.5
 74
     0
 49
-0.25
 74
     0
  0
LTYPE
  5
37
330
5
100
AcDbSymbolTableRecord
100
AcDbLinetypeTableRecord
  2
PHANTOM
 70
     0
  3
______  __  __  ______  __  __  
 72
    65
 73
     6
 40
2.5
 49
1.25
 74
     0
 49
-0.25
 74
     0
 49
0.25
 74
     0
 49
-0.25
 74
     0
 49
0.25
 74
     0
 49
-0.25
 74
     0
  0
LTYPE
  5
38
330
5
100
AcDbSymbolTableRecord
100
AcDbLinetypeTableRecord
  2
PHANTOM2
 70
     0
  3
___ _ _ ___ _ _ ___ _ _ ___ _ _ 
 72
    65
 73
     6
 40
1.25
 49
0.625
 74
     0
 49
-0.125
 74
     0
 49
0.125
 74
     0
 49
-0.125
 74
     0
 49
0.125
 74
     0
 49
-0.125
 74
     0
  0
LTYPE
  5
39
330
5
100
AcDbSymbolTableRecord
100
AcDbLinetypeTableRecord
  2
PHANTOMX2
 70
     0
  3
___ _ _ ___ _ _ ___ _ _ ___ _ _ 
 72
    65
 73
     6
 40
5.0
 49
2.5
 74
     0
 49
-0.5
 74
     0
 49
0.5
 74
     0
 49
-0.5
 74
     0
 49
0.5
 74
     0
 49
-0.5
 74
     0
  0
ENDTAB
  0
TABLE
  2
LAYER
  5
2
330
0
100
AcDbSymbolTable
 70
   256
  0
LAYER
  5
10
330
2
100
AcDbSymbolTableRecord
100
AcDbLayerTableRecord
  2
0
 70
     0
 62
     7
  6
CONTINUOUS
  0
LAYER
  5
3A
330
2
100
AcDbSymbolTableRecord
100
AcDbLayerTableRecord
  2
1
 70
     0
 62
     1
  6
CONTINUOUS
  0
LAYER
  5
3B
330
2
100
AcDbSymbolTableRecord
100
AcDbLayerTableRecord
  2
2
 70
     0
 62
     2
  6
CONTINUOUS
  0
LAYER
  5
3C
330
2
100
AcDbSymbolTableRecord
100
AcDbLayerTableRecord
  2
3
 70
     0
 62
     3
  6
CONTINUOUS
  0
LAYER
  5
3D
330
2
100
AcDbSymbolTableRecord
100
AcDbLayerTableRecord
  2
4
 70
     0
 62
     4
  6
CONTINUOUS
  0
LAYER
  5
3E
330
2
100
AcDbSymbolTableRecord
100
AcDbLayerTableRecord
  2
5
 70
     0
 62
     5
  6
CONTINUOUS
  0
LAYER
  5
3F
330
2
100
AcDbSymbolTableRecord
100
AcDbLayerTableRecord
  2
6
 70
     0
 62
     6
  6
CONTINUOUS
  0
LAYER
  5
40
330
2
100
AcDbSymbolTableRecord
100
AcDbLayerTableRecord
  2
7
 70
     0
 62
     7
  6
CONTINUOUS
  0
LAYER
  5
41
330
2
100
AcDbSymbolTableRecord
100
AcDbLayerTableRecord
  2
8
 70
     0
 62
     8
  6
CONTINUOUS
  0
LAYER
  5
42
330
2
100
AcDbSymbolTableRecord
100
AcDbLayerTableRecord
  2
9
 70
     0
 62
     9
  6
CONTINUOUS
  0
LAYER
  5
43
330
2
100
AcDbSymbolTableRecord
100
AcDbLayerTableRecord
  2
10
 70
     0
 62
    10
  6
CONTINUOUS
  0
LAYER
  5
44
330
2
100
AcDbSymbolTableRecord
100
AcDbLayerTableRecord
  2
11
 70
     0
 62
    11
  6
CONTINUOUS
  0
LAYER
  5
45
330
2
100
AcDbSymbolTableRecord
100
AcDbLayerTableRecord
  2
12
 70
     0
 62
    12
  6
CONTINUOUS
  0
LAYER
  5
46
330
2
100
AcDbSymbolTableRecord
100
AcDbLayerTableRecord
  2
13
 70
     0
 62
    13
  6
CONTINUOUS
  0
LAYER
  5
47
330
2
100
AcDbSymbolTableRecord
100
AcDbLayerTableRecord
  2
14
 70
     0
 62
    14
  6
CONTINUOUS
  0
LAYER
  5
48
330
2
100
AcDbSymbolTableRecord
100
AcDbLayerTableRecord
  2
15
 70
     0
 62
    15
  6
CONTINUOUS
  0
LAYER
  5
49
330
2
100
AcDbSymbolTableRecord
100
AcDbLayerTableRecord
  2
16
 70
     0
 62
    16
  6
CONTINUOUS
  0
LAYER
  5
4A
330
2
100
AcDbSymbolTableRecord
100
AcDbLayerTableRecord
  2
17
 70
     0
 62
    17
  6
CONTINUOUS
  0
LAYER
  5
4B
330
2
100
AcDbSymbolTableRecord
100
AcDbLayerTableRecord
  2
18
 70
     0
 62
    18
  6
CONTINUOUS
  0
LAYER
  5
4C
330
2
100
AcDbSymbolTableRecord
100
AcDbLayerTableRecord
  2
19
 70
     0
 62
    19
  6
CONTINUOUS
  0
LAYER
  5
4D
330
2
100
AcDbSymbolTableRecord
100
AcDbLayerTableRecord
  2
20
 70
     0
 62
    20
  6
CONTINUOUS
  0
LAYER
  5
4E
330
2
100
AcDbSymbolTableRecord
100
AcDbLayerTableRecord
  2
21
 70
     0
 62
    21
  6
CONTINUOUS
  0
LAYER
  5
4F
330
2
100
AcDbSymbolTableRecord
100
AcDbLayerTableRecord
  2
22
 70
     0
 62
    22
  6
CONTINUOUS
  0
LAYER
  5
50
330
2
100
AcDbSymbolTableRecord
100
AcDbLayerTableRecord
  2
23
 70
     0
 62
    23
  6
CONTINUOUS
  0
LAYER
  5
51
330
2
100
AcDbSymbolTableRecord
100
AcDbLayerTableRecord
  2
24
 70
     0
 62
    24
  6
CONTINUOUS
  0
LAYER
  5
52
330
2
100
AcDbSymbolTableRecord
100
AcDbLayerTableRecord
  2
25
 70
     0
 62
    25
  6
CONTINUOUS
  0
LAYER
  5
53
330
2
100
AcDbSymbolTableRecord
100
AcDbLayerTableRecord
  2
26
 70
     0
 62
    26
  6
CONTINUOUS
  0
LAYER
  5
54
330
2
100
AcDbSymbolTableRecord
100
AcDbLayerTableRecord
  2
27
 70
     0
 62
    27
  6
CONTINUOUS
  0
LAYER
  5
55
330
2
100
AcDbSymbolTableRecord
100
AcDbLayerTableRecord
  2
28
 70
     0
 62
    28
  6
CONTINUOUS
  0
LAYER
  5
56
330
2
100
AcDbSymbolTableRecord
100
AcDbLayerTableRecord
  2
29
 70
     0
 62
    29
  6
CONTINUOUS
  0
LAYER
  5
57
330
2
100
AcDbSymbolTableRecord
100
AcDbLayerTableRecord
  2
30
 70
     0
 62
    30
  6
CONTINUOUS
  0
LAYER
  5
58
330
2
100
AcDbSymbolTableRecord
100
AcDbLayerTableRecord
  2
31
 70
     0
 62
    31
  6
CONTINUOUS
  0
LAYER
  5
59
330
2
100
AcDbSymbolTableRecord
100
AcDbLayerTableRecord
  2
32
 70
     0
 62
    32
  6
CONTINUOUS
  0
LAYER
  5
5A
330
2
100
AcDbSymbolTableRecord
100
AcDbLayerTableRecord
  2
33
 70
     0
 62
    33
  6
CONTINUOUS
  0
LAYER
  5
5B
330
2
100
AcDbSymbolTableRecord
100
AcDbLayerTableRecord
  2
34
 70
     0
 62
    34
  6
CONTINUOUS
  0
LAYER
  5
5C
330
2
100
AcDbSymbolTableRecord
100
AcDbLayerTableRecord
  2
35
 70
     0
 62
    35
  6
CONTINUOUS
  0
LAYER
  5
5D
330
2
100
AcDbSymbolTableRecord
100
AcDbLayerTableRecord
  2
36
 70
     0
 62
    36
  6
CONTINUOUS
  0
LAYER
  5
5E
330
2
100
AcDbSymbolTableRecord
100
AcDbLayerTableRecord
  2
37
 70
     0
 62
    37
  6
CONTINUOUS
  0
LAYER
  5
5F
330
2
100
AcDbSymbolTableRecord
100
AcDbLayerTableRecord
  2
38
 70
     0
 62
    38
  6
CONTINUOUS
  0
LAYER
  5
60
330
2
100
AcDbSymbolTableRecord
100
AcDbLayerTableRecord
  2
39
 70
     0
 62
    39
  6
CONTINUOUS
  0
LAYER
  5
61
330
2
100
AcDbSymbolTableRecord
100
AcDbLayerTableRecord
  2
40
 70
     0
 62
    40
  6
CONTINUOUS
  0
LAYER
  5
62
330
2
100
AcDbSymbolTableRecord
100
AcDbLayerTableRecord
  2
41
 70
     0
 62
    41
  6
CONTINUOUS
  0
LAYER
  5
63
330
2
100
AcDbSymbolTableRecord
100
AcDbLayerTableRecord
  2
42
 70
     0
 62
    42
  6
CONTINUOUS
  0
LAYER
  5
64
330
2
100
AcDbSymbolTableRecord
100
AcDbLayerTableRecord
  2
43
 70
     0
 62
    43
  6
CONTINUOUS
  0
LAYER
  5
65
330
2
100
AcDbSymbolTableRecord
100
AcDbLayerTableRecord
  2
44
 70
     0
 62
    44
  6
CONTINUOUS
  0
LAYER
  5
66
330
2
100
AcDbSymbolTableRecord
100
AcDbLayerTableRecord
  2
45
 70
     0
 62
    45
  6
CONTINUOUS
  0
LAYER
  5
67
330
2
100
AcDbSymbolTableRecord
100
AcDbLayerTableRecord
  2
46
 70
     0
 62
    46
  6
CONTINUOUS
  0
LAYER
  5
68
330
2
100
AcDbSymbolTableRecord
100
AcDbLayerTableRecord
  2
47
 70
     0
 62
    47
  6
CONTINUOUS
  0
LAYER
  5
69
330
2
100
AcDbSymbolTableRecord
100
AcDbLayerTableRecord
  2
48
 70
     0
 62
    48
  6
CONTINUOUS
  0
LAYER
  5
6A
330
2
100
AcDbSymbolTableRecord
100
AcDbLayerTableRecord
  2
49
 70
     0
 62
    49
  6
CONTINUOUS
  0
LAYER
  5
6B
330
2
100
AcDbSymbolTableRecord
100
AcDbLayerTableRecord
  2
50
 70
     0
 62
    50
  6
CONTINUOUS
  0
LAYER
  5
6C
330
2
100
AcDbSymbolTableRecord
100
AcDbLayerTableRecord
  2
51
 70
     0
 62
    51
  6
CONTINUOUS
  0
LAYER
  5
6D
330
2
100
AcDbSymbolTableRecord
100
AcDbLayerTableRecord
  2
52
 70
     0
 62
    52
  6
CONTINUOUS
  0
LAYER
  5
6E
330
2
100
AcDbSymbolTableRecord
100
AcDbLayerTableRecord
  2
53
 70
     0
 62
    53
  6
CONTINUOUS
  0
LAYER
  5
6F
330
2
100
AcDbSymbolTableRecord
100
AcDbLayerTableRecord
  2
54
 70
     0
 62
    54
  6
CONTINUOUS
  0
LAYER
  5
70
330
2
100
AcDbSymbolTableRecord
100
AcDbLayerTableRecord
  2
55
 70
     0
 62
    55
  6
CONTINUOUS
  0
LAYER
  5
71
330
2
100
AcDbSymbolTableRecord
100
AcDbLayerTableRecord
  2
56
 70
     0
 62
    56
  6
CONTINUOUS
  0
LAYER
  5
72
330
2
100
AcDbSymbolTableRecord
100
AcDbLayerTableRecord
  2
57
 70
     0
 62
    57
  6
CONTINUOUS
  0
LAYER
  5
73
330
2
100
AcDbSymbolTableRecord
100
AcDbLayerTableRecord
  2
58
 70
     0
 62
    58
  6
CONTINUOUS
  0
LAYER
  5
74
330
2
100
AcDbSymbolTableRecord
100
AcDbLayerTableRecord
  2
59
 70
     0
 62
    59
  6
CONTINUOUS
  0
LAYER
  5
75
330
2
100
AcDbSymbolTableRecord
100
AcDbLayerTableRecord
  2
60
 70
     0
 62
    60
  6
CONTINUOUS
  0
LAYER
  5
76
330
2
100
AcDbSymbolTableRecord
100
AcDbLayerTableRecord
  2
61
 70
     0
 62
    61
  6
CONTINUOUS
  0
LAYER
  5
77
330
2
100
AcDbSymbolTableRecord
100
AcDbLayerTableRecord
  2
62
 70
     0
 62
    62
  6
CONTINUOUS
  0
LAYER
  5
78
330
2
100
AcDbSymbolTableRecord
100
AcDbLayerTableRecord
  2
63
 70
     0
 62
    63
  6
CONTINUOUS
  0
LAYER
  5
79
330
2
100
AcDbSymbolTableRecord
100
AcDbLayerTableRecord
  2
64
 70
     0
 62
    64
  6
CONTINUOUS
  0
LAYER
  5
7A
330
2
100
AcDbSymbolTableRecord
100
AcDbLayerTableRecord
  2
65
 70
     0
 62
    65
  6
CONTINUOUS
  0
LAYER
  5
7B
330
2
100
AcDbSymbolTableRecord
100
AcDbLayerTableRecord
  2
66
 70
     0
 62
    66
  6
CONTINUOUS
  0
LAYER
  5
7C
330
2
100
AcDbSymbolTableRecord
100
AcDbLayerTableRecord
  2
67
 70
     0
 62
    67
  6
CONTINUOUS
  0
LAYER
  5
7D
330
2
100
AcDbSymbolTableRecord
100
AcDbLayerTableRecord
  2
68
 70
     0
 62
    68
  6
CONTINUOUS
  0
LAYER
  5
7E
330
2
100
AcDbSymbolTableRecord
100
AcDbLayerTableRecord
  2
69
 70
     0
 62
    69
  6
CONTINUOUS
  0
LAYER
  5
7F
330
2
100
AcDbSymbolTableRecord
100
AcDbLayerTableRecord
  2
70
 70
     0
 62
    70
  6
CONTINUOUS
  0
LAYER
  5
80
330
2
100
AcDbSymbolTableRecord
100
AcDbLayerTableRecord
  2
71
 70
     0
 62
    71
  6
CONTINUOUS
  0
LAYER
  5
81
330
2
100
AcDbSymbolTableRecord
100
AcDbLayerTableRecord
  2
72
 70
     0
 62
    72
  6
CONTINUOUS
  0
LAYER
  5
82
330
2
100
AcDbSymbolTableRecord
100
AcDbLayerTableRecord
  2
73
 70
     0
 62
    73
  6
CONTINUOUS
  0
LAYER
  5
83
330
2
100
AcDbSymbolTableRecord
100
AcDbLayerTableRecord
  2
74
 70
     0
 62
    74
  6
CONTINUOUS
  0
LAYER
  5
84
330
2
100
AcDbSymbolTableRecord
100
AcDbLayerTableRecord
  2
75
 70
     0
 62
    75
  6
CONTINUOUS
  0
LAYER
  5
85
330
2
100
AcDbSymbolTableRecord
100
AcDbLayerTableRecord
  2
76
 70
     0
 62
    76
  6
CONTINUOUS
  0
LAYER
  5
86
330
2
100
AcDbSymbolTableRecord
100
AcDbLayerTableRecord
  2
77
 70
     0
 62
    77
  6
CONTINUOUS
  0
LAYER
  5
87
330
2
100
AcDbSymbolTableRecord
100
AcDbLayerTableRecord
  2
78
 70
     0
 62
    78
  6
CONTINUOUS
  0
LAYER
  5
88
330
2
100
AcDbSymbolTableRecord
100
AcDbLayerTableRecord
  2
79
 70
     0
 62
    79
  6
CONTINUOUS
  0
LAYER
  5
89
330
2
100
AcDbSymbolTableRecord
100
AcDbLayerTableRecord
  2
80
 70
     0
 62
    80
  6
CONTINUOUS
  0
LAYER
  5
8A
330
2
100
AcDbSymbolTableRecord
100
AcDbLayerTableRecord
  2
81
 70
     0
 62
    81
  6
CONTINUOUS
  0
LAYER
  5
8B
330
2
100
AcDbSymbolTableRecord
100
AcDbLayerTableRecord
  2
82
 70
     0
 62
    82
  6
CONTINUOUS
  0
LAYER
  5
8C
330
2
100
AcDbSymbolTableRecord
100
AcDbLayerTableRecord
  2
83
 70
     0
 62
    83
  6
CONTINUOUS
  0
LAYER
  5
8D
330
2
100
AcDbSymbolTableRecord
100
AcDbLayerTableRecord
  2
84
 70
     0
 62
    84
  6
CONTINUOUS
  0
LAYER
  5
8E
330
2
100
AcDbSymbolTableRecord
100
AcDbLayerTableRecord
  2
85
 70
     0
 62
    85
  6
CONTINUOUS
  0
LAYER
  5
8F
330
2
100
AcDbSymbolTableRecord
100
AcDbLayerTableRecord
  2
86
 70
     0
 62
    86
  6
CONTINUOUS
  0
LAYER
  5
90
330
2
100
AcDbSymbolTableRecord
100
AcDbLayerTableRecord
  2
87
 70
     0
 62
    87
  6
CONTINUOUS
  0
LAYER
  5
91
330
2
100
AcDbSymbolTableRecord
100
AcDbLayerTableRecord
  2
88
 70
     0
 62
    88
  6
CONTINUOUS
  0
LAYER
  5
92
330
2
100
AcDbSymbolTableRecord
100
AcDbLayerTableRecord
  2
89
 70
     0
 62
    89
  6
CONTINUOUS
  0
LAYER
  5
93
330
2
100
AcDbSymbolTableRecord
100
AcDbLayerTableRecord
  2
90
 70
     0
 62
    90
  6
CONTINUOUS
  0
LAYER
  5
94
330
2
100
AcDbSymbolTableRecord
100
AcDbLayerTableRecord
  2
91
 70
     0
 62
    91
  6
CONTINUOUS
  0
LAYER
  5
95
330
2
100
AcDbSymbolTableRecord
100
AcDbLayerTableRecord
  2
92
 70
     0
 62
    92
  6
CONTINUOUS
  0
LAYER
  5
96
330
2
100
AcDbSymbolTableRecord
100
AcDbLayerTableRecord
  2
93
 70
     0
 62
    93
  6
CONTINUOUS
  0
LAYER
  5
97
330
2
100
AcDbSymbolTableRecord
100
AcDbLayerTableRecord
  2
94
 70
     0
 62
    94
  6
CONTINUOUS
  0
LAYER
  5
98
330
2
100
AcDbSymbolTableRecord
100
AcDbLayerTableRecord
  2
95
 70
     0
 62
    95
  6
CONTINUOUS
  0
LAYER
  5
99
330
2
100
AcDbSymbolTableRecord
100
AcDbLayerTableRecord
  2
96
 70
     0
 62
    96
  6
CONTINUOUS
  0
LAYER
  5
9A
330
2
100
AcDbSymbolTableRecord
100
AcDbLayerTableRecord
  2
97
 70
     0
 62
    97
  6
CONTINUOUS
  0
LAYER
  5
9B
330
2
100
AcDbSymbolTableRecord
100
AcDbLayerTableRecord
  2
98
 70
     0
 62
    98
  6
CONTINUOUS
  0
LAYER
  5
9C
330
2
100
AcDbSymbolTableRecord
100
AcDbLayerTableRecord
  2
99
 70
     0
 62
    99
  6
CONTINUOUS
  0
LAYER
  5
9D
330
2
100
AcDbSymbolTableRecord
100
AcDbLayerTableRecord
  2
100
 70
     0
 62
   100
  6
CONTINUOUS
  0
LAYER
  5
9E
330
2
100
AcDbSymbolTableRecord
100
AcDbLayerTableRecord
  2
101
 70
     0
 62
   101
  6
CONTINUOUS
  0
LAYER
  5
9F
330
2
100
AcDbSymbolTableRecord
100
AcDbLayerTableRecord
  2
102
 70
     0
 62
   102
  6
CONTINUOUS
  0
LAYER
  5
A0
330
2
100
AcDbSymbolTableRecord
100
AcDbLayerTableRecord
  2
103
 70
     0
 62
   103
  6
CONTINUOUS
  0
LAYER
  5
A1
330
2
100
AcDbSymbolTableRecord
100
AcDbLayerTableRecord
  2
104
 70
     0
 62
   104
  6
CONTINUOUS
  0
LAYER
  5
A2
330
2
100
AcDbSymbolTableRecord
100
AcDbLayerTableRecord
  2
105
 70
     0
 62
   105
  6
CONTINUOUS
  0
LAYER
  5
A3
330
2
100
AcDbSymbolTableRecord
100
AcDbLayerTableRecord
  2
106
 70
     0
 62
   106
  6
CONTINUOUS
  0
LAYER
  5
A4
330
2
100
AcDbSymbolTableRecord
100
AcDbLayerTableRecord
  2
107
 70
     0
 62
   107
  6
CONTINUOUS
  0
LAYER
  5
A5
330
2
100
AcDbSymbolTableRecord
100
AcDbLayerTableRecord
  2
108
 70
     0
 62
   108
  6
CONTINUOUS
  0
LAYER
  5
A6
330
2
100
AcDbSymbolTableRecord
100
AcDbLayerTableRecord
  2
109
 70
     0
 62
   109
  6
CONTINUOUS
  0
LAYER
  5
A7
330
2
100
AcDbSymbolTableRecord
100
AcDbLayerTableRecord
  2
110
 70
     0
 62
   110
  6
CONTINUOUS
  0
LAYER
  5
A8
330
2
100
AcDbSymbolTableRecord
100
AcDbLayerTableRecord
  2
111
 70
     0
 62
   111
  6
CONTINUOUS
  0
LAYER
  5
A9
330
2
100
AcDbSymbolTableRecord
100
AcDbLayerTableRecord
  2
112
 70
     0
 62
   112
  6
CONTINUOUS
  0
LAYER
  5
AA
330
2
100
AcDbSymbolTableRecord
100
AcDbLayerTableRecord
  2
113
 70
     0
 62
   113
  6
CONTINUOUS
  0
LAYER
  5
AB
330
2
100
AcDbSymbolTableRecord
100
AcDbLayerTableRecord
  2
114
 70
     0
 62
   114
  6
CONTINUOUS
  0
LAYER
  5
AC
330
2
100
AcDbSymbolTableRecord
100
AcDbLayerTableRecord
  2
115
 70
     0
 62
   115
  6
CONTINUOUS
  0
LAYER
  5
AD
330
2
100
AcDbSymbolTableRecord
100
AcDbLayerTableRecord
  2
116
 70
     0
 62
   116
  6
CONTINUOUS
  0
LAYER
  5
AE
330
2
100
AcDbSymbolTableRecord
100
AcDbLayerTableRecord
  2
117
 70
     0
 62
   117
  6
CONTINUOUS
  0
LAYER
  5
AF
330
2
100
AcDbSymbolTableRecord
100
AcDbLayerTableRecord
  2
118
 70
     0
 62
   118
  6
CONTINUOUS
  0
LAYER
  5
B0
330
2
100
AcDbSymbolTableRecord
100
AcDbLayerTableRecord
  2
119
 70
     0
 62
   119
  6
CONTINUOUS
  0
LAYER
  5
B1
330
2
100
AcDbSymbolTableRecord
100
AcDbLayerTableRecord
  2
120
 70
     0
 62
   120
  6
CONTINUOUS
  0
LAYER
  5
B2
330
2
100
AcDbSymbolTableRecord
100
AcDbLayerTableRecord
  2
121
 70
     0
 62
   121
  6
CONTINUOUS
  0
LAYER
  5
B3
330
2
100
AcDbSymbolTableRecord
100
AcDbLayerTableRecord
  2
122
 70
     0
 62
   122
  6
CONTINUOUS
  0
LAYER
  5
B4
330
2
100
AcDbSymbolTableRecord
100
AcDbLayerTableRecord
  2
123
 70
     0
 62
   123
  6
CONTINUOUS
  0
LAYER
  5
B5
330
2
100
AcDbSymbolTableRecord
100
AcDbLayerTableRecord
  2
124
 70
     0
 62
   124
  6
CONTINUOUS
  0
LAYER
  5
B6
330
2
100
AcDbSymbolTableRecord
100
AcDbLayerTableRecord
  2
125
 70
     0
 62
   125
  6
CONTINUOUS
  0
LAYER
  5
B7
330
2
100
AcDbSymbolTableRecord
100
AcDbLayerTableRecord
  2
126
 70
     0
 62
   126
  6
CONTINUOUS
  0
LAYER
  5
B8
330
2
100
AcDbSymbolTableRecord
100
AcDbLayerTableRecord
  2
127
 70
     0
 62
   127
  6
CONTINUOUS
  0
LAYER
  5
B9
330
2
100
AcDbSymbolTableRecord
100
AcDbLayerTableRecord
  2
128
 70
     0
 62
   128
  6
CONTINUOUS
  0
LAYER
  5
BA
330
2
100
AcDbSymbolTableRecord
100
AcDbLayerTableRecord
  2
129
 70
     0
 62
   129
  6
CONTINUOUS
  0
LAYER
  5
BB
330
2
100
AcDbSymbolTableRecord
100
AcDbLayerTableRecord
  2
130
 70
     0
 62
   130
  6
CONTINUOUS
  0
LAYER
  5
BC
330
2
100
AcDbSymbolTableRecord
100
AcDbLayerTableRecord
  2
131
 70
     0
 62
   131
  6
CONTINUOUS
  0
LAYER
  5
BD
330
2
100
AcDbSymbolTableRecord
100
AcDbLayerTableRecord
  2
132
 70
     0
 62
   132
  6
CONTINUOUS
  0
LAYER
  5
BE
330
2
100
AcDbSymbolTableRecord
100
AcDbLayerTableRecord
  2
133
 70
     0
 62
   133
  6
CONTINUOUS
  0
LAYER
  5
BF
330
2
100
AcDbSymbolTableRecord
100
AcDbLayerTableRecord
  2
134
 70
     0
 62
   134
  6
CONTINUOUS
  0
LAYER
  5
C0
330
2
100
AcDbSymbolTableRecord
100
AcDbLayerTableRecord
  2
135
 70
     0
 62
   135
  6
CONTINUOUS
  0
LAYER
  5
C1
330
2
100
AcDbSymbolTableRecord
100
AcDbLayerTableRecord
  2
136
 70
     0
 62
   136
  6
CONTINUOUS
  0
LAYER
  5
C2
330
2
100
AcDbSymbolTableRecord
100
AcDbLayerTableRecord
  2
137
 70
     0
 62
   137
  6
CONTINUOUS
  0
LAYER
  5
C3
330
2
100
AcDbSymbolTableRecord
100
AcDbLayerTableRecord
  2
138
 70
     0
 62
   138
  6
CONTINUOUS
  0
LAYER
  5
C4
330
2
100
AcDbSymbolTableRecord
100
AcDbLayerTableRecord
  2
139
 70
     0
 62
   139
  6
CONTINUOUS
  0
LAYER
  5
C5
330
2
100
AcDbSymbolTableRecord
100
AcDbLayerTableRecord
  2
140
 70
     0
 62
   140
  6
CONTINUOUS
  0
LAYER
  5
C6
330
2
100
AcDbSymbolTableRecord
100
AcDbLayerTableRecord
  2
141
 70
     0
 62
   141
  6
CONTINUOUS
  0
LAYER
  5
C7
330
2
100
AcDbSymbolTableRecord
100
AcDbLayerTableRecord
  2
142
 70
     0
 62
   142
  6
CONTINUOUS
  0
LAYER
  5
C8
330
2
100
AcDbSymbolTableRecord
100
AcDbLayerTableRecord
  2
143
 70
     0
 62
   143
  6
CONTINUOUS
  0
LAYER
  5
C9
330
2
100
AcDbSymbolTableRecord
100
AcDbLayerTableRecord
  2
144
 70
     0
 62
   144
  6
CONTINUOUS
  0
LAYER
  5
CA
330
2
100
AcDbSymbolTableRecord
100
AcDbLayerTableRecord
  2
145
 70
     0
 62
   145
  6
CONTINUOUS
  0
LAYER
  5
CB
330
2
100
AcDbSymbolTableRecord
100
AcDbLayerTableRecord
  2
146
 70
     0
 62
   146
  6
CONTINUOUS
  0
LAYER
  5
CC
330
2
100
AcDbSymbolTableRecord
100
AcDbLayerTableRecord
  2
147
 70
     0
 62
   147
  6
CONTINUOUS
  0
LAYER
  5
CD
330
2
100
AcDbSymbolTableRecord
100
AcDbLayerTableRecord
  2
148
 70
     0
 62
   148
  6
CONTINUOUS
  0
LAYER
  5
CE
330
2
100
AcDbSymbolTableRecord
100
AcDbLayerTableRecord
  2
149
 70
     0
 62
   149
  6
CONTINUOUS
  0
LAYER
  5
CF
330
2
100
AcDbSymbolTableRecord
100
AcDbLayerTableRecord
  2
150
 70
     0
 62
   150
  6
CONTINUOUS
  0
LAYER
  5
D0
330
2
100
AcDbSymbolTableRecord
100
AcDbLayerTableRecord
  2
151
 70
     0
 62
   151
  6
CONTINUOUS
  0
LAYER
  5
D1
330
2
100
AcDbSymbolTableRecord
100
AcDbLayerTableRecord
  2
152
 70
     0
 62
   152
  6
CONTINUOUS
  0
LAYER
  5
D2
330
2
100
AcDbSymbolTableRecord
100
AcDbLayerTableRecord
  2
153
 70
     0
 62
   153
  6
CONTINUOUS
  0
LAYER
  5
D3
330
2
100
AcDbSymbolTableRecord
100
AcDbLayerTableRecord
  2
154
 70
     0
 62
   154
  6
CONTINUOUS
  0
LAYER
  5
D4
330
2
100
AcDbSymbolTableRecord
100
AcDbLayerTableRecord
  2
155
 70
     0
 62
   155
  6
CONTINUOUS
  0
LAYER
  5
D5
330
2
100
AcDbSymbolTableRecord
100
AcDbLayerTableRecord
  2
156
 70
     0
 62
   156
  6
CONTINUOUS
  0
LAYER
  5
D6
330
2
100
AcDbSymbolTableRecord
100
AcDbLayerTableRecord
  2
157
 70
     0
 62
   157
  6
CONTINUOUS
  0
LAYER
  5
D7
330
2
100
AcDbSymbolTableRecord
100
AcDbLayerTableRecord
  2
158
 70
     0
 62
   158
  6
CONTINUOUS
  0
LAYER
  5
D8
330
2
100
AcDbSymbolTableRecord
100
AcDbLayerTableRecord
  2
159
 70
     0
 62
   159
  6
CONTINUOUS
  0
LAYER
  5
D9
330
2
100
AcDbSymbolTableRecord
100
AcDbLayerTableRecord
  2
160
 70
     0
 62
   160
  6
CONTINUOUS
  0
LAYER
  5
DA
330
2
100
AcDbSymbolTableRecord
100
AcDbLayerTableRecord
  2
161
 70
     0
 62
   161
  6
CONTINUOUS
  0
LAYER
  5
DB
330
2
100
AcDbSymbolTableRecord
100
AcDbLayerTableRecord
  2
162
 70
     0
 62
   162
  6
CONTINUOUS
  0
LAYER
  5
DC
330
2
100
AcDbSymbolTableRecord
100
AcDbLayerTableRecord
  2
163
 70
     0
 62
   163
  6
CONTINUOUS
  0
LAYER
  5
DD
330
2
100
AcDbSymbolTableRecord
100
AcDbLayerTableRecord
  2
164
 70
     0
 62
   164
  6
CONTINUOUS
  0
LAYER
  5
DE
330
2
100
AcDbSymbolTableRecord
100
AcDbLayerTableRecord
  2
165
 70
     0
 62
   165
  6
CONTINUOUS
  0
LAYER
  5
DF
330
2
100
AcDbSymbolTableRecord
100
AcDbLayerTableRecord
  2
166
 70
     0
 62
   166
  6
CONTINUOUS
  0
LAYER
  5
E0
330
2
100
AcDbSymbolTableRecord
100
AcDbLayerTableRecord
  2
167
 70
     0
 62
   167
  6
CONTINUOUS
  0
LAYER
  5
E1
330
2
100
AcDbSymbolTableRecord
100
AcDbLayerTableRecord
  2
168
 70
     0
 62
   168
  6
CONTINUOUS
  0
LAYER
  5
E2
330
2
100
AcDbSymbolTableRecord
100
AcDbLayerTableRecord
  2
169
 70
     0
 62
   169
  6
CONTINUOUS
  0
LAYER
  5
E3
330
2
100
AcDbSymbolTableRecord
100
AcDbLayerTableRecord
  2
170
 70
     0
 62
   170
  6
CONTINUOUS
  0
LAYER
  5
E4
330
2
100
AcDbSymbolTableRecord
100
AcDbLayerTableRecord
  2
171
 70
     0
 62
   171
  6
CONTINUOUS
  0
LAYER
  5
E5
330
2
100
AcDbSymbolTableRecord
100
AcDbLayerTableRecord
  2
172
 70
     0
 62
   172
  6
CONTINUOUS
  0
LAYER
  5
E6
330
2
100
AcDbSymbolTableRecord
100
AcDbLayerTableRecord
  2
173
 70
     0
 62
   173
  6
CONTINUOUS
  0
LAYER
  5
E7
330
2
100
AcDbSymbolTableRecord
100
AcDbLayerTableRecord
  2
174
 70
     0
 62
   174
  6
CONTINUOUS
  0
LAYER
  5
E8
330
2
100
AcDbSymbolTableRecord
100
AcDbLayerTableRecord
  2
175
 70
     0
 62
   175
  6
CONTINUOUS
  0
LAYER
  5
E9
330
2
100
AcDbSymbolTableRecord
100
AcDbLayerTableRecord
  2
176
 70
     0
 62
   176
  6
CONTINUOUS
  0
LAYER
  5
EA
330
2
100
AcDbSymbolTableRecord
100
AcDbLayerTableRecord
  2
177
 70
     0
 62
   177
  6
CONTINUOUS
  0
LAYER
  5
EB
330
2
100
AcDbSymbolTableRecord
100
AcDbLayerTableRecord
  2
178
 70
     0
 62
   178
  6
CONTINUOUS
  0
LAYER
  5
EC
330
2
100
AcDbSymbolTableRecord
100
AcDbLayerTableRecord
  2
179
 70
     0
 62
   179
  6
CONTINUOUS
  0
LAYER
  5
ED
330
2
100
AcDbSymbolTableRecord
100
AcDbLayerTableRecord
  2
180
 70
     0
 62
   180
  6
CONTINUOUS
  0
LAYER
  5
EE
330
2
100
AcDbSymbolTableRecord
100
AcDbLayerTableRecord
  2
181
 70
     0
 62
   181
  6
CONTINUOUS
  0
LAYER
  5
EF
330
2
100
AcDbSymbolTableRecord
100
AcDbLayerTableRecord
  2
182
 70
     0
 62
   182
  6
CONTINUOUS
  0
LAYER
  5
F0
330
2
100
AcDbSymbolTableRecord
100
AcDbLayerTableRecord
  2
183
 70
     0
 62
   183
  6
CONTINUOUS
  0
LAYER
  5
F1
330
2
100
AcDbSymbolTableRecord
100
AcDbLayerTableRecord
  2
184
 70
     0
 62
   184
  6
CONTINUOUS
  0
LAYER
  5
F2
330
2
100
AcDbSymbolTableRecord
100
AcDbLayerTableRecord
  2
185
 70
     0
 62
   185
  6
CONTINUOUS
  0
LAYER
  5
F3
330
2
100
AcDbSymbolTableRecord
100
AcDbLayerTableRecord
  2
186
 70
     0
 62
   186
  6
CONTINUOUS
  0
LAYER
  5
F4
330
2
100
AcDbSymbolTableRecord
100
AcDbLayerTableRecord
  2
187
 70
     0
 62
   187
  6
CONTINUOUS
  0
LAYER
  5
F5
330
2
100
AcDbSymbolTableRecord
100
AcDbLayerTableRecord
  2
188
 70
     0
 62
   188
  6
CONTINUOUS
  0
LAYER
  5
F6
330
2
100
AcDbSymbolTableRecord
100
AcDbLayerTableRecord
  2
189
 70
     0
 62
   189
  6
CONTINUOUS
  0
LAYER
  5
F7
330
2
100
AcDbSymbolTableRecord
100
AcDbLayerTableRecord
  2
190
 70
     0
 62
   190
  6
CONTINUOUS
  0
LAYER
  5
F8
330
2
100
AcDbSymbolTableRecord
100
AcDbLayerTableRecord
  2
191
 70
     0
 62
   191
  6
CONTINUOUS
  0
LAYER
  5
F9
330
2
100
AcDbSymbolTableRecord
100
AcDbLayerTableRecord
  2
192
 70
     0
 62
   192
  6
CONTINUOUS
  0
LAYER
  5
FA
330
2
100
AcDbSymbolTableRecord
100
AcDbLayerTableRecord
  2
193
 70
     0
 62
   193
  6
CONTINUOUS
  0
LAYER
  5
FB
330
2
100
AcDbSymbolTableRecord
100
AcDbLayerTableRecord
  2
194
 70
     0
 62
   194
  6
CONTINUOUS
  0
LAYER
  5
FC
330
2
100
AcDbSymbolTableRecord
100
AcDbLayerTableRecord
  2
195
 70
     0
 62
   195
  6
CONTINUOUS
  0
LAYER
  5
FD
330
2
100
AcDbSymbolTableRecord
100
AcDbLayerTableRecord
  2
196
 70
     0
 62
   196
  6
CONTINUOUS
  0
LAYER
  5
FE
330
2
100
AcDbSymbolTableRecord
100
AcDbLayerTableRecord
  2
197
 70
     0
 62
   197
  6
CONTINUOUS
  0
LAYER
  5
FF
330
2
100
AcDbSymbolTableRecord
100
AcDbLayerTableRecord
  2
198
 70
     0
 62
   198
  6
CONTINUOUS
  0
LAYER
  5
100
330
2
100
AcDbSymbolTableRecord
100
AcDbLayerTableRecord
  2
199
 70
     0
 62
   199
  6
CONTINUOUS
  0
LAYER
  5
101
330
2
100
AcDbSymbolTableRecord
100
AcDbLayerTableRecord
  2
200
 70
     0
 62
   200
  6
CONTINUOUS
  0
LAYER
  5
102
330
2
100
AcDbSymbolTableRecord
100
AcDbLayerTableRecord
  2
201
 70
     0
 62
   201
  6
CONTINUOUS
  0
LAYER
  5
103
330
2
100
AcDbSymbolTableRecord
100
AcDbLayerTableRecord
  2
202
 70
     0
 62
   202
  6
CONTINUOUS
  0
LAYER
  5
104
330
2
100
AcDbSymbolTableRecord
100
AcDbLayerTableRecord
  2
203
 70
     0
 62
   203
  6
CONTINUOUS
  0
LAYER
  5
105
330
2
100
AcDbSymbolTableRecord
100
AcDbLayerTableRecord
  2
204
 70
     0
 62
   204
  6
CONTINUOUS
  0
LAYER
  5
106
330
2
100
AcDbSymbolTableRecord
100
AcDbLayerTableRecord
  2
205
 70
     0
 62
   205
  6
CONTINUOUS
  0
LAYER
  5
107
330
2
100
AcDbSymbolTableRecord
100
AcDbLayerTableRecord
  2
206
 70
     0
 62
   206
  6
CONTINUOUS
  0
LAYER
  5
108
330
2
100
AcDbSymbolTableRecord
100
AcDbLayerTableRecord
  2
207
 70
     0
 62
   207
  6
CONTINUOUS
  0
LAYER
  5
109
330
2
100
AcDbSymbolTableRecord
100
AcDbLayerTableRecord
  2
208
 70
     0
 62
   208
  6
CONTINUOUS
  0
LAYER
  5
10A
330
2
100
AcDbSymbolTableRecord
100
AcDbLayerTableRecord
  2
209
 70
     0
 62
   209
  6
CONTINUOUS
  0
LAYER
  5
10B
330
2
100
AcDbSymbolTableRecord
100
AcDbLayerTableRecord
  2
210
 70
     0
 62
   210
  6
CONTINUOUS
  0
LAYER
  5
10C
330
2
100
AcDbSymbolTableRecord
100
AcDbLayerTableRecord
  2
211
 70
     0
 62
   211
  6
CONTINUOUS
  0
LAYER
  5
10D
330
2
100
AcDbSymbolTableRecord
100
AcDbLayerTableRecord
  2
212
 70
     0
 62
   212
  6
CONTINUOUS
  0
LAYER
  5
10E
330
2
100
AcDbSymbolTableRecord
100
AcDbLayerTableRecord
  2
213
 70
     0
 62
   213
  6
CONTINUOUS
  0
LAYER
  5
10F
330
2
100
AcDbSymbolTableRecord
100
AcDbLayerTableRecord
  2
214
 70
     0
 62
   214
  6
CONTINUOUS
  0
LAYER
  5
110
330
2
100
AcDbSymbolTableRecord
100
AcDbLayerTableRecord
  2
215
 70
     0
 62
   215
  6
CONTINUOUS
  0
LAYER
  5
111
330
2
100
AcDbSymbolTableRecord
100
AcDbLayerTableRecord
  2
216
 70
     0
 62
   216
  6
CONTINUOUS
  0
LAYER
  5
112
330
2
100
AcDbSymbolTableRecord
100
AcDbLayerTableRecord
  2
217
 70
     0
 62
   217
  6
CONTINUOUS
  0
LAYER
  5
113
330
2
100
AcDbSymbolTableRecord
100
AcDbLayerTableRecord
  2
218
 70
     0
 62
   218
  6
CONTINUOUS
  0
LAYER
  5
114
330
2
100
AcDbSymbolTableRecord
100
AcDbLayerTableRecord
  2
219
 70
     0
 62
   219
  6
CONTINUOUS
  0
LAYER
  5
115
330
2
100
AcDbSymbolTableRecord
100
AcDbLayerTableRecord
  2
220
 70
     0
 62
   220
  6
CONTINUOUS
  0
LAYER
  5
116
330
2
100
AcDbSymbolTableRecord
100
AcDbLayerTableRecord
  2
221
 70
     0
 62
   221
  6
CONTINUOUS
  0
LAYER
  5
117
330
2
100
AcDbSymbolTableRecord
100
AcDbLayerTableRecord
  2
222
 70
     0
 62
   222
  6
CONTINUOUS
  0
LAYER
  5
118
330
2
100
AcDbSymbolTableRecord
100
AcDbLayerTableRecord
  2
223
 70
     0
 62
   223
  6
CONTINUOUS
  0
LAYER
  5
119
330
2
100
AcDbSymbolTableRecord
100
AcDbLayerTableRecord
  2
224
 70
     0
 62
   224
  6
CONTINUOUS
  0
LAYER
  5
11A
330
2
100
AcDbSymbolTableRecord
100
AcDbLayerTableRecord
  2
225
 70
     0
 62
   225
  6
CONTINUOUS
  0
LAYER
  5
11B
330
2
100
AcDbSymbolTableRecord
100
AcDbLayerTableRecord
  2
226
 70
     0
 62
   226
  6
CONTINUOUS
  0
LAYER
  5
11C
330
2
100
AcDbSymbolTableRecord
100
AcDbLayerTableRecord
  2
227
 70
     0
 62
   227
  6
CONTINUOUS
  0
LAYER
  5
11D
330
2
100
AcDbSymbolTableRecord
100
AcDbLayerTableRecord
  2
228
 70
     0
 62
   228
  6
CONTINUOUS
  0
LAYER
  5
11E
330
2
100
AcDbSymbolTableRecord
100
AcDbLayerTableRecord
  2
229
 70
     0
 62
   229
  6
CONTINUOUS
  0
LAYER
  5
11F
330
2
100
AcDbSymbolTableRecord
100
AcDbLayerTableRecord
  2
230
 70
     0
 62
   230
  6
CONTINUOUS
  0
LAYER
  5
120
330
2
100
AcDbSymbolTableRecord
100
AcDbLayerTableRecord
  2
231
 70
     0
 62
   231
  6
CONTINUOUS
  0
LAYER
  5
121
330
2
100
AcDbSymbolTableRecord
100
AcDbLayerTableRecord
  2
232
 70
     0
 62
   232
  6
CONTINUOUS
  0
LAYER
  5
122
330
2
100
AcDbSymbolTableRecord
100
AcDbLayerTableRecord
  2
233
 70
     0
 62
   233
  6
CONTINUOUS
  0
LAYER
  5
123
330
2
100
AcDbSymbolTableRecord
100
AcDbLayerTableRecord
  2
234
 70
     0
 62
   234
  6
CONTINUOUS
  0
LAYER
  5
124
330
2
100
AcDbSymbolTableRecord
100
AcDbLayerTableRecord
  2
235
 70
     0
 62
   235
  6
CONTINUOUS
  0
LAYER
  5
125
330
2
100
AcDbSymbolTableRecord
100
AcDbLayerTableRecord
  2
236
 70
     0
 62
   236
  6
CONTINUOUS
  0
LAYER
  5
126
330
2
100
AcDbSymbolTableRecord
100
AcDbLayerTableRecord
  2
237
 70
     0
 62
   237
  6
CONTINUOUS
  0
LAYER
  5
127
330
2
100
AcDbSymbolTableRecord
100
AcDbLayerTableRecord
  2
238
 70
     0
 62
   238
  6
CONTINUOUS
  0
LAYER
  5
128
330
2
100
AcDbSymbolTableRecord
100
AcDbLayerTableRecord
  2
239
 70
     0
 62
   239
  6
CONTINUOUS
  0
LAYER
  5
129
330
2
100
AcDbSymbolTableRecord
100
AcDbLayerTableRecord
  2
240
 70
     0
 62
   240
  6
CONTINUOUS
  0
LAYER
  5
12A
330
2
100
AcDbSymbolTableRecord
100
AcDbLayerTableRecord
  2
241
 70
     0
 62
   241
  6
CONTINUOUS
  0
LAYER
  5
12B
330
2
100
AcDbSymbolTableRecord
100
AcDbLayerTableRecord
  2
242
 70
     0
 62
   242
  6
CONTINUOUS
  0
LAYER
  5
12C
330
2
100
AcDbSymbolTableRecord
100
AcDbLayerTableRecord
  2
243
 70
     0
 62
   243
  6
CONTINUOUS
  0
LAYER
  5
12D
330
2
100
AcDbSymbolTableRecord
100
AcDbLayerTableRecord
  2
244
 70
     0
 62
   244
  6
CONTINUOUS
  0
LAYER
  5
12E
330
2
100
AcDbSymbolTableRecord
100
AcDbLayerTableRecord
  2
245
 70
     0
 62
   245
  6
CONTINUOUS
  0
LAYER
  5
12F
330
2
100
AcDbSymbolTableRecord
100
AcDbLayerTableRecord
  2
246
 70
     0
 62
   246
  6
CONTINUOUS
  0
LAYER
  5
130
330
2
100
AcDbSymbolTableRecord
100
AcDbLayerTableRecord
  2
247
 70
     0
 62
   247
  6
CONTINUOUS
  0
LAYER
  5
131
330
2
100
AcDbSymbolTableRecord
100
AcDbLayerTableRecord
  2
248
 70
     0
 62
   248
  6
CONTINUOUS
  0
LAYER
  5
132
330
2
100
AcDbSymbolTableRecord
100
AcDbLayerTableRecord
  2
249
 70
     0
 62
   249
  6
CONTINUOUS
  0
LAYER
  5
133
330
2
100
AcDbSymbolTableRecord
100
AcDbLayerTableRecord
  2
250
 70
     0
 62
   250
  6
CONTINUOUS
  0
LAYER
  5
134
330
2
100
AcDbSymbolTableRecord
100
AcDbLayerTableRecord
  2
251
 70
     0
 62
   251
  6
CONTINUOUS
  0
LAYER
  5
135
330
2
100
AcDbSymbolTableRecord
100
AcDbLayerTableRecord
  2
252
 70
     0
 62
   252
  6
CONTINUOUS
  0
LAYER
  5
136
330
2
100
AcDbSymbolTableRecord
100
AcDbLayerTableRecord
  2
253
 70
     0
 62
   253
  6
CONTINUOUS
  0
LAYER
  5
137
330
2
100
AcDbSymbolTableRecord
100
AcDbLayerTableRecord
  2
254
 70
     0
 62
   254
  6
CONTINUOUS
  0
LAYER
  5
138
330
2
100
AcDbSymbolTableRecord
100
AcDbLayerTableRecord
  2
255
 70
     0
 62
   255
  6
CONTINUOUS
  0
ENDTAB
  0
TABLE
  2
STYLE
  5
3
330
0
100
AcDbSymbolTable
 70
     1
  0
STYLE
  5
11
330
3
100
AcDbSymbolTableRecord
100
AcDbTextStyleTableRecord
  2
STANDARD
 70
     0
 40
0.0
 41
1.0
 50
0.0
 71
     0
 42
0.2
  3
monotxt
  4

  0
ENDTAB
  0
TABLE
  2
VIEW
  5
6
330
0
100
AcDbSymbolTable
 70
     0
  0
ENDTAB
  0
TABLE
  2
UCS
  5
7
330
0
100
AcDbSymbolTable
 70
     0
  0
ENDTAB
  0
TABLE
  2
APPID
  5
9
330
0
100
AcDbSymbolTable
 70
     1
  0
APPID
  5
12
330
9
100
AcDbSymbolTableRecord
100
AcDbRegAppTableRecord
  2
ACAD
 70
     0
  0
ENDTAB
  0
TABLE
  2
DIMSTYLE
  5
A
330
0
100
AcDbSymbolTable
 70
     1
  0
DIMSTYLE
105
20C6
330
A
100
AcDbSymbolTableRecord
100
AcDbDimStyleTableRecord
  2
STANDARD
 70
     0
  3

  4

  5

  6

  7

 40
1.0
 41
0.18
 42
0.0625
 43
0.38
 44
0.18
 45
0.0
 46
0.0
 47
0.0
 48
0.0
140
0.18
141
0.09
142
0.0
143
25.4
144
1.0
145
0.0
146
1.0
147
0.09
 71
     0
 72
     0
 73
     1
 74
     1
 75
     0
 76
     0
 77
     0
 78
     0
170
     0
171
     2
172
     0
173
     0
174
     0
175
     0
176
     0
177
     0
178
     0
270
     2
271
     4
272
     4
273
     2
274
     2
340
11
275
     0
280
     0
281
     0
282
     0
283
     1
284
     0
285
     0
286
     0
287
     3
288
     0
  0
ENDTAB
  0
TABLE
  2
BLOCK_RECORD
  5
1
330
0
100
AcDbSymbolTable
 70
     0
  0
BLOCK_RECORD
  5
1E
102
{ACAD_XDICTIONARY
360
30F4
102
}
330
1
100
AcDbSymbolTableRecord
100
AcDbBlockTableRecord
  2
*MODEL_SPACE
  0
BLOCK_RECORD
  5
1A
102
{ACAD_XDICTIONARY
360
30F2
102
}
330
1
100
AcDbSymbolTableRecord
100
AcDbBlockTableRecord
  2
*PAPER_SPACE
  0
ENDTAB
  0
ENDSEC
  0
SECTION
  2
BLOCKS
  0
BLOCK
  5
13B
330
1E
100
AcDbEntity
  8
0
100
AcDbBlockBegin
  2
*MODEL_SPACE
 70
     0
 10
0.0
 20
0.0
 30
0.0
  3
*MODEL_SPACE
  1

  0
ENDBLK
  5
13C
330
1E
100
AcDbEntity
  8
0
100
AcDbBlockEnd
  0
BLOCK
  5
139
330
1A
100
AcDbEntity
 67
     1
  8
0
100
AcDbBlockBegin
  2
*PAPER_SPACE
 70
     0
 10
0.0
 20
0.0
 30
0.0
  3
*PAPER_SPACE
  1

  0
ENDBLK
  5
13A
330
1A
100
AcDbEntity
 67
     1
  8
0
100
AcDbBlockEnd
  0
ENDSEC
  0
SECTION
  2
ENTITIES
  0
LINE
  5
1EE0
330
1E
100
AcDbEntity
  8
3
100
AcDbLine
 10
3.08267716535433
 20
1.924212598425197
 30
0.0
 11
3.577755905511811
 21
2.418307086614173
 31
0.0
  0
LINE
  5
1EE1
330
1E
100
AcDbEntity
  8
3
100
AcDbLine
 10
3.643700787401574
 20
2.353346456692912
 30
0.0
 11
3.214566929133858
 21
1.924212598425197
 31
0.0
  0
LINE
  5
1EE2
330
1E
100
AcDbEntity
  8
3
100
AcDbLine
 10
3.716535433070865
 20
1.736220472440944
 30
0.0
 11
4.221456692913386
 21
1.736220472440944
 31
0.0
  0
LINE
  5
1EE3
330
1E
100
AcDbEntity
  8
3
100
AcDbLine
 10
1.849409448818897
 20
1.970472440944881
 30
0.0
 11
2.036417322834645
 21
1.970472440944881
 31
0.0
  0
LINE
  5
1EE4
330
1E
100
AcDbEntity
  8
3
100
AcDbLine
 10
3.708661417322834
 20
2.420275590551181
 30
0.0
 11
4.221456692913386
 21
1.924212598425197
 31
0.0
  0
LINE
  5
1EE5
330
1E
100
AcDbEntity
  8
3
100
AcDbLine
 10
4.221456692913386
 20
1.794291338582676
 30
0.0
 11
4.221456692913386
 21
1.736220472440944
 31
0.0
  0
LINE
  5
1EE6
330
1E
100
AcDbEntity
  8
3
100
AcDbLine
 10
2.886811023622047
 20
1.736220472440944
 30
0.0
 11
2.886811023622047
 21
1.924212598425197
 31
0.0
  0
LINE
  5
1EE7
330
1E
100
AcDbEntity
  8
3
100
AcDbLine
 10
2.057086614173228
 20
1.924212598425197
 30
0.0
 11
2.052165354330708
 21
1.924212598425197
 31
0.0
  0
LINE
  5
1EE8
330
1E
100
AcDbEntity
  8
3
100
AcDbLine
 10
4.221456692913386
 20
1.794291338582676
 30
0.0
 11
3.643700787401574
 21
2.353346456692912
 31
0.0
  0
LINE
  5
1EE9
330
1E
100
AcDbEntity
  8
3
100
AcDbLine
 10
2.886811023622047
 20
1.736220472440944
 30
0.0
 11
3.391732283464566
 21
1.736220472440944
 31
0.0
  0
LINE
  5
1EEA
330
1E
100
AcDbEntity
  8
3
100
AcDbLine
 10
2.056102362204724
 20
1.908464566929133
 30
0.0
 11
2.057086614173228
 21
1.924212598425197
 31
0.0
  0
LINE
  5
1EEB
330
1E
100
AcDbEntity
  8
3
100
AcDbLine
 10
1.828740157480314
 20
1.924212598425197
 30
0.0
 11
1.834645669291338
 21
1.924212598425197
 31
0.0
  0
LINE
  5
1EEC
330
1E
100
AcDbEntity
  8
3
100
AcDbLine
 10
1.829724409448818
 20
1.908464566929133
 30
0.0
 11
1.828740157480314
 21
1.924212598425197
 31
0.0
  0
LINE
  5
1EED
330
1E
100
AcDbEntity
  8
3
100
AcDbLine
 10
2.056102362204724
 20
1.908464566929133
 30
0.0
 11
1.829724409448818
 21
1.908464566929133
 31
0.0
  0
LINE
  5
1EEE
330
1E
100
AcDbEntity
  8
3
100
AcDbLine
 10
1.834645669291338
 20
1.924212598425197
 30
0.0
 11
1.836614173228346
 21
1.908464566929133
 31
0.0
  0
LINE
  5
1EEF
330
1E
100
AcDbEntity
  8
3
100
AcDbLine
 10
1.834645669291338
 20
1.924212598425197
 30
0.0
 11
2.052165354330708
 21
1.924212598425197
 31
0.0
  0
LINE
  5
1EF0
330
1E
100
AcDbEntity
  8
3
100
AcDbLine
 10
2.0501968503937
 20
1.908464566929133
 30
0.0
 11
2.052165354330708
 21
1.924212598425197
 31
0.0
  0
LINE
  5
1EF1
330
1E
100
AcDbEntity
  8
3
100
AcDbLine
 10
1.193897637795275
 20
1.924212598425197
 30
0.0
 11
1.199803149606299
 21
1.924212598425197
 31
0.0
  0
LINE
  5
1EF2
330
1E
100
AcDbEntity
  8
3
100
AcDbLine
 10
1.194881889763779
 20
1.908464566929133
 30
0.0
 11
1.193897637795275
 21
1.924212598425197
 31
0.0
  0
LINE
  5
1EF3
330
1E
100
AcDbEntity
  8
3
100
AcDbLine
 10
1.422244094488188
 20
1.924212598425197
 30
0.0
 11
1.417322834645669
 21
1.924212598425197
 31
0.0
  0
LINE
  5
1EF9
330
1E
100
AcDbEntity
  8
3
100
AcDbLine
 10
0.8444881889763779
 20
1.924212598425197
 30
0.0
 11
1.193897637795275
 21
1.924212598425197
 31
0.0
  0
LINE
  5
1EFA
330
1E
100
AcDbEntity
  8
3
100
AcDbLine
 10
1.194881889763779
 20
1.908464566929133
 30
0.0
 11
1.421259842519685
 21
1.908464566929133
 31
0.0
  0
LINE
  5
1EFB
330
1E
100
AcDbEntity
  8
3
100
AcDbLine
 10
1.417322834645669
 20
1.924212598425197
 30
0.0
 11
1.415354330708661
 21
1.908464566929133
 31
0.0
  0
LINE
  5
1EFC
330
1E
100
AcDbEntity
  8
3
100
AcDbLine
 10
1.417322834645669
 20
1.924212598425197
 30
0.0
 11
1.199803149606299
 21
1.924212598425197
 31
0.0
  0
LINE
  5
1EFD
330
1E
100
AcDbEntity
  8
3
100
AcDbLine
 10
1.200787401574803
 20
1.908464566929133
 30
0.0
 11
1.199803149606299
 21
1.924212598425197
 31
0.0
  0
LINE
  5
1EFE
330
1E
100
AcDbEntity
  8
3
100
AcDbLine
 10
2.313976377952756
 20
1.554133858267716
 30
0.0
 11
2.345472440944881
 21
1.405511811023622
 31
0.0
  0
LINE
  5
1EFF
330
1E
100
AcDbEntity
  8
3
100
AcDbLine
 10
0.905511811023622
 20
1.405511811023622
 30
0.0
 11
0.9370078740157479
 21
1.554133858267716
 31
0.0
  0
LINE
  5
1F00
330
1E
100
AcDbEntity
  8
3
100
AcDbLine
 10
1.213582677165354
 20
1.947834645669291
 30
0.0
 11
1.40255905511811
 21
1.947834645669291
 31
0.0
  0
LINE
  5
1F01
330
1E
100
AcDbEntity
  8
3
100
AcDbLine
 10
1.40255905511811
 20
1.961614173228346
 30
0.0
 11
1.213582677165354
 21
1.961614173228346
 31
0.0
  0
LINE
  5
1F02
330
1E
100
AcDbEntity
  8
3
100
AcDbLine
 10
1.206692913385826
 20
2.279527559055117
 30
0.0
 11
1.205708661417322
 21
2.298228346456692
 31
0.0
  0
LINE
  5
1F03
330
1E
100
AcDbEntity
  8
3
100
AcDbLine
 10
1.410433070866141
 20
2.298228346456692
 30
0.0
 11
1.409448818897637
 21
2.279527559055117
 31
0.0
  0
LINE
  5
1F04
330
1E
100
AcDbEntity
  8
3
100
AcDbLine
 10
1.206692913385826
 20
2.312992125984251
 30
0.0
 11
1.409448818897637
 21
2.312992125984251
 31
0.0
  0
LINE
  5
1F05
330
1E
100
AcDbEntity
  8
3
100
AcDbLine
 10
1.409448818897637
 20
2.312992125984251
 30
0.0
 11
1.401574803149606
 21
1.970472440944881
 31
0.0
  0
LINE
  5
1F06
330
1E
100
AcDbEntity
  8
3
100
AcDbLine
 10
1.213582677165354
 20
1.933070866141732
 30
0.0
 11
1.40255905511811
 21
1.933070866141732
 31
0.0
  0
LINE
  5
1F07
330
1E
100
AcDbEntity
  8
3
100
AcDbLine
 10
1.206692913385826
 20
2.312992125984251
 30
0.0
 11
1.214566929133858
 21
1.970472440944881
 31
0.0
  0
LINE
  5
1F08
330
1E
100
AcDbEntity
  8
3
100
AcDbLine
 10
1.213582677165354
 20
1.924212598425197
 30
0.0
 11
1.213582677165354
 21
1.947834645669291
 31
0.0
  0
LINE
  5
1F09
330
1E
100
AcDbEntity
  8
3
100
AcDbLine
 10
1.40255905511811
 20
1.924212598425197
 30
0.0
 11
1.40255905511811
 21
1.947834645669291
 31
0.0
  0
LINE
  5
1F0A
330
1E
100
AcDbEntity
  8
3
100
AcDbLine
 10
1.214566929133858
 20
1.970472440944881
 30
0.0
 11
1.401574803149606
 21
1.970472440944881
 31
0.0
  0
LINE
  5
1F0B
330
1E
100
AcDbEntity
  8
3
100
AcDbLine
 10
1.401574803149606
 20
1.960629921259842
 30
0.0
 11
1.214566929133858
 21
1.960629921259842
 31
0.0
  0
LINE
  5
1F0C
330
1E
100
AcDbEntity
  8
3
100
AcDbLine
 10
1.815944881889763
 20
2.216535433070865
 30
0.0
 11
1.817913385826771
 21
2.279527559055117
 31
0.0
  0
LINE
  5
1F0D
330
1E
100
AcDbEntity
  8
3
100
AcDbLine
 10
1.808070866141732
 20
1.924212598425197
 30
0.0
 11
1.815944881889763
 21
2.216535433070865
 31
0.0
  0
LINE
  5
1F13
330
1E
100
AcDbEntity
  8
3
100
AcDbLine
 10
2.070866141732283
 20
2.216535433070865
 30
0.0
 11
2.043307086614173
 21
2.216535433070865
 31
0.0
  0
LINE
  5
1F14
330
1E
100
AcDbEntity
  8
3
100
AcDbLine
 10
1.436023622047243
 20
2.216535433070865
 30
0.0
 11
1.433070866141732
 21
2.279527559055117
 31
0.0
  0
LINE
  5
1F15
330
1E
100
AcDbEntity
  8
3
100
AcDbLine
 10
1.442913385826771
 20
1.924212598425197
 30
0.0
 11
1.436023622047243
 21
2.216535433070865
 31
0.0
  0
LINE
  5
1F1B
330
1E
100
AcDbEntity
  8
3
100
AcDbLine
 10
1.181102362204724
 20
2.216535433070865
 30
0.0
 11
1.209645669291338
 21
2.216535433070865
 31
0.0
  0
LINE
  5
1F1C
330
1E
100
AcDbEntity
  8
3
100
AcDbLine
 10
2.037401574803149
 20
1.947834645669291
 30
0.0
 11
1.849409448818897
 21
1.947834645669291
 31
0.0
  0
LINE
  5
1F1D
330
1E
100
AcDbEntity
  8
3
100
AcDbLine
 10
1.848425196850394
 20
1.961614173228346
 30
0.0
 11
2.037401574803149
 21
1.961614173228346
 31
0.0
  0
LINE
  5
1F1E
330
1E
100
AcDbEntity
  8
3
100
AcDbLine
 10
2.045275590551181
 20
2.279527559055117
 30
0.0
 11
2.045275590551181
 21
2.298228346456692
 31
0.0
  0
LINE
  5
1F1F
330
1E
100
AcDbEntity
  8
3
100
AcDbLine
 10
1.840551181102362
 20
2.298228346456692
 30
0.0
 11
1.841535433070866
 21
2.279527559055117
 31
0.0
  0
LINE
  5
1F25
330
1E
100
AcDbEntity
  8
3
100
AcDbLine
 10
2.037401574803149
 20
1.933070866141732
 30
0.0
 11
1.849409448818897
 21
1.933070866141732
 31
0.0
  0
LINE
  5
1F26
330
1E
100
AcDbEntity
  8
3
100
AcDbLine
 10
2.044291338582677
 20
2.312992125984251
 30
0.0
 11
2.036417322834645
 21
1.970472440944881
 31
0.0
  0
LINE
  5
1F27
330
1E
100
AcDbEntity
  8
3
100
AcDbLine
 10
2.037401574803149
 20
1.924212598425197
 30
0.0
 11
2.037401574803149
 21
1.947834645669291
 31
0.0
  0
LINE
  5
1F28
330
1E
100
AcDbEntity
  8
3
100
AcDbLine
 10
1.849409448818897
 20
1.924212598425197
 30
0.0
 11
1.849409448818897
 21
1.947834645669291
 31
0.0
  0
LINE
  5
1F29
330
1E
100
AcDbEntity
  8
3
100
AcDbLine
 10
1.850393700787401
 20
1.960629921259842
 30
0.0
 11
2.036417322834645
 21
1.960629921259842
 31
0.0
  0
LINE
  5
1F2A
330
1E
100
AcDbEntity
  8
3
100
AcDbLine
 10
2.188976377952756
 20
2.279527559055117
 30
0.0
 11
2.138779527559055
 21
2.279527559055117
 31
0.0
  0
LINE
  5
1F2B
330
1E
100
AcDbEntity
  8
3
100
AcDbLine
 10
1.841535433070866
 20
2.279527559055117
 30
0.0
 11
1.784448818897637
 21
2.279527559055117
 31
0.0
  0
LINE
  5
1F2C
330
1E
100
AcDbEntity
  8
3
100
AcDbLine
 10
2.256889763779527
 20
2.295275590551181
 30
0.0
 11
2.255905511811023
 21
2.251968503937007
 31
0.0
  0
LINE
  5
1F2D
330
1E
100
AcDbEntity
  8
3
100
AcDbLine
 10
2.188976377952756
 20
2.229330708661417
 30
0.0
 11
2.187992125984251
 21
2.251968503937007
 31
0.0
  0
LINE
  5
1F2E
330
1E
100
AcDbEntity
  8
3
100
AcDbLine
 10
2.255905511811023
 20
2.251968503937007
 30
0.0
 11
2.255905511811023
 21
1.920275590551181
 31
0.0
  0
LINE
  5
1F34
330
1E
100
AcDbEntity
  8
3
100
AcDbLine
 10
1.436023622047243
 20
2.216535433070865
 30
0.0
 11
1.40748031496063
 21
2.216535433070865
 31
0.0
  0
LINE
  5
1F3B
330
1E
100
AcDbEntity
  8
3
100
AcDbLine
 10
2.045275590551181
 20
2.279527559055117
 30
0.0
 11
2.101377952755905
 21
2.279527559055117
 31
0.0
  0
LINE
  5
1F3C
330
1E
100
AcDbEntity
  8
3
100
AcDbLine
 10
2.187992125984251
 20
2.251968503937007
 30
0.0
 11
2.187992125984251
 21
2.298228346456692
 31
0.0
  0
LINE
  5
1F3D
330
1E
100
AcDbEntity
  8
3
100
AcDbLine
 10
2.188976377952756
 20
2.295275590551181
 30
0.0
 11
2.256889763779527
 21
2.295275590551181
 31
0.0
  0
LINE
  5
1F3E
330
1E
100
AcDbEntity
  8
3
100
AcDbLine
 10
2.187992125984251
 20
2.251968503937007
 30
0.0
 11
2.188976377952756
 21
2.295275590551181
 31
0.0
  0
LINE
  5
1F3F
330
1E
100
AcDbEntity
  8
3
100
AcDbLine
 10
1.696850393700787
 20
2.341535433070865
 30
0.0
 11
2.188976377952756
 21
2.341535433070865
 31
0.0
  0
LINE
  5
1F40
330
1E
100
AcDbEntity
  8
3
100
AcDbLine
 10
1.697834645669291
 20
2.279527559055117
 30
0.0
 11
1.747047244094488
 21
2.279527559055117
 31
0.0
  0
LINE
  5
1F41
330
1E
100
AcDbEntity
  8
3
100
AcDbLine
 10
1.696850393700787
 20
2.341535433070865
 30
0.0
 11
1.696850393700787
 21
2.295275590551181
 31
0.0
  0
LINE
  5
1F4C
330
1E
100
AcDbEntity
  8
3
100
AcDbLine
 10
1.697834645669291
 20
2.229330708661417
 30
0.0
 11
1.697834645669291
 21
2.251968503937007
 31
0.0
  0
LINE
  5
1F4D
330
1E
100
AcDbEntity
  8
3
100
AcDbLine
 10
1.697834645669291
 20
2.229330708661417
 30
0.0
 11
1.697834645669291
 21
2.279527559055117
 31
0.0
  0
LINE
  5
1F4E
330
1E
100
AcDbEntity
  8
3
100
AcDbLine
 10
1.553149606299212
 20
2.298228346456692
 30
0.0
 11
1.554133858267716
 21
2.341535433070865
 31
0.0
  0
LINE
  5
1F4F
330
1E
100
AcDbEntity
  8
3
100
AcDbLine
 10
1.554133858267716
 20
2.279527559055117
 30
0.0
 11
1.553149606299212
 21
2.298228346456692
 31
0.0
  0
LINE
  5
1F50
330
1E
100
AcDbEntity
  8
3
100
AcDbLine
 10
1.696850393700787
 20
2.295275590551181
 30
0.0
 11
1.554133858267716
 21
2.295275590551181
 31
0.0
  0
LINE
  5
1F51
330
1E
100
AcDbEntity
  8
3
100
AcDbLine
 10
1.554133858267716
 20
2.229330708661417
 30
0.0
 11
1.554133858267716
 21
2.279527559055117
 31
0.0
  0
LINE
  5
1F52
330
1E
100
AcDbEntity
  8
3
100
AcDbLine
 10
1.554133858267716
 20
2.229330708661417
 30
0.0
 11
1.697834645669291
 21
2.229330708661417
 31
0.0
  0
LINE
  5
1F58
330
1E
100
AcDbEntity
  8
3
100
AcDbLine
 10
1.409448818897637
 20
2.279527559055117
 30
0.0
 11
1.466535433070866
 21
2.279527559055117
 31
0.0
  0
LINE
  5
1F59
330
1E
100
AcDbEntity
  8
3
100
AcDbLine
 10
1.554133858267716
 20
2.341535433070865
 30
0.0
 11
1.554133858267716
 21
2.295275590551181
 31
0.0
  0
LINE
  5
1F5A
330
1E
100
AcDbEntity
  8
3
100
AcDbLine
 10
1.062007874015748
 20
2.341535433070865
 30
0.0
 11
1.554133858267716
 21
2.341535433070865
 31
0.0
  0
LINE
  5
1F5B
330
1E
100
AcDbEntity
  8
3
100
AcDbLine
 10
1.062007874015748
 20
2.341535433070865
 30
0.0
 11
1.062992125984251
 21
2.298228346456692
 31
0.0
  0
LINE
  5
1F5C
330
1E
100
AcDbEntity
  8
3
100
AcDbLine
 10
1.062992125984251
 20
2.279527559055117
 30
0.0
 11
1.112204724409448
 21
2.279527559055117
 31
0.0
  0
LINE
  5
1F5D
330
1E
100
AcDbEntity
  8
3
100
AcDbLine
 10
1.062992125984251
 20
2.298228346456692
 30
0.0
 11
1.062992125984251
 21
2.279527559055117
 31
0.0
  0
LINE
  5
1F5E
330
1E
100
AcDbEntity
  8
3
100
AcDbLine
 10
1.062992125984251
 20
2.229330708661417
 30
0.0
 11
1.062992125984251
 21
2.279527559055117
 31
0.0
  0
LINE
  5
1F5F
330
1E
100
AcDbEntity
  8
3
100
AcDbLine
 10
1.062007874015748
 20
2.341535433070865
 30
0.0
 11
1.062007874015748
 21
2.295275590551181
 31
0.0
  0
LINE
  5
1F65
330
1E
100
AcDbEntity
  8
3
100
AcDbLine
 10
0.9950787401574801
 20
1.958661417322834
 30
0.0
 11
0.9950787401574801
 21
2.295275590551181
 31
0.0
  0
LINE
  5
1F66
330
1E
100
AcDbEntity
  8
3
100
AcDbLine
 10
0.996062992125984
 20
2.251968503937007
 30
0.0
 11
0.9950787401574801
 21
2.295275590551181
 31
0.0
  0
LINE
  5
1F67
330
1E
100
AcDbEntity
  8
3
100
AcDbLine
 10
0.996062992125984
 20
1.920275590551181
 30
0.0
 11
0.996062992125984
 21
2.251968503937007
 31
0.0
  0
LINE
  5
1F68
330
1E
100
AcDbEntity
  8
3
100
AcDbLine
 10
1.062992125984251
 20
2.251968503937007
 30
0.0
 11
1.062992125984251
 21
2.298228346456692
 31
0.0
  0
LINE
  5
1F69
330
1E
100
AcDbEntity
  8
3
100
AcDbLine
 10
1.815944881889763
 20
2.216535433070865
 30
0.0
 11
1.84251968503937
 21
2.216535433070865
 31
0.0
  0
LINE
  5
1F6A
330
1E
100
AcDbEntity
  8
3
100
AcDbLine
 10
1.062992125984251
 20
2.229330708661417
 30
0.0
 11
1.062992125984251
 21
2.251968503937007
 31
0.0
  0
LINE
  5
1F6B
330
1E
100
AcDbEntity
  8
3
100
AcDbLine
 10
0.9950787401574801
 20
2.229330708661417
 30
0.0
 11
1.062992125984251
 21
2.229330708661417
 31
0.0
  0
LINE
  5
1F71
330
1E
100
AcDbEntity
  8
3
100
AcDbLine
 10
1.781496062992125
 20
1.984251968503937
 30
0.0
 11
1.785433070866141
 21
2.279527559055117
 31
0.0
  0
LINE
  5
1F77
330
1E
100
AcDbEntity
  8
3
100
AcDbLine
 10
1.781496062992125
 20
1.984251968503937
 30
0.0
 11
1.781496062992125
 21
2.062992125984251
 31
0.0
  0
LINE
  5
1F78
330
1E
100
AcDbEntity
  8
3
100
AcDbLine
 10
1.750984251968504
 20
2.062992125984251
 30
0.0
 11
1.781496062992125
 21
2.062992125984251
 31
0.0
  0
LINE
  5
1F79
330
1E
100
AcDbEntity
  8
3
100
AcDbLine
 10
1.116141732283464
 20
1.984251968503937
 30
0.0
 11
1.146653543307086
 21
1.984251968503937
 31
0.0
  0
LINE
  5
1F7A
330
1E
100
AcDbEntity
  8
3
100
AcDbLine
 10
1.145669291338582
 20
1.984251968503937
 30
0.0
 11
1.116141732283464
 21
1.984251968503937
 31
0.0
  0
LINE
  5
1F7B
330
1E
100
AcDbEntity
  8
3
100
AcDbLine
 10
1.146653543307086
 20
1.984251968503937
 30
0.0
 11
1.149606299212598
 21
2.279527559055117
 31
0.0
  0
LINE
  5
1F7C
330
1E
100
AcDbEntity
  8
3
100
AcDbLine
 10
1.112204724409448
 20
2.279527559055117
 30
0.0
 11
1.116141732283464
 21
1.984251968503937
 31
0.0
  0
LINE
  5
1F7D
330
1E
100
AcDbEntity
  8
3
100
AcDbLine
 10
1.116141732283464
 20
1.984251968503937
 30
0.0
 11
1.116141732283464
 21
2.062992125984251
 31
0.0
  0
LINE
  5
1F7E
330
1E
100
AcDbEntity
  8
3
100
AcDbLine
 10
1.145669291338582
 20
1.984251968503937
 30
0.0
 11
1.145669291338582
 21
2.062992125984251
 31
0.0
  0
LINE
  5
1F7F
330
1E
100
AcDbEntity
  8
3
100
AcDbLine
 10
1.116141732283464
 20
2.062992125984251
 30
0.0
 11
1.145669291338582
 21
2.062992125984251
 31
0.0
  0
LINE
  5
1F8B
330
1E
100
AcDbEntity
  8
3
100
AcDbLine
 10
1.470472440944881
 20
1.984251968503937
 30
0.0
 11
1.470472440944881
 21
2.062992125984251
 31
0.0
  0
LINE
  5
1F8C
330
1E
100
AcDbEntity
  8
3
100
AcDbLine
 10
1.5
 20
2.062992125984251
 30
0.0
 11
1.470472440944881
 21
2.062992125984251
 31
0.0
  0
LINE
  5
1F8D
330
1E
100
AcDbEntity
  8
3
100
AcDbLine
 10
1.554133858267716
 20
2.279527559055117
 30
0.0
 11
1.503937007874015
 21
2.279527559055117
 31
0.0
  0
LINE
  5
1F8E
330
1E
100
AcDbEntity
  8
3
100
AcDbLine
 10
1.206692913385826
 20
2.279527559055117
 30
0.0
 11
1.149606299212598
 21
2.279527559055117
 31
0.0
  0
LINE
  5
1F94
330
1E
100
AcDbEntity
  8
3
100
AcDbLine
 10
2.138779527559055
 20
2.279527559055117
 30
0.0
 11
2.135826771653543
 21
1.984251968503937
 31
0.0
  0
LINE
  5
1F95
330
1E
100
AcDbEntity
  8
3
100
AcDbLine
 10
2.134842519685039
 20
1.984251968503937
 30
0.0
 11
2.134842519685039
 21
2.062992125984251
 31
0.0
  0
LINE
  5
1F96
330
1E
100
AcDbEntity
  8
3
100
AcDbLine
 10
2.105314960629921
 20
1.984251968503937
 30
0.0
 11
2.105314960629921
 21
2.062992125984251
 31
0.0
  0
LINE
  5
1F97
330
1E
100
AcDbEntity
  8
3
100
AcDbLine
 10
2.134842519685039
 20
2.062992125984251
 30
0.0
 11
2.105314960629921
 21
2.062992125984251
 31
0.0
  0
LINE
  5
1F98
330
1E
100
AcDbEntity
  8
3
100
AcDbLine
 10
2.101377952755905
 20
2.279527559055117
 30
0.0
 11
2.104330708661417
 21
2.062992125984251
 31
0.0
  0
LINE
  5
1F99
330
1E
100
AcDbEntity
  8
3
100
AcDbLine
 10
0.8444881889763779
 20
1.736220472440944
 30
0.0
 11
0.9370078740157479
 21
1.736220472440944
 31
0.0
  0
LINE
  5
1F9A
330
1E
100
AcDbEntity
  8
3
100
AcDbLine
 10
0.8444881889763779
 20
1.736220472440944
 30
0.0
 11
0.8444881889763779
 21
1.554133858267716
 31
0.0
  0
LINE
  5
1F9B
330
1E
100
AcDbEntity
  8
3
100
AcDbLine
 10
0.8090551181102362
 20
1.554133858267716
 30
0.0
 11
0.8444881889763779
 21
1.554133858267716
 31
0.0
  0
LINE
  5
1F9C
330
1E
100
AcDbEntity
  8
3
100
AcDbLine
 10
0.8090551181102362
 20
1.535433070866141
 30
0.0
 11
0.8090551181102362
 21
1.554133858267716
 31
0.0
  0
LINE
  5
1F9D
330
1E
100
AcDbEntity
  8
3
100
AcDbLine
 10
0.8848425196850392
 20
1.405511811023622
 30
0.0
 11
0.905511811023622
 21
1.405511811023622
 31
0.0
  0
LINE
  5
1F9E
330
1E
100
AcDbEntity
  8
3
100
AcDbLine
 10
0.8848425196850392
 20
1.405511811023622
 30
0.0
 11
0.8090551181102362
 21
1.535433070866141
 31
0.0
  0
LINE
  5
1F9F
330
1E
100
AcDbEntity
  8
3
100
AcDbLine
 10
0.905511811023622
 20
1.405511811023622
 30
0.0
 11
0.8848425196850392
 21
1.405511811023622
 31
0.0
  0
LINE
  5
1FA0
330
1E
100
AcDbEntity
  8
3
100
AcDbLine
 10
0.9370078740157479
 20
1.554133858267716
 30
0.0
 11
0.9370078740157479
 21
1.736220472440944
 31
0.0
  0
LINE
  5
1FA1
330
1E
100
AcDbEntity
  8
3
100
AcDbLine
 10
2.406496062992125
 20
1.736220472440944
 30
0.0
 11
2.313976377952756
 21
1.736220472440944
 31
0.0
  0
LINE
  5
1FA2
330
1E
100
AcDbEntity
  8
3
100
AcDbLine
 10
2.406496062992125
 20
1.736220472440944
 30
0.0
 11
2.406496062992125
 21
1.554133858267716
 31
0.0
  0
LINE
  5
1FA3
330
1E
100
AcDbEntity
  8
3
100
AcDbLine
 10
2.313976377952756
 20
1.554133858267716
 30
0.0
 11
2.313976377952756
 21
1.736220472440944
 31
0.0
  0
LINE
  5
1FA4
330
1E
100
AcDbEntity
  8
3
100
AcDbLine
 10
2.345472440944881
 20
1.405511811023622
 30
0.0
 11
2.367125984251968
 21
1.405511811023622
 31
0.0
  0
LINE
  5
1FA5
330
1E
100
AcDbEntity
  8
3
100
AcDbLine
 10
2.441929133858267
 20
1.554133858267716
 30
0.0
 11
2.406496062992125
 21
1.554133858267716
 31
0.0
  0
LINE
  5
1FA6
330
1E
100
AcDbEntity
  8
3
100
AcDbLine
 10
2.441929133858267
 20
1.535433070866141
 30
0.0
 11
2.441929133858267
 21
1.554133858267716
 31
0.0
  0
LINE
  5
1FA7
330
1E
100
AcDbEntity
  8
3
100
AcDbLine
 10
2.367125984251968
 20
1.405511811023622
 30
0.0
 11
2.441929133858267
 21
1.535433070866141
 31
0.0
  0
LINE
  5
1FA8
330
1E
100
AcDbEntity
  8
3
100
AcDbLine
 10
0.9370078740157479
 20
1.924212598425197
 30
0.0
 11
0.9950787401574801
 21
1.924212598425197
 31
0.0
  0
LINE
  5
1FA9
330
1E
100
AcDbEntity
  8
3
100
AcDbLine
 10
0.8444881889763779
 20
1.736220472440944
 30
0.0
 11
0.8444881889763779
 21
1.794291338582676
 31
0.0
  0
LINE
  5
1FAA
330
1E
100
AcDbEntity
  8
3
100
AcDbLine
 10
0.9370078740157479
 20
1.736220472440944
 30
0.0
 11
0.8444881889763779
 21
1.736220472440944
 31
0.0
  0
LINE
  5
1FAB
330
1E
100
AcDbEntity
  8
3
100
AcDbLine
 10
2.313976377952756
 20
1.924212598425197
 30
0.0
 11
0.9370078740157479
 21
1.924212598425197
 31
0.0
  0
LINE
  5
1FAC
330
1E
100
AcDbEntity
  8
3
100
AcDbLine
 10
2.406496062992125
 20
1.736220472440944
 30
0.0
 11
2.406496062992125
 21
1.924212598425197
 31
0.0
  0
LINE
  5
1FAD
330
1E
100
AcDbEntity
  8
3
100
AcDbLine
 10
2.406496062992125
 20
1.924212598425197
 30
0.0
 11
2.057086614173228
 21
1.924212598425197
 31
0.0
  0
LINE
  5
1FAE
330
1E
100
AcDbEntity
  8
3
100
AcDbLine
 10
0.8444881889763779
 20
1.736220472440944
 30
0.0
 11
2.406496062992125
 21
1.736220472440944
 31
0.0
  0
LINE
  5
1FAF
330
1E
100
AcDbEntity
  8
3
100
AcDbLine
 10
0.8444881889763779
 20
1.736220472440944
 30
0.0
 11
0.8444881889763779
 21
1.924212598425197
 31
0.0
  0
LINE
  5
1FB0
330
1E
100
AcDbEntity
  8
3
100
AcDbLine
 10
2.313976377952756
 20
1.924212598425197
 30
0.0
 11
2.313976377952756
 21
2.418307086614173
 31
0.0
  0
LINE
  5
1FB1
330
1E
100
AcDbEntity
  8
3
100
AcDbLine
 10
2.406496062992125
 20
2.353346456692912
 30
0.0
 11
2.406496062992125
 21
1.924212598425197
 31
0.0
  0
LINE
  5
1FB2
330
1E
100
AcDbEntity
  8
3
100
AcDbLine
 10
2.313976377952756
 20
2.420275590551181
 30
0.0
 11
2.313976377952756
 21
1.924212598425197
 31
0.0
  0
LINE
  5
1FB3
330
1E
100
AcDbEntity
  8
3
100
AcDbLine
 10
0.9370078740157479
 20
2.420275590551181
 30
0.0
 11
2.313976377952756
 21
2.420275590551181
 31
0.0
  0
LINE
  5
1FB4
330
1E
100
AcDbEntity
  8
3
100
AcDbLine
 10
0.9370078740157479
 20
1.924212598425197
 30
0.0
 11
0.9370078740157479
 21
2.420275590551181
 31
0.0
  0
LINE
  5
1FB5
330
1E
100
AcDbEntity
  8
3
100
AcDbLine
 10
0.8444881889763779
 20
2.353346456692912
 30
0.0
 11
0.8444881889763779
 21
1.794291338582676
 31
0.0
  0
LINE
  5
1FB6
330
1E
100
AcDbEntity
  8
3
100
AcDbLine
 10
0.8444881889763779
 20
1.924212598425197
 30
0.0
 11
0.8444881889763779
 21
2.353346456692912
 31
0.0
  0
LINE
  5
1FB7
330
1E
100
AcDbEntity
  8
3
100
AcDbLine
 10
0.9370078740157479
 20
2.418307086614173
 30
0.0
 11
0.9370078740157479
 21
1.924212598425197
 31
0.0
  0
LINE
  5
1FB8
330
1E
100
AcDbEntity
  8
3
100
AcDbLine
 10
0.9950787401574801
 20
1.924212598425197
 30
0.0
 11
2.255905511811023
 21
1.924212598425197
 31
0.0
  0
LINE
  5
1FB9
330
1E
100
AcDbEntity
  8
3
100
AcDbLine
 10
0.937992125984252
 20
2.446850393700787
 30
0.0
 11
2.313976377952756
 21
2.446850393700787
 31
0.0
  0
LINE
  5
1FBA
330
1E
100
AcDbEntity
  8
3
100
AcDbLine
 10
1.973425196850394
 20
1.855314960629921
 30
0.0
 11
1.974409448818897
 21
1.803149606299212
 31
0.0
  0
LINE
  5
1FC0
330
1E
100
AcDbEntity
  8
3
100
AcDbLine
 10
2.312992125984251
 20
1.803149606299212
 30
0.0
 11
2.313976377952756
 21
1.855314960629921
 31
0.0
  0
LINE
  5
1FC1
330
1E
100
AcDbEntity
  8
3
100
AcDbLine
 10
1.974409448818897
 20
1.803149606299212
 30
0.0
 11
2.312992125984251
 21
1.803149606299212
 31
0.0
  0
LINE
  5
1FC2
330
1E
100
AcDbEntity
  8
3
100
AcDbLine
 10
2.312992125984251
 20
1.786417322834645
 30
0.0
 11
1.974409448818897
 21
1.786417322834645
 31
0.0
  0
LINE
  5
1FC3
330
1E
100
AcDbEntity
  8
3
100
AcDbLine
 10
2.313976377952756
 20
1.855314960629921
 30
0.0
 11
2.312992125984251
 21
1.786417322834645
 31
0.0
  0
LINE
  5
1FC4
330
1E
100
AcDbEntity
  8
3
100
AcDbLine
 10
1.974409448818897
 20
1.786417322834645
 30
0.0
 11
2.312992125984251
 21
1.786417322834645
 31
0.0
  0
LINE
  5
1FC5
330
1E
100
AcDbEntity
  8
3
100
AcDbLine
 10
1.276574803149606
 20
1.786417322834645
 30
0.0
 11
1.27755905511811
 21
1.786417322834645
 31
0.0
  0
LINE
  5
1FC6
330
1E
100
AcDbEntity
  8
3
100
AcDbLine
 10
1.278543307086614
 20
1.855314960629921
 30
0.0
 11
1.276574803149606
 21
1.803149606299212
 31
0.0
  0
LINE
  5
1FCC
330
1E
100
AcDbEntity
  8
3
100
AcDbLine
 10
0.9389763779527559
 20
1.803149606299212
 30
0.0
 11
0.9370078740157479
 21
1.855314960629921
 31
0.0
  0
LINE
  5
1FCD
330
1E
100
AcDbEntity
  8
3
100
AcDbLine
 10
1.276574803149606
 20
1.803149606299212
 30
0.0
 11
0.9389763779527559
 21
1.803149606299212
 31
0.0
  0
LINE
  5
1FCE
330
1E
100
AcDbEntity
  8
3
100
AcDbLine
 10
0.9389763779527559
 20
1.786417322834645
 30
0.0
 11
1.276574803149606
 21
1.786417322834645
 31
0.0
  0
LINE
  5
1FD4
330
1E
100
AcDbEntity
  8
3
100
AcDbLine
 10
1.27755905511811
 20
1.786417322834645
 30
0.0
 11
0.937992125984252
 21
1.786417322834645
 31
0.0
  0
LINE
  5
1FD5
330
1E
100
AcDbEntity
  8
3
100
AcDbLine
 10
1.911417322834645
 20
1.786417322834645
 30
0.0
 11
1.912401574803149
 21
1.786417322834645
 31
0.0
  0
LINE
  5
1FD6
330
1E
100
AcDbEntity
  8
3
100
AcDbLine
 10
1.913385826771653
 20
1.855314960629921
 30
0.0
 11
1.911417322834645
 21
1.803149606299212
 31
0.0
  0
LINE
  5
1FDC
330
1E
100
AcDbEntity
  8
3
100
AcDbLine
 10
1.656496062992125
 20
1.803149606299212
 30
0.0
 11
1.655511811023622
 21
1.855314960629921
 31
0.0
  0
LINE
  5
1FDD
330
1E
100
AcDbEntity
  8
3
100
AcDbLine
 10
1.911417322834645
 20
1.803149606299212
 30
0.0
 11
1.656496062992125
 21
1.803149606299212
 31
0.0
  0
LINE
  5
1FDE
330
1E
100
AcDbEntity
  8
3
100
AcDbLine
 10
1.65748031496063
 20
1.786417322834645
 30
0.0
 11
1.911417322834645
 21
1.786417322834645
 31
0.0
  0
LINE
  5
1FE4
330
1E
100
AcDbEntity
  8
3
100
AcDbLine
 10
1.912401574803149
 20
1.786417322834645
 30
0.0
 11
1.656496062992125
 21
1.786417322834645
 31
0.0
  0
LINE
  5
1FE5
330
1E
100
AcDbEntity
  8
3
100
AcDbLine
 10
1.339566929133858
 20
1.786417322834645
 30
0.0
 11
1.594488188976378
 21
1.786417322834645
 31
0.0
  0
LINE
  5
1FE6
330
1E
100
AcDbEntity
  8
3
100
AcDbLine
 10
1.594488188976378
 20
1.803149606299212
 30
0.0
 11
1.339566929133858
 21
1.803149606299212
 31
0.0
  0
LINE
  5
1FE7
330
1E
100
AcDbEntity
  8
3
100
AcDbLine
 10
1.338582677165354
 20
1.786417322834645
 30
0.0
 11
1.339566929133858
 21
1.786417322834645
 31
0.0
  0
LINE
  5
1FE8
330
1E
100
AcDbEntity
  8
3
100
AcDbLine
 10
1.338582677165354
 20
1.855314960629921
 30
0.0
 11
1.338582677165354
 21
1.786417322834645
 31
0.0
  0
LINE
  5
1FE9
330
1E
100
AcDbEntity
  8
3
100
AcDbLine
 10
1.339566929133858
 20
1.803149606299212
 30
0.0
 11
1.338582677165354
 21
1.855314960629921
 31
0.0
  0
LINE
  5
1FEA
330
1E
100
AcDbEntity
  8
3
100
AcDbLine
 10
1.595472440944881
 20
1.855314960629921
 30
0.0
 11
1.594488188976378
 21
1.803149606299212
 31
0.0
  0
LINE
  5
1FEB
330
1E
100
AcDbEntity
  8
3
100
AcDbLine
 10
1.594488188976378
 20
1.786417322834645
 30
0.0
 11
1.595472440944881
 21
1.855314960629921
 31
0.0
  0
LINE
  5
1FEC
330
1E
100
AcDbEntity
  8
3
100
AcDbLine
 10
1.595472440944881
 20
1.855314960629921
 30
0.0
 11
1.338582677165354
 21
1.855314960629921
 31
0.0
  0
LINE
  5
1FED
330
1E
100
AcDbEntity
  8
3
100
AcDbLine
 10
3.391732283464566
 20
1.405511811023622
 30
0.0
 11
3.716535433070865
 21
1.405511811023622
 31
0.0
  0
LINE
  5
1FEE
330
1E
100
AcDbEntity
  8
3
100
AcDbLine
 10
1.594488188976378
 20
1.786417322834645
 30
0.0
 11
1.338582677165354
 21
1.786417322834645
 31
0.0
  0
LINE
  5
1FEF
330
1E
100
AcDbEntity
  8
3
100
AcDbLine
 10
3.716535433070865
 20
1.535433070866141
 30
0.0
 11
3.716535433070865
 21
1.405511811023622
 31
0.0
  0
LINE
  5
1FF0
330
1E
100
AcDbEntity
  8
3
100
AcDbLine
 10
3.391732283464566
 20
1.554133858267716
 30
0.0
 11
3.716535433070865
 21
1.554133858267716
 31
0.0
  0
LINE
  5
1FF1
330
1E
100
AcDbEntity
  8
3
100
AcDbLine
 10
3.391732283464566
 20
1.535433070866141
 30
0.0
 11
3.391732283464566
 21
1.554133858267716
 31
0.0
  0
LINE
  5
1FF2
330
1E
100
AcDbEntity
  8
3
100
AcDbLine
 10
3.391732283464566
 20
1.736220472440944
 30
0.0
 11
3.391732283464566
 21
1.554133858267716
 31
0.0
  0
LINE
  5
1FF8
330
1E
100
AcDbEntity
  8
3
100
AcDbLine
 10
3.391732283464566
 20
1.405511811023622
 30
0.0
 11
3.716535433070865
 21
1.405511811023622
 31
0.0
  0
LINE
  5
1FF9
330
1E
100
AcDbEntity
  8
3
100
AcDbLine
 10
3.391732283464566
 20
1.554133858267716
 30
0.0
 11
3.716535433070865
 21
1.554133858267716
 31
0.0
  0
LINE
  5
1FFA
330
1E
100
AcDbEntity
  8
3
100
AcDbLine
 10
3.391732283464566
 20
1.535433070866141
 30
0.0
 11
3.716535433070865
 21
1.535433070866141
 31
0.0
  0
LINE
  5
1FFB
330
1E
100
AcDbEntity
  8
3
100
AcDbLine
 10
3.391732283464566
 20
1.405511811023622
 30
0.0
 11
3.391732283464566
 21
1.535433070866141
 31
0.0
  0
LINE
  5
1FFC
330
1E
100
AcDbEntity
  8
3
100
AcDbLine
 10
3.214566929133858
 20
1.924212598425197
 30
0.0
 11
2.886811023622047
 21
1.924212598425197
 31
0.0
  0
LINE
  5
2067
330
1E
100
AcDbEntity
  8
3
100
AcDbLine
 10
1.401574803149606
 20
1.960629921259842
 30
0.0
 11
1.401574803149606
 21
1.970472440944881
 31
0.0
  0
LINE
  5
2068
330
1E
100
AcDbEntity
  8
3
100
AcDbLine
 10
1.214566929133858
 20
1.960629921259842
 30
0.0
 11
1.214566929133858
 21
1.970472440944881
 31
0.0
  0
LINE
  5
2073
330
1E
100
AcDbEntity
  8
3
100
AcDbLine
 10
1.850393700787401
 20
1.960629921259842
 30
0.0
 11
1.849409448818897
 21
1.970472440944881
 31
0.0
  0
LINE
  5
2074
330
1E
100
AcDbEntity
  8
3
100
AcDbLine
 10
2.036417322834645
 20
1.960629921259842
 30
0.0
 11
2.036417322834645
 21
1.970472440944881
 31
0.0
  0
LINE
  5
20C9
330
1E
100
AcDbEntity
  8
3
100
AcDbLine
 10
4.221456692913386
 20
1.885826771653543
 30
0.0
 11
4.221456692913386
 21
1.906496062992125
 31
0.0
  0
LINE
  5
20CA
330
1E
100
AcDbEntity
  8
3
100
AcDbLine
 10
4.221456692913386
 20
1.906496062992125
 30
0.0
 11
4.221456692913386
 21
1.919291338582676
 31
0.0
  0
LINE
  5
20CB
330
1E
100
AcDbEntity
  8
3
100
AcDbLine
 10
4.221456692913386
 20
1.919291338582676
 30
0.0
 11
4.221456692913386
 21
1.924212598425197
 31
0.0
  0
LINE
  5
20CC
330
1E
100
AcDbEntity
  8
3
100
AcDbLine
 10
4.221456692913386
 20
1.794291338582676
 30
0.0
 11
4.221456692913386
 21
1.827755905511811
 31
0.0
  0
LINE
  5
20CD
330
1E
100
AcDbEntity
  8
3
100
AcDbLine
 10
4.221456692913386
 20
1.827755905511811
 30
0.0
 11
4.221456692913386
 21
1.859251968503937
 31
0.0
  0
LINE
  5
20CE
330
1E
100
AcDbEntity
  8
3
100
AcDbLine
 10
4.221456692913386
 20
1.859251968503937
 30
0.0
 11
4.221456692913386
 21
1.885826771653543
 31
0.0
  0
LINE
  5
20CF
330
1E
100
AcDbEntity
  8
3
100
AcDbLine
 10
3.08267716535433
 20
1.924212598425197
 30
0.0
 11
3.08759842519685
 21
1.924212598425197
 31
0.0
  0
LINE
  5
20D0
330
1E
100
AcDbEntity
  8
3
100
AcDbLine
 10
3.08759842519685
 20
1.924212598425197
 30
0.0
 11
3.100393700787401
 21
1.924212598425197
 31
0.0
  0
LINE
  5
20D1
330
1E
100
AcDbEntity
  8
3
100
AcDbLine
 10
3.100393700787401
 20
1.924212598425197
 30
0.0
 11
3.121062992125984
 21
1.924212598425197
 31
0.0
  0
LINE
  5
20D2
330
1E
100
AcDbEntity
  8
3
100
AcDbLine
 10
3.121062992125984
 20
1.924212598425197
 30
0.0
 11
3.148622047244094
 21
1.924212598425197
 31
0.0
  0
LINE
  5
20D3
330
1E
100
AcDbEntity
  8
3
100
AcDbLine
 10
3.148622047244094
 20
1.924212598425197
 30
0.0
 11
3.18011811023622
 21
1.924212598425197
 31
0.0
  0
LINE
  5
20D4
330
1E
100
AcDbEntity
  8
3
100
AcDbLine
 10
3.18011811023622
 20
1.924212598425197
 30
0.0
 11
3.214566929133858
 21
1.924212598425197
 31
0.0
  0
LINE
  5
20D5
330
1E
100
AcDbEntity
  8
3
100
AcDbLine
 10
0.9389763779527559
 20
1.786417322834645
 30
0.0
 11
0.9389763779527559
 21
1.789370078740157
 31
0.0
  0
LINE
  5
20D6
330
1E
100
AcDbEntity
  8
3
100
AcDbLine
 10
0.9389763779527559
 20
1.789370078740157
 30
0.0
 11
0.9389763779527559
 21
1.796259842519685
 31
0.0
  0
LINE
  5
20D7
330
1E
100
AcDbEntity
  8
3
100
AcDbLine
 10
0.9389763779527559
 20
1.796259842519685
 30
0.0
 11
0.9389763779527559
 21
1.803149606299212
 31
0.0
  0
LINE
  5
20D8
330
1E
100
AcDbEntity
  8
3
100
AcDbLine
 10
1.339566929133858
 20
1.786417322834645
 30
0.0
 11
1.339566929133858
 21
1.789370078740157
 31
0.0
  0
LINE
  5
20D9
330
1E
100
AcDbEntity
  8
3
100
AcDbLine
 10
1.339566929133858
 20
1.789370078740157
 30
0.0
 11
1.339566929133858
 21
1.796259842519685
 31
0.0
  0
LINE
  5
20DA
330
1E
100
AcDbEntity
  8
3
100
AcDbLine
 10
1.339566929133858
 20
1.796259842519685
 30
0.0
 11
1.339566929133858
 21
1.803149606299212
 31
0.0
  0
LINE
  5
20DB
330
1E
100
AcDbEntity
  8
3
100
AcDbLine
 10
1.594488188976378
 20
1.786417322834645
 30
0.0
 11
1.594488188976378
 21
1.789370078740157
 31
0.0
  0
LINE
  5
20DC
330
1E
100
AcDbEntity
  8
3
100
AcDbLine
 10
1.594488188976378
 20
1.789370078740157
 30
0.0
 11
1.594488188976378
 21
1.796259842519685
 31
0.0
  0
LINE
  5
20DD
330
1E
100
AcDbEntity
  8
3
100
AcDbLine
 10
1.594488188976378
 20
1.796259842519685
 30
0.0
 11
1.594488188976378
 21
1.803149606299212
 31
0.0
  0
LINE
  5
20DE
330
1E
100
AcDbEntity
  8
3
100
AcDbLine
 10
1.65748031496063
 20
1.786417322834645
 30
0.0
 11
1.65748031496063
 21
1.789370078740157
 31
0.0
  0
LINE
  5
20DF
330
1E
100
AcDbEntity
  8
3
100
AcDbLine
 10
1.65748031496063
 20
1.789370078740157
 30
0.0
 11
1.65748031496063
 21
1.796259842519685
 31
0.0
  0
LINE
  5
20E0
330
1E
100
AcDbEntity
  8
3
100
AcDbLine
 10
1.65748031496063
 20
1.796259842519685
 30
0.0
 11
1.656496062992125
 21
1.803149606299212
 31
0.0
  0
LINE
  5
20E1
330
1E
100
AcDbEntity
  8
3
100
AcDbLine
 10
1.911417322834645
 20
1.786417322834645
 30
0.0
 11
1.911417322834645
 21
1.789370078740157
 31
0.0
  0
LINE
  5
20E2
330
1E
100
AcDbEntity
  8
3
100
AcDbLine
 10
1.911417322834645
 20
1.789370078740157
 30
0.0
 11
1.911417322834645
 21
1.796259842519685
 31
0.0
  0
LINE
  5
20E3
330
1E
100
AcDbEntity
  8
3
100
AcDbLine
 10
1.911417322834645
 20
1.796259842519685
 30
0.0
 11
1.911417322834645
 21
1.803149606299212
 31
0.0
  0
LINE
  5
20E4
330
1E
100
AcDbEntity
  8
3
100
AcDbLine
 10
1.276574803149606
 20
1.786417322834645
 30
0.0
 11
1.276574803149606
 21
1.789370078740157
 31
0.0
  0
LINE
  5
20E5
330
1E
100
AcDbEntity
  8
3
100
AcDbLine
 10
1.276574803149606
 20
1.789370078740157
 30
0.0
 11
1.276574803149606
 21
1.796259842519685
 31
0.0
  0
LINE
  5
20E6
330
1E
100
AcDbEntity
  8
3
100
AcDbLine
 10
1.276574803149606
 20
1.796259842519685
 30
0.0
 11
1.276574803149606
 21
1.803149606299212
 31
0.0
  0
LINE
  5
20E7
330
1E
100
AcDbEntity
  8
3
100
AcDbLine
 10
2.312992125984251
 20
1.786417322834645
 30
0.0
 11
2.312007874015748
 21
1.789370078740157
 31
0.0
  0
LINE
  5
20E8
330
1E
100
AcDbEntity
  8
3
100
AcDbLine
 10
2.312007874015748
 20
1.789370078740157
 30
0.0
 11
2.312992125984251
 21
1.796259842519685
 31
0.0
  0
LINE
  5
20E9
330
1E
100
AcDbEntity
  8
3
100
AcDbLine
 10
2.312992125984251
 20
1.796259842519685
 30
0.0
 11
2.312992125984251
 21
1.803149606299212
 31
0.0
  0
LINE
  5
20EA
330
1E
100
AcDbEntity
  8
3
100
AcDbLine
 10
1.974409448818897
 20
1.786417322834645
 30
0.0
 11
1.974409448818897
 21
1.789370078740157
 31
0.0
  0
LINE
  5
20EB
330
1E
100
AcDbEntity
  8
3
100
AcDbLine
 10
1.974409448818897
 20
1.789370078740157
 30
0.0
 11
1.974409448818897
 21
1.796259842519685
 31
0.0
  0
LINE
  5
20EC
330
1E
100
AcDbEntity
  8
3
100
AcDbLine
 10
1.974409448818897
 20
1.796259842519685
 30
0.0
 11
1.974409448818897
 21
1.803149606299212
 31
0.0
  0
LINE
  5
20ED
330
1E
100
AcDbEntity
  8
3
100
AcDbLine
 10
2.394685039370078
 20
1.924212598425197
 30
0.0
 11
2.403543307086614
 21
1.924212598425197
 31
0.0
  0
LINE
  5
20EE
330
1E
100
AcDbEntity
  8
3
100
AcDbLine
 10
2.403543307086614
 20
1.924212598425197
 30
0.0
 11
2.406496062992125
 21
1.924212598425197
 31
0.0
  0
LINE
  5
20EF
330
1E
100
AcDbEntity
  8
3
100
AcDbLine
 10
2.313976377952756
 20
1.924212598425197
 30
0.0
 11
2.33759842519685
 21
1.924212598425197
 31
0.0
  0
LINE
  5
20F0
330
1E
100
AcDbEntity
  8
3
100
AcDbLine
 10
2.33759842519685
 20
1.924212598425197
 30
0.0
 11
2.360236220472441
 21
1.924212598425197
 31
0.0
  0
LINE
  5
20F1
330
1E
100
AcDbEntity
  8
3
100
AcDbLine
 10
2.360236220472441
 20
1.924212598425197
 30
0.0
 11
2.379921259842519
 21
1.924212598425197
 31
0.0
  0
LINE
  5
20F2
330
1E
100
AcDbEntity
  8
3
100
AcDbLine
 10
2.379921259842519
 20
1.924212598425197
 30
0.0
 11
2.394685039370078
 21
1.924212598425197
 31
0.0
  0
LINE
  5
20F3
330
1E
100
AcDbEntity
  8
3
100
AcDbLine
 10
1.849409448818897
 20
1.947834645669291
 30
0.0
 11
1.849409448818897
 21
1.954724409448818
 31
0.0
  0
LINE
  5
20F4
330
1E
100
AcDbEntity
  8
3
100
AcDbLine
 10
1.849409448818897
 20
1.954724409448818
 30
0.0
 11
1.848425196850394
 21
1.961614173228346
 31
0.0
  0
LINE
  5
20F5
330
1E
100
AcDbEntity
  8
3
100
AcDbLine
 10
2.037401574803149
 20
1.947834645669291
 30
0.0
 11
2.037401574803149
 21
1.954724409448818
 31
0.0
  0
LINE
  5
20F6
330
1E
100
AcDbEntity
  8
3
100
AcDbLine
 10
2.037401574803149
 20
1.954724409448818
 30
0.0
 11
2.037401574803149
 21
1.961614173228346
 31
0.0
  0
LINE
  5
20F7
330
1E
100
AcDbEntity
  8
3
100
AcDbLine
 10
1.40255905511811
 20
1.947834645669291
 30
0.0
 11
1.40255905511811
 21
1.954724409448818
 31
0.0
  0
LINE
  5
20F8
330
1E
100
AcDbEntity
  8
3
100
AcDbLine
 10
1.40255905511811
 20
1.954724409448818
 30
0.0
 11
1.40255905511811
 21
1.961614173228346
 31
0.0
  0
LINE
  5
20F9
330
1E
100
AcDbEntity
  8
3
100
AcDbLine
 10
1.213582677165354
 20
1.947834645669291
 30
0.0
 11
1.213582677165354
 21
1.954724409448818
 31
0.0
  0
LINE
  5
20FA
330
1E
100
AcDbEntity
  8
3
100
AcDbLine
 10
1.213582677165354
 20
1.954724409448818
 30
0.0
 11
1.213582677165354
 21
1.961614173228346
 31
0.0
  0
LINE
  5
20FB
330
1E
100
AcDbEntity
  8
3
100
AcDbLine
 10
3.695866141732283
 20
2.407480314960629
 30
0.0
 11
3.704724409448818
 21
2.416338582677165
 31
0.0
  0
LINE
  5
20FC
330
1E
100
AcDbEntity
  8
3
100
AcDbLine
 10
3.704724409448818
 20
2.416338582677165
 30
0.0
 11
3.708661417322834
 21
2.420275590551181
 31
0.0
  0
LINE
  5
20FD
330
1E
100
AcDbEntity
  8
3
100
AcDbLine
 10
3.643700787401574
 20
2.353346456692912
 30
0.0
 11
3.663385826771653
 21
2.374015748031496
 31
0.0
  0
LINE
  5
20FE
330
1E
100
AcDbEntity
  8
3
100
AcDbLine
 10
3.663385826771653
 20
2.374015748031496
 30
0.0
 11
3.681102362204724
 21
2.39271653543307
 31
0.0
  0
LINE
  5
20FF
330
1E
100
AcDbEntity
  8
3
100
AcDbLine
 10
3.681102362204724
 20
2.39271653543307
 30
0.0
 11
3.695866141732283
 21
2.407480314960629
 31
0.0
  0
LINE
  5
2100
330
1E
100
AcDbEntity
  8
3
100
AcDbLine
 10
3.70767716535433
 20
2.420275590551181
 30
0.0
 11
3.685039370078739
 21
2.436023622047244
 31
0.0
  0
LINE
  5
2101
330
1E
100
AcDbEntity
  8
3
100
AcDbLine
 10
3.685039370078739
 20
2.436023622047244
 30
0.0
 11
3.657480314960629
 21
2.444881889763779
 31
0.0
  0
LINE
  5
2102
330
1E
100
AcDbEntity
  8
3
100
AcDbLine
 10
3.657480314960629
 20
2.444881889763779
 30
0.0
 11
3.628937007874015
 21
2.444881889763779
 31
0.0
  0
LINE
  5
2103
330
1E
100
AcDbEntity
  8
3
100
AcDbLine
 10
3.628937007874015
 20
2.444881889763779
 30
0.0
 11
3.601377952755905
 21
2.436023622047244
 31
0.0
  0
LINE
  5
2104
330
1E
100
AcDbEntity
  8
3
100
AcDbLine
 10
3.601377952755905
 20
2.436023622047244
 30
0.0
 11
3.578740157480314
 21
2.418307086614173
 31
0.0
  0
LINE
  5
2105
330
1E
100
AcDbEntity
  8
3
100
AcDbLine
 10
3.590551181102362
 20
2.406496062992125
 30
0.0
 11
3.605314960629921
 21
2.391732283464566
 31
0.0
  0
LINE
  5
2106
330
1E
100
AcDbEntity
  8
3
100
AcDbLine
 10
3.605314960629921
 20
2.391732283464566
 30
0.0
 11
3.623031496062992
 21
2.373031496062991
 31
0.0
  0
LINE
  5
2107
330
1E
100
AcDbEntity
  8
3
100
AcDbLine
 10
3.623031496062992
 20
2.373031496062991
 30
0.0
 11
3.643700787401574
 21
2.353346456692912
 31
0.0
  0
LINE
  5
2108
330
1E
100
AcDbEntity
  8
3
100
AcDbLine
 10
3.577755905511811
 20
2.418307086614173
 30
0.0
 11
3.580708661417323
 21
2.415354330708661
 31
0.0
  0
LINE
  5
2109
330
1E
100
AcDbEntity
  8
3
100
AcDbLine
 10
3.580708661417323
 20
2.415354330708661
 30
0.0
 11
3.590551181102362
 21
2.406496062992125
 31
0.0
  0
LINE
  5
210A
330
1E
100
AcDbEntity
  8
3
100
AcDbLine
 10
1.784448818897637
 20
1.786417322834645
 30
0.0
 11
1.784448818897637
 21
1.792322834645669
 31
0.0
  0
LINE
  5
210B
330
1E
100
AcDbEntity
  8
3
100
AcDbLine
 10
1.784448818897637
 20
1.792322834645669
 30
0.0
 11
1.784448818897637
 21
1.803149606299212
 31
0.0
  0
LINE
  5
210C
330
1E
100
AcDbEntity
  8
3
100
AcDbLine
 10
0.937992125984252
 20
2.446850393700787
 30
0.0
 11
0.9094488188976377
 21
2.441929133858267
 31
0.0
  0
LINE
  5
210D
330
1E
100
AcDbEntity
  8
3
100
AcDbLine
 10
0.9094488188976377
 20
2.441929133858267
 30
0.0
 11
0.8838582677165353
 21
2.429133858267716
 31
0.0
  0
LINE
  5
210E
330
1E
100
AcDbEntity
  8
3
100
AcDbLine
 10
0.8838582677165353
 20
2.429133858267716
 30
0.0
 11
0.8631889763779525
 21
2.408464566929133
 31
0.0
  0
LINE
  5
210F
330
1E
100
AcDbEntity
  8
3
100
AcDbLine
 10
0.8631889763779525
 20
2.408464566929133
 30
0.0
 11
0.8503937007874014
 21
2.382874015748031
 31
0.0
  0
LINE
  5
2110
330
1E
100
AcDbEntity
  8
3
100
AcDbLine
 10
0.8503937007874014
 20
2.382874015748031
 30
0.0
 11
0.8454724409448818
 21
2.354330708661417
 31
0.0
  0
LINE
  5
2111
330
1E
100
AcDbEntity
  8
3
100
AcDbLine
 10
0.9370078740157479
 20
2.420275590551181
 30
0.0
 11
0.9370078740157479
 21
2.436023622047244
 31
0.0
  0
LINE
  5
2112
330
1E
100
AcDbEntity
  8
3
100
AcDbLine
 10
0.9370078740157479
 20
2.436023622047244
 30
0.0
 11
0.9370078740157479
 21
2.444881889763779
 31
0.0
  0
LINE
  5
2113
330
1E
100
AcDbEntity
  8
3
100
AcDbLine
 10
0.9370078740157479
 20
2.444881889763779
 30
0.0
 11
0.9370078740157479
 21
2.436023622047244
 31
0.0
  0
LINE
  5
2114
330
1E
100
AcDbEntity
  8
3
100
AcDbLine
 10
0.9370078740157479
 20
2.436023622047244
 30
0.0
 11
0.9370078740157479
 21
2.418307086614173
 31
0.0
  0
LINE
  5
2115
330
1E
100
AcDbEntity
  8
3
100
AcDbLine
 10
2.406496062992125
 20
2.353346456692912
 30
0.0
 11
2.40255905511811
 21
2.374015748031496
 31
0.0
  0
LINE
  5
2116
330
1E
100
AcDbEntity
  8
3
100
AcDbLine
 10
2.40255905511811
 20
2.374015748031496
 30
0.0
 11
2.388779527559055
 21
2.39271653543307
 31
0.0
  0
LINE
  5
2117
330
1E
100
AcDbEntity
  8
3
100
AcDbLine
 10
2.388779527559055
 20
2.39271653543307
 30
0.0
 11
2.368110236220472
 21
2.407480314960629
 31
0.0
  0
LINE
  5
2118
330
1E
100
AcDbEntity
  8
3
100
AcDbLine
 10
2.368110236220472
 20
2.407480314960629
 30
0.0
 11
2.342519685039369
 21
2.416338582677165
 31
0.0
  0
LINE
  5
2119
330
1E
100
AcDbEntity
  8
3
100
AcDbLine
 10
2.342519685039369
 20
2.416338582677165
 30
0.0
 11
2.313976377952756
 21
2.420275590551181
 31
0.0
  0
LINE
  5
211A
330
1E
100
AcDbEntity
  8
3
100
AcDbLine
 10
1.466535433070866
 20
1.786417322834645
 30
0.0
 11
1.466535433070866
 21
1.792322834645669
 31
0.0
  0
LINE
  5
211B
330
1E
100
AcDbEntity
  8
3
100
AcDbLine
 10
1.466535433070866
 20
1.792322834645669
 30
0.0
 11
1.466535433070866
 21
1.803149606299212
 31
0.0
  0
LINE
  5
211C
330
1E
100
AcDbEntity
  8
3
100
AcDbLine
 10
1.149606299212598
 20
1.786417322834645
 30
0.0
 11
1.149606299212598
 21
1.792322834645669
 31
0.0
  0
LINE
  5
211D
330
1E
100
AcDbEntity
  8
3
100
AcDbLine
 10
1.149606299212598
 20
1.792322834645669
 30
0.0
 11
1.149606299212598
 21
1.803149606299212
 31
0.0
  0
LINE
  5
211E
330
1E
100
AcDbEntity
  8
3
100
AcDbLine
 10
2.102362204724409
 20
1.786417322834645
 30
0.0
 11
2.102362204724409
 21
1.792322834645669
 31
0.0
  0
LINE
  5
211F
330
1E
100
AcDbEntity
  8
3
100
AcDbLine
 10
2.102362204724409
 20
1.792322834645669
 30
0.0
 11
2.102362204724409
 21
1.803149606299212
 31
0.0
  0
LINE
  5
2120
330
1E
100
AcDbEntity
  8
3
100
AcDbLine
 10
2.406496062992125
 20
2.354330708661417
 30
0.0
 11
2.401574803149606
 21
2.382874015748031
 31
0.0
  0
LINE
  5
2121
330
1E
100
AcDbEntity
  8
3
100
AcDbLine
 10
2.401574803149606
 20
2.382874015748031
 30
0.0
 11
2.388779527559055
 21
2.408464566929133
 31
0.0
  0
LINE
  5
2122
330
1E
100
AcDbEntity
  8
3
100
AcDbLine
 10
2.388779527559055
 20
2.408464566929133
 30
0.0
 11
2.368110236220472
 21
2.429133858267716
 31
0.0
  0
LINE
  5
2123
330
1E
100
AcDbEntity
  8
3
100
AcDbLine
 10
2.368110236220472
 20
2.429133858267716
 30
0.0
 11
2.342519685039369
 21
2.441929133858267
 31
0.0
  0
LINE
  5
2124
330
1E
100
AcDbEntity
  8
3
100
AcDbLine
 10
2.342519685039369
 20
2.441929133858267
 30
0.0
 11
2.313976377952756
 21
2.446850393700787
 31
0.0
  0
LINE
  5
2125
330
1E
100
AcDbEntity
  8
3
100
AcDbLine
 10
0.9370078740157479
 20
2.420275590551181
 30
0.0
 11
0.9084645669291338
 21
2.416338582677165
 31
0.0
  0
LINE
  5
2126
330
1E
100
AcDbEntity
  8
3
100
AcDbLine
 10
0.9084645669291338
 20
2.416338582677165
 30
0.0
 11
0.8828740157480313
 21
2.407480314960629
 31
0.0
  0
LINE
  5
2127
330
1E
100
AcDbEntity
  8
3
100
AcDbLine
 10
0.8828740157480313
 20
2.407480314960629
 30
0.0
 11
0.8622047244094487
 21
2.39271653543307
 31
0.0
  0
LINE
  5
2128
330
1E
100
AcDbEntity
  8
3
100
AcDbLine
 10
0.8622047244094487
 20
2.39271653543307
 30
0.0
 11
0.8494094488188975
 21
2.374015748031496
 31
0.0
  0
LINE
  5
2129
330
1E
100
AcDbEntity
  8
3
100
AcDbLine
 10
0.8494094488188975
 20
2.374015748031496
 30
0.0
 11
0.8444881889763779
 21
2.353346456692912
 31
0.0
  0
LINE
  5
212A
330
1E
100
AcDbEntity
  8
3
100
AcDbLine
 10
2.313976377952756
 20
2.420275590551181
 30
0.0
 11
2.313976377952756
 21
2.436023622047244
 31
0.0
  0
LINE
  5
212B
330
1E
100
AcDbEntity
  8
3
100
AcDbLine
 10
2.313976377952756
 20
2.436023622047244
 30
0.0
 11
2.313976377952756
 21
2.444881889763779
 31
0.0
  0
LINE
  5
212C
330
1E
100
AcDbEntity
  8
3
100
AcDbLine
 10
2.313976377952756
 20
2.444881889763779
 30
0.0
 11
2.313976377952756
 21
2.436023622047244
 31
0.0
  0
LINE
  5
212D
330
1E
100
AcDbEntity
  8
3
100
AcDbLine
 10
2.313976377952756
 20
2.436023622047244
 30
0.0
 11
2.313976377952756
 21
2.418307086614173
 31
0.0
  0
LINE
  5
212E
330
1E
100
AcDbEntity
  8
3
100
AcDbLine
 10
3.716535433070865
 20
1.535433070866141
 30
0.0
 11
3.716535433070865
 21
1.554133858267716
 31
0.0
  0
LINE
  5
212F
330
1E
100
AcDbEntity
  8
3
100
AcDbLine
 10
3.716535433070865
 20
1.554133858267716
 30
0.0
 11
3.716535433070865
 21
1.736220472440944
 31
0.0
  0
LINE
  5
2130
330
1E
100
AcDbEntity
  8
3
100
AcDbLine
 10
1.655511811023622
 20
1.855314960629921
 30
0.0
 11
1.656496062992125
 21
1.786417322834645
 31
0.0
  0
LINE
  5
2131
330
1E
100
AcDbEntity
  8
3
100
AcDbLine
 10
1.656496062992125
 20
1.786417322834645
 30
0.0
 11
1.65748031496063
 21
1.786417322834645
 31
0.0
  0
LINE
  5
2132
330
1E
100
AcDbEntity
  8
3
100
AcDbLine
 10
1.912401574803149
 20
1.786417322834645
 30
0.0
 11
1.913385826771653
 21
1.855314960629921
 31
0.0
  0
LINE
  5
2133
330
1E
100
AcDbEntity
  8
3
100
AcDbLine
 10
1.913385826771653
 20
1.855314960629921
 30
0.0
 11
1.655511811023622
 21
1.855314960629921
 31
0.0
  0
LINE
  5
2134
330
1E
100
AcDbEntity
  8
3
100
AcDbLine
 10
0.9370078740157479
 20
1.855314960629921
 30
0.0
 11
0.937992125984252
 21
1.786417322834645
 31
0.0
  0
LINE
  5
2135
330
1E
100
AcDbEntity
  8
3
100
AcDbLine
 10
0.937992125984252
 20
1.786417322834645
 30
0.0
 11
0.9389763779527559
 21
1.786417322834645
 31
0.0
  0
LINE
  5
2136
330
1E
100
AcDbEntity
  8
3
100
AcDbLine
 10
1.27755905511811
 20
1.786417322834645
 30
0.0
 11
1.278543307086614
 21
1.855314960629921
 31
0.0
  0
LINE
  5
2137
330
1E
100
AcDbEntity
  8
3
100
AcDbLine
 10
1.278543307086614
 20
1.855314960629921
 30
0.0
 11
0.9370078740157479
 21
1.855314960629921
 31
0.0
  0
LINE
  5
2138
330
1E
100
AcDbEntity
  8
3
100
AcDbLine
 10
1.974409448818897
 20
1.786417322834645
 30
0.0
 11
1.973425196850394
 21
1.855314960629921
 31
0.0
  0
LINE
  5
2139
330
1E
100
AcDbEntity
  8
3
100
AcDbLine
 10
1.973425196850394
 20
1.855314960629921
 30
0.0
 11
2.313976377952756
 21
1.855314960629921
 31
0.0
  0
LINE
  5
213A
330
1E
100
AcDbEntity
  8
3
100
AcDbLine
 10
2.134842519685039
 20
1.984251968503937
 30
0.0
 11
2.105314960629921
 21
1.984251968503937
 31
0.0
  0
LINE
  5
213B
330
1E
100
AcDbEntity
  8
3
100
AcDbLine
 10
2.105314960629921
 20
1.984251968503937
 30
0.0
 11
2.135826771653543
 21
1.984251968503937
 31
0.0
  0
LINE
  5
213C
330
1E
100
AcDbEntity
  8
3
100
AcDbLine
 10
1.503937007874015
 20
2.279527559055117
 30
0.0
 11
1.5
 21
1.984251968503937
 31
0.0
  0
LINE
  5
213D
330
1E
100
AcDbEntity
  8
3
100
AcDbLine
 10
1.5
 20
1.984251968503937
 30
0.0
 11
1.5
 21
2.062992125984251
 31
0.0
  0
LINE
  5
213E
330
1E
100
AcDbEntity
  8
3
100
AcDbLine
 10
1.470472440944881
 20
1.984251968503937
 30
0.0
 11
1.5
 21
1.984251968503937
 31
0.0
  0
LINE
  5
213F
330
1E
100
AcDbEntity
  8
3
100
AcDbLine
 10
1.5
 20
1.984251968503937
 30
0.0
 11
1.470472440944881
 21
1.984251968503937
 31
0.0
  0
LINE
  5
2140
330
1E
100
AcDbEntity
  8
3
100
AcDbLine
 10
1.470472440944881
 20
1.984251968503937
 30
0.0
 11
1.466535433070866
 21
2.279527559055117
 31
0.0
  0
LINE
  5
2141
330
1E
100
AcDbEntity
  8
3
100
AcDbLine
 10
1.747047244094488
 20
2.279527559055117
 30
0.0
 11
1.750984251968504
 21
1.984251968503937
 31
0.0
  0
LINE
  5
2142
330
1E
100
AcDbEntity
  8
3
100
AcDbLine
 10
1.750984251968504
 20
1.984251968503937
 30
0.0
 11
1.750984251968504
 21
2.062992125984251
 31
0.0
  0
LINE
  5
2143
330
1E
100
AcDbEntity
  8
3
100
AcDbLine
 10
1.750984251968504
 20
1.984251968503937
 30
0.0
 11
1.781496062992125
 21
1.984251968503937
 31
0.0
  0
LINE
  5
2144
330
1E
100
AcDbEntity
  8
3
100
AcDbLine
 10
1.781496062992125
 20
1.984251968503937
 30
0.0
 11
1.750984251968504
 21
1.984251968503937
 31
0.0
  0
LINE
  5
2145
330
1E
100
AcDbEntity
  8
3
100
AcDbLine
 10
1.062992125984251
 20
2.251968503937007
 30
0.0
 11
1.062007874015748
 21
2.295275590551181
 31
0.0
  0
LINE
  5
2146
330
1E
100
AcDbEntity
  8
3
100
AcDbLine
 10
1.062007874015748
 20
2.295275590551181
 30
0.0
 11
0.9950787401574801
 21
2.295275590551181
 31
0.0
  0
LINE
  5
2147
330
1E
100
AcDbEntity
  8
3
100
AcDbLine
 10
1.554133858267716
 20
2.229330708661417
 30
0.0
 11
1.553149606299212
 21
2.251968503937007
 31
0.0
  0
LINE
  5
2148
330
1E
100
AcDbEntity
  8
3
100
AcDbLine
 10
1.553149606299212
 20
2.251968503937007
 30
0.0
 11
1.554133858267716
 21
2.295275590551181
 31
0.0
  0
LINE
  5
2149
330
1E
100
AcDbEntity
  8
3
100
AcDbLine
 10
1.697834645669291
 20
2.298228346456692
 30
0.0
 11
1.697834645669291
 21
2.251968503937007
 31
0.0
  0
LINE
  5
214A
330
1E
100
AcDbEntity
  8
3
100
AcDbLine
 10
1.697834645669291
 20
2.251968503937007
 30
0.0
 11
1.696850393700787
 21
2.295275590551181
 31
0.0
  0
LINE
  5
214B
330
1E
100
AcDbEntity
  8
3
100
AcDbLine
 10
1.696850393700787
 20
2.341535433070865
 30
0.0
 11
1.697834645669291
 21
2.298228346456692
 31
0.0
  0
LINE
  5
214C
330
1E
100
AcDbEntity
  8
3
100
AcDbLine
 10
1.697834645669291
 20
2.298228346456692
 30
0.0
 11
1.697834645669291
 21
2.279527559055117
 31
0.0
  0
LINE
  5
214D
330
1E
100
AcDbEntity
  8
3
100
AcDbLine
 10
2.188976377952756
 20
2.279527559055117
 30
0.0
 11
2.187992125984251
 21
2.298228346456692
 31
0.0
  0
LINE
  5
214E
330
1E
100
AcDbEntity
  8
3
100
AcDbLine
 10
2.187992125984251
 20
2.298228346456692
 30
0.0
 11
2.188976377952756
 21
2.341535433070865
 31
0.0
  0
LINE
  5
214F
330
1E
100
AcDbEntity
  8
3
100
AcDbLine
 10
2.188976377952756
 20
2.341535433070865
 30
0.0
 11
2.188976377952756
 21
2.295275590551181
 31
0.0
  0
LINE
  5
2150
330
1E
100
AcDbEntity
  8
3
100
AcDbLine
 10
2.255905511811023
 20
2.229330708661417
 30
0.0
 11
2.188976377952756
 21
2.229330708661417
 31
0.0
  0
LINE
  5
2151
330
1E
100
AcDbEntity
  8
3
100
AcDbLine
 10
2.188976377952756
 20
2.229330708661417
 30
0.0
 11
2.188976377952756
 21
2.279527559055117
 31
0.0
  0
LINE
  5
2152
330
1E
100
AcDbEntity
  8
3
100
AcDbLine
 10
2.044291338582677
 20
2.312992125984251
 30
0.0
 11
1.841535433070866
 21
2.312992125984251
 31
0.0
  0
LINE
  5
2153
330
1E
100
AcDbEntity
  8
3
100
AcDbLine
 10
1.841535433070866
 20
2.312992125984251
 30
0.0
 11
1.849409448818897
 21
1.970472440944881
 31
0.0
  0
LINE
  5
2154
330
1E
100
AcDbEntity
  8
3
100
AcDbLine
 10
1.183070866141732
 20
2.279527559055117
 30
0.0
 11
1.181102362204724
 21
2.216535433070865
 31
0.0
  0
LINE
  5
2155
330
1E
100
AcDbEntity
  8
3
100
AcDbLine
 10
1.181102362204724
 20
2.216535433070865
 30
0.0
 11
1.173228346456693
 21
1.924212598425197
 31
0.0
  0
LINE
  5
2156
330
1E
100
AcDbEntity
  8
3
100
AcDbLine
 10
2.068897637795275
 20
2.279527559055117
 30
0.0
 11
2.070866141732283
 21
2.216535433070865
 31
0.0
  0
LINE
  5
2157
330
1E
100
AcDbEntity
  8
3
100
AcDbLine
 10
2.070866141732283
 20
2.216535433070865
 30
0.0
 11
2.077755905511811
 21
1.924212598425197
 31
0.0
  0
LINE
  5
2158
330
1E
100
AcDbEntity
  8
3
100
AcDbLine
 10
1.421259842519685
 20
1.908464566929133
 30
0.0
 11
1.422244094488188
 21
1.924212598425197
 31
0.0
  0
LINE
  5
2159
330
1E
100
AcDbEntity
  8
3
100
AcDbLine
 10
1.422244094488188
 20
1.924212598425197
 30
0.0
 11
1.828740157480314
 21
1.924212598425197
 31
0.0
  0
ENDSEC
  0
SECTION
  2
OBJECTS
  0
DICTIONARY
  5
C
330
0
100
AcDbDictionary
  3
ACAD_GROUP
350
D
  3
ACAD_MLINESTYLE
350
16
  3
ACAD_PLOTSETTINGS
350
18
  3
ACAD_LAYOUT
350
19
1001
ACAD
1000
TREAT_AS_HARD
1070
     0
  0
DICTIONARY
  5
30F4
330
1E
100
AcDbDictionary
  3
ACAD_LAYOUTSELFREF
350
30F5
  0
DICTIONARY
  5
30F2
330
1A
100
AcDbDictionary
  3
ACAD_LAYOUTSELFREF
350
30F3
  0
DICTIONARY
  5
D
102
{ACAD_REACTORS
330
C
102
}
330
C
100
AcDbDictionary
1001
ACAD
1000
TREAT_AS_HARD
1070
     0
  0
DICTIONARY
  5
16
102
{ACAD_REACTORS
330
C
102
}
330
C
100
AcDbDictionary
  3
STANDARD
350
17
1001
ACAD
1000
TREAT_AS_HARD
1070
     0
  0
DICTIONARY
  5
18
102
{ACAD_REACTORS
330
C
102
}
330
C
100
AcDbDictionary
1001
ACAD
1000
TREAT_AS_HARD
1070
     0
  0
DICTIONARY
  5
19
102
{ACAD_REACTORS
330
C
102
}
330
C
100
AcDbDictionary
1001
ACAD
1000
TREAT_AS_HARD
1070
     0
  0
XRECORD
  5
30F5
102
{ACAD_REACTORS
330
30F4
102
}
330
30F4
100
AcDbXrecord
340
1E
  0
XRECORD
  5
30F3
102
{ACAD_REACTORS
330
30F2
102
}
330
30F2
100
AcDbXrecord
340
1A
  0
MLINESTYLE
  5
17
102
{ACAD_REACTORS
330
16
102
}
330
16
100
AcDbMlineStyle
  2
STANDARD
 70
     0
  3

 62
   256
 51
90.0
 52
90.0
 71
     2
 49
0.5
 62
   256
  6
BYLAYER
 49
-0.5
 62
   256
  6
BYLAYER
  0
ENDSEC
  0
EOF
