  0
SECTION
  2
HEADER
  9
$ACADVER
  1
AC1014
  9
$ACADMAINTVER
 70
     9
  9
$DWGCODEPAGE
  3
ANSI_1252
  9
$INSBASE
 10
0.0
 20
0.0
 30
0.0
  9
$EXTMIN
 10
-0.004896836565994
 20
-0.004896836565994
 30
0.0
  9
$EXTMAX
 10
30.04625984251969
 20
31.59544801766835
 30
0.0
  9
$LIMMIN
 10
0.0
 20
0.0
  9
$LIMMAX
 10
12.0
 20
9.0
  9
$ORTHOMODE
 70
     0
  9
$REGENMODE
 70
     1
  9
$FILLMODE
 70
     1
  9
$QTEXTMODE
 70
     0
  9
$MIRRTEXT
 70
     1
  9
$DRAGMODE
 70
     2
  9
$LTSCALE
 40
1.0
  9
$OSMODE
 70
    37
  9
$ATTMODE
 70
     1
  9
$TEXTSIZE
 40
0.2
  9
$TRACEWID
 40
0.05
  9
$TEXTSTYLE
  7
STANDARD
  9
$CLAYER
  8
0
  9
$CELTYPE
  6
BYLAYER
  9
$CECOLOR
 62
   256
  9
$CELTSCALE
 40
1.0
  9
$DELOBJ
 70
     1
  9
$DISPSILH
 70
     0
  9
$DIMSCALE
 40
1.0
  9
$DIMASZ
 40
0.18
  9
$DIMEXO
 40
0.0625
  9
$DIMDLI
 40
0.38
  9
$DIMRND
 40
0.0
  9
$DIMDLE
 40
0.0
  9
$DIMEXE
 40
0.18
  9
$DIMTP
 40
0.0
  9
$DIMTM
 40
0.0
  9
$DIMTXT
 40
0.18
  9
$DIMCEN
 40
0.09
  9
$DIMTSZ
 40
0.0
  9
$DIMTOL
 70
     0
  9
$DIMLIM
 70
     0
  9
$DIMTIH
 70
     1
  9
$DIMTOH
 70
     1
  9
$DIMSE1
 70
     0
  9
$DIMSE2
 70
     0
  9
$DIMTAD
 70
     0
  9
$DIMZIN
 70
     0
  9
$DIMBLK
  1

  9
$DIMASO
 70
     1
  9
$DIMSHO
 70
     1
  9
$DIMPOST
  1

  9
$DIMAPOST
  1

  9
$DIMALT
 70
     0
  9
$DIMALTD
 70
     2
  9
$DIMALTF
 40
25.4
  9
$DIMLFAC
 40
1.0
  9
$DIMTOFL
 70
     0
  9
$DIMTVP
 40
0.0
  9
$DIMTIX
 70
     0
  9
$DIMSOXD
 70
     0
  9
$DIMSAH
 70
     0
  9
$DIMBLK1
  1

  9
$DIMBLK2
  1

  9
$DIMSTYLE
  2
STANDARD
  9
$DIMCLRD
 70
     0
  9
$DIMCLRE
 70
     0
  9
$DIMCLRT
 70
     0
  9
$DIMTFAC
 40
1.0
  9
$DIMGAP
 40
0.09
  9
$DIMJUST
 70
     0
  9
$DIMSD1
 70
     0
  9
$DIMSD2
 70
     0
  9
$DIMTOLJ
 70
     1
  9
$DIMTZIN
 70
     0
  9
$DIMALTZ
 70
     0
  9
$DIMALTTZ
 70
     0
  9
$DIMFIT
 70
     5
  9
$DIMUPT
 70
     0
  9
$DIMUNIT
 70
     2
  9
$DIMDEC
 70
     4
  9
$DIMTDEC
 70
     4
  9
$DIMALTU
 70
     2
  9
$DIMALTTD
 70
     2
  9
$DIMTXSTY
  7
STANDARD
  9
$DIMAUNIT
 70
     0
  9
$LUNITS
 70
     2
  9
$LUPREC
 70
     4
  9
$SKETCHINC
 40
0.1
  9
$FILLETRAD
 40
0.0
  9
$AUNITS
 70
     0
  9
$AUPREC
 70
     0
  9
$MENU
  1
acad
  9
$ELEVATION
 40
0.0
  9
$PELEVATION
 40
0.0
  9
$THICKNESS
 40
0.0
  9
$LIMCHECK
 70
     0
  9
$BLIPMODE
 70
     0
  9
$CHAMFERA
 40
0.0
  9
$CHAMFERB
 40
0.0
  9
$CHAMFERC
 40
0.0
  9
$CHAMFERD
 40
0.0
  9
$SKPOLY
 70
     0
  9
$TDCREATE
 40
2453460.464976851
  9
$TDUPDATE
 40
2453460.469709201
  9
$TDINDWG
 40
0.0039442245
  9
$TDUSRTIMER
 40
0.0039442245
  9
$USRTIMER
 70
     1
  9
$ANGBASE
 50
0.0
  9
$ANGDIR
 70
     0
  9
$PDMODE
 70
     0
  9
$PDSIZE
 40
0.0
  9
$PLINEWID
 40
0.0
  9
$COORDS
 70
     1
  9
$SPLFRAME
 70
     0
  9
$SPLINETYPE
 70
     6
  9
$SPLINESEGS
 70
     8
  9
$ATTDIA
 70
     0
  9
$ATTREQ
 70
     1
  9
$HANDLING
 70
-16383
  9
$HANDSEED
  5
10C3
  9
$SURFTAB1
 70
     6
  9
$SURFTAB2
 70
     6
  9
$SURFTYPE
 70
     6
  9
$SURFU
 70
     6
  9
$SURFV
 70
     6
  9
$UCSNAME
  2

  9
$UCSORG
 10
0.0
 20
0.0
 30
0.0
  9
$UCSXDIR
 10
1.0
 20
0.0
 30
0.0
  9
$UCSYDIR
 10
0.0
 20
1.0
 30
0.0
  9
$PUCSNAME
  2

  9
$PUCSORG
 10
0.0
 20
0.0
 30
0.0
  9
$PUCSXDIR
 10
1.0
 20
0.0
 30
0.0
  9
$PUCSYDIR
 10
0.0
 20
1.0
 30
0.0
  9
$USERI1
 70
     0
  9
$USERI2
 70
     0
  9
$USERI3
 70
     0
  9
$USERI4
 70
     0
  9
$USERI5
 70
     0
  9
$USERR1
 40
0.0
  9
$USERR2
 40
0.0
  9
$USERR3
 40
0.0
  9
$USERR4
 40
0.0
  9
$USERR5
 40
0.0
  9
$WORLDVIEW
 70
     1
  9
$SHADEDGE
 70
     3
  9
$SHADEDIF
 70
    70
  9
$TILEMODE
 70
     1
  9
$MAXACTVP
 70
    16
  9
$PINSBASE
 10
0.0
 20
0.0
 30
0.0
  9
$PLIMCHECK
 70
     0
  9
$PEXTMIN
 10
1.000000000000000E+20
 20
1.000000000000000E+20
 30
1.000000000000000E+20
  9
$PEXTMAX
 10
-1.000000000000000E+20
 20
-1.000000000000000E+20
 30
-1.000000000000000E+20
  9
$PLIMMIN
 10
0.0
 20
0.0
  9
$PLIMMAX
 10
12.0
 20
9.0
  9
$UNITMODE
 70
     0
  9
$VISRETAIN
 70
     0
  9
$PLINEGEN
 70
     0
  9
$PSLTSCALE
 70
     1
  9
$TREEDEPTH
 70
  3020
  9
$PICKSTYLE
 70
     1
  9
$CMLSTYLE
  2
STANDARD
  9
$CMLJUST
 70
     0
  9
$CMLSCALE
 40
1.0
  9
$PROXYGRAPHICS
 70
     1
  9
$MEASUREMENT
 70
     0
  0
ENDSEC
  0
SECTION
  2
CLASSES
  0
CLASS
  1
ACDBDICTIONARYWDFLT
  2
AcDbDictionaryWithDefault
  3
AutoCAD 2000
 90
        0
280
     0
281
     0
  0
CLASS
  1
ACDBPLACEHOLDER
  2
AcDbPlaceHolder
  3
AutoCAD 2000
 90
        0
280
     0
281
     0
  0
CLASS
  1
LAYOUT
  2
AcDbLayout
  3
AutoCAD 2000
 90
        0
280
     0
281
     0
  0
CLASS
  1
LONG_TRANSACTION
  2
AcDbLongTransaction
  3
AutoCAD 2000
 90
        0
280
     0
281
     0
  0
CLASS
  1
LWPOLYLINE
  2
AcDbPolyline
  3
AutoCAD 2000
 90
        0
280
     0
281
     1
  0
CLASS
  1
HATCH
  2
AcDbHatch
  3
AutoCAD 2000
 90
        0
280
     0
281
     1
  0
CLASS
  1
XRECORD
  2
AcDbXrecord
  3
AutoCAD 2000
 90
        0
280
     0
281
     0
  0
ENDSEC
  0
SECTION
  2
TABLES
  0
TABLE
  2
VPORT
  5
8
330
0
100
AcDbSymbolTable
 70
     3
  0
VPORT
  5
109D
330
8
100
AcDbSymbolTableRecord
100
AcDbViewportTableRecord
  2
*ACTIVE
 70
     0
 10
0.0
 20
0.0
 11
1.0
 21
1.0
 12
15.02068150297684
 22
15.79527559055117
 13
0.0
 23
0.0
 14
1.0
 24
1.0
 15
0.0
 25
0.0
 16
0.0
 26
0.0
 36
1.0
 17
0.0
 27
0.0
 37
0.0
 40
31.84658130764396
 41
1.503250975292587
 42
50.0
 43
0.0
 44
0.0
 50
0.0
 51
0.0
 71
     0
 72
   100
 73
     1
 74
     1
 75
     0
 76
     0
 77
     0
 78
     0
  0
ENDTAB
  0
TABLE
  2
LTYPE
  5
5
330
0
100
AcDbSymbolTable
 70
    25
  0
LTYPE
  5
13
330
5
100
AcDbSymbolTableRecord
100
AcDbLinetypeTableRecord
  2
BYBLOCK
 70
     0
  3

 72
    65
 73
     0
 40
0.0
  0
LTYPE
  5
14
330
5
100
AcDbSymbolTableRecord
100
AcDbLinetypeTableRecord
  2
BYLAYER
 70
     0
  3

 72
    65
 73
     0
 40
0.0
  0
LTYPE
  5
15
330
5
100
AcDbSymbolTableRecord
100
AcDbLinetypeTableRecord
  2
CONTINUOUS
 70
     0
  3
Solid line
 72
    65
 73
     0
 40
0.0
  0
LTYPE
  5
22
330
5
100
AcDbSymbolTableRecord
100
AcDbLinetypeTableRecord
  2
BORDER
 70
     0
  3
__ __ . __ __ . __ __ . __ __ . __ __ . __ __ .
 72
    65
 73
     6
 40
1.75
 49
0.5
 74
     0
 49
-0.25
 74
     0
 49
0.5
 74
     0
 49
-0.25
 74
     0
 49
0.5
 74
     0
 49
-0.25
 74
     0
  0
LTYPE
  5
23
330
5
100
AcDbSymbolTableRecord
100
AcDbLinetypeTableRecord
  2
BORDER2
 70
     0
  3
__.__.__.__.__.__.__.__.__.__.__.__.__.__.__.__
 72
    65
 73
     6
 40
0.875
 49
0.25
 74
     0
 49
-0.125
 74
     0
 49
0.25
 74
     0
 49
-0.125
 74
     0
 49
0.25
 74
     0
 49
-0.125
 74
     0
  0
LTYPE
  5
24
330
5
100
AcDbSymbolTableRecord
100
AcDbLinetypeTableRecord
  2
BORDERX2
 70
     0
  3
____  ____  .  ____  ____  .  
 72
    65
 73
     6
 40
3.5
 49
1.0
 74
     0
 49
-0.5
 74
     0
 49
1.0
 74
     0
 49
-0.5
 74
     0
 49
1.0
 74
     0
 49
-0.5
 74
     0
  0
LTYPE
  5
25
330
5
100
AcDbSymbolTableRecord
100
AcDbLinetypeTableRecord
  2
CENTER
 70
     0
  3
____ _ ____ _ ____ _ ____ _ ____ _ ____ _ ____
 72
    65
 73
     4
 40
2.0
 49
1.25
 74
     0
 49
-0.25
 74
     0
 49
0.25
 74
     0
 49
-0.25
 74
     0
  0
LTYPE
  5
26
330
5
100
AcDbSymbolTableRecord
100
AcDbLinetypeTableRecord
  2
CENTER2
 70
     0
  3
____ _ ____ _ ____ _ ____ _ ____ _ ____ _ ____
 72
    65
 73
     4
 40
1.125
 49
0.75
 74
     0
 49
-0.125
 74
     0
 49
0.125
 74
     0
 49
-0.125
 74
     0
  0
LTYPE
  5
27
330
5
100
AcDbSymbolTableRecord
100
AcDbLinetypeTableRecord
  2
CENTERX2
 70
     0
  3
________  __  ________  __  ________  __  
 72
    65
 73
     4
 40
4.0
 49
2.5
 74
     0
 49
-0.5
 74
     0
 49
0.5
 74
     0
 49
-0.5
 74
     0
  0
LTYPE
  5
28
330
5
100
AcDbSymbolTableRecord
100
AcDbLinetypeTableRecord
  2
DASHDOT
 70
     0
  3
__ . __ . __ . __ . __ . __ . __ . 
 72
    65
 73
     4
 40
1.0
 49
0.5
 74
     0
 49
-0.25
 74
     0
 49
0.0
 74
     0
 49
-0.25
 74
     0
  0
LTYPE
  5
29
330
5
100
AcDbSymbolTableRecord
100
AcDbLinetypeTableRecord
  2
DASHDOT2
 70
     0
  3
_._._._._._._._._._._._._._._._.
 72
    65
 73
     4
 40
0.5
 49
0.25
 74
     0
 49
-0.125
 74
     0
 49
0.0
 74
     0
 49
-0.125
 74
     0
  0
LTYPE
  5
2A
330
5
100
AcDbSymbolTableRecord
100
AcDbLinetypeTableRecord
  2
DASHDOTX2
 70
     0
  3
____  .  ____  .  ____  .  ____  .  
 72
    65
 73
     4
 40
2.0
 49
1.0
 74
     0
 49
-0.5
 74
     0
 49
0.0
 74
     0
 49
-0.5
 74
     0
  0
LTYPE
  5
2B
330
5
100
AcDbSymbolTableRecord
100
AcDbLinetypeTableRecord
  2
DASHED
 70
     0
  3
__ __ __ __ __ __ __ __ __ __ __ __ 
 72
    65
 73
     2
 40
0.75
 49
0.5
 74
     0
 49
-0.25
 74
     0
  0
LTYPE
  5
2C
330
5
100
AcDbSymbolTableRecord
100
AcDbLinetypeTableRecord
  2
DASHED2
 70
     0
  3
_ _ _ _ _ _ _ _ _ _ _ _ _ _ _ _ _ _ 
 72
    65
 73
     2
 40
0.375
 49
0.25
 74
     0
 49
-0.125
 74
     0
  0
LTYPE
  5
2D
330
5
100
AcDbSymbolTableRecord
100
AcDbLinetypeTableRecord
  2
DASHEDX2
 70
     0
  3
____  ____  ____  ____  ____  ____  
 72
    65
 73
     2
 40
1.5
 49
1.0
 74
     0
 49
-0.5
 74
     0
  0
LTYPE
  5
2E
330
5
100
AcDbSymbolTableRecord
100
AcDbLinetypeTableRecord
  2
DIVIDE
 70
     0
  3
____ . . ____ . . ____ . . ____ . . 
 72
    65
 73
     6
 40
1.25
 49
0.5
 74
     0
 49
-0.25
 74
     0
 49
0.0
 74
     0
 49
-0.25
 74
     0
 49
0.0
 74
     0
 49
-0.25
 74
     0
  0
LTYPE
  5
2F
330
5
100
AcDbSymbolTableRecord
100
AcDbLinetypeTableRecord
  2
DIVIDE2
 70
     0
  3
__..__..__..__..__..__..__..__..__..
 72
    65
 73
     6
 40
0.625
 49
0.25
 74
     0
 49
-0.125
 74
     0
 49
0.0
 74
     0
 49
-0.125
 74
     0
 49
0.0
 74
     0
 49
-0.125
 74
     0
  0
LTYPE
  5
30
330
5
100
AcDbSymbolTableRecord
100
AcDbLinetypeTableRecord
  2
DIVIDEX2
 70
     0
  3
________  .  .  ________  .  .  ________  .  . 
 72
    65
 73
     6
 40
2.5
 49
1.0
 74
     0
 49
-0.5
 74
     0
 49
0.0
 74
     0
 49
-0.5
 74
     0
 49
0.0
 74
     0
 49
-0.5
 74
     0
  0
LTYPE
  5
31
330
5
100
AcDbSymbolTableRecord
100
AcDbLinetypeTableRecord
  2
DOT
 70
     0
  3
. . . . . . . . . . . . . . . . . . 
 72
    65
 73
     2
 40
0.25
 49
0.0
 74
     0
 49
-0.25
 74
     0
  0
LTYPE
  5
32
330
5
100
AcDbSymbolTableRecord
100
AcDbLinetypeTableRecord
  2
DOT2
 70
     0
  3
....................................
 72
    65
 73
     2
 40
0.125
 49
0.0
 74
     0
 49
-0.125
 74
     0
  0
LTYPE
  5
33
330
5
100
AcDbSymbolTableRecord
100
AcDbLinetypeTableRecord
  2
DOTX2
 70
     0
  3
.  .  .  .  .  .  .  .  .  .  .  .  .  
 72
    65
 73
     2
 40
0.5
 49
0.0
 74
     0
 49
-0.5
 74
     0
  0
LTYPE
  5
34
330
5
100
AcDbSymbolTableRecord
100
AcDbLinetypeTableRecord
  2
HIDDEN
 70
     0
  3
__ __ __ __ __ __ __ __ __ __ __ __ 
 72
    65
 73
     2
 40
0.375
 49
0.25
 74
     0
 49
-0.125
 74
     0
  0
LTYPE
  5
35
330
5
100
AcDbSymbolTableRecord
100
AcDbLinetypeTableRecord
  2
HIDDEN2
 70
     0
  3
_ _ _ _ _ _ _ _ _ _ _ _ _ _ _ _ _ _ 
 72
    65
 73
     2
 40
0.1875
 49
0.125
 74
     0
 49
-0.0625
 74
     0
  0
LTYPE
  5
36
330
5
100
AcDbSymbolTableRecord
100
AcDbLinetypeTableRecord
  2
HIDDENX2
 70
     0
  3
____ ____ ____ ____ ____ ____ ____ 
 72
    65
 73
     2
 40
0.75
 49
0.5
 74
     0
 49
-0.25
 74
     0
  0
LTYPE
  5
37
330
5
100
AcDbSymbolTableRecord
100
AcDbLinetypeTableRecord
  2
PHANTOM
 70
     0
  3
______  __  __  ______  __  __  
 72
    65
 73
     6
 40
2.5
 49
1.25
 74
     0
 49
-0.25
 74
     0
 49
0.25
 74
     0
 49
-0.25
 74
     0
 49
0.25
 74
     0
 49
-0.25
 74
     0
  0
LTYPE
  5
38
330
5
100
AcDbSymbolTableRecord
100
AcDbLinetypeTableRecord
  2
PHANTOM2
 70
     0
  3
___ _ _ ___ _ _ ___ _ _ ___ _ _ 
 72
    65
 73
     6
 40
1.25
 49
0.625
 74
     0
 49
-0.125
 74
     0
 49
0.125
 74
     0
 49
-0.125
 74
     0
 49
0.125
 74
     0
 49
-0.125
 74
     0
  0
LTYPE
  5
39
330
5
100
AcDbSymbolTableRecord
100
AcDbLinetypeTableRecord
  2
PHANTOMX2
 70
     0
  3
___ _ _ ___ _ _ ___ _ _ ___ _ _ 
 72
    65
 73
     6
 40
5.0
 49
2.5
 74
     0
 49
-0.5
 74
     0
 49
0.5
 74
     0
 49
-0.5
 74
     0
 49
0.5
 74
     0
 49
-0.5
 74
     0
  0
ENDTAB
  0
TABLE
  2
LAYER
  5
2
330
0
100
AcDbSymbolTable
 70
   256
  0
LAYER
  5
10
330
2
100
AcDbSymbolTableRecord
100
AcDbLayerTableRecord
  2
0
 70
     0
 62
     7
  6
CONTINUOUS
  0
LAYER
  5
3A
330
2
100
AcDbSymbolTableRecord
100
AcDbLayerTableRecord
  2
1
 70
     0
 62
     1
  6
CONTINUOUS
  0
LAYER
  5
3B
330
2
100
AcDbSymbolTableRecord
100
AcDbLayerTableRecord
  2
2
 70
     0
 62
     2
  6
CONTINUOUS
  0
LAYER
  5
3C
330
2
100
AcDbSymbolTableRecord
100
AcDbLayerTableRecord
  2
3
 70
     0
 62
     3
  6
CONTINUOUS
  0
LAYER
  5
3D
330
2
100
AcDbSymbolTableRecord
100
AcDbLayerTableRecord
  2
4
 70
     0
 62
     4
  6
CONTINUOUS
  0
LAYER
  5
3E
330
2
100
AcDbSymbolTableRecord
100
AcDbLayerTableRecord
  2
5
 70
     0
 62
     5
  6
CONTINUOUS
  0
LAYER
  5
3F
330
2
100
AcDbSymbolTableRecord
100
AcDbLayerTableRecord
  2
6
 70
     0
 62
     6
  6
CONTINUOUS
  0
LAYER
  5
40
330
2
100
AcDbSymbolTableRecord
100
AcDbLayerTableRecord
  2
7
 70
     0
 62
     7
  6
CONTINUOUS
  0
LAYER
  5
41
330
2
100
AcDbSymbolTableRecord
100
AcDbLayerTableRecord
  2
8
 70
     0
 62
     8
  6
CONTINUOUS
  0
LAYER
  5
42
330
2
100
AcDbSymbolTableRecord
100
AcDbLayerTableRecord
  2
9
 70
     0
 62
     9
  6
CONTINUOUS
  0
LAYER
  5
43
330
2
100
AcDbSymbolTableRecord
100
AcDbLayerTableRecord
  2
10
 70
     0
 62
    10
  6
CONTINUOUS
  0
LAYER
  5
44
330
2
100
AcDbSymbolTableRecord
100
AcDbLayerTableRecord
  2
11
 70
     0
 62
    11
  6
CONTINUOUS
  0
LAYER
  5
45
330
2
100
AcDbSymbolTableRecord
100
AcDbLayerTableRecord
  2
12
 70
     0
 62
    12
  6
CONTINUOUS
  0
LAYER
  5
46
330
2
100
AcDbSymbolTableRecord
100
AcDbLayerTableRecord
  2
13
 70
     0
 62
    13
  6
CONTINUOUS
  0
LAYER
  5
47
330
2
100
AcDbSymbolTableRecord
100
AcDbLayerTableRecord
  2
14
 70
     0
 62
    14
  6
CONTINUOUS
  0
LAYER
  5
48
330
2
100
AcDbSymbolTableRecord
100
AcDbLayerTableRecord
  2
15
 70
     0
 62
    15
  6
CONTINUOUS
  0
LAYER
  5
49
330
2
100
AcDbSymbolTableRecord
100
AcDbLayerTableRecord
  2
16
 70
     0
 62
    16
  6
CONTINUOUS
  0
LAYER
  5
4A
330
2
100
AcDbSymbolTableRecord
100
AcDbLayerTableRecord
  2
17
 70
     0
 62
    17
  6
CONTINUOUS
  0
LAYER
  5
4B
330
2
100
AcDbSymbolTableRecord
100
AcDbLayerTableRecord
  2
18
 70
     0
 62
    18
  6
CONTINUOUS
  0
LAYER
  5
4C
330
2
100
AcDbSymbolTableRecord
100
AcDbLayerTableRecord
  2
19
 70
     0
 62
    19
  6
CONTINUOUS
  0
LAYER
  5
4D
330
2
100
AcDbSymbolTableRecord
100
AcDbLayerTableRecord
  2
20
 70
     0
 62
    20
  6
CONTINUOUS
  0
LAYER
  5
4E
330
2
100
AcDbSymbolTableRecord
100
AcDbLayerTableRecord
  2
21
 70
     0
 62
    21
  6
CONTINUOUS
  0
LAYER
  5
4F
330
2
100
AcDbSymbolTableRecord
100
AcDbLayerTableRecord
  2
22
 70
     0
 62
    22
  6
CONTINUOUS
  0
LAYER
  5
50
330
2
100
AcDbSymbolTableRecord
100
AcDbLayerTableRecord
  2
23
 70
     0
 62
    23
  6
CONTINUOUS
  0
LAYER
  5
51
330
2
100
AcDbSymbolTableRecord
100
AcDbLayerTableRecord
  2
24
 70
     0
 62
    24
  6
CONTINUOUS
  0
LAYER
  5
52
330
2
100
AcDbSymbolTableRecord
100
AcDbLayerTableRecord
  2
25
 70
     0
 62
    25
  6
CONTINUOUS
  0
LAYER
  5
53
330
2
100
AcDbSymbolTableRecord
100
AcDbLayerTableRecord
  2
26
 70
     0
 62
    26
  6
CONTINUOUS
  0
LAYER
  5
54
330
2
100
AcDbSymbolTableRecord
100
AcDbLayerTableRecord
  2
27
 70
     0
 62
    27
  6
CONTINUOUS
  0
LAYER
  5
55
330
2
100
AcDbSymbolTableRecord
100
AcDbLayerTableRecord
  2
28
 70
     0
 62
    28
  6
CONTINUOUS
  0
LAYER
  5
56
330
2
100
AcDbSymbolTableRecord
100
AcDbLayerTableRecord
  2
29
 70
     0
 62
    29
  6
CONTINUOUS
  0
LAYER
  5
57
330
2
100
AcDbSymbolTableRecord
100
AcDbLayerTableRecord
  2
30
 70
     0
 62
    30
  6
CONTINUOUS
  0
LAYER
  5
58
330
2
100
AcDbSymbolTableRecord
100
AcDbLayerTableRecord
  2
31
 70
     0
 62
    31
  6
CONTINUOUS
  0
LAYER
  5
59
330
2
100
AcDbSymbolTableRecord
100
AcDbLayerTableRecord
  2
32
 70
     0
 62
    32
  6
CONTINUOUS
  0
LAYER
  5
5A
330
2
100
AcDbSymbolTableRecord
100
AcDbLayerTableRecord
  2
33
 70
     0
 62
    33
  6
CONTINUOUS
  0
LAYER
  5
5B
330
2
100
AcDbSymbolTableRecord
100
AcDbLayerTableRecord
  2
34
 70
     0
 62
    34
  6
CONTINUOUS
  0
LAYER
  5
5C
330
2
100
AcDbSymbolTableRecord
100
AcDbLayerTableRecord
  2
35
 70
     0
 62
    35
  6
CONTINUOUS
  0
LAYER
  5
5D
330
2
100
AcDbSymbolTableRecord
100
AcDbLayerTableRecord
  2
36
 70
     0
 62
    36
  6
CONTINUOUS
  0
LAYER
  5
5E
330
2
100
AcDbSymbolTableRecord
100
AcDbLayerTableRecord
  2
37
 70
     0
 62
    37
  6
CONTINUOUS
  0
LAYER
  5
5F
330
2
100
AcDbSymbolTableRecord
100
AcDbLayerTableRecord
  2
38
 70
     0
 62
    38
  6
CONTINUOUS
  0
LAYER
  5
60
330
2
100
AcDbSymbolTableRecord
100
AcDbLayerTableRecord
  2
39
 70
     0
 62
    39
  6
CONTINUOUS
  0
LAYER
  5
61
330
2
100
AcDbSymbolTableRecord
100
AcDbLayerTableRecord
  2
40
 70
     0
 62
    40
  6
CONTINUOUS
  0
LAYER
  5
62
330
2
100
AcDbSymbolTableRecord
100
AcDbLayerTableRecord
  2
41
 70
     0
 62
    41
  6
CONTINUOUS
  0
LAYER
  5
63
330
2
100
AcDbSymbolTableRecord
100
AcDbLayerTableRecord
  2
42
 70
     0
 62
    42
  6
CONTINUOUS
  0
LAYER
  5
64
330
2
100
AcDbSymbolTableRecord
100
AcDbLayerTableRecord
  2
43
 70
     0
 62
    43
  6
CONTINUOUS
  0
LAYER
  5
65
330
2
100
AcDbSymbolTableRecord
100
AcDbLayerTableRecord
  2
44
 70
     0
 62
    44
  6
CONTINUOUS
  0
LAYER
  5
66
330
2
100
AcDbSymbolTableRecord
100
AcDbLayerTableRecord
  2
45
 70
     0
 62
    45
  6
CONTINUOUS
  0
LAYER
  5
67
330
2
100
AcDbSymbolTableRecord
100
AcDbLayerTableRecord
  2
46
 70
     0
 62
    46
  6
CONTINUOUS
  0
LAYER
  5
68
330
2
100
AcDbSymbolTableRecord
100
AcDbLayerTableRecord
  2
47
 70
     0
 62
    47
  6
CONTINUOUS
  0
LAYER
  5
69
330
2
100
AcDbSymbolTableRecord
100
AcDbLayerTableRecord
  2
48
 70
     0
 62
    48
  6
CONTINUOUS
  0
LAYER
  5
6A
330
2
100
AcDbSymbolTableRecord
100
AcDbLayerTableRecord
  2
49
 70
     0
 62
    49
  6
CONTINUOUS
  0
LAYER
  5
6B
330
2
100
AcDbSymbolTableRecord
100
AcDbLayerTableRecord
  2
50
 70
     0
 62
    50
  6
CONTINUOUS
  0
LAYER
  5
6C
330
2
100
AcDbSymbolTableRecord
100
AcDbLayerTableRecord
  2
51
 70
     0
 62
    51
  6
CONTINUOUS
  0
LAYER
  5
6D
330
2
100
AcDbSymbolTableRecord
100
AcDbLayerTableRecord
  2
52
 70
     0
 62
    52
  6
CONTINUOUS
  0
LAYER
  5
6E
330
2
100
AcDbSymbolTableRecord
100
AcDbLayerTableRecord
  2
53
 70
     0
 62
    53
  6
CONTINUOUS
  0
LAYER
  5
6F
330
2
100
AcDbSymbolTableRecord
100
AcDbLayerTableRecord
  2
54
 70
     0
 62
    54
  6
CONTINUOUS
  0
LAYER
  5
70
330
2
100
AcDbSymbolTableRecord
100
AcDbLayerTableRecord
  2
55
 70
     0
 62
    55
  6
CONTINUOUS
  0
LAYER
  5
71
330
2
100
AcDbSymbolTableRecord
100
AcDbLayerTableRecord
  2
56
 70
     0
 62
    56
  6
CONTINUOUS
  0
LAYER
  5
72
330
2
100
AcDbSymbolTableRecord
100
AcDbLayerTableRecord
  2
57
 70
     0
 62
    57
  6
CONTINUOUS
  0
LAYER
  5
73
330
2
100
AcDbSymbolTableRecord
100
AcDbLayerTableRecord
  2
58
 70
     0
 62
    58
  6
CONTINUOUS
  0
LAYER
  5
74
330
2
100
AcDbSymbolTableRecord
100
AcDbLayerTableRecord
  2
59
 70
     0
 62
    59
  6
CONTINUOUS
  0
LAYER
  5
75
330
2
100
AcDbSymbolTableRecord
100
AcDbLayerTableRecord
  2
60
 70
     0
 62
    60
  6
CONTINUOUS
  0
LAYER
  5
76
330
2
100
AcDbSymbolTableRecord
100
AcDbLayerTableRecord
  2
61
 70
     0
 62
    61
  6
CONTINUOUS
  0
LAYER
  5
77
330
2
100
AcDbSymbolTableRecord
100
AcDbLayerTableRecord
  2
62
 70
     0
 62
    62
  6
CONTINUOUS
  0
LAYER
  5
78
330
2
100
AcDbSymbolTableRecord
100
AcDbLayerTableRecord
  2
63
 70
     0
 62
    63
  6
CONTINUOUS
  0
LAYER
  5
79
330
2
100
AcDbSymbolTableRecord
100
AcDbLayerTableRecord
  2
64
 70
     0
 62
    64
  6
CONTINUOUS
  0
LAYER
  5
7A
330
2
100
AcDbSymbolTableRecord
100
AcDbLayerTableRecord
  2
65
 70
     0
 62
    65
  6
CONTINUOUS
  0
LAYER
  5
7B
330
2
100
AcDbSymbolTableRecord
100
AcDbLayerTableRecord
  2
66
 70
     0
 62
    66
  6
CONTINUOUS
  0
LAYER
  5
7C
330
2
100
AcDbSymbolTableRecord
100
AcDbLayerTableRecord
  2
67
 70
     0
 62
    67
  6
CONTINUOUS
  0
LAYER
  5
7D
330
2
100
AcDbSymbolTableRecord
100
AcDbLayerTableRecord
  2
68
 70
     0
 62
    68
  6
CONTINUOUS
  0
LAYER
  5
7E
330
2
100
AcDbSymbolTableRecord
100
AcDbLayerTableRecord
  2
69
 70
     0
 62
    69
  6
CONTINUOUS
  0
LAYER
  5
7F
330
2
100
AcDbSymbolTableRecord
100
AcDbLayerTableRecord
  2
70
 70
     0
 62
    70
  6
CONTINUOUS
  0
LAYER
  5
80
330
2
100
AcDbSymbolTableRecord
100
AcDbLayerTableRecord
  2
71
 70
     0
 62
    71
  6
CONTINUOUS
  0
LAYER
  5
81
330
2
100
AcDbSymbolTableRecord
100
AcDbLayerTableRecord
  2
72
 70
     0
 62
    72
  6
CONTINUOUS
  0
LAYER
  5
82
330
2
100
AcDbSymbolTableRecord
100
AcDbLayerTableRecord
  2
73
 70
     0
 62
    73
  6
CONTINUOUS
  0
LAYER
  5
83
330
2
100
AcDbSymbolTableRecord
100
AcDbLayerTableRecord
  2
74
 70
     0
 62
    74
  6
CONTINUOUS
  0
LAYER
  5
84
330
2
100
AcDbSymbolTableRecord
100
AcDbLayerTableRecord
  2
75
 70
     0
 62
    75
  6
CONTINUOUS
  0
LAYER
  5
85
330
2
100
AcDbSymbolTableRecord
100
AcDbLayerTableRecord
  2
76
 70
     0
 62
    76
  6
CONTINUOUS
  0
LAYER
  5
86
330
2
100
AcDbSymbolTableRecord
100
AcDbLayerTableRecord
  2
77
 70
     0
 62
    77
  6
CONTINUOUS
  0
LAYER
  5
87
330
2
100
AcDbSymbolTableRecord
100
AcDbLayerTableRecord
  2
78
 70
     0
 62
    78
  6
CONTINUOUS
  0
LAYER
  5
88
330
2
100
AcDbSymbolTableRecord
100
AcDbLayerTableRecord
  2
79
 70
     0
 62
    79
  6
CONTINUOUS
  0
LAYER
  5
89
330
2
100
AcDbSymbolTableRecord
100
AcDbLayerTableRecord
  2
80
 70
     0
 62
    80
  6
CONTINUOUS
  0
LAYER
  5
8A
330
2
100
AcDbSymbolTableRecord
100
AcDbLayerTableRecord
  2
81
 70
     0
 62
    81
  6
CONTINUOUS
  0
LAYER
  5
8B
330
2
100
AcDbSymbolTableRecord
100
AcDbLayerTableRecord
  2
82
 70
     0
 62
    82
  6
CONTINUOUS
  0
LAYER
  5
8C
330
2
100
AcDbSymbolTableRecord
100
AcDbLayerTableRecord
  2
83
 70
     0
 62
    83
  6
CONTINUOUS
  0
LAYER
  5
8D
330
2
100
AcDbSymbolTableRecord
100
AcDbLayerTableRecord
  2
84
 70
     0
 62
    84
  6
CONTINUOUS
  0
LAYER
  5
8E
330
2
100
AcDbSymbolTableRecord
100
AcDbLayerTableRecord
  2
85
 70
     0
 62
    85
  6
CONTINUOUS
  0
LAYER
  5
8F
330
2
100
AcDbSymbolTableRecord
100
AcDbLayerTableRecord
  2
86
 70
     0
 62
    86
  6
CONTINUOUS
  0
LAYER
  5
90
330
2
100
AcDbSymbolTableRecord
100
AcDbLayerTableRecord
  2
87
 70
     0
 62
    87
  6
CONTINUOUS
  0
LAYER
  5
91
330
2
100
AcDbSymbolTableRecord
100
AcDbLayerTableRecord
  2
88
 70
     0
 62
    88
  6
CONTINUOUS
  0
LAYER
  5
92
330
2
100
AcDbSymbolTableRecord
100
AcDbLayerTableRecord
  2
89
 70
     0
 62
    89
  6
CONTINUOUS
  0
LAYER
  5
93
330
2
100
AcDbSymbolTableRecord
100
AcDbLayerTableRecord
  2
90
 70
     0
 62
    90
  6
CONTINUOUS
  0
LAYER
  5
94
330
2
100
AcDbSymbolTableRecord
100
AcDbLayerTableRecord
  2
91
 70
     0
 62
    91
  6
CONTINUOUS
  0
LAYER
  5
95
330
2
100
AcDbSymbolTableRecord
100
AcDbLayerTableRecord
  2
92
 70
     0
 62
    92
  6
CONTINUOUS
  0
LAYER
  5
96
330
2
100
AcDbSymbolTableRecord
100
AcDbLayerTableRecord
  2
93
 70
     0
 62
    93
  6
CONTINUOUS
  0
LAYER
  5
97
330
2
100
AcDbSymbolTableRecord
100
AcDbLayerTableRecord
  2
94
 70
     0
 62
    94
  6
CONTINUOUS
  0
LAYER
  5
98
330
2
100
AcDbSymbolTableRecord
100
AcDbLayerTableRecord
  2
95
 70
     0
 62
    95
  6
CONTINUOUS
  0
LAYER
  5
99
330
2
100
AcDbSymbolTableRecord
100
AcDbLayerTableRecord
  2
96
 70
     0
 62
    96
  6
CONTINUOUS
  0
LAYER
  5
9A
330
2
100
AcDbSymbolTableRecord
100
AcDbLayerTableRecord
  2
97
 70
     0
 62
    97
  6
CONTINUOUS
  0
LAYER
  5
9B
330
2
100
AcDbSymbolTableRecord
100
AcDbLayerTableRecord
  2
98
 70
     0
 62
    98
  6
CONTINUOUS
  0
LAYER
  5
9C
330
2
100
AcDbSymbolTableRecord
100
AcDbLayerTableRecord
  2
99
 70
     0
 62
    99
  6
CONTINUOUS
  0
LAYER
  5
9D
330
2
100
AcDbSymbolTableRecord
100
AcDbLayerTableRecord
  2
100
 70
     0
 62
   100
  6
CONTINUOUS
  0
LAYER
  5
9E
330
2
100
AcDbSymbolTableRecord
100
AcDbLayerTableRecord
  2
101
 70
     0
 62
   101
  6
CONTINUOUS
  0
LAYER
  5
9F
330
2
100
AcDbSymbolTableRecord
100
AcDbLayerTableRecord
  2
102
 70
     0
 62
   102
  6
CONTINUOUS
  0
LAYER
  5
A0
330
2
100
AcDbSymbolTableRecord
100
AcDbLayerTableRecord
  2
103
 70
     0
 62
   103
  6
CONTINUOUS
  0
LAYER
  5
A1
330
2
100
AcDbSymbolTableRecord
100
AcDbLayerTableRecord
  2
104
 70
     0
 62
   104
  6
CONTINUOUS
  0
LAYER
  5
A2
330
2
100
AcDbSymbolTableRecord
100
AcDbLayerTableRecord
  2
105
 70
     0
 62
   105
  6
CONTINUOUS
  0
LAYER
  5
A3
330
2
100
AcDbSymbolTableRecord
100
AcDbLayerTableRecord
  2
106
 70
     0
 62
   106
  6
CONTINUOUS
  0
LAYER
  5
A4
330
2
100
AcDbSymbolTableRecord
100
AcDbLayerTableRecord
  2
107
 70
     0
 62
   107
  6
CONTINUOUS
  0
LAYER
  5
A5
330
2
100
AcDbSymbolTableRecord
100
AcDbLayerTableRecord
  2
108
 70
     0
 62
   108
  6
CONTINUOUS
  0
LAYER
  5
A6
330
2
100
AcDbSymbolTableRecord
100
AcDbLayerTableRecord
  2
109
 70
     0
 62
   109
  6
CONTINUOUS
  0
LAYER
  5
A7
330
2
100
AcDbSymbolTableRecord
100
AcDbLayerTableRecord
  2
110
 70
     0
 62
   110
  6
CONTINUOUS
  0
LAYER
  5
A8
330
2
100
AcDbSymbolTableRecord
100
AcDbLayerTableRecord
  2
111
 70
     0
 62
   111
  6
CONTINUOUS
  0
LAYER
  5
A9
330
2
100
AcDbSymbolTableRecord
100
AcDbLayerTableRecord
  2
112
 70
     0
 62
   112
  6
CONTINUOUS
  0
LAYER
  5
AA
330
2
100
AcDbSymbolTableRecord
100
AcDbLayerTableRecord
  2
113
 70
     0
 62
   113
  6
CONTINUOUS
  0
LAYER
  5
AB
330
2
100
AcDbSymbolTableRecord
100
AcDbLayerTableRecord
  2
114
 70
     0
 62
   114
  6
CONTINUOUS
  0
LAYER
  5
AC
330
2
100
AcDbSymbolTableRecord
100
AcDbLayerTableRecord
  2
115
 70
     0
 62
   115
  6
CONTINUOUS
  0
LAYER
  5
AD
330
2
100
AcDbSymbolTableRecord
100
AcDbLayerTableRecord
  2
116
 70
     0
 62
   116
  6
CONTINUOUS
  0
LAYER
  5
AE
330
2
100
AcDbSymbolTableRecord
100
AcDbLayerTableRecord
  2
117
 70
     0
 62
   117
  6
CONTINUOUS
  0
LAYER
  5
AF
330
2
100
AcDbSymbolTableRecord
100
AcDbLayerTableRecord
  2
118
 70
     0
 62
   118
  6
CONTINUOUS
  0
LAYER
  5
B0
330
2
100
AcDbSymbolTableRecord
100
AcDbLayerTableRecord
  2
119
 70
     0
 62
   119
  6
CONTINUOUS
  0
LAYER
  5
B1
330
2
100
AcDbSymbolTableRecord
100
AcDbLayerTableRecord
  2
120
 70
     0
 62
   120
  6
CONTINUOUS
  0
LAYER
  5
B2
330
2
100
AcDbSymbolTableRecord
100
AcDbLayerTableRecord
  2
121
 70
     0
 62
   121
  6
CONTINUOUS
  0
LAYER
  5
B3
330
2
100
AcDbSymbolTableRecord
100
AcDbLayerTableRecord
  2
122
 70
     0
 62
   122
  6
CONTINUOUS
  0
LAYER
  5
B4
330
2
100
AcDbSymbolTableRecord
100
AcDbLayerTableRecord
  2
123
 70
     0
 62
   123
  6
CONTINUOUS
  0
LAYER
  5
B5
330
2
100
AcDbSymbolTableRecord
100
AcDbLayerTableRecord
  2
124
 70
     0
 62
   124
  6
CONTINUOUS
  0
LAYER
  5
B6
330
2
100
AcDbSymbolTableRecord
100
AcDbLayerTableRecord
  2
125
 70
     0
 62
   125
  6
CONTINUOUS
  0
LAYER
  5
B7
330
2
100
AcDbSymbolTableRecord
100
AcDbLayerTableRecord
  2
126
 70
     0
 62
   126
  6
CONTINUOUS
  0
LAYER
  5
B8
330
2
100
AcDbSymbolTableRecord
100
AcDbLayerTableRecord
  2
127
 70
     0
 62
   127
  6
CONTINUOUS
  0
LAYER
  5
B9
330
2
100
AcDbSymbolTableRecord
100
AcDbLayerTableRecord
  2
128
 70
     0
 62
   128
  6
CONTINUOUS
  0
LAYER
  5
BA
330
2
100
AcDbSymbolTableRecord
100
AcDbLayerTableRecord
  2
129
 70
     0
 62
   129
  6
CONTINUOUS
  0
LAYER
  5
BB
330
2
100
AcDbSymbolTableRecord
100
AcDbLayerTableRecord
  2
130
 70
     0
 62
   130
  6
CONTINUOUS
  0
LAYER
  5
BC
330
2
100
AcDbSymbolTableRecord
100
AcDbLayerTableRecord
  2
131
 70
     0
 62
   131
  6
CONTINUOUS
  0
LAYER
  5
BD
330
2
100
AcDbSymbolTableRecord
100
AcDbLayerTableRecord
  2
132
 70
     0
 62
   132
  6
CONTINUOUS
  0
LAYER
  5
BE
330
2
100
AcDbSymbolTableRecord
100
AcDbLayerTableRecord
  2
133
 70
     0
 62
   133
  6
CONTINUOUS
  0
LAYER
  5
BF
330
2
100
AcDbSymbolTableRecord
100
AcDbLayerTableRecord
  2
134
 70
     0
 62
   134
  6
CONTINUOUS
  0
LAYER
  5
C0
330
2
100
AcDbSymbolTableRecord
100
AcDbLayerTableRecord
  2
135
 70
     0
 62
   135
  6
CONTINUOUS
  0
LAYER
  5
C1
330
2
100
AcDbSymbolTableRecord
100
AcDbLayerTableRecord
  2
136
 70
     0
 62
   136
  6
CONTINUOUS
  0
LAYER
  5
C2
330
2
100
AcDbSymbolTableRecord
100
AcDbLayerTableRecord
  2
137
 70
     0
 62
   137
  6
CONTINUOUS
  0
LAYER
  5
C3
330
2
100
AcDbSymbolTableRecord
100
AcDbLayerTableRecord
  2
138
 70
     0
 62
   138
  6
CONTINUOUS
  0
LAYER
  5
C4
330
2
100
AcDbSymbolTableRecord
100
AcDbLayerTableRecord
  2
139
 70
     0
 62
   139
  6
CONTINUOUS
  0
LAYER
  5
C5
330
2
100
AcDbSymbolTableRecord
100
AcDbLayerTableRecord
  2
140
 70
     0
 62
   140
  6
CONTINUOUS
  0
LAYER
  5
C6
330
2
100
AcDbSymbolTableRecord
100
AcDbLayerTableRecord
  2
141
 70
     0
 62
   141
  6
CONTINUOUS
  0
LAYER
  5
C7
330
2
100
AcDbSymbolTableRecord
100
AcDbLayerTableRecord
  2
142
 70
     0
 62
   142
  6
CONTINUOUS
  0
LAYER
  5
C8
330
2
100
AcDbSymbolTableRecord
100
AcDbLayerTableRecord
  2
143
 70
     0
 62
   143
  6
CONTINUOUS
  0
LAYER
  5
C9
330
2
100
AcDbSymbolTableRecord
100
AcDbLayerTableRecord
  2
144
 70
     0
 62
   144
  6
CONTINUOUS
  0
LAYER
  5
CA
330
2
100
AcDbSymbolTableRecord
100
AcDbLayerTableRecord
  2
145
 70
     0
 62
   145
  6
CONTINUOUS
  0
LAYER
  5
CB
330
2
100
AcDbSymbolTableRecord
100
AcDbLayerTableRecord
  2
146
 70
     0
 62
   146
  6
CONTINUOUS
  0
LAYER
  5
CC
330
2
100
AcDbSymbolTableRecord
100
AcDbLayerTableRecord
  2
147
 70
     0
 62
   147
  6
CONTINUOUS
  0
LAYER
  5
CD
330
2
100
AcDbSymbolTableRecord
100
AcDbLayerTableRecord
  2
148
 70
     0
 62
   148
  6
CONTINUOUS
  0
LAYER
  5
CE
330
2
100
AcDbSymbolTableRecord
100
AcDbLayerTableRecord
  2
149
 70
     0
 62
   149
  6
CONTINUOUS
  0
LAYER
  5
CF
330
2
100
AcDbSymbolTableRecord
100
AcDbLayerTableRecord
  2
150
 70
     0
 62
   150
  6
CONTINUOUS
  0
LAYER
  5
D0
330
2
100
AcDbSymbolTableRecord
100
AcDbLayerTableRecord
  2
151
 70
     0
 62
   151
  6
CONTINUOUS
  0
LAYER
  5
D1
330
2
100
AcDbSymbolTableRecord
100
AcDbLayerTableRecord
  2
152
 70
     0
 62
   152
  6
CONTINUOUS
  0
LAYER
  5
D2
330
2
100
AcDbSymbolTableRecord
100
AcDbLayerTableRecord
  2
153
 70
     0
 62
   153
  6
CONTINUOUS
  0
LAYER
  5
D3
330
2
100
AcDbSymbolTableRecord
100
AcDbLayerTableRecord
  2
154
 70
     0
 62
   154
  6
CONTINUOUS
  0
LAYER
  5
D4
330
2
100
AcDbSymbolTableRecord
100
AcDbLayerTableRecord
  2
155
 70
     0
 62
   155
  6
CONTINUOUS
  0
LAYER
  5
D5
330
2
100
AcDbSymbolTableRecord
100
AcDbLayerTableRecord
  2
156
 70
     0
 62
   156
  6
CONTINUOUS
  0
LAYER
  5
D6
330
2
100
AcDbSymbolTableRecord
100
AcDbLayerTableRecord
  2
157
 70
     0
 62
   157
  6
CONTINUOUS
  0
LAYER
  5
D7
330
2
100
AcDbSymbolTableRecord
100
AcDbLayerTableRecord
  2
158
 70
     0
 62
   158
  6
CONTINUOUS
  0
LAYER
  5
D8
330
2
100
AcDbSymbolTableRecord
100
AcDbLayerTableRecord
  2
159
 70
     0
 62
   159
  6
CONTINUOUS
  0
LAYER
  5
D9
330
2
100
AcDbSymbolTableRecord
100
AcDbLayerTableRecord
  2
160
 70
     0
 62
   160
  6
CONTINUOUS
  0
LAYER
  5
DA
330
2
100
AcDbSymbolTableRecord
100
AcDbLayerTableRecord
  2
161
 70
     0
 62
   161
  6
CONTINUOUS
  0
LAYER
  5
DB
330
2
100
AcDbSymbolTableRecord
100
AcDbLayerTableRecord
  2
162
 70
     0
 62
   162
  6
CONTINUOUS
  0
LAYER
  5
DC
330
2
100
AcDbSymbolTableRecord
100
AcDbLayerTableRecord
  2
163
 70
     0
 62
   163
  6
CONTINUOUS
  0
LAYER
  5
DD
330
2
100
AcDbSymbolTableRecord
100
AcDbLayerTableRecord
  2
164
 70
     0
 62
   164
  6
CONTINUOUS
  0
LAYER
  5
DE
330
2
100
AcDbSymbolTableRecord
100
AcDbLayerTableRecord
  2
165
 70
     0
 62
   165
  6
CONTINUOUS
  0
LAYER
  5
DF
330
2
100
AcDbSymbolTableRecord
100
AcDbLayerTableRecord
  2
166
 70
     0
 62
   166
  6
CONTINUOUS
  0
LAYER
  5
E0
330
2
100
AcDbSymbolTableRecord
100
AcDbLayerTableRecord
  2
167
 70
     0
 62
   167
  6
CONTINUOUS
  0
LAYER
  5
E1
330
2
100
AcDbSymbolTableRecord
100
AcDbLayerTableRecord
  2
168
 70
     0
 62
   168
  6
CONTINUOUS
  0
LAYER
  5
E2
330
2
100
AcDbSymbolTableRecord
100
AcDbLayerTableRecord
  2
169
 70
     0
 62
   169
  6
CONTINUOUS
  0
LAYER
  5
E3
330
2
100
AcDbSymbolTableRecord
100
AcDbLayerTableRecord
  2
170
 70
     0
 62
   170
  6
CONTINUOUS
  0
LAYER
  5
E4
330
2
100
AcDbSymbolTableRecord
100
AcDbLayerTableRecord
  2
171
 70
     0
 62
   171
  6
CONTINUOUS
  0
LAYER
  5
E5
330
2
100
AcDbSymbolTableRecord
100
AcDbLayerTableRecord
  2
172
 70
     0
 62
   172
  6
CONTINUOUS
  0
LAYER
  5
E6
330
2
100
AcDbSymbolTableRecord
100
AcDbLayerTableRecord
  2
173
 70
     0
 62
   173
  6
CONTINUOUS
  0
LAYER
  5
E7
330
2
100
AcDbSymbolTableRecord
100
AcDbLayerTableRecord
  2
174
 70
     0
 62
   174
  6
CONTINUOUS
  0
LAYER
  5
E8
330
2
100
AcDbSymbolTableRecord
100
AcDbLayerTableRecord
  2
175
 70
     0
 62
   175
  6
CONTINUOUS
  0
LAYER
  5
E9
330
2
100
AcDbSymbolTableRecord
100
AcDbLayerTableRecord
  2
176
 70
     0
 62
   176
  6
CONTINUOUS
  0
LAYER
  5
EA
330
2
100
AcDbSymbolTableRecord
100
AcDbLayerTableRecord
  2
177
 70
     0
 62
   177
  6
CONTINUOUS
  0
LAYER
  5
EB
330
2
100
AcDbSymbolTableRecord
100
AcDbLayerTableRecord
  2
178
 70
     0
 62
   178
  6
CONTINUOUS
  0
LAYER
  5
EC
330
2
100
AcDbSymbolTableRecord
100
AcDbLayerTableRecord
  2
179
 70
     0
 62
   179
  6
CONTINUOUS
  0
LAYER
  5
ED
330
2
100
AcDbSymbolTableRecord
100
AcDbLayerTableRecord
  2
180
 70
     0
 62
   180
  6
CONTINUOUS
  0
LAYER
  5
EE
330
2
100
AcDbSymbolTableRecord
100
AcDbLayerTableRecord
  2
181
 70
     0
 62
   181
  6
CONTINUOUS
  0
LAYER
  5
EF
330
2
100
AcDbSymbolTableRecord
100
AcDbLayerTableRecord
  2
182
 70
     0
 62
   182
  6
CONTINUOUS
  0
LAYER
  5
F0
330
2
100
AcDbSymbolTableRecord
100
AcDbLayerTableRecord
  2
183
 70
     0
 62
   183
  6
CONTINUOUS
  0
LAYER
  5
F1
330
2
100
AcDbSymbolTableRecord
100
AcDbLayerTableRecord
  2
184
 70
     0
 62
   184
  6
CONTINUOUS
  0
LAYER
  5
F2
330
2
100
AcDbSymbolTableRecord
100
AcDbLayerTableRecord
  2
185
 70
     0
 62
   185
  6
CONTINUOUS
  0
LAYER
  5
F3
330
2
100
AcDbSymbolTableRecord
100
AcDbLayerTableRecord
  2
186
 70
     0
 62
   186
  6
CONTINUOUS
  0
LAYER
  5
F4
330
2
100
AcDbSymbolTableRecord
100
AcDbLayerTableRecord
  2
187
 70
     0
 62
   187
  6
CONTINUOUS
  0
LAYER
  5
F5
330
2
100
AcDbSymbolTableRecord
100
AcDbLayerTableRecord
  2
188
 70
     0
 62
   188
  6
CONTINUOUS
  0
LAYER
  5
F6
330
2
100
AcDbSymbolTableRecord
100
AcDbLayerTableRecord
  2
189
 70
     0
 62
   189
  6
CONTINUOUS
  0
LAYER
  5
F7
330
2
100
AcDbSymbolTableRecord
100
AcDbLayerTableRecord
  2
190
 70
     0
 62
   190
  6
CONTINUOUS
  0
LAYER
  5
F8
330
2
100
AcDbSymbolTableRecord
100
AcDbLayerTableRecord
  2
191
 70
     0
 62
   191
  6
CONTINUOUS
  0
LAYER
  5
F9
330
2
100
AcDbSymbolTableRecord
100
AcDbLayerTableRecord
  2
192
 70
     0
 62
   192
  6
CONTINUOUS
  0
LAYER
  5
FA
330
2
100
AcDbSymbolTableRecord
100
AcDbLayerTableRecord
  2
193
 70
     0
 62
   193
  6
CONTINUOUS
  0
LAYER
  5
FB
330
2
100
AcDbSymbolTableRecord
100
AcDbLayerTableRecord
  2
194
 70
     0
 62
   194
  6
CONTINUOUS
  0
LAYER
  5
FC
330
2
100
AcDbSymbolTableRecord
100
AcDbLayerTableRecord
  2
195
 70
     0
 62
   195
  6
CONTINUOUS
  0
LAYER
  5
FD
330
2
100
AcDbSymbolTableRecord
100
AcDbLayerTableRecord
  2
196
 70
     0
 62
   196
  6
CONTINUOUS
  0
LAYER
  5
FE
330
2
100
AcDbSymbolTableRecord
100
AcDbLayerTableRecord
  2
197
 70
     0
 62
   197
  6
CONTINUOUS
  0
LAYER
  5
FF
330
2
100
AcDbSymbolTableRecord
100
AcDbLayerTableRecord
  2
198
 70
     0
 62
   198
  6
CONTINUOUS
  0
LAYER
  5
100
330
2
100
AcDbSymbolTableRecord
100
AcDbLayerTableRecord
  2
199
 70
     0
 62
   199
  6
CONTINUOUS
  0
LAYER
  5
101
330
2
100
AcDbSymbolTableRecord
100
AcDbLayerTableRecord
  2
200
 70
     0
 62
   200
  6
CONTINUOUS
  0
LAYER
  5
102
330
2
100
AcDbSymbolTableRecord
100
AcDbLayerTableRecord
  2
201
 70
     0
 62
   201
  6
CONTINUOUS
  0
LAYER
  5
103
330
2
100
AcDbSymbolTableRecord
100
AcDbLayerTableRecord
  2
202
 70
     0
 62
   202
  6
CONTINUOUS
  0
LAYER
  5
104
330
2
100
AcDbSymbolTableRecord
100
AcDbLayerTableRecord
  2
203
 70
     0
 62
   203
  6
CONTINUOUS
  0
LAYER
  5
105
330
2
100
AcDbSymbolTableRecord
100
AcDbLayerTableRecord
  2
204
 70
     0
 62
   204
  6
CONTINUOUS
  0
LAYER
  5
106
330
2
100
AcDbSymbolTableRecord
100
AcDbLayerTableRecord
  2
205
 70
     0
 62
   205
  6
CONTINUOUS
  0
LAYER
  5
107
330
2
100
AcDbSymbolTableRecord
100
AcDbLayerTableRecord
  2
206
 70
     0
 62
   206
  6
CONTINUOUS
  0
LAYER
  5
108
330
2
100
AcDbSymbolTableRecord
100
AcDbLayerTableRecord
  2
207
 70
     0
 62
   207
  6
CONTINUOUS
  0
LAYER
  5
109
330
2
100
AcDbSymbolTableRecord
100
AcDbLayerTableRecord
  2
208
 70
     0
 62
   208
  6
CONTINUOUS
  0
LAYER
  5
10A
330
2
100
AcDbSymbolTableRecord
100
AcDbLayerTableRecord
  2
209
 70
     0
 62
   209
  6
CONTINUOUS
  0
LAYER
  5
10B
330
2
100
AcDbSymbolTableRecord
100
AcDbLayerTableRecord
  2
210
 70
     0
 62
   210
  6
CONTINUOUS
  0
LAYER
  5
10C
330
2
100
AcDbSymbolTableRecord
100
AcDbLayerTableRecord
  2
211
 70
     0
 62
   211
  6
CONTINUOUS
  0
LAYER
  5
10D
330
2
100
AcDbSymbolTableRecord
100
AcDbLayerTableRecord
  2
212
 70
     0
 62
   212
  6
CONTINUOUS
  0
LAYER
  5
10E
330
2
100
AcDbSymbolTableRecord
100
AcDbLayerTableRecord
  2
213
 70
     0
 62
   213
  6
CONTINUOUS
  0
LAYER
  5
10F
330
2
100
AcDbSymbolTableRecord
100
AcDbLayerTableRecord
  2
214
 70
     0
 62
   214
  6
CONTINUOUS
  0
LAYER
  5
110
330
2
100
AcDbSymbolTableRecord
100
AcDbLayerTableRecord
  2
215
 70
     0
 62
   215
  6
CONTINUOUS
  0
LAYER
  5
111
330
2
100
AcDbSymbolTableRecord
100
AcDbLayerTableRecord
  2
216
 70
     0
 62
   216
  6
CONTINUOUS
  0
LAYER
  5
112
330
2
100
AcDbSymbolTableRecord
100
AcDbLayerTableRecord
  2
217
 70
     0
 62
   217
  6
CONTINUOUS
  0
LAYER
  5
113
330
2
100
AcDbSymbolTableRecord
100
AcDbLayerTableRecord
  2
218
 70
     0
 62
   218
  6
CONTINUOUS
  0
LAYER
  5
114
330
2
100
AcDbSymbolTableRecord
100
AcDbLayerTableRecord
  2
219
 70
     0
 62
   219
  6
CONTINUOUS
  0
LAYER
  5
115
330
2
100
AcDbSymbolTableRecord
100
AcDbLayerTableRecord
  2
220
 70
     0
 62
   220
  6
CONTINUOUS
  0
LAYER
  5
116
330
2
100
AcDbSymbolTableRecord
100
AcDbLayerTableRecord
  2
221
 70
     0
 62
   221
  6
CONTINUOUS
  0
LAYER
  5
117
330
2
100
AcDbSymbolTableRecord
100
AcDbLayerTableRecord
  2
222
 70
     0
 62
   222
  6
CONTINUOUS
  0
LAYER
  5
118
330
2
100
AcDbSymbolTableRecord
100
AcDbLayerTableRecord
  2
223
 70
     0
 62
   223
  6
CONTINUOUS
  0
LAYER
  5
119
330
2
100
AcDbSymbolTableRecord
100
AcDbLayerTableRecord
  2
224
 70
     0
 62
   224
  6
CONTINUOUS
  0
LAYER
  5
11A
330
2
100
AcDbSymbolTableRecord
100
AcDbLayerTableRecord
  2
225
 70
     0
 62
   225
  6
CONTINUOUS
  0
LAYER
  5
11B
330
2
100
AcDbSymbolTableRecord
100
AcDbLayerTableRecord
  2
226
 70
     0
 62
   226
  6
CONTINUOUS
  0
LAYER
  5
11C
330
2
100
AcDbSymbolTableRecord
100
AcDbLayerTableRecord
  2
227
 70
     0
 62
   227
  6
CONTINUOUS
  0
LAYER
  5
11D
330
2
100
AcDbSymbolTableRecord
100
AcDbLayerTableRecord
  2
228
 70
     0
 62
   228
  6
CONTINUOUS
  0
LAYER
  5
11E
330
2
100
AcDbSymbolTableRecord
100
AcDbLayerTableRecord
  2
229
 70
     0
 62
   229
  6
CONTINUOUS
  0
LAYER
  5
11F
330
2
100
AcDbSymbolTableRecord
100
AcDbLayerTableRecord
  2
230
 70
     0
 62
   230
  6
CONTINUOUS
  0
LAYER
  5
120
330
2
100
AcDbSymbolTableRecord
100
AcDbLayerTableRecord
  2
231
 70
     0
 62
   231
  6
CONTINUOUS
  0
LAYER
  5
121
330
2
100
AcDbSymbolTableRecord
100
AcDbLayerTableRecord
  2
232
 70
     0
 62
   232
  6
CONTINUOUS
  0
LAYER
  5
122
330
2
100
AcDbSymbolTableRecord
100
AcDbLayerTableRecord
  2
233
 70
     0
 62
   233
  6
CONTINUOUS
  0
LAYER
  5
123
330
2
100
AcDbSymbolTableRecord
100
AcDbLayerTableRecord
  2
234
 70
     0
 62
   234
  6
CONTINUOUS
  0
LAYER
  5
124
330
2
100
AcDbSymbolTableRecord
100
AcDbLayerTableRecord
  2
235
 70
     0
 62
   235
  6
CONTINUOUS
  0
LAYER
  5
125
330
2
100
AcDbSymbolTableRecord
100
AcDbLayerTableRecord
  2
236
 70
     0
 62
   236
  6
CONTINUOUS
  0
LAYER
  5
126
330
2
100
AcDbSymbolTableRecord
100
AcDbLayerTableRecord
  2
237
 70
     0
 62
   237
  6
CONTINUOUS
  0
LAYER
  5
127
330
2
100
AcDbSymbolTableRecord
100
AcDbLayerTableRecord
  2
238
 70
     0
 62
   238
  6
CONTINUOUS
  0
LAYER
  5
128
330
2
100
AcDbSymbolTableRecord
100
AcDbLayerTableRecord
  2
239
 70
     0
 62
   239
  6
CONTINUOUS
  0
LAYER
  5
129
330
2
100
AcDbSymbolTableRecord
100
AcDbLayerTableRecord
  2
240
 70
     0
 62
   240
  6
CONTINUOUS
  0
LAYER
  5
12A
330
2
100
AcDbSymbolTableRecord
100
AcDbLayerTableRecord
  2
241
 70
     0
 62
   241
  6
CONTINUOUS
  0
LAYER
  5
12B
330
2
100
AcDbSymbolTableRecord
100
AcDbLayerTableRecord
  2
242
 70
     0
 62
   242
  6
CONTINUOUS
  0
LAYER
  5
12C
330
2
100
AcDbSymbolTableRecord
100
AcDbLayerTableRecord
  2
243
 70
     0
 62
   243
  6
CONTINUOUS
  0
LAYER
  5
12D
330
2
100
AcDbSymbolTableRecord
100
AcDbLayerTableRecord
  2
244
 70
     0
 62
   244
  6
CONTINUOUS
  0
LAYER
  5
12E
330
2
100
AcDbSymbolTableRecord
100
AcDbLayerTableRecord
  2
245
 70
     0
 62
   245
  6
CONTINUOUS
  0
LAYER
  5
12F
330
2
100
AcDbSymbolTableRecord
100
AcDbLayerTableRecord
  2
246
 70
     0
 62
   246
  6
CONTINUOUS
  0
LAYER
  5
130
330
2
100
AcDbSymbolTableRecord
100
AcDbLayerTableRecord
  2
247
 70
     0
 62
   247
  6
CONTINUOUS
  0
LAYER
  5
131
330
2
100
AcDbSymbolTableRecord
100
AcDbLayerTableRecord
  2
248
 70
     0
 62
   248
  6
CONTINUOUS
  0
LAYER
  5
132
330
2
100
AcDbSymbolTableRecord
100
AcDbLayerTableRecord
  2
249
 70
     0
 62
   249
  6
CONTINUOUS
  0
LAYER
  5
133
330
2
100
AcDbSymbolTableRecord
100
AcDbLayerTableRecord
  2
250
 70
     0
 62
   250
  6
CONTINUOUS
  0
LAYER
  5
134
330
2
100
AcDbSymbolTableRecord
100
AcDbLayerTableRecord
  2
251
 70
     0
 62
   251
  6
CONTINUOUS
  0
LAYER
  5
135
330
2
100
AcDbSymbolTableRecord
100
AcDbLayerTableRecord
  2
252
 70
     0
 62
   252
  6
CONTINUOUS
  0
LAYER
  5
136
330
2
100
AcDbSymbolTableRecord
100
AcDbLayerTableRecord
  2
253
 70
     0
 62
   253
  6
CONTINUOUS
  0
LAYER
  5
137
330
2
100
AcDbSymbolTableRecord
100
AcDbLayerTableRecord
  2
254
 70
     0
 62
   254
  6
CONTINUOUS
  0
LAYER
  5
138
330
2
100
AcDbSymbolTableRecord
100
AcDbLayerTableRecord
  2
255
 70
     0
 62
   255
  6
CONTINUOUS
  0
ENDTAB
  0
TABLE
  2
STYLE
  5
3
330
0
100
AcDbSymbolTable
 70
     1
  0
STYLE
  5
11
330
3
100
AcDbSymbolTableRecord
100
AcDbTextStyleTableRecord
  2
STANDARD
 70
     0
 40
0.0
 41
1.0
 50
0.0
 71
     0
 42
0.2
  3
monotxt
  4

  0
ENDTAB
  0
TABLE
  2
VIEW
  5
6
330
0
100
AcDbSymbolTable
 70
     0
  0
ENDTAB
  0
TABLE
  2
UCS
  5
7
330
0
100
AcDbSymbolTable
 70
     0
  0
ENDTAB
  0
TABLE
  2
APPID
  5
9
330
0
100
AcDbSymbolTable
 70
     1
  0
APPID
  5
12
330
9
100
AcDbSymbolTableRecord
100
AcDbRegAppTableRecord
  2
ACAD
 70
     0
  0
ENDTAB
  0
TABLE
  2
DIMSTYLE
  5
A
330
0
100
AcDbSymbolTable
 70
     1
  0
DIMSTYLE
105
A9D
330
A
100
AcDbSymbolTableRecord
100
AcDbDimStyleTableRecord
  2
STANDARD
 70
     0
  3

  4

  5

  6

  7

 40
1.0
 41
0.18
 42
0.0625
 43
0.38
 44
0.18
 45
0.0
 46
0.0
 47
0.0
 48
0.0
140
0.18
141
0.09
142
0.0
143
25.4
144
1.0
145
0.0
146
1.0
147
0.09
 71
     0
 72
     0
 73
     1
 74
     1
 75
     0
 76
     0
 77
     0
 78
     0
170
     0
171
     2
172
     0
173
     0
174
     0
175
     0
176
     0
177
     0
178
     0
270
     2
271
     4
272
     4
273
     2
274
     2
340
11
275
     0
280
     0
281
     0
282
     0
283
     1
284
     0
285
     0
286
     0
287
     3
288
     0
  0
ENDTAB
  0
TABLE
  2
BLOCK_RECORD
  5
1
330
0
100
AcDbSymbolTable
 70
     0
  0
BLOCK_RECORD
  5
1E
102
{ACAD_XDICTIONARY
360
10C1
102
}
330
1
100
AcDbSymbolTableRecord
100
AcDbBlockTableRecord
  2
*MODEL_SPACE
  0
BLOCK_RECORD
  5
1A
102
{ACAD_XDICTIONARY
360
10BF
102
}
330
1
100
AcDbSymbolTableRecord
100
AcDbBlockTableRecord
  2
*PAPER_SPACE
  0
ENDTAB
  0
ENDSEC
  0
SECTION
  2
BLOCKS
  0
BLOCK
  5
13B
330
1E
100
AcDbEntity
  8
0
100
AcDbBlockBegin
  2
*MODEL_SPACE
 70
     0
 10
0.0
 20
0.0
 30
0.0
  3
*MODEL_SPACE
  1

  0
ENDBLK
  5
13C
330
1E
100
AcDbEntity
  8
0
100
AcDbBlockEnd
  0
BLOCK
  5
139
330
1A
100
AcDbEntity
 67
     1
  8
0
100
AcDbBlockBegin
  2
*PAPER_SPACE
 70
     0
 10
0.0
 20
0.0
 30
0.0
  3
*PAPER_SPACE
  1

  0
ENDBLK
  5
13A
330
1A
100
AcDbEntity
 67
     1
  8
0
100
AcDbBlockEnd
  0
ENDSEC
  0
SECTION
  2
ENTITIES
  0
LINE
  5
13E
330
1E
100
AcDbEntity
  8
7
100
AcDbLine
 10
12.34744094488188
 20
16.59744094488188
 30
0.0
 11
12.46751968503937
 21
16.58661417322834
 31
0.0
  0
LINE
  5
13F
330
1E
100
AcDbEntity
  8
7
100
AcDbLine
 10
12.35334645669291
 20
16.65748031496063
 30
0.0
 11
12.47244094488189
 21
16.64665354330708
 31
0.0
  0
LINE
  5
140
330
1E
100
AcDbEntity
  8
7
100
AcDbLine
 10
12.46751968503937
 20
16.58661417322834
 30
0.0
 11
12.45669291338582
 21
16.46751968503937
 31
0.0
  0
LINE
  5
141
330
1E
100
AcDbEntity
  8
7
100
AcDbLine
 10
12.34744094488188
 20
16.59744094488188
 30
0.0
 11
12.35334645669291
 21
16.65748031496063
 31
0.0
  0
LINE
  5
142
330
1E
100
AcDbEntity
  8
7
100
AcDbLine
 10
12.48326771653543
 20
16.76673228346456
 30
0.0
 11
12.47244094488189
 21
16.64665354330708
 31
0.0
  0
LINE
  5
149
330
1E
100
AcDbEntity
  8
7
100
AcDbLine
 10
12.64665354330708
 20
16.57086614173228
 30
0.0
 11
12.6515748031496
 21
16.63090551181102
 31
0.0
  0
LINE
  5
14A
330
1E
100
AcDbEntity
  8
7
100
AcDbLine
 10
12.52755905511811
 20
16.58169291338582
 30
0.0
 11
12.64665354330708
 21
16.57086614173228
 31
0.0
  0
LINE
  5
14B
330
1E
100
AcDbEntity
  8
7
100
AcDbLine
 10
12.52755905511811
 20
16.58169291338582
 30
0.0
 11
12.51673228346456
 21
16.46259842519685
 31
0.0
  0
LINE
  5
14C
330
1E
100
AcDbEntity
  8
7
100
AcDbLine
 10
12.45669291338582
 20
16.46751968503937
 30
0.0
 11
12.51673228346456
 21
16.46259842519685
 31
0.0
  0
LINE
  5
14D
330
1E
100
AcDbEntity
  8
7
100
AcDbLine
 10
12.3503937007874
 20
13.58464566929133
 30
0.0
 11
12.46948818897637
 21
13.58464566929133
 31
0.0
  0
LINE
  5
14E
330
1E
100
AcDbEntity
  8
7
100
AcDbLine
 10
12.3503937007874
 20
13.64468503937008
 30
0.0
 11
12.46948818897637
 21
13.64468503937008
 31
0.0
  0
LINE
  5
14F
330
1E
100
AcDbEntity
  8
7
100
AcDbLine
 10
12.46948818897637
 20
13.58464566929133
 30
0.0
 11
12.46948818897637
 21
13.46456692913386
 31
0.0
  0
LINE
  5
150
330
1E
100
AcDbEntity
  8
7
100
AcDbLine
 10
12.3503937007874
 20
13.58464566929133
 30
0.0
 11
12.3503937007874
 21
13.64468503937008
 31
0.0
  0
LINE
  5
151
330
1E
100
AcDbEntity
  8
7
100
AcDbLine
 10
12.46948818897637
 20
13.76377952755905
 30
0.0
 11
12.46948818897637
 21
13.64468503937008
 31
0.0
  0
LINE
  5
158
330
1E
100
AcDbEntity
  8
7
100
AcDbLine
 10
12.6496062992126
 20
13.58464566929133
 30
0.0
 11
12.6496062992126
 21
13.64468503937008
 31
0.0
  0
LINE
  5
159
330
1E
100
AcDbEntity
  8
7
100
AcDbLine
 10
12.52952755905512
 20
13.58464566929133
 30
0.0
 11
12.6496062992126
 21
13.58464566929133
 31
0.0
  0
LINE
  5
15A
330
1E
100
AcDbEntity
  8
7
100
AcDbLine
 10
12.52952755905512
 20
13.58464566929133
 30
0.0
 11
12.52952755905512
 21
13.46456692913386
 31
0.0
  0
LINE
  5
15B
330
1E
100
AcDbEntity
  8
7
100
AcDbLine
 10
12.46948818897637
 20
13.46456692913386
 30
0.0
 11
12.52952755905512
 21
13.46456692913386
 31
0.0
  0
LINE
  5
173
330
1E
100
AcDbEntity
  8
7
100
AcDbLine
 10
18.75
 20
13.04133858267716
 30
0.0
 11
18.58759842519685
 21
13.04133858267716
 31
0.0
  0
LINE
  5
19A
330
1E
100
AcDbEntity
  8
7
100
AcDbLine
 10
0.0
 20
12.92125984251968
 30
0.0
 11
0.0
 21
13.04133858267716
 31
0.0
  0
LINE
  5
19B
330
1E
100
AcDbEntity
  8
7
100
AcDbLine
 10
19.0
 20
13.04133858267716
 30
0.0
 11
19.0
 21
12.92125984251968
 31
0.0
  0
LINE
  5
1C2
330
1E
100
AcDbEntity
  8
7
100
AcDbLine
 10
18.58759842519685
 20
12.92125984251968
 30
0.0
 11
18.75
 21
12.92125984251968
 31
0.0
  0
LINE
  5
1D3
330
1E
100
AcDbEntity
  8
7
100
AcDbLine
 10
18.58759842519685
 20
13.04133858267716
 30
0.0
 11
18.58759842519685
 21
12.92125984251968
 31
0.0
  0
LINE
  5
1D4
330
1E
100
AcDbEntity
  8
7
100
AcDbLine
 10
18.75
 20
12.92125984251968
 30
0.0
 11
18.75
 21
13.04133858267716
 31
0.0
  0
LINE
  5
1D5
330
1E
100
AcDbEntity
  8
7
100
AcDbLine
 10
0.66240157480315
 20
13.04133858267716
 30
0.0
 11
0.66240157480315
 21
12.92125984251968
 31
0.0
  0
LINE
  5
1D6
330
1E
100
AcDbEntity
  8
7
100
AcDbLine
 10
18.33759842519685
 20
12.92125984251968
 30
0.0
 11
18.33759842519685
 21
13.04133858267716
 31
0.0
  0
LINE
  5
1D7
330
1E
100
AcDbEntity
  8
7
100
AcDbLine
 10
6.350393700787401
 20
13.58464566929133
 30
0.0
 11
6.469488188976377
 21
13.58464566929133
 31
0.0
  0
LINE
  5
1D8
330
1E
100
AcDbEntity
  8
7
100
AcDbLine
 10
6.350393700787401
 20
13.64468503937008
 30
0.0
 11
6.469488188976377
 21
13.64468503937008
 31
0.0
  0
LINE
  5
1D9
330
1E
100
AcDbEntity
  8
7
100
AcDbLine
 10
6.469488188976377
 20
13.58464566929133
 30
0.0
 11
6.469488188976377
 21
13.46456692913386
 31
0.0
  0
LINE
  5
1DA
330
1E
100
AcDbEntity
  8
7
100
AcDbLine
 10
6.350393700787401
 20
13.58464566929133
 30
0.0
 11
6.350393700787401
 21
13.64468503937008
 31
0.0
  0
LINE
  5
1DB
330
1E
100
AcDbEntity
  8
7
100
AcDbLine
 10
6.469488188976377
 20
13.76377952755905
 30
0.0
 11
6.469488188976377
 21
13.64468503937008
 31
0.0
  0
LINE
  5
1E2
330
1E
100
AcDbEntity
  8
7
100
AcDbLine
 10
6.649606299212598
 20
13.58464566929133
 30
0.0
 11
6.649606299212598
 21
13.64468503937008
 31
0.0
  0
LINE
  5
1E3
330
1E
100
AcDbEntity
  8
7
100
AcDbLine
 10
6.529527559055118
 20
13.58464566929133
 30
0.0
 11
6.649606299212598
 21
13.58464566929133
 31
0.0
  0
LINE
  5
1E4
330
1E
100
AcDbEntity
  8
7
100
AcDbLine
 10
6.529527559055118
 20
13.58464566929133
 30
0.0
 11
6.529527559055118
 21
13.46456692913386
 31
0.0
  0
LINE
  5
1E5
330
1E
100
AcDbEntity
  8
7
100
AcDbLine
 10
6.469488188976377
 20
13.46456692913386
 30
0.0
 11
6.529527559055118
 21
13.46456692913386
 31
0.0
  0
LINE
  5
1EF
330
1E
100
AcDbEntity
  8
1
100
AcDbLine
 10
18.16141732283464
 20
28.56200787401574
 30
0.0
 11
0.8385826771653555
 21
28.56200787401574
 31
0.0
  0
LINE
  5
1F9
330
1E
100
AcDbEntity
  8
1
100
AcDbLine
 10
0.6870078740157482
 20
3.71259842519685
 30
0.0
 11
0.6870078740157482
 21
28.56200787401574
 31
0.0
  0
LINE
  5
1FA
330
1E
100
AcDbEntity
  8
1
100
AcDbLine
 10
18.31200787401574
 20
28.56200787401574
 30
0.0
 11
18.31200787401574
 21
3.71259842519685
 31
0.0
  0
LINE
  5
1FB
330
1E
100
AcDbEntity
  8
1
100
AcDbLine
 10
18.16141732283464
 20
3.562007874015747
 30
0.0
 11
0.8385826771653555
 21
3.562007874015747
 31
0.0
  0
LINE
  5
224
330
1E
100
AcDbEntity
  8
1
100
AcDbLine
 10
6.30511811023622
 20
13.61417322834645
 30
0.0
 11
6.309055118110237
 21
13.5748031496063
 31
0.0
  0
LINE
  5
392
330
1E
100
AcDbEntity
  8
1
100
AcDbLine
 10
0.8385826771653555
 20
3.562007874015747
 30
0.0
 11
0.8385826771653555
 21
3.566929133858267
 31
0.0
  0
LINE
  5
43D
330
1E
100
AcDbEntity
  8
7
100
AcDbLine
 10
18.31200787401574
 20
9.921259842519685
 30
0.0
 11
18.33070866141732
 21
9.921259842519685
 31
0.0
  0
LINE
  5
44A
330
1E
100
AcDbEntity
  8
7
100
AcDbLine
 10
18.75
 20
9.921259842519685
 30
0.0
 11
18.58759842519685
 21
9.921259842519685
 31
0.0
  0
LINE
  5
474
330
1E
100
AcDbEntity
  8
7
100
AcDbLine
 10
0.0
 20
9.802165354330709
 30
0.0
 11
0.0
 21
9.921259842519685
 31
0.0
  0
LINE
  5
475
330
1E
100
AcDbEntity
  8
7
100
AcDbLine
 10
19.0
 20
9.921259842519685
 30
0.0
 11
19.0
 21
9.802165354330709
 31
0.0
  0
LINE
  5
490
330
1E
100
AcDbEntity
  8
7
100
AcDbLine
 10
0.0049212598425203
 20
9.802165354330709
 30
0.0
 11
0.0
 21
9.802165354330709
 31
0.0
  0
LINE
  5
49C
330
1E
100
AcDbEntity
  8
7
100
AcDbLine
 10
18.58759842519685
 20
9.802165354330709
 30
0.0
 11
18.75
 21
9.802165354330709
 31
0.0
  0
LINE
  5
4AA
330
1E
100
AcDbEntity
  8
7
100
AcDbLine
 10
18.58759842519685
 20
9.921259842519685
 30
0.0
 11
18.58759842519685
 21
9.802165354330709
 31
0.0
  0
LINE
  5
4AB
330
1E
100
AcDbEntity
  8
7
100
AcDbLine
 10
18.75
 20
9.802165354330709
 30
0.0
 11
18.75
 21
9.921259842519685
 31
0.0
  0
LINE
  5
4AC
330
1E
100
AcDbEntity
  8
7
100
AcDbLine
 10
0.66240157480315
 20
9.921259842519685
 30
0.0
 11
0.66240157480315
 21
9.802165354330709
 31
0.0
  0
LINE
  5
4AD
330
1E
100
AcDbEntity
  8
7
100
AcDbLine
 10
18.33759842519685
 20
9.802165354330709
 30
0.0
 11
18.33759842519685
 21
9.921259842519685
 31
0.0
  0
LINE
  5
4B5
330
1E
100
AcDbEntity
  8
7
100
AcDbLine
 10
18.31200787401574
 20
16.04133858267716
 30
0.0
 11
18.33070866141732
 21
16.04133858267716
 31
0.0
  0
LINE
  5
4C2
330
1E
100
AcDbEntity
  8
7
100
AcDbLine
 10
18.75
 20
16.04133858267716
 30
0.0
 11
18.58759842519685
 21
16.04133858267716
 31
0.0
  0
LINE
  5
4EC
330
1E
100
AcDbEntity
  8
7
100
AcDbLine
 10
0.0
 20
15.92125984251968
 30
0.0
 11
0.0
 21
16.04133858267716
 31
0.0
  0
LINE
  5
4ED
330
1E
100
AcDbEntity
  8
7
100
AcDbLine
 10
19.0
 20
16.04133858267716
 30
0.0
 11
19.0
 21
15.92125984251968
 31
0.0
  0
LINE
  5
508
330
1E
100
AcDbEntity
  8
7
100
AcDbLine
 10
0.0049212598425203
 20
15.92125984251968
 30
0.0
 11
0.0
 21
15.92125984251968
 31
0.0
  0
LINE
  5
514
330
1E
100
AcDbEntity
  8
7
100
AcDbLine
 10
18.58759842519685
 20
15.92125984251968
 30
0.0
 11
18.75
 21
15.92125984251968
 31
0.0
  0
LINE
  5
522
330
1E
100
AcDbEntity
  8
7
100
AcDbLine
 10
18.58759842519685
 20
16.04133858267716
 30
0.0
 11
18.58759842519685
 21
15.92125984251968
 31
0.0
  0
LINE
  5
523
330
1E
100
AcDbEntity
  8
7
100
AcDbLine
 10
18.75
 20
15.92125984251968
 30
0.0
 11
18.75
 21
16.04133858267716
 31
0.0
  0
LINE
  5
524
330
1E
100
AcDbEntity
  8
7
100
AcDbLine
 10
0.66240157480315
 20
16.04133858267716
 30
0.0
 11
0.66240157480315
 21
15.92125984251968
 31
0.0
  0
LINE
  5
525
330
1E
100
AcDbEntity
  8
7
100
AcDbLine
 10
18.33759842519685
 20
15.92125984251968
 30
0.0
 11
18.33759842519685
 21
16.04133858267716
 31
0.0
  0
LINE
  5
526
330
1E
100
AcDbEntity
  8
7
100
AcDbLine
 10
12.3503937007874
 20
10.46456692913386
 30
0.0
 11
12.46948818897637
 21
10.46456692913386
 31
0.0
  0
LINE
  5
527
330
1E
100
AcDbEntity
  8
7
100
AcDbLine
 10
12.3503937007874
 20
10.52460629921259
 30
0.0
 11
12.46948818897637
 21
10.52460629921259
 31
0.0
  0
LINE
  5
528
330
1E
100
AcDbEntity
  8
7
100
AcDbLine
 10
12.46948818897637
 20
10.46456692913386
 30
0.0
 11
12.46948818897637
 21
10.34448818897637
 31
0.0
  0
LINE
  5
529
330
1E
100
AcDbEntity
  8
7
100
AcDbLine
 10
12.3503937007874
 20
10.46456692913386
 30
0.0
 11
12.3503937007874
 21
10.52460629921259
 31
0.0
  0
LINE
  5
52A
330
1E
100
AcDbEntity
  8
7
100
AcDbLine
 10
12.46948818897637
 20
10.64468503937008
 30
0.0
 11
12.46948818897637
 21
10.52460629921259
 31
0.0
  0
LINE
  5
531
330
1E
100
AcDbEntity
  8
7
100
AcDbLine
 10
12.6496062992126
 20
10.46456692913386
 30
0.0
 11
12.6496062992126
 21
10.52460629921259
 31
0.0
  0
LINE
  5
532
330
1E
100
AcDbEntity
  8
7
100
AcDbLine
 10
12.52952755905512
 20
10.46456692913386
 30
0.0
 11
12.6496062992126
 21
10.46456692913386
 31
0.0
  0
LINE
  5
533
330
1E
100
AcDbEntity
  8
7
100
AcDbLine
 10
12.52952755905512
 20
10.46456692913386
 30
0.0
 11
12.52952755905512
 21
10.34448818897637
 31
0.0
  0
LINE
  5
534
330
1E
100
AcDbEntity
  8
7
100
AcDbLine
 10
12.46948818897637
 20
10.34448818897637
 30
0.0
 11
12.52952755905512
 21
10.34448818897637
 31
0.0
  0
LINE
  5
535
330
1E
100
AcDbEntity
  8
7
100
AcDbLine
 10
6.350393700787401
 20
10.46456692913386
 30
0.0
 11
6.469488188976377
 21
10.46456692913386
 31
0.0
  0
LINE
  5
536
330
1E
100
AcDbEntity
  8
7
100
AcDbLine
 10
6.350393700787401
 20
10.52460629921259
 30
0.0
 11
6.469488188976377
 21
10.52460629921259
 31
0.0
  0
LINE
  5
537
330
1E
100
AcDbEntity
  8
7
100
AcDbLine
 10
6.469488188976377
 20
10.46456692913386
 30
0.0
 11
6.469488188976377
 21
10.34448818897637
 31
0.0
  0
LINE
  5
538
330
1E
100
AcDbEntity
  8
7
100
AcDbLine
 10
6.350393700787401
 20
10.46456692913386
 30
0.0
 11
6.350393700787401
 21
10.52460629921259
 31
0.0
  0
LINE
  5
539
330
1E
100
AcDbEntity
  8
7
100
AcDbLine
 10
6.469488188976377
 20
10.64468503937008
 30
0.0
 11
6.469488188976377
 21
10.52460629921259
 31
0.0
  0
LINE
  5
540
330
1E
100
AcDbEntity
  8
7
100
AcDbLine
 10
6.649606299212598
 20
10.46456692913386
 30
0.0
 11
6.649606299212598
 21
10.52460629921259
 31
0.0
  0
LINE
  5
541
330
1E
100
AcDbEntity
  8
7
100
AcDbLine
 10
6.529527559055118
 20
10.46456692913386
 30
0.0
 11
6.649606299212598
 21
10.46456692913386
 31
0.0
  0
LINE
  5
542
330
1E
100
AcDbEntity
  8
7
100
AcDbLine
 10
6.529527559055118
 20
10.46456692913386
 30
0.0
 11
6.529527559055118
 21
10.34448818897637
 31
0.0
  0
LINE
  5
543
330
1E
100
AcDbEntity
  8
7
100
AcDbLine
 10
6.469488188976377
 20
10.34448818897637
 30
0.0
 11
6.529527559055118
 21
10.34448818897637
 31
0.0
  0
LINE
  5
544
330
1E
100
AcDbEntity
  8
7
100
AcDbLine
 10
6.350393700787401
 20
16.58464566929133
 30
0.0
 11
6.469488188976377
 21
16.58464566929133
 31
0.0
  0
LINE
  5
545
330
1E
100
AcDbEntity
  8
7
100
AcDbLine
 10
6.350393700787401
 20
16.64468503937007
 30
0.0
 11
6.469488188976377
 21
16.64468503937007
 31
0.0
  0
LINE
  5
546
330
1E
100
AcDbEntity
  8
7
100
AcDbLine
 10
6.469488188976377
 20
16.58464566929133
 30
0.0
 11
6.469488188976377
 21
16.46456692913385
 31
0.0
  0
LINE
  5
547
330
1E
100
AcDbEntity
  8
7
100
AcDbLine
 10
6.350393700787401
 20
16.58464566929133
 30
0.0
 11
6.350393700787401
 21
16.64468503937007
 31
0.0
  0
LINE
  5
548
330
1E
100
AcDbEntity
  8
7
100
AcDbLine
 10
6.469488188976377
 20
16.76377952755905
 30
0.0
 11
6.469488188976377
 21
16.64468503937007
 31
0.0
  0
LINE
  5
54F
330
1E
100
AcDbEntity
  8
7
100
AcDbLine
 10
6.649606299212598
 20
16.58464566929133
 30
0.0
 11
6.649606299212598
 21
16.64468503937007
 31
0.0
  0
LINE
  5
550
330
1E
100
AcDbEntity
  8
7
100
AcDbLine
 10
6.529527559055118
 20
16.58464566929133
 30
0.0
 11
6.649606299212598
 21
16.58464566929133
 31
0.0
  0
LINE
  5
551
330
1E
100
AcDbEntity
  8
7
100
AcDbLine
 10
6.529527559055118
 20
16.58464566929133
 30
0.0
 11
6.529527559055118
 21
16.46456692913385
 31
0.0
  0
LINE
  5
552
330
1E
100
AcDbEntity
  8
7
100
AcDbLine
 10
6.469488188976377
 20
16.46456692913385
 30
0.0
 11
6.529527559055118
 21
16.46456692913385
 31
0.0
  0
LINE
  5
55E
330
1E
100
AcDbEntity
  8
7
100
AcDbLine
 10
29.79133858267717
 20
13.04133858267716
 30
0.0
 11
28.54133858267717
 21
13.04133858267716
 31
0.0
  0
LINE
  5
570
330
1E
100
AcDbEntity
  8
7
100
AcDbLine
 10
29.79133858267717
 20
12.92125984251968
 30
0.0
 11
29.79133858267717
 21
13.04133858267716
 31
0.0
  0
LINE
  5
58B
330
1E
100
AcDbEntity
  8
1
100
AcDbLine
 10
29.1761811023622
 20
3.682086614173228
 30
0.0
 11
29.1761811023622
 21
3.562007874015747
 31
0.0
  0
LINE
  5
58C
330
1E
100
AcDbEntity
  8
1
100
AcDbLine
 10
29.1761811023622
 20
28.56200787401574
 30
0.0
 11
29.1761811023622
 21
16.04133858267716
 31
0.0
  0
LINE
  5
58D
330
1E
100
AcDbEntity
  8
1
100
AcDbLine
 10
29.1761811023622
 20
15.92224409448818
 30
0.0
 11
29.1761811023622
 21
13.04133858267716
 31
0.0
  0
LINE
  5
58E
330
1E
100
AcDbEntity
  8
1
100
AcDbLine
 10
29.1761811023622
 20
12.92224409448818
 30
0.0
 11
29.1761811023622
 21
9.922244094488188
 31
0.0
  0
LINE
  5
58F
330
1E
100
AcDbEntity
  8
1
100
AcDbLine
 10
29.1761811023622
 20
9.802165354330709
 30
0.0
 11
29.1761811023622
 21
3.71259842519685
 31
0.0
  0
LINE
  5
599
330
1E
100
AcDbEntity
  8
1
100
AcDbLine
 10
29.0255905511811
 20
28.56200787401574
 30
0.0
 11
28.45275590551181
 21
28.56200787401574
 31
0.0
  0
LINE
  5
5A3
330
1E
100
AcDbEntity
  8
1
100
AcDbLine
 10
29.0255905511811
 20
3.71259842519685
 30
0.0
 11
28.45275590551181
 21
3.71259842519685
 31
0.0
  0
LINE
  5
5A4
330
1E
100
AcDbEntity
  8
1
100
AcDbLine
 10
29.0255905511811
 20
3.71259842519685
 30
0.0
 11
29.0255905511811
 21
9.802165354330709
 31
0.0
  0
LINE
  5
5A5
330
1E
100
AcDbEntity
  8
1
100
AcDbLine
 10
29.0255905511811
 20
9.922244094488188
 30
0.0
 11
29.0255905511811
 21
12.92224409448818
 31
0.0
  0
LINE
  5
5A6
330
1E
100
AcDbEntity
  8
1
100
AcDbLine
 10
29.0255905511811
 20
13.04133858267716
 30
0.0
 11
29.0255905511811
 21
15.92224409448818
 31
0.0
  0
LINE
  5
5A7
330
1E
100
AcDbEntity
  8
1
100
AcDbLine
 10
29.0255905511811
 20
16.04133858267716
 30
0.0
 11
29.0255905511811
 21
28.56200787401574
 31
0.0
  0
LINE
  5
5A8
330
1E
100
AcDbEntity
  8
1
100
AcDbLine
 10
28.45275590551181
 20
28.56200787401574
 30
0.0
 11
28.45275590551181
 21
16.04133858267716
 31
0.0
  0
LINE
  5
5A9
330
1E
100
AcDbEntity
  8
1
100
AcDbLine
 10
28.45275590551181
 20
15.92224409448818
 30
0.0
 11
28.45275590551181
 21
13.04133858267716
 31
0.0
  0
LINE
  5
5AA
330
1E
100
AcDbEntity
  8
1
100
AcDbLine
 10
28.45275590551181
 20
12.92224409448818
 30
0.0
 11
28.45275590551181
 21
9.922244094488188
 31
0.0
  0
LINE
  5
5AB
330
1E
100
AcDbEntity
  8
1
100
AcDbLine
 10
28.45275590551181
 20
9.802165354330709
 30
0.0
 11
28.45275590551181
 21
3.71259842519685
 31
0.0
  0
LINE
  5
5B8
330
1E
100
AcDbEntity
  8
1
100
AcDbLine
 10
28.3011811023622
 20
3.71259842519685
 30
0.0
 11
28.3011811023622
 21
9.802165354330709
 31
0.0
  0
LINE
  5
5B9
330
1E
100
AcDbEntity
  8
1
100
AcDbLine
 10
28.3011811023622
 20
9.922244094488188
 30
0.0
 11
28.3011811023622
 21
12.92224409448818
 31
0.0
  0
LINE
  5
5BA
330
1E
100
AcDbEntity
  8
1
100
AcDbLine
 10
28.3011811023622
 20
13.04133858267716
 30
0.0
 11
28.3011811023622
 21
15.92224409448818
 31
0.0
  0
LINE
  5
5BB
330
1E
100
AcDbEntity
  8
1
100
AcDbLine
 10
28.3011811023622
 20
16.04133858267716
 30
0.0
 11
28.3011811023622
 21
28.56200787401574
 31
0.0
  0
LINE
  5
5CB
330
1E
100
AcDbEntity
  8
1
100
AcDbLine
 10
28.9261811023622
 20
3.562007874015747
 30
0.0
 11
28.9261811023622
 21
3.682086614173228
 31
0.0
  0
LINE
  5
5FE
330
1E
100
AcDbEntity
  8
7
100
AcDbLine
 10
29.79133858267717
 20
9.921259842519685
 30
0.0
 11
28.54133858267717
 21
9.921259842519685
 31
0.0
  0
LINE
  5
636
330
1E
100
AcDbEntity
  8
7
100
AcDbLine
 10
29.79133858267717
 20
16.04133858267716
 30
0.0
 11
28.54133858267717
 21
16.04133858267716
 31
0.0
  0
LINE
  5
660
330
1E
100
AcDbEntity
  8
1
100
AcDbLine
 10
17.91141732283464
 20
0.8651574803149607
 30
0.0
 11
1.088582677165355
 21
0.8651574803149607
 31
0.0
  0
LINE
  5
661
330
1E
100
AcDbEntity
  8
1
100
AcDbLine
 10
18.16141732283464
 20
0.8651574803149607
 30
0.0
 11
17.91141732283464
 21
0.8651574803149607
 31
0.0
  0
LINE
  5
662
330
1E
100
AcDbEntity
  8
1
100
AcDbLine
 10
18.125
 20
0.9852362204724407
 30
0.0
 11
18.16141732283464
 21
0.9852362204724407
 31
0.0
  0
LINE
  5
663
330
1E
100
AcDbEntity
  8
1
100
AcDbLine
 10
0.6870078740157482
 20
1.015748031496062
 30
0.0
 11
0.6870078740157482
 21
1.588582677165354
 31
0.0
  0
LINE
  5
664
330
1E
100
AcDbEntity
  8
1
100
AcDbLine
 10
0.8385826771653555
 20
0.8651574803149607
 30
0.0
 11
1.088582677165355
 21
0.8651574803149607
 31
0.0
  0
LINE
  5
665
330
1E
100
AcDbEntity
  8
1
100
AcDbLine
 10
18.31200787401574
 20
1.015748031496062
 30
0.0
 11
18.31200787401574
 21
1.588582677165354
 31
0.0
  0
LINE
  5
676
330
1E
100
AcDbEntity
  8
1
100
AcDbLine
 10
0.8385826771653555
 20
1.11515748031496
 30
0.0
 11
0.8385826771653555
 21
1.588582677165354
 31
0.0
  0
LINE
  5
682
330
1E
100
AcDbEntity
  8
1
100
AcDbLine
 10
0.8385826771653555
 20
1.74015748031496
 30
0.0
 11
18.16141732283464
 21
1.74015748031496
 31
0.0
  0
LINE
  5
683
330
1E
100
AcDbEntity
  8
1
100
AcDbLine
 10
0.8070866141732295
 20
1.588582677165354
 30
0.0
 11
0.8070866141732295
 21
1.015748031496062
 31
0.0
  0
LINE
  5
684
330
1E
100
AcDbEntity
  8
1
100
AcDbLine
 10
0.8385826771653555
 20
0.9852362204724407
 30
0.0
 11
0.875
 21
0.9852362204724407
 31
0.0
  0
LINE
  5
685
330
1E
100
AcDbEntity
  8
1
100
AcDbLine
 10
18.19291338582677
 20
1.015748031496062
 30
0.0
 11
18.19291338582677
 21
1.588582677165354
 31
0.0
  0
LINE
  5
6A4
330
1E
100
AcDbEntity
  8
1
100
AcDbLine
 10
0.8385826771653555
 20
1.739173228346456
 30
0.0
 11
0.7992125984251981
 21
1.734251968503937
 31
0.0
  0
LINE
  5
6D7
330
1E
100
AcDbEntity
  8
7
100
AcDbLine
 10
0.25
 20
1.75
 30
0.0
 11
0.41240157480315
 21
1.75
 31
0.0
  0
LINE
  5
6D8
330
1E
100
AcDbEntity
  8
7
100
AcDbLine
 10
0.0
 20
0.25
 30
0.0
 11
0.0
 21
1.5
 31
0.0
  0
LINE
  5
6D9
330
1E
100
AcDbEntity
  8
7
100
AcDbLine
 10
18.75
 20
0.0
 30
0.0
 11
0.25
 21
0.0
 31
0.0
  0
LINE
  5
6DA
330
1E
100
AcDbEntity
  8
7
100
AcDbLine
 10
19.0
 20
1.5
 30
0.0
 11
19.0
 21
0.25
 31
0.0
  0
LINE
  5
6DB
330
1E
100
AcDbEntity
  8
7
100
AcDbLine
 10
0.8326771653543314
 20
1.111220472440944
 30
0.0
 11
0.8326771653543314
 21
1.372047244094487
 31
0.0
  0
LINE
  5
6DC
330
1E
100
AcDbEntity
  8
7
100
AcDbLine
 10
0.8326771653543314
 20
1.111220472440944
 30
0.0
 11
0.8385826771653555
 21
1.104330708661417
 31
0.0
  0
LINE
  5
6E2
330
1E
100
AcDbEntity
  8
7
100
AcDbLine
 10
0.8533464566929147
 20
0.8494094488188977
 30
0.0
 11
1.41732283464567
 21
0.8494094488188977
 31
0.0
  0
LINE
  5
6ED
330
1E
100
AcDbEntity
  8
7
100
AcDbLine
 10
0.66240157480315
 20
1.040354330708661
 30
0.0
 11
0.66240157480315
 21
1.5
 31
0.0
  0
LINE
  5
704
330
1E
100
AcDbEntity
  8
7
100
AcDbLine
 10
0.0
 20
0.25
 30
0.0
 11
0.0049212598425203
 21
0.200787401574803
 31
0.0
  0
LINE
  5
727
330
1E
100
AcDbEntity
  8
7
100
AcDbLine
 10
18.79921259842519
 20
1.74507874015748
 30
0.0
 11
18.75
 21
1.75
 31
0.0
  0
LINE
  5
728
330
1E
100
AcDbEntity
  8
7
100
AcDbLine
 10
18.58759842519685
 20
1.75
 30
0.0
 11
18.75
 21
1.75
 31
0.0
  0
LINE
  5
737
330
1E
100
AcDbEntity
  8
7
100
AcDbLine
 10
18.33759842519685
 20
1.040354330708661
 30
0.0
 11
18.33759842519685
 21
1.5
 31
0.0
  0
LINE
  5
745
330
1E
100
AcDbEntity
  8
7
100
AcDbLine
 10
18.14665354330708
 20
0.8494094488188977
 30
0.0
 11
17.58267716535432
 21
0.8494094488188977
 31
0.0
  0
LINE
  5
74B
330
1E
100
AcDbEntity
  8
7
100
AcDbLine
 10
18.16141732283464
 20
1.104330708661417
 30
0.0
 11
18.16732283464567
 21
1.111220472440944
 31
0.0
  0
LINE
  5
751
330
1E
100
AcDbEntity
  8
7
100
AcDbLine
 10
0.8385826771653555
 20
1.377952755905511
 30
0.0
 11
0.8326771653543314
 21
1.372047244094487
 31
0.0
  0
LINE
  5
752
330
1E
100
AcDbEntity
  8
7
100
AcDbLine
 10
18.59153543307086
 20
1.639763779527558
 30
0.0
 11
18.71751968503937
 21
1.639763779527558
 31
0.0
  0
LINE
  5
766
330
1E
100
AcDbEntity
  8
7
100
AcDbLine
 10
18.59153543307086
 20
1.36023622047244
 30
0.0
 11
18.71751968503937
 21
1.36023622047244
 31
0.0
  0
LINE
  5
776
330
1E
100
AcDbEntity
  8
7
100
AcDbLine
 10
18.55807086614173
 20
1.364173228346456
 30
0.0
 11
18.59153543307086
 21
1.36023622047244
 31
0.0
  0
LINE
  5
777
330
1E
100
AcDbEntity
  8
7
100
AcDbLine
 10
0.2814960629921259
 20
1.639763779527558
 30
0.0
 11
0.4084645669291352
 21
1.639763779527558
 31
0.0
  0
LINE
  5
78B
330
1E
100
AcDbEntity
  8
7
100
AcDbLine
 10
0.2814960629921259
 20
1.36023622047244
 30
0.0
 11
0.4084645669291352
 21
1.36023622047244
 31
0.0
  0
LINE
  5
79F
330
1E
100
AcDbEntity
  8
7
100
AcDbLine
 10
18.59153543307086
 20
1.014763779527558
 30
0.0
 11
18.71751968503937
 21
1.014763779527558
 31
0.0
  0
LINE
  5
7B3
330
1E
100
AcDbEntity
  8
7
100
AcDbLine
 10
18.59153543307086
 20
0.7352362204724408
 30
0.0
 11
18.71751968503937
 21
0.7352362204724408
 31
0.0
  0
LINE
  5
7C7
330
1E
100
AcDbEntity
  8
7
100
AcDbLine
 10
0.2814960629921259
 20
1.014763779527558
 30
0.0
 11
0.4084645669291352
 21
1.014763779527558
 31
0.0
  0
LINE
  5
7D8
330
1E
100
AcDbEntity
  8
7
100
AcDbLine
 10
0.2814960629921259
 20
0.7352362204724408
 30
0.0
 11
0.4084645669291352
 21
0.7352362204724408
 31
0.0
  0
LINE
  5
7EC
330
1E
100
AcDbEntity
  8
7
100
AcDbLine
 10
18.59153543307086
 20
0.389763779527559
 30
0.0
 11
18.71751968503937
 21
0.389763779527559
 31
0.0
  0
LINE
  5
800
330
1E
100
AcDbEntity
  8
7
100
AcDbLine
 10
18.59153543307086
 20
0.1102362204724407
 30
0.0
 11
18.71751968503937
 21
0.1102362204724407
 31
0.0
  0
LINE
  5
814
330
1E
100
AcDbEntity
  8
7
100
AcDbLine
 10
0.2814960629921259
 20
0.389763779527559
 30
0.0
 11
0.4084645669291352
 21
0.389763779527559
 31
0.0
  0
LINE
  5
828
330
1E
100
AcDbEntity
  8
7
100
AcDbLine
 10
0.2814960629921259
 20
0.1102362204724407
 30
0.0
 11
0.4084645669291352
 21
0.1102362204724407
 31
0.0
  0
LINE
  5
839
330
1E
100
AcDbEntity
  8
7
100
AcDbLine
 10
12.40452755905511
 20
30.22145669291338
 30
0.0
 11
12.40452755905511
 21
30.09055118110236
 31
0.0
  0
LINE
  5
83F
330
1E
100
AcDbEntity
  8
7
100
AcDbLine
 10
12.42027559055118
 20
30.23720472440944
 30
0.0
 11
12.40452755905511
 21
30.22145669291338
 31
0.0
  0
LINE
  5
840
330
1E
100
AcDbEntity
  8
7
100
AcDbLine
 10
6.404527559055118
 20
30.22145669291338
 30
0.0
 11
6.404527559055118
 21
30.09055118110236
 31
0.0
  0
LINE
  5
846
330
1E
100
AcDbEntity
  8
7
100
AcDbLine
 10
6.420275590551181
 20
30.23720472440944
 30
0.0
 11
6.404527559055118
 21
30.22145669291338
 31
0.0
  0
LINE
  5
860
330
1E
100
AcDbEntity
  8
1
100
AcDbLine
 10
1.308070866141733
 20
30.7253937007874
 30
0.0
 11
1.432086614173229
 21
30.7253937007874
 31
0.0
  0
LINE
  5
861
330
1E
100
AcDbEntity
  8
1
100
AcDbLine
 10
17.56692913385826
 20
30.7253937007874
 30
0.0
 11
17.69192913385826
 21
30.7253937007874
 31
0.0
  0
LINE
  5
86C
330
1E
100
AcDbEntity
  8
1
100
AcDbLine
 10
17.81791338582677
 20
30.60531496062992
 30
0.0
 11
18.16141732283464
 21
30.60531496062992
 31
0.0
  0
LINE
  5
86D
330
1E
100
AcDbEntity
  8
1
100
AcDbLine
 10
17.81791338582677
 20
30.60531496062992
 30
0.0
 11
17.78543307086614
 21
30.60531496062992
 31
0.0
  0
LINE
  5
876
330
1E
100
AcDbEntity
  8
1
100
AcDbLine
 10
17.81791338582677
 20
30.7253937007874
 30
0.0
 11
17.81791338582677
 21
30.60531496062992
 31
0.0
  0
LINE
  5
87D
330
1E
100
AcDbEntity
  8
1
100
AcDbLine
 10
18.19291338582677
 20
30.57480314960629
 30
0.0
 11
18.19291338582677
 21
30.00196850393701
 31
0.0
  0
LINE
  5
884
330
1E
100
AcDbEntity
  8
1
100
AcDbLine
 10
18.16141732283464
 20
29.97047244094488
 30
0.0
 11
0.8385826771653555
 21
29.97047244094488
 31
0.0
  0
LINE
  5
885
330
1E
100
AcDbEntity
  8
1
100
AcDbLine
 10
0.8080708661417332
 20
30.00196850393701
 30
0.0
 11
0.8120078740157481
 21
29.98720472440945
 31
0.0
  0
LINE
  5
88B
330
1E
100
AcDbEntity
  8
1
100
AcDbLine
 10
0.8070866141732295
 20
30.00196850393701
 30
0.0
 11
0.8070866141732295
 21
30.57480314960629
 31
0.0
  0
LINE
  5
897
330
1E
100
AcDbEntity
  8
1
100
AcDbLine
 10
0.8385826771653555
 20
30.7253937007874
 30
0.0
 11
1.182086614173229
 21
30.7253937007874
 31
0.0
  0
LINE
  5
8A1
330
1E
100
AcDbEntity
  8
1
100
AcDbLine
 10
0.6870078740157482
 20
30.00196850393701
 30
0.0
 11
0.6870078740157482
 21
30.57480314960629
 31
0.0
  0
LINE
  5
8AB
330
1E
100
AcDbEntity
  8
1
100
AcDbLine
 10
18.16141732283464
 20
29.8503937007874
 30
0.0
 11
0.8385826771653555
 21
29.8503937007874
 31
0.0
  0
LINE
  5
8B5
330
1E
100
AcDbEntity
  8
1
100
AcDbLine
 10
18.31200787401574
 20
30.57480314960629
 30
0.0
 11
18.31200787401574
 21
30.00196850393701
 31
0.0
  0
LINE
  5
8D4
330
1E
100
AcDbEntity
  8
1
100
AcDbLine
 10
18.16141732283464
 20
30.00196850393701
 30
0.0
 11
18.16141732283464
 21
30.21259842519685
 31
0.0
  0
LINE
  5
8E4
330
1E
100
AcDbEntity
  8
1
100
AcDbLine
 10
18.05708661417322
 20
30.00196850393701
 30
0.0
 11
18.16141732283464
 21
30.00196850393701
 31
0.0
  0
LINE
  5
8E5
330
1E
100
AcDbEntity
  8
1
100
AcDbLine
 10
17.69291338582677
 20
30.60531496062992
 30
0.0
 11
17.69291338582677
 21
30.7253937007874
 31
0.0
  0
LINE
  5
8E6
330
1E
100
AcDbEntity
  8
1
100
AcDbLine
 10
1.307086614173229
 20
30.7253937007874
 30
0.0
 11
1.307086614173229
 21
30.60531496062992
 31
0.0
  0
LINE
  5
8EC
330
1E
100
AcDbEntity
  8
1
100
AcDbLine
 10
0.8385826771653555
 20
29.98622047244094
 30
0.0
 11
0.8385826771653555
 21
30.00196850393701
 31
0.0
  0
LINE
  5
8F3
330
1E
100
AcDbEntity
  8
7
100
AcDbLine
 10
0.41240157480315
 20
29.84055118110236
 30
0.0
 11
0.25
 21
29.84055118110236
 31
0.0
  0
LINE
  5
8F4
330
1E
100
AcDbEntity
  8
7
100
AcDbLine
 10
0.9104330708661425
 20
30.55807086614173
 30
0.0
 11
1.41732283464567
 21
30.55807086614173
 31
0.0
  0
LINE
  5
8FB
330
1E
100
AcDbEntity
  8
7
100
AcDbLine
 10
0.9429133858267721
 20
30.14074803149606
 30
0.0
 11
0.9104330708661425
 21
30.14074803149606
 31
0.0
  0
LINE
  5
8FC
330
1E
100
AcDbEntity
  8
7
100
AcDbLine
 10
0.9429133858267721
 20
30.12204724409448
 30
0.0
 11
0.9429133858267721
 21
30.14074803149606
 31
0.0
  0
LINE
  5
8FD
330
1E
100
AcDbEntity
  8
7
100
AcDbLine
 10
0.9429133858267721
 20
30.12204724409448
 30
0.0
 11
6.405511811023622
 21
30.12204724409448
 31
0.0
  0
LINE
  5
8FE
330
1E
100
AcDbEntity
  8
7
100
AcDbLine
 10
6.595472440944883
 20
30.12204724409448
 30
0.0
 11
12.40452755905511
 21
30.12204724409448
 31
0.0
  0
LINE
  5
8FF
330
1E
100
AcDbEntity
  8
7
100
AcDbLine
 10
12.59448818897637
 20
30.12204724409448
 30
0.0
 11
18.05708661417322
 21
30.12204724409448
 31
0.0
  0
LINE
  5
900
330
1E
100
AcDbEntity
  8
7
100
AcDbLine
 10
18.05708661417322
 20
30.14074803149606
 30
0.0
 11
18.05708661417322
 21
30.12204724409448
 31
0.0
  0
LINE
  5
901
330
1E
100
AcDbEntity
  8
7
100
AcDbLine
 10
18.08956692913385
 20
30.14074803149606
 30
0.0
 11
18.05708661417322
 21
30.14074803149606
 31
0.0
  0
LINE
  5
902
330
1E
100
AcDbEntity
  8
7
100
AcDbLine
 10
18.08956692913385
 20
30.14074803149606
 30
0.0
 11
18.16732283464567
 21
30.21850393700787
 31
0.0
  0
LINE
  5
903
330
1E
100
AcDbEntity
  8
7
100
AcDbLine
 10
18.16732283464567
 20
30.47933070866141
 30
0.0
 11
18.16732283464567
 21
30.21850393700787
 31
0.0
  0
LINE
  5
90E
330
1E
100
AcDbEntity
  8
7
100
AcDbLine
 10
17.56791338582677
 20
30.57381889763779
 30
0.0
 11
17.56791338582677
 21
30.7253937007874
 31
0.0
  0
LINE
  5
914
330
1E
100
AcDbEntity
  8
7
100
AcDbLine
 10
18.14665354330708
 20
30.74114173228346
 30
0.0
 11
17.58267716535432
 21
30.74114173228346
 31
0.0
  0
LINE
  5
91F
330
1E
100
AcDbEntity
  8
7
100
AcDbLine
 10
18.33759842519685
 20
30.5501968503937
 30
0.0
 11
18.33759842519685
 21
30.09055118110236
 31
0.0
  0
LINE
  5
92B
330
1E
100
AcDbEntity
  8
7
100
AcDbLine
 10
18.75
 20
29.84055118110236
 30
0.0
 11
18.58759842519685
 21
29.84055118110236
 31
0.0
  0
LINE
  5
937
330
1E
100
AcDbEntity
  8
7
100
AcDbLine
 10
19.0
 20
31.34055118110236
 30
0.0
 11
19.0
 21
30.09055118110236
 31
0.0
  0
LINE
  5
943
330
1E
100
AcDbEntity
  8
7
100
AcDbLine
 10
0.25
 20
31.59055118110236
 30
0.0
 11
18.75
 21
31.59055118110236
 31
0.0
  0
LINE
  5
94E
330
1E
100
AcDbEntity
  8
7
100
AcDbLine
 10
0.0049212598425203
 20
31.38976377952756
 30
0.0
 11
0.0
 21
31.34055118110236
 31
0.0
  0
LINE
  5
94F
330
1E
100
AcDbEntity
  8
7
100
AcDbLine
 10
0.0
 20
30.09055118110236
 30
0.0
 11
0.0
 21
31.34055118110236
 31
0.0
  0
LINE
  5
969
330
1E
100
AcDbEntity
  8
7
100
AcDbLine
 10
0.66240157480315
 20
30.5501968503937
 30
0.0
 11
0.66240157480315
 21
30.09055118110236
 31
0.0
  0
LINE
  5
974
330
1E
100
AcDbEntity
  8
7
100
AcDbLine
 10
0.8533464566929147
 20
30.74114173228346
 30
0.0
 11
1.41732283464567
 21
30.74114173228346
 31
0.0
  0
LINE
  5
97A
330
1E
100
AcDbEntity
  8
7
100
AcDbLine
 10
1.432086614173229
 20
30.57381889763779
 30
0.0
 11
1.432086614173229
 21
30.7253937007874
 31
0.0
  0
LINE
  5
97B
330
1E
100
AcDbEntity
  8
7
100
AcDbLine
 10
1.41732283464567
 20
30.55905511811023
 30
0.0
 11
1.428149606299212
 21
30.56299212598425
 31
0.0
  0
LINE
  5
97C
330
1E
100
AcDbEntity
  8
7
100
AcDbLine
 10
1.428149606299212
 20
30.56299212598425
 30
0.0
 11
1.432086614173229
 21
30.57381889763779
 31
0.0
  0
LINE
  5
97D
330
1E
100
AcDbEntity
  8
7
100
AcDbLine
 10
18.59153543307086
 20
29.9507874015748
 30
0.0
 11
18.71751968503937
 21
29.9507874015748
 31
0.0
  0
LINE
  5
991
330
1E
100
AcDbEntity
  8
7
100
AcDbLine
 10
18.59153543307086
 20
30.23031496062992
 30
0.0
 11
18.71751968503937
 21
30.23031496062992
 31
0.0
  0
LINE
  5
9A2
330
1E
100
AcDbEntity
  8
7
100
AcDbLine
 10
0.2814960629921259
 20
29.9507874015748
 30
0.0
 11
0.4084645669291352
 21
29.9507874015748
 31
0.0
  0
LINE
  5
9B6
330
1E
100
AcDbEntity
  8
7
100
AcDbLine
 10
0.2814960629921259
 20
30.23031496062992
 30
0.0
 11
0.4084645669291352
 21
30.23031496062992
 31
0.0
  0
LINE
  5
9CA
330
1E
100
AcDbEntity
  8
7
100
AcDbLine
 10
18.59153543307086
 20
30.5757874015748
 30
0.0
 11
18.71751968503937
 21
30.5757874015748
 31
0.0
  0
LINE
  5
9DE
330
1E
100
AcDbEntity
  8
7
100
AcDbLine
 10
18.59153543307086
 20
30.85531496062992
 30
0.0
 11
18.71751968503937
 21
30.85531496062992
 31
0.0
  0
LINE
  5
9F2
330
1E
100
AcDbEntity
  8
7
100
AcDbLine
 10
0.2814960629921259
 20
30.5757874015748
 30
0.0
 11
0.4084645669291352
 21
30.5757874015748
 31
0.0
  0
LINE
  5
9F3
330
1E
100
AcDbEntity
  8
7
100
AcDbLine
 10
0.2814960629921259
 20
30.85531496062992
 30
0.0
 11
0.2480314960629926
 21
30.8513779527559
 31
0.0
  0
LINE
  5
A03
330
1E
100
AcDbEntity
  8
7
100
AcDbLine
 10
0.2814960629921259
 20
30.85531496062992
 30
0.0
 11
0.4084645669291352
 21
30.85531496062992
 31
0.0
  0
LINE
  5
A17
330
1E
100
AcDbEntity
  8
7
100
AcDbLine
 10
18.59153543307086
 20
31.2007874015748
 30
0.0
 11
18.71751968503937
 21
31.2007874015748
 31
0.0
  0
LINE
  5
A2B
330
1E
100
AcDbEntity
  8
7
100
AcDbLine
 10
18.59153543307086
 20
31.48031496062992
 30
0.0
 11
18.71751968503937
 21
31.48031496062992
 31
0.0
  0
LINE
  5
A3C
330
1E
100
AcDbEntity
  8
7
100
AcDbLine
 10
0.2814960629921259
 20
31.2007874015748
 30
0.0
 11
0.4084645669291352
 21
31.2007874015748
 31
0.0
  0
LINE
  5
A50
330
1E
100
AcDbEntity
  8
7
100
AcDbLine
 10
0.2814960629921259
 20
31.48031496062992
 30
0.0
 11
0.4084645669291352
 21
31.48031496062992
 31
0.0
  0
LINE
  5
A64
330
1E
100
AcDbEntity
  8
7
100
AcDbLine
 10
18.0265748031496
 20
30.09055118110236
 30
0.0
 11
0.9734251968503944
 21
30.09055118110236
 31
0.0
  0
LINE
  5
A71
330
1E
100
AcDbEntity
  8
7
100
AcDbLine
 10
18.0265748031496
 20
29.97047244094488
 30
0.0
 11
18.0265748031496
 21
30.09055118110236
 31
0.0
  0
LINE
  5
A72
330
1E
100
AcDbEntity
  8
7
100
AcDbLine
 10
0.9734251968503944
 20
30.09055118110236
 30
0.0
 11
0.9734251968503944
 21
29.97047244094488
 31
0.0
  0
LINE
  5
A7F
330
1E
100
AcDbEntity
  8
7
100
AcDbLine
 10
0.9429133858267721
 20
29.97047244094488
 30
0.0
 11
0.9429133858267721
 21
30.09055118110236
 31
0.0
  0
LINE
  5
A80
330
1E
100
AcDbEntity
  8
7
100
AcDbLine
 10
18.05708661417322
 20
30.09055118110236
 30
0.0
 11
18.05708661417322
 21
29.97047244094488
 31
0.0
  0
LINE
  5
AA0
330
1E
100
AcDbEntity
  8
7
100
AcDbLine
 10
6.5
 20
30.22145669291338
 30
0.0
 11
6.470472440944883
 21
30.22145669291338
 31
0.0
  0
LINE
  5
AA1
330
1E
100
AcDbEntity
  8
7
100
AcDbLine
 10
6.470472440944883
 20
30.22145669291338
 30
0.0
 11
6.443897637795275
 21
30.22145669291338
 31
0.0
  0
LINE
  5
AA2
330
1E
100
AcDbEntity
  8
7
100
AcDbLine
 10
6.443897637795275
 20
30.22145669291338
 30
0.0
 11
6.423228346456694
 21
30.22145669291338
 31
0.0
  0
LINE
  5
AA3
330
1E
100
AcDbEntity
  8
7
100
AcDbLine
 10
6.423228346456694
 20
30.22145669291338
 30
0.0
 11
6.409448818897638
 21
30.22145669291338
 31
0.0
  0
LINE
  5
AA4
330
1E
100
AcDbEntity
  8
7
100
AcDbLine
 10
6.409448818897638
 20
30.22145669291338
 30
0.0
 11
6.404527559055118
 21
30.22145669291338
 31
0.0
  0
LINE
  5
AA5
330
1E
100
AcDbEntity
  8
7
100
AcDbLine
 10
6.594488188976377
 20
30.22145669291338
 30
0.0
 11
6.590551181102362
 21
30.22145669291338
 31
0.0
  0
LINE
  5
AA6
330
1E
100
AcDbEntity
  8
7
100
AcDbLine
 10
6.590551181102362
 20
30.22145669291338
 30
0.0
 11
6.576771653543307
 21
30.22145669291338
 31
0.0
  0
LINE
  5
AA7
330
1E
100
AcDbEntity
  8
7
100
AcDbLine
 10
6.576771653543307
 20
30.22145669291338
 30
0.0
 11
6.556102362204725
 21
30.22145669291338
 31
0.0
  0
LINE
  5
AA8
330
1E
100
AcDbEntity
  8
7
100
AcDbLine
 10
6.556102362204725
 20
30.22145669291338
 30
0.0
 11
6.529527559055118
 21
30.22145669291338
 31
0.0
  0
LINE
  5
AA9
330
1E
100
AcDbEntity
  8
7
100
AcDbLine
 10
6.529527559055118
 20
30.22145669291338
 30
0.0
 11
6.5
 21
30.22145669291338
 31
0.0
  0
LINE
  5
AAA
330
1E
100
AcDbEntity
  8
7
100
AcDbLine
 10
6.420275590551181
 20
30.23720472440944
 30
0.0
 11
6.425196850393701
 21
30.23720472440944
 31
0.0
  0
LINE
  5
AAB
330
1E
100
AcDbEntity
  8
7
100
AcDbLine
 10
6.425196850393701
 20
30.23720472440944
 30
0.0
 11
6.438976377952757
 21
30.23720472440944
 31
0.0
  0
LINE
  5
AAC
330
1E
100
AcDbEntity
  8
7
100
AcDbLine
 10
6.438976377952757
 20
30.23720472440944
 30
0.0
 11
6.459645669291338
 21
30.23720472440944
 31
0.0
  0
LINE
  5
AAD
330
1E
100
AcDbEntity
  8
7
100
AcDbLine
 10
6.459645669291338
 20
30.23720472440944
 30
0.0
 11
6.486220472440946
 21
30.23720472440944
 31
0.0
  0
LINE
  5
AAE
330
1E
100
AcDbEntity
  8
7
100
AcDbLine
 10
6.486220472440946
 20
30.23720472440944
 30
0.0
 11
6.513779527559055
 21
30.23720472440944
 31
0.0
  0
LINE
  5
AAF
330
1E
100
AcDbEntity
  8
7
100
AcDbLine
 10
6.513779527559055
 20
30.23720472440944
 30
0.0
 11
6.540354330708662
 21
30.23720472440944
 31
0.0
  0
LINE
  5
AB0
330
1E
100
AcDbEntity
  8
7
100
AcDbLine
 10
6.540354330708662
 20
30.23720472440944
 30
0.0
 11
6.561023622047244
 21
30.23720472440944
 31
0.0
  0
LINE
  5
AB1
330
1E
100
AcDbEntity
  8
7
100
AcDbLine
 10
6.561023622047244
 20
30.23720472440944
 30
0.0
 11
6.574803149606299
 21
30.23720472440944
 31
0.0
  0
LINE
  5
AB2
330
1E
100
AcDbEntity
  8
7
100
AcDbLine
 10
6.574803149606299
 20
30.23720472440944
 30
0.0
 11
6.57972440944882
 21
30.23720472440944
 31
0.0
  0
LINE
  5
AB3
330
1E
100
AcDbEntity
  8
7
100
AcDbLine
 10
0.9429133858267721
 20
30.12204724409448
 30
0.0
 11
0.9429133858267721
 21
30.10629921259842
 31
0.0
  0
LINE
  5
AB4
330
1E
100
AcDbEntity
  8
7
100
AcDbLine
 10
0.9429133858267721
 20
30.10629921259842
 30
0.0
 11
0.9429133858267721
 21
30.09448818897638
 31
0.0
  0
LINE
  5
AB5
330
1E
100
AcDbEntity
  8
7
100
AcDbLine
 10
0.9429133858267721
 20
30.09448818897638
 30
0.0
 11
0.9429133858267721
 21
30.09055118110236
 31
0.0
  0
LINE
  5
AB6
330
1E
100
AcDbEntity
  8
7
100
AcDbLine
 10
18.05708661417322
 20
30.09055118110236
 30
0.0
 11
18.05708661417322
 21
30.09448818897638
 31
0.0
  0
LINE
  5
AB7
330
1E
100
AcDbEntity
  8
7
100
AcDbLine
 10
18.05708661417322
 20
30.09448818897638
 30
0.0
 11
18.05708661417322
 21
30.10629921259842
 31
0.0
  0
LINE
  5
AB8
330
1E
100
AcDbEntity
  8
7
100
AcDbLine
 10
18.05708661417322
 20
30.10629921259842
 30
0.0
 11
18.05708661417322
 21
30.12204724409448
 31
0.0
  0
LINE
  5
AB9
330
1E
100
AcDbEntity
  8
7
100
AcDbLine
 10
0.9429133858267721
 20
30.09055118110236
 30
0.0
 11
0.9468503937007888
 21
30.09055118110236
 31
0.0
  0
LINE
  5
ABA
330
1E
100
AcDbEntity
  8
7
100
AcDbLine
 10
0.9468503937007888
 20
30.09055118110236
 30
0.0
 11
0.9576771653543314
 21
30.09055118110236
 31
0.0
  0
LINE
  5
ABB
330
1E
100
AcDbEntity
  8
7
100
AcDbLine
 10
0.9576771653543314
 20
30.09055118110236
 30
0.0
 11
0.9734251968503944
 21
30.09055118110236
 31
0.0
  0
LINE
  5
ABC
330
1E
100
AcDbEntity
  8
7
100
AcDbLine
 10
18.0265748031496
 20
30.09055118110236
 30
0.0
 11
18.04232283464567
 21
30.09055118110236
 31
0.0
  0
LINE
  5
ABD
330
1E
100
AcDbEntity
  8
7
100
AcDbLine
 10
18.04232283464567
 20
30.09055118110236
 30
0.0
 11
18.05314960629921
 21
30.09055118110236
 31
0.0
  0
LINE
  5
ABE
330
1E
100
AcDbEntity
  8
7
100
AcDbLine
 10
18.05314960629921
 20
30.09055118110236
 30
0.0
 11
18.05708661417322
 21
30.09055118110236
 31
0.0
  0
LINE
  5
ABF
330
1E
100
AcDbEntity
  8
7
100
AcDbLine
 10
0.5009842519685055
 20
31.23622047244094
 30
0.0
 11
0.5236220472440945
 21
31.26082677165354
 31
0.0
  0
LINE
  5
AC0
330
1E
100
AcDbEntity
  8
7
100
AcDbLine
 10
0.5236220472440945
 20
31.26082677165354
 30
0.0
 11
0.5393700787401574
 21
31.29133858267716
 31
0.0
  0
LINE
  5
AC1
330
1E
100
AcDbEntity
  8
7
100
AcDbLine
 10
0.5393700787401574
 20
31.29133858267716
 30
0.0
 11
0.5472440944881889
 21
31.32381889763779
 31
0.0
  0
LINE
  5
AC2
330
1E
100
AcDbEntity
  8
7
100
AcDbLine
 10
0.5472440944881889
 20
31.32381889763779
 30
0.0
 11
0.5472440944881889
 21
31.35728346456692
 31
0.0
  0
LINE
  5
AC3
330
1E
100
AcDbEntity
  8
7
100
AcDbLine
 10
0.5472440944881889
 20
31.35728346456692
 30
0.0
 11
0.5393700787401574
 21
31.38976377952756
 31
0.0
  0
LINE
  5
AC4
330
1E
100
AcDbEntity
  8
7
100
AcDbLine
 10
0.5393700787401574
 20
31.38976377952756
 30
0.0
 11
0.5236220472440945
 21
31.42027559055118
 31
0.0
  0
LINE
  5
AC5
330
1E
100
AcDbEntity
  8
7
100
AcDbLine
 10
0.5236220472440945
 20
31.42027559055118
 30
0.0
 11
0.5009842519685055
 21
31.44488188976378
 31
0.0
  0
LINE
  5
AC6
330
1E
100
AcDbEntity
  8
7
100
AcDbLine
 10
0.5009842519685055
 20
31.44488188976378
 30
0.0
 11
0.4734251968503945
 21
31.46456692913385
 31
0.0
  0
LINE
  5
AC7
330
1E
100
AcDbEntity
  8
7
100
AcDbLine
 10
0.4734251968503945
 20
31.46456692913385
 30
0.0
 11
0.4419291338582685
 21
31.4763779527559
 31
0.0
  0
LINE
  5
AC8
330
1E
100
AcDbEntity
  8
7
100
AcDbLine
 10
0.4419291338582685
 20
31.4763779527559
 30
0.0
 11
0.4084645669291352
 21
31.48031496062992
 31
0.0
  0
LINE
  5
AC9
330
1E
100
AcDbEntity
  8
7
100
AcDbLine
 10
0.4084645669291352
 20
31.2007874015748
 30
0.0
 11
0.4419291338582685
 21
31.20472440944881
 31
0.0
  0
LINE
  5
ACA
330
1E
100
AcDbEntity
  8
7
100
AcDbLine
 10
0.4419291338582685
 20
31.20472440944881
 30
0.0
 11
0.4734251968503945
 21
31.21653543307086
 31
0.0
  0
LINE
  5
ACB
330
1E
100
AcDbEntity
  8
7
100
AcDbLine
 10
0.4734251968503945
 20
31.21653543307086
 30
0.0
 11
0.5009842519685055
 21
31.23622047244094
 31
0.0
  0
LINE
  5
ACC
330
1E
100
AcDbEntity
  8
7
100
AcDbLine
 10
0.1505905511811036
 20
31.29133858267716
 30
0.0
 11
0.1663385826771666
 21
31.26082677165354
 31
0.0
  0
LINE
  5
ACD
330
1E
100
AcDbEntity
  8
7
100
AcDbLine
 10
0.1663385826771666
 20
31.26082677165354
 30
0.0
 11
0.1889763779527573
 21
31.23622047244094
 31
0.0
  0
LINE
  5
ACE
330
1E
100
AcDbEntity
  8
7
100
AcDbLine
 10
0.1889763779527573
 20
31.23622047244094
 30
0.0
 11
0.2165354330708666
 21
31.21653543307086
 31
0.0
  0
LINE
  5
ACF
330
1E
100
AcDbEntity
  8
7
100
AcDbLine
 10
0.2165354330708666
 20
31.21653543307086
 30
0.0
 11
0.2480314960629926
 21
31.20472440944881
 31
0.0
  0
LINE
  5
AD0
330
1E
100
AcDbEntity
  8
7
100
AcDbLine
 10
0.2480314960629926
 20
31.20472440944881
 30
0.0
 11
0.2814960629921259
 21
31.2007874015748
 31
0.0
  0
LINE
  5
AD1
330
1E
100
AcDbEntity
  8
7
100
AcDbLine
 10
0.2814960629921259
 20
31.48031496062992
 30
0.0
 11
0.2480314960629926
 21
31.4763779527559
 31
0.0
  0
LINE
  5
AD2
330
1E
100
AcDbEntity
  8
7
100
AcDbLine
 10
0.2480314960629926
 20
31.4763779527559
 30
0.0
 11
0.2165354330708666
 21
31.46456692913385
 31
0.0
  0
LINE
  5
AD3
330
1E
100
AcDbEntity
  8
7
100
AcDbLine
 10
0.2165354330708666
 20
31.46456692913385
 30
0.0
 11
0.1889763779527573
 21
31.44488188976378
 31
0.0
  0
LINE
  5
AD4
330
1E
100
AcDbEntity
  8
7
100
AcDbLine
 10
0.1889763779527573
 20
31.44488188976378
 30
0.0
 11
0.1663385826771666
 21
31.42027559055118
 31
0.0
  0
LINE
  5
AD5
330
1E
100
AcDbEntity
  8
7
100
AcDbLine
 10
0.1663385826771666
 20
31.42027559055118
 30
0.0
 11
0.1505905511811036
 21
31.38976377952756
 31
0.0
  0
LINE
  5
AD6
330
1E
100
AcDbEntity
  8
7
100
AcDbLine
 10
0.1505905511811036
 20
31.38976377952756
 30
0.0
 11
0.1427165354330722
 21
31.35728346456692
 31
0.0
  0
LINE
  5
AD7
330
1E
100
AcDbEntity
  8
7
100
AcDbLine
 10
0.1427165354330722
 20
31.35728346456692
 30
0.0
 11
0.1427165354330722
 21
31.32381889763779
 31
0.0
  0
LINE
  5
AD8
330
1E
100
AcDbEntity
  8
7
100
AcDbLine
 10
0.1427165354330722
 20
31.32381889763779
 30
0.0
 11
0.1505905511811036
 21
31.29133858267716
 31
0.0
  0
LINE
  5
AD9
330
1E
100
AcDbEntity
  8
7
100
AcDbLine
 10
18.71751968503937
 20
31.2007874015748
 30
0.0
 11
18.7509842519685
 21
31.20472440944881
 31
0.0
  0
LINE
  5
ADA
330
1E
100
AcDbEntity
  8
7
100
AcDbLine
 10
18.7509842519685
 20
31.20472440944881
 30
0.0
 11
18.78248031496062
 21
31.21653543307086
 31
0.0
  0
LINE
  5
ADB
330
1E
100
AcDbEntity
  8
7
100
AcDbLine
 10
18.78248031496062
 20
31.21653543307086
 30
0.0
 11
18.81003937007874
 21
31.23622047244094
 31
0.0
  0
LINE
  5
ADC
330
1E
100
AcDbEntity
  8
7
100
AcDbLine
 10
18.81003937007874
 20
31.23622047244094
 30
0.0
 11
18.83267716535432
 21
31.26082677165354
 31
0.0
  0
LINE
  5
ADD
330
1E
100
AcDbEntity
  8
7
100
AcDbLine
 10
18.83267716535432
 20
31.26082677165354
 30
0.0
 11
18.84842519685039
 21
31.29133858267716
 31
0.0
  0
LINE
  5
ADE
330
1E
100
AcDbEntity
  8
7
100
AcDbLine
 10
18.84842519685039
 20
31.29133858267716
 30
0.0
 11
18.85629921259842
 21
31.32381889763779
 31
0.0
  0
LINE
  5
ADF
330
1E
100
AcDbEntity
  8
7
100
AcDbLine
 10
18.85629921259842
 20
31.32381889763779
 30
0.0
 11
18.85629921259842
 21
31.35728346456692
 31
0.0
  0
LINE
  5
AE0
330
1E
100
AcDbEntity
  8
7
100
AcDbLine
 10
18.85629921259842
 20
31.35728346456692
 30
0.0
 11
18.84842519685039
 21
31.38976377952756
 31
0.0
  0
LINE
  5
AE1
330
1E
100
AcDbEntity
  8
7
100
AcDbLine
 10
18.84842519685039
 20
31.38976377952756
 30
0.0
 11
18.83267716535432
 21
31.42027559055118
 31
0.0
  0
LINE
  5
AE2
330
1E
100
AcDbEntity
  8
7
100
AcDbLine
 10
18.83267716535432
 20
31.42027559055118
 30
0.0
 11
18.81003937007874
 21
31.44488188976378
 31
0.0
  0
LINE
  5
AE3
330
1E
100
AcDbEntity
  8
7
100
AcDbLine
 10
18.81003937007874
 20
31.44488188976378
 30
0.0
 11
18.78248031496062
 21
31.46456692913385
 31
0.0
  0
LINE
  5
AE4
330
1E
100
AcDbEntity
  8
7
100
AcDbLine
 10
18.78248031496062
 20
31.46456692913385
 30
0.0
 11
18.7509842519685
 21
31.4763779527559
 31
0.0
  0
LINE
  5
AE5
330
1E
100
AcDbEntity
  8
7
100
AcDbLine
 10
18.7509842519685
 20
31.4763779527559
 30
0.0
 11
18.71751968503937
 21
31.48031496062992
 31
0.0
  0
LINE
  5
AE6
330
1E
100
AcDbEntity
  8
7
100
AcDbLine
 10
18.4763779527559
 20
31.42027559055118
 30
0.0
 11
18.46062992125984
 21
31.38976377952756
 31
0.0
  0
LINE
  5
AE7
330
1E
100
AcDbEntity
  8
7
100
AcDbLine
 10
18.46062992125984
 20
31.38976377952756
 30
0.0
 11
18.45275590551181
 21
31.35728346456692
 31
0.0
  0
LINE
  5
AE8
330
1E
100
AcDbEntity
  8
7
100
AcDbLine
 10
18.45275590551181
 20
31.35728346456692
 30
0.0
 11
18.45275590551181
 21
31.32381889763779
 31
0.0
  0
LINE
  5
AE9
330
1E
100
AcDbEntity
  8
7
100
AcDbLine
 10
18.45275590551181
 20
31.32381889763779
 30
0.0
 11
18.46062992125984
 21
31.29133858267716
 31
0.0
  0
LINE
  5
AEA
330
1E
100
AcDbEntity
  8
7
100
AcDbLine
 10
18.46062992125984
 20
31.29133858267716
 30
0.0
 11
18.4763779527559
 21
31.26082677165354
 31
0.0
  0
LINE
  5
AEB
330
1E
100
AcDbEntity
  8
7
100
AcDbLine
 10
18.4763779527559
 20
31.26082677165354
 30
0.0
 11
18.49901574803149
 21
31.23622047244094
 31
0.0
  0
LINE
  5
AEC
330
1E
100
AcDbEntity
  8
7
100
AcDbLine
 10
18.49901574803149
 20
31.23622047244094
 30
0.0
 11
18.5265748031496
 21
31.21653543307086
 31
0.0
  0
LINE
  5
AED
330
1E
100
AcDbEntity
  8
7
100
AcDbLine
 10
18.5265748031496
 20
31.21653543307086
 30
0.0
 11
18.55807086614173
 21
31.20472440944881
 31
0.0
  0
LINE
  5
AEE
330
1E
100
AcDbEntity
  8
7
100
AcDbLine
 10
18.55807086614173
 20
31.20472440944881
 30
0.0
 11
18.59153543307086
 21
31.2007874015748
 31
0.0
  0
LINE
  5
AEF
330
1E
100
AcDbEntity
  8
7
100
AcDbLine
 10
18.59153543307086
 20
31.48031496062992
 30
0.0
 11
18.55807086614173
 21
31.4763779527559
 31
0.0
  0
LINE
  5
AF0
330
1E
100
AcDbEntity
  8
7
100
AcDbLine
 10
18.55807086614173
 20
31.4763779527559
 30
0.0
 11
18.5265748031496
 21
31.46456692913385
 31
0.0
  0
LINE
  5
AF1
330
1E
100
AcDbEntity
  8
7
100
AcDbLine
 10
18.5265748031496
 20
31.46456692913385
 30
0.0
 11
18.49901574803149
 21
31.44488188976378
 31
0.0
  0
LINE
  5
AF2
330
1E
100
AcDbEntity
  8
7
100
AcDbLine
 10
18.49901574803149
 20
31.44488188976378
 30
0.0
 11
18.4763779527559
 21
31.42027559055118
 31
0.0
  0
LINE
  5
AF3
330
1E
100
AcDbEntity
  8
7
100
AcDbLine
 10
0.4734251968503945
 20
30.83956692913385
 30
0.0
 11
0.4419291338582685
 21
30.8513779527559
 31
0.0
  0
LINE
  5
AF4
330
1E
100
AcDbEntity
  8
7
100
AcDbLine
 10
0.4419291338582685
 20
30.8513779527559
 30
0.0
 11
0.4084645669291352
 21
30.85531496062992
 31
0.0
  0
LINE
  5
AF5
330
1E
100
AcDbEntity
  8
7
100
AcDbLine
 10
0.4084645669291352
 20
30.5757874015748
 30
0.0
 11
0.4419291338582685
 21
30.57972440944881
 31
0.0
  0
LINE
  5
AF6
330
1E
100
AcDbEntity
  8
7
100
AcDbLine
 10
0.4419291338582685
 20
30.57972440944881
 30
0.0
 11
0.4734251968503945
 21
30.59153543307086
 31
0.0
  0
LINE
  5
AF7
330
1E
100
AcDbEntity
  8
7
100
AcDbLine
 10
0.4734251968503945
 20
30.59153543307086
 30
0.0
 11
0.5009842519685055
 21
30.61122047244094
 31
0.0
  0
LINE
  5
AF8
330
1E
100
AcDbEntity
  8
7
100
AcDbLine
 10
0.5009842519685055
 20
30.61122047244094
 30
0.0
 11
0.5236220472440945
 21
30.63582677165354
 31
0.0
  0
LINE
  5
AF9
330
1E
100
AcDbEntity
  8
7
100
AcDbLine
 10
0.5236220472440945
 20
30.63582677165354
 30
0.0
 11
0.5393700787401574
 21
30.66633858267716
 31
0.0
  0
LINE
  5
AFA
330
1E
100
AcDbEntity
  8
7
100
AcDbLine
 10
0.5393700787401574
 20
30.66633858267716
 30
0.0
 11
0.5472440944881889
 21
30.69881889763779
 31
0.0
  0
LINE
  5
AFB
330
1E
100
AcDbEntity
  8
7
100
AcDbLine
 10
0.5472440944881889
 20
30.69881889763779
 30
0.0
 11
0.5472440944881889
 21
30.73228346456692
 31
0.0
  0
LINE
  5
AFC
330
1E
100
AcDbEntity
  8
7
100
AcDbLine
 10
0.5472440944881889
 20
30.73228346456692
 30
0.0
 11
0.5393700787401574
 21
30.76476377952756
 31
0.0
  0
LINE
  5
AFD
330
1E
100
AcDbEntity
  8
7
100
AcDbLine
 10
0.5393700787401574
 20
30.76476377952756
 30
0.0
 11
0.5236220472440945
 21
30.79527559055118
 31
0.0
  0
LINE
  5
AFE
330
1E
100
AcDbEntity
  8
7
100
AcDbLine
 10
0.5236220472440945
 20
30.79527559055118
 30
0.0
 11
0.5009842519685055
 21
30.81988188976378
 31
0.0
  0
LINE
  5
AFF
330
1E
100
AcDbEntity
  8
7
100
AcDbLine
 10
0.5009842519685055
 20
30.81988188976378
 30
0.0
 11
0.4734251968503945
 21
30.83956692913385
 31
0.0
  0
LINE
  5
B00
330
1E
100
AcDbEntity
  8
7
100
AcDbLine
 10
0.2480314960629926
 20
30.8513779527559
 30
0.0
 11
0.2165354330708666
 21
30.83956692913385
 31
0.0
  0
LINE
  5
B01
330
1E
100
AcDbEntity
  8
7
100
AcDbLine
 10
0.2165354330708666
 20
30.83956692913385
 30
0.0
 11
0.1889763779527573
 21
30.81988188976378
 31
0.0
  0
LINE
  5
B02
330
1E
100
AcDbEntity
  8
7
100
AcDbLine
 10
0.1889763779527573
 20
30.81988188976378
 30
0.0
 11
0.1663385826771666
 21
30.79527559055118
 31
0.0
  0
LINE
  5
B03
330
1E
100
AcDbEntity
  8
7
100
AcDbLine
 10
0.1663385826771666
 20
30.79527559055118
 30
0.0
 11
0.1505905511811036
 21
30.76476377952756
 31
0.0
  0
LINE
  5
B04
330
1E
100
AcDbEntity
  8
7
100
AcDbLine
 10
0.1505905511811036
 20
30.76476377952756
 30
0.0
 11
0.1427165354330722
 21
30.73228346456692
 31
0.0
  0
LINE
  5
B05
330
1E
100
AcDbEntity
  8
7
100
AcDbLine
 10
0.1427165354330722
 20
30.73228346456692
 30
0.0
 11
0.1427165354330722
 21
30.69881889763779
 31
0.0
  0
LINE
  5
B06
330
1E
100
AcDbEntity
  8
7
100
AcDbLine
 10
0.1427165354330722
 20
30.69881889763779
 30
0.0
 11
0.1505905511811036
 21
30.66633858267716
 31
0.0
  0
LINE
  5
B07
330
1E
100
AcDbEntity
  8
7
100
AcDbLine
 10
0.1505905511811036
 20
30.66633858267716
 30
0.0
 11
0.1663385826771666
 21
30.63582677165354
 31
0.0
  0
LINE
  5
B08
330
1E
100
AcDbEntity
  8
7
100
AcDbLine
 10
0.1663385826771666
 20
30.63582677165354
 30
0.0
 11
0.1889763779527573
 21
30.61122047244094
 31
0.0
  0
LINE
  5
B09
330
1E
100
AcDbEntity
  8
7
100
AcDbLine
 10
0.1889763779527573
 20
30.61122047244094
 30
0.0
 11
0.2165354330708666
 21
30.59153543307086
 31
0.0
  0
LINE
  5
B0A
330
1E
100
AcDbEntity
  8
7
100
AcDbLine
 10
0.2165354330708666
 20
30.59153543307086
 30
0.0
 11
0.2480314960629926
 21
30.57972440944881
 31
0.0
  0
LINE
  5
B0B
330
1E
100
AcDbEntity
  8
7
100
AcDbLine
 10
0.2480314960629926
 20
30.57972440944881
 30
0.0
 11
0.2814960629921259
 21
30.5757874015748
 31
0.0
  0
LINE
  5
B0C
330
1E
100
AcDbEntity
  8
7
100
AcDbLine
 10
18.85629921259842
 20
30.73228346456692
 30
0.0
 11
18.84842519685039
 21
30.76476377952756
 31
0.0
  0
LINE
  5
B0D
330
1E
100
AcDbEntity
  8
7
100
AcDbLine
 10
18.84842519685039
 20
30.76476377952756
 30
0.0
 11
18.83267716535432
 21
30.79527559055118
 31
0.0
  0
LINE
  5
B0E
330
1E
100
AcDbEntity
  8
7
100
AcDbLine
 10
18.83267716535432
 20
30.79527559055118
 30
0.0
 11
18.81003937007874
 21
30.81988188976378
 31
0.0
  0
LINE
  5
B0F
330
1E
100
AcDbEntity
  8
7
100
AcDbLine
 10
18.81003937007874
 20
30.81988188976378
 30
0.0
 11
18.78248031496062
 21
30.83956692913385
 31
0.0
  0
LINE
  5
B10
330
1E
100
AcDbEntity
  8
7
100
AcDbLine
 10
18.78248031496062
 20
30.83956692913385
 30
0.0
 11
18.7509842519685
 21
30.8513779527559
 31
0.0
  0
LINE
  5
B11
330
1E
100
AcDbEntity
  8
7
100
AcDbLine
 10
18.7509842519685
 20
30.8513779527559
 30
0.0
 11
18.71751968503937
 21
30.85531496062992
 31
0.0
  0
LINE
  5
B12
330
1E
100
AcDbEntity
  8
7
100
AcDbLine
 10
18.71751968503937
 20
30.5757874015748
 30
0.0
 11
18.7509842519685
 21
30.57972440944881
 31
0.0
  0
LINE
  5
B13
330
1E
100
AcDbEntity
  8
7
100
AcDbLine
 10
18.7509842519685
 20
30.57972440944881
 30
0.0
 11
18.78248031496062
 21
30.59153543307086
 31
0.0
  0
LINE
  5
B14
330
1E
100
AcDbEntity
  8
7
100
AcDbLine
 10
18.78248031496062
 20
30.59153543307086
 30
0.0
 11
18.81003937007874
 21
30.61122047244094
 31
0.0
  0
LINE
  5
B15
330
1E
100
AcDbEntity
  8
7
100
AcDbLine
 10
18.81003937007874
 20
30.61122047244094
 30
0.0
 11
18.83267716535432
 21
30.63582677165354
 31
0.0
  0
LINE
  5
B16
330
1E
100
AcDbEntity
  8
7
100
AcDbLine
 10
18.83267716535432
 20
30.63582677165354
 30
0.0
 11
18.84842519685039
 21
30.66633858267716
 31
0.0
  0
LINE
  5
B17
330
1E
100
AcDbEntity
  8
7
100
AcDbLine
 10
18.84842519685039
 20
30.66633858267716
 30
0.0
 11
18.85629921259842
 21
30.69881889763779
 31
0.0
  0
LINE
  5
B18
330
1E
100
AcDbEntity
  8
7
100
AcDbLine
 10
18.85629921259842
 20
30.69881889763779
 30
0.0
 11
18.85629921259842
 21
30.73228346456692
 31
0.0
  0
LINE
  5
B19
330
1E
100
AcDbEntity
  8
7
100
AcDbLine
 10
18.5265748031496
 20
30.59153543307086
 30
0.0
 11
18.55807086614173
 21
30.57972440944881
 31
0.0
  0
LINE
  5
B1A
330
1E
100
AcDbEntity
  8
7
100
AcDbLine
 10
18.55807086614173
 20
30.57972440944881
 30
0.0
 11
18.59153543307086
 21
30.5757874015748
 31
0.0
  0
LINE
  5
B1B
330
1E
100
AcDbEntity
  8
7
100
AcDbLine
 10
18.59153543307086
 20
30.85531496062992
 30
0.0
 11
18.55807086614173
 21
30.8513779527559
 31
0.0
  0
LINE
  5
B1C
330
1E
100
AcDbEntity
  8
7
100
AcDbLine
 10
18.55807086614173
 20
30.8513779527559
 30
0.0
 11
18.5265748031496
 21
30.83956692913385
 31
0.0
  0
LINE
  5
B1D
330
1E
100
AcDbEntity
  8
7
100
AcDbLine
 10
18.5265748031496
 20
30.83956692913385
 30
0.0
 11
18.49901574803149
 21
30.81988188976378
 31
0.0
  0
LINE
  5
B1E
330
1E
100
AcDbEntity
  8
7
100
AcDbLine
 10
18.49901574803149
 20
30.81988188976378
 30
0.0
 11
18.4763779527559
 21
30.79527559055118
 31
0.0
  0
LINE
  5
B1F
330
1E
100
AcDbEntity
  8
7
100
AcDbLine
 10
18.4763779527559
 20
30.79527559055118
 30
0.0
 11
18.46062992125984
 21
30.76476377952756
 31
0.0
  0
LINE
  5
B20
330
1E
100
AcDbEntity
  8
7
100
AcDbLine
 10
18.46062992125984
 20
30.76476377952756
 30
0.0
 11
18.45275590551181
 21
30.73228346456692
 31
0.0
  0
LINE
  5
B21
330
1E
100
AcDbEntity
  8
7
100
AcDbLine
 10
18.45275590551181
 20
30.73228346456692
 30
0.0
 11
18.45275590551181
 21
30.69881889763779
 31
0.0
  0
LINE
  5
B22
330
1E
100
AcDbEntity
  8
7
100
AcDbLine
 10
18.45275590551181
 20
30.69881889763779
 30
0.0
 11
18.46062992125984
 21
30.66633858267716
 31
0.0
  0
LINE
  5
B23
330
1E
100
AcDbEntity
  8
7
100
AcDbLine
 10
18.46062992125984
 20
30.66633858267716
 30
0.0
 11
18.4763779527559
 21
30.63582677165354
 31
0.0
  0
LINE
  5
B24
330
1E
100
AcDbEntity
  8
7
100
AcDbLine
 10
18.4763779527559
 20
30.63582677165354
 30
0.0
 11
18.49901574803149
 21
30.61122047244094
 31
0.0
  0
LINE
  5
B25
330
1E
100
AcDbEntity
  8
7
100
AcDbLine
 10
18.49901574803149
 20
30.61122047244094
 30
0.0
 11
18.5265748031496
 21
30.59153543307086
 31
0.0
  0
LINE
  5
B26
330
1E
100
AcDbEntity
  8
7
100
AcDbLine
 10
0.5009842519685055
 20
29.98622047244094
 30
0.0
 11
0.5236220472440945
 21
30.01082677165354
 31
0.0
  0
LINE
  5
B27
330
1E
100
AcDbEntity
  8
7
100
AcDbLine
 10
0.5236220472440945
 20
30.01082677165354
 30
0.0
 11
0.5393700787401574
 21
30.04133858267716
 31
0.0
  0
LINE
  5
B28
330
1E
100
AcDbEntity
  8
7
100
AcDbLine
 10
0.5393700787401574
 20
30.04133858267716
 30
0.0
 11
0.5472440944881889
 21
30.07381889763779
 31
0.0
  0
LINE
  5
B29
330
1E
100
AcDbEntity
  8
7
100
AcDbLine
 10
0.5472440944881889
 20
30.07381889763779
 30
0.0
 11
0.5472440944881889
 21
30.10728346456692
 31
0.0
  0
LINE
  5
B2A
330
1E
100
AcDbEntity
  8
7
100
AcDbLine
 10
0.5472440944881889
 20
30.10728346456692
 30
0.0
 11
0.5393700787401574
 21
30.13976377952756
 31
0.0
  0
LINE
  5
B2B
330
1E
100
AcDbEntity
  8
7
100
AcDbLine
 10
0.5393700787401574
 20
30.13976377952756
 30
0.0
 11
0.5236220472440945
 21
30.17027559055118
 31
0.0
  0
LINE
  5
B2C
330
1E
100
AcDbEntity
  8
7
100
AcDbLine
 10
0.5236220472440945
 20
30.17027559055118
 30
0.0
 11
0.5009842519685055
 21
30.19488188976378
 31
0.0
  0
LINE
  5
B2D
330
1E
100
AcDbEntity
  8
7
100
AcDbLine
 10
0.5009842519685055
 20
30.19488188976378
 30
0.0
 11
0.4734251968503945
 21
30.21456692913385
 31
0.0
  0
LINE
  5
B2E
330
1E
100
AcDbEntity
  8
7
100
AcDbLine
 10
0.4734251968503945
 20
30.21456692913385
 30
0.0
 11
0.4419291338582685
 21
30.2263779527559
 31
0.0
  0
LINE
  5
B2F
330
1E
100
AcDbEntity
  8
7
100
AcDbLine
 10
0.4419291338582685
 20
30.2263779527559
 30
0.0
 11
0.4084645669291352
 21
30.23031496062992
 31
0.0
  0
LINE
  5
B30
330
1E
100
AcDbEntity
  8
7
100
AcDbLine
 10
0.4084645669291352
 20
29.9507874015748
 30
0.0
 11
0.4419291338582685
 21
29.95472440944881
 31
0.0
  0
LINE
  5
B31
330
1E
100
AcDbEntity
  8
7
100
AcDbLine
 10
0.4419291338582685
 20
29.95472440944881
 30
0.0
 11
0.4734251968503945
 21
29.96653543307086
 31
0.0
  0
LINE
  5
B32
330
1E
100
AcDbEntity
  8
7
100
AcDbLine
 10
0.4734251968503945
 20
29.96653543307086
 30
0.0
 11
0.5009842519685055
 21
29.98622047244094
 31
0.0
  0
LINE
  5
B33
330
1E
100
AcDbEntity
  8
7
100
AcDbLine
 10
0.1505905511811036
 20
30.04133858267716
 30
0.0
 11
0.1663385826771666
 21
30.01082677165354
 31
0.0
  0
LINE
  5
B34
330
1E
100
AcDbEntity
  8
7
100
AcDbLine
 10
0.1663385826771666
 20
30.01082677165354
 30
0.0
 11
0.1889763779527573
 21
29.98622047244094
 31
0.0
  0
LINE
  5
B35
330
1E
100
AcDbEntity
  8
7
100
AcDbLine
 10
0.1889763779527573
 20
29.98622047244094
 30
0.0
 11
0.2165354330708666
 21
29.96653543307086
 31
0.0
  0
LINE
  5
B36
330
1E
100
AcDbEntity
  8
7
100
AcDbLine
 10
0.2165354330708666
 20
29.96653543307086
 30
0.0
 11
0.2480314960629926
 21
29.95472440944881
 31
0.0
  0
LINE
  5
B37
330
1E
100
AcDbEntity
  8
7
100
AcDbLine
 10
0.2480314960629926
 20
29.95472440944881
 30
0.0
 11
0.2814960629921259
 21
29.9507874015748
 31
0.0
  0
LINE
  5
B38
330
1E
100
AcDbEntity
  8
7
100
AcDbLine
 10
0.2814960629921259
 20
30.23031496062992
 30
0.0
 11
0.2480314960629926
 21
30.2263779527559
 31
0.0
  0
LINE
  5
B39
330
1E
100
AcDbEntity
  8
7
100
AcDbLine
 10
0.2480314960629926
 20
30.2263779527559
 30
0.0
 11
0.2165354330708666
 21
30.21456692913385
 31
0.0
  0
LINE
  5
B3A
330
1E
100
AcDbEntity
  8
7
100
AcDbLine
 10
0.2165354330708666
 20
30.21456692913385
 30
0.0
 11
0.1889763779527573
 21
30.19488188976378
 31
0.0
  0
LINE
  5
B3B
330
1E
100
AcDbEntity
  8
7
100
AcDbLine
 10
0.1889763779527573
 20
30.19488188976378
 30
0.0
 11
0.1663385826771666
 21
30.17027559055118
 31
0.0
  0
LINE
  5
B3C
330
1E
100
AcDbEntity
  8
7
100
AcDbLine
 10
0.1663385826771666
 20
30.17027559055118
 30
0.0
 11
0.1505905511811036
 21
30.13976377952756
 31
0.0
  0
LINE
  5
B3D
330
1E
100
AcDbEntity
  8
7
100
AcDbLine
 10
0.1505905511811036
 20
30.13976377952756
 30
0.0
 11
0.1427165354330722
 21
30.10728346456692
 31
0.0
  0
LINE
  5
B3E
330
1E
100
AcDbEntity
  8
7
100
AcDbLine
 10
0.1427165354330722
 20
30.10728346456692
 30
0.0
 11
0.1427165354330722
 21
30.07381889763779
 31
0.0
  0
LINE
  5
B3F
330
1E
100
AcDbEntity
  8
7
100
AcDbLine
 10
0.1427165354330722
 20
30.07381889763779
 30
0.0
 11
0.1505905511811036
 21
30.04133858267716
 31
0.0
  0
LINE
  5
B40
330
1E
100
AcDbEntity
  8
7
100
AcDbLine
 10
18.71751968503937
 20
29.9507874015748
 30
0.0
 11
18.7509842519685
 21
29.95472440944881
 31
0.0
  0
LINE
  5
B41
330
1E
100
AcDbEntity
  8
7
100
AcDbLine
 10
18.7509842519685
 20
29.95472440944881
 30
0.0
 11
18.78248031496062
 21
29.96653543307086
 31
0.0
  0
LINE
  5
B42
330
1E
100
AcDbEntity
  8
7
100
AcDbLine
 10
18.78248031496062
 20
29.96653543307086
 30
0.0
 11
18.81003937007874
 21
29.98622047244094
 31
0.0
  0
LINE
  5
B43
330
1E
100
AcDbEntity
  8
7
100
AcDbLine
 10
18.81003937007874
 20
29.98622047244094
 30
0.0
 11
18.83267716535432
 21
30.01082677165354
 31
0.0
  0
LINE
  5
B44
330
1E
100
AcDbEntity
  8
7
100
AcDbLine
 10
18.83267716535432
 20
30.01082677165354
 30
0.0
 11
18.84842519685039
 21
30.04133858267716
 31
0.0
  0
LINE
  5
B45
330
1E
100
AcDbEntity
  8
7
100
AcDbLine
 10
18.84842519685039
 20
30.04133858267716
 30
0.0
 11
18.85629921259842
 21
30.07381889763779
 31
0.0
  0
LINE
  5
B46
330
1E
100
AcDbEntity
  8
7
100
AcDbLine
 10
18.85629921259842
 20
30.07381889763779
 30
0.0
 11
18.85629921259842
 21
30.10728346456692
 31
0.0
  0
LINE
  5
B47
330
1E
100
AcDbEntity
  8
7
100
AcDbLine
 10
18.85629921259842
 20
30.10728346456692
 30
0.0
 11
18.84842519685039
 21
30.13976377952756
 31
0.0
  0
LINE
  5
B48
330
1E
100
AcDbEntity
  8
7
100
AcDbLine
 10
18.84842519685039
 20
30.13976377952756
 30
0.0
 11
18.83267716535432
 21
30.17027559055118
 31
0.0
  0
LINE
  5
B49
330
1E
100
AcDbEntity
  8
7
100
AcDbLine
 10
18.83267716535432
 20
30.17027559055118
 30
0.0
 11
18.81003937007874
 21
30.19488188976378
 31
0.0
  0
LINE
  5
B4A
330
1E
100
AcDbEntity
  8
7
100
AcDbLine
 10
18.81003937007874
 20
30.19488188976378
 30
0.0
 11
18.78248031496062
 21
30.21456692913385
 31
0.0
  0
LINE
  5
B4B
330
1E
100
AcDbEntity
  8
7
100
AcDbLine
 10
18.78248031496062
 20
30.21456692913385
 30
0.0
 11
18.7509842519685
 21
30.2263779527559
 31
0.0
  0
LINE
  5
B4C
330
1E
100
AcDbEntity
  8
7
100
AcDbLine
 10
18.7509842519685
 20
30.2263779527559
 30
0.0
 11
18.71751968503937
 21
30.23031496062992
 31
0.0
  0
LINE
  5
B4D
330
1E
100
AcDbEntity
  8
7
100
AcDbLine
 10
18.46062992125984
 20
30.13976377952756
 30
0.0
 11
18.45275590551181
 21
30.10728346456692
 31
0.0
  0
LINE
  5
B4E
330
1E
100
AcDbEntity
  8
7
100
AcDbLine
 10
18.45275590551181
 20
30.10728346456692
 30
0.0
 11
18.45275590551181
 21
30.07381889763779
 31
0.0
  0
LINE
  5
B4F
330
1E
100
AcDbEntity
  8
7
100
AcDbLine
 10
18.45275590551181
 20
30.07381889763779
 30
0.0
 11
18.46062992125984
 21
30.04133858267716
 31
0.0
  0
LINE
  5
B50
330
1E
100
AcDbEntity
  8
7
100
AcDbLine
 10
18.46062992125984
 20
30.04133858267716
 30
0.0
 11
18.4763779527559
 21
30.01082677165354
 31
0.0
  0
LINE
  5
B51
330
1E
100
AcDbEntity
  8
7
100
AcDbLine
 10
18.4763779527559
 20
30.01082677165354
 30
0.0
 11
18.49901574803149
 21
29.98622047244094
 31
0.0
  0
LINE
  5
B52
330
1E
100
AcDbEntity
  8
7
100
AcDbLine
 10
18.49901574803149
 20
29.98622047244094
 30
0.0
 11
18.5265748031496
 21
29.96653543307086
 31
0.0
  0
LINE
  5
B53
330
1E
100
AcDbEntity
  8
7
100
AcDbLine
 10
18.5265748031496
 20
29.96653543307086
 30
0.0
 11
18.55807086614173
 21
29.95472440944881
 31
0.0
  0
LINE
  5
B54
330
1E
100
AcDbEntity
  8
7
100
AcDbLine
 10
18.55807086614173
 20
29.95472440944881
 30
0.0
 11
18.59153543307086
 21
29.9507874015748
 31
0.0
  0
LINE
  5
B55
330
1E
100
AcDbEntity
  8
7
100
AcDbLine
 10
18.59153543307086
 20
30.23031496062992
 30
0.0
 11
18.55807086614173
 21
30.2263779527559
 31
0.0
  0
LINE
  5
B56
330
1E
100
AcDbEntity
  8
7
100
AcDbLine
 10
18.55807086614173
 20
30.2263779527559
 30
0.0
 11
18.5265748031496
 21
30.21456692913385
 31
0.0
  0
LINE
  5
B57
330
1E
100
AcDbEntity
  8
7
100
AcDbLine
 10
18.5265748031496
 20
30.21456692913385
 30
0.0
 11
18.49901574803149
 21
30.19488188976378
 31
0.0
  0
LINE
  5
B58
330
1E
100
AcDbEntity
  8
7
100
AcDbLine
 10
18.49901574803149
 20
30.19488188976378
 30
0.0
 11
18.4763779527559
 21
30.17027559055118
 31
0.0
  0
LINE
  5
B59
330
1E
100
AcDbEntity
  8
7
100
AcDbLine
 10
18.4763779527559
 20
30.17027559055118
 30
0.0
 11
18.46062992125984
 21
30.13976377952756
 31
0.0
  0
LINE
  5
B5A
330
1E
100
AcDbEntity
  8
7
100
AcDbLine
 10
1.432086614173229
 20
30.7253937007874
 30
0.0
 11
1.428149606299212
 21
30.73622047244094
 31
0.0
  0
LINE
  5
B5B
330
1E
100
AcDbEntity
  8
7
100
AcDbLine
 10
1.428149606299212
 20
30.73622047244094
 30
0.0
 11
1.41732283464567
 21
30.74015748031496
 31
0.0
  0
LINE
  5
B5C
330
1E
100
AcDbEntity
  8
7
100
AcDbLine
 10
0.8533464566929147
 20
30.74015748031496
 30
0.0
 11
0.8110236220472444
 21
30.73523622047244
 31
0.0
  0
LINE
  5
B5D
330
1E
100
AcDbEntity
  8
7
100
AcDbLine
 10
0.8110236220472444
 20
30.73523622047244
 30
0.0
 11
0.7706692913385833
 21
30.72145669291338
 31
0.0
  0
LINE
  5
B5E
330
1E
100
AcDbEntity
  8
7
100
AcDbLine
 10
0.7706692913385833
 20
30.72145669291338
 30
0.0
 11
0.7352362204724408
 21
30.69881889763779
 31
0.0
  0
LINE
  5
B5F
330
1E
100
AcDbEntity
  8
7
100
AcDbLine
 10
0.7352362204724408
 20
30.69881889763779
 30
0.0
 11
0.7047244094488203
 21
30.66830708661417
 31
0.0
  0
LINE
  5
B60
330
1E
100
AcDbEntity
  8
7
100
AcDbLine
 10
0.7047244094488203
 20
30.66830708661417
 30
0.0
 11
0.6820866141732296
 21
30.63287401574803
 31
0.0
  0
LINE
  5
B61
330
1E
100
AcDbEntity
  8
7
100
AcDbLine
 10
0.6820866141732296
 20
30.63287401574803
 30
0.0
 11
0.6683070866141741
 21
30.59251968503937
 31
0.0
  0
LINE
  5
B62
330
1E
100
AcDbEntity
  8
7
100
AcDbLine
 10
0.6683070866141741
 20
30.59251968503937
 30
0.0
 11
0.6633858267716537
 21
30.5501968503937
 31
0.0
  0
LINE
  5
B63
330
1E
100
AcDbEntity
  8
7
100
AcDbLine
 10
0.41240157480315
 20
29.84055118110236
 30
0.0
 11
0.4616141732283463
 21
29.84547244094488
 31
0.0
  0
LINE
  5
B64
330
1E
100
AcDbEntity
  8
7
100
AcDbLine
 10
0.4616141732283463
 20
29.84547244094488
 30
0.0
 11
0.5078740157480315
 21
29.85925196850393
 31
0.0
  0
LINE
  5
B65
330
1E
100
AcDbEntity
  8
7
100
AcDbLine
 10
0.5078740157480315
 20
29.85925196850393
 30
0.0
 11
0.5511811023622056
 21
29.88287401574803
 31
0.0
  0
LINE
  5
B66
330
1E
100
AcDbEntity
  8
7
100
AcDbLine
 10
0.5511811023622056
 20
29.88287401574803
 30
0.0
 11
0.5895669291338593
 21
29.91338582677165
 31
0.0
  0
LINE
  5
B67
330
1E
100
AcDbEntity
  8
7
100
AcDbLine
 10
0.5895669291338593
 20
29.91338582677165
 30
0.0
 11
0.6200787401574815
 21
29.95177165354331
 31
0.0
  0
LINE
  5
B68
330
1E
100
AcDbEntity
  8
7
100
AcDbLine
 10
0.6200787401574815
 20
29.95177165354331
 30
0.0
 11
0.6437007874015759
 21
29.99507874015748
 31
0.0
  0
LINE
  5
B69
330
1E
100
AcDbEntity
  8
7
100
AcDbLine
 10
0.6437007874015759
 20
29.99507874015748
 30
0.0
 11
0.6574803149606315
 21
30.04133858267716
 31
0.0
  0
LINE
  5
B6A
330
1E
100
AcDbEntity
  8
7
100
AcDbLine
 10
0.6574803149606315
 20
30.04133858267716
 30
0.0
 11
0.66240157480315
 21
30.09055118110236
 31
0.0
  0
LINE
  5
B6B
330
1E
100
AcDbEntity
  8
7
100
AcDbLine
 10
0.1112204724409462
 20
29.88287401574803
 30
0.0
 11
0.1545275590551185
 21
29.85925196850393
 31
0.0
  0
LINE
  5
B6C
330
1E
100
AcDbEntity
  8
7
100
AcDbLine
 10
0.1545275590551185
 20
29.85925196850393
 30
0.0
 11
0.2007874015748037
 21
29.84547244094488
 31
0.0
  0
LINE
  5
B6D
330
1E
100
AcDbEntity
  8
7
100
AcDbLine
 10
0.2007874015748037
 20
29.84547244094488
 30
0.0
 11
0.25
 21
29.84055118110236
 31
0.0
  0
LINE
  5
B6E
330
1E
100
AcDbEntity
  8
7
100
AcDbLine
 10
0.0
 20
30.09055118110236
 30
0.0
 11
0.0049212598425203
 21
30.04133858267716
 31
0.0
  0
LINE
  5
B6F
330
1E
100
AcDbEntity
  8
7
100
AcDbLine
 10
0.0049212598425203
 20
30.04133858267716
 30
0.0
 11
0.0187007874015759
 21
29.99507874015748
 31
0.0
  0
LINE
  5
B70
330
1E
100
AcDbEntity
  8
7
100
AcDbLine
 10
0.0187007874015759
 20
29.99507874015748
 30
0.0
 11
0.0423228346456703
 21
29.95177165354331
 31
0.0
  0
LINE
  5
B71
330
1E
100
AcDbEntity
  8
7
100
AcDbLine
 10
0.0423228346456703
 20
29.95177165354331
 30
0.0
 11
0.0728346456692926
 21
29.91338582677165
 31
0.0
  0
LINE
  5
B72
330
1E
100
AcDbEntity
  8
7
100
AcDbLine
 10
0.0728346456692926
 20
29.91338582677165
 30
0.0
 11
0.1112204724409462
 21
29.88287401574803
 31
0.0
  0
LINE
  5
B73
330
1E
100
AcDbEntity
  8
7
100
AcDbLine
 10
0.25
 20
31.59055118110236
 30
0.0
 11
0.2007874015748037
 21
31.58562992125984
 31
0.0
  0
LINE
  5
B74
330
1E
100
AcDbEntity
  8
7
100
AcDbLine
 10
0.2007874015748037
 20
31.58562992125984
 30
0.0
 11
0.1545275590551185
 21
31.57185039370078
 31
0.0
  0
LINE
  5
B75
330
1E
100
AcDbEntity
  8
7
100
AcDbLine
 10
0.1545275590551185
 20
31.57185039370078
 30
0.0
 11
0.1112204724409462
 21
31.54822834645669
 31
0.0
  0
LINE
  5
B76
330
1E
100
AcDbEntity
  8
7
100
AcDbLine
 10
0.1112204724409462
 20
31.54822834645669
 30
0.0
 11
0.0728346456692926
 21
31.51771653543307
 31
0.0
  0
LINE
  5
B77
330
1E
100
AcDbEntity
  8
7
100
AcDbLine
 10
0.0728346456692926
 20
31.51771653543307
 30
0.0
 11
0.0423228346456703
 21
31.47933070866141
 31
0.0
  0
LINE
  5
B78
330
1E
100
AcDbEntity
  8
7
100
AcDbLine
 10
0.0423228346456703
 20
31.47933070866141
 30
0.0
 11
0.0187007874015759
 21
31.43602362204724
 31
0.0
  0
LINE
  5
B79
330
1E
100
AcDbEntity
  8
7
100
AcDbLine
 10
0.0187007874015759
 20
31.43602362204724
 30
0.0
 11
0.0049212598425203
 21
31.38976377952756
 31
0.0
  0
LINE
  5
B7A
330
1E
100
AcDbEntity
  8
7
100
AcDbLine
 10
19.0
 20
31.34055118110236
 30
0.0
 11
18.99507874015748
 21
31.38976377952756
 31
0.0
  0
LINE
  5
B7B
330
1E
100
AcDbEntity
  8
7
100
AcDbLine
 10
18.99507874015748
 20
31.38976377952756
 30
0.0
 11
18.98129921259842
 21
31.43602362204724
 31
0.0
  0
LINE
  5
B7C
330
1E
100
AcDbEntity
  8
7
100
AcDbLine
 10
18.98129921259842
 20
31.43602362204724
 30
0.0
 11
18.95767716535432
 21
31.47933070866141
 31
0.0
  0
LINE
  5
B7D
330
1E
100
AcDbEntity
  8
7
100
AcDbLine
 10
18.95767716535432
 20
31.47933070866141
 30
0.0
 11
18.9271653543307
 21
31.51771653543307
 31
0.0
  0
LINE
  5
B7E
330
1E
100
AcDbEntity
  8
7
100
AcDbLine
 10
18.9271653543307
 20
31.51771653543307
 30
0.0
 11
18.88877952755905
 21
31.54822834645669
 31
0.0
  0
LINE
  5
B7F
330
1E
100
AcDbEntity
  8
7
100
AcDbLine
 10
18.88877952755905
 20
31.54822834645669
 30
0.0
 11
18.84547244094488
 21
31.57185039370078
 31
0.0
  0
LINE
  5
B80
330
1E
100
AcDbEntity
  8
7
100
AcDbLine
 10
18.84547244094488
 20
31.57185039370078
 30
0.0
 11
18.79921259842519
 21
31.58562992125984
 31
0.0
  0
LINE
  5
B81
330
1E
100
AcDbEntity
  8
7
100
AcDbLine
 10
18.79921259842519
 20
31.58562992125984
 30
0.0
 11
18.75
 21
31.59055118110236
 31
0.0
  0
LINE
  5
B82
330
1E
100
AcDbEntity
  8
7
100
AcDbLine
 10
18.75
 20
29.84055118110236
 30
0.0
 11
18.79921259842519
 21
29.84547244094488
 31
0.0
  0
LINE
  5
B83
330
1E
100
AcDbEntity
  8
7
100
AcDbLine
 10
18.79921259842519
 20
29.84547244094488
 30
0.0
 11
18.84547244094488
 21
29.85925196850393
 31
0.0
  0
LINE
  5
B84
330
1E
100
AcDbEntity
  8
7
100
AcDbLine
 10
18.84547244094488
 20
29.85925196850393
 30
0.0
 11
18.88877952755905
 21
29.88287401574803
 31
0.0
  0
LINE
  5
B85
330
1E
100
AcDbEntity
  8
7
100
AcDbLine
 10
18.88877952755905
 20
29.88287401574803
 30
0.0
 11
18.9271653543307
 21
29.91338582677165
 31
0.0
  0
LINE
  5
B86
330
1E
100
AcDbEntity
  8
7
100
AcDbLine
 10
18.9271653543307
 20
29.91338582677165
 30
0.0
 11
18.95767716535432
 21
29.95177165354331
 31
0.0
  0
LINE
  5
B87
330
1E
100
AcDbEntity
  8
7
100
AcDbLine
 10
18.95767716535432
 20
29.95177165354331
 30
0.0
 11
18.98129921259842
 21
29.99507874015748
 31
0.0
  0
LINE
  5
B88
330
1E
100
AcDbEntity
  8
7
100
AcDbLine
 10
18.98129921259842
 20
29.99507874015748
 30
0.0
 11
18.99507874015748
 21
30.04133858267716
 31
0.0
  0
LINE
  5
B89
330
1E
100
AcDbEntity
  8
7
100
AcDbLine
 10
18.99507874015748
 20
30.04133858267716
 30
0.0
 11
19.0
 21
30.09055118110236
 31
0.0
  0
LINE
  5
B8A
330
1E
100
AcDbEntity
  8
7
100
AcDbLine
 10
18.33759842519685
 20
30.09055118110236
 30
0.0
 11
18.34251968503937
 21
30.04133858267716
 31
0.0
  0
LINE
  5
B8B
330
1E
100
AcDbEntity
  8
7
100
AcDbLine
 10
18.34251968503937
 20
30.04133858267716
 30
0.0
 11
18.35629921259842
 21
29.99507874015748
 31
0.0
  0
LINE
  5
B8C
330
1E
100
AcDbEntity
  8
7
100
AcDbLine
 10
18.35629921259842
 20
29.99507874015748
 30
0.0
 11
18.37992125984252
 21
29.95177165354331
 31
0.0
  0
LINE
  5
B8D
330
1E
100
AcDbEntity
  8
7
100
AcDbLine
 10
18.37992125984252
 20
29.95177165354331
 30
0.0
 11
18.41043307086614
 21
29.91338582677165
 31
0.0
  0
LINE
  5
B8E
330
1E
100
AcDbEntity
  8
7
100
AcDbLine
 10
18.41043307086614
 20
29.91338582677165
 30
0.0
 11
18.44881889763779
 21
29.88287401574803
 31
0.0
  0
LINE
  5
B8F
330
1E
100
AcDbEntity
  8
7
100
AcDbLine
 10
18.44881889763779
 20
29.88287401574803
 30
0.0
 11
18.49212598425197
 21
29.85925196850393
 31
0.0
  0
LINE
  5
B90
330
1E
100
AcDbEntity
  8
7
100
AcDbLine
 10
18.49212598425197
 20
29.85925196850393
 30
0.0
 11
18.53838582677165
 21
29.84547244094488
 31
0.0
  0
LINE
  5
B91
330
1E
100
AcDbEntity
  8
7
100
AcDbLine
 10
18.53838582677165
 20
29.84547244094488
 30
0.0
 11
18.58759842519685
 21
29.84055118110236
 31
0.0
  0
LINE
  5
B92
330
1E
100
AcDbEntity
  8
7
100
AcDbLine
 10
18.33661417322834
 20
30.5501968503937
 30
0.0
 11
18.33169291338582
 21
30.59251968503937
 31
0.0
  0
LINE
  5
B93
330
1E
100
AcDbEntity
  8
7
100
AcDbLine
 10
18.33169291338582
 20
30.59251968503937
 30
0.0
 11
18.31791338582677
 21
30.63287401574803
 31
0.0
  0
LINE
  5
B94
330
1E
100
AcDbEntity
  8
7
100
AcDbLine
 10
18.31791338582677
 20
30.63287401574803
 30
0.0
 11
18.29527559055118
 21
30.66830708661417
 31
0.0
  0
LINE
  5
B95
330
1E
100
AcDbEntity
  8
7
100
AcDbLine
 10
18.29527559055118
 20
30.66830708661417
 30
0.0
 11
18.26476377952755
 21
30.69881889763779
 31
0.0
  0
LINE
  5
B96
330
1E
100
AcDbEntity
  8
7
100
AcDbLine
 10
18.26476377952755
 20
30.69881889763779
 30
0.0
 11
18.22933070866142
 21
30.72145669291338
 31
0.0
  0
LINE
  5
B97
330
1E
100
AcDbEntity
  8
7
100
AcDbLine
 10
18.22933070866142
 20
30.72145669291338
 30
0.0
 11
18.18897637795275
 21
30.73523622047244
 31
0.0
  0
LINE
  5
B98
330
1E
100
AcDbEntity
  8
7
100
AcDbLine
 10
18.18897637795275
 20
30.73523622047244
 30
0.0
 11
18.14665354330708
 21
30.74015748031496
 31
0.0
  0
LINE
  5
B99
330
1E
100
AcDbEntity
  8
7
100
AcDbLine
 10
17.58267716535432
 20
30.74015748031496
 30
0.0
 11
17.57185039370078
 21
30.73622047244094
 31
0.0
  0
LINE
  5
B9A
330
1E
100
AcDbEntity
  8
7
100
AcDbLine
 10
17.57185039370078
 20
30.73622047244094
 30
0.0
 11
17.56791338582677
 21
30.7253937007874
 31
0.0
  0
LINE
  5
B9B
330
1E
100
AcDbEntity
  8
7
100
AcDbLine
 10
17.56791338582677
 20
30.57381889763779
 30
0.0
 11
17.57185039370078
 21
30.56299212598425
 31
0.0
  0
LINE
  5
B9C
330
1E
100
AcDbEntity
  8
7
100
AcDbLine
 10
17.57185039370078
 20
30.56299212598425
 30
0.0
 11
17.58267716535432
 21
30.55905511811023
 31
0.0
  0
LINE
  5
B9D
330
1E
100
AcDbEntity
  8
7
100
AcDbLine
 10
18.16732283464567
 20
30.47933070866141
 30
0.0
 11
18.08956692913385
 21
30.55807086614173
 31
0.0
  0
LINE
  5
B9E
330
1E
100
AcDbEntity
  8
7
100
AcDbLine
 10
18.08956692913385
 20
30.55807086614173
 30
0.0
 11
17.58267716535432
 21
30.55807086614173
 31
0.0
  0
LINE
  5
B9F
330
1E
100
AcDbEntity
  8
7
100
AcDbLine
 10
0.9104330708661425
 20
30.55807086614173
 30
0.0
 11
0.8326771653543314
 21
30.47933070866141
 31
0.0
  0
LINE
  5
BA0
330
1E
100
AcDbEntity
  8
7
100
AcDbLine
 10
0.8326771653543314
 20
30.47933070866141
 30
0.0
 11
0.8326771653543314
 21
30.21850393700787
 31
0.0
  0
LINE
  5
BA1
330
1E
100
AcDbEntity
  8
7
100
AcDbLine
 10
0.8326771653543314
 20
30.21850393700787
 30
0.0
 11
0.9104330708661425
 21
30.14074803149606
 31
0.0
  0
LINE
  5
BA2
330
1E
100
AcDbEntity
  8
1
100
AcDbLine
 10
18.16141732283464
 20
30.00196850393701
 30
0.0
 11
18.16141732283464
 21
29.98622047244094
 31
0.0
  0
LINE
  5
BA3
330
1E
100
AcDbEntity
  8
1
100
AcDbLine
 10
18.16141732283464
 20
29.98622047244094
 30
0.0
 11
18.16141732283464
 21
29.9753937007874
 31
0.0
  0
LINE
  5
BA4
330
1E
100
AcDbEntity
  8
1
100
AcDbLine
 10
18.16141732283464
 20
29.9753937007874
 30
0.0
 11
18.16141732283464
 21
29.97047244094488
 31
0.0
  0
LINE
  5
BA5
330
1E
100
AcDbEntity
  8
1
100
AcDbLine
 10
0.8385826771653555
 20
29.97047244094488
 30
0.0
 11
0.8385826771653555
 21
29.9753937007874
 31
0.0
  0
LINE
  5
BA6
330
1E
100
AcDbEntity
  8
1
100
AcDbLine
 10
0.8385826771653555
 20
29.9753937007874
 30
0.0
 11
0.8385826771653555
 21
29.98622047244094
 31
0.0
  0
LINE
  5
BA7
330
1E
100
AcDbEntity
  8
1
100
AcDbLine
 10
0.8385826771653555
 20
30.21259842519685
 30
0.0
 11
0.8385826771653555
 21
30.00196850393701
 31
0.0
  0
LINE
  5
BA8
330
1E
100
AcDbEntity
  8
1
100
AcDbLine
 10
0.8385826771653555
 20
30.00196850393701
 30
0.0
 11
0.9429133858267721
 21
30.00196850393701
 31
0.0
  0
LINE
  5
BA9
330
1E
100
AcDbEntity
  8
1
100
AcDbLine
 10
0.875
 20
30.60531496062992
 30
0.0
 11
0.8494094488188981
 21
30.54822834645669
 31
0.0
  0
LINE
  5
BAA
330
1E
100
AcDbEntity
  8
1
100
AcDbLine
 10
0.8494094488188981
 20
30.54822834645669
 30
0.0
 11
0.8385826771653555
 21
30.48622047244094
 31
0.0
  0
LINE
  5
BAB
330
1E
100
AcDbEntity
  8
1
100
AcDbLine
 10
18.16141732283464
 20
30.48622047244094
 30
0.0
 11
18.1505905511811
 21
30.54822834645669
 31
0.0
  0
LINE
  5
BAC
330
1E
100
AcDbEntity
  8
1
100
AcDbLine
 10
18.1505905511811
 20
30.54822834645669
 30
0.0
 11
18.125
 21
30.60531496062992
 31
0.0
  0
LINE
  5
BAD
330
1E
100
AcDbEntity
  8
1
100
AcDbLine
 10
1.307086614173229
 20
30.60531496062992
 30
0.0
 11
1.303149606299212
 21
30.60531496062992
 31
0.0
  0
LINE
  5
BAE
330
1E
100
AcDbEntity
  8
1
100
AcDbLine
 10
1.303149606299212
 20
30.60531496062992
 30
0.0
 11
1.290354330708662
 21
30.60531496062992
 31
0.0
  0
LINE
  5
BAF
330
1E
100
AcDbEntity
  8
1
100
AcDbLine
 10
1.290354330708662
 20
30.60531496062992
 30
0.0
 11
1.270669291338583
 21
30.60531496062992
 31
0.0
  0
LINE
  5
BB0
330
1E
100
AcDbEntity
  8
1
100
AcDbLine
 10
1.270669291338583
 20
30.60531496062992
 30
0.0
 11
1.245078740157481
 21
30.60531496062992
 31
0.0
  0
LINE
  5
BB1
330
1E
100
AcDbEntity
  8
1
100
AcDbLine
 10
1.245078740157481
 20
30.60531496062992
 30
0.0
 11
1.214566929133859
 21
30.60531496062992
 31
0.0
  0
LINE
  5
BB2
330
1E
100
AcDbEntity
  8
1
100
AcDbLine
 10
1.214566929133859
 20
30.60531496062992
 30
0.0
 11
1.182086614173229
 21
30.60531496062992
 31
0.0
  0
LINE
  5
BB3
330
1E
100
AcDbEntity
  8
1
100
AcDbLine
 10
1.270669291338583
 20
30.7253937007874
 30
0.0
 11
1.290354330708662
 21
30.7253937007874
 31
0.0
  0
LINE
  5
BB4
330
1E
100
AcDbEntity
  8
1
100
AcDbLine
 10
1.290354330708662
 20
30.7253937007874
 30
0.0
 11
1.303149606299212
 21
30.7253937007874
 31
0.0
  0
LINE
  5
BB5
330
1E
100
AcDbEntity
  8
1
100
AcDbLine
 10
1.303149606299212
 20
30.7253937007874
 30
0.0
 11
1.307086614173229
 21
30.7253937007874
 31
0.0
  0
LINE
  5
BB6
330
1E
100
AcDbEntity
  8
1
100
AcDbLine
 10
1.182086614173229
 20
30.7253937007874
 30
0.0
 11
1.214566929133859
 21
30.7253937007874
 31
0.0
  0
LINE
  5
BB7
330
1E
100
AcDbEntity
  8
1
100
AcDbLine
 10
1.214566929133859
 20
30.7253937007874
 30
0.0
 11
1.245078740157481
 21
30.7253937007874
 31
0.0
  0
LINE
  5
BB8
330
1E
100
AcDbEntity
  8
1
100
AcDbLine
 10
1.245078740157481
 20
30.7253937007874
 30
0.0
 11
1.270669291338583
 21
30.7253937007874
 31
0.0
  0
LINE
  5
BB9
330
1E
100
AcDbEntity
  8
1
100
AcDbLine
 10
18.31200787401574
 20
30.57480314960629
 30
0.0
 11
18.30708661417323
 21
30.61417322834645
 31
0.0
  0
LINE
  5
BBA
330
1E
100
AcDbEntity
  8
1
100
AcDbLine
 10
18.30708661417323
 20
30.61417322834645
 30
0.0
 11
18.29232283464567
 21
30.6496062992126
 31
0.0
  0
LINE
  5
BBB
330
1E
100
AcDbEntity
  8
1
100
AcDbLine
 10
18.29232283464567
 20
30.6496062992126
 30
0.0
 11
18.26771653543307
 21
30.68110236220472
 31
0.0
  0
LINE
  5
BBC
330
1E
100
AcDbEntity
  8
1
100
AcDbLine
 10
18.26771653543307
 20
30.68110236220472
 30
0.0
 11
18.23720472440944
 21
30.70570866141732
 31
0.0
  0
LINE
  5
BBD
330
1E
100
AcDbEntity
  8
1
100
AcDbLine
 10
18.23720472440944
 20
30.70570866141732
 30
0.0
 11
18.2007874015748
 21
30.72047244094488
 31
0.0
  0
LINE
  5
BBE
330
1E
100
AcDbEntity
  8
1
100
AcDbLine
 10
18.2007874015748
 20
30.72047244094488
 30
0.0
 11
18.16141732283464
 21
30.7253937007874
 31
0.0
  0
LINE
  5
BBF
330
1E
100
AcDbEntity
  8
1
100
AcDbLine
 10
18.16141732283464
 20
29.8513779527559
 30
0.0
 11
18.2007874015748
 21
29.85629921259842
 31
0.0
  0
LINE
  5
BC0
330
1E
100
AcDbEntity
  8
1
100
AcDbLine
 10
18.2007874015748
 20
29.85629921259842
 30
0.0
 11
18.23622047244094
 21
29.87106299212598
 31
0.0
  0
LINE
  5
BC1
330
1E
100
AcDbEntity
  8
1
100
AcDbLine
 10
18.23622047244094
 20
29.87106299212598
 30
0.0
 11
18.26771653543307
 21
29.89566929133858
 31
0.0
  0
LINE
  5
BC2
330
1E
100
AcDbEntity
  8
1
100
AcDbLine
 10
18.26771653543307
 20
29.89566929133858
 30
0.0
 11
18.29232283464567
 21
29.9261811023622
 31
0.0
  0
LINE
  5
BC3
330
1E
100
AcDbEntity
  8
1
100
AcDbLine
 10
18.29232283464567
 20
29.9261811023622
 30
0.0
 11
18.30708661417323
 21
29.96259842519685
 31
0.0
  0
LINE
  5
BC4
330
1E
100
AcDbEntity
  8
1
100
AcDbLine
 10
18.30708661417323
 20
29.96259842519685
 30
0.0
 11
18.31200787401574
 21
30.00196850393701
 31
0.0
  0
LINE
  5
BC5
330
1E
100
AcDbEntity
  8
1
100
AcDbLine
 10
0.6879921259842519
 20
30.00196850393701
 30
0.0
 11
0.6929133858267722
 21
29.96259842519685
 31
0.0
  0
LINE
  5
BC6
330
1E
100
AcDbEntity
  8
1
100
AcDbLine
 10
0.6929133858267722
 20
29.96259842519685
 30
0.0
 11
0.7076771653543315
 21
29.9271653543307
 31
0.0
  0
LINE
  5
BC7
330
1E
100
AcDbEntity
  8
1
100
AcDbLine
 10
0.7076771653543315
 20
29.9271653543307
 30
0.0
 11
0.7322834645669296
 21
29.89566929133858
 31
0.0
  0
LINE
  5
BC8
330
1E
100
AcDbEntity
  8
1
100
AcDbLine
 10
0.7322834645669296
 20
29.89566929133858
 30
0.0
 11
0.7627952755905519
 21
29.87106299212598
 31
0.0
  0
LINE
  5
BC9
330
1E
100
AcDbEntity
  8
1
100
AcDbLine
 10
0.7627952755905519
 20
29.87106299212598
 30
0.0
 11
0.7992125984251981
 21
29.85629921259842
 31
0.0
  0
LINE
  5
BCA
330
1E
100
AcDbEntity
  8
1
100
AcDbLine
 10
0.7992125984251981
 20
29.85629921259842
 30
0.0
 11
0.8385826771653555
 21
29.8513779527559
 31
0.0
  0
LINE
  5
BCB
330
1E
100
AcDbEntity
  8
1
100
AcDbLine
 10
0.8385826771653555
 20
30.7253937007874
 30
0.0
 11
0.7992125984251981
 21
30.72047244094488
 31
0.0
  0
LINE
  5
BCC
330
1E
100
AcDbEntity
  8
1
100
AcDbLine
 10
0.7992125984251981
 20
30.72047244094488
 30
0.0
 11
0.7637795275590556
 21
30.70570866141732
 31
0.0
  0
LINE
  5
BCD
330
1E
100
AcDbEntity
  8
1
100
AcDbLine
 10
0.7637795275590556
 20
30.70570866141732
 30
0.0
 11
0.7322834645669296
 21
30.68110236220472
 31
0.0
  0
LINE
  5
BCE
330
1E
100
AcDbEntity
  8
1
100
AcDbLine
 10
0.7322834645669296
 20
30.68110236220472
 30
0.0
 11
0.7076771653543315
 21
30.6505905511811
 31
0.0
  0
LINE
  5
BCF
330
1E
100
AcDbEntity
  8
1
100
AcDbLine
 10
0.7076771653543315
 20
30.6505905511811
 30
0.0
 11
0.6929133858267722
 21
30.61417322834645
 31
0.0
  0
LINE
  5
BD0
330
1E
100
AcDbEntity
  8
1
100
AcDbLine
 10
0.6929133858267722
 20
30.61417322834645
 30
0.0
 11
0.6879921259842519
 21
30.57480314960629
 31
0.0
  0
LINE
  5
BD1
330
1E
100
AcDbEntity
  8
1
100
AcDbLine
 10
0.8385826771653555
 20
30.60531496062992
 30
0.0
 11
1.182086614173229
 21
30.60531496062992
 31
0.0
  0
LINE
  5
BD2
330
1E
100
AcDbEntity
  8
1
100
AcDbLine
 10
1.182086614173229
 20
30.60531496062992
 30
0.0
 11
1.182086614173229
 21
30.7253937007874
 31
0.0
  0
LINE
  5
BD3
330
1E
100
AcDbEntity
  8
1
100
AcDbLine
 10
0.8385826771653555
 20
30.60531496062992
 30
0.0
 11
0.8238188976377962
 21
30.6013779527559
 31
0.0
  0
LINE
  5
BD4
330
1E
100
AcDbEntity
  8
1
100
AcDbLine
 10
0.8238188976377962
 20
30.6013779527559
 30
0.0
 11
0.8120078740157481
 21
30.59055118110236
 31
0.0
  0
LINE
  5
BD5
330
1E
100
AcDbEntity
  8
1
100
AcDbLine
 10
0.8120078740157481
 20
30.59055118110236
 30
0.0
 11
0.8080708661417332
 21
30.57480314960629
 31
0.0
  0
LINE
  5
BD6
330
1E
100
AcDbEntity
  8
1
100
AcDbLine
 10
0.8120078740157481
 20
29.98720472440945
 30
0.0
 11
0.8228346456692925
 21
29.9753937007874
 31
0.0
  0
LINE
  5
BD7
330
1E
100
AcDbEntity
  8
1
100
AcDbLine
 10
0.8228346456692925
 20
29.9753937007874
 30
0.0
 11
0.8385826771653555
 21
29.97145669291338
 31
0.0
  0
LINE
  5
BD8
330
1E
100
AcDbEntity
  8
1
100
AcDbLine
 10
18.16141732283464
 20
29.97145669291338
 30
0.0
 11
18.1761811023622
 21
29.9753937007874
 31
0.0
  0
LINE
  5
BD9
330
1E
100
AcDbEntity
  8
1
100
AcDbLine
 10
18.1761811023622
 20
29.9753937007874
 30
0.0
 11
18.18799212598425
 21
29.98622047244094
 31
0.0
  0
LINE
  5
BDA
330
1E
100
AcDbEntity
  8
1
100
AcDbLine
 10
18.18799212598425
 20
29.98622047244094
 30
0.0
 11
18.19192913385826
 21
30.00196850393701
 31
0.0
  0
LINE
  5
BDB
330
1E
100
AcDbEntity
  8
1
100
AcDbLine
 10
18.19192913385826
 20
30.57480314960629
 30
0.0
 11
18.18799212598425
 21
30.58956692913386
 31
0.0
  0
LINE
  5
BDC
330
1E
100
AcDbEntity
  8
1
100
AcDbLine
 10
18.18799212598425
 20
30.58956692913386
 30
0.0
 11
18.1771653543307
 21
30.6013779527559
 31
0.0
  0
LINE
  5
BDD
330
1E
100
AcDbEntity
  8
1
100
AcDbLine
 10
18.1771653543307
 20
30.6013779527559
 30
0.0
 11
18.16141732283464
 21
30.60531496062992
 31
0.0
  0
LINE
  5
BDE
330
1E
100
AcDbEntity
  8
1
100
AcDbLine
 10
17.78543307086614
 20
30.60531496062992
 30
0.0
 11
17.75492125984252
 21
30.60531496062992
 31
0.0
  0
LINE
  5
BDF
330
1E
100
AcDbEntity
  8
1
100
AcDbLine
 10
17.75492125984252
 20
30.60531496062992
 30
0.0
 11
17.72933070866141
 21
30.60531496062992
 31
0.0
  0
LINE
  5
BE0
330
1E
100
AcDbEntity
  8
1
100
AcDbLine
 10
17.72933070866141
 20
30.60531496062992
 30
0.0
 11
17.70964566929134
 21
30.60531496062992
 31
0.0
  0
LINE
  5
BE1
330
1E
100
AcDbEntity
  8
1
100
AcDbLine
 10
17.70964566929134
 20
30.60531496062992
 30
0.0
 11
17.69685039370078
 21
30.60531496062992
 31
0.0
  0
LINE
  5
BE2
330
1E
100
AcDbEntity
  8
1
100
AcDbLine
 10
17.69685039370078
 20
30.60531496062992
 30
0.0
 11
17.69291338582677
 21
30.60531496062992
 31
0.0
  0
LINE
  5
BE3
330
1E
100
AcDbEntity
  8
1
100
AcDbLine
 10
17.69291338582677
 20
30.7253937007874
 30
0.0
 11
17.69685039370078
 21
30.7253937007874
 31
0.0
  0
LINE
  5
BE4
330
1E
100
AcDbEntity
  8
1
100
AcDbLine
 10
17.69685039370078
 20
30.7253937007874
 30
0.0
 11
17.70964566929134
 21
30.7253937007874
 31
0.0
  0
LINE
  5
BE5
330
1E
100
AcDbEntity
  8
1
100
AcDbLine
 10
17.70964566929134
 20
30.7253937007874
 30
0.0
 11
17.72933070866141
 21
30.7253937007874
 31
0.0
  0
LINE
  5
BE6
330
1E
100
AcDbEntity
  8
1
100
AcDbLine
 10
17.72933070866141
 20
30.7253937007874
 30
0.0
 11
17.75492125984252
 21
30.7253937007874
 31
0.0
  0
LINE
  5
BE7
330
1E
100
AcDbEntity
  8
1
100
AcDbLine
 10
17.75492125984252
 20
30.7253937007874
 30
0.0
 11
17.78543307086614
 21
30.7253937007874
 31
0.0
  0
LINE
  5
BE8
330
1E
100
AcDbEntity
  8
1
100
AcDbLine
 10
17.78543307086614
 20
30.7253937007874
 30
0.0
 11
17.81791338582677
 21
30.7253937007874
 31
0.0
  0
LINE
  5
BE9
330
1E
100
AcDbEntity
  8
1
100
AcDbLine
 10
17.81791338582677
 20
30.7253937007874
 30
0.0
 11
18.16141732283464
 21
30.7253937007874
 31
0.0
  0
LINE
  5
BEA
330
1E
100
AcDbEntity
  8
7
100
AcDbLine
 10
12.59448818897637
 20
30.22145669291338
 30
0.0
 11
12.59055118110236
 21
30.22145669291338
 31
0.0
  0
LINE
  5
BEB
330
1E
100
AcDbEntity
  8
7
100
AcDbLine
 10
12.59055118110236
 20
30.22145669291338
 30
0.0
 11
12.5767716535433
 21
30.22145669291338
 31
0.0
  0
LINE
  5
BEC
330
1E
100
AcDbEntity
  8
7
100
AcDbLine
 10
12.5767716535433
 20
30.22145669291338
 30
0.0
 11
12.55610236220472
 21
30.22145669291338
 31
0.0
  0
LINE
  5
BED
330
1E
100
AcDbEntity
  8
7
100
AcDbLine
 10
12.55610236220472
 20
30.22145669291338
 30
0.0
 11
12.52952755905512
 21
30.22145669291338
 31
0.0
  0
LINE
  5
BEE
330
1E
100
AcDbEntity
  8
7
100
AcDbLine
 10
12.52952755905512
 20
30.22145669291338
 30
0.0
 11
12.5
 21
30.22145669291338
 31
0.0
  0
LINE
  5
BEF
330
1E
100
AcDbEntity
  8
7
100
AcDbLine
 10
12.5
 20
30.22145669291338
 30
0.0
 11
12.47047244094488
 21
30.22145669291338
 31
0.0
  0
LINE
  5
BF0
330
1E
100
AcDbEntity
  8
7
100
AcDbLine
 10
12.47047244094488
 20
30.22145669291338
 30
0.0
 11
12.44389763779527
 21
30.22145669291338
 31
0.0
  0
LINE
  5
BF1
330
1E
100
AcDbEntity
  8
7
100
AcDbLine
 10
12.44389763779527
 20
30.22145669291338
 30
0.0
 11
12.42322834645669
 21
30.22145669291338
 31
0.0
  0
LINE
  5
BF2
330
1E
100
AcDbEntity
  8
7
100
AcDbLine
 10
12.42322834645669
 20
30.22145669291338
 30
0.0
 11
12.40944881889763
 21
30.22145669291338
 31
0.0
  0
LINE
  5
BF3
330
1E
100
AcDbEntity
  8
7
100
AcDbLine
 10
12.40944881889763
 20
30.22145669291338
 30
0.0
 11
12.40452755905511
 21
30.22145669291338
 31
0.0
  0
LINE
  5
BF4
330
1E
100
AcDbEntity
  8
7
100
AcDbLine
 10
12.42027559055118
 20
30.23720472440944
 30
0.0
 11
12.4251968503937
 21
30.23720472440944
 31
0.0
  0
LINE
  5
BF5
330
1E
100
AcDbEntity
  8
7
100
AcDbLine
 10
12.4251968503937
 20
30.23720472440944
 30
0.0
 11
12.43897637795275
 21
30.23720472440944
 31
0.0
  0
LINE
  5
BF6
330
1E
100
AcDbEntity
  8
7
100
AcDbLine
 10
12.43897637795275
 20
30.23720472440944
 30
0.0
 11
12.45964566929134
 21
30.23720472440944
 31
0.0
  0
LINE
  5
BF7
330
1E
100
AcDbEntity
  8
7
100
AcDbLine
 10
12.45964566929134
 20
30.23720472440944
 30
0.0
 11
12.48622047244094
 21
30.23720472440944
 31
0.0
  0
LINE
  5
BF8
330
1E
100
AcDbEntity
  8
7
100
AcDbLine
 10
12.48622047244094
 20
30.23720472440944
 30
0.0
 11
12.51377952755905
 21
30.23720472440944
 31
0.0
  0
LINE
  5
BF9
330
1E
100
AcDbEntity
  8
7
100
AcDbLine
 10
12.51377952755905
 20
30.23720472440944
 30
0.0
 11
12.54035433070866
 21
30.23720472440944
 31
0.0
  0
LINE
  5
BFA
330
1E
100
AcDbEntity
  8
7
100
AcDbLine
 10
12.54035433070866
 20
30.23720472440944
 30
0.0
 11
12.56102362204724
 21
30.23720472440944
 31
0.0
  0
LINE
  5
BFB
330
1E
100
AcDbEntity
  8
7
100
AcDbLine
 10
12.56102362204724
 20
30.23720472440944
 30
0.0
 11
12.5748031496063
 21
30.23720472440944
 31
0.0
  0
LINE
  5
BFC
330
1E
100
AcDbEntity
  8
7
100
AcDbLine
 10
12.5748031496063
 20
30.23720472440944
 30
0.0
 11
12.57972440944882
 21
30.23720472440944
 31
0.0
  0
LINE
  5
BFD
330
1E
100
AcDbEntity
  8
7
100
AcDbLine
 10
6.594488188976377
 20
30.09055118110236
 30
0.0
 11
6.594488188976377
 21
30.22145669291338
 31
0.0
  0
LINE
  5
BFE
330
1E
100
AcDbEntity
  8
7
100
AcDbLine
 10
6.594488188976377
 20
30.22145669291338
 30
0.0
 11
6.57972440944882
 21
30.23720472440944
 31
0.0
  0
LINE
  5
BFF
330
1E
100
AcDbEntity
  8
7
100
AcDbLine
 10
12.59448818897637
 20
30.09055118110236
 30
0.0
 11
12.59448818897637
 21
30.22145669291338
 31
0.0
  0
LINE
  5
C00
330
1E
100
AcDbEntity
  8
7
100
AcDbLine
 10
12.59448818897637
 20
30.22145669291338
 30
0.0
 11
12.57972440944882
 21
30.23720472440944
 31
0.0
  0
LINE
  5
C01
330
1E
100
AcDbEntity
  8
7
100
AcDbLine
 10
0.2814960629921259
 20
0.389763779527559
 30
0.0
 11
0.2480314960629926
 21
0.3858267716535433
 31
0.0
  0
LINE
  5
C02
330
1E
100
AcDbEntity
  8
7
100
AcDbLine
 10
0.2480314960629926
 20
0.3858267716535433
 30
0.0
 11
0.2165354330708666
 21
0.3740157480314961
 31
0.0
  0
LINE
  5
C03
330
1E
100
AcDbEntity
  8
7
100
AcDbLine
 10
0.2165354330708666
 20
0.3740157480314961
 30
0.0
 11
0.1889763779527573
 21
0.3543307086614171
 31
0.0
  0
LINE
  5
C04
330
1E
100
AcDbEntity
  8
7
100
AcDbLine
 10
0.1889763779527573
 20
0.3543307086614171
 30
0.0
 11
0.1663385826771666
 21
0.3297244094488188
 31
0.0
  0
LINE
  5
C05
330
1E
100
AcDbEntity
  8
7
100
AcDbLine
 10
0.1663385826771666
 20
0.3297244094488188
 30
0.0
 11
0.1505905511811036
 21
0.2992125984251968
 31
0.0
  0
LINE
  5
C06
330
1E
100
AcDbEntity
  8
7
100
AcDbLine
 10
0.1505905511811036
 20
0.2992125984251968
 30
0.0
 11
0.1427165354330722
 21
0.2667322834645669
 31
0.0
  0
LINE
  5
C07
330
1E
100
AcDbEntity
  8
7
100
AcDbLine
 10
0.1427165354330722
 20
0.2667322834645669
 30
0.0
 11
0.1427165354330722
 21
0.2332677165354329
 31
0.0
  0
LINE
  5
C08
330
1E
100
AcDbEntity
  8
7
100
AcDbLine
 10
0.1427165354330722
 20
0.2332677165354329
 30
0.0
 11
0.1505905511811036
 21
0.200787401574803
 31
0.0
  0
LINE
  5
C09
330
1E
100
AcDbEntity
  8
7
100
AcDbLine
 10
0.1505905511811036
 20
0.200787401574803
 30
0.0
 11
0.1663385826771666
 21
0.170275590551181
 31
0.0
  0
LINE
  5
C0A
330
1E
100
AcDbEntity
  8
7
100
AcDbLine
 10
0.1663385826771666
 20
0.170275590551181
 30
0.0
 11
0.1889763779527573
 21
0.1456692913385826
 31
0.0
  0
LINE
  5
C0B
330
1E
100
AcDbEntity
  8
7
100
AcDbLine
 10
0.1889763779527573
 20
0.1456692913385826
 30
0.0
 11
0.2165354330708666
 21
0.1259842519685039
 31
0.0
  0
LINE
  5
C0C
330
1E
100
AcDbEntity
  8
7
100
AcDbLine
 10
0.2165354330708666
 20
0.1259842519685039
 30
0.0
 11
0.2480314960629926
 21
0.1141732283464565
 31
0.0
  0
LINE
  5
C0D
330
1E
100
AcDbEntity
  8
7
100
AcDbLine
 10
0.2480314960629926
 20
0.1141732283464565
 30
0.0
 11
0.2814960629921259
 21
0.1102362204724407
 31
0.0
  0
LINE
  5
C0E
330
1E
100
AcDbEntity
  8
7
100
AcDbLine
 10
0.5472440944881889
 20
0.2332677165354329
 30
0.0
 11
0.5472440944881889
 21
0.2667322834645669
 31
0.0
  0
LINE
  5
C0F
330
1E
100
AcDbEntity
  8
7
100
AcDbLine
 10
0.5472440944881889
 20
0.2667322834645669
 30
0.0
 11
0.5393700787401574
 21
0.2992125984251968
 31
0.0
  0
LINE
  5
C10
330
1E
100
AcDbEntity
  8
7
100
AcDbLine
 10
0.5393700787401574
 20
0.2992125984251968
 30
0.0
 11
0.5236220472440945
 21
0.3297244094488188
 31
0.0
  0
LINE
  5
C11
330
1E
100
AcDbEntity
  8
7
100
AcDbLine
 10
0.5236220472440945
 20
0.3297244094488188
 30
0.0
 11
0.5009842519685055
 21
0.3543307086614171
 31
0.0
  0
LINE
  5
C12
330
1E
100
AcDbEntity
  8
7
100
AcDbLine
 10
0.5009842519685055
 20
0.3543307086614171
 30
0.0
 11
0.4734251968503945
 21
0.3740157480314961
 31
0.0
  0
LINE
  5
C13
330
1E
100
AcDbEntity
  8
7
100
AcDbLine
 10
0.4734251968503945
 20
0.3740157480314961
 30
0.0
 11
0.4419291338582685
 21
0.3858267716535433
 31
0.0
  0
LINE
  5
C14
330
1E
100
AcDbEntity
  8
7
100
AcDbLine
 10
0.4419291338582685
 20
0.3858267716535433
 30
0.0
 11
0.4084645669291352
 21
0.389763779527559
 31
0.0
  0
LINE
  5
C15
330
1E
100
AcDbEntity
  8
7
100
AcDbLine
 10
0.4084645669291352
 20
0.1102362204724407
 30
0.0
 11
0.4419291338582685
 21
0.1141732283464565
 31
0.0
  0
LINE
  5
C16
330
1E
100
AcDbEntity
  8
7
100
AcDbLine
 10
0.4419291338582685
 20
0.1141732283464565
 30
0.0
 11
0.4734251968503945
 21
0.1259842519685039
 31
0.0
  0
LINE
  5
C17
330
1E
100
AcDbEntity
  8
7
100
AcDbLine
 10
0.4734251968503945
 20
0.1259842519685039
 30
0.0
 11
0.5009842519685055
 21
0.1456692913385826
 31
0.0
  0
LINE
  5
C18
330
1E
100
AcDbEntity
  8
7
100
AcDbLine
 10
0.5009842519685055
 20
0.1456692913385826
 30
0.0
 11
0.5236220472440945
 21
0.170275590551181
 31
0.0
  0
LINE
  5
C19
330
1E
100
AcDbEntity
  8
7
100
AcDbLine
 10
0.5236220472440945
 20
0.170275590551181
 30
0.0
 11
0.5393700787401574
 21
0.200787401574803
 31
0.0
  0
LINE
  5
C1A
330
1E
100
AcDbEntity
  8
7
100
AcDbLine
 10
0.5393700787401574
 20
0.200787401574803
 30
0.0
 11
0.5472440944881889
 21
0.2332677165354329
 31
0.0
  0
LINE
  5
C1B
330
1E
100
AcDbEntity
  8
7
100
AcDbLine
 10
18.5265748031496
 20
0.1259842519685039
 30
0.0
 11
18.55807086614173
 21
0.1141732283464565
 31
0.0
  0
LINE
  5
C1C
330
1E
100
AcDbEntity
  8
7
100
AcDbLine
 10
18.55807086614173
 20
0.1141732283464565
 30
0.0
 11
18.59153543307086
 21
0.1102362204724407
 31
0.0
  0
LINE
  5
C1D
330
1E
100
AcDbEntity
  8
7
100
AcDbLine
 10
18.59153543307086
 20
0.389763779527559
 30
0.0
 11
18.55807086614173
 21
0.3858267716535433
 31
0.0
  0
LINE
  5
C1E
330
1E
100
AcDbEntity
  8
7
100
AcDbLine
 10
18.55807086614173
 20
0.3858267716535433
 30
0.0
 11
18.5265748031496
 21
0.3740157480314961
 31
0.0
  0
LINE
  5
C1F
330
1E
100
AcDbEntity
  8
7
100
AcDbLine
 10
18.5265748031496
 20
0.3740157480314961
 30
0.0
 11
18.49901574803149
 21
0.3543307086614171
 31
0.0
  0
LINE
  5
C20
330
1E
100
AcDbEntity
  8
7
100
AcDbLine
 10
18.49901574803149
 20
0.3543307086614171
 30
0.0
 11
18.4763779527559
 21
0.3297244094488188
 31
0.0
  0
LINE
  5
C21
330
1E
100
AcDbEntity
  8
7
100
AcDbLine
 10
18.4763779527559
 20
0.3297244094488188
 30
0.0
 11
18.46062992125984
 21
0.2992125984251968
 31
0.0
  0
LINE
  5
C22
330
1E
100
AcDbEntity
  8
7
100
AcDbLine
 10
18.46062992125984
 20
0.2992125984251968
 30
0.0
 11
18.45275590551181
 21
0.2667322834645669
 31
0.0
  0
LINE
  5
C23
330
1E
100
AcDbEntity
  8
7
100
AcDbLine
 10
18.45275590551181
 20
0.2667322834645669
 30
0.0
 11
18.45275590551181
 21
0.2332677165354329
 31
0.0
  0
LINE
  5
C24
330
1E
100
AcDbEntity
  8
7
100
AcDbLine
 10
18.45275590551181
 20
0.2332677165354329
 30
0.0
 11
18.46062992125984
 21
0.200787401574803
 31
0.0
  0
LINE
  5
C25
330
1E
100
AcDbEntity
  8
7
100
AcDbLine
 10
18.46062992125984
 20
0.200787401574803
 30
0.0
 11
18.4763779527559
 21
0.170275590551181
 31
0.0
  0
LINE
  5
C26
330
1E
100
AcDbEntity
  8
7
100
AcDbLine
 10
18.4763779527559
 20
0.170275590551181
 30
0.0
 11
18.49901574803149
 21
0.1456692913385826
 31
0.0
  0
LINE
  5
C27
330
1E
100
AcDbEntity
  8
7
100
AcDbLine
 10
18.49901574803149
 20
0.1456692913385826
 30
0.0
 11
18.5265748031496
 21
0.1259842519685039
 31
0.0
  0
LINE
  5
C28
330
1E
100
AcDbEntity
  8
7
100
AcDbLine
 10
18.78248031496062
 20
0.1259842519685039
 30
0.0
 11
18.81003937007874
 21
0.1456692913385826
 31
0.0
  0
LINE
  5
C29
330
1E
100
AcDbEntity
  8
7
100
AcDbLine
 10
18.81003937007874
 20
0.1456692913385826
 30
0.0
 11
18.83267716535432
 21
0.170275590551181
 31
0.0
  0
LINE
  5
C2A
330
1E
100
AcDbEntity
  8
7
100
AcDbLine
 10
18.83267716535432
 20
0.170275590551181
 30
0.0
 11
18.84842519685039
 21
0.200787401574803
 31
0.0
  0
LINE
  5
C2B
330
1E
100
AcDbEntity
  8
7
100
AcDbLine
 10
18.84842519685039
 20
0.200787401574803
 30
0.0
 11
18.85629921259842
 21
0.2332677165354329
 31
0.0
  0
LINE
  5
C2C
330
1E
100
AcDbEntity
  8
7
100
AcDbLine
 10
18.85629921259842
 20
0.2332677165354329
 30
0.0
 11
18.85629921259842
 21
0.2667322834645669
 31
0.0
  0
LINE
  5
C2D
330
1E
100
AcDbEntity
  8
7
100
AcDbLine
 10
18.85629921259842
 20
0.2667322834645669
 30
0.0
 11
18.84842519685039
 21
0.2992125984251968
 31
0.0
  0
LINE
  5
C2E
330
1E
100
AcDbEntity
  8
7
100
AcDbLine
 10
18.84842519685039
 20
0.2992125984251968
 30
0.0
 11
18.83267716535432
 21
0.3297244094488188
 31
0.0
  0
LINE
  5
C2F
330
1E
100
AcDbEntity
  8
7
100
AcDbLine
 10
18.83267716535432
 20
0.3297244094488188
 30
0.0
 11
18.81003937007874
 21
0.3543307086614171
 31
0.0
  0
LINE
  5
C30
330
1E
100
AcDbEntity
  8
7
100
AcDbLine
 10
18.81003937007874
 20
0.3543307086614171
 30
0.0
 11
18.78248031496062
 21
0.3740157480314961
 31
0.0
  0
LINE
  5
C31
330
1E
100
AcDbEntity
  8
7
100
AcDbLine
 10
18.78248031496062
 20
0.3740157480314961
 30
0.0
 11
18.7509842519685
 21
0.3858267716535433
 31
0.0
  0
LINE
  5
C32
330
1E
100
AcDbEntity
  8
7
100
AcDbLine
 10
18.7509842519685
 20
0.3858267716535433
 30
0.0
 11
18.71751968503937
 21
0.389763779527559
 31
0.0
  0
LINE
  5
C33
330
1E
100
AcDbEntity
  8
7
100
AcDbLine
 10
18.71751968503937
 20
0.1102362204724407
 30
0.0
 11
18.7509842519685
 21
0.1141732283464565
 31
0.0
  0
LINE
  5
C34
330
1E
100
AcDbEntity
  8
7
100
AcDbLine
 10
18.7509842519685
 20
0.1141732283464565
 30
0.0
 11
18.78248031496062
 21
0.1259842519685039
 31
0.0
  0
LINE
  5
C35
330
1E
100
AcDbEntity
  8
7
100
AcDbLine
 10
0.1427165354330722
 20
0.8582677165354329
 30
0.0
 11
0.1505905511811036
 21
0.8257874015748033
 31
0.0
  0
LINE
  5
C36
330
1E
100
AcDbEntity
  8
7
100
AcDbLine
 10
0.1505905511811036
 20
0.8257874015748033
 30
0.0
 11
0.1663385826771666
 21
0.7952755905511811
 31
0.0
  0
LINE
  5
C37
330
1E
100
AcDbEntity
  8
7
100
AcDbLine
 10
0.1663385826771666
 20
0.7952755905511811
 30
0.0
 11
0.1889763779527573
 21
0.7706692913385826
 31
0.0
  0
LINE
  5
C38
330
1E
100
AcDbEntity
  8
7
100
AcDbLine
 10
0.1889763779527573
 20
0.7706692913385826
 30
0.0
 11
0.2165354330708666
 21
0.7509842519685039
 31
0.0
  0
LINE
  5
C39
330
1E
100
AcDbEntity
  8
7
100
AcDbLine
 10
0.2165354330708666
 20
0.7509842519685039
 30
0.0
 11
0.2480314960629926
 21
0.7391732283464565
 31
0.0
  0
LINE
  5
C3A
330
1E
100
AcDbEntity
  8
7
100
AcDbLine
 10
0.2480314960629926
 20
0.7391732283464565
 30
0.0
 11
0.2814960629921259
 21
0.7352362204724408
 31
0.0
  0
LINE
  5
C3B
330
1E
100
AcDbEntity
  8
7
100
AcDbLine
 10
0.2814960629921259
 20
1.014763779527558
 30
0.0
 11
0.2480314960629926
 21
1.010826771653543
 31
0.0
  0
LINE
  5
C3C
330
1E
100
AcDbEntity
  8
7
100
AcDbLine
 10
0.2480314960629926
 20
1.010826771653543
 30
0.0
 11
0.2165354330708666
 21
0.9990157480314959
 31
0.0
  0
LINE
  5
C3D
330
1E
100
AcDbEntity
  8
7
100
AcDbLine
 10
0.2165354330708666
 20
0.9990157480314959
 30
0.0
 11
0.1889763779527573
 21
0.979330708661417
 31
0.0
  0
LINE
  5
C3E
330
1E
100
AcDbEntity
  8
7
100
AcDbLine
 10
0.1889763779527573
 20
0.979330708661417
 30
0.0
 11
0.1663385826771666
 21
0.9547244094488188
 31
0.0
  0
LINE
  5
C3F
330
1E
100
AcDbEntity
  8
7
100
AcDbLine
 10
0.1663385826771666
 20
0.9547244094488188
 30
0.0
 11
0.1505905511811036
 21
0.9242125984251966
 31
0.0
  0
LINE
  5
C40
330
1E
100
AcDbEntity
  8
7
100
AcDbLine
 10
0.1505905511811036
 20
0.9242125984251966
 30
0.0
 11
0.1427165354330722
 21
0.8917322834645666
 31
0.0
  0
LINE
  5
C41
330
1E
100
AcDbEntity
  8
7
100
AcDbLine
 10
0.1427165354330722
 20
0.8917322834645666
 30
0.0
 11
0.1427165354330722
 21
0.8582677165354329
 31
0.0
  0
LINE
  5
C42
330
1E
100
AcDbEntity
  8
7
100
AcDbLine
 10
0.4084645669291352
 20
0.7352362204724408
 30
0.0
 11
0.4419291338582685
 21
0.7391732283464565
 31
0.0
  0
LINE
  5
C43
330
1E
100
AcDbEntity
  8
7
100
AcDbLine
 10
0.4419291338582685
 20
0.7391732283464565
 30
0.0
 11
0.4734251968503945
 21
0.7509842519685039
 31
0.0
  0
LINE
  5
C44
330
1E
100
AcDbEntity
  8
7
100
AcDbLine
 10
0.4734251968503945
 20
0.7509842519685039
 30
0.0
 11
0.5009842519685055
 21
0.7706692913385826
 31
0.0
  0
LINE
  5
C45
330
1E
100
AcDbEntity
  8
7
100
AcDbLine
 10
0.5009842519685055
 20
0.7706692913385826
 30
0.0
 11
0.5236220472440945
 21
0.7952755905511811
 31
0.0
  0
LINE
  5
C46
330
1E
100
AcDbEntity
  8
7
100
AcDbLine
 10
0.5236220472440945
 20
0.7952755905511811
 30
0.0
 11
0.5393700787401574
 21
0.8257874015748033
 31
0.0
  0
LINE
  5
C47
330
1E
100
AcDbEntity
  8
7
100
AcDbLine
 10
0.5393700787401574
 20
0.8257874015748033
 30
0.0
 11
0.5472440944881889
 21
0.8582677165354329
 31
0.0
  0
LINE
  5
C48
330
1E
100
AcDbEntity
  8
7
100
AcDbLine
 10
0.5472440944881889
 20
0.8582677165354329
 30
0.0
 11
0.5472440944881889
 21
0.8917322834645666
 31
0.0
  0
LINE
  5
C49
330
1E
100
AcDbEntity
  8
7
100
AcDbLine
 10
0.5472440944881889
 20
0.8917322834645666
 30
0.0
 11
0.5393700787401574
 21
0.9242125984251966
 31
0.0
  0
LINE
  5
C4A
330
1E
100
AcDbEntity
  8
7
100
AcDbLine
 10
0.5393700787401574
 20
0.9242125984251966
 30
0.0
 11
0.5236220472440945
 21
0.9547244094488188
 31
0.0
  0
LINE
  5
C4B
330
1E
100
AcDbEntity
  8
7
100
AcDbLine
 10
0.5236220472440945
 20
0.9547244094488188
 30
0.0
 11
0.5009842519685055
 21
0.979330708661417
 31
0.0
  0
LINE
  5
C4C
330
1E
100
AcDbEntity
  8
7
100
AcDbLine
 10
0.5009842519685055
 20
0.979330708661417
 30
0.0
 11
0.4734251968503945
 21
0.9990157480314959
 31
0.0
  0
LINE
  5
C4D
330
1E
100
AcDbEntity
  8
7
100
AcDbLine
 10
0.4734251968503945
 20
0.9990157480314959
 30
0.0
 11
0.4419291338582685
 21
1.010826771653543
 31
0.0
  0
LINE
  5
C4E
330
1E
100
AcDbEntity
  8
7
100
AcDbLine
 10
0.4419291338582685
 20
1.010826771653543
 30
0.0
 11
0.4084645669291352
 21
1.014763779527558
 31
0.0
  0
LINE
  5
C4F
330
1E
100
AcDbEntity
  8
7
100
AcDbLine
 10
18.4763779527559
 20
0.9547244094488188
 30
0.0
 11
18.46062992125984
 21
0.9242125984251966
 31
0.0
  0
LINE
  5
C50
330
1E
100
AcDbEntity
  8
7
100
AcDbLine
 10
18.46062992125984
 20
0.9242125984251966
 30
0.0
 11
18.45275590551181
 21
0.8917322834645666
 31
0.0
  0
LINE
  5
C51
330
1E
100
AcDbEntity
  8
7
100
AcDbLine
 10
18.45275590551181
 20
0.8917322834645666
 30
0.0
 11
18.45275590551181
 21
0.8582677165354329
 31
0.0
  0
LINE
  5
C52
330
1E
100
AcDbEntity
  8
7
100
AcDbLine
 10
18.45275590551181
 20
0.8582677165354329
 30
0.0
 11
18.46062992125984
 21
0.8257874015748033
 31
0.0
  0
LINE
  5
C53
330
1E
100
AcDbEntity
  8
7
100
AcDbLine
 10
18.46062992125984
 20
0.8257874015748033
 30
0.0
 11
18.4763779527559
 21
0.7952755905511811
 31
0.0
  0
LINE
  5
C54
330
1E
100
AcDbEntity
  8
7
100
AcDbLine
 10
18.4763779527559
 20
0.7952755905511811
 30
0.0
 11
18.49901574803149
 21
0.7706692913385826
 31
0.0
  0
LINE
  5
C55
330
1E
100
AcDbEntity
  8
7
100
AcDbLine
 10
18.49901574803149
 20
0.7706692913385826
 30
0.0
 11
18.5265748031496
 21
0.7509842519685039
 31
0.0
  0
LINE
  5
C56
330
1E
100
AcDbEntity
  8
7
100
AcDbLine
 10
18.5265748031496
 20
0.7509842519685039
 30
0.0
 11
18.55807086614173
 21
0.7391732283464565
 31
0.0
  0
LINE
  5
C57
330
1E
100
AcDbEntity
  8
7
100
AcDbLine
 10
18.55807086614173
 20
0.7391732283464565
 30
0.0
 11
18.59153543307086
 21
0.7352362204724408
 31
0.0
  0
LINE
  5
C58
330
1E
100
AcDbEntity
  8
7
100
AcDbLine
 10
18.59153543307086
 20
1.014763779527558
 30
0.0
 11
18.55807086614173
 21
1.010826771653543
 31
0.0
  0
LINE
  5
C59
330
1E
100
AcDbEntity
  8
7
100
AcDbLine
 10
18.55807086614173
 20
1.010826771653543
 30
0.0
 11
18.5265748031496
 21
0.9990157480314959
 31
0.0
  0
LINE
  5
C5A
330
1E
100
AcDbEntity
  8
7
100
AcDbLine
 10
18.5265748031496
 20
0.9990157480314959
 30
0.0
 11
18.49901574803149
 21
0.979330708661417
 31
0.0
  0
LINE
  5
C5B
330
1E
100
AcDbEntity
  8
7
100
AcDbLine
 10
18.49901574803149
 20
0.979330708661417
 30
0.0
 11
18.4763779527559
 21
0.9547244094488188
 31
0.0
  0
LINE
  5
C5C
330
1E
100
AcDbEntity
  8
7
100
AcDbLine
 10
18.78248031496062
 20
0.9990157480314959
 30
0.0
 11
18.7509842519685
 21
1.010826771653543
 31
0.0
  0
LINE
  5
C5D
330
1E
100
AcDbEntity
  8
7
100
AcDbLine
 10
18.7509842519685
 20
1.010826771653543
 30
0.0
 11
18.71751968503937
 21
1.014763779527558
 31
0.0
  0
LINE
  5
C5E
330
1E
100
AcDbEntity
  8
7
100
AcDbLine
 10
18.71751968503937
 20
0.7352362204724408
 30
0.0
 11
18.7509842519685
 21
0.7391732283464565
 31
0.0
  0
LINE
  5
C5F
330
1E
100
AcDbEntity
  8
7
100
AcDbLine
 10
18.7509842519685
 20
0.7391732283464565
 30
0.0
 11
18.78248031496062
 21
0.7509842519685039
 31
0.0
  0
LINE
  5
C60
330
1E
100
AcDbEntity
  8
7
100
AcDbLine
 10
18.78248031496062
 20
0.7509842519685039
 30
0.0
 11
18.81003937007874
 21
0.7706692913385826
 31
0.0
  0
LINE
  5
C61
330
1E
100
AcDbEntity
  8
7
100
AcDbLine
 10
18.81003937007874
 20
0.7706692913385826
 30
0.0
 11
18.83267716535432
 21
0.7952755905511811
 31
0.0
  0
LINE
  5
C62
330
1E
100
AcDbEntity
  8
7
100
AcDbLine
 10
18.83267716535432
 20
0.7952755905511811
 30
0.0
 11
18.84842519685039
 21
0.8257874015748033
 31
0.0
  0
LINE
  5
C63
330
1E
100
AcDbEntity
  8
7
100
AcDbLine
 10
18.84842519685039
 20
0.8257874015748033
 30
0.0
 11
18.85629921259842
 21
0.8582677165354329
 31
0.0
  0
LINE
  5
C64
330
1E
100
AcDbEntity
  8
7
100
AcDbLine
 10
18.85629921259842
 20
0.8582677165354329
 30
0.0
 11
18.85629921259842
 21
0.8917322834645666
 31
0.0
  0
LINE
  5
C65
330
1E
100
AcDbEntity
  8
7
100
AcDbLine
 10
18.85629921259842
 20
0.8917322834645666
 30
0.0
 11
18.84842519685039
 21
0.9242125984251966
 31
0.0
  0
LINE
  5
C66
330
1E
100
AcDbEntity
  8
7
100
AcDbLine
 10
18.84842519685039
 20
0.9242125984251966
 30
0.0
 11
18.83267716535432
 21
0.9547244094488188
 31
0.0
  0
LINE
  5
C67
330
1E
100
AcDbEntity
  8
7
100
AcDbLine
 10
18.83267716535432
 20
0.9547244094488188
 30
0.0
 11
18.81003937007874
 21
0.979330708661417
 31
0.0
  0
LINE
  5
C68
330
1E
100
AcDbEntity
  8
7
100
AcDbLine
 10
18.81003937007874
 20
0.979330708661417
 30
0.0
 11
18.78248031496062
 21
0.9990157480314959
 31
0.0
  0
LINE
  5
C69
330
1E
100
AcDbEntity
  8
7
100
AcDbLine
 10
0.2165354330708666
 20
1.624015748031495
 30
0.0
 11
0.1889763779527573
 21
1.604330708661417
 31
0.0
  0
LINE
  5
C6A
330
1E
100
AcDbEntity
  8
7
100
AcDbLine
 10
0.1889763779527573
 20
1.604330708661417
 30
0.0
 11
0.1663385826771666
 21
1.579724409448818
 31
0.0
  0
LINE
  5
C6B
330
1E
100
AcDbEntity
  8
7
100
AcDbLine
 10
0.1663385826771666
 20
1.579724409448818
 30
0.0
 11
0.1505905511811036
 21
1.549212598425196
 31
0.0
  0
LINE
  5
C6C
330
1E
100
AcDbEntity
  8
7
100
AcDbLine
 10
0.1505905511811036
 20
1.549212598425196
 30
0.0
 11
0.1427165354330722
 21
1.516732283464566
 31
0.0
  0
LINE
  5
C6D
330
1E
100
AcDbEntity
  8
7
100
AcDbLine
 10
0.1427165354330722
 20
1.516732283464566
 30
0.0
 11
0.1427165354330722
 21
1.483267716535432
 31
0.0
  0
LINE
  5
C6E
330
1E
100
AcDbEntity
  8
7
100
AcDbLine
 10
0.1427165354330722
 20
1.483267716535432
 30
0.0
 11
0.1505905511811036
 21
1.450787401574803
 31
0.0
  0
LINE
  5
C6F
330
1E
100
AcDbEntity
  8
7
100
AcDbLine
 10
0.1505905511811036
 20
1.450787401574803
 30
0.0
 11
0.1663385826771666
 21
1.420275590551181
 31
0.0
  0
LINE
  5
C70
330
1E
100
AcDbEntity
  8
7
100
AcDbLine
 10
0.1663385826771666
 20
1.420275590551181
 30
0.0
 11
0.1889763779527573
 21
1.395669291338582
 31
0.0
  0
LINE
  5
C71
330
1E
100
AcDbEntity
  8
7
100
AcDbLine
 10
0.1889763779527573
 20
1.395669291338582
 30
0.0
 11
0.2165354330708666
 21
1.375984251968503
 31
0.0
  0
LINE
  5
C72
330
1E
100
AcDbEntity
  8
7
100
AcDbLine
 10
0.2165354330708666
 20
1.375984251968503
 30
0.0
 11
0.2480314960629926
 21
1.364173228346456
 31
0.0
  0
LINE
  5
C73
330
1E
100
AcDbEntity
  8
7
100
AcDbLine
 10
0.2480314960629926
 20
1.364173228346456
 30
0.0
 11
0.2814960629921259
 21
1.36023622047244
 31
0.0
  0
LINE
  5
C74
330
1E
100
AcDbEntity
  8
7
100
AcDbLine
 10
0.2814960629921259
 20
1.639763779527558
 30
0.0
 11
0.2480314960629926
 21
1.635826771653543
 31
0.0
  0
LINE
  5
C75
330
1E
100
AcDbEntity
  8
7
100
AcDbLine
 10
0.2480314960629926
 20
1.635826771653543
 30
0.0
 11
0.2165354330708666
 21
1.624015748031495
 31
0.0
  0
LINE
  5
C76
330
1E
100
AcDbEntity
  8
7
100
AcDbLine
 10
0.5393700787401574
 20
1.549212598425196
 30
0.0
 11
0.5236220472440945
 21
1.579724409448818
 31
0.0
  0
LINE
  5
C77
330
1E
100
AcDbEntity
  8
7
100
AcDbLine
 10
0.5236220472440945
 20
1.579724409448818
 30
0.0
 11
0.5009842519685055
 21
1.604330708661417
 31
0.0
  0
LINE
  5
C78
330
1E
100
AcDbEntity
  8
7
100
AcDbLine
 10
0.5009842519685055
 20
1.604330708661417
 30
0.0
 11
0.4734251968503945
 21
1.624015748031495
 31
0.0
  0
LINE
  5
C79
330
1E
100
AcDbEntity
  8
7
100
AcDbLine
 10
0.4734251968503945
 20
1.624015748031495
 30
0.0
 11
0.4419291338582685
 21
1.635826771653543
 31
0.0
  0
LINE
  5
C7A
330
1E
100
AcDbEntity
  8
7
100
AcDbLine
 10
0.4419291338582685
 20
1.635826771653543
 30
0.0
 11
0.4084645669291352
 21
1.639763779527558
 31
0.0
  0
LINE
  5
C7B
330
1E
100
AcDbEntity
  8
7
100
AcDbLine
 10
0.4084645669291352
 20
1.36023622047244
 30
0.0
 11
0.4419291338582685
 21
1.364173228346456
 31
0.0
  0
LINE
  5
C7C
330
1E
100
AcDbEntity
  8
7
100
AcDbLine
 10
0.4419291338582685
 20
1.364173228346456
 30
0.0
 11
0.4734251968503945
 21
1.375984251968503
 31
0.0
  0
LINE
  5
C7D
330
1E
100
AcDbEntity
  8
7
100
AcDbLine
 10
0.4734251968503945
 20
1.375984251968503
 30
0.0
 11
0.5009842519685055
 21
1.395669291338582
 31
0.0
  0
LINE
  5
C7E
330
1E
100
AcDbEntity
  8
7
100
AcDbLine
 10
0.5009842519685055
 20
1.395669291338582
 30
0.0
 11
0.5236220472440945
 21
1.420275590551181
 31
0.0
  0
LINE
  5
C7F
330
1E
100
AcDbEntity
  8
7
100
AcDbLine
 10
0.5236220472440945
 20
1.420275590551181
 30
0.0
 11
0.5393700787401574
 21
1.450787401574803
 31
0.0
  0
LINE
  5
C80
330
1E
100
AcDbEntity
  8
7
100
AcDbLine
 10
0.5393700787401574
 20
1.450787401574803
 30
0.0
 11
0.5472440944881889
 21
1.483267716535432
 31
0.0
  0
LINE
  5
C81
330
1E
100
AcDbEntity
  8
7
100
AcDbLine
 10
0.5472440944881889
 20
1.483267716535432
 30
0.0
 11
0.5472440944881889
 21
1.516732283464566
 31
0.0
  0
LINE
  5
C82
330
1E
100
AcDbEntity
  8
7
100
AcDbLine
 10
0.5472440944881889
 20
1.516732283464566
 30
0.0
 11
0.5393700787401574
 21
1.549212598425196
 31
0.0
  0
LINE
  5
C83
330
1E
100
AcDbEntity
  8
7
100
AcDbLine
 10
18.59153543307086
 20
1.639763779527558
 30
0.0
 11
18.55807086614173
 21
1.635826771653543
 31
0.0
  0
LINE
  5
C84
330
1E
100
AcDbEntity
  8
7
100
AcDbLine
 10
18.55807086614173
 20
1.635826771653543
 30
0.0
 11
18.5265748031496
 21
1.624015748031495
 31
0.0
  0
LINE
  5
C85
330
1E
100
AcDbEntity
  8
7
100
AcDbLine
 10
18.5265748031496
 20
1.624015748031495
 30
0.0
 11
18.49901574803149
 21
1.604330708661417
 31
0.0
  0
LINE
  5
C86
330
1E
100
AcDbEntity
  8
7
100
AcDbLine
 10
18.49901574803149
 20
1.604330708661417
 30
0.0
 11
18.4763779527559
 21
1.579724409448818
 31
0.0
  0
LINE
  5
C87
330
1E
100
AcDbEntity
  8
7
100
AcDbLine
 10
18.4763779527559
 20
1.579724409448818
 30
0.0
 11
18.46062992125984
 21
1.549212598425196
 31
0.0
  0
LINE
  5
C88
330
1E
100
AcDbEntity
  8
7
100
AcDbLine
 10
18.46062992125984
 20
1.549212598425196
 30
0.0
 11
18.45275590551181
 21
1.516732283464566
 31
0.0
  0
LINE
  5
C89
330
1E
100
AcDbEntity
  8
7
100
AcDbLine
 10
18.45275590551181
 20
1.516732283464566
 30
0.0
 11
18.45275590551181
 21
1.483267716535432
 31
0.0
  0
LINE
  5
C8A
330
1E
100
AcDbEntity
  8
7
100
AcDbLine
 10
18.45275590551181
 20
1.483267716535432
 30
0.0
 11
18.46062992125984
 21
1.450787401574803
 31
0.0
  0
LINE
  5
C8B
330
1E
100
AcDbEntity
  8
7
100
AcDbLine
 10
18.46062992125984
 20
1.450787401574803
 30
0.0
 11
18.4763779527559
 21
1.420275590551181
 31
0.0
  0
LINE
  5
C8C
330
1E
100
AcDbEntity
  8
7
100
AcDbLine
 10
18.4763779527559
 20
1.420275590551181
 30
0.0
 11
18.49901574803149
 21
1.395669291338582
 31
0.0
  0
LINE
  5
C8D
330
1E
100
AcDbEntity
  8
7
100
AcDbLine
 10
18.49901574803149
 20
1.395669291338582
 30
0.0
 11
18.5265748031496
 21
1.375984251968503
 31
0.0
  0
LINE
  5
C8E
330
1E
100
AcDbEntity
  8
7
100
AcDbLine
 10
18.5265748031496
 20
1.375984251968503
 30
0.0
 11
18.55807086614173
 21
1.364173228346456
 31
0.0
  0
LINE
  5
C8F
330
1E
100
AcDbEntity
  8
7
100
AcDbLine
 10
18.83267716535432
 20
1.420275590551181
 30
0.0
 11
18.84842519685039
 21
1.450787401574803
 31
0.0
  0
LINE
  5
C90
330
1E
100
AcDbEntity
  8
7
100
AcDbLine
 10
18.84842519685039
 20
1.450787401574803
 30
0.0
 11
18.85629921259842
 21
1.483267716535432
 31
0.0
  0
LINE
  5
C91
330
1E
100
AcDbEntity
  8
7
100
AcDbLine
 10
18.85629921259842
 20
1.483267716535432
 30
0.0
 11
18.85629921259842
 21
1.516732283464566
 31
0.0
  0
LINE
  5
C92
330
1E
100
AcDbEntity
  8
7
100
AcDbLine
 10
18.85629921259842
 20
1.516732283464566
 30
0.0
 11
18.84842519685039
 21
1.549212598425196
 31
0.0
  0
LINE
  5
C93
330
1E
100
AcDbEntity
  8
7
100
AcDbLine
 10
18.84842519685039
 20
1.549212598425196
 30
0.0
 11
18.83267716535432
 21
1.579724409448818
 31
0.0
  0
LINE
  5
C94
330
1E
100
AcDbEntity
  8
7
100
AcDbLine
 10
18.83267716535432
 20
1.579724409448818
 30
0.0
 11
18.81003937007874
 21
1.604330708661417
 31
0.0
  0
LINE
  5
C95
330
1E
100
AcDbEntity
  8
7
100
AcDbLine
 10
18.81003937007874
 20
1.604330708661417
 30
0.0
 11
18.78248031496062
 21
1.624015748031495
 31
0.0
  0
LINE
  5
C96
330
1E
100
AcDbEntity
  8
7
100
AcDbLine
 10
18.78248031496062
 20
1.624015748031495
 30
0.0
 11
18.7509842519685
 21
1.635826771653543
 31
0.0
  0
LINE
  5
C97
330
1E
100
AcDbEntity
  8
7
100
AcDbLine
 10
18.7509842519685
 20
1.635826771653543
 30
0.0
 11
18.71751968503937
 21
1.639763779527558
 31
0.0
  0
LINE
  5
C98
330
1E
100
AcDbEntity
  8
7
100
AcDbLine
 10
18.71751968503937
 20
1.36023622047244
 30
0.0
 11
18.7509842519685
 21
1.364173228346456
 31
0.0
  0
LINE
  5
C99
330
1E
100
AcDbEntity
  8
7
100
AcDbLine
 10
18.7509842519685
 20
1.364173228346456
 30
0.0
 11
18.78248031496062
 21
1.375984251968503
 31
0.0
  0
LINE
  5
C9A
330
1E
100
AcDbEntity
  8
7
100
AcDbLine
 10
18.78248031496062
 20
1.375984251968503
 30
0.0
 11
18.81003937007874
 21
1.395669291338582
 31
0.0
  0
LINE
  5
C9B
330
1E
100
AcDbEntity
  8
7
100
AcDbLine
 10
18.81003937007874
 20
1.395669291338582
 30
0.0
 11
18.83267716535432
 21
1.420275590551181
 31
0.0
  0
LINE
  5
C9C
330
1E
100
AcDbEntity
  8
7
100
AcDbLine
 10
18.16732283464567
 20
1.111220472440944
 30
0.0
 11
18.16732283464567
 21
1.372047244094487
 31
0.0
  0
LINE
  5
C9D
330
1E
100
AcDbEntity
  8
7
100
AcDbLine
 10
18.16732283464567
 20
1.372047244094487
 30
0.0
 11
18.16141732283464
 21
1.377952755905511
 31
0.0
  0
LINE
  5
C9E
330
1E
100
AcDbEntity
  8
7
100
AcDbLine
 10
17.56791338582677
 20
0.8641732283464564
 30
0.0
 11
17.57283464566929
 21
0.854330708661417
 31
0.0
  0
LINE
  5
C9F
330
1E
100
AcDbEntity
  8
7
100
AcDbLine
 10
17.57283464566929
 20
0.854330708661417
 30
0.0
 11
17.58267716535432
 21
0.8503937007874014
 31
0.0
  0
LINE
  5
CA0
330
1E
100
AcDbEntity
  8
7
100
AcDbLine
 10
18.29527559055118
 20
0.9222440944881888
 30
0.0
 11
18.31791338582677
 21
0.9576771653543305
 31
0.0
  0
LINE
  5
CA1
330
1E
100
AcDbEntity
  8
7
100
AcDbLine
 10
18.31791338582677
 20
0.9576771653543305
 30
0.0
 11
18.33169291338582
 21
0.9980314960629922
 31
0.0
  0
LINE
  5
CA2
330
1E
100
AcDbEntity
  8
7
100
AcDbLine
 10
18.33169291338582
 20
0.9980314960629922
 30
0.0
 11
18.33661417322834
 21
1.040354330708661
 31
0.0
  0
LINE
  5
CA3
330
1E
100
AcDbEntity
  8
7
100
AcDbLine
 10
18.14665354330708
 20
0.8503937007874014
 30
0.0
 11
18.18897637795275
 21
0.8553149606299212
 31
0.0
  0
LINE
  5
CA4
330
1E
100
AcDbEntity
  8
7
100
AcDbLine
 10
18.18897637795275
 20
0.8553149606299212
 30
0.0
 11
18.22933070866142
 21
0.8690944881889762
 31
0.0
  0
LINE
  5
CA5
330
1E
100
AcDbEntity
  8
7
100
AcDbLine
 10
18.22933070866142
 20
0.8690944881889762
 30
0.0
 11
18.26476377952755
 21
0.8917322834645666
 31
0.0
  0
LINE
  5
CA6
330
1E
100
AcDbEntity
  8
7
100
AcDbLine
 10
18.26476377952755
 20
0.8917322834645666
 30
0.0
 11
18.29527559055118
 21
0.9222440944881888
 31
0.0
  0
LINE
  5
CA7
330
1E
100
AcDbEntity
  8
7
100
AcDbLine
 10
18.37992125984252
 20
1.638779527559055
 30
0.0
 11
18.35629921259842
 21
1.595472440944881
 31
0.0
  0
LINE
  5
CA8
330
1E
100
AcDbEntity
  8
7
100
AcDbLine
 10
18.35629921259842
 20
1.595472440944881
 30
0.0
 11
18.34251968503937
 21
1.549212598425196
 31
0.0
  0
LINE
  5
CA9
330
1E
100
AcDbEntity
  8
7
100
AcDbLine
 10
18.34251968503937
 20
1.549212598425196
 30
0.0
 11
18.33759842519685
 21
1.5
 31
0.0
  0
LINE
  5
CAA
330
1E
100
AcDbEntity
  8
7
100
AcDbLine
 10
18.58759842519685
 20
1.75
 30
0.0
 11
18.53838582677165
 21
1.74507874015748
 31
0.0
  0
LINE
  5
CAB
330
1E
100
AcDbEntity
  8
7
100
AcDbLine
 10
18.53838582677165
 20
1.74507874015748
 30
0.0
 11
18.49212598425197
 21
1.731299212598425
 31
0.0
  0
LINE
  5
CAC
330
1E
100
AcDbEntity
  8
7
100
AcDbLine
 10
18.49212598425197
 20
1.731299212598425
 30
0.0
 11
18.44881889763779
 21
1.70767716535433
 31
0.0
  0
LINE
  5
CAD
330
1E
100
AcDbEntity
  8
7
100
AcDbLine
 10
18.44881889763779
 20
1.70767716535433
 30
0.0
 11
18.41043307086614
 21
1.677165354330708
 31
0.0
  0
LINE
  5
CAE
330
1E
100
AcDbEntity
  8
7
100
AcDbLine
 10
18.41043307086614
 20
1.677165354330708
 30
0.0
 11
18.37992125984252
 21
1.638779527559055
 31
0.0
  0
LINE
  5
CAF
330
1E
100
AcDbEntity
  8
7
100
AcDbLine
 10
19.0
 20
1.5
 30
0.0
 11
18.99507874015748
 21
1.549212598425196
 31
0.0
  0
LINE
  5
CB0
330
1E
100
AcDbEntity
  8
7
100
AcDbLine
 10
18.99507874015748
 20
1.549212598425196
 30
0.0
 11
18.98129921259842
 21
1.595472440944881
 31
0.0
  0
LINE
  5
CB1
330
1E
100
AcDbEntity
  8
7
100
AcDbLine
 10
18.98129921259842
 20
1.595472440944881
 30
0.0
 11
18.95767716535432
 21
1.638779527559055
 31
0.0
  0
LINE
  5
CB2
330
1E
100
AcDbEntity
  8
7
100
AcDbLine
 10
18.95767716535432
 20
1.638779527559055
 30
0.0
 11
18.9271653543307
 21
1.677165354330708
 31
0.0
  0
LINE
  5
CB3
330
1E
100
AcDbEntity
  8
7
100
AcDbLine
 10
18.9271653543307
 20
1.677165354330708
 30
0.0
 11
18.88877952755905
 21
1.70767716535433
 31
0.0
  0
LINE
  5
CB4
330
1E
100
AcDbEntity
  8
7
100
AcDbLine
 10
18.88877952755905
 20
1.70767716535433
 30
0.0
 11
18.84547244094488
 21
1.731299212598425
 31
0.0
  0
LINE
  5
CB5
330
1E
100
AcDbEntity
  8
7
100
AcDbLine
 10
18.84547244094488
 20
1.731299212598425
 30
0.0
 11
18.79921259842519
 21
1.74507874015748
 31
0.0
  0
LINE
  5
CB6
330
1E
100
AcDbEntity
  8
7
100
AcDbLine
 10
18.9271653543307
 20
0.0728346456692912
 30
0.0
 11
18.95767716535432
 21
0.1112204724409447
 31
0.0
  0
LINE
  5
CB7
330
1E
100
AcDbEntity
  8
7
100
AcDbLine
 10
18.95767716535432
 20
0.1112204724409447
 30
0.0
 11
18.98129921259842
 21
0.1545275590551181
 31
0.0
  0
LINE
  5
CB8
330
1E
100
AcDbEntity
  8
7
100
AcDbLine
 10
18.98129921259842
 20
0.1545275590551181
 30
0.0
 11
18.99507874015748
 21
0.200787401574803
 31
0.0
  0
LINE
  5
CB9
330
1E
100
AcDbEntity
  8
7
100
AcDbLine
 10
18.99507874015748
 20
0.200787401574803
 30
0.0
 11
19.0
 21
0.25
 31
0.0
  0
LINE
  5
CBA
330
1E
100
AcDbEntity
  8
7
100
AcDbLine
 10
18.75
 20
0.0
 30
0.0
 11
18.79921259842519
 21
0.0049212598425197
 31
0.0
  0
LINE
  5
CBB
330
1E
100
AcDbEntity
  8
7
100
AcDbLine
 10
18.79921259842519
 20
0.0049212598425197
 30
0.0
 11
18.84547244094488
 21
0.0187007874015748
 31
0.0
  0
LINE
  5
CBC
330
1E
100
AcDbEntity
  8
7
100
AcDbLine
 10
18.84547244094488
 20
0.0187007874015748
 30
0.0
 11
18.88877952755905
 21
0.0423228346456692
 31
0.0
  0
LINE
  5
CBD
330
1E
100
AcDbEntity
  8
7
100
AcDbLine
 10
18.88877952755905
 20
0.0423228346456692
 30
0.0
 11
18.9271653543307
 21
0.0728346456692912
 31
0.0
  0
LINE
  5
CBE
330
1E
100
AcDbEntity
  8
7
100
AcDbLine
 10
0.0049212598425203
 20
0.200787401574803
 30
0.0
 11
0.0187007874015759
 21
0.1545275590551181
 31
0.0
  0
LINE
  5
CBF
330
1E
100
AcDbEntity
  8
7
100
AcDbLine
 10
0.0187007874015759
 20
0.1545275590551181
 30
0.0
 11
0.0423228346456703
 21
0.1112204724409447
 31
0.0
  0
LINE
  5
CC0
330
1E
100
AcDbEntity
  8
7
100
AcDbLine
 10
0.0423228346456703
 20
0.1112204724409447
 30
0.0
 11
0.0728346456692926
 21
0.0728346456692912
 31
0.0
  0
LINE
  5
CC1
330
1E
100
AcDbEntity
  8
7
100
AcDbLine
 10
0.0728346456692926
 20
0.0728346456692912
 30
0.0
 11
0.1112204724409462
 21
0.0423228346456692
 31
0.0
  0
LINE
  5
CC2
330
1E
100
AcDbEntity
  8
7
100
AcDbLine
 10
0.1112204724409462
 20
0.0423228346456692
 30
0.0
 11
0.1545275590551185
 21
0.0187007874015748
 31
0.0
  0
LINE
  5
CC3
330
1E
100
AcDbEntity
  8
7
100
AcDbLine
 10
0.1545275590551185
 20
0.0187007874015748
 30
0.0
 11
0.2007874015748037
 21
0.0049212598425197
 31
0.0
  0
LINE
  5
CC4
330
1E
100
AcDbEntity
  8
7
100
AcDbLine
 10
0.2007874015748037
 20
0.0049212598425197
 30
0.0
 11
0.25
 21
0.0
 31
0.0
  0
LINE
  5
CC5
330
1E
100
AcDbEntity
  8
7
100
AcDbLine
 10
0.25
 20
1.75
 30
0.0
 11
0.2007874015748037
 21
1.74507874015748
 31
0.0
  0
LINE
  5
CC6
330
1E
100
AcDbEntity
  8
7
100
AcDbLine
 10
0.2007874015748037
 20
1.74507874015748
 30
0.0
 11
0.1545275590551185
 21
1.731299212598425
 31
0.0
  0
LINE
  5
CC7
330
1E
100
AcDbEntity
  8
7
100
AcDbLine
 10
0.1545275590551185
 20
1.731299212598425
 30
0.0
 11
0.1112204724409462
 21
1.70767716535433
 31
0.0
  0
LINE
  5
CC8
330
1E
100
AcDbEntity
  8
7
100
AcDbLine
 10
0.1112204724409462
 20
1.70767716535433
 30
0.0
 11
0.0728346456692926
 21
1.677165354330708
 31
0.0
  0
LINE
  5
CC9
330
1E
100
AcDbEntity
  8
7
100
AcDbLine
 10
0.0728346456692926
 20
1.677165354330708
 30
0.0
 11
0.0423228346456703
 21
1.638779527559055
 31
0.0
  0
LINE
  5
CCA
330
1E
100
AcDbEntity
  8
7
100
AcDbLine
 10
0.0423228346456703
 20
1.638779527559055
 30
0.0
 11
0.0187007874015759
 21
1.595472440944881
 31
0.0
  0
LINE
  5
CCB
330
1E
100
AcDbEntity
  8
7
100
AcDbLine
 10
0.0187007874015759
 20
1.595472440944881
 30
0.0
 11
0.0049212598425203
 21
1.549212598425196
 31
0.0
  0
LINE
  5
CCC
330
1E
100
AcDbEntity
  8
7
100
AcDbLine
 10
0.0049212598425203
 20
1.549212598425196
 30
0.0
 11
0.0
 21
1.5
 31
0.0
  0
LINE
  5
CCD
330
1E
100
AcDbEntity
  8
7
100
AcDbLine
 10
0.66240157480315
 20
1.5
 30
0.0
 11
0.6574803149606315
 21
1.549212598425196
 31
0.0
  0
LINE
  5
CCE
330
1E
100
AcDbEntity
  8
7
100
AcDbLine
 10
0.6574803149606315
 20
1.549212598425196
 30
0.0
 11
0.6437007874015759
 21
1.595472440944881
 31
0.0
  0
LINE
  5
CCF
330
1E
100
AcDbEntity
  8
7
100
AcDbLine
 10
0.6437007874015759
 20
1.595472440944881
 30
0.0
 11
0.6200787401574815
 21
1.638779527559055
 31
0.0
  0
LINE
  5
CD0
330
1E
100
AcDbEntity
  8
7
100
AcDbLine
 10
0.6200787401574815
 20
1.638779527559055
 30
0.0
 11
0.5895669291338593
 21
1.677165354330708
 31
0.0
  0
LINE
  5
CD1
330
1E
100
AcDbEntity
  8
7
100
AcDbLine
 10
0.5895669291338593
 20
1.677165354330708
 30
0.0
 11
0.5511811023622056
 21
1.70767716535433
 31
0.0
  0
LINE
  5
CD2
330
1E
100
AcDbEntity
  8
7
100
AcDbLine
 10
0.5511811023622056
 20
1.70767716535433
 30
0.0
 11
0.5078740157480315
 21
1.731299212598425
 31
0.0
  0
LINE
  5
CD3
330
1E
100
AcDbEntity
  8
7
100
AcDbLine
 10
0.5078740157480315
 20
1.731299212598425
 30
0.0
 11
0.4616141732283463
 21
1.74507874015748
 31
0.0
  0
LINE
  5
CD4
330
1E
100
AcDbEntity
  8
7
100
AcDbLine
 10
0.4616141732283463
 20
1.74507874015748
 30
0.0
 11
0.41240157480315
 21
1.75
 31
0.0
  0
LINE
  5
CD5
330
1E
100
AcDbEntity
  8
7
100
AcDbLine
 10
0.6633858267716537
 20
1.040354330708661
 30
0.0
 11
0.6683070866141741
 21
0.9980314960629922
 31
0.0
  0
LINE
  5
CD6
330
1E
100
AcDbEntity
  8
7
100
AcDbLine
 10
0.6683070866141741
 20
0.9980314960629922
 30
0.0
 11
0.6820866141732296
 21
0.9576771653543305
 31
0.0
  0
LINE
  5
CD7
330
1E
100
AcDbEntity
  8
7
100
AcDbLine
 10
0.6820866141732296
 20
0.9576771653543305
 30
0.0
 11
0.7047244094488203
 21
0.9222440944881888
 31
0.0
  0
LINE
  5
CD8
330
1E
100
AcDbEntity
  8
7
100
AcDbLine
 10
0.7047244094488203
 20
0.9222440944881888
 30
0.0
 11
0.7352362204724408
 21
0.8917322834645666
 31
0.0
  0
LINE
  5
CD9
330
1E
100
AcDbEntity
  8
7
100
AcDbLine
 10
0.7352362204724408
 20
0.8917322834645666
 30
0.0
 11
0.7706692913385833
 21
0.8690944881889762
 31
0.0
  0
LINE
  5
CDA
330
1E
100
AcDbEntity
  8
7
100
AcDbLine
 10
0.7706692913385833
 20
0.8690944881889762
 30
0.0
 11
0.8110236220472444
 21
0.8553149606299212
 31
0.0
  0
LINE
  5
CDB
330
1E
100
AcDbEntity
  8
7
100
AcDbLine
 10
0.8110236220472444
 20
0.8553149606299212
 30
0.0
 11
0.8533464566929147
 21
0.8503937007874014
 31
0.0
  0
LINE
  5
CDC
330
1E
100
AcDbEntity
  8
7
100
AcDbLine
 10
1.41732283464567
 20
0.8503937007874014
 30
0.0
 11
1.427165354330709
 21
0.854330708661417
 31
0.0
  0
LINE
  5
CDD
330
1E
100
AcDbEntity
  8
7
100
AcDbLine
 10
1.427165354330709
 20
0.854330708661417
 30
0.0
 11
1.432086614173229
 21
0.8641732283464564
 31
0.0
  0
LINE
  5
CDE
330
1E
100
AcDbEntity
  8
1
100
AcDbLine
 10
18.16141732283464
 20
0.9852362204724407
 30
0.0
 11
18.1761811023622
 21
0.9891732283464564
 31
0.0
  0
LINE
  5
CDF
330
1E
100
AcDbEntity
  8
1
100
AcDbLine
 10
18.1761811023622
 20
0.9891732283464564
 30
0.0
 11
18.18799212598425
 21
1.0
 31
0.0
  0
LINE
  5
CE0
330
1E
100
AcDbEntity
  8
1
100
AcDbLine
 10
18.18799212598425
 20
1.0
 30
0.0
 11
18.19192913385826
 21
1.015748031496062
 31
0.0
  0
LINE
  5
CE1
330
1E
100
AcDbEntity
  8
1
100
AcDbLine
 10
18.19192913385826
 20
1.588582677165354
 30
0.0
 11
18.18799212598425
 21
1.603346456692913
 31
0.0
  0
LINE
  5
CE2
330
1E
100
AcDbEntity
  8
1
100
AcDbLine
 10
18.18799212598425
 20
1.603346456692913
 30
0.0
 11
18.1771653543307
 21
1.61515748031496
 31
0.0
  0
LINE
  5
CE3
330
1E
100
AcDbEntity
  8
1
100
AcDbLine
 10
18.1771653543307
 20
1.61515748031496
 30
0.0
 11
18.16141732283464
 21
1.619094488188976
 31
0.0
  0
LINE
  5
CE4
330
1E
100
AcDbEntity
  8
1
100
AcDbLine
 10
18.26771653543307
 20
1.694881889763779
 30
0.0
 11
18.23720472440944
 21
1.719488188976377
 31
0.0
  0
LINE
  5
CE5
330
1E
100
AcDbEntity
  8
1
100
AcDbLine
 10
18.23720472440944
 20
1.719488188976377
 30
0.0
 11
18.2007874015748
 21
1.734251968503937
 31
0.0
  0
LINE
  5
CE6
330
1E
100
AcDbEntity
  8
1
100
AcDbLine
 10
18.2007874015748
 20
1.734251968503937
 30
0.0
 11
18.16141732283464
 21
1.739173228346456
 31
0.0
  0
LINE
  5
CE7
330
1E
100
AcDbEntity
  8
1
100
AcDbLine
 10
18.31200787401574
 20
1.588582677165354
 30
0.0
 11
18.30708661417323
 21
1.627952755905511
 31
0.0
  0
LINE
  5
CE8
330
1E
100
AcDbEntity
  8
1
100
AcDbLine
 10
18.30708661417323
 20
1.627952755905511
 30
0.0
 11
18.29232283464567
 21
1.663385826771653
 31
0.0
  0
LINE
  5
CE9
330
1E
100
AcDbEntity
  8
1
100
AcDbLine
 10
18.29232283464567
 20
1.663385826771653
 30
0.0
 11
18.26771653543307
 21
1.694881889763779
 31
0.0
  0
LINE
  5
CEA
330
1E
100
AcDbEntity
  8
1
100
AcDbLine
 10
18.16141732283464
 20
0.8651574803149607
 30
0.0
 11
18.2007874015748
 21
0.87007874015748
 31
0.0
  0
LINE
  5
CEB
330
1E
100
AcDbEntity
  8
1
100
AcDbLine
 10
18.2007874015748
 20
0.87007874015748
 30
0.0
 11
18.23622047244094
 21
0.8848425196850392
 31
0.0
  0
LINE
  5
CEC
330
1E
100
AcDbEntity
  8
1
100
AcDbLine
 10
18.23622047244094
 20
0.8848425196850392
 30
0.0
 11
18.26771653543307
 21
0.9094488188976374
 31
0.0
  0
LINE
  5
CED
330
1E
100
AcDbEntity
  8
1
100
AcDbLine
 10
18.26771653543307
 20
0.9094488188976374
 30
0.0
 11
18.29232283464567
 21
0.9399606299212596
 31
0.0
  0
LINE
  5
CEE
330
1E
100
AcDbEntity
  8
1
100
AcDbLine
 10
18.29232283464567
 20
0.9399606299212596
 30
0.0
 11
18.30708661417323
 21
0.9763779527559055
 31
0.0
  0
LINE
  5
CEF
330
1E
100
AcDbEntity
  8
1
100
AcDbLine
 10
18.30708661417323
 20
0.9763779527559055
 30
0.0
 11
18.31200787401574
 21
1.015748031496062
 31
0.0
  0
LINE
  5
CF0
330
1E
100
AcDbEntity
  8
1
100
AcDbLine
 10
18.16141732283464
 20
1.74015748031496
 30
0.0
 11
18.16141732283464
 21
1.734251968503937
 31
0.0
  0
LINE
  5
CF1
330
1E
100
AcDbEntity
  8
1
100
AcDbLine
 10
18.16141732283464
 20
1.734251968503937
 30
0.0
 11
18.16141732283464
 21
1.719488188976377
 31
0.0
  0
LINE
  5
CF2
330
1E
100
AcDbEntity
  8
1
100
AcDbLine
 10
18.16141732283464
 20
1.719488188976377
 30
0.0
 11
18.16141732283464
 21
1.695866141732283
 31
0.0
  0
LINE
  5
CF3
330
1E
100
AcDbEntity
  8
1
100
AcDbLine
 10
18.16141732283464
 20
1.695866141732283
 30
0.0
 11
18.16141732283464
 21
1.664370078740157
 31
0.0
  0
LINE
  5
CF4
330
1E
100
AcDbEntity
  8
1
100
AcDbLine
 10
18.16141732283464
 20
1.664370078740157
 30
0.0
 11
18.16141732283464
 21
1.627952755905511
 31
0.0
  0
LINE
  5
CF5
330
1E
100
AcDbEntity
  8
1
100
AcDbLine
 10
18.16141732283464
 20
1.627952755905511
 30
0.0
 11
18.16141732283464
 21
1.588582677165354
 31
0.0
  0
LINE
  5
CF6
330
1E
100
AcDbEntity
  8
1
100
AcDbLine
 10
0.7992125984251981
 20
1.734251968503937
 30
0.0
 11
0.7637795275590556
 21
1.719488188976377
 31
0.0
  0
LINE
  5
CF7
330
1E
100
AcDbEntity
  8
1
100
AcDbLine
 10
0.7637795275590556
 20
1.719488188976377
 30
0.0
 11
0.7322834645669296
 21
1.694881889763779
 31
0.0
  0
LINE
  5
CF8
330
1E
100
AcDbEntity
  8
1
100
AcDbLine
 10
0.7322834645669296
 20
1.694881889763779
 30
0.0
 11
0.7076771653543315
 21
1.664370078740157
 31
0.0
  0
LINE
  5
CF9
330
1E
100
AcDbEntity
  8
1
100
AcDbLine
 10
0.7076771653543315
 20
1.664370078740157
 30
0.0
 11
0.6929133858267722
 21
1.627952755905511
 31
0.0
  0
LINE
  5
CFA
330
1E
100
AcDbEntity
  8
1
100
AcDbLine
 10
0.6929133858267722
 20
1.627952755905511
 30
0.0
 11
0.6879921259842519
 21
1.588582677165354
 31
0.0
  0
LINE
  5
CFB
330
1E
100
AcDbEntity
  8
1
100
AcDbLine
 10
0.8385826771653555
 20
1.619094488188976
 30
0.0
 11
0.8238188976377962
 21
1.61515748031496
 31
0.0
  0
LINE
  5
CFC
330
1E
100
AcDbEntity
  8
1
100
AcDbLine
 10
0.8238188976377962
 20
1.61515748031496
 30
0.0
 11
0.8120078740157481
 21
1.604330708661417
 31
0.0
  0
LINE
  5
CFD
330
1E
100
AcDbEntity
  8
1
100
AcDbLine
 10
0.8120078740157481
 20
1.604330708661417
 30
0.0
 11
0.8080708661417332
 21
1.588582677165354
 31
0.0
  0
LINE
  5
CFE
330
1E
100
AcDbEntity
  8
1
100
AcDbLine
 10
0.8080708661417332
 20
1.015748031496062
 30
0.0
 11
0.8120078740157481
 21
1.000984251968503
 31
0.0
  0
LINE
  5
CFF
330
1E
100
AcDbEntity
  8
1
100
AcDbLine
 10
0.8120078740157481
 20
1.000984251968503
 30
0.0
 11
0.8228346456692925
 21
0.9891732283464564
 31
0.0
  0
LINE
  5
D00
330
1E
100
AcDbEntity
  8
1
100
AcDbLine
 10
0.8228346456692925
 20
0.9891732283464564
 30
0.0
 11
0.8385826771653555
 21
0.9852362204724407
 31
0.0
  0
LINE
  5
D01
330
1E
100
AcDbEntity
  8
1
100
AcDbLine
 10
0.6879921259842519
 20
1.015748031496062
 30
0.0
 11
0.6929133858267722
 21
0.9763779527559055
 31
0.0
  0
LINE
  5
D02
330
1E
100
AcDbEntity
  8
1
100
AcDbLine
 10
0.6929133858267722
 20
0.9763779527559055
 30
0.0
 11
0.7076771653543315
 21
0.9409448818897638
 31
0.0
  0
LINE
  5
D03
330
1E
100
AcDbEntity
  8
1
100
AcDbLine
 10
0.7076771653543315
 20
0.9409448818897638
 30
0.0
 11
0.7322834645669296
 21
0.9094488188976374
 31
0.0
  0
LINE
  5
D04
330
1E
100
AcDbEntity
  8
1
100
AcDbLine
 10
0.7322834645669296
 20
0.9094488188976374
 30
0.0
 11
0.7627952755905519
 21
0.8848425196850392
 31
0.0
  0
LINE
  5
D05
330
1E
100
AcDbEntity
  8
1
100
AcDbLine
 10
0.7627952755905519
 20
0.8848425196850392
 30
0.0
 11
0.7992125984251981
 21
0.87007874015748
 31
0.0
  0
LINE
  5
D06
330
1E
100
AcDbEntity
  8
1
100
AcDbLine
 10
0.7992125984251981
 20
0.87007874015748
 30
0.0
 11
0.8385826771653555
 21
0.8651574803149607
 31
0.0
  0
LINE
  5
D07
330
1E
100
AcDbEntity
  8
1
100
AcDbLine
 10
0.8385826771653555
 20
1.588582677165354
 30
0.0
 11
0.8385826771653555
 21
1.627952755905511
 31
0.0
  0
LINE
  5
D08
330
1E
100
AcDbEntity
  8
1
100
AcDbLine
 10
0.8385826771653555
 20
1.627952755905511
 30
0.0
 11
0.8385826771653555
 21
1.664370078740157
 31
0.0
  0
LINE
  5
D09
330
1E
100
AcDbEntity
  8
1
100
AcDbLine
 10
0.8385826771653555
 20
1.664370078740157
 30
0.0
 11
0.8385826771653555
 21
1.695866141732283
 31
0.0
  0
LINE
  5
D0A
330
1E
100
AcDbEntity
  8
1
100
AcDbLine
 10
0.8385826771653555
 20
1.695866141732283
 30
0.0
 11
0.8385826771653555
 21
1.719488188976377
 31
0.0
  0
LINE
  5
D0B
330
1E
100
AcDbEntity
  8
1
100
AcDbLine
 10
0.8385826771653555
 20
1.719488188976377
 30
0.0
 11
0.8385826771653555
 21
1.734251968503937
 31
0.0
  0
LINE
  5
D0C
330
1E
100
AcDbEntity
  8
1
100
AcDbLine
 10
0.8385826771653555
 20
1.734251968503937
 30
0.0
 11
0.8385826771653555
 21
1.74015748031496
 31
0.0
  0
LINE
  5
D0D
330
1E
100
AcDbEntity
  8
1
100
AcDbLine
 10
0.8385826771653555
 20
1.11515748031496
 30
0.0
 11
0.843503937007874
 21
1.065944881889763
 31
0.0
  0
LINE
  5
D0E
330
1E
100
AcDbEntity
  8
1
100
AcDbLine
 10
0.843503937007874
 20
1.065944881889763
 30
0.0
 11
0.8572834645669296
 21
1.019685039370078
 31
0.0
  0
LINE
  5
D0F
330
1E
100
AcDbEntity
  8
1
100
AcDbLine
 10
0.8572834645669296
 20
1.019685039370078
 30
0.0
 11
0.880905511811024
 21
0.9763779527559055
 31
0.0
  0
LINE
  5
D10
330
1E
100
AcDbEntity
  8
1
100
AcDbLine
 10
0.880905511811024
 20
0.9763779527559055
 30
0.0
 11
0.9114173228346462
 21
0.9379921259842518
 31
0.0
  0
LINE
  5
D11
330
1E
100
AcDbEntity
  8
1
100
AcDbLine
 10
0.9114173228346462
 20
0.9379921259842518
 30
0.0
 11
0.9498031496062999
 21
0.9074803149606296
 31
0.0
  0
LINE
  5
D12
330
1E
100
AcDbEntity
  8
1
100
AcDbLine
 10
0.9498031496062999
 20
0.9074803149606296
 30
0.0
 11
0.9931102362204722
 21
0.8838582677165351
 31
0.0
  0
LINE
  5
D13
330
1E
100
AcDbEntity
  8
1
100
AcDbLine
 10
0.9931102362204722
 20
0.8838582677165351
 30
0.0
 11
1.039370078740157
 21
0.87007874015748
 31
0.0
  0
LINE
  5
D14
330
1E
100
AcDbEntity
  8
1
100
AcDbLine
 10
1.039370078740157
 20
0.87007874015748
 30
0.0
 11
1.088582677165355
 21
0.8651574803149607
 31
0.0
  0
LINE
  5
D15
330
1E
100
AcDbEntity
  8
1
100
AcDbLine
 10
18.16141732283464
 20
1.11515748031496
 30
0.0
 11
18.16141732283464
 21
1.588582677165354
 31
0.0
  0
LINE
  5
D16
330
1E
100
AcDbEntity
  8
1
100
AcDbLine
 10
18.16141732283464
 20
1.588582677165354
 30
0.0
 11
0.8385826771653555
 21
1.588582677165354
 31
0.0
  0
LINE
  5
D17
330
1E
100
AcDbEntity
  8
1
100
AcDbLine
 10
17.91141732283464
 20
0.8651574803149607
 30
0.0
 11
17.96062992125984
 21
0.87007874015748
 31
0.0
  0
LINE
  5
D18
330
1E
100
AcDbEntity
  8
1
100
AcDbLine
 10
17.96062992125984
 20
0.87007874015748
 30
0.0
 11
18.00688976377952
 21
0.8838582677165351
 31
0.0
  0
LINE
  5
D19
330
1E
100
AcDbEntity
  8
1
100
AcDbLine
 10
18.00688976377952
 20
0.8838582677165351
 30
0.0
 11
18.0501968503937
 21
0.9074803149606296
 31
0.0
  0
LINE
  5
D1A
330
1E
100
AcDbEntity
  8
1
100
AcDbLine
 10
18.0501968503937
 20
0.9074803149606296
 30
0.0
 11
18.08858267716535
 21
0.9379921259842518
 31
0.0
  0
LINE
  5
D1B
330
1E
100
AcDbEntity
  8
1
100
AcDbLine
 10
18.08858267716535
 20
0.9379921259842518
 30
0.0
 11
18.11909448818897
 21
0.9763779527559055
 31
0.0
  0
LINE
  5
D1C
330
1E
100
AcDbEntity
  8
1
100
AcDbLine
 10
18.11909448818897
 20
0.9763779527559055
 30
0.0
 11
18.14271653543307
 21
1.019685039370078
 31
0.0
  0
LINE
  5
D1D
330
1E
100
AcDbEntity
  8
1
100
AcDbLine
 10
18.14271653543307
 20
1.019685039370078
 30
0.0
 11
18.15649606299212
 21
1.065944881889763
 31
0.0
  0
LINE
  5
D1E
330
1E
100
AcDbEntity
  8
1
100
AcDbLine
 10
18.15649606299212
 20
1.065944881889763
 30
0.0
 11
18.16141732283464
 21
1.11515748031496
 31
0.0
  0
LINE
  5
D1F
330
1E
100
AcDbEntity
  8
7
100
AcDbLine
 10
28.54133858267717
 20
15.92125984251968
 30
0.0
 11
28.49311023622047
 21
15.92125984251968
 31
0.0
  0
LINE
  5
D20
330
1E
100
AcDbEntity
  8
7
100
AcDbLine
 10
28.49311023622047
 20
15.92125984251968
 30
0.0
 11
28.44586614173228
 21
15.92125984251968
 31
0.0
  0
LINE
  5
D21
330
1E
100
AcDbEntity
  8
7
100
AcDbLine
 10
28.44586614173228
 20
15.92125984251968
 30
0.0
 11
28.4025590551181
 21
15.92125984251968
 31
0.0
  0
LINE
  5
D22
330
1E
100
AcDbEntity
  8
7
100
AcDbLine
 10
28.4025590551181
 20
15.92125984251968
 30
0.0
 11
28.36515748031496
 21
15.92125984251968
 31
0.0
  0
LINE
  5
D23
330
1E
100
AcDbEntity
  8
7
100
AcDbLine
 10
28.36515748031496
 20
15.92125984251968
 30
0.0
 11
28.33366141732283
 21
15.92125984251968
 31
0.0
  0
LINE
  5
D24
330
1E
100
AcDbEntity
  8
7
100
AcDbLine
 10
28.33366141732283
 20
15.92125984251968
 30
0.0
 11
28.31102362204724
 21
15.92125984251968
 31
0.0
  0
LINE
  5
D25
330
1E
100
AcDbEntity
  8
7
100
AcDbLine
 10
28.31102362204724
 20
15.92125984251968
 30
0.0
 11
28.29625984251968
 21
15.92125984251968
 31
0.0
  0
LINE
  5
D26
330
1E
100
AcDbEntity
  8
7
100
AcDbLine
 10
28.29625984251968
 20
15.92125984251968
 30
0.0
 11
28.29133858267717
 21
15.92125984251968
 31
0.0
  0
LINE
  5
D27
330
1E
100
AcDbEntity
  8
7
100
AcDbLine
 10
28.29133858267717
 20
15.92125984251968
 30
0.0
 11
28.29133858267717
 21
16.04133858267716
 31
0.0
  0
LINE
  5
D28
330
1E
100
AcDbEntity
  8
7
100
AcDbLine
 10
30.04133858267716
 20
15.92125984251968
 30
0.0
 11
30.03641732283464
 21
15.92125984251968
 31
0.0
  0
LINE
  5
D29
330
1E
100
AcDbEntity
  8
7
100
AcDbLine
 10
30.03641732283464
 20
15.92125984251968
 30
0.0
 11
30.02263779527559
 21
15.92125984251968
 31
0.0
  0
LINE
  5
D2A
330
1E
100
AcDbEntity
  8
7
100
AcDbLine
 10
30.02263779527559
 20
15.92125984251968
 30
0.0
 11
29.9990157480315
 21
15.92125984251968
 31
0.0
  0
LINE
  5
D2B
330
1E
100
AcDbEntity
  8
7
100
AcDbLine
 10
29.9990157480315
 20
15.92125984251968
 30
0.0
 11
29.96850393700787
 21
15.92125984251968
 31
0.0
  0
LINE
  5
D2C
330
1E
100
AcDbEntity
  8
7
100
AcDbLine
 10
29.96850393700787
 20
15.92125984251968
 30
0.0
 11
29.93011811023622
 21
15.92125984251968
 31
0.0
  0
LINE
  5
D2D
330
1E
100
AcDbEntity
  8
7
100
AcDbLine
 10
29.93011811023622
 20
15.92125984251968
 30
0.0
 11
29.88681102362205
 21
15.92125984251968
 31
0.0
  0
LINE
  5
D2E
330
1E
100
AcDbEntity
  8
7
100
AcDbLine
 10
29.88681102362205
 20
15.92125984251968
 30
0.0
 11
29.84055118110235
 21
15.92125984251968
 31
0.0
  0
LINE
  5
D2F
330
1E
100
AcDbEntity
  8
7
100
AcDbLine
 10
29.84055118110235
 20
15.92125984251968
 30
0.0
 11
29.79133858267717
 21
15.92125984251968
 31
0.0
  0
LINE
  5
D30
330
1E
100
AcDbEntity
  8
7
100
AcDbLine
 10
28.54133858267717
 20
16.04133858267716
 30
0.0
 11
28.54133858267717
 21
15.92125984251968
 31
0.0
  0
LINE
  5
D31
330
1E
100
AcDbEntity
  8
7
100
AcDbLine
 10
28.54133858267717
 20
15.92125984251968
 30
0.0
 11
29.79133858267717
 21
15.92125984251968
 31
0.0
  0
LINE
  5
D32
330
1E
100
AcDbEntity
  8
7
100
AcDbLine
 10
29.79133858267717
 20
15.92125984251968
 30
0.0
 11
29.79133858267717
 21
16.04133858267716
 31
0.0
  0
LINE
  5
D33
330
1E
100
AcDbEntity
  8
7
100
AcDbLine
 10
29.79133858267717
 20
16.04133858267716
 30
0.0
 11
29.84055118110235
 21
16.04133858267716
 31
0.0
  0
LINE
  5
D34
330
1E
100
AcDbEntity
  8
7
100
AcDbLine
 10
29.84055118110235
 20
16.04133858267716
 30
0.0
 11
29.88681102362205
 21
16.04133858267716
 31
0.0
  0
LINE
  5
D35
330
1E
100
AcDbEntity
  8
7
100
AcDbLine
 10
29.88681102362205
 20
16.04133858267716
 30
0.0
 11
29.93011811023622
 21
16.04133858267716
 31
0.0
  0
LINE
  5
D36
330
1E
100
AcDbEntity
  8
7
100
AcDbLine
 10
29.93011811023622
 20
16.04133858267716
 30
0.0
 11
29.96850393700787
 21
16.04133858267716
 31
0.0
  0
LINE
  5
D37
330
1E
100
AcDbEntity
  8
7
100
AcDbLine
 10
29.96850393700787
 20
16.04133858267716
 30
0.0
 11
29.9990157480315
 21
16.04133858267716
 31
0.0
  0
LINE
  5
D38
330
1E
100
AcDbEntity
  8
7
100
AcDbLine
 10
29.9990157480315
 20
16.04133858267716
 30
0.0
 11
30.02263779527559
 21
16.04133858267716
 31
0.0
  0
LINE
  5
D39
330
1E
100
AcDbEntity
  8
7
100
AcDbLine
 10
30.02263779527559
 20
16.04133858267716
 30
0.0
 11
30.03641732283464
 21
16.04133858267716
 31
0.0
  0
LINE
  5
D3A
330
1E
100
AcDbEntity
  8
7
100
AcDbLine
 10
30.03641732283464
 20
16.04133858267716
 30
0.0
 11
30.04133858267716
 21
16.04133858267716
 31
0.0
  0
LINE
  5
D3B
330
1E
100
AcDbEntity
  8
7
100
AcDbLine
 10
30.04133858267716
 20
16.04133858267716
 30
0.0
 11
30.04133858267716
 21
15.92125984251968
 31
0.0
  0
LINE
  5
D3C
330
1E
100
AcDbEntity
  8
7
100
AcDbLine
 10
28.4025590551181
 20
16.04133858267716
 30
0.0
 11
28.44586614173228
 21
16.04133858267716
 31
0.0
  0
LINE
  5
D3D
330
1E
100
AcDbEntity
  8
7
100
AcDbLine
 10
28.44586614173228
 20
16.04133858267716
 30
0.0
 11
28.49311023622047
 21
16.04133858267716
 31
0.0
  0
LINE
  5
D3E
330
1E
100
AcDbEntity
  8
7
100
AcDbLine
 10
28.49311023622047
 20
16.04133858267716
 30
0.0
 11
28.54133858267717
 21
16.04133858267716
 31
0.0
  0
LINE
  5
D3F
330
1E
100
AcDbEntity
  8
7
100
AcDbLine
 10
28.29133858267717
 20
16.04133858267716
 30
0.0
 11
28.29625984251968
 21
16.04133858267716
 31
0.0
  0
LINE
  5
D40
330
1E
100
AcDbEntity
  8
7
100
AcDbLine
 10
28.29625984251968
 20
16.04133858267716
 30
0.0
 11
28.31102362204724
 21
16.04133858267716
 31
0.0
  0
LINE
  5
D41
330
1E
100
AcDbEntity
  8
7
100
AcDbLine
 10
28.31102362204724
 20
16.04133858267716
 30
0.0
 11
28.33366141732283
 21
16.04133858267716
 31
0.0
  0
LINE
  5
D42
330
1E
100
AcDbEntity
  8
7
100
AcDbLine
 10
28.33366141732283
 20
16.04133858267716
 30
0.0
 11
28.36515748031496
 21
16.04133858267716
 31
0.0
  0
LINE
  5
D43
330
1E
100
AcDbEntity
  8
7
100
AcDbLine
 10
28.36515748031496
 20
16.04133858267716
 30
0.0
 11
28.4025590551181
 21
16.04133858267716
 31
0.0
  0
LINE
  5
D44
330
1E
100
AcDbEntity
  8
7
100
AcDbLine
 10
28.54133858267717
 20
9.802165354330709
 30
0.0
 11
28.49311023622047
 21
9.802165354330709
 31
0.0
  0
LINE
  5
D45
330
1E
100
AcDbEntity
  8
7
100
AcDbLine
 10
28.49311023622047
 20
9.802165354330709
 30
0.0
 11
28.44586614173228
 21
9.802165354330709
 31
0.0
  0
LINE
  5
D46
330
1E
100
AcDbEntity
  8
7
100
AcDbLine
 10
28.44586614173228
 20
9.802165354330709
 30
0.0
 11
28.4025590551181
 21
9.802165354330709
 31
0.0
  0
LINE
  5
D47
330
1E
100
AcDbEntity
  8
7
100
AcDbLine
 10
28.4025590551181
 20
9.802165354330709
 30
0.0
 11
28.36515748031496
 21
9.802165354330709
 31
0.0
  0
LINE
  5
D48
330
1E
100
AcDbEntity
  8
7
100
AcDbLine
 10
28.36515748031496
 20
9.802165354330709
 30
0.0
 11
28.33366141732283
 21
9.802165354330709
 31
0.0
  0
LINE
  5
D49
330
1E
100
AcDbEntity
  8
7
100
AcDbLine
 10
28.33366141732283
 20
9.802165354330709
 30
0.0
 11
28.31102362204724
 21
9.802165354330709
 31
0.0
  0
LINE
  5
D4A
330
1E
100
AcDbEntity
  8
7
100
AcDbLine
 10
28.31102362204724
 20
9.802165354330709
 30
0.0
 11
28.29625984251968
 21
9.802165354330709
 31
0.0
  0
LINE
  5
D4B
330
1E
100
AcDbEntity
  8
7
100
AcDbLine
 10
28.29625984251968
 20
9.802165354330709
 30
0.0
 11
28.29133858267717
 21
9.802165354330709
 31
0.0
  0
LINE
  5
D4C
330
1E
100
AcDbEntity
  8
7
100
AcDbLine
 10
28.29133858267717
 20
9.802165354330709
 30
0.0
 11
28.29133858267717
 21
9.921259842519685
 31
0.0
  0
LINE
  5
D4D
330
1E
100
AcDbEntity
  8
7
100
AcDbLine
 10
30.04133858267716
 20
9.802165354330709
 30
0.0
 11
30.03641732283464
 21
9.802165354330709
 31
0.0
  0
LINE
  5
D4E
330
1E
100
AcDbEntity
  8
7
100
AcDbLine
 10
30.03641732283464
 20
9.802165354330709
 30
0.0
 11
30.02263779527559
 21
9.802165354330709
 31
0.0
  0
LINE
  5
D4F
330
1E
100
AcDbEntity
  8
7
100
AcDbLine
 10
30.02263779527559
 20
9.802165354330709
 30
0.0
 11
29.9990157480315
 21
9.802165354330709
 31
0.0
  0
LINE
  5
D50
330
1E
100
AcDbEntity
  8
7
100
AcDbLine
 10
29.9990157480315
 20
9.802165354330709
 30
0.0
 11
29.96850393700787
 21
9.802165354330709
 31
0.0
  0
LINE
  5
D51
330
1E
100
AcDbEntity
  8
7
100
AcDbLine
 10
29.96850393700787
 20
9.802165354330709
 30
0.0
 11
29.93011811023622
 21
9.802165354330709
 31
0.0
  0
LINE
  5
D52
330
1E
100
AcDbEntity
  8
7
100
AcDbLine
 10
29.93011811023622
 20
9.802165354330709
 30
0.0
 11
29.88681102362205
 21
9.802165354330709
 31
0.0
  0
LINE
  5
D53
330
1E
100
AcDbEntity
  8
7
100
AcDbLine
 10
29.88681102362205
 20
9.802165354330709
 30
0.0
 11
29.84055118110235
 21
9.802165354330709
 31
0.0
  0
LINE
  5
D54
330
1E
100
AcDbEntity
  8
7
100
AcDbLine
 10
29.84055118110235
 20
9.802165354330709
 30
0.0
 11
29.79133858267717
 21
9.802165354330709
 31
0.0
  0
LINE
  5
D55
330
1E
100
AcDbEntity
  8
7
100
AcDbLine
 10
28.54133858267717
 20
9.921259842519685
 30
0.0
 11
28.54133858267717
 21
9.802165354330709
 31
0.0
  0
LINE
  5
D56
330
1E
100
AcDbEntity
  8
7
100
AcDbLine
 10
28.54133858267717
 20
9.802165354330709
 30
0.0
 11
29.79133858267717
 21
9.802165354330709
 31
0.0
  0
LINE
  5
D57
330
1E
100
AcDbEntity
  8
7
100
AcDbLine
 10
29.79133858267717
 20
9.802165354330709
 30
0.0
 11
29.79133858267717
 21
9.921259842519685
 31
0.0
  0
LINE
  5
D58
330
1E
100
AcDbEntity
  8
7
100
AcDbLine
 10
29.79133858267717
 20
9.921259842519685
 30
0.0
 11
29.84055118110235
 21
9.921259842519685
 31
0.0
  0
LINE
  5
D59
330
1E
100
AcDbEntity
  8
7
100
AcDbLine
 10
29.84055118110235
 20
9.921259842519685
 30
0.0
 11
29.88681102362205
 21
9.921259842519685
 31
0.0
  0
LINE
  5
D5A
330
1E
100
AcDbEntity
  8
7
100
AcDbLine
 10
29.88681102362205
 20
9.921259842519685
 30
0.0
 11
29.93011811023622
 21
9.921259842519685
 31
0.0
  0
LINE
  5
D5B
330
1E
100
AcDbEntity
  8
7
100
AcDbLine
 10
29.93011811023622
 20
9.921259842519685
 30
0.0
 11
29.96850393700787
 21
9.921259842519685
 31
0.0
  0
LINE
  5
D5C
330
1E
100
AcDbEntity
  8
7
100
AcDbLine
 10
29.96850393700787
 20
9.921259842519685
 30
0.0
 11
29.9990157480315
 21
9.921259842519685
 31
0.0
  0
LINE
  5
D5D
330
1E
100
AcDbEntity
  8
7
100
AcDbLine
 10
29.9990157480315
 20
9.921259842519685
 30
0.0
 11
30.02263779527559
 21
9.921259842519685
 31
0.0
  0
LINE
  5
D5E
330
1E
100
AcDbEntity
  8
7
100
AcDbLine
 10
30.02263779527559
 20
9.921259842519685
 30
0.0
 11
30.03641732283464
 21
9.921259842519685
 31
0.0
  0
LINE
  5
D5F
330
1E
100
AcDbEntity
  8
7
100
AcDbLine
 10
30.03641732283464
 20
9.921259842519685
 30
0.0
 11
30.04133858267716
 21
9.921259842519685
 31
0.0
  0
LINE
  5
D60
330
1E
100
AcDbEntity
  8
7
100
AcDbLine
 10
30.04133858267716
 20
9.921259842519685
 30
0.0
 11
30.04133858267716
 21
9.802165354330709
 31
0.0
  0
LINE
  5
D61
330
1E
100
AcDbEntity
  8
7
100
AcDbLine
 10
28.36515748031496
 20
9.921259842519685
 30
0.0
 11
28.4025590551181
 21
9.921259842519685
 31
0.0
  0
LINE
  5
D62
330
1E
100
AcDbEntity
  8
7
100
AcDbLine
 10
28.4025590551181
 20
9.921259842519685
 30
0.0
 11
28.44586614173228
 21
9.921259842519685
 31
0.0
  0
LINE
  5
D63
330
1E
100
AcDbEntity
  8
7
100
AcDbLine
 10
28.44586614173228
 20
9.921259842519685
 30
0.0
 11
28.49311023622047
 21
9.921259842519685
 31
0.0
  0
LINE
  5
D64
330
1E
100
AcDbEntity
  8
7
100
AcDbLine
 10
28.49311023622047
 20
9.921259842519685
 30
0.0
 11
28.54133858267717
 21
9.921259842519685
 31
0.0
  0
LINE
  5
D65
330
1E
100
AcDbEntity
  8
7
100
AcDbLine
 10
28.29133858267717
 20
9.921259842519685
 30
0.0
 11
28.29625984251968
 21
9.921259842519685
 31
0.0
  0
LINE
  5
D66
330
1E
100
AcDbEntity
  8
7
100
AcDbLine
 10
28.29625984251968
 20
9.921259842519685
 30
0.0
 11
28.31102362204724
 21
9.921259842519685
 31
0.0
  0
LINE
  5
D67
330
1E
100
AcDbEntity
  8
7
100
AcDbLine
 10
28.31102362204724
 20
9.921259842519685
 30
0.0
 11
28.33366141732283
 21
9.921259842519685
 31
0.0
  0
LINE
  5
D68
330
1E
100
AcDbEntity
  8
7
100
AcDbLine
 10
28.33366141732283
 20
9.921259842519685
 30
0.0
 11
28.36515748031496
 21
9.921259842519685
 31
0.0
  0
LINE
  5
D69
330
1E
100
AcDbEntity
  8
1
100
AcDbLine
 10
28.45275590551181
 20
3.71259842519685
 30
0.0
 11
28.41338582677165
 21
3.71259842519685
 31
0.0
  0
LINE
  5
D6A
330
1E
100
AcDbEntity
  8
1
100
AcDbLine
 10
28.41338582677165
 20
3.71259842519685
 30
0.0
 11
28.37696850393701
 21
3.71259842519685
 31
0.0
  0
LINE
  5
D6B
330
1E
100
AcDbEntity
  8
1
100
AcDbLine
 10
28.37696850393701
 20
3.71259842519685
 30
0.0
 11
28.34547244094488
 21
3.71259842519685
 31
0.0
  0
LINE
  5
D6C
330
1E
100
AcDbEntity
  8
1
100
AcDbLine
 10
28.34547244094488
 20
3.71259842519685
 30
0.0
 11
28.32185039370079
 21
3.71259842519685
 31
0.0
  0
LINE
  5
D6D
330
1E
100
AcDbEntity
  8
1
100
AcDbLine
 10
28.32185039370079
 20
3.71259842519685
 30
0.0
 11
28.30708661417322
 21
3.71259842519685
 31
0.0
  0
LINE
  5
D6E
330
1E
100
AcDbEntity
  8
1
100
AcDbLine
 10
28.30708661417322
 20
3.71259842519685
 30
0.0
 11
28.3011811023622
 21
3.71259842519685
 31
0.0
  0
LINE
  5
D6F
330
1E
100
AcDbEntity
  8
1
100
AcDbLine
 10
29.1013779527559
 20
3.71259842519685
 30
0.0
 11
29.06496062992126
 21
3.71259842519685
 31
0.0
  0
LINE
  5
D70
330
1E
100
AcDbEntity
  8
1
100
AcDbLine
 10
29.06496062992126
 20
3.71259842519685
 30
0.0
 11
29.0255905511811
 21
3.71259842519685
 31
0.0
  0
LINE
  5
D71
330
1E
100
AcDbEntity
  8
1
100
AcDbLine
 10
29.1761811023622
 20
3.71259842519685
 30
0.0
 11
29.17125984251968
 21
3.71259842519685
 31
0.0
  0
LINE
  5
D72
330
1E
100
AcDbEntity
  8
1
100
AcDbLine
 10
29.17125984251968
 20
3.71259842519685
 30
0.0
 11
29.15649606299213
 21
3.71259842519685
 31
0.0
  0
LINE
  5
D73
330
1E
100
AcDbEntity
  8
1
100
AcDbLine
 10
29.15649606299213
 20
3.71259842519685
 30
0.0
 11
29.13188976377952
 21
3.71259842519685
 31
0.0
  0
LINE
  5
D74
330
1E
100
AcDbEntity
  8
1
100
AcDbLine
 10
29.13188976377952
 20
3.71259842519685
 30
0.0
 11
29.1013779527559
 21
3.71259842519685
 31
0.0
  0
LINE
  5
D75
330
1E
100
AcDbEntity
  8
1
100
AcDbLine
 10
28.3021653543307
 20
3.71259842519685
 30
0.0
 11
28.30708661417322
 21
3.673228346456693
 31
0.0
  0
LINE
  5
D76
330
1E
100
AcDbEntity
  8
1
100
AcDbLine
 10
28.30708661417322
 20
3.673228346456693
 30
0.0
 11
28.32185039370079
 21
3.637795275590551
 31
0.0
  0
LINE
  5
D77
330
1E
100
AcDbEntity
  8
1
100
AcDbLine
 10
28.32185039370079
 20
3.637795275590551
 30
0.0
 11
28.34645669291338
 21
3.606299212598425
 31
0.0
  0
LINE
  5
D78
330
1E
100
AcDbEntity
  8
1
100
AcDbLine
 10
28.34645669291338
 20
3.606299212598425
 30
0.0
 11
28.37696850393701
 21
3.581692913385826
 31
0.0
  0
LINE
  5
D79
330
1E
100
AcDbEntity
  8
1
100
AcDbLine
 10
28.37696850393701
 20
3.581692913385826
 30
0.0
 11
28.41338582677165
 21
3.566929133858267
 31
0.0
  0
LINE
  5
D7A
330
1E
100
AcDbEntity
  8
1
100
AcDbLine
 10
28.41338582677165
 20
3.566929133858267
 30
0.0
 11
28.45275590551181
 21
3.562007874015747
 31
0.0
  0
LINE
  5
D7B
330
1E
100
AcDbEntity
  8
1
100
AcDbLine
 10
28.42224409448819
 20
3.71259842519685
 30
0.0
 11
28.4261811023622
 21
3.697834645669291
 31
0.0
  0
LINE
  5
D7C
330
1E
100
AcDbEntity
  8
1
100
AcDbLine
 10
28.4261811023622
 20
3.697834645669291
 30
0.0
 11
28.43700787401575
 21
3.686023622047243
 31
0.0
  0
LINE
  5
D7D
330
1E
100
AcDbEntity
  8
1
100
AcDbLine
 10
28.43700787401575
 20
3.686023622047243
 30
0.0
 11
28.45275590551181
 21
3.682086614173228
 31
0.0
  0
LINE
  5
D7E
330
1E
100
AcDbEntity
  8
1
100
AcDbLine
 10
28.9753937007874
 20
3.682086614173228
 30
0.0
 11
29.02263779527558
 21
3.682086614173228
 31
0.0
  0
LINE
  5
D7F
330
1E
100
AcDbEntity
  8
1
100
AcDbLine
 10
29.02263779527558
 20
3.682086614173228
 30
0.0
 11
29.06594488188977
 21
3.682086614173228
 31
0.0
  0
LINE
  5
D80
330
1E
100
AcDbEntity
  8
1
100
AcDbLine
 10
29.06594488188977
 20
3.682086614173228
 30
0.0
 11
29.10334645669291
 21
3.682086614173228
 31
0.0
  0
LINE
  5
D81
330
1E
100
AcDbEntity
  8
1
100
AcDbLine
 10
29.10334645669291
 20
3.682086614173228
 30
0.0
 11
29.13484251968504
 21
3.682086614173228
 31
0.0
  0
LINE
  5
D82
330
1E
100
AcDbEntity
  8
1
100
AcDbLine
 10
29.13484251968504
 20
3.682086614173228
 30
0.0
 11
29.15748031496063
 21
3.682086614173228
 31
0.0
  0
LINE
  5
D83
330
1E
100
AcDbEntity
  8
1
100
AcDbLine
 10
29.15748031496063
 20
3.682086614173228
 30
0.0
 11
29.17224409448818
 21
3.682086614173228
 31
0.0
  0
LINE
  5
D84
330
1E
100
AcDbEntity
  8
1
100
AcDbLine
 10
29.17224409448818
 20
3.682086614173228
 30
0.0
 11
29.1761811023622
 21
3.682086614173228
 31
0.0
  0
LINE
  5
D85
330
1E
100
AcDbEntity
  8
1
100
AcDbLine
 10
28.45275590551181
 20
3.682086614173228
 30
0.0
 11
28.9261811023622
 21
3.682086614173228
 31
0.0
  0
LINE
  5
D86
330
1E
100
AcDbEntity
  8
1
100
AcDbLine
 10
28.9261811023622
 20
3.682086614173228
 30
0.0
 11
28.9753937007874
 21
3.682086614173228
 31
0.0
  0
LINE
  5
D87
330
1E
100
AcDbEntity
  8
1
100
AcDbLine
 10
29.1761811023622
 20
3.562007874015747
 30
0.0
 11
29.17224409448818
 21
3.562007874015747
 31
0.0
  0
LINE
  5
D88
330
1E
100
AcDbEntity
  8
1
100
AcDbLine
 10
29.17224409448818
 20
3.562007874015747
 30
0.0
 11
29.15748031496063
 21
3.562007874015747
 31
0.0
  0
LINE
  5
D89
330
1E
100
AcDbEntity
  8
1
100
AcDbLine
 10
29.15748031496063
 20
3.562007874015747
 30
0.0
 11
29.13484251968504
 21
3.562007874015747
 31
0.0
  0
LINE
  5
D8A
330
1E
100
AcDbEntity
  8
1
100
AcDbLine
 10
29.13484251968504
 20
3.562007874015747
 30
0.0
 11
29.10334645669291
 21
3.562007874015747
 31
0.0
  0
LINE
  5
D8B
330
1E
100
AcDbEntity
  8
1
100
AcDbLine
 10
29.10334645669291
 20
3.562007874015747
 30
0.0
 11
29.06594488188977
 21
3.562007874015747
 31
0.0
  0
LINE
  5
D8C
330
1E
100
AcDbEntity
  8
1
100
AcDbLine
 10
29.06594488188977
 20
3.562007874015747
 30
0.0
 11
29.02263779527558
 21
3.562007874015747
 31
0.0
  0
LINE
  5
D8D
330
1E
100
AcDbEntity
  8
1
100
AcDbLine
 10
29.02263779527558
 20
3.562007874015747
 30
0.0
 11
28.9753937007874
 21
3.562007874015747
 31
0.0
  0
LINE
  5
D8E
330
1E
100
AcDbEntity
  8
1
100
AcDbLine
 10
28.9753937007874
 20
3.562007874015747
 30
0.0
 11
28.9261811023622
 21
3.562007874015747
 31
0.0
  0
LINE
  5
D8F
330
1E
100
AcDbEntity
  8
1
100
AcDbLine
 10
28.9261811023622
 20
3.562007874015747
 30
0.0
 11
28.45275590551181
 21
3.562007874015747
 31
0.0
  0
LINE
  5
D90
330
1E
100
AcDbEntity
  8
1
100
AcDbLine
 10
29.0255905511811
 20
28.56200787401574
 30
0.0
 11
29.06496062992126
 21
28.56200787401574
 31
0.0
  0
LINE
  5
D91
330
1E
100
AcDbEntity
  8
1
100
AcDbLine
 10
29.06496062992126
 20
28.56200787401574
 30
0.0
 11
29.1013779527559
 21
28.56200787401574
 31
0.0
  0
LINE
  5
D92
330
1E
100
AcDbEntity
  8
1
100
AcDbLine
 10
29.1013779527559
 20
28.56200787401574
 30
0.0
 11
29.13188976377952
 21
28.56200787401574
 31
0.0
  0
LINE
  5
D93
330
1E
100
AcDbEntity
  8
1
100
AcDbLine
 10
29.13188976377952
 20
28.56200787401574
 30
0.0
 11
29.15649606299213
 21
28.56200787401574
 31
0.0
  0
LINE
  5
D94
330
1E
100
AcDbEntity
  8
1
100
AcDbLine
 10
29.15649606299213
 20
28.56200787401574
 30
0.0
 11
29.17125984251968
 21
28.56200787401574
 31
0.0
  0
LINE
  5
D95
330
1E
100
AcDbEntity
  8
1
100
AcDbLine
 10
29.17125984251968
 20
28.56200787401574
 30
0.0
 11
29.1761811023622
 21
28.56200787401574
 31
0.0
  0
LINE
  5
D96
330
1E
100
AcDbEntity
  8
1
100
AcDbLine
 10
28.3011811023622
 20
28.56200787401574
 30
0.0
 11
28.30708661417322
 21
28.56200787401574
 31
0.0
  0
LINE
  5
D97
330
1E
100
AcDbEntity
  8
1
100
AcDbLine
 10
28.30708661417322
 20
28.56200787401574
 30
0.0
 11
28.32185039370079
 21
28.56200787401574
 31
0.0
  0
LINE
  5
D98
330
1E
100
AcDbEntity
  8
1
100
AcDbLine
 10
28.32185039370079
 20
28.56200787401574
 30
0.0
 11
28.34547244094488
 21
28.56200787401574
 31
0.0
  0
LINE
  5
D99
330
1E
100
AcDbEntity
  8
1
100
AcDbLine
 10
28.34547244094488
 20
28.56200787401574
 30
0.0
 11
28.37696850393701
 21
28.56200787401574
 31
0.0
  0
LINE
  5
D9A
330
1E
100
AcDbEntity
  8
1
100
AcDbLine
 10
28.37696850393701
 20
28.56200787401574
 30
0.0
 11
28.41338582677165
 21
28.56200787401574
 31
0.0
  0
LINE
  5
D9B
330
1E
100
AcDbEntity
  8
1
100
AcDbLine
 10
28.41338582677165
 20
28.56200787401574
 30
0.0
 11
28.45275590551181
 21
28.56200787401574
 31
0.0
  0
LINE
  5
D9C
330
1E
100
AcDbEntity
  8
7
100
AcDbLine
 10
28.4025590551181
 20
12.92125984251968
 30
0.0
 11
28.36515748031496
 21
12.92125984251968
 31
0.0
  0
LINE
  5
D9D
330
1E
100
AcDbEntity
  8
7
100
AcDbLine
 10
28.36515748031496
 20
12.92125984251968
 30
0.0
 11
28.33366141732283
 21
12.92125984251968
 31
0.0
  0
LINE
  5
D9E
330
1E
100
AcDbEntity
  8
7
100
AcDbLine
 10
28.33366141732283
 20
12.92125984251968
 30
0.0
 11
28.31102362204724
 21
12.92125984251968
 31
0.0
  0
LINE
  5
D9F
330
1E
100
AcDbEntity
  8
7
100
AcDbLine
 10
28.31102362204724
 20
12.92125984251968
 30
0.0
 11
28.29625984251968
 21
12.92125984251968
 31
0.0
  0
LINE
  5
DA0
330
1E
100
AcDbEntity
  8
7
100
AcDbLine
 10
28.29625984251968
 20
12.92125984251968
 30
0.0
 11
28.29133858267717
 21
12.92125984251968
 31
0.0
  0
LINE
  5
DA1
330
1E
100
AcDbEntity
  8
7
100
AcDbLine
 10
28.29133858267717
 20
12.92125984251968
 30
0.0
 11
28.29133858267717
 21
13.04133858267716
 31
0.0
  0
LINE
  5
DA2
330
1E
100
AcDbEntity
  8
7
100
AcDbLine
 10
28.54133858267717
 20
12.92125984251968
 30
0.0
 11
28.49311023622047
 21
12.92125984251968
 31
0.0
  0
LINE
  5
DA3
330
1E
100
AcDbEntity
  8
7
100
AcDbLine
 10
28.49311023622047
 20
12.92125984251968
 30
0.0
 11
28.44586614173228
 21
12.92125984251968
 31
0.0
  0
LINE
  5
DA4
330
1E
100
AcDbEntity
  8
7
100
AcDbLine
 10
28.44586614173228
 20
12.92125984251968
 30
0.0
 11
28.4025590551181
 21
12.92125984251968
 31
0.0
  0
LINE
  5
DA5
330
1E
100
AcDbEntity
  8
7
100
AcDbLine
 10
30.04133858267716
 20
12.92125984251968
 30
0.0
 11
30.03641732283464
 21
12.92125984251968
 31
0.0
  0
LINE
  5
DA6
330
1E
100
AcDbEntity
  8
7
100
AcDbLine
 10
30.03641732283464
 20
12.92125984251968
 30
0.0
 11
30.02263779527559
 21
12.92125984251968
 31
0.0
  0
LINE
  5
DA7
330
1E
100
AcDbEntity
  8
7
100
AcDbLine
 10
30.02263779527559
 20
12.92125984251968
 30
0.0
 11
29.9990157480315
 21
12.92125984251968
 31
0.0
  0
LINE
  5
DA8
330
1E
100
AcDbEntity
  8
7
100
AcDbLine
 10
29.9990157480315
 20
12.92125984251968
 30
0.0
 11
29.96850393700787
 21
12.92125984251968
 31
0.0
  0
LINE
  5
DA9
330
1E
100
AcDbEntity
  8
7
100
AcDbLine
 10
29.96850393700787
 20
12.92125984251968
 30
0.0
 11
29.93011811023622
 21
12.92125984251968
 31
0.0
  0
LINE
  5
DAA
330
1E
100
AcDbEntity
  8
7
100
AcDbLine
 10
29.93011811023622
 20
12.92125984251968
 30
0.0
 11
29.88681102362205
 21
12.92125984251968
 31
0.0
  0
LINE
  5
DAB
330
1E
100
AcDbEntity
  8
7
100
AcDbLine
 10
29.88681102362205
 20
12.92125984251968
 30
0.0
 11
29.84055118110235
 21
12.92125984251968
 31
0.0
  0
LINE
  5
DAC
330
1E
100
AcDbEntity
  8
7
100
AcDbLine
 10
29.84055118110235
 20
12.92125984251968
 30
0.0
 11
29.79133858267717
 21
12.92125984251968
 31
0.0
  0
LINE
  5
DAD
330
1E
100
AcDbEntity
  8
7
100
AcDbLine
 10
28.54133858267717
 20
13.04133858267716
 30
0.0
 11
28.54133858267717
 21
12.92125984251968
 31
0.0
  0
LINE
  5
DAE
330
1E
100
AcDbEntity
  8
7
100
AcDbLine
 10
28.54133858267717
 20
12.92125984251968
 30
0.0
 11
29.79133858267717
 21
12.92125984251968
 31
0.0
  0
LINE
  5
DAF
330
1E
100
AcDbEntity
  8
7
100
AcDbLine
 10
29.79133858267717
 20
13.04133858267716
 30
0.0
 11
29.84055118110235
 21
13.04133858267716
 31
0.0
  0
LINE
  5
DB0
330
1E
100
AcDbEntity
  8
7
100
AcDbLine
 10
29.84055118110235
 20
13.04133858267716
 30
0.0
 11
29.88681102362205
 21
13.04133858267716
 31
0.0
  0
LINE
  5
DB1
330
1E
100
AcDbEntity
  8
7
100
AcDbLine
 10
29.88681102362205
 20
13.04133858267716
 30
0.0
 11
29.93011811023622
 21
13.04133858267716
 31
0.0
  0
LINE
  5
DB2
330
1E
100
AcDbEntity
  8
7
100
AcDbLine
 10
29.93011811023622
 20
13.04133858267716
 30
0.0
 11
29.96850393700787
 21
13.04133858267716
 31
0.0
  0
LINE
  5
DB3
330
1E
100
AcDbEntity
  8
7
100
AcDbLine
 10
29.96850393700787
 20
13.04133858267716
 30
0.0
 11
29.9990157480315
 21
13.04133858267716
 31
0.0
  0
LINE
  5
DB4
330
1E
100
AcDbEntity
  8
7
100
AcDbLine
 10
29.9990157480315
 20
13.04133858267716
 30
0.0
 11
30.02263779527559
 21
13.04133858267716
 31
0.0
  0
LINE
  5
DB5
330
1E
100
AcDbEntity
  8
7
100
AcDbLine
 10
30.02263779527559
 20
13.04133858267716
 30
0.0
 11
30.03641732283464
 21
13.04133858267716
 31
0.0
  0
LINE
  5
DB6
330
1E
100
AcDbEntity
  8
7
100
AcDbLine
 10
30.03641732283464
 20
13.04133858267716
 30
0.0
 11
30.04133858267716
 21
13.04133858267716
 31
0.0
  0
LINE
  5
DB7
330
1E
100
AcDbEntity
  8
7
100
AcDbLine
 10
30.04133858267716
 20
13.04133858267716
 30
0.0
 11
30.04133858267716
 21
12.92125984251968
 31
0.0
  0
LINE
  5
DB8
330
1E
100
AcDbEntity
  8
7
100
AcDbLine
 10
28.29133858267717
 20
13.04133858267716
 30
0.0
 11
28.29625984251968
 21
13.04133858267716
 31
0.0
  0
LINE
  5
DB9
330
1E
100
AcDbEntity
  8
7
100
AcDbLine
 10
28.29625984251968
 20
13.04133858267716
 30
0.0
 11
28.31102362204724
 21
13.04133858267716
 31
0.0
  0
LINE
  5
DBA
330
1E
100
AcDbEntity
  8
7
100
AcDbLine
 10
28.31102362204724
 20
13.04133858267716
 30
0.0
 11
28.33366141732283
 21
13.04133858267716
 31
0.0
  0
LINE
  5
DBB
330
1E
100
AcDbEntity
  8
7
100
AcDbLine
 10
28.33366141732283
 20
13.04133858267716
 30
0.0
 11
28.36515748031496
 21
13.04133858267716
 31
0.0
  0
LINE
  5
DBC
330
1E
100
AcDbEntity
  8
7
100
AcDbLine
 10
28.36515748031496
 20
13.04133858267716
 30
0.0
 11
28.4025590551181
 21
13.04133858267716
 31
0.0
  0
LINE
  5
DBD
330
1E
100
AcDbEntity
  8
7
100
AcDbLine
 10
28.4025590551181
 20
13.04133858267716
 30
0.0
 11
28.44586614173228
 21
13.04133858267716
 31
0.0
  0
LINE
  5
DBE
330
1E
100
AcDbEntity
  8
7
100
AcDbLine
 10
28.44586614173228
 20
13.04133858267716
 30
0.0
 11
28.49311023622047
 21
13.04133858267716
 31
0.0
  0
LINE
  5
DBF
330
1E
100
AcDbEntity
  8
7
100
AcDbLine
 10
28.49311023622047
 20
13.04133858267716
 30
0.0
 11
28.54133858267717
 21
13.04133858267716
 31
0.0
  0
LINE
  5
DC0
330
1E
100
AcDbEntity
  8
7
100
AcDbLine
 10
6.469488188976377
 20
16.76377952755905
 30
0.0
 11
6.529527559055118
 21
16.76377952755905
 31
0.0
  0
LINE
  5
DC1
330
1E
100
AcDbEntity
  8
7
100
AcDbLine
 10
6.529527559055118
 20
16.76377952755905
 30
0.0
 11
6.529527559055118
 21
16.64468503937007
 31
0.0
  0
LINE
  5
DC2
330
1E
100
AcDbEntity
  8
7
100
AcDbLine
 10
6.529527559055118
 20
16.64468503937007
 30
0.0
 11
6.649606299212598
 21
16.64468503937007
 31
0.0
  0
LINE
  5
DC3
330
1E
100
AcDbEntity
  8
7
100
AcDbLine
 10
6.469488188976377
 20
10.64468503937008
 30
0.0
 11
6.529527559055118
 21
10.64468503937008
 31
0.0
  0
LINE
  5
DC4
330
1E
100
AcDbEntity
  8
7
100
AcDbLine
 10
6.529527559055118
 20
10.64468503937008
 30
0.0
 11
6.529527559055118
 21
10.52460629921259
 31
0.0
  0
LINE
  5
DC5
330
1E
100
AcDbEntity
  8
7
100
AcDbLine
 10
6.529527559055118
 20
10.52460629921259
 30
0.0
 11
6.649606299212598
 21
10.52460629921259
 31
0.0
  0
LINE
  5
DC6
330
1E
100
AcDbEntity
  8
7
100
AcDbLine
 10
12.46948818897637
 20
10.64468503937008
 30
0.0
 11
12.52952755905512
 21
10.64468503937008
 31
0.0
  0
LINE
  5
DC7
330
1E
100
AcDbEntity
  8
7
100
AcDbLine
 10
12.52952755905512
 20
10.64468503937008
 30
0.0
 11
12.52952755905512
 21
10.52460629921259
 31
0.0
  0
LINE
  5
DC8
330
1E
100
AcDbEntity
  8
7
100
AcDbLine
 10
12.52952755905512
 20
10.52460629921259
 30
0.0
 11
12.6496062992126
 21
10.52460629921259
 31
0.0
  0
LINE
  5
DC9
330
1E
100
AcDbEntity
  8
7
100
AcDbLine
 10
18.58759842519685
 20
15.92125984251968
 30
0.0
 11
18.53838582677165
 21
15.92125984251968
 31
0.0
  0
LINE
  5
DCA
330
1E
100
AcDbEntity
  8
7
100
AcDbLine
 10
18.53838582677165
 20
15.92125984251968
 30
0.0
 11
18.49212598425197
 21
15.92125984251968
 31
0.0
  0
LINE
  5
DCB
330
1E
100
AcDbEntity
  8
7
100
AcDbLine
 10
18.49212598425197
 20
15.92125984251968
 30
0.0
 11
18.44881889763779
 21
15.92125984251968
 31
0.0
  0
LINE
  5
DCC
330
1E
100
AcDbEntity
  8
7
100
AcDbLine
 10
18.44881889763779
 20
15.92125984251968
 30
0.0
 11
18.41043307086614
 21
15.92125984251968
 31
0.0
  0
LINE
  5
DCD
330
1E
100
AcDbEntity
  8
7
100
AcDbLine
 10
18.41043307086614
 20
15.92125984251968
 30
0.0
 11
18.37992125984252
 21
15.92125984251968
 31
0.0
  0
LINE
  5
DCE
330
1E
100
AcDbEntity
  8
7
100
AcDbLine
 10
18.37992125984252
 20
15.92125984251968
 30
0.0
 11
18.35629921259842
 21
15.92125984251968
 31
0.0
  0
LINE
  5
DCF
330
1E
100
AcDbEntity
  8
7
100
AcDbLine
 10
18.35629921259842
 20
15.92125984251968
 30
0.0
 11
18.34251968503937
 21
15.92125984251968
 31
0.0
  0
LINE
  5
DD0
330
1E
100
AcDbEntity
  8
7
100
AcDbLine
 10
18.34251968503937
 20
15.92125984251968
 30
0.0
 11
18.33759842519685
 21
15.92125984251968
 31
0.0
  0
LINE
  5
DD1
330
1E
100
AcDbEntity
  8
7
100
AcDbLine
 10
18.33759842519685
 20
15.92125984251968
 30
0.0
 11
18.33070866141732
 21
15.92125984251968
 31
0.0
  0
LINE
  5
DD2
330
1E
100
AcDbEntity
  8
7
100
AcDbLine
 10
18.33070866141732
 20
15.92125984251968
 30
0.0
 11
18.31200787401574
 21
15.92125984251968
 31
0.0
  0
LINE
  5
DD3
330
1E
100
AcDbEntity
  8
7
100
AcDbLine
 10
19.0
 20
15.92125984251968
 30
0.0
 11
18.99507874015748
 21
15.92125984251968
 31
0.0
  0
LINE
  5
DD4
330
1E
100
AcDbEntity
  8
7
100
AcDbLine
 10
18.99507874015748
 20
15.92125984251968
 30
0.0
 11
18.98129921259842
 21
15.92125984251968
 31
0.0
  0
LINE
  5
DD5
330
1E
100
AcDbEntity
  8
7
100
AcDbLine
 10
18.98129921259842
 20
15.92125984251968
 30
0.0
 11
18.95767716535432
 21
15.92125984251968
 31
0.0
  0
LINE
  5
DD6
330
1E
100
AcDbEntity
  8
7
100
AcDbLine
 10
18.95767716535432
 20
15.92125984251968
 30
0.0
 11
18.9271653543307
 21
15.92125984251968
 31
0.0
  0
LINE
  5
DD7
330
1E
100
AcDbEntity
  8
7
100
AcDbLine
 10
18.9271653543307
 20
15.92125984251968
 30
0.0
 11
18.88877952755905
 21
15.92125984251968
 31
0.0
  0
LINE
  5
DD8
330
1E
100
AcDbEntity
  8
7
100
AcDbLine
 10
18.88877952755905
 20
15.92125984251968
 30
0.0
 11
18.84547244094488
 21
15.92125984251968
 31
0.0
  0
LINE
  5
DD9
330
1E
100
AcDbEntity
  8
7
100
AcDbLine
 10
18.84547244094488
 20
15.92125984251968
 30
0.0
 11
18.79921259842519
 21
15.92125984251968
 31
0.0
  0
LINE
  5
DDA
330
1E
100
AcDbEntity
  8
7
100
AcDbLine
 10
18.79921259842519
 20
15.92125984251968
 30
0.0
 11
18.75
 21
15.92125984251968
 31
0.0
  0
LINE
  5
DDB
330
1E
100
AcDbEntity
  8
7
100
AcDbLine
 10
0.25
 20
15.92125984251968
 30
0.0
 11
0.2007874015748037
 21
15.92125984251968
 31
0.0
  0
LINE
  5
DDC
330
1E
100
AcDbEntity
  8
7
100
AcDbLine
 10
0.2007874015748037
 20
15.92125984251968
 30
0.0
 11
0.1545275590551185
 21
15.92125984251968
 31
0.0
  0
LINE
  5
DDD
330
1E
100
AcDbEntity
  8
7
100
AcDbLine
 10
0.1545275590551185
 20
15.92125984251968
 30
0.0
 11
0.1112204724409462
 21
15.92125984251968
 31
0.0
  0
LINE
  5
DDE
330
1E
100
AcDbEntity
  8
7
100
AcDbLine
 10
0.1112204724409462
 20
15.92125984251968
 30
0.0
 11
0.0728346456692926
 21
15.92125984251968
 31
0.0
  0
LINE
  5
DDF
330
1E
100
AcDbEntity
  8
7
100
AcDbLine
 10
0.0728346456692926
 20
15.92125984251968
 30
0.0
 11
0.0423228346456703
 21
15.92125984251968
 31
0.0
  0
LINE
  5
DE0
330
1E
100
AcDbEntity
  8
7
100
AcDbLine
 10
0.0423228346456703
 20
15.92125984251968
 30
0.0
 11
0.0187007874015759
 21
15.92125984251968
 31
0.0
  0
LINE
  5
DE1
330
1E
100
AcDbEntity
  8
7
100
AcDbLine
 10
0.0187007874015759
 20
15.92125984251968
 30
0.0
 11
0.0049212598425203
 21
15.92125984251968
 31
0.0
  0
LINE
  5
DE2
330
1E
100
AcDbEntity
  8
7
100
AcDbLine
 10
0.6574803149606315
 20
15.92125984251968
 30
0.0
 11
0.6437007874015759
 21
15.92125984251968
 31
0.0
  0
LINE
  5
DE3
330
1E
100
AcDbEntity
  8
7
100
AcDbLine
 10
0.6437007874015759
 20
15.92125984251968
 30
0.0
 11
0.6200787401574815
 21
15.92125984251968
 31
0.0
  0
LINE
  5
DE4
330
1E
100
AcDbEntity
  8
7
100
AcDbLine
 10
0.6200787401574815
 20
15.92125984251968
 30
0.0
 11
0.5895669291338593
 21
15.92125984251968
 31
0.0
  0
LINE
  5
DE5
330
1E
100
AcDbEntity
  8
7
100
AcDbLine
 10
0.5895669291338593
 20
15.92125984251968
 30
0.0
 11
0.5511811023622056
 21
15.92125984251968
 31
0.0
  0
LINE
  5
DE6
330
1E
100
AcDbEntity
  8
7
100
AcDbLine
 10
0.5511811023622056
 20
15.92125984251968
 30
0.0
 11
0.5078740157480315
 21
15.92125984251968
 31
0.0
  0
LINE
  5
DE7
330
1E
100
AcDbEntity
  8
7
100
AcDbLine
 10
0.5078740157480315
 20
15.92125984251968
 30
0.0
 11
0.4616141732283463
 21
15.92125984251968
 31
0.0
  0
LINE
  5
DE8
330
1E
100
AcDbEntity
  8
7
100
AcDbLine
 10
0.4616141732283463
 20
15.92125984251968
 30
0.0
 11
0.41240157480315
 21
15.92125984251968
 31
0.0
  0
LINE
  5
DE9
330
1E
100
AcDbEntity
  8
7
100
AcDbLine
 10
0.6870078740157482
 20
15.92125984251968
 30
0.0
 11
0.6692913385826778
 21
15.92125984251968
 31
0.0
  0
LINE
  5
DEA
330
1E
100
AcDbEntity
  8
7
100
AcDbLine
 10
0.6692913385826778
 20
15.92125984251968
 30
0.0
 11
0.66240157480315
 21
15.92125984251968
 31
0.0
  0
LINE
  5
DEB
330
1E
100
AcDbEntity
  8
7
100
AcDbLine
 10
0.66240157480315
 20
15.92125984251968
 30
0.0
 11
0.6574803149606315
 21
15.92125984251968
 31
0.0
  0
LINE
  5
DEC
330
1E
100
AcDbEntity
  8
7
100
AcDbLine
 10
0.5895669291338593
 20
16.04133858267716
 30
0.0
 11
0.6200787401574815
 21
16.04133858267716
 31
0.0
  0
LINE
  5
DED
330
1E
100
AcDbEntity
  8
7
100
AcDbLine
 10
0.6200787401574815
 20
16.04133858267716
 30
0.0
 11
0.6437007874015759
 21
16.04133858267716
 31
0.0
  0
LINE
  5
DEE
330
1E
100
AcDbEntity
  8
7
100
AcDbLine
 10
0.6437007874015759
 20
16.04133858267716
 30
0.0
 11
0.6574803149606315
 21
16.04133858267716
 31
0.0
  0
LINE
  5
DEF
330
1E
100
AcDbEntity
  8
7
100
AcDbLine
 10
0.6574803149606315
 20
16.04133858267716
 30
0.0
 11
0.66240157480315
 21
16.04133858267716
 31
0.0
  0
LINE
  5
DF0
330
1E
100
AcDbEntity
  8
7
100
AcDbLine
 10
0.66240157480315
 20
16.04133858267716
 30
0.0
 11
0.6692913385826778
 21
16.04133858267716
 31
0.0
  0
LINE
  5
DF1
330
1E
100
AcDbEntity
  8
7
100
AcDbLine
 10
0.6692913385826778
 20
16.04133858267716
 30
0.0
 11
0.6870078740157482
 21
16.04133858267716
 31
0.0
  0
LINE
  5
DF2
330
1E
100
AcDbEntity
  8
7
100
AcDbLine
 10
0.41240157480315
 20
16.04133858267716
 30
0.0
 11
0.4616141732283463
 21
16.04133858267716
 31
0.0
  0
LINE
  5
DF3
330
1E
100
AcDbEntity
  8
7
100
AcDbLine
 10
0.4616141732283463
 20
16.04133858267716
 30
0.0
 11
0.5078740157480315
 21
16.04133858267716
 31
0.0
  0
LINE
  5
DF4
330
1E
100
AcDbEntity
  8
7
100
AcDbLine
 10
0.5078740157480315
 20
16.04133858267716
 30
0.0
 11
0.5511811023622056
 21
16.04133858267716
 31
0.0
  0
LINE
  5
DF5
330
1E
100
AcDbEntity
  8
7
100
AcDbLine
 10
0.5511811023622056
 20
16.04133858267716
 30
0.0
 11
0.5895669291338593
 21
16.04133858267716
 31
0.0
  0
LINE
  5
DF6
330
1E
100
AcDbEntity
  8
7
100
AcDbLine
 10
0.0
 20
16.04133858267716
 30
0.0
 11
0.0049212598425203
 21
16.04133858267716
 31
0.0
  0
LINE
  5
DF7
330
1E
100
AcDbEntity
  8
7
100
AcDbLine
 10
0.0049212598425203
 20
16.04133858267716
 30
0.0
 11
0.0187007874015759
 21
16.04133858267716
 31
0.0
  0
LINE
  5
DF8
330
1E
100
AcDbEntity
  8
7
100
AcDbLine
 10
0.0187007874015759
 20
16.04133858267716
 30
0.0
 11
0.0423228346456703
 21
16.04133858267716
 31
0.0
  0
LINE
  5
DF9
330
1E
100
AcDbEntity
  8
7
100
AcDbLine
 10
0.0423228346456703
 20
16.04133858267716
 30
0.0
 11
0.0728346456692926
 21
16.04133858267716
 31
0.0
  0
LINE
  5
DFA
330
1E
100
AcDbEntity
  8
7
100
AcDbLine
 10
0.0728346456692926
 20
16.04133858267716
 30
0.0
 11
0.1112204724409462
 21
16.04133858267716
 31
0.0
  0
LINE
  5
DFB
330
1E
100
AcDbEntity
  8
7
100
AcDbLine
 10
0.1112204724409462
 20
16.04133858267716
 30
0.0
 11
0.1545275590551185
 21
16.04133858267716
 31
0.0
  0
LINE
  5
DFC
330
1E
100
AcDbEntity
  8
7
100
AcDbLine
 10
0.1545275590551185
 20
16.04133858267716
 30
0.0
 11
0.2007874015748037
 21
16.04133858267716
 31
0.0
  0
LINE
  5
DFD
330
1E
100
AcDbEntity
  8
7
100
AcDbLine
 10
0.2007874015748037
 20
16.04133858267716
 30
0.0
 11
0.25
 21
16.04133858267716
 31
0.0
  0
LINE
  5
DFE
330
1E
100
AcDbEntity
  8
7
100
AcDbLine
 10
18.95767716535432
 20
16.04133858267716
 30
0.0
 11
18.98129921259842
 21
16.04133858267716
 31
0.0
  0
LINE
  5
DFF
330
1E
100
AcDbEntity
  8
7
100
AcDbLine
 10
18.98129921259842
 20
16.04133858267716
 30
0.0
 11
18.99507874015748
 21
16.04133858267716
 31
0.0
  0
LINE
  5
E00
330
1E
100
AcDbEntity
  8
7
100
AcDbLine
 10
18.99507874015748
 20
16.04133858267716
 30
0.0
 11
19.0
 21
16.04133858267716
 31
0.0
  0
LINE
  5
E01
330
1E
100
AcDbEntity
  8
7
100
AcDbLine
 10
18.75
 20
16.04133858267716
 30
0.0
 11
18.79921259842519
 21
16.04133858267716
 31
0.0
  0
LINE
  5
E02
330
1E
100
AcDbEntity
  8
7
100
AcDbLine
 10
18.79921259842519
 20
16.04133858267716
 30
0.0
 11
18.84547244094488
 21
16.04133858267716
 31
0.0
  0
LINE
  5
E03
330
1E
100
AcDbEntity
  8
7
100
AcDbLine
 10
18.84547244094488
 20
16.04133858267716
 30
0.0
 11
18.88877952755905
 21
16.04133858267716
 31
0.0
  0
LINE
  5
E04
330
1E
100
AcDbEntity
  8
7
100
AcDbLine
 10
18.88877952755905
 20
16.04133858267716
 30
0.0
 11
18.9271653543307
 21
16.04133858267716
 31
0.0
  0
LINE
  5
E05
330
1E
100
AcDbEntity
  8
7
100
AcDbLine
 10
18.9271653543307
 20
16.04133858267716
 30
0.0
 11
18.95767716535432
 21
16.04133858267716
 31
0.0
  0
LINE
  5
E06
330
1E
100
AcDbEntity
  8
7
100
AcDbLine
 10
18.33070866141732
 20
16.04133858267716
 30
0.0
 11
18.33759842519685
 21
16.04133858267716
 31
0.0
  0
LINE
  5
E07
330
1E
100
AcDbEntity
  8
7
100
AcDbLine
 10
18.33759842519685
 20
16.04133858267716
 30
0.0
 11
18.34251968503937
 21
16.04133858267716
 31
0.0
  0
LINE
  5
E08
330
1E
100
AcDbEntity
  8
7
100
AcDbLine
 10
18.34251968503937
 20
16.04133858267716
 30
0.0
 11
18.35629921259842
 21
16.04133858267716
 31
0.0
  0
LINE
  5
E09
330
1E
100
AcDbEntity
  8
7
100
AcDbLine
 10
18.35629921259842
 20
16.04133858267716
 30
0.0
 11
18.37992125984252
 21
16.04133858267716
 31
0.0
  0
LINE
  5
E0A
330
1E
100
AcDbEntity
  8
7
100
AcDbLine
 10
18.37992125984252
 20
16.04133858267716
 30
0.0
 11
18.41043307086614
 21
16.04133858267716
 31
0.0
  0
LINE
  5
E0B
330
1E
100
AcDbEntity
  8
7
100
AcDbLine
 10
18.41043307086614
 20
16.04133858267716
 30
0.0
 11
18.44881889763779
 21
16.04133858267716
 31
0.0
  0
LINE
  5
E0C
330
1E
100
AcDbEntity
  8
7
100
AcDbLine
 10
18.44881889763779
 20
16.04133858267716
 30
0.0
 11
18.49212598425197
 21
16.04133858267716
 31
0.0
  0
LINE
  5
E0D
330
1E
100
AcDbEntity
  8
7
100
AcDbLine
 10
18.49212598425197
 20
16.04133858267716
 30
0.0
 11
18.53838582677165
 21
16.04133858267716
 31
0.0
  0
LINE
  5
E0E
330
1E
100
AcDbEntity
  8
7
100
AcDbLine
 10
18.53838582677165
 20
16.04133858267716
 30
0.0
 11
18.58759842519685
 21
16.04133858267716
 31
0.0
  0
LINE
  5
E0F
330
1E
100
AcDbEntity
  8
7
100
AcDbLine
 10
0.41240157480315
 20
16.04133858267716
 30
0.0
 11
0.25
 21
16.04133858267716
 31
0.0
  0
LINE
  5
E10
330
1E
100
AcDbEntity
  8
7
100
AcDbLine
 10
0.25
 20
16.04133858267716
 30
0.0
 11
0.25
 21
15.92125984251968
 31
0.0
  0
LINE
  5
E11
330
1E
100
AcDbEntity
  8
7
100
AcDbLine
 10
0.25
 20
15.92125984251968
 30
0.0
 11
0.41240157480315
 21
15.92125984251968
 31
0.0
  0
LINE
  5
E12
330
1E
100
AcDbEntity
  8
7
100
AcDbLine
 10
0.41240157480315
 20
15.92125984251968
 30
0.0
 11
0.41240157480315
 21
16.04133858267716
 31
0.0
  0
LINE
  5
E13
330
1E
100
AcDbEntity
  8
7
100
AcDbLine
 10
18.58759842519685
 20
9.802165354330709
 30
0.0
 11
18.53838582677165
 21
9.802165354330709
 31
0.0
  0
LINE
  5
E14
330
1E
100
AcDbEntity
  8
7
100
AcDbLine
 10
18.53838582677165
 20
9.802165354330709
 30
0.0
 11
18.49212598425197
 21
9.802165354330709
 31
0.0
  0
LINE
  5
E15
330
1E
100
AcDbEntity
  8
7
100
AcDbLine
 10
18.49212598425197
 20
9.802165354330709
 30
0.0
 11
18.44881889763779
 21
9.802165354330709
 31
0.0
  0
LINE
  5
E16
330
1E
100
AcDbEntity
  8
7
100
AcDbLine
 10
18.44881889763779
 20
9.802165354330709
 30
0.0
 11
18.41043307086614
 21
9.802165354330709
 31
0.0
  0
LINE
  5
E17
330
1E
100
AcDbEntity
  8
7
100
AcDbLine
 10
18.41043307086614
 20
9.802165354330709
 30
0.0
 11
18.37992125984252
 21
9.802165354330709
 31
0.0
  0
LINE
  5
E18
330
1E
100
AcDbEntity
  8
7
100
AcDbLine
 10
18.37992125984252
 20
9.802165354330709
 30
0.0
 11
18.35629921259842
 21
9.802165354330709
 31
0.0
  0
LINE
  5
E19
330
1E
100
AcDbEntity
  8
7
100
AcDbLine
 10
18.35629921259842
 20
9.802165354330709
 30
0.0
 11
18.34251968503937
 21
9.802165354330709
 31
0.0
  0
LINE
  5
E1A
330
1E
100
AcDbEntity
  8
7
100
AcDbLine
 10
18.34251968503937
 20
9.802165354330709
 30
0.0
 11
18.33759842519685
 21
9.802165354330709
 31
0.0
  0
LINE
  5
E1B
330
1E
100
AcDbEntity
  8
7
100
AcDbLine
 10
18.33759842519685
 20
9.802165354330709
 30
0.0
 11
18.33070866141732
 21
9.802165354330709
 31
0.0
  0
LINE
  5
E1C
330
1E
100
AcDbEntity
  8
7
100
AcDbLine
 10
18.33070866141732
 20
9.802165354330709
 30
0.0
 11
18.31200787401574
 21
9.802165354330709
 31
0.0
  0
LINE
  5
E1D
330
1E
100
AcDbEntity
  8
7
100
AcDbLine
 10
19.0
 20
9.802165354330709
 30
0.0
 11
18.99507874015748
 21
9.802165354330709
 31
0.0
  0
LINE
  5
E1E
330
1E
100
AcDbEntity
  8
7
100
AcDbLine
 10
18.99507874015748
 20
9.802165354330709
 30
0.0
 11
18.98129921259842
 21
9.802165354330709
 31
0.0
  0
LINE
  5
E1F
330
1E
100
AcDbEntity
  8
7
100
AcDbLine
 10
18.98129921259842
 20
9.802165354330709
 30
0.0
 11
18.95767716535432
 21
9.802165354330709
 31
0.0
  0
LINE
  5
E20
330
1E
100
AcDbEntity
  8
7
100
AcDbLine
 10
18.95767716535432
 20
9.802165354330709
 30
0.0
 11
18.9271653543307
 21
9.802165354330709
 31
0.0
  0
LINE
  5
E21
330
1E
100
AcDbEntity
  8
7
100
AcDbLine
 10
18.9271653543307
 20
9.802165354330709
 30
0.0
 11
18.88877952755905
 21
9.802165354330709
 31
0.0
  0
LINE
  5
E22
330
1E
100
AcDbEntity
  8
7
100
AcDbLine
 10
18.88877952755905
 20
9.802165354330709
 30
0.0
 11
18.84547244094488
 21
9.802165354330709
 31
0.0
  0
LINE
  5
E23
330
1E
100
AcDbEntity
  8
7
100
AcDbLine
 10
18.84547244094488
 20
9.802165354330709
 30
0.0
 11
18.79921259842519
 21
9.802165354330709
 31
0.0
  0
LINE
  5
E24
330
1E
100
AcDbEntity
  8
7
100
AcDbLine
 10
18.79921259842519
 20
9.802165354330709
 30
0.0
 11
18.75
 21
9.802165354330709
 31
0.0
  0
LINE
  5
E25
330
1E
100
AcDbEntity
  8
7
100
AcDbLine
 10
0.25
 20
9.802165354330709
 30
0.0
 11
0.2007874015748037
 21
9.802165354330709
 31
0.0
  0
LINE
  5
E26
330
1E
100
AcDbEntity
  8
7
100
AcDbLine
 10
0.2007874015748037
 20
9.802165354330709
 30
0.0
 11
0.1545275590551185
 21
9.802165354330709
 31
0.0
  0
LINE
  5
E27
330
1E
100
AcDbEntity
  8
7
100
AcDbLine
 10
0.1545275590551185
 20
9.802165354330709
 30
0.0
 11
0.1112204724409462
 21
9.802165354330709
 31
0.0
  0
LINE
  5
E28
330
1E
100
AcDbEntity
  8
7
100
AcDbLine
 10
0.1112204724409462
 20
9.802165354330709
 30
0.0
 11
0.0728346456692926
 21
9.802165354330709
 31
0.0
  0
LINE
  5
E29
330
1E
100
AcDbEntity
  8
7
100
AcDbLine
 10
0.0728346456692926
 20
9.802165354330709
 30
0.0
 11
0.0423228346456703
 21
9.802165354330709
 31
0.0
  0
LINE
  5
E2A
330
1E
100
AcDbEntity
  8
7
100
AcDbLine
 10
0.0423228346456703
 20
9.802165354330709
 30
0.0
 11
0.0187007874015759
 21
9.802165354330709
 31
0.0
  0
LINE
  5
E2B
330
1E
100
AcDbEntity
  8
7
100
AcDbLine
 10
0.0187007874015759
 20
9.802165354330709
 30
0.0
 11
0.0049212598425203
 21
9.802165354330709
 31
0.0
  0
LINE
  5
E2C
330
1E
100
AcDbEntity
  8
7
100
AcDbLine
 10
0.6574803149606315
 20
9.802165354330709
 30
0.0
 11
0.6437007874015759
 21
9.802165354330709
 31
0.0
  0
LINE
  5
E2D
330
1E
100
AcDbEntity
  8
7
100
AcDbLine
 10
0.6437007874015759
 20
9.802165354330709
 30
0.0
 11
0.6200787401574815
 21
9.802165354330709
 31
0.0
  0
LINE
  5
E2E
330
1E
100
AcDbEntity
  8
7
100
AcDbLine
 10
0.6200787401574815
 20
9.802165354330709
 30
0.0
 11
0.5895669291338593
 21
9.802165354330709
 31
0.0
  0
LINE
  5
E2F
330
1E
100
AcDbEntity
  8
7
100
AcDbLine
 10
0.5895669291338593
 20
9.802165354330709
 30
0.0
 11
0.5511811023622056
 21
9.802165354330709
 31
0.0
  0
LINE
  5
E30
330
1E
100
AcDbEntity
  8
7
100
AcDbLine
 10
0.5511811023622056
 20
9.802165354330709
 30
0.0
 11
0.5078740157480315
 21
9.802165354330709
 31
0.0
  0
LINE
  5
E31
330
1E
100
AcDbEntity
  8
7
100
AcDbLine
 10
0.5078740157480315
 20
9.802165354330709
 30
0.0
 11
0.4616141732283463
 21
9.802165354330709
 31
0.0
  0
LINE
  5
E32
330
1E
100
AcDbEntity
  8
7
100
AcDbLine
 10
0.4616141732283463
 20
9.802165354330709
 30
0.0
 11
0.41240157480315
 21
9.802165354330709
 31
0.0
  0
LINE
  5
E33
330
1E
100
AcDbEntity
  8
7
100
AcDbLine
 10
0.6870078740157482
 20
9.802165354330709
 30
0.0
 11
0.6692913385826778
 21
9.802165354330709
 31
0.0
  0
LINE
  5
E34
330
1E
100
AcDbEntity
  8
7
100
AcDbLine
 10
0.6692913385826778
 20
9.802165354330709
 30
0.0
 11
0.66240157480315
 21
9.802165354330709
 31
0.0
  0
LINE
  5
E35
330
1E
100
AcDbEntity
  8
7
100
AcDbLine
 10
0.66240157480315
 20
9.802165354330709
 30
0.0
 11
0.6574803149606315
 21
9.802165354330709
 31
0.0
  0
LINE
  5
E36
330
1E
100
AcDbEntity
  8
7
100
AcDbLine
 10
0.5895669291338593
 20
9.921259842519685
 30
0.0
 11
0.6200787401574815
 21
9.921259842519685
 31
0.0
  0
LINE
  5
E37
330
1E
100
AcDbEntity
  8
7
100
AcDbLine
 10
0.6200787401574815
 20
9.921259842519685
 30
0.0
 11
0.6437007874015759
 21
9.921259842519685
 31
0.0
  0
LINE
  5
E38
330
1E
100
AcDbEntity
  8
7
100
AcDbLine
 10
0.6437007874015759
 20
9.921259842519685
 30
0.0
 11
0.6574803149606315
 21
9.921259842519685
 31
0.0
  0
LINE
  5
E39
330
1E
100
AcDbEntity
  8
7
100
AcDbLine
 10
0.6574803149606315
 20
9.921259842519685
 30
0.0
 11
0.66240157480315
 21
9.921259842519685
 31
0.0
  0
LINE
  5
E3A
330
1E
100
AcDbEntity
  8
7
100
AcDbLine
 10
0.66240157480315
 20
9.921259842519685
 30
0.0
 11
0.6692913385826778
 21
9.921259842519685
 31
0.0
  0
LINE
  5
E3B
330
1E
100
AcDbEntity
  8
7
100
AcDbLine
 10
0.6692913385826778
 20
9.921259842519685
 30
0.0
 11
0.6870078740157482
 21
9.921259842519685
 31
0.0
  0
LINE
  5
E3C
330
1E
100
AcDbEntity
  8
7
100
AcDbLine
 10
0.41240157480315
 20
9.921259842519685
 30
0.0
 11
0.4616141732283463
 21
9.921259842519685
 31
0.0
  0
LINE
  5
E3D
330
1E
100
AcDbEntity
  8
7
100
AcDbLine
 10
0.4616141732283463
 20
9.921259842519685
 30
0.0
 11
0.5078740157480315
 21
9.921259842519685
 31
0.0
  0
LINE
  5
E3E
330
1E
100
AcDbEntity
  8
7
100
AcDbLine
 10
0.5078740157480315
 20
9.921259842519685
 30
0.0
 11
0.5511811023622056
 21
9.921259842519685
 31
0.0
  0
LINE
  5
E3F
330
1E
100
AcDbEntity
  8
7
100
AcDbLine
 10
0.5511811023622056
 20
9.921259842519685
 30
0.0
 11
0.5895669291338593
 21
9.921259842519685
 31
0.0
  0
LINE
  5
E40
330
1E
100
AcDbEntity
  8
7
100
AcDbLine
 10
0.0
 20
9.921259842519685
 30
0.0
 11
0.0049212598425203
 21
9.921259842519685
 31
0.0
  0
LINE
  5
E41
330
1E
100
AcDbEntity
  8
7
100
AcDbLine
 10
0.0049212598425203
 20
9.921259842519685
 30
0.0
 11
0.0187007874015759
 21
9.921259842519685
 31
0.0
  0
LINE
  5
E42
330
1E
100
AcDbEntity
  8
7
100
AcDbLine
 10
0.0187007874015759
 20
9.921259842519685
 30
0.0
 11
0.0423228346456703
 21
9.921259842519685
 31
0.0
  0
LINE
  5
E43
330
1E
100
AcDbEntity
  8
7
100
AcDbLine
 10
0.0423228346456703
 20
9.921259842519685
 30
0.0
 11
0.0728346456692926
 21
9.921259842519685
 31
0.0
  0
LINE
  5
E44
330
1E
100
AcDbEntity
  8
7
100
AcDbLine
 10
0.0728346456692926
 20
9.921259842519685
 30
0.0
 11
0.1112204724409462
 21
9.921259842519685
 31
0.0
  0
LINE
  5
E45
330
1E
100
AcDbEntity
  8
7
100
AcDbLine
 10
0.1112204724409462
 20
9.921259842519685
 30
0.0
 11
0.1545275590551185
 21
9.921259842519685
 31
0.0
  0
LINE
  5
E46
330
1E
100
AcDbEntity
  8
7
100
AcDbLine
 10
0.1545275590551185
 20
9.921259842519685
 30
0.0
 11
0.2007874015748037
 21
9.921259842519685
 31
0.0
  0
LINE
  5
E47
330
1E
100
AcDbEntity
  8
7
100
AcDbLine
 10
0.2007874015748037
 20
9.921259842519685
 30
0.0
 11
0.25
 21
9.921259842519685
 31
0.0
  0
LINE
  5
E48
330
1E
100
AcDbEntity
  8
7
100
AcDbLine
 10
18.95767716535432
 20
9.921259842519685
 30
0.0
 11
18.98129921259842
 21
9.921259842519685
 31
0.0
  0
LINE
  5
E49
330
1E
100
AcDbEntity
  8
7
100
AcDbLine
 10
18.98129921259842
 20
9.921259842519685
 30
0.0
 11
18.99507874015748
 21
9.921259842519685
 31
0.0
  0
LINE
  5
E4A
330
1E
100
AcDbEntity
  8
7
100
AcDbLine
 10
18.99507874015748
 20
9.921259842519685
 30
0.0
 11
19.0
 21
9.921259842519685
 31
0.0
  0
LINE
  5
E4B
330
1E
100
AcDbEntity
  8
7
100
AcDbLine
 10
18.75
 20
9.921259842519685
 30
0.0
 11
18.79921259842519
 21
9.921259842519685
 31
0.0
  0
LINE
  5
E4C
330
1E
100
AcDbEntity
  8
7
100
AcDbLine
 10
18.79921259842519
 20
9.921259842519685
 30
0.0
 11
18.84547244094488
 21
9.921259842519685
 31
0.0
  0
LINE
  5
E4D
330
1E
100
AcDbEntity
  8
7
100
AcDbLine
 10
18.84547244094488
 20
9.921259842519685
 30
0.0
 11
18.88877952755905
 21
9.921259842519685
 31
0.0
  0
LINE
  5
E4E
330
1E
100
AcDbEntity
  8
7
100
AcDbLine
 10
18.88877952755905
 20
9.921259842519685
 30
0.0
 11
18.9271653543307
 21
9.921259842519685
 31
0.0
  0
LINE
  5
E4F
330
1E
100
AcDbEntity
  8
7
100
AcDbLine
 10
18.9271653543307
 20
9.921259842519685
 30
0.0
 11
18.95767716535432
 21
9.921259842519685
 31
0.0
  0
LINE
  5
E50
330
1E
100
AcDbEntity
  8
7
100
AcDbLine
 10
18.33070866141732
 20
9.921259842519685
 30
0.0
 11
18.33759842519685
 21
9.921259842519685
 31
0.0
  0
LINE
  5
E51
330
1E
100
AcDbEntity
  8
7
100
AcDbLine
 10
18.33759842519685
 20
9.921259842519685
 30
0.0
 11
18.34251968503937
 21
9.921259842519685
 31
0.0
  0
LINE
  5
E52
330
1E
100
AcDbEntity
  8
7
100
AcDbLine
 10
18.34251968503937
 20
9.921259842519685
 30
0.0
 11
18.35629921259842
 21
9.921259842519685
 31
0.0
  0
LINE
  5
E53
330
1E
100
AcDbEntity
  8
7
100
AcDbLine
 10
18.35629921259842
 20
9.921259842519685
 30
0.0
 11
18.37992125984252
 21
9.921259842519685
 31
0.0
  0
LINE
  5
E54
330
1E
100
AcDbEntity
  8
7
100
AcDbLine
 10
18.37992125984252
 20
9.921259842519685
 30
0.0
 11
18.41043307086614
 21
9.921259842519685
 31
0.0
  0
LINE
  5
E55
330
1E
100
AcDbEntity
  8
7
100
AcDbLine
 10
18.41043307086614
 20
9.921259842519685
 30
0.0
 11
18.44881889763779
 21
9.921259842519685
 31
0.0
  0
LINE
  5
E56
330
1E
100
AcDbEntity
  8
7
100
AcDbLine
 10
18.44881889763779
 20
9.921259842519685
 30
0.0
 11
18.49212598425197
 21
9.921259842519685
 31
0.0
  0
LINE
  5
E57
330
1E
100
AcDbEntity
  8
7
100
AcDbLine
 10
18.49212598425197
 20
9.921259842519685
 30
0.0
 11
18.53838582677165
 21
9.921259842519685
 31
0.0
  0
LINE
  5
E58
330
1E
100
AcDbEntity
  8
7
100
AcDbLine
 10
18.53838582677165
 20
9.921259842519685
 30
0.0
 11
18.58759842519685
 21
9.921259842519685
 31
0.0
  0
LINE
  5
E59
330
1E
100
AcDbEntity
  8
7
100
AcDbLine
 10
0.41240157480315
 20
9.921259842519685
 30
0.0
 11
0.25
 21
9.921259842519685
 31
0.0
  0
LINE
  5
E5A
330
1E
100
AcDbEntity
  8
7
100
AcDbLine
 10
0.25
 20
9.921259842519685
 30
0.0
 11
0.25
 21
9.802165354330709
 31
0.0
  0
LINE
  5
E5B
330
1E
100
AcDbEntity
  8
7
100
AcDbLine
 10
0.25
 20
9.802165354330709
 30
0.0
 11
0.41240157480315
 21
9.802165354330709
 31
0.0
  0
LINE
  5
E5C
330
1E
100
AcDbEntity
  8
7
100
AcDbLine
 10
0.41240157480315
 20
9.802165354330709
 30
0.0
 11
0.41240157480315
 21
9.921259842519685
 31
0.0
  0
LINE
  5
E5D
330
1E
100
AcDbEntity
  8
1
100
AcDbLine
 10
12.4261811023622
 20
7.57283464566929
 30
0.0
 11
12.40748031496063
 21
7.550196850393701
 31
0.0
  0
LINE
  5
E5E
330
1E
100
AcDbEntity
  8
1
100
AcDbLine
 10
12.40748031496063
 20
7.550196850393701
 30
0.0
 11
12.39566929133858
 21
7.523622047244094
 31
0.0
  0
LINE
  5
E5F
330
1E
100
AcDbEntity
  8
1
100
AcDbLine
 10
12.39566929133858
 20
7.523622047244094
 30
0.0
 11
12.39173228346456
 21
7.494094488188975
 31
0.0
  0
LINE
  5
E60
330
1E
100
AcDbEntity
  8
1
100
AcDbLine
 10
12.50787401574803
 20
7.385826771653544
 30
0.0
 11
12.53641732283464
 21
7.391732283464566
 31
0.0
  0
LINE
  5
E61
330
1E
100
AcDbEntity
  8
1
100
AcDbLine
 10
12.53641732283464
 20
7.391732283464566
 30
0.0
 11
12.56200787401574
 21
7.405511811023622
 31
0.0
  0
LINE
  5
E62
330
1E
100
AcDbEntity
  8
1
100
AcDbLine
 10
12.56200787401574
 20
7.405511811023622
 30
0.0
 11
12.58366141732283
 21
7.426181102362205
 31
0.0
  0
LINE
  5
E63
330
1E
100
AcDbEntity
  8
1
100
AcDbLine
 10
12.58366141732283
 20
7.426181102362205
 30
0.0
 11
12.5994094488189
 21
7.450787401574803
 31
0.0
  0
LINE
  5
E64
330
1E
100
AcDbEntity
  8
1
100
AcDbLine
 10
12.5994094488189
 20
7.450787401574803
 30
0.0
 11
12.60728346456692
 21
7.479330708661416
 31
0.0
  0
LINE
  5
E65
330
1E
100
AcDbEntity
  8
1
100
AcDbLine
 10
12.60728346456692
 20
7.479330708661416
 30
0.0
 11
12.60728346456692
 21
7.508858267716535
 31
0.0
  0
LINE
  5
E66
330
1E
100
AcDbEntity
  8
1
100
AcDbLine
 10
12.60728346456692
 20
7.508858267716535
 30
0.0
 11
12.5994094488189
 21
7.537401574803149
 31
0.0
  0
LINE
  5
E67
330
1E
100
AcDbEntity
  8
1
100
AcDbLine
 10
12.5994094488189
 20
7.537401574803149
 30
0.0
 11
12.58366141732283
 21
7.562007874015748
 31
0.0
  0
LINE
  5
E68
330
1E
100
AcDbEntity
  8
1
100
AcDbLine
 10
12.58366141732283
 20
7.562007874015748
 30
0.0
 11
12.56200787401574
 21
7.582677165354331
 31
0.0
  0
LINE
  5
E69
330
1E
100
AcDbEntity
  8
1
100
AcDbLine
 10
12.56200787401574
 20
7.582677165354331
 30
0.0
 11
12.53641732283464
 21
7.596456692913385
 31
0.0
  0
LINE
  5
E6A
330
1E
100
AcDbEntity
  8
1
100
AcDbLine
 10
12.53641732283464
 20
7.596456692913385
 30
0.0
 11
12.50787401574803
 21
7.602362204724409
 31
0.0
  0
LINE
  5
E6B
330
1E
100
AcDbEntity
  8
1
100
AcDbLine
 10
12.50787401574803
 20
7.602362204724409
 30
0.0
 11
12.47834645669291
 21
7.600393700787401
 31
0.0
  0
LINE
  5
E6C
330
1E
100
AcDbEntity
  8
1
100
AcDbLine
 10
12.47834645669291
 20
7.600393700787401
 30
0.0
 11
12.44980314960629
 21
7.590551181102362
 31
0.0
  0
LINE
  5
E6D
330
1E
100
AcDbEntity
  8
1
100
AcDbLine
 10
12.44980314960629
 20
7.590551181102362
 30
0.0
 11
12.4261811023622
 21
7.57283464566929
 31
0.0
  0
LINE
  5
E6E
330
1E
100
AcDbEntity
  8
1
100
AcDbLine
 10
12.39173228346456
 20
7.494094488188975
 30
0.0
 11
12.39566929133858
 21
7.464566929133859
 31
0.0
  0
LINE
  5
E6F
330
1E
100
AcDbEntity
  8
1
100
AcDbLine
 10
12.39566929133858
 20
7.464566929133859
 30
0.0
 11
12.40748031496063
 21
7.437992125984251
 31
0.0
  0
LINE
  5
E70
330
1E
100
AcDbEntity
  8
1
100
AcDbLine
 10
12.40748031496063
 20
7.437992125984251
 30
0.0
 11
12.4261811023622
 21
7.415354330708661
 31
0.0
  0
LINE
  5
E71
330
1E
100
AcDbEntity
  8
1
100
AcDbLine
 10
12.4261811023622
 20
7.415354330708661
 30
0.0
 11
12.44980314960629
 21
7.39763779527559
 31
0.0
  0
LINE
  5
E72
330
1E
100
AcDbEntity
  8
1
100
AcDbLine
 10
12.44980314960629
 20
7.39763779527559
 30
0.0
 11
12.47834645669291
 21
7.387795275590551
 31
0.0
  0
LINE
  5
E73
330
1E
100
AcDbEntity
  8
1
100
AcDbLine
 10
12.47834645669291
 20
7.387795275590551
 30
0.0
 11
12.50787401574803
 21
7.385826771653544
 31
0.0
  0
LINE
  5
E74
330
1E
100
AcDbEntity
  8
1
100
AcDbLine
 10
6.449803149606299
 20
7.590551181102362
 30
0.0
 11
6.426181102362205
 21
7.57283464566929
 31
0.0
  0
LINE
  5
E75
330
1E
100
AcDbEntity
  8
1
100
AcDbLine
 10
6.426181102362205
 20
7.57283464566929
 30
0.0
 11
6.407480314960629
 21
7.550196850393701
 31
0.0
  0
LINE
  5
E76
330
1E
100
AcDbEntity
  8
1
100
AcDbLine
 10
6.407480314960629
 20
7.550196850393701
 30
0.0
 11
6.395669291338583
 21
7.523622047244094
 31
0.0
  0
LINE
  5
E77
330
1E
100
AcDbEntity
  8
1
100
AcDbLine
 10
6.395669291338583
 20
7.523622047244094
 30
0.0
 11
6.391732283464566
 21
7.494094488188975
 31
0.0
  0
LINE
  5
E78
330
1E
100
AcDbEntity
  8
1
100
AcDbLine
 10
6.449803149606299
 20
7.39763779527559
 30
0.0
 11
6.478346456692914
 21
7.387795275590551
 31
0.0
  0
LINE
  5
E79
330
1E
100
AcDbEntity
  8
1
100
AcDbLine
 10
6.478346456692914
 20
7.387795275590551
 30
0.0
 11
6.507874015748031
 21
7.385826771653544
 31
0.0
  0
LINE
  5
E7A
330
1E
100
AcDbEntity
  8
1
100
AcDbLine
 10
6.507874015748031
 20
7.385826771653544
 30
0.0
 11
6.536417322834646
 21
7.391732283464566
 31
0.0
  0
LINE
  5
E7B
330
1E
100
AcDbEntity
  8
1
100
AcDbLine
 10
6.536417322834646
 20
7.391732283464566
 30
0.0
 11
6.562007874015748
 21
7.405511811023622
 31
0.0
  0
LINE
  5
E7C
330
1E
100
AcDbEntity
  8
1
100
AcDbLine
 10
6.562007874015748
 20
7.405511811023622
 30
0.0
 11
6.583661417322835
 21
7.426181102362205
 31
0.0
  0
LINE
  5
E7D
330
1E
100
AcDbEntity
  8
1
100
AcDbLine
 10
6.583661417322835
 20
7.426181102362205
 30
0.0
 11
6.599409448818898
 21
7.450787401574803
 31
0.0
  0
LINE
  5
E7E
330
1E
100
AcDbEntity
  8
1
100
AcDbLine
 10
6.599409448818898
 20
7.450787401574803
 30
0.0
 11
6.607283464566929
 21
7.479330708661416
 31
0.0
  0
LINE
  5
E7F
330
1E
100
AcDbEntity
  8
1
100
AcDbLine
 10
6.607283464566929
 20
7.479330708661416
 30
0.0
 11
6.607283464566929
 21
7.508858267716535
 31
0.0
  0
LINE
  5
E80
330
1E
100
AcDbEntity
  8
1
100
AcDbLine
 10
6.607283464566929
 20
7.508858267716535
 30
0.0
 11
6.599409448818898
 21
7.537401574803149
 31
0.0
  0
LINE
  5
E81
330
1E
100
AcDbEntity
  8
1
100
AcDbLine
 10
6.599409448818898
 20
7.537401574803149
 30
0.0
 11
6.583661417322835
 21
7.562007874015748
 31
0.0
  0
LINE
  5
E82
330
1E
100
AcDbEntity
  8
1
100
AcDbLine
 10
6.583661417322835
 20
7.562007874015748
 30
0.0
 11
6.562007874015748
 21
7.582677165354331
 31
0.0
  0
LINE
  5
E83
330
1E
100
AcDbEntity
  8
1
100
AcDbLine
 10
6.562007874015748
 20
7.582677165354331
 30
0.0
 11
6.536417322834646
 21
7.596456692913385
 31
0.0
  0
LINE
  5
E84
330
1E
100
AcDbEntity
  8
1
100
AcDbLine
 10
6.536417322834646
 20
7.596456692913385
 30
0.0
 11
6.507874015748031
 21
7.602362204724409
 31
0.0
  0
LINE
  5
E85
330
1E
100
AcDbEntity
  8
1
100
AcDbLine
 10
6.507874015748031
 20
7.602362204724409
 30
0.0
 11
6.478346456692914
 21
7.600393700787401
 31
0.0
  0
LINE
  5
E86
330
1E
100
AcDbEntity
  8
1
100
AcDbLine
 10
6.478346456692914
 20
7.600393700787401
 30
0.0
 11
6.449803149606299
 21
7.590551181102362
 31
0.0
  0
LINE
  5
E87
330
1E
100
AcDbEntity
  8
1
100
AcDbLine
 10
6.391732283464566
 20
7.494094488188975
 30
0.0
 11
6.395669291338583
 21
7.464566929133859
 31
0.0
  0
LINE
  5
E88
330
1E
100
AcDbEntity
  8
1
100
AcDbLine
 10
6.395669291338583
 20
7.464566929133859
 30
0.0
 11
6.407480314960629
 21
7.437992125984251
 31
0.0
  0
LINE
  5
E89
330
1E
100
AcDbEntity
  8
1
100
AcDbLine
 10
6.407480314960629
 20
7.437992125984251
 30
0.0
 11
6.426181102362205
 21
7.415354330708661
 31
0.0
  0
LINE
  5
E8A
330
1E
100
AcDbEntity
  8
1
100
AcDbLine
 10
6.426181102362205
 20
7.415354330708661
 30
0.0
 11
6.449803149606299
 21
7.39763779527559
 31
0.0
  0
LINE
  5
E8B
330
1E
100
AcDbEntity
  8
1
100
AcDbLine
 10
12.47834645669291
 20
4.48031496062992
 30
0.0
 11
12.44980314960629
 21
4.470472440944881
 31
0.0
  0
LINE
  5
E8C
330
1E
100
AcDbEntity
  8
1
100
AcDbLine
 10
12.44980314960629
 20
4.470472440944881
 30
0.0
 11
12.4261811023622
 21
4.452755905511811
 31
0.0
  0
LINE
  5
E8D
330
1E
100
AcDbEntity
  8
1
100
AcDbLine
 10
12.4261811023622
 20
4.452755905511811
 30
0.0
 11
12.40748031496063
 21
4.43011811023622
 31
0.0
  0
LINE
  5
E8E
330
1E
100
AcDbEntity
  8
1
100
AcDbLine
 10
12.40748031496063
 20
4.43011811023622
 30
0.0
 11
12.39566929133858
 21
4.403543307086614
 31
0.0
  0
LINE
  5
E8F
330
1E
100
AcDbEntity
  8
1
100
AcDbLine
 10
12.39566929133858
 20
4.403543307086614
 30
0.0
 11
12.39173228346456
 21
4.374015748031496
 31
0.0
  0
LINE
  5
E90
330
1E
100
AcDbEntity
  8
1
100
AcDbLine
 10
12.4261811023622
 20
4.295275590551181
 30
0.0
 11
12.44980314960629
 21
4.277559055118109
 31
0.0
  0
LINE
  5
E91
330
1E
100
AcDbEntity
  8
1
100
AcDbLine
 10
12.44980314960629
 20
4.277559055118109
 30
0.0
 11
12.47834645669291
 21
4.26771653543307
 31
0.0
  0
LINE
  5
E92
330
1E
100
AcDbEntity
  8
1
100
AcDbLine
 10
12.47834645669291
 20
4.26771653543307
 30
0.0
 11
12.50787401574803
 21
4.265748031496062
 31
0.0
  0
LINE
  5
E93
330
1E
100
AcDbEntity
  8
1
100
AcDbLine
 10
12.50787401574803
 20
4.265748031496062
 30
0.0
 11
12.53641732283464
 21
4.271653543307087
 31
0.0
  0
LINE
  5
E94
330
1E
100
AcDbEntity
  8
1
100
AcDbLine
 10
12.53641732283464
 20
4.271653543307087
 30
0.0
 11
12.56200787401574
 21
4.28543307086614
 31
0.0
  0
LINE
  5
E95
330
1E
100
AcDbEntity
  8
1
100
AcDbLine
 10
12.56200787401574
 20
4.28543307086614
 30
0.0
 11
12.58366141732283
 21
4.306102362204724
 31
0.0
  0
LINE
  5
E96
330
1E
100
AcDbEntity
  8
1
100
AcDbLine
 10
12.58366141732283
 20
4.306102362204724
 30
0.0
 11
12.5994094488189
 21
4.330708661417322
 31
0.0
  0
LINE
  5
E97
330
1E
100
AcDbEntity
  8
1
100
AcDbLine
 10
12.5994094488189
 20
4.330708661417322
 30
0.0
 11
12.60728346456692
 21
4.359251968503937
 31
0.0
  0
LINE
  5
E98
330
1E
100
AcDbEntity
  8
1
100
AcDbLine
 10
12.60728346456692
 20
4.359251968503937
 30
0.0
 11
12.60728346456692
 21
4.388779527559055
 31
0.0
  0
LINE
  5
E99
330
1E
100
AcDbEntity
  8
1
100
AcDbLine
 10
12.60728346456692
 20
4.388779527559055
 30
0.0
 11
12.5994094488189
 21
4.417322834645668
 31
0.0
  0
LINE
  5
E9A
330
1E
100
AcDbEntity
  8
1
100
AcDbLine
 10
12.5994094488189
 20
4.417322834645668
 30
0.0
 11
12.58366141732283
 21
4.441929133858266
 31
0.0
  0
LINE
  5
E9B
330
1E
100
AcDbEntity
  8
1
100
AcDbLine
 10
12.58366141732283
 20
4.441929133858266
 30
0.0
 11
12.56200787401574
 21
4.46259842519685
 31
0.0
  0
LINE
  5
E9C
330
1E
100
AcDbEntity
  8
1
100
AcDbLine
 10
12.56200787401574
 20
4.46259842519685
 30
0.0
 11
12.53641732283464
 21
4.476377952755905
 31
0.0
  0
LINE
  5
E9D
330
1E
100
AcDbEntity
  8
1
100
AcDbLine
 10
12.53641732283464
 20
4.476377952755905
 30
0.0
 11
12.50787401574803
 21
4.482283464566929
 31
0.0
  0
LINE
  5
E9E
330
1E
100
AcDbEntity
  8
1
100
AcDbLine
 10
12.50787401574803
 20
4.482283464566929
 30
0.0
 11
12.47834645669291
 21
4.48031496062992
 31
0.0
  0
LINE
  5
E9F
330
1E
100
AcDbEntity
  8
1
100
AcDbLine
 10
12.39173228346456
 20
4.374015748031496
 30
0.0
 11
12.39566929133858
 21
4.344488188976377
 31
0.0
  0
LINE
  5
EA0
330
1E
100
AcDbEntity
  8
1
100
AcDbLine
 10
12.39566929133858
 20
4.344488188976377
 30
0.0
 11
12.40748031496063
 21
4.317913385826772
 31
0.0
  0
LINE
  5
EA1
330
1E
100
AcDbEntity
  8
1
100
AcDbLine
 10
12.40748031496063
 20
4.317913385826772
 30
0.0
 11
12.4261811023622
 21
4.295275590551181
 31
0.0
  0
LINE
  5
EA2
330
1E
100
AcDbEntity
  8
1
100
AcDbLine
 10
6.507874015748031
 20
4.482283464566929
 30
0.0
 11
6.478346456692914
 21
4.48031496062992
 31
0.0
  0
LINE
  5
EA3
330
1E
100
AcDbEntity
  8
1
100
AcDbLine
 10
6.478346456692914
 20
4.48031496062992
 30
0.0
 11
6.449803149606299
 21
4.470472440944881
 31
0.0
  0
LINE
  5
EA4
330
1E
100
AcDbEntity
  8
1
100
AcDbLine
 10
6.449803149606299
 20
4.470472440944881
 30
0.0
 11
6.426181102362205
 21
4.452755905511811
 31
0.0
  0
LINE
  5
EA5
330
1E
100
AcDbEntity
  8
1
100
AcDbLine
 10
6.426181102362205
 20
4.452755905511811
 30
0.0
 11
6.407480314960629
 21
4.43011811023622
 31
0.0
  0
LINE
  5
EA6
330
1E
100
AcDbEntity
  8
1
100
AcDbLine
 10
6.407480314960629
 20
4.43011811023622
 30
0.0
 11
6.395669291338583
 21
4.403543307086614
 31
0.0
  0
LINE
  5
EA7
330
1E
100
AcDbEntity
  8
1
100
AcDbLine
 10
6.395669291338583
 20
4.403543307086614
 30
0.0
 11
6.391732283464566
 21
4.374015748031496
 31
0.0
  0
LINE
  5
EA8
330
1E
100
AcDbEntity
  8
1
100
AcDbLine
 10
6.407480314960629
 20
4.317913385826772
 30
0.0
 11
6.426181102362205
 21
4.295275590551181
 31
0.0
  0
LINE
  5
EA9
330
1E
100
AcDbEntity
  8
1
100
AcDbLine
 10
6.426181102362205
 20
4.295275590551181
 30
0.0
 11
6.449803149606299
 21
4.277559055118109
 31
0.0
  0
LINE
  5
EAA
330
1E
100
AcDbEntity
  8
1
100
AcDbLine
 10
6.449803149606299
 20
4.277559055118109
 30
0.0
 11
6.478346456692914
 21
4.26771653543307
 31
0.0
  0
LINE
  5
EAB
330
1E
100
AcDbEntity
  8
1
100
AcDbLine
 10
6.478346456692914
 20
4.26771653543307
 30
0.0
 11
6.507874015748031
 21
4.265748031496062
 31
0.0
  0
LINE
  5
EAC
330
1E
100
AcDbEntity
  8
1
100
AcDbLine
 10
6.507874015748031
 20
4.265748031496062
 30
0.0
 11
6.536417322834646
 21
4.271653543307087
 31
0.0
  0
LINE
  5
EAD
330
1E
100
AcDbEntity
  8
1
100
AcDbLine
 10
6.536417322834646
 20
4.271653543307087
 30
0.0
 11
6.562007874015748
 21
4.28543307086614
 31
0.0
  0
LINE
  5
EAE
330
1E
100
AcDbEntity
  8
1
100
AcDbLine
 10
6.562007874015748
 20
4.28543307086614
 30
0.0
 11
6.583661417322835
 21
4.306102362204724
 31
0.0
  0
LINE
  5
EAF
330
1E
100
AcDbEntity
  8
1
100
AcDbLine
 10
6.583661417322835
 20
4.306102362204724
 30
0.0
 11
6.599409448818898
 21
4.330708661417322
 31
0.0
  0
LINE
  5
EB0
330
1E
100
AcDbEntity
  8
1
100
AcDbLine
 10
6.599409448818898
 20
4.330708661417322
 30
0.0
 11
6.607283464566929
 21
4.359251968503937
 31
0.0
  0
LINE
  5
EB1
330
1E
100
AcDbEntity
  8
1
100
AcDbLine
 10
6.607283464566929
 20
4.359251968503937
 30
0.0
 11
6.607283464566929
 21
4.388779527559055
 31
0.0
  0
LINE
  5
EB2
330
1E
100
AcDbEntity
  8
1
100
AcDbLine
 10
6.607283464566929
 20
4.388779527559055
 30
0.0
 11
6.599409448818898
 21
4.417322834645668
 31
0.0
  0
LINE
  5
EB3
330
1E
100
AcDbEntity
  8
1
100
AcDbLine
 10
6.599409448818898
 20
4.417322834645668
 30
0.0
 11
6.583661417322835
 21
4.441929133858266
 31
0.0
  0
LINE
  5
EB4
330
1E
100
AcDbEntity
  8
1
100
AcDbLine
 10
6.583661417322835
 20
4.441929133858266
 30
0.0
 11
6.562007874015748
 21
4.46259842519685
 31
0.0
  0
LINE
  5
EB5
330
1E
100
AcDbEntity
  8
1
100
AcDbLine
 10
6.562007874015748
 20
4.46259842519685
 30
0.0
 11
6.536417322834646
 21
4.476377952755905
 31
0.0
  0
LINE
  5
EB6
330
1E
100
AcDbEntity
  8
1
100
AcDbLine
 10
6.536417322834646
 20
4.476377952755905
 30
0.0
 11
6.507874015748031
 21
4.482283464566929
 31
0.0
  0
LINE
  5
EB7
330
1E
100
AcDbEntity
  8
1
100
AcDbLine
 10
6.391732283464566
 20
4.374015748031496
 30
0.0
 11
6.395669291338583
 21
4.344488188976377
 31
0.0
  0
LINE
  5
EB8
330
1E
100
AcDbEntity
  8
1
100
AcDbLine
 10
6.395669291338583
 20
4.344488188976377
 30
0.0
 11
6.407480314960629
 21
4.317913385826772
 31
0.0
  0
LINE
  5
EB9
330
1E
100
AcDbEntity
  8
1
100
AcDbLine
 10
18.31200787401574
 20
3.71259842519685
 30
0.0
 11
18.30708661417323
 21
3.71259842519685
 31
0.0
  0
LINE
  5
EBA
330
1E
100
AcDbEntity
  8
1
100
AcDbLine
 10
18.30708661417323
 20
3.71259842519685
 30
0.0
 11
18.29232283464567
 21
3.71259842519685
 31
0.0
  0
LINE
  5
EBB
330
1E
100
AcDbEntity
  8
1
100
AcDbLine
 10
18.29232283464567
 20
3.71259842519685
 30
0.0
 11
18.26771653543307
 21
3.71259842519685
 31
0.0
  0
LINE
  5
EBC
330
1E
100
AcDbEntity
  8
1
100
AcDbLine
 10
18.26771653543307
 20
3.71259842519685
 30
0.0
 11
18.23720472440944
 21
3.71259842519685
 31
0.0
  0
LINE
  5
EBD
330
1E
100
AcDbEntity
  8
1
100
AcDbLine
 10
18.23720472440944
 20
3.71259842519685
 30
0.0
 11
18.2007874015748
 21
3.71259842519685
 31
0.0
  0
LINE
  5
EBE
330
1E
100
AcDbEntity
  8
1
100
AcDbLine
 10
18.2007874015748
 20
3.71259842519685
 30
0.0
 11
18.16141732283464
 21
3.71259842519685
 31
0.0
  0
LINE
  5
EBF
330
1E
100
AcDbEntity
  8
1
100
AcDbLine
 10
18.16141732283464
 20
3.581692913385826
 30
0.0
 11
18.16141732283464
 21
3.566929133858267
 31
0.0
  0
LINE
  5
EC0
330
1E
100
AcDbEntity
  8
1
100
AcDbLine
 10
18.16141732283464
 20
3.566929133858267
 30
0.0
 11
18.16141732283464
 21
3.562007874015747
 31
0.0
  0
LINE
  5
EC1
330
1E
100
AcDbEntity
  8
1
100
AcDbLine
 10
18.16141732283464
 20
3.71259842519685
 30
0.0
 11
18.16141732283464
 21
3.674212598425196
 31
0.0
  0
LINE
  5
EC2
330
1E
100
AcDbEntity
  8
1
100
AcDbLine
 10
18.16141732283464
 20
3.674212598425196
 30
0.0
 11
18.16141732283464
 21
3.637795275590551
 31
0.0
  0
LINE
  5
EC3
330
1E
100
AcDbEntity
  8
1
100
AcDbLine
 10
18.16141732283464
 20
3.637795275590551
 30
0.0
 11
18.16141732283464
 21
3.606299212598425
 31
0.0
  0
LINE
  5
EC4
330
1E
100
AcDbEntity
  8
1
100
AcDbLine
 10
18.16141732283464
 20
3.606299212598425
 30
0.0
 11
18.16141732283464
 21
3.581692913385826
 31
0.0
  0
LINE
  5
EC5
330
1E
100
AcDbEntity
  8
1
100
AcDbLine
 10
0.8385826771653555
 20
3.566929133858267
 30
0.0
 11
0.8385826771653555
 21
3.581692913385826
 31
0.0
  0
LINE
  5
EC6
330
1E
100
AcDbEntity
  8
1
100
AcDbLine
 10
0.8385826771653555
 20
3.581692913385826
 30
0.0
 11
0.8385826771653555
 21
3.606299212598425
 31
0.0
  0
LINE
  5
EC7
330
1E
100
AcDbEntity
  8
1
100
AcDbLine
 10
0.8385826771653555
 20
3.606299212598425
 30
0.0
 11
0.8385826771653555
 21
3.637795275590551
 31
0.0
  0
LINE
  5
EC8
330
1E
100
AcDbEntity
  8
1
100
AcDbLine
 10
0.8385826771653555
 20
3.637795275590551
 30
0.0
 11
0.8385826771653555
 21
3.674212598425196
 31
0.0
  0
LINE
  5
EC9
330
1E
100
AcDbEntity
  8
1
100
AcDbLine
 10
0.8385826771653555
 20
3.674212598425196
 30
0.0
 11
0.8385826771653555
 21
3.71259842519685
 31
0.0
  0
LINE
  5
ECA
330
1E
100
AcDbEntity
  8
1
100
AcDbLine
 10
0.8385826771653555
 20
3.71259842519685
 30
0.0
 11
0.7992125984251981
 21
3.71259842519685
 31
0.0
  0
LINE
  5
ECB
330
1E
100
AcDbEntity
  8
1
100
AcDbLine
 10
0.7992125984251981
 20
3.71259842519685
 30
0.0
 11
0.7627952755905519
 21
3.71259842519685
 31
0.0
  0
LINE
  5
ECC
330
1E
100
AcDbEntity
  8
1
100
AcDbLine
 10
0.7627952755905519
 20
3.71259842519685
 30
0.0
 11
0.7312992125984259
 21
3.71259842519685
 31
0.0
  0
LINE
  5
ECD
330
1E
100
AcDbEntity
  8
1
100
AcDbLine
 10
0.7312992125984259
 20
3.71259842519685
 30
0.0
 11
0.7076771653543315
 21
3.71259842519685
 31
0.0
  0
LINE
  5
ECE
330
1E
100
AcDbEntity
  8
1
100
AcDbLine
 10
0.7076771653543315
 20
3.71259842519685
 30
0.0
 11
0.6929133858267722
 21
3.71259842519685
 31
0.0
  0
LINE
  5
ECF
330
1E
100
AcDbEntity
  8
1
100
AcDbLine
 10
0.6929133858267722
 20
3.71259842519685
 30
0.0
 11
0.6870078740157482
 21
3.71259842519685
 31
0.0
  0
LINE
  5
ED0
330
1E
100
AcDbEntity
  8
1
100
AcDbLine
 10
0.8385826771653555
 20
28.56200787401574
 30
0.0
 11
0.8385826771653555
 21
3.71259842519685
 31
0.0
  0
LINE
  5
ED1
330
1E
100
AcDbEntity
  8
1
100
AcDbLine
 10
0.8385826771653555
 20
3.71259842519685
 30
0.0
 11
18.16141732283464
 21
3.71259842519685
 31
0.0
  0
LINE
  5
ED2
330
1E
100
AcDbEntity
  8
1
100
AcDbLine
 10
18.16141732283464
 20
3.71259842519685
 30
0.0
 11
18.16141732283464
 21
28.56200787401574
 31
0.0
  0
LINE
  5
ED3
330
1E
100
AcDbEntity
  8
1
100
AcDbLine
 10
6.339566929133859
 20
10.60531496062992
 30
0.0
 11
6.320866141732283
 21
10.57086614173228
 31
0.0
  0
LINE
  5
ED4
330
1E
100
AcDbEntity
  8
1
100
AcDbLine
 10
6.320866141732283
 20
10.57086614173228
 30
0.0
 11
6.309055118110237
 21
10.53346456692913
 31
0.0
  0
LINE
  5
ED5
330
1E
100
AcDbEntity
  8
1
100
AcDbLine
 10
6.309055118110237
 20
10.53346456692913
 30
0.0
 11
6.30511811023622
 21
10.49409448818897
 31
0.0
  0
LINE
  5
ED6
330
1E
100
AcDbEntity
  8
1
100
AcDbLine
 10
6.686023622047244
 20
10.43602362204724
 30
0.0
 11
6.693897637795275
 21
10.47440944881889
 31
0.0
  0
LINE
  5
ED7
330
1E
100
AcDbEntity
  8
1
100
AcDbLine
 10
6.693897637795275
 20
10.47440944881889
 30
0.0
 11
6.693897637795275
 21
10.51377952755905
 31
0.0
  0
LINE
  5
ED8
330
1E
100
AcDbEntity
  8
1
100
AcDbLine
 10
6.693897637795275
 20
10.51377952755905
 30
0.0
 11
6.686023622047244
 21
10.5521653543307
 31
0.0
  0
LINE
  5
ED9
330
1E
100
AcDbEntity
  8
1
100
AcDbLine
 10
6.686023622047244
 20
10.5521653543307
 30
0.0
 11
6.670275590551181
 21
10.58858267716535
 31
0.0
  0
LINE
  5
EDA
330
1E
100
AcDbEntity
  8
1
100
AcDbLine
 10
6.670275590551181
 20
10.58858267716535
 30
0.0
 11
6.64763779527559
 21
10.62106299212598
 31
0.0
  0
LINE
  5
EDB
330
1E
100
AcDbEntity
  8
1
100
AcDbLine
 10
6.64763779527559
 20
10.62106299212598
 30
0.0
 11
6.619094488188977
 21
10.64862204724409
 31
0.0
  0
LINE
  5
EDC
330
1E
100
AcDbEntity
  8
1
100
AcDbLine
 10
6.619094488188977
 20
10.64862204724409
 30
0.0
 11
6.585629921259842
 21
10.66929133858267
 31
0.0
  0
LINE
  5
EDD
330
1E
100
AcDbEntity
  8
1
100
AcDbLine
 10
6.585629921259842
 20
10.66929133858267
 30
0.0
 11
6.549212598425198
 21
10.68307086614173
 31
0.0
  0
LINE
  5
EDE
330
1E
100
AcDbEntity
  8
1
100
AcDbLine
 10
6.549212598425198
 20
10.68307086614173
 30
0.0
 11
6.50984251968504
 21
10.68897637795275
 31
0.0
  0
LINE
  5
EDF
330
1E
100
AcDbEntity
  8
1
100
AcDbLine
 10
6.50984251968504
 20
10.68897637795275
 30
0.0
 11
6.470472440944883
 21
10.68700787401574
 31
0.0
  0
LINE
  5
EE0
330
1E
100
AcDbEntity
  8
1
100
AcDbLine
 10
6.470472440944883
 20
10.68700787401574
 30
0.0
 11
6.432086614173229
 21
10.6771653543307
 31
0.0
  0
LINE
  5
EE1
330
1E
100
AcDbEntity
  8
1
100
AcDbLine
 10
6.432086614173229
 20
10.6771653543307
 30
0.0
 11
6.396653543307087
 21
10.65944881889763
 31
0.0
  0
LINE
  5
EE2
330
1E
100
AcDbEntity
  8
1
100
AcDbLine
 10
6.396653543307087
 20
10.65944881889763
 30
0.0
 11
6.366141732283464
 21
10.63582677165354
 31
0.0
  0
LINE
  5
EE3
330
1E
100
AcDbEntity
  8
1
100
AcDbLine
 10
6.366141732283464
 20
10.63582677165354
 30
0.0
 11
6.339566929133859
 21
10.60531496062992
 31
0.0
  0
LINE
  5
EE4
330
1E
100
AcDbEntity
  8
1
100
AcDbLine
 10
6.30511811023622
 20
10.49409448818897
 30
0.0
 11
6.309055118110237
 21
10.45472440944881
 31
0.0
  0
LINE
  5
EE5
330
1E
100
AcDbEntity
  8
1
100
AcDbLine
 10
6.309055118110237
 20
10.45472440944881
 30
0.0
 11
6.320866141732283
 21
10.41732283464567
 31
0.0
  0
LINE
  5
EE6
330
1E
100
AcDbEntity
  8
1
100
AcDbLine
 10
6.320866141732283
 20
10.41732283464567
 30
0.0
 11
6.339566929133859
 21
10.38287401574803
 31
0.0
  0
LINE
  5
EE7
330
1E
100
AcDbEntity
  8
1
100
AcDbLine
 10
6.339566929133859
 20
10.38287401574803
 30
0.0
 11
6.366141732283464
 21
10.35236220472441
 31
0.0
  0
LINE
  5
EE8
330
1E
100
AcDbEntity
  8
1
100
AcDbLine
 10
6.366141732283464
 20
10.35236220472441
 30
0.0
 11
6.396653543307087
 21
10.32874015748031
 31
0.0
  0
LINE
  5
EE9
330
1E
100
AcDbEntity
  8
1
100
AcDbLine
 10
6.396653543307087
 20
10.32874015748031
 30
0.0
 11
6.432086614173229
 21
10.31102362204724
 31
0.0
  0
LINE
  5
EEA
330
1E
100
AcDbEntity
  8
1
100
AcDbLine
 10
6.432086614173229
 20
10.31102362204724
 30
0.0
 11
6.470472440944883
 21
10.3011811023622
 31
0.0
  0
LINE
  5
EEB
330
1E
100
AcDbEntity
  8
1
100
AcDbLine
 10
6.470472440944883
 20
10.3011811023622
 30
0.0
 11
6.50984251968504
 21
10.29921259842519
 31
0.0
  0
LINE
  5
EEC
330
1E
100
AcDbEntity
  8
1
100
AcDbLine
 10
6.50984251968504
 20
10.29921259842519
 30
0.0
 11
6.549212598425198
 21
10.30511811023621
 31
0.0
  0
LINE
  5
EED
330
1E
100
AcDbEntity
  8
1
100
AcDbLine
 10
6.549212598425198
 20
10.30511811023621
 30
0.0
 11
6.585629921259842
 21
10.31889763779527
 31
0.0
  0
LINE
  5
EEE
330
1E
100
AcDbEntity
  8
1
100
AcDbLine
 10
6.585629921259842
 20
10.31889763779527
 30
0.0
 11
6.619094488188977
 21
10.33956692913385
 31
0.0
  0
LINE
  5
EEF
330
1E
100
AcDbEntity
  8
1
100
AcDbLine
 10
6.619094488188977
 20
10.33956692913385
 30
0.0
 11
6.64763779527559
 21
10.36712598425196
 31
0.0
  0
LINE
  5
EF0
330
1E
100
AcDbEntity
  8
1
100
AcDbLine
 10
6.64763779527559
 20
10.36712598425196
 30
0.0
 11
6.670275590551181
 21
10.39960629921259
 31
0.0
  0
LINE
  5
EF1
330
1E
100
AcDbEntity
  8
1
100
AcDbLine
 10
6.670275590551181
 20
10.39960629921259
 30
0.0
 11
6.686023622047244
 21
10.43602362204724
 31
0.0
  0
LINE
  5
EF2
330
1E
100
AcDbEntity
  8
1
100
AcDbLine
 10
12.58562992125984
 20
10.66929133858267
 30
0.0
 11
12.54921259842519
 21
10.68307086614173
 31
0.0
  0
LINE
  5
EF3
330
1E
100
AcDbEntity
  8
1
100
AcDbLine
 10
12.54921259842519
 20
10.68307086614173
 30
0.0
 11
12.50984251968504
 21
10.68897637795275
 31
0.0
  0
LINE
  5
EF4
330
1E
100
AcDbEntity
  8
1
100
AcDbLine
 10
12.50984251968504
 20
10.68897637795275
 30
0.0
 11
12.47047244094488
 21
10.68700787401574
 31
0.0
  0
LINE
  5
EF5
330
1E
100
AcDbEntity
  8
1
100
AcDbLine
 10
12.47047244094488
 20
10.68700787401574
 30
0.0
 11
12.43208661417323
 21
10.6771653543307
 31
0.0
  0
LINE
  5
EF6
330
1E
100
AcDbEntity
  8
1
100
AcDbLine
 10
12.43208661417323
 20
10.6771653543307
 30
0.0
 11
12.39665354330709
 21
10.65944881889763
 31
0.0
  0
LINE
  5
EF7
330
1E
100
AcDbEntity
  8
1
100
AcDbLine
 10
12.39665354330709
 20
10.65944881889763
 30
0.0
 11
12.36614173228346
 21
10.63582677165354
 31
0.0
  0
LINE
  5
EF8
330
1E
100
AcDbEntity
  8
1
100
AcDbLine
 10
12.36614173228346
 20
10.63582677165354
 30
0.0
 11
12.33956692913386
 21
10.60531496062992
 31
0.0
  0
LINE
  5
EF9
330
1E
100
AcDbEntity
  8
1
100
AcDbLine
 10
12.33956692913386
 20
10.60531496062992
 30
0.0
 11
12.32086614173228
 21
10.57086614173228
 31
0.0
  0
LINE
  5
EFA
330
1E
100
AcDbEntity
  8
1
100
AcDbLine
 10
12.32086614173228
 20
10.57086614173228
 30
0.0
 11
12.30905511811023
 21
10.53346456692913
 31
0.0
  0
LINE
  5
EFB
330
1E
100
AcDbEntity
  8
1
100
AcDbLine
 10
12.30905511811023
 20
10.53346456692913
 30
0.0
 11
12.30511811023622
 21
10.49409448818897
 31
0.0
  0
LINE
  5
EFC
330
1E
100
AcDbEntity
  8
1
100
AcDbLine
 10
12.43208661417323
 20
10.31102362204724
 30
0.0
 11
12.47047244094488
 21
10.3011811023622
 31
0.0
  0
LINE
  5
EFD
330
1E
100
AcDbEntity
  8
1
100
AcDbLine
 10
12.47047244094488
 20
10.3011811023622
 30
0.0
 11
12.50984251968504
 21
10.29921259842519
 31
0.0
  0
LINE
  5
EFE
330
1E
100
AcDbEntity
  8
1
100
AcDbLine
 10
12.50984251968504
 20
10.29921259842519
 30
0.0
 11
12.54921259842519
 21
10.30511811023621
 31
0.0
  0
LINE
  5
EFF
330
1E
100
AcDbEntity
  8
1
100
AcDbLine
 10
12.54921259842519
 20
10.30511811023621
 30
0.0
 11
12.58562992125984
 21
10.31889763779527
 31
0.0
  0
LINE
  5
F00
330
1E
100
AcDbEntity
  8
1
100
AcDbLine
 10
12.58562992125984
 20
10.31889763779527
 30
0.0
 11
12.61909448818897
 21
10.33956692913385
 31
0.0
  0
LINE
  5
F01
330
1E
100
AcDbEntity
  8
1
100
AcDbLine
 10
12.61909448818897
 20
10.33956692913385
 30
0.0
 11
12.64763779527559
 21
10.36712598425196
 31
0.0
  0
LINE
  5
F02
330
1E
100
AcDbEntity
  8
1
100
AcDbLine
 10
12.64763779527559
 20
10.36712598425196
 30
0.0
 11
12.67027559055118
 21
10.39960629921259
 31
0.0
  0
LINE
  5
F03
330
1E
100
AcDbEntity
  8
1
100
AcDbLine
 10
12.67027559055118
 20
10.39960629921259
 30
0.0
 11
12.68602362204724
 21
10.43602362204724
 31
0.0
  0
LINE
  5
F04
330
1E
100
AcDbEntity
  8
1
100
AcDbLine
 10
12.68602362204724
 20
10.43602362204724
 30
0.0
 11
12.69389763779527
 21
10.47440944881889
 31
0.0
  0
LINE
  5
F05
330
1E
100
AcDbEntity
  8
1
100
AcDbLine
 10
12.69389763779527
 20
10.47440944881889
 30
0.0
 11
12.69389763779527
 21
10.51377952755905
 31
0.0
  0
LINE
  5
F06
330
1E
100
AcDbEntity
  8
1
100
AcDbLine
 10
12.69389763779527
 20
10.51377952755905
 30
0.0
 11
12.68602362204724
 21
10.5521653543307
 31
0.0
  0
LINE
  5
F07
330
1E
100
AcDbEntity
  8
1
100
AcDbLine
 10
12.68602362204724
 20
10.5521653543307
 30
0.0
 11
12.67027559055118
 21
10.58858267716535
 31
0.0
  0
LINE
  5
F08
330
1E
100
AcDbEntity
  8
1
100
AcDbLine
 10
12.67027559055118
 20
10.58858267716535
 30
0.0
 11
12.64763779527559
 21
10.62106299212598
 31
0.0
  0
LINE
  5
F09
330
1E
100
AcDbEntity
  8
1
100
AcDbLine
 10
12.64763779527559
 20
10.62106299212598
 30
0.0
 11
12.61909448818897
 21
10.64862204724409
 31
0.0
  0
LINE
  5
F0A
330
1E
100
AcDbEntity
  8
1
100
AcDbLine
 10
12.61909448818897
 20
10.64862204724409
 30
0.0
 11
12.58562992125984
 21
10.66929133858267
 31
0.0
  0
LINE
  5
F0B
330
1E
100
AcDbEntity
  8
1
100
AcDbLine
 10
12.30511811023622
 20
10.49409448818897
 30
0.0
 11
12.30905511811023
 21
10.45472440944881
 31
0.0
  0
LINE
  5
F0C
330
1E
100
AcDbEntity
  8
1
100
AcDbLine
 10
12.30905511811023
 20
10.45472440944881
 30
0.0
 11
12.32086614173228
 21
10.41732283464567
 31
0.0
  0
LINE
  5
F0D
330
1E
100
AcDbEntity
  8
1
100
AcDbLine
 10
12.32086614173228
 20
10.41732283464567
 30
0.0
 11
12.33956692913386
 21
10.38287401574803
 31
0.0
  0
LINE
  5
F0E
330
1E
100
AcDbEntity
  8
1
100
AcDbLine
 10
12.33956692913386
 20
10.38287401574803
 30
0.0
 11
12.36614173228346
 21
10.35236220472441
 31
0.0
  0
LINE
  5
F0F
330
1E
100
AcDbEntity
  8
1
100
AcDbLine
 10
12.36614173228346
 20
10.35236220472441
 30
0.0
 11
12.39665354330709
 21
10.32874015748031
 31
0.0
  0
LINE
  5
F10
330
1E
100
AcDbEntity
  8
1
100
AcDbLine
 10
12.39665354330709
 20
10.32874015748031
 30
0.0
 11
12.43208661417323
 21
10.31102362204724
 31
0.0
  0
LINE
  5
F11
330
1E
100
AcDbEntity
  8
1
100
AcDbLine
 10
6.339566929133859
 20
16.7253937007874
 30
0.0
 11
6.320866141732283
 21
16.69094488188976
 31
0.0
  0
LINE
  5
F12
330
1E
100
AcDbEntity
  8
1
100
AcDbLine
 10
6.320866141732283
 20
16.69094488188976
 30
0.0
 11
6.309055118110237
 21
16.65354330708661
 31
0.0
  0
LINE
  5
F13
330
1E
100
AcDbEntity
  8
1
100
AcDbLine
 10
6.309055118110237
 20
16.65354330708661
 30
0.0
 11
6.30511811023622
 21
16.61417322834645
 31
0.0
  0
LINE
  5
F14
330
1E
100
AcDbEntity
  8
1
100
AcDbLine
 10
6.686023622047244
 20
16.55610236220472
 30
0.0
 11
6.693897637795275
 21
16.59448818897637
 31
0.0
  0
LINE
  5
F15
330
1E
100
AcDbEntity
  8
1
100
AcDbLine
 10
6.693897637795275
 20
16.59448818897637
 30
0.0
 11
6.693897637795275
 21
16.63385826771653
 31
0.0
  0
LINE
  5
F16
330
1E
100
AcDbEntity
  8
1
100
AcDbLine
 10
6.693897637795275
 20
16.63385826771653
 30
0.0
 11
6.686023622047244
 21
16.67224409448818
 31
0.0
  0
LINE
  5
F17
330
1E
100
AcDbEntity
  8
1
100
AcDbLine
 10
6.686023622047244
 20
16.67224409448818
 30
0.0
 11
6.670275590551181
 21
16.70866141732283
 31
0.0
  0
LINE
  5
F18
330
1E
100
AcDbEntity
  8
1
100
AcDbLine
 10
6.670275590551181
 20
16.70866141732283
 30
0.0
 11
6.64763779527559
 21
16.74114173228346
 31
0.0
  0
LINE
  5
F19
330
1E
100
AcDbEntity
  8
1
100
AcDbLine
 10
6.64763779527559
 20
16.74114173228346
 30
0.0
 11
6.619094488188977
 21
16.76870078740157
 31
0.0
  0
LINE
  5
F1A
330
1E
100
AcDbEntity
  8
1
100
AcDbLine
 10
6.619094488188977
 20
16.76870078740157
 30
0.0
 11
6.585629921259842
 21
16.78937007874016
 31
0.0
  0
LINE
  5
F1B
330
1E
100
AcDbEntity
  8
1
100
AcDbLine
 10
6.585629921259842
 20
16.78937007874016
 30
0.0
 11
6.549212598425198
 21
16.80314960629921
 31
0.0
  0
LINE
  5
F1C
330
1E
100
AcDbEntity
  8
1
100
AcDbLine
 10
6.549212598425198
 20
16.80314960629921
 30
0.0
 11
6.50984251968504
 21
16.80905511811023
 31
0.0
  0
LINE
  5
F1D
330
1E
100
AcDbEntity
  8
1
100
AcDbLine
 10
6.50984251968504
 20
16.80905511811023
 30
0.0
 11
6.470472440944883
 21
16.80708661417322
 31
0.0
  0
LINE
  5
F1E
330
1E
100
AcDbEntity
  8
1
100
AcDbLine
 10
6.470472440944883
 20
16.80708661417322
 30
0.0
 11
6.432086614173229
 21
16.79724409448819
 31
0.0
  0
LINE
  5
F1F
330
1E
100
AcDbEntity
  8
1
100
AcDbLine
 10
6.432086614173229
 20
16.79724409448819
 30
0.0
 11
6.396653543307087
 21
16.77952755905511
 31
0.0
  0
LINE
  5
F20
330
1E
100
AcDbEntity
  8
1
100
AcDbLine
 10
6.396653543307087
 20
16.77952755905511
 30
0.0
 11
6.366141732283464
 21
16.75590551181102
 31
0.0
  0
LINE
  5
F21
330
1E
100
AcDbEntity
  8
1
100
AcDbLine
 10
6.366141732283464
 20
16.75590551181102
 30
0.0
 11
6.339566929133859
 21
16.7253937007874
 31
0.0
  0
LINE
  5
F22
330
1E
100
AcDbEntity
  8
1
100
AcDbLine
 10
6.30511811023622
 20
16.61417322834645
 30
0.0
 11
6.309055118110237
 21
16.5748031496063
 31
0.0
  0
LINE
  5
F23
330
1E
100
AcDbEntity
  8
1
100
AcDbLine
 10
6.309055118110237
 20
16.5748031496063
 30
0.0
 11
6.320866141732283
 21
16.53740157480314
 31
0.0
  0
LINE
  5
F24
330
1E
100
AcDbEntity
  8
1
100
AcDbLine
 10
6.320866141732283
 20
16.53740157480314
 30
0.0
 11
6.339566929133859
 21
16.50295275590551
 31
0.0
  0
LINE
  5
F25
330
1E
100
AcDbEntity
  8
1
100
AcDbLine
 10
6.339566929133859
 20
16.50295275590551
 30
0.0
 11
6.366141732283464
 21
16.47244094488188
 31
0.0
  0
LINE
  5
F26
330
1E
100
AcDbEntity
  8
1
100
AcDbLine
 10
6.366141732283464
 20
16.47244094488188
 30
0.0
 11
6.396653543307087
 21
16.44881889763779
 31
0.0
  0
LINE
  5
F27
330
1E
100
AcDbEntity
  8
1
100
AcDbLine
 10
6.396653543307087
 20
16.44881889763779
 30
0.0
 11
6.432086614173229
 21
16.43110236220472
 31
0.0
  0
LINE
  5
F28
330
1E
100
AcDbEntity
  8
1
100
AcDbLine
 10
6.432086614173229
 20
16.43110236220472
 30
0.0
 11
6.470472440944883
 21
16.42125984251968
 31
0.0
  0
LINE
  5
F29
330
1E
100
AcDbEntity
  8
1
100
AcDbLine
 10
6.470472440944883
 20
16.42125984251968
 30
0.0
 11
6.50984251968504
 21
16.41929133858267
 31
0.0
  0
LINE
  5
F2A
330
1E
100
AcDbEntity
  8
1
100
AcDbLine
 10
6.50984251968504
 20
16.41929133858267
 30
0.0
 11
6.549212598425198
 21
16.4251968503937
 31
0.0
  0
LINE
  5
F2B
330
1E
100
AcDbEntity
  8
1
100
AcDbLine
 10
6.549212598425198
 20
16.4251968503937
 30
0.0
 11
6.585629921259842
 21
16.43897637795275
 31
0.0
  0
LINE
  5
F2C
330
1E
100
AcDbEntity
  8
1
100
AcDbLine
 10
6.585629921259842
 20
16.43897637795275
 30
0.0
 11
6.619094488188977
 21
16.45964566929133
 31
0.0
  0
LINE
  5
F2D
330
1E
100
AcDbEntity
  8
1
100
AcDbLine
 10
6.619094488188977
 20
16.45964566929133
 30
0.0
 11
6.64763779527559
 21
16.48720472440944
 31
0.0
  0
LINE
  5
F2E
330
1E
100
AcDbEntity
  8
1
100
AcDbLine
 10
6.64763779527559
 20
16.48720472440944
 30
0.0
 11
6.670275590551181
 21
16.51968503937007
 31
0.0
  0
LINE
  5
F2F
330
1E
100
AcDbEntity
  8
1
100
AcDbLine
 10
6.670275590551181
 20
16.51968503937007
 30
0.0
 11
6.686023622047244
 21
16.55610236220472
 31
0.0
  0
LINE
  5
F30
330
1E
100
AcDbEntity
  8
1
100
AcDbLine
 10
12.58562992125984
 20
16.78937007874016
 30
0.0
 11
12.54921259842519
 21
16.80314960629921
 31
0.0
  0
LINE
  5
F31
330
1E
100
AcDbEntity
  8
1
100
AcDbLine
 10
12.54921259842519
 20
16.80314960629921
 30
0.0
 11
12.50984251968504
 21
16.80905511811023
 31
0.0
  0
LINE
  5
F32
330
1E
100
AcDbEntity
  8
1
100
AcDbLine
 10
12.50984251968504
 20
16.80905511811023
 30
0.0
 11
12.47047244094488
 21
16.80708661417322
 31
0.0
  0
LINE
  5
F33
330
1E
100
AcDbEntity
  8
1
100
AcDbLine
 10
12.47047244094488
 20
16.80708661417322
 30
0.0
 11
12.43208661417323
 21
16.79724409448819
 31
0.0
  0
LINE
  5
F34
330
1E
100
AcDbEntity
  8
1
100
AcDbLine
 10
12.43208661417323
 20
16.79724409448819
 30
0.0
 11
12.39665354330709
 21
16.77952755905511
 31
0.0
  0
LINE
  5
F35
330
1E
100
AcDbEntity
  8
1
100
AcDbLine
 10
12.39665354330709
 20
16.77952755905511
 30
0.0
 11
12.36614173228346
 21
16.75590551181102
 31
0.0
  0
LINE
  5
F36
330
1E
100
AcDbEntity
  8
1
100
AcDbLine
 10
12.36614173228346
 20
16.75590551181102
 30
0.0
 11
12.33956692913386
 21
16.7253937007874
 31
0.0
  0
LINE
  5
F37
330
1E
100
AcDbEntity
  8
1
100
AcDbLine
 10
12.33956692913386
 20
16.7253937007874
 30
0.0
 11
12.32086614173228
 21
16.69094488188976
 31
0.0
  0
LINE
  5
F38
330
1E
100
AcDbEntity
  8
1
100
AcDbLine
 10
12.32086614173228
 20
16.69094488188976
 30
0.0
 11
12.30905511811023
 21
16.65354330708661
 31
0.0
  0
LINE
  5
F39
330
1E
100
AcDbEntity
  8
1
100
AcDbLine
 10
12.30905511811023
 20
16.65354330708661
 30
0.0
 11
12.30511811023622
 21
16.61417322834645
 31
0.0
  0
LINE
  5
F3A
330
1E
100
AcDbEntity
  8
1
100
AcDbLine
 10
12.43208661417323
 20
16.43110236220472
 30
0.0
 11
12.47047244094488
 21
16.42125984251968
 31
0.0
  0
LINE
  5
F3B
330
1E
100
AcDbEntity
  8
1
100
AcDbLine
 10
12.47047244094488
 20
16.42125984251968
 30
0.0
 11
12.50984251968504
 21
16.41929133858267
 31
0.0
  0
LINE
  5
F3C
330
1E
100
AcDbEntity
  8
1
100
AcDbLine
 10
12.50984251968504
 20
16.41929133858267
 30
0.0
 11
12.54921259842519
 21
16.4251968503937
 31
0.0
  0
LINE
  5
F3D
330
1E
100
AcDbEntity
  8
1
100
AcDbLine
 10
12.54921259842519
 20
16.4251968503937
 30
0.0
 11
12.58562992125984
 21
16.43897637795275
 31
0.0
  0
LINE
  5
F3E
330
1E
100
AcDbEntity
  8
1
100
AcDbLine
 10
12.58562992125984
 20
16.43897637795275
 30
0.0
 11
12.61909448818897
 21
16.45964566929133
 31
0.0
  0
LINE
  5
F3F
330
1E
100
AcDbEntity
  8
1
100
AcDbLine
 10
12.61909448818897
 20
16.45964566929133
 30
0.0
 11
12.64763779527559
 21
16.48720472440944
 31
0.0
  0
LINE
  5
F40
330
1E
100
AcDbEntity
  8
1
100
AcDbLine
 10
12.64763779527559
 20
16.48720472440944
 30
0.0
 11
12.67027559055118
 21
16.51968503937007
 31
0.0
  0
LINE
  5
F41
330
1E
100
AcDbEntity
  8
1
100
AcDbLine
 10
12.67027559055118
 20
16.51968503937007
 30
0.0
 11
12.68602362204724
 21
16.55610236220472
 31
0.0
  0
LINE
  5
F42
330
1E
100
AcDbEntity
  8
1
100
AcDbLine
 10
12.68602362204724
 20
16.55610236220472
 30
0.0
 11
12.69389763779527
 21
16.59448818897637
 31
0.0
  0
LINE
  5
F43
330
1E
100
AcDbEntity
  8
1
100
AcDbLine
 10
12.69389763779527
 20
16.59448818897637
 30
0.0
 11
12.69389763779527
 21
16.63385826771653
 31
0.0
  0
LINE
  5
F44
330
1E
100
AcDbEntity
  8
1
100
AcDbLine
 10
12.69389763779527
 20
16.63385826771653
 30
0.0
 11
12.68602362204724
 21
16.67224409448818
 31
0.0
  0
LINE
  5
F45
330
1E
100
AcDbEntity
  8
1
100
AcDbLine
 10
12.68602362204724
 20
16.67224409448818
 30
0.0
 11
12.67027559055118
 21
16.70866141732283
 31
0.0
  0
LINE
  5
F46
330
1E
100
AcDbEntity
  8
1
100
AcDbLine
 10
12.67027559055118
 20
16.70866141732283
 30
0.0
 11
12.64763779527559
 21
16.74114173228346
 31
0.0
  0
LINE
  5
F47
330
1E
100
AcDbEntity
  8
1
100
AcDbLine
 10
12.64763779527559
 20
16.74114173228346
 30
0.0
 11
12.61909448818897
 21
16.76870078740157
 31
0.0
  0
LINE
  5
F48
330
1E
100
AcDbEntity
  8
1
100
AcDbLine
 10
12.61909448818897
 20
16.76870078740157
 30
0.0
 11
12.58562992125984
 21
16.78937007874016
 31
0.0
  0
LINE
  5
F49
330
1E
100
AcDbEntity
  8
1
100
AcDbLine
 10
12.30511811023622
 20
16.61417322834645
 30
0.0
 11
12.30905511811023
 21
16.5748031496063
 31
0.0
  0
LINE
  5
F4A
330
1E
100
AcDbEntity
  8
1
100
AcDbLine
 10
12.30905511811023
 20
16.5748031496063
 30
0.0
 11
12.32086614173228
 21
16.53740157480314
 31
0.0
  0
LINE
  5
F4B
330
1E
100
AcDbEntity
  8
1
100
AcDbLine
 10
12.32086614173228
 20
16.53740157480314
 30
0.0
 11
12.33956692913386
 21
16.50295275590551
 31
0.0
  0
LINE
  5
F4C
330
1E
100
AcDbEntity
  8
1
100
AcDbLine
 10
12.33956692913386
 20
16.50295275590551
 30
0.0
 11
12.36614173228346
 21
16.47244094488188
 31
0.0
  0
LINE
  5
F4D
330
1E
100
AcDbEntity
  8
1
100
AcDbLine
 10
12.36614173228346
 20
16.47244094488188
 30
0.0
 11
12.39665354330709
 21
16.44881889763779
 31
0.0
  0
LINE
  5
F4E
330
1E
100
AcDbEntity
  8
1
100
AcDbLine
 10
12.39665354330709
 20
16.44881889763779
 30
0.0
 11
12.43208661417323
 21
16.43110236220472
 31
0.0
  0
LINE
  5
F4F
330
1E
100
AcDbEntity
  8
1
100
AcDbLine
 10
6.339566929133859
 20
4.48523622047244
 30
0.0
 11
6.320866141732283
 21
4.450787401574803
 31
0.0
  0
LINE
  5
F50
330
1E
100
AcDbEntity
  8
1
100
AcDbLine
 10
6.320866141732283
 20
4.450787401574803
 30
0.0
 11
6.309055118110237
 21
4.413385826771653
 31
0.0
  0
LINE
  5
F51
330
1E
100
AcDbEntity
  8
1
100
AcDbLine
 10
6.309055118110237
 20
4.413385826771653
 30
0.0
 11
6.30511811023622
 21
4.374015748031496
 31
0.0
  0
LINE
  5
F52
330
1E
100
AcDbEntity
  8
1
100
AcDbLine
 10
6.686023622047244
 20
4.315944881889762
 30
0.0
 11
6.693897637795275
 21
4.354330708661416
 31
0.0
  0
LINE
  5
F53
330
1E
100
AcDbEntity
  8
1
100
AcDbLine
 10
6.693897637795275
 20
4.354330708661416
 30
0.0
 11
6.693897637795275
 21
4.393700787401574
 31
0.0
  0
LINE
  5
F54
330
1E
100
AcDbEntity
  8
1
100
AcDbLine
 10
6.693897637795275
 20
4.393700787401574
 30
0.0
 11
6.686023622047244
 21
4.432086614173227
 31
0.0
  0
LINE
  5
F55
330
1E
100
AcDbEntity
  8
1
100
AcDbLine
 10
6.686023622047244
 20
4.432086614173227
 30
0.0
 11
6.670275590551181
 21
4.468503937007874
 31
0.0
  0
LINE
  5
F56
330
1E
100
AcDbEntity
  8
1
100
AcDbLine
 10
6.670275590551181
 20
4.468503937007874
 30
0.0
 11
6.64763779527559
 21
4.500984251968503
 31
0.0
  0
LINE
  5
F57
330
1E
100
AcDbEntity
  8
1
100
AcDbLine
 10
6.64763779527559
 20
4.500984251968503
 30
0.0
 11
6.619094488188977
 21
4.528543307086614
 31
0.0
  0
LINE
  5
F58
330
1E
100
AcDbEntity
  8
1
100
AcDbLine
 10
6.619094488188977
 20
4.528543307086614
 30
0.0
 11
6.585629921259842
 21
4.549212598425196
 31
0.0
  0
LINE
  5
F59
330
1E
100
AcDbEntity
  8
1
100
AcDbLine
 10
6.585629921259842
 20
4.549212598425196
 30
0.0
 11
6.549212598425198
 21
4.562992125984251
 31
0.0
  0
LINE
  5
F5A
330
1E
100
AcDbEntity
  8
1
100
AcDbLine
 10
6.549212598425198
 20
4.562992125984251
 30
0.0
 11
6.50984251968504
 21
4.568897637795275
 31
0.0
  0
LINE
  5
F5B
330
1E
100
AcDbEntity
  8
1
100
AcDbLine
 10
6.50984251968504
 20
4.568897637795275
 30
0.0
 11
6.470472440944883
 21
4.566929133858266
 31
0.0
  0
LINE
  5
F5C
330
1E
100
AcDbEntity
  8
1
100
AcDbLine
 10
6.470472440944883
 20
4.566929133858266
 30
0.0
 11
6.432086614173229
 21
4.557086614173227
 31
0.0
  0
LINE
  5
F5D
330
1E
100
AcDbEntity
  8
1
100
AcDbLine
 10
6.432086614173229
 20
4.557086614173227
 30
0.0
 11
6.396653543307087
 21
4.539370078740157
 31
0.0
  0
LINE
  5
F5E
330
1E
100
AcDbEntity
  8
1
100
AcDbLine
 10
6.396653543307087
 20
4.539370078740157
 30
0.0
 11
6.366141732283464
 21
4.515748031496062
 31
0.0
  0
LINE
  5
F5F
330
1E
100
AcDbEntity
  8
1
100
AcDbLine
 10
6.366141732283464
 20
4.515748031496062
 30
0.0
 11
6.339566929133859
 21
4.48523622047244
 31
0.0
  0
LINE
  5
F60
330
1E
100
AcDbEntity
  8
1
100
AcDbLine
 10
6.30511811023622
 20
4.374015748031496
 30
0.0
 11
6.309055118110237
 21
4.334645669291338
 31
0.0
  0
LINE
  5
F61
330
1E
100
AcDbEntity
  8
1
100
AcDbLine
 10
6.309055118110237
 20
4.334645669291338
 30
0.0
 11
6.320866141732283
 21
4.297244094488188
 31
0.0
  0
LINE
  5
F62
330
1E
100
AcDbEntity
  8
1
100
AcDbLine
 10
6.320866141732283
 20
4.297244094488188
 30
0.0
 11
6.339566929133859
 21
4.262795275590551
 31
0.0
  0
LINE
  5
F63
330
1E
100
AcDbEntity
  8
1
100
AcDbLine
 10
6.339566929133859
 20
4.262795275590551
 30
0.0
 11
6.366141732283464
 21
4.232283464566929
 31
0.0
  0
LINE
  5
F64
330
1E
100
AcDbEntity
  8
1
100
AcDbLine
 10
6.366141732283464
 20
4.232283464566929
 30
0.0
 11
6.396653543307087
 21
4.208661417322835
 31
0.0
  0
LINE
  5
F65
330
1E
100
AcDbEntity
  8
1
100
AcDbLine
 10
6.396653543307087
 20
4.208661417322835
 30
0.0
 11
6.432086614173229
 21
4.190944881889762
 31
0.0
  0
LINE
  5
F66
330
1E
100
AcDbEntity
  8
1
100
AcDbLine
 10
6.432086614173229
 20
4.190944881889762
 30
0.0
 11
6.470472440944883
 21
4.181102362204724
 31
0.0
  0
LINE
  5
F67
330
1E
100
AcDbEntity
  8
1
100
AcDbLine
 10
6.470472440944883
 20
4.181102362204724
 30
0.0
 11
6.50984251968504
 21
4.179133858267716
 31
0.0
  0
LINE
  5
F68
330
1E
100
AcDbEntity
  8
1
100
AcDbLine
 10
6.50984251968504
 20
4.179133858267716
 30
0.0
 11
6.549212598425198
 21
4.18503937007874
 31
0.0
  0
LINE
  5
F69
330
1E
100
AcDbEntity
  8
1
100
AcDbLine
 10
6.549212598425198
 20
4.18503937007874
 30
0.0
 11
6.585629921259842
 21
4.198818897637794
 31
0.0
  0
LINE
  5
F6A
330
1E
100
AcDbEntity
  8
1
100
AcDbLine
 10
6.585629921259842
 20
4.198818897637794
 30
0.0
 11
6.619094488188977
 21
4.219488188976377
 31
0.0
  0
LINE
  5
F6B
330
1E
100
AcDbEntity
  8
1
100
AcDbLine
 10
6.619094488188977
 20
4.219488188976377
 30
0.0
 11
6.64763779527559
 21
4.247047244094488
 31
0.0
  0
LINE
  5
F6C
330
1E
100
AcDbEntity
  8
1
100
AcDbLine
 10
6.64763779527559
 20
4.247047244094488
 30
0.0
 11
6.670275590551181
 21
4.279527559055118
 31
0.0
  0
LINE
  5
F6D
330
1E
100
AcDbEntity
  8
1
100
AcDbLine
 10
6.670275590551181
 20
4.279527559055118
 30
0.0
 11
6.686023622047244
 21
4.315944881889762
 31
0.0
  0
LINE
  5
F6E
330
1E
100
AcDbEntity
  8
1
100
AcDbLine
 10
12.58562992125984
 20
4.549212598425196
 30
0.0
 11
12.54921259842519
 21
4.562992125984251
 31
0.0
  0
LINE
  5
F6F
330
1E
100
AcDbEntity
  8
1
100
AcDbLine
 10
12.54921259842519
 20
4.562992125984251
 30
0.0
 11
12.50984251968504
 21
4.568897637795275
 31
0.0
  0
LINE
  5
F70
330
1E
100
AcDbEntity
  8
1
100
AcDbLine
 10
12.50984251968504
 20
4.568897637795275
 30
0.0
 11
12.47047244094488
 21
4.566929133858266
 31
0.0
  0
LINE
  5
F71
330
1E
100
AcDbEntity
  8
1
100
AcDbLine
 10
12.47047244094488
 20
4.566929133858266
 30
0.0
 11
12.43208661417323
 21
4.557086614173227
 31
0.0
  0
LINE
  5
F72
330
1E
100
AcDbEntity
  8
1
100
AcDbLine
 10
12.43208661417323
 20
4.557086614173227
 30
0.0
 11
12.39665354330709
 21
4.539370078740157
 31
0.0
  0
LINE
  5
F73
330
1E
100
AcDbEntity
  8
1
100
AcDbLine
 10
12.39665354330709
 20
4.539370078740157
 30
0.0
 11
12.36614173228346
 21
4.515748031496062
 31
0.0
  0
LINE
  5
F74
330
1E
100
AcDbEntity
  8
1
100
AcDbLine
 10
12.36614173228346
 20
4.515748031496062
 30
0.0
 11
12.33956692913386
 21
4.48523622047244
 31
0.0
  0
LINE
  5
F75
330
1E
100
AcDbEntity
  8
1
100
AcDbLine
 10
12.33956692913386
 20
4.48523622047244
 30
0.0
 11
12.32086614173228
 21
4.450787401574803
 31
0.0
  0
LINE
  5
F76
330
1E
100
AcDbEntity
  8
1
100
AcDbLine
 10
12.32086614173228
 20
4.450787401574803
 30
0.0
 11
12.30905511811023
 21
4.413385826771653
 31
0.0
  0
LINE
  5
F77
330
1E
100
AcDbEntity
  8
1
100
AcDbLine
 10
12.30905511811023
 20
4.413385826771653
 30
0.0
 11
12.30511811023622
 21
4.374015748031496
 31
0.0
  0
LINE
  5
F78
330
1E
100
AcDbEntity
  8
1
100
AcDbLine
 10
12.43208661417323
 20
4.190944881889762
 30
0.0
 11
12.47047244094488
 21
4.181102362204724
 31
0.0
  0
LINE
  5
F79
330
1E
100
AcDbEntity
  8
1
100
AcDbLine
 10
12.47047244094488
 20
4.181102362204724
 30
0.0
 11
12.50984251968504
 21
4.179133858267716
 31
0.0
  0
LINE
  5
F7A
330
1E
100
AcDbEntity
  8
1
100
AcDbLine
 10
12.50984251968504
 20
4.179133858267716
 30
0.0
 11
12.54921259842519
 21
4.18503937007874
 31
0.0
  0
LINE
  5
F7B
330
1E
100
AcDbEntity
  8
1
100
AcDbLine
 10
12.54921259842519
 20
4.18503937007874
 30
0.0
 11
12.58562992125984
 21
4.198818897637794
 31
0.0
  0
LINE
  5
F7C
330
1E
100
AcDbEntity
  8
1
100
AcDbLine
 10
12.58562992125984
 20
4.198818897637794
 30
0.0
 11
12.61909448818897
 21
4.219488188976377
 31
0.0
  0
LINE
  5
F7D
330
1E
100
AcDbEntity
  8
1
100
AcDbLine
 10
12.61909448818897
 20
4.219488188976377
 30
0.0
 11
12.64763779527559
 21
4.247047244094488
 31
0.0
  0
LINE
  5
F7E
330
1E
100
AcDbEntity
  8
1
100
AcDbLine
 10
12.64763779527559
 20
4.247047244094488
 30
0.0
 11
12.67027559055118
 21
4.279527559055118
 31
0.0
  0
LINE
  5
F7F
330
1E
100
AcDbEntity
  8
1
100
AcDbLine
 10
12.67027559055118
 20
4.279527559055118
 30
0.0
 11
12.68602362204724
 21
4.315944881889762
 31
0.0
  0
LINE
  5
F80
330
1E
100
AcDbEntity
  8
1
100
AcDbLine
 10
12.68602362204724
 20
4.315944881889762
 30
0.0
 11
12.69389763779527
 21
4.354330708661416
 31
0.0
  0
LINE
  5
F81
330
1E
100
AcDbEntity
  8
1
100
AcDbLine
 10
12.69389763779527
 20
4.354330708661416
 30
0.0
 11
12.69389763779527
 21
4.393700787401574
 31
0.0
  0
LINE
  5
F82
330
1E
100
AcDbEntity
  8
1
100
AcDbLine
 10
12.69389763779527
 20
4.393700787401574
 30
0.0
 11
12.68602362204724
 21
4.432086614173227
 31
0.0
  0
LINE
  5
F83
330
1E
100
AcDbEntity
  8
1
100
AcDbLine
 10
12.68602362204724
 20
4.432086614173227
 30
0.0
 11
12.67027559055118
 21
4.468503937007874
 31
0.0
  0
LINE
  5
F84
330
1E
100
AcDbEntity
  8
1
100
AcDbLine
 10
12.67027559055118
 20
4.468503937007874
 30
0.0
 11
12.64763779527559
 21
4.500984251968503
 31
0.0
  0
LINE
  5
F85
330
1E
100
AcDbEntity
  8
1
100
AcDbLine
 10
12.64763779527559
 20
4.500984251968503
 30
0.0
 11
12.61909448818897
 21
4.528543307086614
 31
0.0
  0
LINE
  5
F86
330
1E
100
AcDbEntity
  8
1
100
AcDbLine
 10
12.61909448818897
 20
4.528543307086614
 30
0.0
 11
12.58562992125984
 21
4.549212598425196
 31
0.0
  0
LINE
  5
F87
330
1E
100
AcDbEntity
  8
1
100
AcDbLine
 10
12.30511811023622
 20
4.374015748031496
 30
0.0
 11
12.30905511811023
 21
4.334645669291338
 31
0.0
  0
LINE
  5
F88
330
1E
100
AcDbEntity
  8
1
100
AcDbLine
 10
12.30905511811023
 20
4.334645669291338
 30
0.0
 11
12.32086614173228
 21
4.297244094488188
 31
0.0
  0
LINE
  5
F89
330
1E
100
AcDbEntity
  8
1
100
AcDbLine
 10
12.32086614173228
 20
4.297244094488188
 30
0.0
 11
12.33956692913386
 21
4.262795275590551
 31
0.0
  0
LINE
  5
F8A
330
1E
100
AcDbEntity
  8
1
100
AcDbLine
 10
12.33956692913386
 20
4.262795275590551
 30
0.0
 11
12.36614173228346
 21
4.232283464566929
 31
0.0
  0
LINE
  5
F8B
330
1E
100
AcDbEntity
  8
1
100
AcDbLine
 10
12.36614173228346
 20
4.232283464566929
 30
0.0
 11
12.39665354330709
 21
4.208661417322835
 31
0.0
  0
LINE
  5
F8C
330
1E
100
AcDbEntity
  8
1
100
AcDbLine
 10
12.39665354330709
 20
4.208661417322835
 30
0.0
 11
12.43208661417323
 21
4.190944881889762
 31
0.0
  0
LINE
  5
F8D
330
1E
100
AcDbEntity
  8
1
100
AcDbLine
 10
6.339566929133859
 20
7.605314960629922
 30
0.0
 11
6.320866141732283
 21
7.570866141732283
 31
0.0
  0
LINE
  5
F8E
330
1E
100
AcDbEntity
  8
1
100
AcDbLine
 10
6.320866141732283
 20
7.570866141732283
 30
0.0
 11
6.309055118110237
 21
7.533464566929133
 31
0.0
  0
LINE
  5
F8F
330
1E
100
AcDbEntity
  8
1
100
AcDbLine
 10
6.309055118110237
 20
7.533464566929133
 30
0.0
 11
6.30511811023622
 21
7.494094488188975
 31
0.0
  0
LINE
  5
F90
330
1E
100
AcDbEntity
  8
1
100
AcDbLine
 10
6.693897637795275
 20
7.474409448818898
 30
0.0
 11
6.693897637795275
 21
7.513779527559055
 31
0.0
  0
LINE
  5
F91
330
1E
100
AcDbEntity
  8
1
100
AcDbLine
 10
6.693897637795275
 20
7.513779527559055
 30
0.0
 11
6.686023622047244
 21
7.552165354330709
 31
0.0
  0
LINE
  5
F92
330
1E
100
AcDbEntity
  8
1
100
AcDbLine
 10
6.686023622047244
 20
7.552165354330709
 30
0.0
 11
6.670275590551181
 21
7.588582677165353
 31
0.0
  0
LINE
  5
F93
330
1E
100
AcDbEntity
  8
1
100
AcDbLine
 10
6.670275590551181
 20
7.588582677165353
 30
0.0
 11
6.64763779527559
 21
7.621062992125985
 31
0.0
  0
LINE
  5
F94
330
1E
100
AcDbEntity
  8
1
100
AcDbLine
 10
6.64763779527559
 20
7.621062992125985
 30
0.0
 11
6.619094488188977
 21
7.648622047244094
 31
0.0
  0
LINE
  5
F95
330
1E
100
AcDbEntity
  8
1
100
AcDbLine
 10
6.619094488188977
 20
7.648622047244094
 30
0.0
 11
6.585629921259842
 21
7.669291338582677
 31
0.0
  0
LINE
  5
F96
330
1E
100
AcDbEntity
  8
1
100
AcDbLine
 10
6.585629921259842
 20
7.669291338582677
 30
0.0
 11
6.549212598425198
 21
7.683070866141733
 31
0.0
  0
LINE
  5
F97
330
1E
100
AcDbEntity
  8
1
100
AcDbLine
 10
6.549212598425198
 20
7.683070866141733
 30
0.0
 11
6.50984251968504
 21
7.688976377952755
 31
0.0
  0
LINE
  5
F98
330
1E
100
AcDbEntity
  8
1
100
AcDbLine
 10
6.50984251968504
 20
7.688976377952755
 30
0.0
 11
6.470472440944883
 21
7.687007874015748
 31
0.0
  0
LINE
  5
F99
330
1E
100
AcDbEntity
  8
1
100
AcDbLine
 10
6.470472440944883
 20
7.687007874015748
 30
0.0
 11
6.432086614173229
 21
7.677165354330709
 31
0.0
  0
LINE
  5
F9A
330
1E
100
AcDbEntity
  8
1
100
AcDbLine
 10
6.432086614173229
 20
7.677165354330709
 30
0.0
 11
6.396653543307087
 21
7.659448818897638
 31
0.0
  0
LINE
  5
F9B
330
1E
100
AcDbEntity
  8
1
100
AcDbLine
 10
6.396653543307087
 20
7.659448818897638
 30
0.0
 11
6.366141732283464
 21
7.635826771653544
 31
0.0
  0
LINE
  5
F9C
330
1E
100
AcDbEntity
  8
1
100
AcDbLine
 10
6.366141732283464
 20
7.635826771653544
 30
0.0
 11
6.339566929133859
 21
7.605314960629922
 31
0.0
  0
LINE
  5
F9D
330
1E
100
AcDbEntity
  8
1
100
AcDbLine
 10
6.30511811023622
 20
7.494094488188975
 30
0.0
 11
6.309055118110237
 21
7.454724409448818
 31
0.0
  0
LINE
  5
F9E
330
1E
100
AcDbEntity
  8
1
100
AcDbLine
 10
6.309055118110237
 20
7.454724409448818
 30
0.0
 11
6.320866141732283
 21
7.41732283464567
 31
0.0
  0
LINE
  5
F9F
330
1E
100
AcDbEntity
  8
1
100
AcDbLine
 10
6.320866141732283
 20
7.41732283464567
 30
0.0
 11
6.339566929133859
 21
7.382874015748031
 31
0.0
  0
LINE
  5
FA0
330
1E
100
AcDbEntity
  8
1
100
AcDbLine
 10
6.339566929133859
 20
7.382874015748031
 30
0.0
 11
6.366141732283464
 21
7.352362204724409
 31
0.0
  0
LINE
  5
FA1
330
1E
100
AcDbEntity
  8
1
100
AcDbLine
 10
6.366141732283464
 20
7.352362204724409
 30
0.0
 11
6.396653543307087
 21
7.328740157480314
 31
0.0
  0
LINE
  5
FA2
330
1E
100
AcDbEntity
  8
1
100
AcDbLine
 10
6.396653543307087
 20
7.328740157480314
 30
0.0
 11
6.432086614173229
 21
7.311023622047244
 31
0.0
  0
LINE
  5
FA3
330
1E
100
AcDbEntity
  8
1
100
AcDbLine
 10
6.432086614173229
 20
7.311023622047244
 30
0.0
 11
6.470472440944883
 21
7.301181102362205
 31
0.0
  0
LINE
  5
FA4
330
1E
100
AcDbEntity
  8
1
100
AcDbLine
 10
6.470472440944883
 20
7.301181102362205
 30
0.0
 11
6.50984251968504
 21
7.299212598425196
 31
0.0
  0
LINE
  5
FA5
330
1E
100
AcDbEntity
  8
1
100
AcDbLine
 10
6.50984251968504
 20
7.299212598425196
 30
0.0
 11
6.549212598425198
 21
7.30511811023622
 31
0.0
  0
LINE
  5
FA6
330
1E
100
AcDbEntity
  8
1
100
AcDbLine
 10
6.549212598425198
 20
7.30511811023622
 30
0.0
 11
6.585629921259842
 21
7.318897637795275
 31
0.0
  0
LINE
  5
FA7
330
1E
100
AcDbEntity
  8
1
100
AcDbLine
 10
6.585629921259842
 20
7.318897637795275
 30
0.0
 11
6.619094488188977
 21
7.339566929133859
 31
0.0
  0
LINE
  5
FA8
330
1E
100
AcDbEntity
  8
1
100
AcDbLine
 10
6.619094488188977
 20
7.339566929133859
 30
0.0
 11
6.64763779527559
 21
7.367125984251968
 31
0.0
  0
LINE
  5
FA9
330
1E
100
AcDbEntity
  8
1
100
AcDbLine
 10
6.64763779527559
 20
7.367125984251968
 30
0.0
 11
6.670275590551181
 21
7.399606299212598
 31
0.0
  0
LINE
  5
FAA
330
1E
100
AcDbEntity
  8
1
100
AcDbLine
 10
6.670275590551181
 20
7.399606299212598
 30
0.0
 11
6.686023622047244
 21
7.436023622047244
 31
0.0
  0
LINE
  5
FAB
330
1E
100
AcDbEntity
  8
1
100
AcDbLine
 10
6.686023622047244
 20
7.436023622047244
 30
0.0
 11
6.693897637795275
 21
7.474409448818898
 31
0.0
  0
LINE
  5
FAC
330
1E
100
AcDbEntity
  8
1
100
AcDbLine
 10
12.54921259842519
 20
7.683070866141733
 30
0.0
 11
12.50984251968504
 21
7.688976377952755
 31
0.0
  0
LINE
  5
FAD
330
1E
100
AcDbEntity
  8
1
100
AcDbLine
 10
12.50984251968504
 20
7.688976377952755
 30
0.0
 11
12.47047244094488
 21
7.687007874015748
 31
0.0
  0
LINE
  5
FAE
330
1E
100
AcDbEntity
  8
1
100
AcDbLine
 10
12.47047244094488
 20
7.687007874015748
 30
0.0
 11
12.43208661417323
 21
7.677165354330709
 31
0.0
  0
LINE
  5
FAF
330
1E
100
AcDbEntity
  8
1
100
AcDbLine
 10
12.43208661417323
 20
7.677165354330709
 30
0.0
 11
12.39665354330709
 21
7.659448818897638
 31
0.0
  0
LINE
  5
FB0
330
1E
100
AcDbEntity
  8
1
100
AcDbLine
 10
12.39665354330709
 20
7.659448818897638
 30
0.0
 11
12.36614173228346
 21
7.635826771653544
 31
0.0
  0
LINE
  5
FB1
330
1E
100
AcDbEntity
  8
1
100
AcDbLine
 10
12.36614173228346
 20
7.635826771653544
 30
0.0
 11
12.33956692913386
 21
7.605314960629922
 31
0.0
  0
LINE
  5
FB2
330
1E
100
AcDbEntity
  8
1
100
AcDbLine
 10
12.33956692913386
 20
7.605314960629922
 30
0.0
 11
12.32086614173228
 21
7.570866141732283
 31
0.0
  0
LINE
  5
FB3
330
1E
100
AcDbEntity
  8
1
100
AcDbLine
 10
12.32086614173228
 20
7.570866141732283
 30
0.0
 11
12.30905511811023
 21
7.533464566929133
 31
0.0
  0
LINE
  5
FB4
330
1E
100
AcDbEntity
  8
1
100
AcDbLine
 10
12.30905511811023
 20
7.533464566929133
 30
0.0
 11
12.30511811023622
 21
7.494094488188975
 31
0.0
  0
LINE
  5
FB5
330
1E
100
AcDbEntity
  8
1
100
AcDbLine
 10
12.47047244094488
 20
7.301181102362205
 30
0.0
 11
12.50984251968504
 21
7.299212598425196
 31
0.0
  0
LINE
  5
FB6
330
1E
100
AcDbEntity
  8
1
100
AcDbLine
 10
12.50984251968504
 20
7.299212598425196
 30
0.0
 11
12.54921259842519
 21
7.30511811023622
 31
0.0
  0
LINE
  5
FB7
330
1E
100
AcDbEntity
  8
1
100
AcDbLine
 10
12.54921259842519
 20
7.30511811023622
 30
0.0
 11
12.58562992125984
 21
7.318897637795275
 31
0.0
  0
LINE
  5
FB8
330
1E
100
AcDbEntity
  8
1
100
AcDbLine
 10
12.58562992125984
 20
7.318897637795275
 30
0.0
 11
12.61909448818897
 21
7.339566929133859
 31
0.0
  0
LINE
  5
FB9
330
1E
100
AcDbEntity
  8
1
100
AcDbLine
 10
12.61909448818897
 20
7.339566929133859
 30
0.0
 11
12.64763779527559
 21
7.367125984251968
 31
0.0
  0
LINE
  5
FBA
330
1E
100
AcDbEntity
  8
1
100
AcDbLine
 10
12.64763779527559
 20
7.367125984251968
 30
0.0
 11
12.67027559055118
 21
7.399606299212598
 31
0.0
  0
LINE
  5
FBB
330
1E
100
AcDbEntity
  8
1
100
AcDbLine
 10
12.67027559055118
 20
7.399606299212598
 30
0.0
 11
12.68602362204724
 21
7.436023622047244
 31
0.0
  0
LINE
  5
FBC
330
1E
100
AcDbEntity
  8
1
100
AcDbLine
 10
12.68602362204724
 20
7.436023622047244
 30
0.0
 11
12.69389763779527
 21
7.474409448818898
 31
0.0
  0
LINE
  5
FBD
330
1E
100
AcDbEntity
  8
1
100
AcDbLine
 10
12.69389763779527
 20
7.474409448818898
 30
0.0
 11
12.69389763779527
 21
7.513779527559055
 31
0.0
  0
LINE
  5
FBE
330
1E
100
AcDbEntity
  8
1
100
AcDbLine
 10
12.69389763779527
 20
7.513779527559055
 30
0.0
 11
12.68602362204724
 21
7.552165354330709
 31
0.0
  0
LINE
  5
FBF
330
1E
100
AcDbEntity
  8
1
100
AcDbLine
 10
12.68602362204724
 20
7.552165354330709
 30
0.0
 11
12.67027559055118
 21
7.588582677165353
 31
0.0
  0
LINE
  5
FC0
330
1E
100
AcDbEntity
  8
1
100
AcDbLine
 10
12.67027559055118
 20
7.588582677165353
 30
0.0
 11
12.64763779527559
 21
7.621062992125985
 31
0.0
  0
LINE
  5
FC1
330
1E
100
AcDbEntity
  8
1
100
AcDbLine
 10
12.64763779527559
 20
7.621062992125985
 30
0.0
 11
12.61909448818897
 21
7.648622047244094
 31
0.0
  0
LINE
  5
FC2
330
1E
100
AcDbEntity
  8
1
100
AcDbLine
 10
12.61909448818897
 20
7.648622047244094
 30
0.0
 11
12.58562992125984
 21
7.669291338582677
 31
0.0
  0
LINE
  5
FC3
330
1E
100
AcDbEntity
  8
1
100
AcDbLine
 10
12.58562992125984
 20
7.669291338582677
 30
0.0
 11
12.54921259842519
 21
7.683070866141733
 31
0.0
  0
LINE
  5
FC4
330
1E
100
AcDbEntity
  8
1
100
AcDbLine
 10
12.30511811023622
 20
7.494094488188975
 30
0.0
 11
12.30905511811023
 21
7.454724409448818
 31
0.0
  0
LINE
  5
FC5
330
1E
100
AcDbEntity
  8
1
100
AcDbLine
 10
12.30905511811023
 20
7.454724409448818
 30
0.0
 11
12.32086614173228
 21
7.41732283464567
 31
0.0
  0
LINE
  5
FC6
330
1E
100
AcDbEntity
  8
1
100
AcDbLine
 10
12.32086614173228
 20
7.41732283464567
 30
0.0
 11
12.33956692913386
 21
7.382874015748031
 31
0.0
  0
LINE
  5
FC7
330
1E
100
AcDbEntity
  8
1
100
AcDbLine
 10
12.33956692913386
 20
7.382874015748031
 30
0.0
 11
12.36614173228346
 21
7.352362204724409
 31
0.0
  0
LINE
  5
FC8
330
1E
100
AcDbEntity
  8
1
100
AcDbLine
 10
12.36614173228346
 20
7.352362204724409
 30
0.0
 11
12.39665354330709
 21
7.328740157480314
 31
0.0
  0
LINE
  5
FC9
330
1E
100
AcDbEntity
  8
1
100
AcDbLine
 10
12.39665354330709
 20
7.328740157480314
 30
0.0
 11
12.43208661417323
 21
7.311023622047244
 31
0.0
  0
LINE
  5
FCA
330
1E
100
AcDbEntity
  8
1
100
AcDbLine
 10
12.43208661417323
 20
7.311023622047244
 30
0.0
 11
12.47047244094488
 21
7.301181102362205
 31
0.0
  0
LINE
  5
FCB
330
1E
100
AcDbEntity
  8
1
100
AcDbLine
 10
6.320866141732283
 20
13.69094488188976
 30
0.0
 11
6.309055118110237
 21
13.65354330708661
 31
0.0
  0
LINE
  5
FCC
330
1E
100
AcDbEntity
  8
1
100
AcDbLine
 10
6.309055118110237
 20
13.65354330708661
 30
0.0
 11
6.30511811023622
 21
13.61417322834645
 31
0.0
  0
LINE
  5
FCD
330
1E
100
AcDbEntity
  8
1
100
AcDbLine
 10
6.693897637795275
 20
13.63385826771653
 30
0.0
 11
6.686023622047244
 21
13.67224409448819
 31
0.0
  0
LINE
  5
FCE
330
1E
100
AcDbEntity
  8
1
100
AcDbLine
 10
6.686023622047244
 20
13.67224409448819
 30
0.0
 11
6.670275590551181
 21
13.70866141732283
 31
0.0
  0
LINE
  5
FCF
330
1E
100
AcDbEntity
  8
1
100
AcDbLine
 10
6.670275590551181
 20
13.70866141732283
 30
0.0
 11
6.64763779527559
 21
13.74114173228346
 31
0.0
  0
LINE
  5
FD0
330
1E
100
AcDbEntity
  8
1
100
AcDbLine
 10
6.64763779527559
 20
13.74114173228346
 30
0.0
 11
6.619094488188977
 21
13.76870078740157
 31
0.0
  0
LINE
  5
FD1
330
1E
100
AcDbEntity
  8
1
100
AcDbLine
 10
6.619094488188977
 20
13.76870078740157
 30
0.0
 11
6.585629921259842
 21
13.78937007874015
 31
0.0
  0
LINE
  5
FD2
330
1E
100
AcDbEntity
  8
1
100
AcDbLine
 10
6.585629921259842
 20
13.78937007874015
 30
0.0
 11
6.549212598425198
 21
13.80314960629921
 31
0.0
  0
LINE
  5
FD3
330
1E
100
AcDbEntity
  8
1
100
AcDbLine
 10
6.549212598425198
 20
13.80314960629921
 30
0.0
 11
6.50984251968504
 21
13.80905511811023
 31
0.0
  0
LINE
  5
FD4
330
1E
100
AcDbEntity
  8
1
100
AcDbLine
 10
6.50984251968504
 20
13.80905511811023
 30
0.0
 11
6.470472440944883
 21
13.80708661417322
 31
0.0
  0
LINE
  5
FD5
330
1E
100
AcDbEntity
  8
1
100
AcDbLine
 10
6.470472440944883
 20
13.80708661417322
 30
0.0
 11
6.432086614173229
 21
13.79724409448819
 31
0.0
  0
LINE
  5
FD6
330
1E
100
AcDbEntity
  8
1
100
AcDbLine
 10
6.432086614173229
 20
13.79724409448819
 30
0.0
 11
6.396653543307087
 21
13.77952755905512
 31
0.0
  0
LINE
  5
FD7
330
1E
100
AcDbEntity
  8
1
100
AcDbLine
 10
6.396653543307087
 20
13.77952755905512
 30
0.0
 11
6.366141732283464
 21
13.75590551181102
 31
0.0
  0
LINE
  5
FD8
330
1E
100
AcDbEntity
  8
1
100
AcDbLine
 10
6.366141732283464
 20
13.75590551181102
 30
0.0
 11
6.339566929133859
 21
13.7253937007874
 31
0.0
  0
LINE
  5
FD9
330
1E
100
AcDbEntity
  8
1
100
AcDbLine
 10
6.339566929133859
 20
13.7253937007874
 30
0.0
 11
6.320866141732283
 21
13.69094488188976
 31
0.0
  0
LINE
  5
FDA
330
1E
100
AcDbEntity
  8
1
100
AcDbLine
 10
6.309055118110237
 20
13.5748031496063
 30
0.0
 11
6.320866141732283
 21
13.53740157480315
 31
0.0
  0
LINE
  5
FDB
330
1E
100
AcDbEntity
  8
1
100
AcDbLine
 10
6.320866141732283
 20
13.53740157480315
 30
0.0
 11
6.339566929133859
 21
13.50295275590551
 31
0.0
  0
LINE
  5
FDC
330
1E
100
AcDbEntity
  8
1
100
AcDbLine
 10
6.339566929133859
 20
13.50295275590551
 30
0.0
 11
6.366141732283464
 21
13.47244094488189
 31
0.0
  0
LINE
  5
FDD
330
1E
100
AcDbEntity
  8
1
100
AcDbLine
 10
6.366141732283464
 20
13.47244094488189
 30
0.0
 11
6.396653543307087
 21
13.44881889763779
 31
0.0
  0
LINE
  5
FDE
330
1E
100
AcDbEntity
  8
1
100
AcDbLine
 10
6.396653543307087
 20
13.44881889763779
 30
0.0
 11
6.432086614173229
 21
13.43110236220472
 31
0.0
  0
LINE
  5
FDF
330
1E
100
AcDbEntity
  8
1
100
AcDbLine
 10
6.432086614173229
 20
13.43110236220472
 30
0.0
 11
6.470472440944883
 21
13.42125984251968
 31
0.0
  0
LINE
  5
FE0
330
1E
100
AcDbEntity
  8
1
100
AcDbLine
 10
6.470472440944883
 20
13.42125984251968
 30
0.0
 11
6.50984251968504
 21
13.41929133858267
 31
0.0
  0
LINE
  5
FE1
330
1E
100
AcDbEntity
  8
1
100
AcDbLine
 10
6.50984251968504
 20
13.41929133858267
 30
0.0
 11
6.549212598425198
 21
13.4251968503937
 31
0.0
  0
LINE
  5
FE2
330
1E
100
AcDbEntity
  8
1
100
AcDbLine
 10
6.549212598425198
 20
13.4251968503937
 30
0.0
 11
6.585629921259842
 21
13.43897637795275
 31
0.0
  0
LINE
  5
FE3
330
1E
100
AcDbEntity
  8
1
100
AcDbLine
 10
6.585629921259842
 20
13.43897637795275
 30
0.0
 11
6.619094488188977
 21
13.45964566929134
 31
0.0
  0
LINE
  5
FE4
330
1E
100
AcDbEntity
  8
1
100
AcDbLine
 10
6.619094488188977
 20
13.45964566929134
 30
0.0
 11
6.64763779527559
 21
13.48720472440944
 31
0.0
  0
LINE
  5
FE5
330
1E
100
AcDbEntity
  8
1
100
AcDbLine
 10
6.64763779527559
 20
13.48720472440944
 30
0.0
 11
6.670275590551181
 21
13.51968503937007
 31
0.0
  0
LINE
  5
FE6
330
1E
100
AcDbEntity
  8
1
100
AcDbLine
 10
6.670275590551181
 20
13.51968503937007
 30
0.0
 11
6.686023622047244
 21
13.55610236220472
 31
0.0
  0
LINE
  5
FE7
330
1E
100
AcDbEntity
  8
1
100
AcDbLine
 10
6.686023622047244
 20
13.55610236220472
 30
0.0
 11
6.693897637795275
 21
13.59448818897637
 31
0.0
  0
LINE
  5
FE8
330
1E
100
AcDbEntity
  8
1
100
AcDbLine
 10
6.693897637795275
 20
13.59448818897637
 30
0.0
 11
6.693897637795275
 21
13.63385826771653
 31
0.0
  0
LINE
  5
FE9
330
1E
100
AcDbEntity
  8
1
100
AcDbLine
 10
12.50984251968504
 20
13.80905511811023
 30
0.0
 11
12.47047244094488
 21
13.80708661417322
 31
0.0
  0
LINE
  5
FEA
330
1E
100
AcDbEntity
  8
1
100
AcDbLine
 10
12.47047244094488
 20
13.80708661417322
 30
0.0
 11
12.43208661417323
 21
13.79724409448819
 31
0.0
  0
LINE
  5
FEB
330
1E
100
AcDbEntity
  8
1
100
AcDbLine
 10
12.43208661417323
 20
13.79724409448819
 30
0.0
 11
12.39665354330709
 21
13.77952755905512
 31
0.0
  0
LINE
  5
FEC
330
1E
100
AcDbEntity
  8
1
100
AcDbLine
 10
12.39665354330709
 20
13.77952755905512
 30
0.0
 11
12.36614173228346
 21
13.75590551181102
 31
0.0
  0
LINE
  5
FED
330
1E
100
AcDbEntity
  8
1
100
AcDbLine
 10
12.36614173228346
 20
13.75590551181102
 30
0.0
 11
12.33956692913386
 21
13.7253937007874
 31
0.0
  0
LINE
  5
FEE
330
1E
100
AcDbEntity
  8
1
100
AcDbLine
 10
12.33956692913386
 20
13.7253937007874
 30
0.0
 11
12.32086614173228
 21
13.69094488188976
 31
0.0
  0
LINE
  5
FEF
330
1E
100
AcDbEntity
  8
1
100
AcDbLine
 10
12.32086614173228
 20
13.69094488188976
 30
0.0
 11
12.30905511811023
 21
13.65354330708661
 31
0.0
  0
LINE
  5
FF0
330
1E
100
AcDbEntity
  8
1
100
AcDbLine
 10
12.30905511811023
 20
13.65354330708661
 30
0.0
 11
12.30511811023622
 21
13.61417322834645
 31
0.0
  0
LINE
  5
FF1
330
1E
100
AcDbEntity
  8
1
100
AcDbLine
 10
12.50984251968504
 20
13.41929133858267
 30
0.0
 11
12.54921259842519
 21
13.4251968503937
 31
0.0
  0
LINE
  5
FF2
330
1E
100
AcDbEntity
  8
1
100
AcDbLine
 10
12.54921259842519
 20
13.4251968503937
 30
0.0
 11
12.58562992125984
 21
13.43897637795275
 31
0.0
  0
LINE
  5
FF3
330
1E
100
AcDbEntity
  8
1
100
AcDbLine
 10
12.58562992125984
 20
13.43897637795275
 30
0.0
 11
12.61909448818897
 21
13.45964566929134
 31
0.0
  0
LINE
  5
FF4
330
1E
100
AcDbEntity
  8
1
100
AcDbLine
 10
12.61909448818897
 20
13.45964566929134
 30
0.0
 11
12.64763779527559
 21
13.48720472440944
 31
0.0
  0
LINE
  5
FF5
330
1E
100
AcDbEntity
  8
1
100
AcDbLine
 10
12.64763779527559
 20
13.48720472440944
 30
0.0
 11
12.67027559055118
 21
13.51968503937007
 31
0.0
  0
LINE
  5
FF6
330
1E
100
AcDbEntity
  8
1
100
AcDbLine
 10
12.67027559055118
 20
13.51968503937007
 30
0.0
 11
12.68602362204724
 21
13.55610236220472
 31
0.0
  0
LINE
  5
FF7
330
1E
100
AcDbEntity
  8
1
100
AcDbLine
 10
12.68602362204724
 20
13.55610236220472
 30
0.0
 11
12.69389763779527
 21
13.59448818897637
 31
0.0
  0
LINE
  5
FF8
330
1E
100
AcDbEntity
  8
1
100
AcDbLine
 10
12.69389763779527
 20
13.59448818897637
 30
0.0
 11
12.69389763779527
 21
13.63385826771653
 31
0.0
  0
LINE
  5
FF9
330
1E
100
AcDbEntity
  8
1
100
AcDbLine
 10
12.69389763779527
 20
13.63385826771653
 30
0.0
 11
12.68602362204724
 21
13.67224409448819
 31
0.0
  0
LINE
  5
FFA
330
1E
100
AcDbEntity
  8
1
100
AcDbLine
 10
12.68602362204724
 20
13.67224409448819
 30
0.0
 11
12.67027559055118
 21
13.70866141732283
 31
0.0
  0
LINE
  5
FFB
330
1E
100
AcDbEntity
  8
1
100
AcDbLine
 10
12.67027559055118
 20
13.70866141732283
 30
0.0
 11
12.64763779527559
 21
13.74114173228346
 31
0.0
  0
LINE
  5
FFC
330
1E
100
AcDbEntity
  8
1
100
AcDbLine
 10
12.64763779527559
 20
13.74114173228346
 30
0.0
 11
12.61909448818897
 21
13.76870078740157
 31
0.0
  0
LINE
  5
FFD
330
1E
100
AcDbEntity
  8
1
100
AcDbLine
 10
12.61909448818897
 20
13.76870078740157
 30
0.0
 11
12.58562992125984
 21
13.78937007874015
 31
0.0
  0
LINE
  5
FFE
330
1E
100
AcDbEntity
  8
1
100
AcDbLine
 10
12.58562992125984
 20
13.78937007874015
 30
0.0
 11
12.54921259842519
 21
13.80314960629921
 31
0.0
  0
LINE
  5
FFF
330
1E
100
AcDbEntity
  8
1
100
AcDbLine
 10
12.54921259842519
 20
13.80314960629921
 30
0.0
 11
12.50984251968504
 21
13.80905511811023
 31
0.0
  0
LINE
  5
1000
330
1E
100
AcDbEntity
  8
1
100
AcDbLine
 10
12.30511811023622
 20
13.61417322834645
 30
0.0
 11
12.30905511811023
 21
13.5748031496063
 31
0.0
  0
LINE
  5
1001
330
1E
100
AcDbEntity
  8
1
100
AcDbLine
 10
12.30905511811023
 20
13.5748031496063
 30
0.0
 11
12.32086614173228
 21
13.53740157480315
 31
0.0
  0
LINE
  5
1002
330
1E
100
AcDbEntity
  8
1
100
AcDbLine
 10
12.32086614173228
 20
13.53740157480315
 30
0.0
 11
12.33956692913386
 21
13.50295275590551
 31
0.0
  0
LINE
  5
1003
330
1E
100
AcDbEntity
  8
1
100
AcDbLine
 10
12.33956692913386
 20
13.50295275590551
 30
0.0
 11
12.36614173228346
 21
13.47244094488189
 31
0.0
  0
LINE
  5
1004
330
1E
100
AcDbEntity
  8
1
100
AcDbLine
 10
12.36614173228346
 20
13.47244094488189
 30
0.0
 11
12.39665354330709
 21
13.44881889763779
 31
0.0
  0
LINE
  5
1005
330
1E
100
AcDbEntity
  8
1
100
AcDbLine
 10
12.39665354330709
 20
13.44881889763779
 30
0.0
 11
12.43208661417323
 21
13.43110236220472
 31
0.0
  0
LINE
  5
1006
330
1E
100
AcDbEntity
  8
1
100
AcDbLine
 10
12.43208661417323
 20
13.43110236220472
 30
0.0
 11
12.47047244094488
 21
13.42125984251968
 31
0.0
  0
LINE
  5
1007
330
1E
100
AcDbEntity
  8
1
100
AcDbLine
 10
12.47047244094488
 20
13.42125984251968
 30
0.0
 11
12.50984251968504
 21
13.41929133858267
 31
0.0
  0
LINE
  5
1008
330
1E
100
AcDbEntity
  8
1
100
AcDbLine
 10
18.16141732283464
 20
28.56200787401574
 30
0.0
 11
18.2007874015748
 21
28.56200787401574
 31
0.0
  0
LINE
  5
1009
330
1E
100
AcDbEntity
  8
1
100
AcDbLine
 10
18.2007874015748
 20
28.56200787401574
 30
0.0
 11
18.23720472440944
 21
28.56200787401574
 31
0.0
  0
LINE
  5
100A
330
1E
100
AcDbEntity
  8
1
100
AcDbLine
 10
18.23720472440944
 20
28.56200787401574
 30
0.0
 11
18.26771653543307
 21
28.56200787401574
 31
0.0
  0
LINE
  5
100B
330
1E
100
AcDbEntity
  8
1
100
AcDbLine
 10
18.26771653543307
 20
28.56200787401574
 30
0.0
 11
18.29232283464567
 21
28.56200787401574
 31
0.0
  0
LINE
  5
100C
330
1E
100
AcDbEntity
  8
1
100
AcDbLine
 10
18.29232283464567
 20
28.56200787401574
 30
0.0
 11
18.30708661417323
 21
28.56200787401574
 31
0.0
  0
LINE
  5
100D
330
1E
100
AcDbEntity
  8
1
100
AcDbLine
 10
18.30708661417323
 20
28.56200787401574
 30
0.0
 11
18.31200787401574
 21
28.56200787401574
 31
0.0
  0
LINE
  5
100E
330
1E
100
AcDbEntity
  8
1
100
AcDbLine
 10
0.6870078740157482
 20
28.56200787401574
 30
0.0
 11
0.6929133858267722
 21
28.56200787401574
 31
0.0
  0
LINE
  5
100F
330
1E
100
AcDbEntity
  8
1
100
AcDbLine
 10
0.6929133858267722
 20
28.56200787401574
 30
0.0
 11
0.7076771653543315
 21
28.56200787401574
 31
0.0
  0
LINE
  5
1010
330
1E
100
AcDbEntity
  8
1
100
AcDbLine
 10
0.7076771653543315
 20
28.56200787401574
 30
0.0
 11
0.7312992125984259
 21
28.56200787401574
 31
0.0
  0
LINE
  5
1011
330
1E
100
AcDbEntity
  8
1
100
AcDbLine
 10
0.7312992125984259
 20
28.56200787401574
 30
0.0
 11
0.7627952755905519
 21
28.56200787401574
 31
0.0
  0
LINE
  5
1012
330
1E
100
AcDbEntity
  8
1
100
AcDbLine
 10
0.7627952755905519
 20
28.56200787401574
 30
0.0
 11
0.7992125984251981
 21
28.56200787401574
 31
0.0
  0
LINE
  5
1013
330
1E
100
AcDbEntity
  8
1
100
AcDbLine
 10
0.7992125984251981
 20
28.56200787401574
 30
0.0
 11
0.8385826771653555
 21
28.56200787401574
 31
0.0
  0
LINE
  5
1014
330
1E
100
AcDbEntity
  8
7
100
AcDbLine
 10
6.469488188976377
 20
13.76377952755905
 30
0.0
 11
6.529527559055118
 21
13.76377952755905
 31
0.0
  0
LINE
  5
1015
330
1E
100
AcDbEntity
  8
7
100
AcDbLine
 10
6.529527559055118
 20
13.76377952755905
 30
0.0
 11
6.529527559055118
 21
13.64468503937008
 31
0.0
  0
LINE
  5
1016
330
1E
100
AcDbEntity
  8
7
100
AcDbLine
 10
6.529527559055118
 20
13.64468503937008
 30
0.0
 11
6.649606299212598
 21
13.64468503937008
 31
0.0
  0
LINE
  5
1017
330
1E
100
AcDbEntity
  8
7
100
AcDbLine
 10
18.49212598425197
 20
12.92125984251968
 30
0.0
 11
18.44881889763779
 21
12.92125984251968
 31
0.0
  0
LINE
  5
1018
330
1E
100
AcDbEntity
  8
7
100
AcDbLine
 10
18.44881889763779
 20
12.92125984251968
 30
0.0
 11
18.41043307086614
 21
12.92125984251968
 31
0.0
  0
LINE
  5
1019
330
1E
100
AcDbEntity
  8
7
100
AcDbLine
 10
18.41043307086614
 20
12.92125984251968
 30
0.0
 11
18.37992125984252
 21
12.92125984251968
 31
0.0
  0
LINE
  5
101A
330
1E
100
AcDbEntity
  8
7
100
AcDbLine
 10
18.37992125984252
 20
12.92125984251968
 30
0.0
 11
18.35629921259842
 21
12.92125984251968
 31
0.0
  0
LINE
  5
101B
330
1E
100
AcDbEntity
  8
7
100
AcDbLine
 10
18.35629921259842
 20
12.92125984251968
 30
0.0
 11
18.34251968503937
 21
12.92125984251968
 31
0.0
  0
LINE
  5
101C
330
1E
100
AcDbEntity
  8
7
100
AcDbLine
 10
18.34251968503937
 20
12.92125984251968
 30
0.0
 11
18.33759842519685
 21
12.92125984251968
 31
0.0
  0
LINE
  5
101D
330
1E
100
AcDbEntity
  8
7
100
AcDbLine
 10
18.33759842519685
 20
12.92125984251968
 30
0.0
 11
18.33070866141732
 21
12.92125984251968
 31
0.0
  0
LINE
  5
101E
330
1E
100
AcDbEntity
  8
7
100
AcDbLine
 10
18.33070866141732
 20
12.92125984251968
 30
0.0
 11
18.31200787401574
 21
12.92125984251968
 31
0.0
  0
LINE
  5
101F
330
1E
100
AcDbEntity
  8
7
100
AcDbLine
 10
18.58759842519685
 20
12.92125984251968
 30
0.0
 11
18.53838582677165
 21
12.92125984251968
 31
0.0
  0
LINE
  5
1020
330
1E
100
AcDbEntity
  8
7
100
AcDbLine
 10
18.53838582677165
 20
12.92125984251968
 30
0.0
 11
18.49212598425197
 21
12.92125984251968
 31
0.0
  0
LINE
  5
1021
330
1E
100
AcDbEntity
  8
7
100
AcDbLine
 10
19.0
 20
12.92125984251968
 30
0.0
 11
18.99507874015748
 21
12.92125984251968
 31
0.0
  0
LINE
  5
1022
330
1E
100
AcDbEntity
  8
7
100
AcDbLine
 10
18.99507874015748
 20
12.92125984251968
 30
0.0
 11
18.98129921259842
 21
12.92125984251968
 31
0.0
  0
LINE
  5
1023
330
1E
100
AcDbEntity
  8
7
100
AcDbLine
 10
18.98129921259842
 20
12.92125984251968
 30
0.0
 11
18.95767716535432
 21
12.92125984251968
 31
0.0
  0
LINE
  5
1024
330
1E
100
AcDbEntity
  8
7
100
AcDbLine
 10
18.95767716535432
 20
12.92125984251968
 30
0.0
 11
18.9271653543307
 21
12.92125984251968
 31
0.0
  0
LINE
  5
1025
330
1E
100
AcDbEntity
  8
7
100
AcDbLine
 10
18.9271653543307
 20
12.92125984251968
 30
0.0
 11
18.88877952755905
 21
12.92125984251968
 31
0.0
  0
LINE
  5
1026
330
1E
100
AcDbEntity
  8
7
100
AcDbLine
 10
18.88877952755905
 20
12.92125984251968
 30
0.0
 11
18.84547244094488
 21
12.92125984251968
 31
0.0
  0
LINE
  5
1027
330
1E
100
AcDbEntity
  8
7
100
AcDbLine
 10
18.84547244094488
 20
12.92125984251968
 30
0.0
 11
18.79921259842519
 21
12.92125984251968
 31
0.0
  0
LINE
  5
1028
330
1E
100
AcDbEntity
  8
7
100
AcDbLine
 10
18.79921259842519
 20
12.92125984251968
 30
0.0
 11
18.75
 21
12.92125984251968
 31
0.0
  0
LINE
  5
1029
330
1E
100
AcDbEntity
  8
7
100
AcDbLine
 10
0.25
 20
12.92125984251968
 30
0.0
 11
0.2007874015748037
 21
12.92125984251968
 31
0.0
  0
LINE
  5
102A
330
1E
100
AcDbEntity
  8
7
100
AcDbLine
 10
0.2007874015748037
 20
12.92125984251968
 30
0.0
 11
0.1545275590551185
 21
12.92125984251968
 31
0.0
  0
LINE
  5
102B
330
1E
100
AcDbEntity
  8
7
100
AcDbLine
 10
0.1545275590551185
 20
12.92125984251968
 30
0.0
 11
0.1112204724409462
 21
12.92125984251968
 31
0.0
  0
LINE
  5
102C
330
1E
100
AcDbEntity
  8
7
100
AcDbLine
 10
0.1112204724409462
 20
12.92125984251968
 30
0.0
 11
0.0728346456692926
 21
12.92125984251968
 31
0.0
  0
LINE
  5
102D
330
1E
100
AcDbEntity
  8
7
100
AcDbLine
 10
0.0728346456692926
 20
12.92125984251968
 30
0.0
 11
0.0423228346456703
 21
12.92125984251968
 31
0.0
  0
LINE
  5
102E
330
1E
100
AcDbEntity
  8
7
100
AcDbLine
 10
0.0423228346456703
 20
12.92125984251968
 30
0.0
 11
0.0187007874015759
 21
12.92125984251968
 31
0.0
  0
LINE
  5
102F
330
1E
100
AcDbEntity
  8
7
100
AcDbLine
 10
0.0187007874015759
 20
12.92125984251968
 30
0.0
 11
0.0049212598425203
 21
12.92125984251968
 31
0.0
  0
LINE
  5
1030
330
1E
100
AcDbEntity
  8
7
100
AcDbLine
 10
0.0049212598425203
 20
12.92125984251968
 30
0.0
 11
0.0
 21
12.92125984251968
 31
0.0
  0
LINE
  5
1031
330
1E
100
AcDbEntity
  8
7
100
AcDbLine
 10
0.6200787401574815
 20
12.92125984251968
 30
0.0
 11
0.5895669291338593
 21
12.92125984251968
 31
0.0
  0
LINE
  5
1032
330
1E
100
AcDbEntity
  8
7
100
AcDbLine
 10
0.5895669291338593
 20
12.92125984251968
 30
0.0
 11
0.5511811023622056
 21
12.92125984251968
 31
0.0
  0
LINE
  5
1033
330
1E
100
AcDbEntity
  8
7
100
AcDbLine
 10
0.5511811023622056
 20
12.92125984251968
 30
0.0
 11
0.5078740157480315
 21
12.92125984251968
 31
0.0
  0
LINE
  5
1034
330
1E
100
AcDbEntity
  8
7
100
AcDbLine
 10
0.5078740157480315
 20
12.92125984251968
 30
0.0
 11
0.4616141732283463
 21
12.92125984251968
 31
0.0
  0
LINE
  5
1035
330
1E
100
AcDbEntity
  8
7
100
AcDbLine
 10
0.4616141732283463
 20
12.92125984251968
 30
0.0
 11
0.41240157480315
 21
12.92125984251968
 31
0.0
  0
LINE
  5
1036
330
1E
100
AcDbEntity
  8
7
100
AcDbLine
 10
0.6870078740157482
 20
12.92125984251968
 30
0.0
 11
0.6692913385826778
 21
12.92125984251968
 31
0.0
  0
LINE
  5
1037
330
1E
100
AcDbEntity
  8
7
100
AcDbLine
 10
0.6692913385826778
 20
12.92125984251968
 30
0.0
 11
0.66240157480315
 21
12.92125984251968
 31
0.0
  0
LINE
  5
1038
330
1E
100
AcDbEntity
  8
7
100
AcDbLine
 10
0.66240157480315
 20
12.92125984251968
 30
0.0
 11
0.6574803149606315
 21
12.92125984251968
 31
0.0
  0
LINE
  5
1039
330
1E
100
AcDbEntity
  8
7
100
AcDbLine
 10
0.6574803149606315
 20
12.92125984251968
 30
0.0
 11
0.6437007874015759
 21
12.92125984251968
 31
0.0
  0
LINE
  5
103A
330
1E
100
AcDbEntity
  8
7
100
AcDbLine
 10
0.6437007874015759
 20
12.92125984251968
 30
0.0
 11
0.6200787401574815
 21
12.92125984251968
 31
0.0
  0
LINE
  5
103B
330
1E
100
AcDbEntity
  8
7
100
AcDbLine
 10
0.6574803149606315
 20
13.04133858267716
 30
0.0
 11
0.66240157480315
 21
13.04133858267716
 31
0.0
  0
LINE
  5
103C
330
1E
100
AcDbEntity
  8
7
100
AcDbLine
 10
0.66240157480315
 20
13.04133858267716
 30
0.0
 11
0.6692913385826778
 21
13.04133858267716
 31
0.0
  0
LINE
  5
103D
330
1E
100
AcDbEntity
  8
7
100
AcDbLine
 10
0.6692913385826778
 20
13.04133858267716
 30
0.0
 11
0.6870078740157482
 21
13.04133858267716
 31
0.0
  0
LINE
  5
103E
330
1E
100
AcDbEntity
  8
7
100
AcDbLine
 10
0.41240157480315
 20
13.04133858267716
 30
0.0
 11
0.4616141732283463
 21
13.04133858267716
 31
0.0
  0
LINE
  5
103F
330
1E
100
AcDbEntity
  8
7
100
AcDbLine
 10
0.4616141732283463
 20
13.04133858267716
 30
0.0
 11
0.5078740157480315
 21
13.04133858267716
 31
0.0
  0
LINE
  5
1040
330
1E
100
AcDbEntity
  8
7
100
AcDbLine
 10
0.5078740157480315
 20
13.04133858267716
 30
0.0
 11
0.5511811023622056
 21
13.04133858267716
 31
0.0
  0
LINE
  5
1041
330
1E
100
AcDbEntity
  8
7
100
AcDbLine
 10
0.5511811023622056
 20
13.04133858267716
 30
0.0
 11
0.5895669291338593
 21
13.04133858267716
 31
0.0
  0
LINE
  5
1042
330
1E
100
AcDbEntity
  8
7
100
AcDbLine
 10
0.5895669291338593
 20
13.04133858267716
 30
0.0
 11
0.6200787401574815
 21
13.04133858267716
 31
0.0
  0
LINE
  5
1043
330
1E
100
AcDbEntity
  8
7
100
AcDbLine
 10
0.6200787401574815
 20
13.04133858267716
 30
0.0
 11
0.6437007874015759
 21
13.04133858267716
 31
0.0
  0
LINE
  5
1044
330
1E
100
AcDbEntity
  8
7
100
AcDbLine
 10
0.6437007874015759
 20
13.04133858267716
 30
0.0
 11
0.6574803149606315
 21
13.04133858267716
 31
0.0
  0
LINE
  5
1045
330
1E
100
AcDbEntity
  8
7
100
AcDbLine
 10
0.0
 20
13.04133858267716
 30
0.0
 11
0.0049212598425203
 21
13.04133858267716
 31
0.0
  0
LINE
  5
1046
330
1E
100
AcDbEntity
  8
7
100
AcDbLine
 10
0.0049212598425203
 20
13.04133858267716
 30
0.0
 11
0.0187007874015759
 21
13.04133858267716
 31
0.0
  0
LINE
  5
1047
330
1E
100
AcDbEntity
  8
7
100
AcDbLine
 10
0.0187007874015759
 20
13.04133858267716
 30
0.0
 11
0.0423228346456703
 21
13.04133858267716
 31
0.0
  0
LINE
  5
1048
330
1E
100
AcDbEntity
  8
7
100
AcDbLine
 10
0.0423228346456703
 20
13.04133858267716
 30
0.0
 11
0.0728346456692926
 21
13.04133858267716
 31
0.0
  0
LINE
  5
1049
330
1E
100
AcDbEntity
  8
7
100
AcDbLine
 10
0.0728346456692926
 20
13.04133858267716
 30
0.0
 11
0.1112204724409462
 21
13.04133858267716
 31
0.0
  0
LINE
  5
104A
330
1E
100
AcDbEntity
  8
7
100
AcDbLine
 10
0.1112204724409462
 20
13.04133858267716
 30
0.0
 11
0.1545275590551185
 21
13.04133858267716
 31
0.0
  0
LINE
  5
104B
330
1E
100
AcDbEntity
  8
7
100
AcDbLine
 10
0.1545275590551185
 20
13.04133858267716
 30
0.0
 11
0.2007874015748037
 21
13.04133858267716
 31
0.0
  0
LINE
  5
104C
330
1E
100
AcDbEntity
  8
7
100
AcDbLine
 10
0.2007874015748037
 20
13.04133858267716
 30
0.0
 11
0.25
 21
13.04133858267716
 31
0.0
  0
LINE
  5
104D
330
1E
100
AcDbEntity
  8
7
100
AcDbLine
 10
18.75
 20
13.04133858267716
 30
0.0
 11
18.79921259842519
 21
13.04133858267716
 31
0.0
  0
LINE
  5
104E
330
1E
100
AcDbEntity
  8
7
100
AcDbLine
 10
18.79921259842519
 20
13.04133858267716
 30
0.0
 11
18.84547244094488
 21
13.04133858267716
 31
0.0
  0
LINE
  5
104F
330
1E
100
AcDbEntity
  8
7
100
AcDbLine
 10
18.84547244094488
 20
13.04133858267716
 30
0.0
 11
18.88877952755905
 21
13.04133858267716
 31
0.0
  0
LINE
  5
1050
330
1E
100
AcDbEntity
  8
7
100
AcDbLine
 10
18.88877952755905
 20
13.04133858267716
 30
0.0
 11
18.9271653543307
 21
13.04133858267716
 31
0.0
  0
LINE
  5
1051
330
1E
100
AcDbEntity
  8
7
100
AcDbLine
 10
18.9271653543307
 20
13.04133858267716
 30
0.0
 11
18.95767716535432
 21
13.04133858267716
 31
0.0
  0
LINE
  5
1052
330
1E
100
AcDbEntity
  8
7
100
AcDbLine
 10
18.95767716535432
 20
13.04133858267716
 30
0.0
 11
18.98129921259842
 21
13.04133858267716
 31
0.0
  0
LINE
  5
1053
330
1E
100
AcDbEntity
  8
7
100
AcDbLine
 10
18.98129921259842
 20
13.04133858267716
 30
0.0
 11
18.99507874015748
 21
13.04133858267716
 31
0.0
  0
LINE
  5
1054
330
1E
100
AcDbEntity
  8
7
100
AcDbLine
 10
18.99507874015748
 20
13.04133858267716
 30
0.0
 11
19.0
 21
13.04133858267716
 31
0.0
  0
LINE
  5
1055
330
1E
100
AcDbEntity
  8
7
100
AcDbLine
 10
18.35629921259842
 20
13.04133858267716
 30
0.0
 11
18.37992125984252
 21
13.04133858267716
 31
0.0
  0
LINE
  5
1056
330
1E
100
AcDbEntity
  8
7
100
AcDbLine
 10
18.37992125984252
 20
13.04133858267716
 30
0.0
 11
18.41043307086614
 21
13.04133858267716
 31
0.0
  0
LINE
  5
1057
330
1E
100
AcDbEntity
  8
7
100
AcDbLine
 10
18.41043307086614
 20
13.04133858267716
 30
0.0
 11
18.44881889763779
 21
13.04133858267716
 31
0.0
  0
LINE
  5
1058
330
1E
100
AcDbEntity
  8
7
100
AcDbLine
 10
18.44881889763779
 20
13.04133858267716
 30
0.0
 11
18.49212598425197
 21
13.04133858267716
 31
0.0
  0
LINE
  5
1059
330
1E
100
AcDbEntity
  8
7
100
AcDbLine
 10
18.49212598425197
 20
13.04133858267716
 30
0.0
 11
18.53838582677165
 21
13.04133858267716
 31
0.0
  0
LINE
  5
105A
330
1E
100
AcDbEntity
  8
7
100
AcDbLine
 10
18.53838582677165
 20
13.04133858267716
 30
0.0
 11
18.58759842519685
 21
13.04133858267716
 31
0.0
  0
LINE
  5
105B
330
1E
100
AcDbEntity
  8
7
100
AcDbLine
 10
18.31200787401574
 20
13.04133858267716
 30
0.0
 11
18.33070866141732
 21
13.04133858267716
 31
0.0
  0
LINE
  5
105C
330
1E
100
AcDbEntity
  8
7
100
AcDbLine
 10
18.33070866141732
 20
13.04133858267716
 30
0.0
 11
18.33759842519685
 21
13.04133858267716
 31
0.0
  0
LINE
  5
105D
330
1E
100
AcDbEntity
  8
7
100
AcDbLine
 10
18.33759842519685
 20
13.04133858267716
 30
0.0
 11
18.34251968503937
 21
13.04133858267716
 31
0.0
  0
LINE
  5
105E
330
1E
100
AcDbEntity
  8
7
100
AcDbLine
 10
18.34251968503937
 20
13.04133858267716
 30
0.0
 11
18.35629921259842
 21
13.04133858267716
 31
0.0
  0
LINE
  5
105F
330
1E
100
AcDbEntity
  8
7
100
AcDbLine
 10
0.41240157480315
 20
13.04133858267716
 30
0.0
 11
0.25
 21
13.04133858267716
 31
0.0
  0
LINE
  5
1060
330
1E
100
AcDbEntity
  8
7
100
AcDbLine
 10
0.25
 20
13.04133858267716
 30
0.0
 11
0.25
 21
12.92125984251968
 31
0.0
  0
LINE
  5
1061
330
1E
100
AcDbEntity
  8
7
100
AcDbLine
 10
0.25
 20
12.92125984251968
 30
0.0
 11
0.41240157480315
 21
12.92125984251968
 31
0.0
  0
LINE
  5
1062
330
1E
100
AcDbEntity
  8
7
100
AcDbLine
 10
0.41240157480315
 20
12.92125984251968
 30
0.0
 11
0.41240157480315
 21
13.04133858267716
 31
0.0
  0
LINE
  5
1063
330
1E
100
AcDbEntity
  8
7
100
AcDbLine
 10
12.46948818897637
 20
13.76377952755905
 30
0.0
 11
12.52952755905512
 21
13.76377952755905
 31
0.0
  0
LINE
  5
1064
330
1E
100
AcDbEntity
  8
7
100
AcDbLine
 10
12.52952755905512
 20
13.76377952755905
 30
0.0
 11
12.52952755905512
 21
13.64468503937008
 31
0.0
  0
LINE
  5
1065
330
1E
100
AcDbEntity
  8
7
100
AcDbLine
 10
12.52952755905512
 20
13.64468503937008
 30
0.0
 11
12.6496062992126
 21
13.64468503937008
 31
0.0
  0
LINE
  5
1066
330
1E
100
AcDbEntity
  8
7
100
AcDbLine
 10
12.48326771653543
 20
16.76673228346456
 30
0.0
 11
12.54330708661417
 21
16.76082677165354
 31
0.0
  0
LINE
  5
1067
330
1E
100
AcDbEntity
  8
7
100
AcDbLine
 10
12.54330708661417
 20
16.76082677165354
 30
0.0
 11
12.53248031496063
 21
16.64173228346456
 31
0.0
  0
LINE
  5
1068
330
1E
100
AcDbEntity
  8
7
100
AcDbLine
 10
12.53248031496063
 20
16.64173228346456
 30
0.0
 11
12.6515748031496
 21
16.63090551181102
 31
0.0
  0
ENDSEC
  0
SECTION
  2
OBJECTS
  0
DICTIONARY
  5
C
330
0
100
AcDbDictionary
  3
ACAD_GROUP
350
D
  3
ACAD_LAYOUT
350
19
  3
ACAD_MLINESTYLE
350
16
  3
ACAD_PLOTSETTINGS
350
18
  3
ACAD_PLOTSTYLENAME
350
E
  3
ACDBHEADERROUNDTRIPXREC
350
109E
  0
DICTIONARY
  5
10C1
330
1E
100
AcDbDictionary
280
     1
  3
ACAD_LAYOUTSELFREF
360
10C2
  0
DICTIONARY
  5
10BF
330
1A
100
AcDbDictionary
280
     1
  3
ACAD_LAYOUTSELFREF
360
10C0
  0
DICTIONARY
  5
D
102
{ACAD_REACTORS
330
C
102
}
330
C
100
AcDbDictionary
  0
DICTIONARY
  5
19
102
{ACAD_REACTORS
330
C
102
}
330
C
100
AcDbDictionary
  0
DICTIONARY
  5
16
102
{ACAD_REACTORS
330
C
102
}
330
C
100
AcDbDictionary
  3
STANDARD
350
17
  0
DICTIONARY
  5
18
102
{ACAD_REACTORS
330
C
102
}
330
C
100
AcDbDictionary
  0
ACDBDICTIONARYWDFLT
  5
E
102
{ACAD_REACTORS
330
C
102
}
330
C
100
AcDbDictionary
281
     1
  3
Normal
350
F
100
AcDbDictionaryWithDefault
340
F
  0
DICTIONARY
  5
109E
102
{ACAD_REACTORS
330
C
102
}
330
C
100
AcDbDictionary
  3
CEPSNTYPE
350
10A8
  3
DIMSTYLEDATA
350
10AC
  3
FINGERPRINTGUID
350
10A9
  3
HYPERLINKBASE
350
10A1
  3
INSUNITS
350
10A7
  3
LAYOUTDICT
350
10A3
  3
LWETCUNION
350
10A6
  3
PLOTSETDICT
350
10A4
  3
PLOTSTYLNAMDICT
350
10A5
  3
PSVPSCALE
350
10AB
  3
PUCSBASE
350
10AF
  3
PUCSORGBACK
350
10B5
  3
PUCSORGBOTTOM
350
10B1
  3
PUCSORGFRONT
350
10B4
  3
PUCSORGLEFT
350
10B2
  3
PUCSORGRIGHT
350
10B3
  3
PUCSORGTOP
350
10B0
  3
PUCSORTHOREF
350
10AD
  3
PUCSORTHOVIEW
350
10AE
  3
STYLESHEET
350
10A2
  3
TSTACKALIGN
350
109F
  3
TSTACKSIZE
350
10A0
  3
UCSBASE
350
10B8
  3
UCSORGBACK
350
10BE
  3
UCSORGBOTTOM
350
10BA
  3
UCSORGFRONT
350
10BD
  3
UCSORGLEFT
350
10BB
  3
UCSORGRIGHT
350
10BC
  3
UCSORGTOP
350
10B9
  3
UCSORTHOREF
350
10B6
  3
UCSORTHOVIEW
350
10B7
  3
VERSIONGUID
350
10AA
  0
XRECORD
  5
10C2
102
{ACAD_REACTORS
330
10C1
102
}
330
10C1
100
AcDbXrecord
340
1E
  0
XRECORD
  5
10C0
102
{ACAD_REACTORS
330
10BF
102
}
330
10BF
100
AcDbXrecord
340
1A
  0
MLINESTYLE
  5
17
102
{ACAD_REACTORS
330
16
102
}
330
16
100
AcDbMlineStyle
  2
STANDARD
 70
     0
  3

 62
   256
 51
90.0
 52
90.0
 71
     2
 49
0.5
 62
   256
  6
BYLAYER
 49
-0.5
 62
   256
  6
BYLAYER
  0
ACDBPLACEHOLDER
  5
F
102
{ACAD_REACTORS
330
E
102
}
330
E
100
AcDbPlaceHolder
280
     0
  0
XRECORD
  5
10A8
102
{ACAD_REACTORS
330
109E
102
}
330
109E
100
AcDbXrecord
 90
        0
  0
XRECORD
  5
10AC
102
{ACAD_REACTORS
330
109E
102
}
330
109E
100
AcDbXrecord
1000
DSTYLE
1002
{
1070
   279
 70
     2
1002
}
  0
XRECORD
  5
10A9
102
{ACAD_REACTORS
330
109E
102
}
330
109E
100
AcDbXrecord
  1
{EFE45692-42A3-4541-8F2E-CE982798087F}
  0
XRECORD
  5
10A1
102
{ACAD_REACTORS
330
109E
102
}
330
109E
100
AcDbXrecord
  1

  0
XRECORD
  5
10A7
102
{ACAD_REACTORS
330
109E
102
}
330
109E
100
AcDbXrecord
 90
        0
  0
XRECORD
  5
10A3
102
{ACAD_REACTORS
330
109E
102
}
330
109E
100
AcDbXrecord
340
19
  0
XRECORD
  5
10A6
102
{ACAD_REACTORS
330
109E
102
}
330
109E
100
AcDbXrecord
 90
    14877
  0
XRECORD
  5
10A4
102
{ACAD_REACTORS
330
109E
102
}
330
109E
100
AcDbXrecord
340
18
  0
XRECORD
  5
10A5
102
{ACAD_REACTORS
330
109E
102
}
330
109E
100
AcDbXrecord
340
E
  0
XRECORD
  5
10AB
102
{ACAD_REACTORS
330
109E
102
}
330
109E
100
AcDbXrecord
 40
0.0
  0
XRECORD
  5
10AF
102
{ACAD_REACTORS
330
109E
102
}
330
109E
100
AcDbXrecord
340
0
  0
XRECORD
  5
10B5
102
{ACAD_REACTORS
330
109E
102
}
330
109E
100
AcDbXrecord
 10
0.0
 20
0.0
 30
0.0
  0
XRECORD
  5
10B1
102
{ACAD_REACTORS
330
109E
102
}
330
109E
100
AcDbXrecord
 10
0.0
 20
0.0
 30
0.0
  0
XRECORD
  5
10B4
102
{ACAD_REACTORS
330
109E
102
}
330
109E
100
AcDbXrecord
 10
0.0
 20
0.0
 30
0.0
  0
XRECORD
  5
10B2
102
{ACAD_REACTORS
330
109E
102
}
330
109E
100
AcDbXrecord
 10
0.0
 20
0.0
 30
0.0
  0
XRECORD
  5
10B3
102
{ACAD_REACTORS
330
109E
102
}
330
109E
100
AcDbXrecord
 10
0.0
 20
0.0
 30
0.0
  0
XRECORD
  5
10B0
102
{ACAD_REACTORS
330
109E
102
}
330
109E
100
AcDbXrecord
 10
0.0
 20
0.0
 30
0.0
  0
XRECORD
  5
10AD
102
{ACAD_REACTORS
330
109E
102
}
330
109E
100
AcDbXrecord
340
0
  0
XRECORD
  5
10AE
102
{ACAD_REACTORS
330
109E
102
}
330
109E
100
AcDbXrecord
 70
     0
  0
XRECORD
  5
10A2
102
{ACAD_REACTORS
330
109E
102
}
330
109E
100
AcDbXrecord
  1

  0
XRECORD
  5
109F
102
{ACAD_REACTORS
330
109E
102
}
330
109E
100
AcDbXrecord
 90
        1
  0
XRECORD
  5
10A0
102
{ACAD_REACTORS
330
109E
102
}
330
109E
100
AcDbXrecord
 90
       70
  0
XRECORD
  5
10B8
102
{ACAD_REACTORS
330
109E
102
}
330
109E
100
AcDbXrecord
340
0
  0
XRECORD
  5
10BE
102
{ACAD_REACTORS
330
109E
102
}
330
109E
100
AcDbXrecord
 10
0.0
 20
0.0
 30
0.0
  0
XRECORD
  5
10BA
102
{ACAD_REACTORS
330
109E
102
}
330
109E
100
AcDbXrecord
 10
0.0
 20
0.0
 30
0.0
  0
XRECORD
  5
10BD
102
{ACAD_REACTORS
330
109E
102
}
330
109E
100
AcDbXrecord
 10
0.0
 20
0.0
 30
0.0
  0
XRECORD
  5
10BB
102
{ACAD_REACTORS
330
109E
102
}
330
109E
100
AcDbXrecord
 10
0.0
 20
0.0
 30
0.0
  0
XRECORD
  5
10BC
102
{ACAD_REACTORS
330
109E
102
}
330
109E
100
AcDbXrecord
 10
0.0
 20
0.0
 30
0.0
  0
XRECORD
  5
10B9
102
{ACAD_REACTORS
330
109E
102
}
330
109E
100
AcDbXrecord
 10
0.0
 20
0.0
 30
0.0
  0
XRECORD
  5
10B6
102
{ACAD_REACTORS
330
109E
102
}
330
109E
100
AcDbXrecord
340
0
  0
XRECORD
  5
10B7
102
{ACAD_REACTORS
330
109E
102
}
330
109E
100
AcDbXrecord
 70
     0
  0
XRECORD
  5
10AA
102
{ACAD_REACTORS
330
109E
102
}
330
109E
100
AcDbXrecord
  1
{0696D8FF-8105-4FAB-92E8-397B1AEF88C6}
  0
ENDSEC
  0
EOF
