  0
SECTION
  2
HEADER
  9
$ACADVER
  1
AC1012
  9
$DWGCODEPAGE
  3
ANSI_1252
  9
$INSBASE
 10
0.0
 20
0.0
 30
0.0
  9
$EXTMIN
 10
0.6432495404072683
 20
1.18350221959816
 30
-0.0015258207003583
  9
$EXTMAX
 10
5.447021504686006
 20
2.977020277614961
 30
0.0000000349246037
  9
$LIMMIN
 10
0.0
 20
0.0
  9
$LIMMAX
 10
12.0
 20
9.0
  9
$ORTHOMODE
 70
     0
  9
$REGENMODE
 70
     1
  9
$FILLMODE
 70
     1
  9
$QTEXTMODE
 70
     0
  9
$MIRRTEXT
 70
     1
  9
$DRAGMODE
 70
     2
  9
$LTSCALE
 40
1.0
  9
$OSMODE
 70
    33
  9
$ATTMODE
 70
     1
  9
$TEXTSIZE
 40
0.2
  9
$TRACEWID
 40
0.05
  9
$TEXTSTYLE
  7
STANDARD
  9
$CLAYER
  8
0
  9
$CELTYPE
  6
BYLAYER
  9
$CECOLOR
 62
   256
  9
$CELTSCALE
 40
1.0
  9
$DELOBJ
 70
     1
  9
$DISPSILH
 70
     0
  9
$DIMSCALE
 40
1.0
  9
$DIMASZ
 40
0.18
  9
$DIMEXO
 40
0.0625
  9
$DIMDLI
 40
0.38
  9
$DIMRND
 40
0.0
  9
$DIMDLE
 40
0.0
  9
$DIMEXE
 40
0.18
  9
$DIMTP
 40
0.0
  9
$DIMTM
 40
0.0
  9
$DIMTXT
 40
0.18
  9
$DIMCEN
 40
0.09
  9
$DIMTSZ
 40
0.0
  9
$DIMTOL
 70
     0
  9
$DIMLIM
 70
     0
  9
$DIMTIH
 70
     1
  9
$DIMTOH
 70
     1
  9
$DIMSE1
 70
     0
  9
$DIMSE2
 70
     0
  9
$DIMTAD
 70
     0
  9
$DIMZIN
 70
     0
  9
$DIMBLK
  1

  9
$DIMASO
 70
     1
  9
$DIMSHO
 70
     1
  9
$DIMPOST
  1

  9
$DIMAPOST
  1

  9
$DIMALT
 70
     0
  9
$DIMALTD
 70
     2
  9
$DIMALTF
 40
25.4
  9
$DIMLFAC
 40
1.0
  9
$DIMTOFL
 70
     0
  9
$DIMTVP
 40
0.0
  9
$DIMTIX
 70
     0
  9
$DIMSOXD
 70
     0
  9
$DIMSAH
 70
     0
  9
$DIMBLK1
  1

  9
$DIMBLK2
  1

  9
$DIMSTYLE
  2
STANDARD
  9
$DIMCLRD
 70
     0
  9
$DIMCLRE
 70
     0
  9
$DIMCLRT
 70
     0
  9
$DIMTFAC
 40
1.0
  9
$DIMGAP
 40
0.09
  9
$DIMJUST
 70
     0
  9
$DIMSD1
 70
     0
  9
$DIMSD2
 70
     0
  9
$DIMTOLJ
 70
     1
  9
$DIMTZIN
 70
     0
  9
$DIMALTZ
 70
     0
  9
$DIMALTTZ
 70
     0
  9
$DIMFIT
 70
     5
  9
$DIMUPT
 70
     0
  9
$DIMUNIT
 70
     2
  9
$DIMDEC
 70
     4
  9
$DIMTDEC
 70
     4
  9
$DIMALTU
 70
     2
  9
$DIMALTTD
 70
     2
  9
$DIMTXSTY
  7
STANDARD
  9
$DIMAUNIT
 70
     0
  9
$LUNITS
 70
     2
  9
$LUPREC
 70
     4
  9
$SKETCHINC
 40
0.1
  9
$FILLETRAD
 40
0.0
  9
$AUNITS
 70
     0
  9
$AUPREC
 70
     0
  9
$MENU
  1
acad
  9
$ELEVATION
 40
0.0
  9
$PELEVATION
 40
0.0
  9
$THICKNESS
 40
0.0
  9
$LIMCHECK
 70
     0
  9
$BLIPMODE
 70
     0
  9
$CHAMFERA
 40
0.0
  9
$CHAMFERB
 40
0.0
  9
$CHAMFERC
 40
0.0
  9
$CHAMFERD
 40
0.0
  9
$SKPOLY
 70
     0
  9
$TDCREATE
 40
2452604.421331018
  9
$TDUPDATE
 40
2452604.445740891
  9
$TDINDWG
 40
0.0006633333
  9
$TDUSRTIMER
 40
0.0006633333
  9
$USRTIMER
 70
     1
  9
$ANGBASE
 50
0.0
  9
$ANGDIR
 70
     0
  9
$PDMODE
 70
     0
  9
$PDSIZE
 40
0.0
  9
$PLINEWID
 40
0.0
  9
$COORDS
 70
     2
  9
$SPLFRAME
 70
     0
  9
$SPLINETYPE
 70
     6
  9
$SPLINESEGS
 70
     8
  9
$ATTDIA
 70
     0
  9
$ATTREQ
 70
     1
  9
$HANDLING
 70
  4097
  9
$HANDSEED
  5
4A94
  9
$SURFTAB1
 70
     6
  9
$SURFTAB2
 70
     6
  9
$SURFTYPE
 70
     6
  9
$SURFU
 70
     6
  9
$SURFV
 70
     6
  9
$UCSNAME
  2

  9
$UCSORG
 10
0.0
 20
0.0
 30
0.0
  9
$UCSXDIR
 10
1.0
 20
0.0
 30
0.0
  9
$UCSYDIR
 10
0.0
 20
1.0
 30
0.0
  9
$PUCSNAME
  2

  9
$PUCSORG
 10
0.0
 20
0.0
 30
0.0
  9
$PUCSXDIR
 10
1.0
 20
0.0
 30
0.0
  9
$PUCSYDIR
 10
0.0
 20
1.0
 30
0.0
  9
$USERI1
 70
     0
  9
$USERI2
 70
     0
  9
$USERI3
 70
     0
  9
$USERI4
 70
     0
  9
$USERI5
 70
     0
  9
$USERR1
 40
0.0
  9
$USERR2
 40
0.0
  9
$USERR3
 40
0.0
  9
$USERR4
 40
0.0
  9
$USERR5
 40
0.0
  9
$WORLDVIEW
 70
     1
  9
$SHADEDGE
 70
     3
  9
$SHADEDIF
 70
    70
  9
$TILEMODE
 70
     1
  9
$MAXACTVP
 70
    16
  9
$PINSBASE
 10
0.0
 20
0.0
 30
0.0
  9
$PLIMCHECK
 70
     0
  9
$PEXTMIN
 10
1.000000000000000E+20
 20
1.000000000000000E+20
 30
1.000000000000000E+20
  9
$PEXTMAX
 10
-1.000000000000000E+20
 20
-1.000000000000000E+20
 30
-1.000000000000000E+20
  9
$PLIMMIN
 10
0.0
 20
0.0
  9
$PLIMMAX
 10
12.0
 20
9.0
  9
$UNITMODE
 70
     0
  9
$VISRETAIN
 70
     0
  9
$PLINEGEN
 70
     0
  9
$PSLTSCALE
 70
     1
  9
$TREEDEPTH
 70
  3020
  9
$PICKSTYLE
 70
     1
  9
$CMLSTYLE
  2
STANDARD
  9
$CMLJUST
 70
     0
  9
$CMLSCALE
 40
1.0
  9
$SAVEIMAGES
 70
     1
  0
ENDSEC
  0
SECTION
  2
CLASSES
  0
CLASS
  1
ACDBDICTIONARYWDFLT
  2
AcDbDictionaryWithDefault
  3
AutoCAD 2000
 90
    32768
280
     0
281
     0
  0
CLASS
  1
ACDBPLACEHOLDER
  2
AcDbPlaceHolder
  3
AutoCAD 2000
 90
    32768
280
     0
281
     0
  0
CLASS
  1
LAYOUT
  2
AcDbLayout
  3
AutoCAD 2000
 90
    32768
280
     0
281
     0
  0
CLASS
  1
LONG_TRANSACTION
  2
AcDbLongTransaction
  3
AutoCAD 2000
 90
    32768
280
     0
281
     0
  0
CLASS
  1
LWPOLYLINE
  2
AcDbPolyline
  3
AutoCAD 2000
 90
    32768
280
     0
281
     1
  0
CLASS
  1
HATCH
  2
AcDbHatch
  3
AutoCAD 2000
 90
    32768
280
     0
281
     1
  0
CLASS
  1
XRECORD
  2
AcDbXrecord
  3
AutoCAD 2000
 90
    32768
280
     0
281
     0
  0
ENDSEC
  0
SECTION
  2
TABLES
  0
TABLE
  2
VPORT
  5
8
330
0
100
AcDbSymbolTable
 70
     3
  0
VPORT
  5
4A8F
330
8
100
AcDbSymbolTableRecord
100
AcDbViewportTableRecord
  2
*ACTIVE
 70
     0
 10
0.0
 20
0.0
 11
1.0
 21
1.0
 12
3.045135522546637
 22
2.080261248606561
 13
0.0
 23
0.0
 14
1.0
 24
1.0
 15
0.0
 25
0.0
 16
0.0
 26
0.0
 36
1.0
 17
0.0
 27
0.0
 37
0.0
 40
2.962693254540472
 41
1.62928759894459
 42
50.0
 43
0.0
 44
0.0
 50
0.0
 51
0.0
 71
     0
 72
   100
 73
     1
 74
     1
 75
     0
 76
     0
 77
     0
 78
     0
  0
ENDTAB
  0
TABLE
  2
LTYPE
  5
5
330
0
100
AcDbSymbolTable
 70
    25
  0
LTYPE
  5
13
330
5
100
AcDbSymbolTableRecord
100
AcDbLinetypeTableRecord
  2
BYBLOCK
 70
     0
  3

 72
    65
 73
     0
 40
0.0
  0
LTYPE
  5
14
330
5
100
AcDbSymbolTableRecord
100
AcDbLinetypeTableRecord
  2
BYLAYER
 70
     0
  3

 72
    65
 73
     0
 40
0.0
  0
LTYPE
  5
15
330
5
100
AcDbSymbolTableRecord
100
AcDbLinetypeTableRecord
  2
CONTINUOUS
 70
     0
  3
Solid line
 72
    65
 73
     0
 40
0.0
  0
LTYPE
  5
22
330
5
100
AcDbSymbolTableRecord
100
AcDbLinetypeTableRecord
  2
BORDER
 70
     0
  3
__ __ . __ __ . __ __ . __ __ . __ __ . __ __ .
 72
    65
 73
     6
 40
1.75
 49
0.5
 74
     0
 49
-0.25
 74
     0
 49
0.5
 74
     0
 49
-0.25
 74
     0
 49
0.5
 74
     0
 49
-0.25
 74
     0
  0
LTYPE
  5
23
330
5
100
AcDbSymbolTableRecord
100
AcDbLinetypeTableRecord
  2
BORDER2
 70
     0
  3
__.__.__.__.__.__.__.__.__.__.__.__.__.__.__.__
 72
    65
 73
     6
 40
0.875
 49
0.25
 74
     0
 49
-0.125
 74
     0
 49
0.25
 74
     0
 49
-0.125
 74
     0
 49
0.25
 74
     0
 49
-0.125
 74
     0
  0
LTYPE
  5
24
330
5
100
AcDbSymbolTableRecord
100
AcDbLinetypeTableRecord
  2
BORDERX2
 70
     0
  3
____  ____  .  ____  ____  .  
 72
    65
 73
     6
 40
3.5
 49
1.0
 74
     0
 49
-0.5
 74
     0
 49
1.0
 74
     0
 49
-0.5
 74
     0
 49
1.0
 74
     0
 49
-0.5
 74
     0
  0
LTYPE
  5
25
330
5
100
AcDbSymbolTableRecord
100
AcDbLinetypeTableRecord
  2
CENTER
 70
     0
  3
____ _ ____ _ ____ _ ____ _ ____ _ ____ _ ____
 72
    65
 73
     4
 40
2.0
 49
1.25
 74
     0
 49
-0.25
 74
     0
 49
0.25
 74
     0
 49
-0.25
 74
     0
  0
LTYPE
  5
26
330
5
100
AcDbSymbolTableRecord
100
AcDbLinetypeTableRecord
  2
CENTER2
 70
     0
  3
____ _ ____ _ ____ _ ____ _ ____ _ ____ _ ____
 72
    65
 73
     4
 40
1.125
 49
0.75
 74
     0
 49
-0.125
 74
     0
 49
0.125
 74
     0
 49
-0.125
 74
     0
  0
LTYPE
  5
27
330
5
100
AcDbSymbolTableRecord
100
AcDbLinetypeTableRecord
  2
CENTERX2
 70
     0
  3
________  __  ________  __  ________  __  
 72
    65
 73
     4
 40
4.0
 49
2.5
 74
     0
 49
-0.5
 74
     0
 49
0.5
 74
     0
 49
-0.5
 74
     0
  0
LTYPE
  5
28
330
5
100
AcDbSymbolTableRecord
100
AcDbLinetypeTableRecord
  2
DASHDOT
 70
     0
  3
__ . __ . __ . __ . __ . __ . __ . 
 72
    65
 73
     4
 40
1.0
 49
0.5
 74
     0
 49
-0.25
 74
     0
 49
0.0
 74
     0
 49
-0.25
 74
     0
  0
LTYPE
  5
29
330
5
100
AcDbSymbolTableRecord
100
AcDbLinetypeTableRecord
  2
DASHDOT2
 70
     0
  3
_._._._._._._._._._._._._._._._.
 72
    65
 73
     4
 40
0.5
 49
0.25
 74
     0
 49
-0.125
 74
     0
 49
0.0
 74
     0
 49
-0.125
 74
     0
  0
LTYPE
  5
2A
330
5
100
AcDbSymbolTableRecord
100
AcDbLinetypeTableRecord
  2
DASHDOTX2
 70
     0
  3
____  .  ____  .  ____  .  ____  .  
 72
    65
 73
     4
 40
2.0
 49
1.0
 74
     0
 49
-0.5
 74
     0
 49
0.0
 74
     0
 49
-0.5
 74
     0
  0
LTYPE
  5
2B
330
5
100
AcDbSymbolTableRecord
100
AcDbLinetypeTableRecord
  2
DASHED
 70
     0
  3
__ __ __ __ __ __ __ __ __ __ __ __ 
 72
    65
 73
     2
 40
0.75
 49
0.5
 74
     0
 49
-0.25
 74
     0
  0
LTYPE
  5
2C
330
5
100
AcDbSymbolTableRecord
100
AcDbLinetypeTableRecord
  2
DASHED2
 70
     0
  3
_ _ _ _ _ _ _ _ _ _ _ _ _ _ _ _ _ _ 
 72
    65
 73
     2
 40
0.375
 49
0.25
 74
     0
 49
-0.125
 74
     0
  0
LTYPE
  5
2D
330
5
100
AcDbSymbolTableRecord
100
AcDbLinetypeTableRecord
  2
DASHEDX2
 70
     0
  3
____  ____  ____  ____  ____  ____  
 72
    65
 73
     2
 40
1.5
 49
1.0
 74
     0
 49
-0.5
 74
     0
  0
LTYPE
  5
2E
330
5
100
AcDbSymbolTableRecord
100
AcDbLinetypeTableRecord
  2
DIVIDE
 70
     0
  3
____ . . ____ . . ____ . . ____ . . 
 72
    65
 73
     6
 40
1.25
 49
0.5
 74
     0
 49
-0.25
 74
     0
 49
0.0
 74
     0
 49
-0.25
 74
     0
 49
0.0
 74
     0
 49
-0.25
 74
     0
  0
LTYPE
  5
2F
330
5
100
AcDbSymbolTableRecord
100
AcDbLinetypeTableRecord
  2
DIVIDE2
 70
     0
  3
__..__..__..__..__..__..__..__..__..
 72
    65
 73
     6
 40
0.625
 49
0.25
 74
     0
 49
-0.125
 74
     0
 49
0.0
 74
     0
 49
-0.125
 74
     0
 49
0.0
 74
     0
 49
-0.125
 74
     0
  0
LTYPE
  5
30
330
5
100
AcDbSymbolTableRecord
100
AcDbLinetypeTableRecord
  2
DIVIDEX2
 70
     0
  3
________  .  .  ________  .  .  ________  .  . 
 72
    65
 73
     6
 40
2.5
 49
1.0
 74
     0
 49
-0.5
 74
     0
 49
0.0
 74
     0
 49
-0.5
 74
     0
 49
0.0
 74
     0
 49
-0.5
 74
     0
  0
LTYPE
  5
31
330
5
100
AcDbSymbolTableRecord
100
AcDbLinetypeTableRecord
  2
DOT
 70
     0
  3
. . . . . . . . . . . . . . . . . . 
 72
    65
 73
     2
 40
0.25
 49
0.0
 74
     0
 49
-0.25
 74
     0
  0
LTYPE
  5
32
330
5
100
AcDbSymbolTableRecord
100
AcDbLinetypeTableRecord
  2
DOT2
 70
     0
  3
....................................
 72
    65
 73
     2
 40
0.125
 49
0.0
 74
     0
 49
-0.125
 74
     0
  0
LTYPE
  5
33
330
5
100
AcDbSymbolTableRecord
100
AcDbLinetypeTableRecord
  2
DOTX2
 70
     0
  3
.  .  .  .  .  .  .  .  .  .  .  .  .  
 72
    65
 73
     2
 40
0.5
 49
0.0
 74
     0
 49
-0.5
 74
     0
  0
LTYPE
  5
34
330
5
100
AcDbSymbolTableRecord
100
AcDbLinetypeTableRecord
  2
HIDDEN
 70
     0
  3
__ __ __ __ __ __ __ __ __ __ __ __ 
 72
    65
 73
     2
 40
0.375
 49
0.25
 74
     0
 49
-0.125
 74
     0
  0
LTYPE
  5
35
330
5
100
AcDbSymbolTableRecord
100
AcDbLinetypeTableRecord
  2
HIDDEN2
 70
     0
  3
_ _ _ _ _ _ _ _ _ _ _ _ _ _ _ _ _ _ 
 72
    65
 73
     2
 40
0.1875
 49
0.125
 74
     0
 49
-0.0625
 74
     0
  0
LTYPE
  5
36
330
5
100
AcDbSymbolTableRecord
100
AcDbLinetypeTableRecord
  2
HIDDENX2
 70
     0
  3
____ ____ ____ ____ ____ ____ ____ 
 72
    65
 73
     2
 40
0.75
 49
0.5
 74
     0
 49
-0.25
 74
     0
  0
LTYPE
  5
37
330
5
100
AcDbSymbolTableRecord
100
AcDbLinetypeTableRecord
  2
PHANTOM
 70
     0
  3
______  __  __  ______  __  __  
 72
    65
 73
     6
 40
2.5
 49
1.25
 74
     0
 49
-0.25
 74
     0
 49
0.25
 74
     0
 49
-0.25
 74
     0
 49
0.25
 74
     0
 49
-0.25
 74
     0
  0
LTYPE
  5
38
330
5
100
AcDbSymbolTableRecord
100
AcDbLinetypeTableRecord
  2
PHANTOM2
 70
     0
  3
___ _ _ ___ _ _ ___ _ _ ___ _ _ 
 72
    65
 73
     6
 40
1.25
 49
0.625
 74
     0
 49
-0.125
 74
     0
 49
0.125
 74
     0
 49
-0.125
 74
     0
 49
0.125
 74
     0
 49
-0.125
 74
     0
  0
LTYPE
  5
39
330
5
100
AcDbSymbolTableRecord
100
AcDbLinetypeTableRecord
  2
PHANTOMX2
 70
     0
  3
___ _ _ ___ _ _ ___ _ _ ___ _ _ 
 72
    65
 73
     6
 40
5.0
 49
2.5
 74
     0
 49
-0.5
 74
     0
 49
0.5
 74
     0
 49
-0.5
 74
     0
 49
0.5
 74
     0
 49
-0.5
 74
     0
  0
ENDTAB
  0
TABLE
  2
LAYER
  5
2
330
0
100
AcDbSymbolTable
 70
   256
  0
LAYER
  5
10
330
2
100
AcDbSymbolTableRecord
100
AcDbLayerTableRecord
  2
0
 70
     0
 62
     7
  6
CONTINUOUS
  0
LAYER
  5
3A
330
2
100
AcDbSymbolTableRecord
100
AcDbLayerTableRecord
  2
1
 70
     0
 62
     1
  6
CONTINUOUS
  0
LAYER
  5
3B
330
2
100
AcDbSymbolTableRecord
100
AcDbLayerTableRecord
  2
2
 70
     0
 62
     2
  6
CONTINUOUS
  0
LAYER
  5
3C
330
2
100
AcDbSymbolTableRecord
100
AcDbLayerTableRecord
  2
3
 70
     0
 62
     3
  6
CONTINUOUS
  0
LAYER
  5
3D
330
2
100
AcDbSymbolTableRecord
100
AcDbLayerTableRecord
  2
4
 70
     0
 62
     4
  6
CONTINUOUS
  0
LAYER
  5
3E
330
2
100
AcDbSymbolTableRecord
100
AcDbLayerTableRecord
  2
5
 70
     0
 62
     5
  6
CONTINUOUS
  0
LAYER
  5
3F
330
2
100
AcDbSymbolTableRecord
100
AcDbLayerTableRecord
  2
6
 70
     0
 62
     6
  6
CONTINUOUS
  0
LAYER
  5
40
330
2
100
AcDbSymbolTableRecord
100
AcDbLayerTableRecord
  2
7
 70
     0
 62
     7
  6
CONTINUOUS
  0
LAYER
  5
41
330
2
100
AcDbSymbolTableRecord
100
AcDbLayerTableRecord
  2
8
 70
     0
 62
     8
  6
CONTINUOUS
  0
LAYER
  5
42
330
2
100
AcDbSymbolTableRecord
100
AcDbLayerTableRecord
  2
9
 70
     0
 62
     9
  6
CONTINUOUS
  0
LAYER
  5
43
330
2
100
AcDbSymbolTableRecord
100
AcDbLayerTableRecord
  2
10
 70
     0
 62
    10
  6
CONTINUOUS
  0
LAYER
  5
44
330
2
100
AcDbSymbolTableRecord
100
AcDbLayerTableRecord
  2
11
 70
     0
 62
    11
  6
CONTINUOUS
  0
LAYER
  5
45
330
2
100
AcDbSymbolTableRecord
100
AcDbLayerTableRecord
  2
12
 70
     0
 62
    12
  6
CONTINUOUS
  0
LAYER
  5
46
330
2
100
AcDbSymbolTableRecord
100
AcDbLayerTableRecord
  2
13
 70
     0
 62
    13
  6
CONTINUOUS
  0
LAYER
  5
47
330
2
100
AcDbSymbolTableRecord
100
AcDbLayerTableRecord
  2
14
 70
     0
 62
    14
  6
CONTINUOUS
  0
LAYER
  5
48
330
2
100
AcDbSymbolTableRecord
100
AcDbLayerTableRecord
  2
15
 70
     0
 62
    15
  6
CONTINUOUS
  0
LAYER
  5
49
330
2
100
AcDbSymbolTableRecord
100
AcDbLayerTableRecord
  2
16
 70
     0
 62
    16
  6
CONTINUOUS
  0
LAYER
  5
4A
330
2
100
AcDbSymbolTableRecord
100
AcDbLayerTableRecord
  2
17
 70
     0
 62
    17
  6
CONTINUOUS
  0
LAYER
  5
4B
330
2
100
AcDbSymbolTableRecord
100
AcDbLayerTableRecord
  2
18
 70
     0
 62
    18
  6
CONTINUOUS
  0
LAYER
  5
4C
330
2
100
AcDbSymbolTableRecord
100
AcDbLayerTableRecord
  2
19
 70
     0
 62
    19
  6
CONTINUOUS
  0
LAYER
  5
4D
330
2
100
AcDbSymbolTableRecord
100
AcDbLayerTableRecord
  2
20
 70
     0
 62
    20
  6
CONTINUOUS
  0
LAYER
  5
4E
330
2
100
AcDbSymbolTableRecord
100
AcDbLayerTableRecord
  2
21
 70
     0
 62
    21
  6
CONTINUOUS
  0
LAYER
  5
4F
330
2
100
AcDbSymbolTableRecord
100
AcDbLayerTableRecord
  2
22
 70
     0
 62
    22
  6
CONTINUOUS
  0
LAYER
  5
50
330
2
100
AcDbSymbolTableRecord
100
AcDbLayerTableRecord
  2
23
 70
     0
 62
    23
  6
CONTINUOUS
  0
LAYER
  5
51
330
2
100
AcDbSymbolTableRecord
100
AcDbLayerTableRecord
  2
24
 70
     0
 62
    24
  6
CONTINUOUS
  0
LAYER
  5
52
330
2
100
AcDbSymbolTableRecord
100
AcDbLayerTableRecord
  2
25
 70
     0
 62
    25
  6
CONTINUOUS
  0
LAYER
  5
53
330
2
100
AcDbSymbolTableRecord
100
AcDbLayerTableRecord
  2
26
 70
     0
 62
    26
  6
CONTINUOUS
  0
LAYER
  5
54
330
2
100
AcDbSymbolTableRecord
100
AcDbLayerTableRecord
  2
27
 70
     0
 62
    27
  6
CONTINUOUS
  0
LAYER
  5
55
330
2
100
AcDbSymbolTableRecord
100
AcDbLayerTableRecord
  2
28
 70
     0
 62
    28
  6
CONTINUOUS
  0
LAYER
  5
56
330
2
100
AcDbSymbolTableRecord
100
AcDbLayerTableRecord
  2
29
 70
     0
 62
    29
  6
CONTINUOUS
  0
LAYER
  5
57
330
2
100
AcDbSymbolTableRecord
100
AcDbLayerTableRecord
  2
30
 70
     0
 62
    30
  6
CONTINUOUS
  0
LAYER
  5
58
330
2
100
AcDbSymbolTableRecord
100
AcDbLayerTableRecord
  2
31
 70
     0
 62
    31
  6
CONTINUOUS
  0
LAYER
  5
59
330
2
100
AcDbSymbolTableRecord
100
AcDbLayerTableRecord
  2
32
 70
     0
 62
    32
  6
CONTINUOUS
  0
LAYER
  5
5A
330
2
100
AcDbSymbolTableRecord
100
AcDbLayerTableRecord
  2
33
 70
     0
 62
    33
  6
CONTINUOUS
  0
LAYER
  5
5B
330
2
100
AcDbSymbolTableRecord
100
AcDbLayerTableRecord
  2
34
 70
     0
 62
    34
  6
CONTINUOUS
  0
LAYER
  5
5C
330
2
100
AcDbSymbolTableRecord
100
AcDbLayerTableRecord
  2
35
 70
     0
 62
    35
  6
CONTINUOUS
  0
LAYER
  5
5D
330
2
100
AcDbSymbolTableRecord
100
AcDbLayerTableRecord
  2
36
 70
     0
 62
    36
  6
CONTINUOUS
  0
LAYER
  5
5E
330
2
100
AcDbSymbolTableRecord
100
AcDbLayerTableRecord
  2
37
 70
     0
 62
    37
  6
CONTINUOUS
  0
LAYER
  5
5F
330
2
100
AcDbSymbolTableRecord
100
AcDbLayerTableRecord
  2
38
 70
     0
 62
    38
  6
CONTINUOUS
  0
LAYER
  5
60
330
2
100
AcDbSymbolTableRecord
100
AcDbLayerTableRecord
  2
39
 70
     0
 62
    39
  6
CONTINUOUS
  0
LAYER
  5
61
330
2
100
AcDbSymbolTableRecord
100
AcDbLayerTableRecord
  2
40
 70
     0
 62
    40
  6
CONTINUOUS
  0
LAYER
  5
62
330
2
100
AcDbSymbolTableRecord
100
AcDbLayerTableRecord
  2
41
 70
     0
 62
    41
  6
CONTINUOUS
  0
LAYER
  5
63
330
2
100
AcDbSymbolTableRecord
100
AcDbLayerTableRecord
  2
42
 70
     0
 62
    42
  6
CONTINUOUS
  0
LAYER
  5
64
330
2
100
AcDbSymbolTableRecord
100
AcDbLayerTableRecord
  2
43
 70
     0
 62
    43
  6
CONTINUOUS
  0
LAYER
  5
65
330
2
100
AcDbSymbolTableRecord
100
AcDbLayerTableRecord
  2
44
 70
     0
 62
    44
  6
CONTINUOUS
  0
LAYER
  5
66
330
2
100
AcDbSymbolTableRecord
100
AcDbLayerTableRecord
  2
45
 70
     0
 62
    45
  6
CONTINUOUS
  0
LAYER
  5
67
330
2
100
AcDbSymbolTableRecord
100
AcDbLayerTableRecord
  2
46
 70
     0
 62
    46
  6
CONTINUOUS
  0
LAYER
  5
68
330
2
100
AcDbSymbolTableRecord
100
AcDbLayerTableRecord
  2
47
 70
     0
 62
    47
  6
CONTINUOUS
  0
LAYER
  5
69
330
2
100
AcDbSymbolTableRecord
100
AcDbLayerTableRecord
  2
48
 70
     0
 62
    48
  6
CONTINUOUS
  0
LAYER
  5
6A
330
2
100
AcDbSymbolTableRecord
100
AcDbLayerTableRecord
  2
49
 70
     0
 62
    49
  6
CONTINUOUS
  0
LAYER
  5
6B
330
2
100
AcDbSymbolTableRecord
100
AcDbLayerTableRecord
  2
50
 70
     0
 62
    50
  6
CONTINUOUS
  0
LAYER
  5
6C
330
2
100
AcDbSymbolTableRecord
100
AcDbLayerTableRecord
  2
51
 70
     0
 62
    51
  6
CONTINUOUS
  0
LAYER
  5
6D
330
2
100
AcDbSymbolTableRecord
100
AcDbLayerTableRecord
  2
52
 70
     0
 62
    52
  6
CONTINUOUS
  0
LAYER
  5
6E
330
2
100
AcDbSymbolTableRecord
100
AcDbLayerTableRecord
  2
53
 70
     0
 62
    53
  6
CONTINUOUS
  0
LAYER
  5
6F
330
2
100
AcDbSymbolTableRecord
100
AcDbLayerTableRecord
  2
54
 70
     0
 62
    54
  6
CONTINUOUS
  0
LAYER
  5
70
330
2
100
AcDbSymbolTableRecord
100
AcDbLayerTableRecord
  2
55
 70
     0
 62
    55
  6
CONTINUOUS
  0
LAYER
  5
71
330
2
100
AcDbSymbolTableRecord
100
AcDbLayerTableRecord
  2
56
 70
     0
 62
    56
  6
CONTINUOUS
  0
LAYER
  5
72
330
2
100
AcDbSymbolTableRecord
100
AcDbLayerTableRecord
  2
57
 70
     0
 62
    57
  6
CONTINUOUS
  0
LAYER
  5
73
330
2
100
AcDbSymbolTableRecord
100
AcDbLayerTableRecord
  2
58
 70
     0
 62
    58
  6
CONTINUOUS
  0
LAYER
  5
74
330
2
100
AcDbSymbolTableRecord
100
AcDbLayerTableRecord
  2
59
 70
     0
 62
    59
  6
CONTINUOUS
  0
LAYER
  5
75
330
2
100
AcDbSymbolTableRecord
100
AcDbLayerTableRecord
  2
60
 70
     0
 62
    60
  6
CONTINUOUS
  0
LAYER
  5
76
330
2
100
AcDbSymbolTableRecord
100
AcDbLayerTableRecord
  2
61
 70
     0
 62
    61
  6
CONTINUOUS
  0
LAYER
  5
77
330
2
100
AcDbSymbolTableRecord
100
AcDbLayerTableRecord
  2
62
 70
     0
 62
    62
  6
CONTINUOUS
  0
LAYER
  5
78
330
2
100
AcDbSymbolTableRecord
100
AcDbLayerTableRecord
  2
63
 70
     0
 62
    63
  6
CONTINUOUS
  0
LAYER
  5
79
330
2
100
AcDbSymbolTableRecord
100
AcDbLayerTableRecord
  2
64
 70
     0
 62
    64
  6
CONTINUOUS
  0
LAYER
  5
7A
330
2
100
AcDbSymbolTableRecord
100
AcDbLayerTableRecord
  2
65
 70
     0
 62
    65
  6
CONTINUOUS
  0
LAYER
  5
7B
330
2
100
AcDbSymbolTableRecord
100
AcDbLayerTableRecord
  2
66
 70
     0
 62
    66
  6
CONTINUOUS
  0
LAYER
  5
7C
330
2
100
AcDbSymbolTableRecord
100
AcDbLayerTableRecord
  2
67
 70
     0
 62
    67
  6
CONTINUOUS
  0
LAYER
  5
7D
330
2
100
AcDbSymbolTableRecord
100
AcDbLayerTableRecord
  2
68
 70
     0
 62
    68
  6
CONTINUOUS
  0
LAYER
  5
7E
330
2
100
AcDbSymbolTableRecord
100
AcDbLayerTableRecord
  2
69
 70
     0
 62
    69
  6
CONTINUOUS
  0
LAYER
  5
7F
330
2
100
AcDbSymbolTableRecord
100
AcDbLayerTableRecord
  2
70
 70
     0
 62
    70
  6
CONTINUOUS
  0
LAYER
  5
80
330
2
100
AcDbSymbolTableRecord
100
AcDbLayerTableRecord
  2
71
 70
     0
 62
    71
  6
CONTINUOUS
  0
LAYER
  5
81
330
2
100
AcDbSymbolTableRecord
100
AcDbLayerTableRecord
  2
72
 70
     0
 62
    72
  6
CONTINUOUS
  0
LAYER
  5
82
330
2
100
AcDbSymbolTableRecord
100
AcDbLayerTableRecord
  2
73
 70
     0
 62
    73
  6
CONTINUOUS
  0
LAYER
  5
83
330
2
100
AcDbSymbolTableRecord
100
AcDbLayerTableRecord
  2
74
 70
     0
 62
    74
  6
CONTINUOUS
  0
LAYER
  5
84
330
2
100
AcDbSymbolTableRecord
100
AcDbLayerTableRecord
  2
75
 70
     0
 62
    75
  6
CONTINUOUS
  0
LAYER
  5
85
330
2
100
AcDbSymbolTableRecord
100
AcDbLayerTableRecord
  2
76
 70
     0
 62
    76
  6
CONTINUOUS
  0
LAYER
  5
86
330
2
100
AcDbSymbolTableRecord
100
AcDbLayerTableRecord
  2
77
 70
     0
 62
    77
  6
CONTINUOUS
  0
LAYER
  5
87
330
2
100
AcDbSymbolTableRecord
100
AcDbLayerTableRecord
  2
78
 70
     0
 62
    78
  6
CONTINUOUS
  0
LAYER
  5
88
330
2
100
AcDbSymbolTableRecord
100
AcDbLayerTableRecord
  2
79
 70
     0
 62
    79
  6
CONTINUOUS
  0
LAYER
  5
89
330
2
100
AcDbSymbolTableRecord
100
AcDbLayerTableRecord
  2
80
 70
     0
 62
    80
  6
CONTINUOUS
  0
LAYER
  5
8A
330
2
100
AcDbSymbolTableRecord
100
AcDbLayerTableRecord
  2
81
 70
     0
 62
    81
  6
CONTINUOUS
  0
LAYER
  5
8B
330
2
100
AcDbSymbolTableRecord
100
AcDbLayerTableRecord
  2
82
 70
     0
 62
    82
  6
CONTINUOUS
  0
LAYER
  5
8C
330
2
100
AcDbSymbolTableRecord
100
AcDbLayerTableRecord
  2
83
 70
     0
 62
    83
  6
CONTINUOUS
  0
LAYER
  5
8D
330
2
100
AcDbSymbolTableRecord
100
AcDbLayerTableRecord
  2
84
 70
     0
 62
    84
  6
CONTINUOUS
  0
LAYER
  5
8E
330
2
100
AcDbSymbolTableRecord
100
AcDbLayerTableRecord
  2
85
 70
     0
 62
    85
  6
CONTINUOUS
  0
LAYER
  5
8F
330
2
100
AcDbSymbolTableRecord
100
AcDbLayerTableRecord
  2
86
 70
     0
 62
    86
  6
CONTINUOUS
  0
LAYER
  5
90
330
2
100
AcDbSymbolTableRecord
100
AcDbLayerTableRecord
  2
87
 70
     0
 62
    87
  6
CONTINUOUS
  0
LAYER
  5
91
330
2
100
AcDbSymbolTableRecord
100
AcDbLayerTableRecord
  2
88
 70
     0
 62
    88
  6
CONTINUOUS
  0
LAYER
  5
92
330
2
100
AcDbSymbolTableRecord
100
AcDbLayerTableRecord
  2
89
 70
     0
 62
    89
  6
CONTINUOUS
  0
LAYER
  5
93
330
2
100
AcDbSymbolTableRecord
100
AcDbLayerTableRecord
  2
90
 70
     0
 62
    90
  6
CONTINUOUS
  0
LAYER
  5
94
330
2
100
AcDbSymbolTableRecord
100
AcDbLayerTableRecord
  2
91
 70
     0
 62
    91
  6
CONTINUOUS
  0
LAYER
  5
95
330
2
100
AcDbSymbolTableRecord
100
AcDbLayerTableRecord
  2
92
 70
     0
 62
    92
  6
CONTINUOUS
  0
LAYER
  5
96
330
2
100
AcDbSymbolTableRecord
100
AcDbLayerTableRecord
  2
93
 70
     0
 62
    93
  6
CONTINUOUS
  0
LAYER
  5
97
330
2
100
AcDbSymbolTableRecord
100
AcDbLayerTableRecord
  2
94
 70
     0
 62
    94
  6
CONTINUOUS
  0
LAYER
  5
98
330
2
100
AcDbSymbolTableRecord
100
AcDbLayerTableRecord
  2
95
 70
     0
 62
    95
  6
CONTINUOUS
  0
LAYER
  5
99
330
2
100
AcDbSymbolTableRecord
100
AcDbLayerTableRecord
  2
96
 70
     0
 62
    96
  6
CONTINUOUS
  0
LAYER
  5
9A
330
2
100
AcDbSymbolTableRecord
100
AcDbLayerTableRecord
  2
97
 70
     0
 62
    97
  6
CONTINUOUS
  0
LAYER
  5
9B
330
2
100
AcDbSymbolTableRecord
100
AcDbLayerTableRecord
  2
98
 70
     0
 62
    98
  6
CONTINUOUS
  0
LAYER
  5
9C
330
2
100
AcDbSymbolTableRecord
100
AcDbLayerTableRecord
  2
99
 70
     0
 62
    99
  6
CONTINUOUS
  0
LAYER
  5
9D
330
2
100
AcDbSymbolTableRecord
100
AcDbLayerTableRecord
  2
100
 70
     0
 62
   100
  6
CONTINUOUS
  0
LAYER
  5
9E
330
2
100
AcDbSymbolTableRecord
100
AcDbLayerTableRecord
  2
101
 70
     0
 62
   101
  6
CONTINUOUS
  0
LAYER
  5
9F
330
2
100
AcDbSymbolTableRecord
100
AcDbLayerTableRecord
  2
102
 70
     0
 62
   102
  6
CONTINUOUS
  0
LAYER
  5
A0
330
2
100
AcDbSymbolTableRecord
100
AcDbLayerTableRecord
  2
103
 70
     0
 62
   103
  6
CONTINUOUS
  0
LAYER
  5
A1
330
2
100
AcDbSymbolTableRecord
100
AcDbLayerTableRecord
  2
104
 70
     0
 62
   104
  6
CONTINUOUS
  0
LAYER
  5
A2
330
2
100
AcDbSymbolTableRecord
100
AcDbLayerTableRecord
  2
105
 70
     0
 62
   105
  6
CONTINUOUS
  0
LAYER
  5
A3
330
2
100
AcDbSymbolTableRecord
100
AcDbLayerTableRecord
  2
106
 70
     0
 62
   106
  6
CONTINUOUS
  0
LAYER
  5
A4
330
2
100
AcDbSymbolTableRecord
100
AcDbLayerTableRecord
  2
107
 70
     0
 62
   107
  6
CONTINUOUS
  0
LAYER
  5
A5
330
2
100
AcDbSymbolTableRecord
100
AcDbLayerTableRecord
  2
108
 70
     0
 62
   108
  6
CONTINUOUS
  0
LAYER
  5
A6
330
2
100
AcDbSymbolTableRecord
100
AcDbLayerTableRecord
  2
109
 70
     0
 62
   109
  6
CONTINUOUS
  0
LAYER
  5
A7
330
2
100
AcDbSymbolTableRecord
100
AcDbLayerTableRecord
  2
110
 70
     0
 62
   110
  6
CONTINUOUS
  0
LAYER
  5
A8
330
2
100
AcDbSymbolTableRecord
100
AcDbLayerTableRecord
  2
111
 70
     0
 62
   111
  6
CONTINUOUS
  0
LAYER
  5
A9
330
2
100
AcDbSymbolTableRecord
100
AcDbLayerTableRecord
  2
112
 70
     0
 62
   112
  6
CONTINUOUS
  0
LAYER
  5
AA
330
2
100
AcDbSymbolTableRecord
100
AcDbLayerTableRecord
  2
113
 70
     0
 62
   113
  6
CONTINUOUS
  0
LAYER
  5
AB
330
2
100
AcDbSymbolTableRecord
100
AcDbLayerTableRecord
  2
114
 70
     0
 62
   114
  6
CONTINUOUS
  0
LAYER
  5
AC
330
2
100
AcDbSymbolTableRecord
100
AcDbLayerTableRecord
  2
115
 70
     0
 62
   115
  6
CONTINUOUS
  0
LAYER
  5
AD
330
2
100
AcDbSymbolTableRecord
100
AcDbLayerTableRecord
  2
116
 70
     0
 62
   116
  6
CONTINUOUS
  0
LAYER
  5
AE
330
2
100
AcDbSymbolTableRecord
100
AcDbLayerTableRecord
  2
117
 70
     0
 62
   117
  6
CONTINUOUS
  0
LAYER
  5
AF
330
2
100
AcDbSymbolTableRecord
100
AcDbLayerTableRecord
  2
118
 70
     0
 62
   118
  6
CONTINUOUS
  0
LAYER
  5
B0
330
2
100
AcDbSymbolTableRecord
100
AcDbLayerTableRecord
  2
119
 70
     0
 62
   119
  6
CONTINUOUS
  0
LAYER
  5
B1
330
2
100
AcDbSymbolTableRecord
100
AcDbLayerTableRecord
  2
120
 70
     0
 62
   120
  6
CONTINUOUS
  0
LAYER
  5
B2
330
2
100
AcDbSymbolTableRecord
100
AcDbLayerTableRecord
  2
121
 70
     0
 62
   121
  6
CONTINUOUS
  0
LAYER
  5
B3
330
2
100
AcDbSymbolTableRecord
100
AcDbLayerTableRecord
  2
122
 70
     0
 62
   122
  6
CONTINUOUS
  0
LAYER
  5
B4
330
2
100
AcDbSymbolTableRecord
100
AcDbLayerTableRecord
  2
123
 70
     0
 62
   123
  6
CONTINUOUS
  0
LAYER
  5
B5
330
2
100
AcDbSymbolTableRecord
100
AcDbLayerTableRecord
  2
124
 70
     0
 62
   124
  6
CONTINUOUS
  0
LAYER
  5
B6
330
2
100
AcDbSymbolTableRecord
100
AcDbLayerTableRecord
  2
125
 70
     0
 62
   125
  6
CONTINUOUS
  0
LAYER
  5
B7
330
2
100
AcDbSymbolTableRecord
100
AcDbLayerTableRecord
  2
126
 70
     0
 62
   126
  6
CONTINUOUS
  0
LAYER
  5
B8
330
2
100
AcDbSymbolTableRecord
100
AcDbLayerTableRecord
  2
127
 70
     0
 62
   127
  6
CONTINUOUS
  0
LAYER
  5
B9
330
2
100
AcDbSymbolTableRecord
100
AcDbLayerTableRecord
  2
128
 70
     0
 62
   128
  6
CONTINUOUS
  0
LAYER
  5
BA
330
2
100
AcDbSymbolTableRecord
100
AcDbLayerTableRecord
  2
129
 70
     0
 62
   129
  6
CONTINUOUS
  0
LAYER
  5
BB
330
2
100
AcDbSymbolTableRecord
100
AcDbLayerTableRecord
  2
130
 70
     0
 62
   130
  6
CONTINUOUS
  0
LAYER
  5
BC
330
2
100
AcDbSymbolTableRecord
100
AcDbLayerTableRecord
  2
131
 70
     0
 62
   131
  6
CONTINUOUS
  0
LAYER
  5
BD
330
2
100
AcDbSymbolTableRecord
100
AcDbLayerTableRecord
  2
132
 70
     0
 62
   132
  6
CONTINUOUS
  0
LAYER
  5
BE
330
2
100
AcDbSymbolTableRecord
100
AcDbLayerTableRecord
  2
133
 70
     0
 62
   133
  6
CONTINUOUS
  0
LAYER
  5
BF
330
2
100
AcDbSymbolTableRecord
100
AcDbLayerTableRecord
  2
134
 70
     0
 62
   134
  6
CONTINUOUS
  0
LAYER
  5
C0
330
2
100
AcDbSymbolTableRecord
100
AcDbLayerTableRecord
  2
135
 70
     0
 62
   135
  6
CONTINUOUS
  0
LAYER
  5
C1
330
2
100
AcDbSymbolTableRecord
100
AcDbLayerTableRecord
  2
136
 70
     0
 62
   136
  6
CONTINUOUS
  0
LAYER
  5
C2
330
2
100
AcDbSymbolTableRecord
100
AcDbLayerTableRecord
  2
137
 70
     0
 62
   137
  6
CONTINUOUS
  0
LAYER
  5
C3
330
2
100
AcDbSymbolTableRecord
100
AcDbLayerTableRecord
  2
138
 70
     0
 62
   138
  6
CONTINUOUS
  0
LAYER
  5
C4
330
2
100
AcDbSymbolTableRecord
100
AcDbLayerTableRecord
  2
139
 70
     0
 62
   139
  6
CONTINUOUS
  0
LAYER
  5
C5
330
2
100
AcDbSymbolTableRecord
100
AcDbLayerTableRecord
  2
140
 70
     0
 62
   140
  6
CONTINUOUS
  0
LAYER
  5
C6
330
2
100
AcDbSymbolTableRecord
100
AcDbLayerTableRecord
  2
141
 70
     0
 62
   141
  6
CONTINUOUS
  0
LAYER
  5
C7
330
2
100
AcDbSymbolTableRecord
100
AcDbLayerTableRecord
  2
142
 70
     0
 62
   142
  6
CONTINUOUS
  0
LAYER
  5
C8
330
2
100
AcDbSymbolTableRecord
100
AcDbLayerTableRecord
  2
143
 70
     0
 62
   143
  6
CONTINUOUS
  0
LAYER
  5
C9
330
2
100
AcDbSymbolTableRecord
100
AcDbLayerTableRecord
  2
144
 70
     0
 62
   144
  6
CONTINUOUS
  0
LAYER
  5
CA
330
2
100
AcDbSymbolTableRecord
100
AcDbLayerTableRecord
  2
145
 70
     0
 62
   145
  6
CONTINUOUS
  0
LAYER
  5
CB
330
2
100
AcDbSymbolTableRecord
100
AcDbLayerTableRecord
  2
146
 70
     0
 62
   146
  6
CONTINUOUS
  0
LAYER
  5
CC
330
2
100
AcDbSymbolTableRecord
100
AcDbLayerTableRecord
  2
147
 70
     0
 62
   147
  6
CONTINUOUS
  0
LAYER
  5
CD
330
2
100
AcDbSymbolTableRecord
100
AcDbLayerTableRecord
  2
148
 70
     0
 62
   148
  6
CONTINUOUS
  0
LAYER
  5
CE
330
2
100
AcDbSymbolTableRecord
100
AcDbLayerTableRecord
  2
149
 70
     0
 62
   149
  6
CONTINUOUS
  0
LAYER
  5
CF
330
2
100
AcDbSymbolTableRecord
100
AcDbLayerTableRecord
  2
150
 70
     0
 62
   150
  6
CONTINUOUS
  0
LAYER
  5
D0
330
2
100
AcDbSymbolTableRecord
100
AcDbLayerTableRecord
  2
151
 70
     0
 62
   151
  6
CONTINUOUS
  0
LAYER
  5
D1
330
2
100
AcDbSymbolTableRecord
100
AcDbLayerTableRecord
  2
152
 70
     0
 62
   152
  6
CONTINUOUS
  0
LAYER
  5
D2
330
2
100
AcDbSymbolTableRecord
100
AcDbLayerTableRecord
  2
153
 70
     0
 62
   153
  6
CONTINUOUS
  0
LAYER
  5
D3
330
2
100
AcDbSymbolTableRecord
100
AcDbLayerTableRecord
  2
154
 70
     0
 62
   154
  6
CONTINUOUS
  0
LAYER
  5
D4
330
2
100
AcDbSymbolTableRecord
100
AcDbLayerTableRecord
  2
155
 70
     0
 62
   155
  6
CONTINUOUS
  0
LAYER
  5
D5
330
2
100
AcDbSymbolTableRecord
100
AcDbLayerTableRecord
  2
156
 70
     0
 62
   156
  6
CONTINUOUS
  0
LAYER
  5
D6
330
2
100
AcDbSymbolTableRecord
100
AcDbLayerTableRecord
  2
157
 70
     0
 62
   157
  6
CONTINUOUS
  0
LAYER
  5
D7
330
2
100
AcDbSymbolTableRecord
100
AcDbLayerTableRecord
  2
158
 70
     0
 62
   158
  6
CONTINUOUS
  0
LAYER
  5
D8
330
2
100
AcDbSymbolTableRecord
100
AcDbLayerTableRecord
  2
159
 70
     0
 62
   159
  6
CONTINUOUS
  0
LAYER
  5
D9
330
2
100
AcDbSymbolTableRecord
100
AcDbLayerTableRecord
  2
160
 70
     0
 62
   160
  6
CONTINUOUS
  0
LAYER
  5
DA
330
2
100
AcDbSymbolTableRecord
100
AcDbLayerTableRecord
  2
161
 70
     0
 62
   161
  6
CONTINUOUS
  0
LAYER
  5
DB
330
2
100
AcDbSymbolTableRecord
100
AcDbLayerTableRecord
  2
162
 70
     0
 62
   162
  6
CONTINUOUS
  0
LAYER
  5
DC
330
2
100
AcDbSymbolTableRecord
100
AcDbLayerTableRecord
  2
163
 70
     0
 62
   163
  6
CONTINUOUS
  0
LAYER
  5
DD
330
2
100
AcDbSymbolTableRecord
100
AcDbLayerTableRecord
  2
164
 70
     0
 62
   164
  6
CONTINUOUS
  0
LAYER
  5
DE
330
2
100
AcDbSymbolTableRecord
100
AcDbLayerTableRecord
  2
165
 70
     0
 62
   165
  6
CONTINUOUS
  0
LAYER
  5
DF
330
2
100
AcDbSymbolTableRecord
100
AcDbLayerTableRecord
  2
166
 70
     0
 62
   166
  6
CONTINUOUS
  0
LAYER
  5
E0
330
2
100
AcDbSymbolTableRecord
100
AcDbLayerTableRecord
  2
167
 70
     0
 62
   167
  6
CONTINUOUS
  0
LAYER
  5
E1
330
2
100
AcDbSymbolTableRecord
100
AcDbLayerTableRecord
  2
168
 70
     0
 62
   168
  6
CONTINUOUS
  0
LAYER
  5
E2
330
2
100
AcDbSymbolTableRecord
100
AcDbLayerTableRecord
  2
169
 70
     0
 62
   169
  6
CONTINUOUS
  0
LAYER
  5
E3
330
2
100
AcDbSymbolTableRecord
100
AcDbLayerTableRecord
  2
170
 70
     0
 62
   170
  6
CONTINUOUS
  0
LAYER
  5
E4
330
2
100
AcDbSymbolTableRecord
100
AcDbLayerTableRecord
  2
171
 70
     0
 62
   171
  6
CONTINUOUS
  0
LAYER
  5
E5
330
2
100
AcDbSymbolTableRecord
100
AcDbLayerTableRecord
  2
172
 70
     0
 62
   172
  6
CONTINUOUS
  0
LAYER
  5
E6
330
2
100
AcDbSymbolTableRecord
100
AcDbLayerTableRecord
  2
173
 70
     0
 62
   173
  6
CONTINUOUS
  0
LAYER
  5
E7
330
2
100
AcDbSymbolTableRecord
100
AcDbLayerTableRecord
  2
174
 70
     0
 62
   174
  6
CONTINUOUS
  0
LAYER
  5
E8
330
2
100
AcDbSymbolTableRecord
100
AcDbLayerTableRecord
  2
175
 70
     0
 62
   175
  6
CONTINUOUS
  0
LAYER
  5
E9
330
2
100
AcDbSymbolTableRecord
100
AcDbLayerTableRecord
  2
176
 70
     0
 62
   176
  6
CONTINUOUS
  0
LAYER
  5
EA
330
2
100
AcDbSymbolTableRecord
100
AcDbLayerTableRecord
  2
177
 70
     0
 62
   177
  6
CONTINUOUS
  0
LAYER
  5
EB
330
2
100
AcDbSymbolTableRecord
100
AcDbLayerTableRecord
  2
178
 70
     0
 62
   178
  6
CONTINUOUS
  0
LAYER
  5
EC
330
2
100
AcDbSymbolTableRecord
100
AcDbLayerTableRecord
  2
179
 70
     0
 62
   179
  6
CONTINUOUS
  0
LAYER
  5
ED
330
2
100
AcDbSymbolTableRecord
100
AcDbLayerTableRecord
  2
180
 70
     0
 62
   180
  6
CONTINUOUS
  0
LAYER
  5
EE
330
2
100
AcDbSymbolTableRecord
100
AcDbLayerTableRecord
  2
181
 70
     0
 62
   181
  6
CONTINUOUS
  0
LAYER
  5
EF
330
2
100
AcDbSymbolTableRecord
100
AcDbLayerTableRecord
  2
182
 70
     0
 62
   182
  6
CONTINUOUS
  0
LAYER
  5
F0
330
2
100
AcDbSymbolTableRecord
100
AcDbLayerTableRecord
  2
183
 70
     0
 62
   183
  6
CONTINUOUS
  0
LAYER
  5
F1
330
2
100
AcDbSymbolTableRecord
100
AcDbLayerTableRecord
  2
184
 70
     0
 62
   184
  6
CONTINUOUS
  0
LAYER
  5
F2
330
2
100
AcDbSymbolTableRecord
100
AcDbLayerTableRecord
  2
185
 70
     0
 62
   185
  6
CONTINUOUS
  0
LAYER
  5
F3
330
2
100
AcDbSymbolTableRecord
100
AcDbLayerTableRecord
  2
186
 70
     0
 62
   186
  6
CONTINUOUS
  0
LAYER
  5
F4
330
2
100
AcDbSymbolTableRecord
100
AcDbLayerTableRecord
  2
187
 70
     0
 62
   187
  6
CONTINUOUS
  0
LAYER
  5
F5
330
2
100
AcDbSymbolTableRecord
100
AcDbLayerTableRecord
  2
188
 70
     0
 62
   188
  6
CONTINUOUS
  0
LAYER
  5
F6
330
2
100
AcDbSymbolTableRecord
100
AcDbLayerTableRecord
  2
189
 70
     0
 62
   189
  6
CONTINUOUS
  0
LAYER
  5
F7
330
2
100
AcDbSymbolTableRecord
100
AcDbLayerTableRecord
  2
190
 70
     0
 62
   190
  6
CONTINUOUS
  0
LAYER
  5
F8
330
2
100
AcDbSymbolTableRecord
100
AcDbLayerTableRecord
  2
191
 70
     0
 62
   191
  6
CONTINUOUS
  0
LAYER
  5
F9
330
2
100
AcDbSymbolTableRecord
100
AcDbLayerTableRecord
  2
192
 70
     0
 62
   192
  6
CONTINUOUS
  0
LAYER
  5
FA
330
2
100
AcDbSymbolTableRecord
100
AcDbLayerTableRecord
  2
193
 70
     0
 62
   193
  6
CONTINUOUS
  0
LAYER
  5
FB
330
2
100
AcDbSymbolTableRecord
100
AcDbLayerTableRecord
  2
194
 70
     0
 62
   194
  6
CONTINUOUS
  0
LAYER
  5
FC
330
2
100
AcDbSymbolTableRecord
100
AcDbLayerTableRecord
  2
195
 70
     0
 62
   195
  6
CONTINUOUS
  0
LAYER
  5
FD
330
2
100
AcDbSymbolTableRecord
100
AcDbLayerTableRecord
  2
196
 70
     0
 62
   196
  6
CONTINUOUS
  0
LAYER
  5
FE
330
2
100
AcDbSymbolTableRecord
100
AcDbLayerTableRecord
  2
197
 70
     0
 62
   197
  6
CONTINUOUS
  0
LAYER
  5
FF
330
2
100
AcDbSymbolTableRecord
100
AcDbLayerTableRecord
  2
198
 70
     0
 62
   198
  6
CONTINUOUS
  0
LAYER
  5
100
330
2
100
AcDbSymbolTableRecord
100
AcDbLayerTableRecord
  2
199
 70
     0
 62
   199
  6
CONTINUOUS
  0
LAYER
  5
101
330
2
100
AcDbSymbolTableRecord
100
AcDbLayerTableRecord
  2
200
 70
     0
 62
   200
  6
CONTINUOUS
  0
LAYER
  5
102
330
2
100
AcDbSymbolTableRecord
100
AcDbLayerTableRecord
  2
201
 70
     0
 62
   201
  6
CONTINUOUS
  0
LAYER
  5
103
330
2
100
AcDbSymbolTableRecord
100
AcDbLayerTableRecord
  2
202
 70
     0
 62
   202
  6
CONTINUOUS
  0
LAYER
  5
104
330
2
100
AcDbSymbolTableRecord
100
AcDbLayerTableRecord
  2
203
 70
     0
 62
   203
  6
CONTINUOUS
  0
LAYER
  5
105
330
2
100
AcDbSymbolTableRecord
100
AcDbLayerTableRecord
  2
204
 70
     0
 62
   204
  6
CONTINUOUS
  0
LAYER
  5
106
330
2
100
AcDbSymbolTableRecord
100
AcDbLayerTableRecord
  2
205
 70
     0
 62
   205
  6
CONTINUOUS
  0
LAYER
  5
107
330
2
100
AcDbSymbolTableRecord
100
AcDbLayerTableRecord
  2
206
 70
     0
 62
   206
  6
CONTINUOUS
  0
LAYER
  5
108
330
2
100
AcDbSymbolTableRecord
100
AcDbLayerTableRecord
  2
207
 70
     0
 62
   207
  6
CONTINUOUS
  0
LAYER
  5
109
330
2
100
AcDbSymbolTableRecord
100
AcDbLayerTableRecord
  2
208
 70
     0
 62
   208
  6
CONTINUOUS
  0
LAYER
  5
10A
330
2
100
AcDbSymbolTableRecord
100
AcDbLayerTableRecord
  2
209
 70
     0
 62
   209
  6
CONTINUOUS
  0
LAYER
  5
10B
330
2
100
AcDbSymbolTableRecord
100
AcDbLayerTableRecord
  2
210
 70
     0
 62
   210
  6
CONTINUOUS
  0
LAYER
  5
10C
330
2
100
AcDbSymbolTableRecord
100
AcDbLayerTableRecord
  2
211
 70
     0
 62
   211
  6
CONTINUOUS
  0
LAYER
  5
10D
330
2
100
AcDbSymbolTableRecord
100
AcDbLayerTableRecord
  2
212
 70
     0
 62
   212
  6
CONTINUOUS
  0
LAYER
  5
10E
330
2
100
AcDbSymbolTableRecord
100
AcDbLayerTableRecord
  2
213
 70
     0
 62
   213
  6
CONTINUOUS
  0
LAYER
  5
10F
330
2
100
AcDbSymbolTableRecord
100
AcDbLayerTableRecord
  2
214
 70
     0
 62
   214
  6
CONTINUOUS
  0
LAYER
  5
110
330
2
100
AcDbSymbolTableRecord
100
AcDbLayerTableRecord
  2
215
 70
     0
 62
   215
  6
CONTINUOUS
  0
LAYER
  5
111
330
2
100
AcDbSymbolTableRecord
100
AcDbLayerTableRecord
  2
216
 70
     0
 62
   216
  6
CONTINUOUS
  0
LAYER
  5
112
330
2
100
AcDbSymbolTableRecord
100
AcDbLayerTableRecord
  2
217
 70
     0
 62
   217
  6
CONTINUOUS
  0
LAYER
  5
113
330
2
100
AcDbSymbolTableRecord
100
AcDbLayerTableRecord
  2
218
 70
     0
 62
   218
  6
CONTINUOUS
  0
LAYER
  5
114
330
2
100
AcDbSymbolTableRecord
100
AcDbLayerTableRecord
  2
219
 70
     0
 62
   219
  6
CONTINUOUS
  0
LAYER
  5
115
330
2
100
AcDbSymbolTableRecord
100
AcDbLayerTableRecord
  2
220
 70
     0
 62
   220
  6
CONTINUOUS
  0
LAYER
  5
116
330
2
100
AcDbSymbolTableRecord
100
AcDbLayerTableRecord
  2
221
 70
     0
 62
   221
  6
CONTINUOUS
  0
LAYER
  5
117
330
2
100
AcDbSymbolTableRecord
100
AcDbLayerTableRecord
  2
222
 70
     0
 62
   222
  6
CONTINUOUS
  0
LAYER
  5
118
330
2
100
AcDbSymbolTableRecord
100
AcDbLayerTableRecord
  2
223
 70
     0
 62
   223
  6
CONTINUOUS
  0
LAYER
  5
119
330
2
100
AcDbSymbolTableRecord
100
AcDbLayerTableRecord
  2
224
 70
     0
 62
   224
  6
CONTINUOUS
  0
LAYER
  5
11A
330
2
100
AcDbSymbolTableRecord
100
AcDbLayerTableRecord
  2
225
 70
     0
 62
   225
  6
CONTINUOUS
  0
LAYER
  5
11B
330
2
100
AcDbSymbolTableRecord
100
AcDbLayerTableRecord
  2
226
 70
     0
 62
   226
  6
CONTINUOUS
  0
LAYER
  5
11C
330
2
100
AcDbSymbolTableRecord
100
AcDbLayerTableRecord
  2
227
 70
     0
 62
   227
  6
CONTINUOUS
  0
LAYER
  5
11D
330
2
100
AcDbSymbolTableRecord
100
AcDbLayerTableRecord
  2
228
 70
     0
 62
   228
  6
CONTINUOUS
  0
LAYER
  5
11E
330
2
100
AcDbSymbolTableRecord
100
AcDbLayerTableRecord
  2
229
 70
     0
 62
   229
  6
CONTINUOUS
  0
LAYER
  5
11F
330
2
100
AcDbSymbolTableRecord
100
AcDbLayerTableRecord
  2
230
 70
     0
 62
   230
  6
CONTINUOUS
  0
LAYER
  5
120
330
2
100
AcDbSymbolTableRecord
100
AcDbLayerTableRecord
  2
231
 70
     0
 62
   231
  6
CONTINUOUS
  0
LAYER
  5
121
330
2
100
AcDbSymbolTableRecord
100
AcDbLayerTableRecord
  2
232
 70
     0
 62
   232
  6
CONTINUOUS
  0
LAYER
  5
122
330
2
100
AcDbSymbolTableRecord
100
AcDbLayerTableRecord
  2
233
 70
     0
 62
   233
  6
CONTINUOUS
  0
LAYER
  5
123
330
2
100
AcDbSymbolTableRecord
100
AcDbLayerTableRecord
  2
234
 70
     0
 62
   234
  6
CONTINUOUS
  0
LAYER
  5
124
330
2
100
AcDbSymbolTableRecord
100
AcDbLayerTableRecord
  2
235
 70
     0
 62
   235
  6
CONTINUOUS
  0
LAYER
  5
125
330
2
100
AcDbSymbolTableRecord
100
AcDbLayerTableRecord
  2
236
 70
     0
 62
   236
  6
CONTINUOUS
  0
LAYER
  5
126
330
2
100
AcDbSymbolTableRecord
100
AcDbLayerTableRecord
  2
237
 70
     0
 62
   237
  6
CONTINUOUS
  0
LAYER
  5
127
330
2
100
AcDbSymbolTableRecord
100
AcDbLayerTableRecord
  2
238
 70
     0
 62
   238
  6
CONTINUOUS
  0
LAYER
  5
128
330
2
100
AcDbSymbolTableRecord
100
AcDbLayerTableRecord
  2
239
 70
     0
 62
   239
  6
CONTINUOUS
  0
LAYER
  5
129
330
2
100
AcDbSymbolTableRecord
100
AcDbLayerTableRecord
  2
240
 70
     0
 62
   240
  6
CONTINUOUS
  0
LAYER
  5
12A
330
2
100
AcDbSymbolTableRecord
100
AcDbLayerTableRecord
  2
241
 70
     0
 62
   241
  6
CONTINUOUS
  0
LAYER
  5
12B
330
2
100
AcDbSymbolTableRecord
100
AcDbLayerTableRecord
  2
242
 70
     0
 62
   242
  6
CONTINUOUS
  0
LAYER
  5
12C
330
2
100
AcDbSymbolTableRecord
100
AcDbLayerTableRecord
  2
243
 70
     0
 62
   243
  6
CONTINUOUS
  0
LAYER
  5
12D
330
2
100
AcDbSymbolTableRecord
100
AcDbLayerTableRecord
  2
244
 70
     0
 62
   244
  6
CONTINUOUS
  0
LAYER
  5
12E
330
2
100
AcDbSymbolTableRecord
100
AcDbLayerTableRecord
  2
245
 70
     0
 62
   245
  6
CONTINUOUS
  0
LAYER
  5
12F
330
2
100
AcDbSymbolTableRecord
100
AcDbLayerTableRecord
  2
246
 70
     0
 62
   246
  6
CONTINUOUS
  0
LAYER
  5
130
330
2
100
AcDbSymbolTableRecord
100
AcDbLayerTableRecord
  2
247
 70
     0
 62
   247
  6
CONTINUOUS
  0
LAYER
  5
131
330
2
100
AcDbSymbolTableRecord
100
AcDbLayerTableRecord
  2
248
 70
     0
 62
   248
  6
CONTINUOUS
  0
LAYER
  5
132
330
2
100
AcDbSymbolTableRecord
100
AcDbLayerTableRecord
  2
249
 70
     0
 62
   249
  6
CONTINUOUS
  0
LAYER
  5
133
330
2
100
AcDbSymbolTableRecord
100
AcDbLayerTableRecord
  2
250
 70
     0
 62
   250
  6
CONTINUOUS
  0
LAYER
  5
134
330
2
100
AcDbSymbolTableRecord
100
AcDbLayerTableRecord
  2
251
 70
     0
 62
   251
  6
CONTINUOUS
  0
LAYER
  5
135
330
2
100
AcDbSymbolTableRecord
100
AcDbLayerTableRecord
  2
252
 70
     0
 62
   252
  6
CONTINUOUS
  0
LAYER
  5
136
330
2
100
AcDbSymbolTableRecord
100
AcDbLayerTableRecord
  2
253
 70
     0
 62
   253
  6
CONTINUOUS
  0
LAYER
  5
137
330
2
100
AcDbSymbolTableRecord
100
AcDbLayerTableRecord
  2
254
 70
     0
 62
   254
  6
CONTINUOUS
  0
LAYER
  5
138
330
2
100
AcDbSymbolTableRecord
100
AcDbLayerTableRecord
  2
255
 70
     0
 62
   255
  6
CONTINUOUS
  0
ENDTAB
  0
TABLE
  2
STYLE
  5
3
330
0
100
AcDbSymbolTable
 70
     1
  0
STYLE
  5
11
330
3
100
AcDbSymbolTableRecord
100
AcDbTextStyleTableRecord
  2
STANDARD
 70
     0
 40
0.0
 41
1.0
 50
0.0
 71
     0
 42
0.2
  3
monotxt
  4

  0
ENDTAB
  0
TABLE
  2
VIEW
  5
6
330
0
100
AcDbSymbolTable
 70
     0
  0
ENDTAB
  0
TABLE
  2
UCS
  5
7
330
0
100
AcDbSymbolTable
 70
     0
  0
ENDTAB
  0
TABLE
  2
APPID
  5
9
330
0
100
AcDbSymbolTable
 70
     1
  0
APPID
  5
12
330
9
100
AcDbSymbolTableRecord
100
AcDbRegAppTableRecord
  2
ACAD
 70
     0
  0
ENDTAB
  0
TABLE
  2
DIMSTYLE
  5
A
330
0
100
AcDbSymbolTable
 70
     1
  0
DIMSTYLE
105
360D
330
A
100
AcDbSymbolTableRecord
100
AcDbDimStyleTableRecord
  2
STANDARD
 70
     0
  3

  4

  5

  6

  7

 40
1.0
 41
0.18
 42
0.0625
 43
0.38
 44
0.18
 45
0.0
 46
0.0
 47
0.0
 48
0.0
140
0.18
141
0.09
142
0.0
143
25.4
144
1.0
145
0.0
146
1.0
147
0.09
 71
     0
 72
     0
 73
     1
 74
     1
 75
     0
 76
     0
 77
     0
 78
     0
170
     0
171
     2
172
     0
173
     0
174
     0
175
     0
176
     0
177
     0
178
     0
270
     2
271
     4
272
     4
273
     2
274
     2
340
11
275
     0
280
     0
281
     0
282
     0
283
     1
284
     0
285
     0
286
     0
287
     3
288
     0
  0
ENDTAB
  0
TABLE
  2
BLOCK_RECORD
  5
1
330
0
100
AcDbSymbolTable
 70
     0
  0
BLOCK_RECORD
  5
1E
102
{ACAD_XDICTIONARY
360
4A92
102
}
330
1
100
AcDbSymbolTableRecord
100
AcDbBlockTableRecord
  2
*MODEL_SPACE
  0
BLOCK_RECORD
  5
1A
102
{ACAD_XDICTIONARY
360
4A90
102
}
330
1
100
AcDbSymbolTableRecord
100
AcDbBlockTableRecord
  2
*PAPER_SPACE
  0
ENDTAB
  0
ENDSEC
  0
SECTION
  2
BLOCKS
  0
BLOCK
  5
13B
330
1E
100
AcDbEntity
  8
0
100
AcDbBlockBegin
  2
*MODEL_SPACE
 70
     0
 10
0.0
 20
0.0
 30
0.0
  3
*MODEL_SPACE
  1

  0
ENDBLK
  5
13C
330
1E
100
AcDbEntity
  8
0
100
AcDbBlockEnd
  0
BLOCK
  5
139
330
1A
100
AcDbEntity
 67
     1
  8
0
100
AcDbBlockBegin
  2
*PAPER_SPACE
 70
     0
 10
0.0
 20
0.0
 30
0.0
  3
*PAPER_SPACE
  1

  0
ENDBLK
  5
13A
330
1A
100
AcDbEntity
 67
     1
  8
0
100
AcDbBlockEnd
  0
ENDSEC
  0
SECTION
  2
ENTITIES
  0
LINE
  5
2F60
330
1E
100
AcDbEntity
  8
7
100
AcDbLine
 10
0.6437007874015749
 20
2.856299212598425
 30
0.0
 11
0.6437007874015749
 21
1.390748031496062
 31
0.0
  0
LINE
  5
2F6A
330
1E
100
AcDbEntity
  8
7
100
AcDbLine
 10
3.438976377952755
 20
2.976377952755905
 30
0.0
 11
0.763779527559055
 21
2.976377952755905
 31
0.0
  0
LINE
  5
2F7F
330
1E
100
AcDbEntity
  8
7
100
AcDbLine
 10
1.77755905511811
 20
2.96751968503937
 30
0.0
 11
1.77755905511811
 21
2.966535433070865
 31
0.0
  0
LINE
  5
2F80
330
1E
100
AcDbEntity
  8
7
100
AcDbLine
 10
1.753937007874015
 20
2.96751968503937
 30
0.0
 11
1.77755905511811
 21
2.96751968503937
 31
0.0
  0
LINE
  5
2F81
330
1E
100
AcDbEntity
  8
7
100
AcDbLine
 10
1.752952755905512
 20
2.972440944881889
 30
0.0
 11
1.753937007874015
 21
2.96751968503937
 31
0.0
  0
LINE
  5
2F82
330
1E
100
AcDbEntity
  8
7
100
AcDbLine
 10
1.77755905511811
 20
2.972440944881889
 30
0.0
 11
1.77755905511811
 21
2.96751968503937
 31
0.0
  0
LINE
  5
2F83
330
1E
100
AcDbEntity
  8
7
100
AcDbLine
 10
1.77755905511811
 20
2.972440944881889
 30
0.0
 11
1.752952755905512
 21
2.972440944881889
 31
0.0
  0
LINE
  5
2F84
330
1E
100
AcDbEntity
  8
7
100
AcDbLine
 10
1.77755905511811
 20
2.974409448818897
 30
0.0
 11
1.77755905511811
 21
2.972440944881889
 31
0.0
  0
LINE
  5
2F85
330
1E
100
AcDbEntity
  8
7
100
AcDbLine
 10
2.512795275590551
 20
1.291338582677165
 30
0.0
 11
1.689960629921259
 21
1.291338582677165
 31
0.0
  0
LINE
  5
2F8C
330
1E
100
AcDbEntity
  8
7
100
AcDbLine
 10
1.689960629921259
 20
1.288385826771653
 30
0.0
 11
1.688976377952756
 21
1.270669291338582
 31
0.0
  0
LINE
  5
2F92
330
1E
100
AcDbEntity
  8
7
100
AcDbLine
 10
2.455708661417322
 20
2.702755905511811
 30
0.0
 11
2.450787401574803
 21
2.716535433070865
 31
0.0
  0
LINE
  5
2FA2
330
1E
100
AcDbEntity
  8
7
100
AcDbLine
 10
1.18503937007874
 20
2.702755905511811
 30
0.0
 11
1.181102362204724
 21
2.716535433070865
 31
0.0
  0
LINE
  5
2FB2
330
1E
100
AcDbEntity
  8
7
100
AcDbLine
 10
0.8326771653543307
 20
2.674212598425197
 30
0.0
 11
0.8326771653543307
 21
2.639763779527559
 31
0.0
  0
LINE
  5
2FC0
330
1E
100
AcDbEntity
  8
7
100
AcDbLine
 10
0.8297244094488188
 20
2.674212598425197
 30
0.0
 11
0.8326771653543307
 21
2.674212598425197
 31
0.0
  0
LINE
  5
2FC1
330
1E
100
AcDbEntity
  8
7
100
AcDbLine
 10
1.819881889763779
 20
2.702755905511811
 30
0.0
 11
1.815944881889763
 21
2.716535433070865
 31
0.0
  0
LINE
  5
2FD1
330
1E
100
AcDbEntity
  8
7
100
AcDbLine
 10
3.090551181102362
 20
2.702755905511811
 30
0.0
 11
3.085629921259842
 21
2.716535433070865
 31
0.0
  0
LINE
  5
2FE1
330
1E
100
AcDbEntity
  8
7
100
AcDbLine
 10
0.8297244094488188
 20
2.827755905511811
 30
0.0
 11
0.8297244094488188
 21
2.785433070866141
 31
0.0
  0
LINE
  5
2FE7
330
1E
100
AcDbEntity
  8
7
100
AcDbLine
 10
0.8297244094488188
 20
2.785433070866141
 30
0.0
 11
0.8287401574803149
 21
2.798228346456692
 31
0.0
  0
LINE
  5
2FE8
330
1E
100
AcDbEntity
  8
7
100
AcDbLine
 10
0.8297244094488188
 20
2.785433070866141
 30
0.0
 11
0.8041338582677164
 21
2.785433070866141
 31
0.0
  0
LINE
  5
2FE9
330
1E
100
AcDbEntity
  8
7
100
AcDbLine
 10
0.8287401574803149
 20
2.798228346456692
 30
0.0
 11
0.8041338582677164
 21
2.798228346456692
 31
0.0
  0
LINE
  5
2FEA
330
1E
100
AcDbEntity
  8
7
100
AcDbLine
 10
3.372047244094487
 20
2.671259842519685
 30
0.0
 11
3.372047244094487
 21
2.639763779527559
 31
0.0
  0
LINE
  5
2FEB
330
1E
100
AcDbEntity
  8
7
100
AcDbLine
 10
3.373031496062992
 20
2.639763779527559
 30
0.0
 11
3.373031496062992
 21
2.681102362204724
 31
0.0
  0
LINE
  5
2FF1
330
1E
100
AcDbEntity
  8
7
100
AcDbLine
 10
3.398622047244094
 20
2.785433070866141
 30
0.0
 11
3.372047244094487
 21
2.785433070866141
 31
0.0
  0
LINE
  5
2FF2
330
1E
100
AcDbEntity
  8
7
100
AcDbLine
 10
3.398622047244094
 20
2.798228346456692
 30
0.0
 11
3.373031496062992
 21
2.798228346456692
 31
0.0
  0
LINE
  5
2FF3
330
1E
100
AcDbEntity
  8
7
100
AcDbLine
 10
3.372047244094487
 20
2.785433070866141
 30
0.0
 11
3.373031496062992
 21
2.798228346456692
 31
0.0
  0
LINE
  5
2FF4
330
1E
100
AcDbEntity
  8
7
100
AcDbLine
 10
3.372047244094487
 20
2.785433070866141
 30
0.0
 11
3.372047244094487
 21
2.827755905511811
 31
0.0
  0
LINE
  5
2FF5
330
1E
100
AcDbEntity
  8
7
100
AcDbLine
 10
3.373031496062992
 20
2.798228346456692
 30
0.0
 11
3.373031496062992
 21
2.839566929133858
 31
0.0
  0
LINE
  5
2FF6
330
1E
100
AcDbEntity
  8
7
100
AcDbLine
 10
3.372047244094487
 20
2.827755905511811
 30
0.0
 11
3.373031496062992
 21
2.839566929133858
 31
0.0
  0
LINE
  5
2FF7
330
1E
100
AcDbEntity
  8
7
100
AcDbLine
 10
0.8297244094488188
 20
2.671259842519685
 30
0.0
 11
0.8297244094488188
 21
2.639763779527559
 31
0.0
  0
LINE
  5
2FFD
330
1E
100
AcDbEntity
  8
7
100
AcDbLine
 10
0.8041338582677164
 20
2.681102362204724
 30
0.0
 11
0.8287401574803149
 21
2.681102362204724
 31
0.0
  0
LINE
  5
2FFE
330
1E
100
AcDbEntity
  8
7
100
AcDbLine
 10
3.366141732283464
 20
2.445866141732283
 30
0.0
 11
3.140748031496062
 21
2.445866141732283
 31
0.0
  0
LINE
  5
2FFF
330
1E
100
AcDbEntity
  8
7
100
AcDbLine
 10
2.966535433070866
 20
2.445866141732283
 30
0.0
 11
2.505905511811023
 21
2.445866141732283
 31
0.0
  0
LINE
  5
3000
330
1E
100
AcDbEntity
  8
7
100
AcDbLine
 10
2.330708661417322
 20
2.445866141732283
 30
0.0
 11
1.871062992125984
 21
2.445866141732283
 31
0.0
  0
LINE
  5
3001
330
1E
100
AcDbEntity
  8
7
100
AcDbLine
 10
1.695866141732283
 20
2.445866141732283
 30
0.0
 11
1.236220472440944
 21
2.445866141732283
 31
0.0
  0
LINE
  5
3002
330
1E
100
AcDbEntity
  8
7
100
AcDbLine
 10
2.809055118110236
 20
1.721456692913386
 30
0.0
 11
2.929133858267716
 21
1.721456692913386
 31
0.0
  0
LINE
  5
3003
330
1E
100
AcDbEntity
  8
7
100
AcDbLine
 10
2.173228346456693
 20
1.721456692913386
 30
0.0
 11
2.293307086614173
 21
1.721456692913386
 31
0.0
  0
LINE
  5
3004
330
1E
100
AcDbEntity
  8
7
100
AcDbLine
 10
1.538385826771653
 20
1.721456692913386
 30
0.0
 11
1.658464566929133
 21
1.721456692913386
 31
0.0
  0
LINE
  5
3005
330
1E
100
AcDbEntity
  8
7
100
AcDbLine
 10
0.9035433070866142
 20
1.721456692913386
 30
0.0
 11
1.023622047244094
 21
1.721456692913386
 31
0.0
  0
LINE
  5
3028
330
1E
100
AcDbEntity
  8
7
100
AcDbLine
 10
2.448818897637795
 20
2.972440944881889
 30
0.0
 11
2.4251968503937
 21
2.972440944881889
 31
0.0
  0
LINE
  5
3029
330
1E
100
AcDbEntity
  8
7
100
AcDbLine
 10
2.448818897637795
 20
2.96751968503937
 30
0.0
 11
2.448818897637795
 21
2.972440944881889
 31
0.0
  0
LINE
  5
302A
330
1E
100
AcDbEntity
  8
7
100
AcDbLine
 10
2.424212598425196
 20
2.96751968503937
 30
0.0
 11
2.448818897637795
 21
2.96751968503937
 31
0.0
  0
LINE
  5
302B
330
1E
100
AcDbEntity
  8
7
100
AcDbLine
 10
2.424212598425196
 20
2.966535433070865
 30
0.0
 11
2.424212598425196
 21
2.96751968503937
 31
0.0
  0
LINE
  5
302C
330
1E
100
AcDbEntity
  8
7
100
AcDbLine
 10
1.77755905511811
 20
2.965551181102362
 30
0.0
 11
2.424212598425196
 21
2.965551181102362
 31
0.0
  0
LINE
  5
302D
330
1E
100
AcDbEntity
  8
7
100
AcDbLine
 10
2.4251968503937
 20
2.974409448818897
 30
0.0
 11
1.77755905511811
 21
2.974409448818897
 31
0.0
  0
LINE
  5
302E
330
1E
100
AcDbEntity
  8
7
100
AcDbLine
 10
2.4251968503937
 20
2.972440944881889
 30
0.0
 11
2.4251968503937
 21
2.974409448818897
 31
0.0
  0
LINE
  5
3035
330
1E
100
AcDbEntity
  8
7
100
AcDbLine
 10
0.8041338582677164
 20
2.798228346456692
 30
0.0
 11
0.8041338582677164
 21
2.681102362204724
 31
0.0
  0
LINE
  5
3036
330
1E
100
AcDbEntity
  8
7
100
AcDbLine
 10
3.373031496062992
 20
2.839566929133858
 30
0.0
 11
0.8287401574803149
 21
2.839566929133858
 31
0.0
  0
LINE
  5
3037
330
1E
100
AcDbEntity
  8
7
100
AcDbLine
 10
3.398622047244094
 20
2.681102362204724
 30
0.0
 11
3.398622047244094
 21
2.798228346456692
 31
0.0
  0
LINE
  5
3038
330
1E
100
AcDbEntity
  8
7
100
AcDbLine
 10
0.8287401574803149
 20
2.639763779527559
 30
0.0
 11
3.373031496062992
 21
2.639763779527559
 31
0.0
  0
LINE
  5
3047
330
1E
100
AcDbEntity
  8
7
100
AcDbLine
 10
0.6614173228346458
 20
1.408464566929134
 30
0.0
 11
0.6614173228346458
 21
2.545275590551181
 31
0.0
  0
LINE
  5
304D
330
1E
100
AcDbEntity
  8
7
100
AcDbLine
 10
0.6437007874015749
 20
1.390748031496062
 30
0.0
 11
0.6614173228346458
 21
1.408464566929134
 31
0.0
  0
LINE
  5
304E
330
1E
100
AcDbEntity
  8
7
100
AcDbLine
 10
0.9025590551181103
 20
1.719488188976377
 30
0.0
 11
0.9035433070866142
 21
1.721456692913386
 31
0.0
  0
LINE
  5
304F
330
1E
100
AcDbEntity
  8
7
100
AcDbLine
 10
0.9035433070866142
 20
1.786417322834645
 30
0.0
 11
0.9035433070866142
 21
1.721456692913386
 31
0.0
  0
LINE
  5
3050
330
1E
100
AcDbEntity
  8
7
100
AcDbLine
 10
0.9025590551181103
 20
1.785433070866141
 30
0.0
 11
0.9035433070866142
 21
1.786417322834645
 31
0.0
  0
LINE
  5
3051
330
1E
100
AcDbEntity
  8
7
100
AcDbLine
 10
1.25
 20
1.733267716535433
 30
0.0
 11
1.273622047244094
 21
1.721456692913386
 31
0.0
  0
LINE
  5
3057
330
1E
100
AcDbEntity
  8
7
100
AcDbLine
 10
1.394685039370078
 20
1.719488188976377
 30
0.0
 11
1.393700787401574
 21
1.721456692913386
 31
0.0
  0
LINE
  5
3058
330
1E
100
AcDbEntity
  8
7
100
AcDbLine
 10
1.273622047244094
 20
1.721456692913386
 30
0.0
 11
1.393700787401574
 21
1.721456692913386
 31
0.0
  0
LINE
  5
3059
330
1E
100
AcDbEntity
  8
7
100
AcDbLine
 10
1.394685039370078
 20
1.785433070866141
 30
0.0
 11
1.393700787401574
 21
1.786417322834645
 31
0.0
  0
LINE
  5
305A
330
1E
100
AcDbEntity
  8
7
100
AcDbLine
 10
1.393700787401574
 20
1.721456692913386
 30
0.0
 11
1.393700787401574
 21
1.786417322834645
 31
0.0
  0
LINE
  5
305B
330
1E
100
AcDbEntity
  8
7
100
AcDbLine
 10
1.537401574803149
 20
1.785433070866141
 30
0.0
 11
1.538385826771653
 21
1.786417322834645
 31
0.0
  0
LINE
  5
305C
330
1E
100
AcDbEntity
  8
7
100
AcDbLine
 10
1.393700787401574
 20
1.786417322834645
 30
0.0
 11
1.538385826771653
 21
1.786417322834645
 31
0.0
  0
LINE
  5
305D
330
1E
100
AcDbEntity
  8
7
100
AcDbLine
 10
1.537401574803149
 20
1.719488188976377
 30
0.0
 11
1.538385826771653
 21
1.721456692913386
 31
0.0
  0
LINE
  5
305E
330
1E
100
AcDbEntity
  8
7
100
AcDbLine
 10
1.538385826771653
 20
1.786417322834645
 30
0.0
 11
1.538385826771653
 21
1.721456692913386
 31
0.0
  0
LINE
  5
305F
330
1E
100
AcDbEntity
  8
7
100
AcDbLine
 10
1.884842519685039
 20
1.733267716535433
 30
0.0
 11
1.908464566929133
 21
1.721456692913386
 31
0.0
  0
LINE
  5
3060
330
1E
100
AcDbEntity
  8
7
100
AcDbLine
 10
1.884842519685039
 20
1.733267716535433
 30
0.0
 11
1.683070866141732
 21
1.733267716535433
 31
0.0
  0
LINE
  5
3061
330
1E
100
AcDbEntity
  8
7
100
AcDbLine
 10
1.683070866141732
 20
1.733267716535433
 30
0.0
 11
1.658464566929133
 21
1.721456692913386
 31
0.0
  0
LINE
  5
3062
330
1E
100
AcDbEntity
  8
7
100
AcDbLine
 10
2.029527559055118
 20
1.719488188976377
 30
0.0
 11
2.028543307086614
 21
1.721456692913386
 31
0.0
  0
LINE
  5
3063
330
1E
100
AcDbEntity
  8
7
100
AcDbLine
 10
1.908464566929133
 20
1.721456692913386
 30
0.0
 11
2.028543307086614
 21
1.721456692913386
 31
0.0
  0
LINE
  5
3064
330
1E
100
AcDbEntity
  8
7
100
AcDbLine
 10
2.029527559055118
 20
1.785433070866141
 30
0.0
 11
2.028543307086614
 21
1.786417322834645
 31
0.0
  0
LINE
  5
3065
330
1E
100
AcDbEntity
  8
7
100
AcDbLine
 10
2.028543307086614
 20
1.721456692913386
 30
0.0
 11
2.028543307086614
 21
1.786417322834645
 31
0.0
  0
LINE
  5
3066
330
1E
100
AcDbEntity
  8
7
100
AcDbLine
 10
2.173228346456693
 20
1.785433070866141
 30
0.0
 11
2.173228346456693
 21
1.786417322834645
 31
0.0
  0
LINE
  5
3067
330
1E
100
AcDbEntity
  8
7
100
AcDbLine
 10
2.028543307086614
 20
1.786417322834645
 30
0.0
 11
2.173228346456693
 21
1.786417322834645
 31
0.0
  0
LINE
  5
3068
330
1E
100
AcDbEntity
  8
7
100
AcDbLine
 10
2.173228346456693
 20
1.719488188976377
 30
0.0
 11
2.173228346456693
 21
1.721456692913386
 31
0.0
  0
LINE
  5
3069
330
1E
100
AcDbEntity
  8
7
100
AcDbLine
 10
2.173228346456693
 20
1.786417322834645
 30
0.0
 11
2.173228346456693
 21
1.721456692913386
 31
0.0
  0
LINE
  5
306A
330
1E
100
AcDbEntity
  8
7
100
AcDbLine
 10
2.519685039370078
 20
1.733267716535433
 30
0.0
 11
2.543307086614173
 21
1.721456692913386
 31
0.0
  0
LINE
  5
3070
330
1E
100
AcDbEntity
  8
7
100
AcDbLine
 10
2.664370078740157
 20
1.719488188976377
 30
0.0
 11
2.663385826771653
 21
1.721456692913386
 31
0.0
  0
LINE
  5
3071
330
1E
100
AcDbEntity
  8
7
100
AcDbLine
 10
2.543307086614173
 20
1.721456692913386
 30
0.0
 11
2.663385826771653
 21
1.721456692913386
 31
0.0
  0
LINE
  5
3072
330
1E
100
AcDbEntity
  8
7
100
AcDbLine
 10
2.664370078740157
 20
1.785433070866141
 30
0.0
 11
2.663385826771653
 21
1.786417322834645
 31
0.0
  0
LINE
  5
3073
330
1E
100
AcDbEntity
  8
7
100
AcDbLine
 10
2.663385826771653
 20
1.721456692913386
 30
0.0
 11
2.663385826771653
 21
1.786417322834645
 31
0.0
  0
LINE
  5
3074
330
1E
100
AcDbEntity
  8
7
100
AcDbLine
 10
2.808070866141732
 20
1.785433070866141
 30
0.0
 11
2.809055118110236
 21
1.786417322834645
 31
0.0
  0
LINE
  5
3075
330
1E
100
AcDbEntity
  8
7
100
AcDbLine
 10
2.663385826771653
 20
1.786417322834645
 30
0.0
 11
2.809055118110236
 21
1.786417322834645
 31
0.0
  0
LINE
  5
3076
330
1E
100
AcDbEntity
  8
7
100
AcDbLine
 10
2.808070866141732
 20
1.719488188976377
 30
0.0
 11
2.809055118110236
 21
1.721456692913386
 31
0.0
  0
LINE
  5
3077
330
1E
100
AcDbEntity
  8
7
100
AcDbLine
 10
2.809055118110236
 20
1.786417322834645
 30
0.0
 11
2.809055118110236
 21
1.721456692913386
 31
0.0
  0
LINE
  5
3078
330
1E
100
AcDbEntity
  8
7
100
AcDbLine
 10
3.154527559055118
 20
1.733267716535433
 30
0.0
 11
3.179133858267716
 21
1.721456692913386
 31
0.0
  0
LINE
  5
307E
330
1E
100
AcDbEntity
  8
7
100
AcDbLine
 10
3.299212598425196
 20
1.719488188976377
 30
0.0
 11
3.298228346456693
 21
1.721456692913386
 31
0.0
  0
LINE
  5
307F
330
1E
100
AcDbEntity
  8
7
100
AcDbLine
 10
3.179133858267716
 20
1.721456692913386
 30
0.0
 11
3.298228346456693
 21
1.721456692913386
 31
0.0
  0
LINE
  5
3080
330
1E
100
AcDbEntity
  8
7
100
AcDbLine
 10
3.299212598425196
 20
1.785433070866141
 30
0.0
 11
3.298228346456693
 21
1.786417322834645
 31
0.0
  0
LINE
  5
3081
330
1E
100
AcDbEntity
  8
7
100
AcDbLine
 10
3.298228346456693
 20
1.721456692913386
 30
0.0
 11
3.298228346456693
 21
1.786417322834645
 31
0.0
  0
LINE
  5
3082
330
1E
100
AcDbEntity
  8
7
100
AcDbLine
 10
3.367125984251968
 20
1.785433070866141
 30
0.0
 11
3.366141732283464
 21
1.786417322834645
 31
0.0
  0
LINE
  5
3083
330
1E
100
AcDbEntity
  8
7
100
AcDbLine
 10
3.298228346456693
 20
1.786417322834645
 30
0.0
 11
3.366141732283464
 21
1.786417322834645
 31
0.0
  0
LINE
  5
3084
330
1E
100
AcDbEntity
  8
7
100
AcDbLine
 10
3.367125984251968
 20
2.446850393700787
 30
0.0
 11
3.366141732283464
 21
2.445866141732283
 31
0.0
  0
LINE
  5
3085
330
1E
100
AcDbEntity
  8
7
100
AcDbLine
 10
3.366141732283464
 20
1.786417322834645
 30
0.0
 11
3.366141732283464
 21
2.445866141732283
 31
0.0
  0
LINE
  5
3086
330
1E
100
AcDbEntity
  8
7
100
AcDbLine
 10
0.8356299212598424
 20
2.446850393700787
 30
0.0
 11
0.8366141732283464
 21
2.445866141732283
 31
0.0
  0
LINE
  5
3087
330
1E
100
AcDbEntity
  8
7
100
AcDbLine
 10
1.061023622047243
 20
2.445866141732283
 30
0.0
 11
0.8366141732283464
 21
2.445866141732283
 31
0.0
  0
LINE
  5
3088
330
1E
100
AcDbEntity
  8
7
100
AcDbLine
 10
1.236220472440944
 20
2.445866141732283
 30
0.0
 11
1.061023622047243
 21
2.445866141732283
 31
0.0
  0
LINE
  5
3089
330
1E
100
AcDbEntity
  8
7
100
AcDbLine
 10
1.871062992125984
 20
2.445866141732283
 30
0.0
 11
1.695866141732283
 21
2.445866141732283
 31
0.0
  0
LINE
  5
308A
330
1E
100
AcDbEntity
  8
7
100
AcDbLine
 10
2.505905511811023
 20
2.445866141732283
 30
0.0
 11
2.330708661417322
 21
2.445866141732283
 31
0.0
  0
LINE
  5
308B
330
1E
100
AcDbEntity
  8
7
100
AcDbLine
 10
3.140748031496062
 20
2.445866141732283
 30
0.0
 11
2.966535433070866
 21
2.445866141732283
 31
0.0
  0
LINE
  5
308C
330
1E
100
AcDbEntity
  8
7
100
AcDbLine
 10
0.8356299212598424
 20
1.785433070866141
 30
0.0
 11
0.8366141732283464
 21
1.786417322834645
 31
0.0
  0
LINE
  5
30A8
330
1E
100
AcDbEntity
  8
7
100
AcDbLine
 10
1.047244094488188
 20
1.818897637795275
 30
0.0
 11
1.047244094488188
 21
1.8001968503937
 31
0.0
  0
LINE
  5
30AE
330
1E
100
AcDbEntity
  8
7
100
AcDbLine
 10
1.048228346456693
 20
1.764763779527559
 30
0.0
 11
1.048228346456693
 21
1.748031496062991
 31
0.0
  0
LINE
  5
30AF
330
1E
100
AcDbEntity
  8
7
100
AcDbLine
 10
1.25
 20
1.818897637795275
 30
0.0
 11
1.047244094488188
 21
1.818897637795275
 31
0.0
  0
LINE
  5
30B0
330
1E
100
AcDbEntity
  8
7
100
AcDbLine
 10
1.047244094488188
 20
1.8001968503937
 30
0.0
 11
1.25
 21
1.8001968503937
 31
0.0
  0
LINE
  5
30B1
330
1E
100
AcDbEntity
  8
7
100
AcDbLine
 10
1.25
 20
1.797244094488188
 30
0.0
 11
1.048228346456693
 21
1.797244094488188
 31
0.0
  0
LINE
  5
30B2
330
1E
100
AcDbEntity
  8
7
100
AcDbLine
 10
1.249015748031495
 20
1.764763779527559
 30
0.0
 11
1.048228346456693
 21
1.764763779527559
 31
0.0
  0
LINE
  5
30B3
330
1E
100
AcDbEntity
  8
7
100
AcDbLine
 10
1.048228346456693
 20
1.748031496062991
 30
0.0
 11
1.249015748031495
 21
1.748031496062991
 31
0.0
  0
LINE
  5
30CA
330
1E
100
AcDbEntity
  8
7
100
AcDbLine
 10
1.683070866141732
 20
1.818897637795275
 30
0.0
 11
1.683070866141732
 21
1.8001968503937
 31
0.0
  0
LINE
  5
30D0
330
1E
100
AcDbEntity
  8
7
100
AcDbLine
 10
1.683070866141732
 20
1.764763779527559
 30
0.0
 11
1.683070866141732
 21
1.748031496062991
 31
0.0
  0
LINE
  5
30D1
330
1E
100
AcDbEntity
  8
7
100
AcDbLine
 10
1.884842519685039
 20
1.818897637795275
 30
0.0
 11
1.683070866141732
 21
1.818897637795275
 31
0.0
  0
LINE
  5
30D2
330
1E
100
AcDbEntity
  8
7
100
AcDbLine
 10
1.683070866141732
 20
1.8001968503937
 30
0.0
 11
1.884842519685039
 21
1.8001968503937
 31
0.0
  0
LINE
  5
30D3
330
1E
100
AcDbEntity
  8
7
100
AcDbLine
 10
1.884842519685039
 20
1.797244094488188
 30
0.0
 11
1.683070866141732
 21
1.797244094488188
 31
0.0
  0
LINE
  5
30D4
330
1E
100
AcDbEntity
  8
7
100
AcDbLine
 10
1.883858267716535
 20
1.764763779527559
 30
0.0
 11
1.683070866141732
 21
1.764763779527559
 31
0.0
  0
LINE
  5
30D5
330
1E
100
AcDbEntity
  8
7
100
AcDbLine
 10
1.683070866141732
 20
1.748031496062991
 30
0.0
 11
1.883858267716535
 21
1.748031496062991
 31
0.0
  0
LINE
  5
30E0
330
1E
100
AcDbEntity
  8
7
100
AcDbLine
 10
2.518700787401574
 20
1.764763779527559
 30
0.0
 11
2.518700787401574
 21
1.748031496062991
 31
0.0
  0
LINE
  5
30EC
330
1E
100
AcDbEntity
  8
7
100
AcDbLine
 10
2.317913385826771
 20
1.818897637795275
 30
0.0
 11
2.317913385826771
 21
1.8001968503937
 31
0.0
  0
LINE
  5
30F2
330
1E
100
AcDbEntity
  8
7
100
AcDbLine
 10
2.317913385826771
 20
1.764763779527559
 30
0.0
 11
2.317913385826771
 21
1.748031496062991
 31
0.0
  0
LINE
  5
30F3
330
1E
100
AcDbEntity
  8
7
100
AcDbLine
 10
2.519685039370078
 20
1.818897637795275
 30
0.0
 11
2.317913385826771
 21
1.818897637795275
 31
0.0
  0
LINE
  5
30F4
330
1E
100
AcDbEntity
  8
7
100
AcDbLine
 10
2.317913385826771
 20
1.8001968503937
 30
0.0
 11
2.519685039370078
 21
1.8001968503937
 31
0.0
  0
LINE
  5
30F5
330
1E
100
AcDbEntity
  8
7
100
AcDbLine
 10
2.519685039370078
 20
1.797244094488188
 30
0.0
 11
2.317913385826771
 21
1.797244094488188
 31
0.0
  0
LINE
  5
30F6
330
1E
100
AcDbEntity
  8
7
100
AcDbLine
 10
2.518700787401574
 20
1.764763779527559
 30
0.0
 11
2.317913385826771
 21
1.764763779527559
 31
0.0
  0
LINE
  5
30F7
330
1E
100
AcDbEntity
  8
7
100
AcDbLine
 10
2.317913385826771
 20
1.748031496062991
 30
0.0
 11
2.518700787401574
 21
1.748031496062991
 31
0.0
  0
LINE
  5
30F8
330
1E
100
AcDbEntity
  8
7
100
AcDbLine
 10
3.154527559055118
 20
1.818897637795275
 30
0.0
 11
3.154527559055118
 21
1.8001968503937
 31
0.0
  0
LINE
  5
30F9
330
1E
100
AcDbEntity
  8
7
100
AcDbLine
 10
3.154527559055118
 20
1.8001968503937
 30
0.0
 11
3.154527559055118
 21
1.797244094488188
 31
0.0
  0
LINE
  5
310B
330
1E
100
AcDbEntity
  8
7
100
AcDbLine
 10
2.952755905511811
 20
1.818897637795275
 30
0.0
 11
2.952755905511811
 21
1.8001968503937
 31
0.0
  0
LINE
  5
3111
330
1E
100
AcDbEntity
  8
7
100
AcDbLine
 10
2.953740157480314
 20
1.764763779527559
 30
0.0
 11
2.953740157480314
 21
1.748031496062991
 31
0.0
  0
LINE
  5
3112
330
1E
100
AcDbEntity
  8
7
100
AcDbLine
 10
3.154527559055118
 20
1.818897637795275
 30
0.0
 11
2.952755905511811
 21
1.818897637795275
 31
0.0
  0
LINE
  5
3113
330
1E
100
AcDbEntity
  8
7
100
AcDbLine
 10
2.952755905511811
 20
1.8001968503937
 30
0.0
 11
3.154527559055118
 21
1.8001968503937
 31
0.0
  0
LINE
  5
3114
330
1E
100
AcDbEntity
  8
7
100
AcDbLine
 10
3.154527559055118
 20
1.797244094488188
 30
0.0
 11
2.952755905511811
 21
1.797244094488188
 31
0.0
  0
LINE
  5
3115
330
1E
100
AcDbEntity
  8
7
100
AcDbLine
 10
3.153543307086614
 20
1.764763779527559
 30
0.0
 11
2.953740157480314
 21
1.764763779527559
 31
0.0
  0
LINE
  5
3116
330
1E
100
AcDbEntity
  8
7
100
AcDbLine
 10
2.953740157480314
 20
1.748031496062991
 30
0.0
 11
3.153543307086614
 21
1.748031496062991
 31
0.0
  0
LINE
  5
311C
330
1E
100
AcDbEntity
  8
7
100
AcDbLine
 10
1.236220472440944
 20
2.407480314960629
 30
0.0
 11
1.236220472440944
 21
2.445866141732283
 31
0.0
  0
LINE
  5
3122
330
1E
100
AcDbEntity
  8
7
100
AcDbLine
 10
1.871062992125984
 20
2.407480314960629
 30
0.0
 11
1.871062992125984
 21
2.445866141732283
 31
0.0
  0
LINE
  5
3128
330
1E
100
AcDbEntity
  8
7
100
AcDbLine
 10
2.505905511811023
 20
2.407480314960629
 30
0.0
 11
2.505905511811023
 21
2.445866141732283
 31
0.0
  0
LINE
  5
312E
330
1E
100
AcDbEntity
  8
7
100
AcDbLine
 10
3.140748031496062
 20
2.407480314960629
 30
0.0
 11
3.140748031496062
 21
2.445866141732283
 31
0.0
  0
LINE
  5
312F
330
1E
100
AcDbEntity
  8
7
100
AcDbLine
 10
0.8326771653543307
 20
2.802165354330708
 30
0.0
 11
0.8297244094488188
 21
2.827755905511811
 31
0.0
  0
LINE
  5
3130
330
1E
100
AcDbEntity
  8
7
100
AcDbLine
 10
3.37007874015748
 20
2.802165354330708
 30
0.0
 11
3.372047244094487
 21
2.827755905511811
 31
0.0
  0
LINE
  5
3149
330
1E
100
AcDbEntity
  8
7
100
AcDbLine
 10
3.08759842519685
 20
2.691929133858267
 30
0.0
 11
3.077755905511811
 21
2.704724409448818
 31
0.0
  0
LINE
  5
3151
330
1E
100
AcDbEntity
  8
7
100
AcDbLine
 10
1.689960629921259
 20
1.291338582677165
 30
0.0
 11
1.689960629921259
 21
1.288385826771653
 31
0.0
  0
LINE
  5
3152
330
1E
100
AcDbEntity
  8
7
100
AcDbLine
 10
2.512795275590551
 20
1.288385826771653
 30
0.0
 11
2.512795275590551
 21
1.291338582677165
 31
0.0
  0
LINE
  5
3153
330
1E
100
AcDbEntity
  8
7
100
AcDbLine
 10
1.911417322834645
 20
1.193897637795275
 30
0.0
 11
1.906496062992125
 21
1.291338582677165
 31
0.0
  0
LINE
  5
3159
330
1E
100
AcDbEntity
  8
7
100
AcDbLine
 10
1.916338582677165
 20
1.291338582677165
 30
0.0
 11
1.921259842519685
 21
1.193897637795275
 31
0.0
  0
LINE
  5
315A
330
1E
100
AcDbEntity
  8
7
100
AcDbLine
 10
2.296259842519685
 20
1.291338582677165
 30
0.0
 11
2.291338582677165
 21
1.193897637795275
 31
0.0
  0
LINE
  5
315B
330
1E
100
AcDbEntity
  8
7
100
AcDbLine
 10
2.281496062992125
 20
1.184055118110236
 30
0.0
 11
1.921259842519685
 21
1.184055118110236
 31
0.0
  0
LINE
  5
31BB
330
1E
100
AcDbEntity
  8
7
100
AcDbLine
 10
0.6663385826771654
 20
2.559055118110236
 30
0.0
 11
0.6614173228346458
 21
2.545275590551181
 31
0.0
  0
LINE
  5
31BC
330
1E
100
AcDbEntity
  8
7
100
AcDbLine
 10
0.7814960629921261
 20
2.598425196850393
 30
0.0
 11
0.7805118110236222
 21
2.598425196850393
 31
0.0
  0
LINE
  5
3202
330
1E
100
AcDbEntity
  8
7
100
AcDbLine
 10
3.420275590551181
 20
2.598425196850393
 30
0.0
 11
3.421259842519685
 21
2.598425196850393
 31
0.0
  0
LINE
  5
3216
330
1E
100
AcDbEntity
  8
7
100
AcDbLine
 10
3.428149606299212
 20
2.940944881889763
 30
0.0
 11
3.428149606299212
 21
2.914370078740157
 31
0.0
  0
LINE
  5
3217
330
1E
100
AcDbEntity
  8
7
100
AcDbLine
 10
2.4251968503937
 20
2.972440944881889
 30
0.0
 11
2.424212598425196
 21
2.96751968503937
 31
0.0
  0
LINE
  5
322B
330
1E
100
AcDbEntity
  8
7
100
AcDbLine
 10
5.339566929133858
 20
1.505905511811023
 30
0.0
 11
5.299212598425197
 21
1.505905511811023
 31
0.0
  0
LINE
  5
322C
330
1E
100
AcDbEntity
  8
7
100
AcDbLine
 10
5.066929133858267
 20
1.505905511811023
 30
0.0
 11
5.299212598425197
 21
1.505905511811023
 31
0.0
  0
LINE
  5
322D
330
1E
100
AcDbEntity
  8
7
100
AcDbLine
 10
4.966535433070865
 20
1.270669291338582
 30
0.0
 11
4.45767716535433
 21
1.288385826771653
 31
0.0
  0
LINE
  5
3233
330
1E
100
AcDbEntity
  8
7
100
AcDbLine
 10
5.156496062992125
 20
2.924212598425197
 30
0.0
 11
5.156496062992125
 21
2.76771653543307
 31
0.0
  0
LINE
  5
3234
330
1E
100
AcDbEntity
  8
7
100
AcDbLine
 10
5.102362204724409
 20
2.924212598425197
 30
0.0
 11
5.156496062992125
 21
2.924212598425197
 31
0.0
  0
LINE
  5
323C
330
1E
100
AcDbEntity
  8
7
100
AcDbLine
 10
4.341535433070865
 20
1.408464566929134
 30
0.0
 11
4.341535433070865
 21
2.563976377952755
 31
0.0
  0
LINE
  5
323D
330
1E
100
AcDbEntity
  8
7
100
AcDbLine
 10
4.668307086614173
 20
2.965551181102362
 30
0.0
 11
4.966535433070865
 21
2.976377952755905
 31
0.0
  0
LINE
  5
323E
330
1E
100
AcDbEntity
  8
7
100
AcDbLine
 10
4.352362204724409
 20
2.598425196850393
 30
0.0
 11
4.573818897637795
 21
2.914370078740157
 31
0.0
  0
LINE
  5
3254
330
1E
100
AcDbEntity
  8
7
100
AcDbLine
 10
5.299212598425197
 20
1.575787401574802
 30
0.0
 11
4.966535433070865
 21
1.575787401574802
 31
0.0
  0
LINE
  5
3255
330
1E
100
AcDbEntity
  8
7
100
AcDbLine
 10
4.966535433070865
 20
1.445866141732283
 30
0.0
 11
4.968503937007874
 21
1.45767716535433
 31
0.0
  0
LINE
  5
326D
330
1E
100
AcDbEntity
  8
7
100
AcDbLine
 10
5.446850393700787
 20
1.575787401574802
 30
0.0
 11
5.446850393700787
 21
1.556102362204724
 31
0.0
  0
LINE
  5
326E
330
1E
100
AcDbEntity
  8
7
100
AcDbLine
 10
4.875
 20
1.193897637795275
 30
0.0
 11
4.871062992125984
 21
1.274606299212598
 31
0.0
  0
LINE
  5
3275
330
1E
100
AcDbEntity
  8
7
100
AcDbLine
 10
4.977362204724409
 20
1.385826771653543
 30
0.0
 11
4.970472440944881
 21
1.46259842519685
 31
0.0
  0
LINE
  5
3276
330
1E
100
AcDbEntity
  8
7
100
AcDbLine
 10
5.086614173228346
 20
1.385826771653543
 30
0.0
 11
4.977362204724409
 21
1.385826771653543
 31
0.0
  0
LINE
  5
3277
330
1E
100
AcDbEntity
  8
7
100
AcDbLine
 10
5.086614173228346
 20
1.356299212598425
 30
0.0
 11
5.086614173228346
 21
1.385826771653543
 31
0.0
  0
LINE
  5
3278
330
1E
100
AcDbEntity
  8
7
100
AcDbLine
 10
5.117125984251968
 20
1.356299212598425
 30
0.0
 11
5.086614173228346
 21
1.356299212598425
 31
0.0
  0
LINE
  5
3279
330
1E
100
AcDbEntity
  8
7
100
AcDbLine
 10
5.295275590551181
 20
1.505905511811023
 30
0.0
 11
5.117125984251968
 21
1.356299212598425
 31
0.0
  0
LINE
  5
327A
330
1E
100
AcDbEntity
  8
7
100
AcDbLine
 10
4.905511811023622
 20
1.184055118110236
 30
0.0
 11
4.884842519685039
 21
1.184055118110236
 31
0.0
  0
LINE
  5
327B
330
1E
100
AcDbEntity
  8
7
100
AcDbLine
 10
4.919291338582676
 20
1.27263779527559
 30
0.0
 11
4.915354330708661
 21
1.193897637795275
 31
0.0
  0
LINE
  5
32BC
330
1E
100
AcDbEntity
  8
7
100
AcDbLine
 10
4.341535433070865
 20
1.408464566929134
 30
0.0
 11
4.347440944881889
 21
1.408464566929134
 31
0.0
  0
LINE
  5
32E8
330
1E
100
AcDbEntity
  8
7
100
AcDbLine
 10
4.987204724409449
 20
1.63779527559055
 30
0.0
 11
5.076771653543307
 21
1.638779527559054
 31
0.0
  0
LINE
  5
32F7
330
1E
100
AcDbEntity
  8
7
100
AcDbLine
 10
5.076771653543307
 20
1.638779527559054
 30
0.0
 11
5.076771653543307
 21
1.687992125984251
 31
0.0
  0
LINE
  5
32F8
330
1E
100
AcDbEntity
  8
7
100
AcDbLine
 10
4.987204724409449
 20
1.688976377952755
 30
0.0
 11
4.987204724409449
 21
1.63779527559055
 31
0.0
  0
LINE
  5
32F9
330
1E
100
AcDbEntity
  8
7
100
AcDbLine
 10
4.966535433070865
 20
1.562992125984251
 30
0.0
 11
5.057086614173228
 21
1.561023622047244
 31
0.0
  0
LINE
  5
32FA
330
1E
100
AcDbEntity
  8
7
100
AcDbLine
 10
5.066929133858267
 20
1.551181102362204
 30
0.0
 11
5.066929133858267
 21
1.481299212598425
 31
0.0
  0
LINE
  5
32FB
330
1E
100
AcDbEntity
  8
7
100
AcDbLine
 10
5.057086614173228
 20
1.471456692913386
 30
0.0
 11
4.987204724409449
 21
1.471456692913386
 31
0.0
  0
LINE
  5
36D6
330
1E
100
AcDbEntity
  8
7
100
AcDbLine
 10
4.668307086614173
 20
2.964566929133858
 30
0.0
 11
4.631889763779527
 21
2.95767716535433
 31
0.0
  0
LINE
  5
36D7
330
1E
100
AcDbEntity
  8
7
100
AcDbLine
 10
4.631889763779527
 20
2.95767716535433
 30
0.0
 11
4.600393700787401
 21
2.93996062992126
 31
0.0
  0
LINE
  5
36D8
330
1E
100
AcDbEntity
  8
7
100
AcDbLine
 10
4.600393700787401
 20
2.93996062992126
 30
0.0
 11
4.574803149606299
 21
2.913385826771653
 31
0.0
  0
LINE
  5
36D9
330
1E
100
AcDbEntity
  8
7
100
AcDbLine
 10
5.066929133858267
 20
1.551181102362204
 30
0.0
 11
5.063976377952755
 21
1.558070866141732
 31
0.0
  0
LINE
  5
36DA
330
1E
100
AcDbEntity
  8
7
100
AcDbLine
 10
5.063976377952755
 20
1.558070866141732
 30
0.0
 11
5.057086614173228
 21
1.561023622047244
 31
0.0
  0
LINE
  5
36DB
330
1E
100
AcDbEntity
  8
7
100
AcDbLine
 10
5.057086614173228
 20
1.471456692913386
 30
0.0
 11
5.063976377952755
 21
1.473425196850393
 31
0.0
  0
LINE
  5
36DC
330
1E
100
AcDbEntity
  8
7
100
AcDbLine
 10
5.063976377952755
 20
1.473425196850393
 30
0.0
 11
5.066929133858267
 21
1.481299212598425
 31
0.0
  0
LINE
  5
36DD
330
1E
100
AcDbEntity
  8
7
100
AcDbLine
 10
4.966535433070865
 20
1.450787401574802
 30
0.0
 11
4.972440944881889
 21
1.465551181102362
 31
0.0
  0
LINE
  5
36DE
330
1E
100
AcDbEntity
  8
7
100
AcDbLine
 10
4.972440944881889
 20
1.465551181102362
 30
0.0
 11
4.987204724409449
 21
1.471456692913386
 31
0.0
  0
LINE
  5
36DF
330
1E
100
AcDbEntity
  8
7
100
AcDbLine
 10
4.966535433070865
 20
1.688976377952755
 30
0.0
 11
4.972440944881889
 21
1.688976377952755
 31
0.0
  0
LINE
  5
36E0
330
1E
100
AcDbEntity
  8
7
100
AcDbLine
 10
4.972440944881889
 20
1.688976377952755
 30
0.0
 11
4.987204724409449
 21
1.688976377952755
 31
0.0
  0
LINE
  5
36E1
330
1E
100
AcDbEntity
  8
7
100
AcDbLine
 10
4.987204724409449
 20
1.688976377952755
 30
0.0
 11
5.076771653543307
 21
1.687992125984251
 31
0.0
  0
LINE
  5
36E2
330
1E
100
AcDbEntity
  8
7
100
AcDbLine
 10
5.076771653543307
 20
1.687992125984251
 30
0.0
 11
5.083661417322834
 21
1.687992125984251
 31
0.0
  0
LINE
  5
36E3
330
1E
100
AcDbEntity
  8
7
100
AcDbLine
 10
5.083661417322834
 20
1.687992125984251
 30
0.0
 11
5.086614173228346
 21
1.687992125984251
 31
0.0
  0
LINE
  5
36E4
330
1E
100
AcDbEntity
  8
7
100
AcDbLine
 10
5.086614173228346
 20
1.687992125984251
 30
0.0
 11
5.086614173228346
 21
1.638779527559054
 31
0.0
  0
LINE
  5
36E5
330
1E
100
AcDbEntity
  8
7
100
AcDbLine
 10
4.987204724409449
 20
1.63779527559055
 30
0.0
 11
4.972440944881889
 21
1.63779527559055
 31
0.0
  0
LINE
  5
36E6
330
1E
100
AcDbEntity
  8
7
100
AcDbLine
 10
4.972440944881889
 20
1.63779527559055
 30
0.0
 11
4.966535433070865
 21
1.63779527559055
 31
0.0
  0
LINE
  5
36E7
330
1E
100
AcDbEntity
  8
7
100
AcDbLine
 10
5.086614173228346
 20
1.638779527559054
 30
0.0
 11
5.083661417322834
 21
1.638779527559054
 31
0.0
  0
LINE
  5
36E8
330
1E
100
AcDbEntity
  8
7
100
AcDbLine
 10
5.083661417322834
 20
1.638779527559054
 30
0.0
 11
5.076771653543307
 21
1.638779527559054
 31
0.0
  0
LINE
  5
36E9
330
1E
100
AcDbEntity
  8
7
100
AcDbLine
 10
4.668307086614173
 20
2.845472440944881
 30
0.0
 11
4.638779527559055
 21
2.866141732283464
 31
0.0
  0
LINE
  5
36EA
330
1E
100
AcDbEntity
  8
7
100
AcDbLine
 10
4.638779527559055
 20
2.866141732283464
 30
0.0
 11
4.612204724409449
 21
2.885826771653543
 31
0.0
  0
LINE
  5
36EB
330
1E
100
AcDbEntity
  8
7
100
AcDbLine
 10
4.612204724409449
 20
2.885826771653543
 30
0.0
 11
4.591535433070865
 21
2.900590551181101
 31
0.0
  0
LINE
  5
36EC
330
1E
100
AcDbEntity
  8
7
100
AcDbLine
 10
4.591535433070865
 20
2.900590551181101
 30
0.0
 11
4.577755905511811
 21
2.910433070866141
 31
0.0
  0
LINE
  5
36ED
330
1E
100
AcDbEntity
  8
7
100
AcDbLine
 10
4.577755905511811
 20
2.910433070866141
 30
0.0
 11
4.573818897637795
 21
2.914370078740157
 31
0.0
  0
LINE
  5
36EE
330
1E
100
AcDbEntity
  8
7
100
AcDbLine
 10
4.356299212598425
 20
2.596456692913386
 30
0.0
 11
4.366141732283464
 21
2.590551181102362
 31
0.0
  0
LINE
  5
36EF
330
1E
100
AcDbEntity
  8
7
100
AcDbLine
 10
4.366141732283464
 20
2.590551181102362
 30
0.0
 11
4.382874015748031
 21
2.58267716535433
 31
0.0
  0
LINE
  5
36F0
330
1E
100
AcDbEntity
  8
7
100
AcDbLine
 10
4.382874015748031
 20
2.58267716535433
 30
0.0
 11
4.404527559055118
 21
2.571850393700787
 31
0.0
  0
LINE
  5
36F1
330
1E
100
AcDbEntity
  8
7
100
AcDbLine
 10
4.404527559055118
 20
2.571850393700787
 30
0.0
 11
4.43011811023622
 21
2.559055118110236
 31
0.0
  0
LINE
  5
36F2
330
1E
100
AcDbEntity
  8
7
100
AcDbLine
 10
4.43011811023622
 20
2.559055118110236
 30
0.0
 11
4.45767716535433
 21
2.545275590551181
 31
0.0
  0
LINE
  5
36F3
330
1E
100
AcDbEntity
  8
7
100
AcDbLine
 10
4.341535433070865
 20
2.563976377952755
 30
0.0
 11
4.344488188976377
 21
2.58267716535433
 31
0.0
  0
LINE
  5
36F4
330
1E
100
AcDbEntity
  8
7
100
AcDbLine
 10
4.344488188976377
 20
2.58267716535433
 30
0.0
 11
4.352362204724409
 21
2.598425196850393
 31
0.0
  0
LINE
  5
36F5
330
1E
100
AcDbEntity
  8
7
100
AcDbLine
 10
4.352362204724409
 20
2.598425196850393
 30
0.0
 11
4.356299212598425
 21
2.596456692913386
 31
0.0
  0
LINE
  5
36F6
330
1E
100
AcDbEntity
  8
7
100
AcDbLine
 10
4.341535433070865
 20
2.563976377952755
 30
0.0
 11
4.345472440944881
 21
2.563976377952755
 31
0.0
  0
LINE
  5
36F7
330
1E
100
AcDbEntity
  8
7
100
AcDbLine
 10
4.345472440944881
 20
2.563976377952755
 30
0.0
 11
4.357283464566928
 21
2.562007874015748
 31
0.0
  0
LINE
  5
36F8
330
1E
100
AcDbEntity
  8
7
100
AcDbLine
 10
4.357283464566928
 20
2.562007874015748
 30
0.0
 11
4.375984251968503
 21
2.558070866141732
 31
0.0
  0
LINE
  5
36F9
330
1E
100
AcDbEntity
  8
7
100
AcDbLine
 10
4.375984251968503
 20
2.558070866141732
 30
0.0
 11
4.399606299212598
 21
2.55511811023622
 31
0.0
  0
LINE
  5
36FA
330
1E
100
AcDbEntity
  8
7
100
AcDbLine
 10
4.399606299212598
 20
2.55511811023622
 30
0.0
 11
4.427165354330708
 21
2.5501968503937
 31
0.0
  0
LINE
  5
36FB
330
1E
100
AcDbEntity
  8
7
100
AcDbLine
 10
4.427165354330708
 20
2.5501968503937
 30
0.0
 11
4.45767716535433
 21
2.545275590551181
 31
0.0
  0
LINE
  5
36FC
330
1E
100
AcDbEntity
  8
7
100
AcDbLine
 10
4.347440944881889
 20
1.408464566929134
 30
0.0
 11
4.364173228346456
 21
1.408464566929134
 31
0.0
  0
LINE
  5
36FD
330
1E
100
AcDbEntity
  8
7
100
AcDbLine
 10
4.364173228346456
 20
1.408464566929134
 30
0.0
 11
4.389763779527559
 21
1.408464566929134
 31
0.0
  0
LINE
  5
36FE
330
1E
100
AcDbEntity
  8
7
100
AcDbLine
 10
4.389763779527559
 20
1.408464566929134
 30
0.0
 11
4.421259842519685
 21
1.408464566929134
 31
0.0
  0
LINE
  5
36FF
330
1E
100
AcDbEntity
  8
7
100
AcDbLine
 10
4.421259842519685
 20
1.408464566929134
 30
0.0
 11
4.45767716535433
 21
1.408464566929134
 31
0.0
  0
LINE
  5
3700
330
1E
100
AcDbEntity
  8
7
100
AcDbLine
 10
4.34251968503937
 20
1.408464566929134
 30
0.0
 11
4.348425196850393
 21
1.372047244094487
 31
0.0
  0
LINE
  5
3701
330
1E
100
AcDbEntity
  8
7
100
AcDbLine
 10
4.348425196850393
 20
1.372047244094487
 30
0.0
 11
4.364173228346456
 21
1.339566929133858
 31
0.0
  0
LINE
  5
3702
330
1E
100
AcDbEntity
  8
7
100
AcDbLine
 10
4.364173228346456
 20
1.339566929133858
 30
0.0
 11
4.389763779527559
 21
1.313976377952755
 31
0.0
  0
LINE
  5
3703
330
1E
100
AcDbEntity
  8
7
100
AcDbLine
 10
4.389763779527559
 20
1.313976377952755
 30
0.0
 11
4.421259842519685
 21
1.296259842519685
 31
0.0
  0
LINE
  5
3704
330
1E
100
AcDbEntity
  8
7
100
AcDbLine
 10
4.421259842519685
 20
1.296259842519685
 30
0.0
 11
4.45767716535433
 21
1.289370078740157
 31
0.0
  0
LINE
  5
3705
330
1E
100
AcDbEntity
  8
7
100
AcDbLine
 10
4.353346456692912
 20
2.597440944881889
 30
0.0
 11
4.345472440944881
 21
2.581692913385826
 31
0.0
  0
LINE
  5
3706
330
1E
100
AcDbEntity
  8
7
100
AcDbLine
 10
4.345472440944881
 20
2.581692913385826
 30
0.0
 11
4.34251968503937
 21
2.563976377952755
 31
0.0
  0
LINE
  5
3707
330
1E
100
AcDbEntity
  8
7
100
AcDbLine
 10
4.45767716535433
 20
1.408464566929134
 30
0.0
 11
4.456692913385826
 21
1.377952755905512
 31
0.0
  0
LINE
  5
3708
330
1E
100
AcDbEntity
  8
7
100
AcDbLine
 10
4.456692913385826
 20
1.377952755905512
 30
0.0
 11
4.455708661417323
 21
1.348425196850393
 31
0.0
  0
LINE
  5
3709
330
1E
100
AcDbEntity
  8
7
100
AcDbLine
 10
4.455708661417323
 20
1.348425196850393
 30
0.0
 11
4.455708661417323
 21
1.323818897637795
 31
0.0
  0
LINE
  5
370A
330
1E
100
AcDbEntity
  8
7
100
AcDbLine
 10
4.455708661417323
 20
1.323818897637795
 30
0.0
 11
4.455708661417323
 21
1.30511811023622
 31
0.0
  0
LINE
  5
370B
330
1E
100
AcDbEntity
  8
7
100
AcDbLine
 10
4.455708661417323
 20
1.30511811023622
 30
0.0
 11
4.456692913385826
 21
1.293307086614173
 31
0.0
  0
LINE
  5
370C
330
1E
100
AcDbEntity
  8
7
100
AcDbLine
 10
4.456692913385826
 20
1.293307086614173
 30
0.0
 11
4.45767716535433
 21
1.288385826771653
 31
0.0
  0
LINE
  5
370D
330
1E
100
AcDbEntity
  8
7
100
AcDbLine
 10
4.666338582677165
 20
2.949803149606299
 30
0.0
 11
4.666338582677165
 21
2.93011811023622
 31
0.0
  0
LINE
  5
370E
330
1E
100
AcDbEntity
  8
7
100
AcDbLine
 10
4.666338582677165
 20
2.93011811023622
 30
0.0
 11
4.666338582677165
 21
2.905511811023622
 31
0.0
  0
LINE
  5
370F
330
1E
100
AcDbEntity
  8
7
100
AcDbLine
 10
4.666338582677165
 20
2.905511811023622
 30
0.0
 11
4.667322834645669
 21
2.876968503937007
 31
0.0
  0
LINE
  5
3710
330
1E
100
AcDbEntity
  8
7
100
AcDbLine
 10
4.667322834645669
 20
2.876968503937007
 30
0.0
 11
4.668307086614173
 21
2.845472440944881
 31
0.0
  0
LINE
  5
3711
330
1E
100
AcDbEntity
  8
7
100
AcDbLine
 10
4.668307086614173
 20
2.965551181102362
 30
0.0
 11
4.667322834645669
 21
2.961614173228346
 31
0.0
  0
LINE
  5
3712
330
1E
100
AcDbEntity
  8
7
100
AcDbLine
 10
4.667322834645669
 20
2.961614173228346
 30
0.0
 11
4.666338582677165
 21
2.949803149606299
 31
0.0
  0
LINE
  5
3713
330
1E
100
AcDbEntity
  8
7
100
AcDbLine
 10
4.875
 20
1.193897637795275
 30
0.0
 11
4.877952755905512
 21
1.192913385826771
 31
0.0
  0
LINE
  5
3714
330
1E
100
AcDbEntity
  8
7
100
AcDbLine
 10
4.877952755905512
 20
1.192913385826771
 30
0.0
 11
4.884842519685039
 21
1.193897637795275
 31
0.0
  0
LINE
  5
3715
330
1E
100
AcDbEntity
  8
7
100
AcDbLine
 10
4.875
 20
1.192913385826771
 30
0.0
 11
4.877952755905512
 21
1.187007874015748
 31
0.0
  0
LINE
  5
3716
330
1E
100
AcDbEntity
  8
7
100
AcDbLine
 10
4.877952755905512
 20
1.187007874015748
 30
0.0
 11
4.884842519685039
 21
1.184055118110236
 31
0.0
  0
LINE
  5
3717
330
1E
100
AcDbEntity
  8
7
100
AcDbLine
 10
4.905511811023622
 20
1.184055118110236
 30
0.0
 11
4.912401574803149
 21
1.187007874015748
 31
0.0
  0
LINE
  5
3718
330
1E
100
AcDbEntity
  8
7
100
AcDbLine
 10
4.912401574803149
 20
1.187007874015748
 30
0.0
 11
4.915354330708661
 21
1.192913385826771
 31
0.0
  0
LINE
  5
3719
330
1E
100
AcDbEntity
  8
7
100
AcDbLine
 10
4.915354330708661
 20
1.193897637795275
 30
0.0
 11
4.912401574803149
 21
1.192913385826771
 31
0.0
  0
LINE
  5
371A
330
1E
100
AcDbEntity
  8
7
100
AcDbLine
 10
4.912401574803149
 20
1.192913385826771
 30
0.0
 11
4.905511811023622
 21
1.193897637795275
 31
0.0
  0
LINE
  5
371B
330
1E
100
AcDbEntity
  8
7
100
AcDbLine
 10
4.884842519685039
 20
1.193897637795275
 30
0.0
 11
4.884842519685039
 21
1.187007874015748
 31
0.0
  0
LINE
  5
371C
330
1E
100
AcDbEntity
  8
7
100
AcDbLine
 10
4.884842519685039
 20
1.187007874015748
 30
0.0
 11
4.884842519685039
 21
1.184055118110236
 31
0.0
  0
LINE
  5
371D
330
1E
100
AcDbEntity
  8
7
100
AcDbLine
 10
4.905511811023622
 20
1.184055118110236
 30
0.0
 11
4.905511811023622
 21
1.187007874015748
 31
0.0
  0
LINE
  5
371E
330
1E
100
AcDbEntity
  8
7
100
AcDbLine
 10
4.905511811023622
 20
1.187007874015748
 30
0.0
 11
4.905511811023622
 21
1.193897637795275
 31
0.0
  0
LINE
  5
371F
330
1E
100
AcDbEntity
  8
7
100
AcDbLine
 10
4.880905511811024
 20
1.273622047244094
 30
0.0
 11
4.884842519685039
 21
1.193897637795275
 31
0.0
  0
LINE
  5
3720
330
1E
100
AcDbEntity
  8
7
100
AcDbLine
 10
4.884842519685039
 20
1.193897637795275
 30
0.0
 11
4.905511811023622
 21
1.193897637795275
 31
0.0
  0
LINE
  5
3721
330
1E
100
AcDbEntity
  8
7
100
AcDbLine
 10
4.905511811023622
 20
1.193897637795275
 30
0.0
 11
4.909448818897637
 21
1.27263779527559
 31
0.0
  0
LINE
  5
3722
330
1E
100
AcDbEntity
  8
7
100
AcDbLine
 10
5.417322834645669
 20
1.542322834645669
 30
0.0
 11
5.395669291338582
 21
1.531496062992125
 31
0.0
  0
LINE
  5
3723
330
1E
100
AcDbEntity
  8
7
100
AcDbLine
 10
5.395669291338582
 20
1.531496062992125
 30
0.0
 11
5.369094488188976
 21
1.519685039370078
 31
0.0
  0
LINE
  5
3724
330
1E
100
AcDbEntity
  8
7
100
AcDbLine
 10
5.369094488188976
 20
1.519685039370078
 30
0.0
 11
5.339566929133858
 21
1.505905511811023
 31
0.0
  0
LINE
  5
3725
330
1E
100
AcDbEntity
  8
7
100
AcDbLine
 10
5.446850393700787
 20
1.556102362204724
 30
0.0
 11
5.443897637795275
 21
1.554133858267716
 31
0.0
  0
LINE
  5
3726
330
1E
100
AcDbEntity
  8
7
100
AcDbLine
 10
5.443897637795275
 20
1.554133858267716
 30
0.0
 11
5.433070866141732
 21
1.549212598425197
 31
0.0
  0
LINE
  5
3727
330
1E
100
AcDbEntity
  8
7
100
AcDbLine
 10
5.433070866141732
 20
1.549212598425197
 30
0.0
 11
5.417322834645669
 21
1.542322834645669
 31
0.0
  0
LINE
  5
3728
330
1E
100
AcDbEntity
  8
7
100
AcDbLine
 10
5.299212598425197
 20
1.505905511811023
 30
0.0
 11
5.299212598425197
 21
1.575787401574802
 31
0.0
  0
LINE
  5
3729
330
1E
100
AcDbEntity
  8
7
100
AcDbLine
 10
5.299212598425197
 20
1.575787401574802
 30
0.0
 11
5.33267716535433
 21
1.575787401574802
 31
0.0
  0
LINE
  5
372A
330
1E
100
AcDbEntity
  8
7
100
AcDbLine
 10
5.33267716535433
 20
1.575787401574802
 30
0.0
 11
5.363188976377952
 21
1.575787401574802
 31
0.0
  0
LINE
  5
372B
330
1E
100
AcDbEntity
  8
7
100
AcDbLine
 10
5.363188976377952
 20
1.575787401574802
 30
0.0
 11
5.391732283464566
 21
1.575787401574802
 31
0.0
  0
LINE
  5
372C
330
1E
100
AcDbEntity
  8
7
100
AcDbLine
 10
5.391732283464566
 20
1.575787401574802
 30
0.0
 11
5.415354330708661
 21
1.575787401574802
 31
0.0
  0
LINE
  5
372D
330
1E
100
AcDbEntity
  8
7
100
AcDbLine
 10
5.415354330708661
 20
1.575787401574802
 30
0.0
 11
5.432086614173228
 21
1.575787401574802
 31
0.0
  0
LINE
  5
372E
330
1E
100
AcDbEntity
  8
7
100
AcDbLine
 10
5.432086614173228
 20
1.575787401574802
 30
0.0
 11
5.442913385826771
 21
1.575787401574802
 31
0.0
  0
LINE
  5
372F
330
1E
100
AcDbEntity
  8
7
100
AcDbLine
 10
5.442913385826771
 20
1.575787401574802
 30
0.0
 11
5.446850393700787
 21
1.575787401574802
 31
0.0
  0
LINE
  5
3730
330
1E
100
AcDbEntity
  8
7
100
AcDbLine
 10
5.084645669291338
 20
1.674212598425197
 30
0.0
 11
5.094488188976377
 21
1.679133858267716
 31
0.0
  0
LINE
  5
3731
330
1E
100
AcDbEntity
  8
7
100
AcDbLine
 10
5.094488188976377
 20
1.679133858267716
 30
0.0
 11
5.098425196850393
 21
1.68996062992126
 31
0.0
  0
LINE
  5
3732
330
1E
100
AcDbEntity
  8
7
100
AcDbLine
 10
5.098425196850393
 20
1.68996062992126
 30
0.0
 11
5.098425196850393
 21
1.704724409448818
 31
0.0
  0
LINE
  5
3733
330
1E
100
AcDbEntity
  8
7
100
AcDbLine
 10
5.098425196850393
 20
1.704724409448818
 30
0.0
 11
5.094488188976377
 21
1.714566929133858
 31
0.0
  0
LINE
  5
3734
330
1E
100
AcDbEntity
  8
7
100
AcDbLine
 10
5.094488188976377
 20
1.714566929133858
 30
0.0
 11
5.085629921259842
 21
1.719488188976377
 31
0.0
  0
LINE
  5
3735
330
1E
100
AcDbEntity
  8
7
100
AcDbLine
 10
5.085629921259842
 20
1.719488188976377
 30
0.0
 11
5.000984251968503
 21
1.727362204724409
 31
0.0
  0
LINE
  5
3736
330
1E
100
AcDbEntity
  8
7
100
AcDbLine
 10
5.000984251968503
 20
1.727362204724409
 30
0.0
 11
4.980314960629921
 21
1.732283464566928
 31
0.0
  0
LINE
  5
3737
330
1E
100
AcDbEntity
  8
7
100
AcDbLine
 10
4.980314960629921
 20
1.732283464566928
 30
0.0
 11
4.963582677165354
 21
1.744094488188975
 31
0.0
  0
LINE
  5
3738
330
1E
100
AcDbEntity
  8
7
100
AcDbLine
 10
4.45767716535433
 20
2.545275590551181
 30
0.0
 11
4.45767716535433
 21
1.408464566929134
 31
0.0
  0
LINE
  5
3739
330
1E
100
AcDbEntity
  8
7
100
AcDbLine
 10
4.45767716535433
 20
1.408464566929134
 30
0.0
 11
4.966535433070865
 21
1.390748031496062
 31
0.0
  0
LINE
  5
373A
330
1E
100
AcDbEntity
  8
7
100
AcDbLine
 10
4.966535433070865
 20
2.856299212598425
 30
0.0
 11
4.668307086614173
 21
2.845472440944881
 31
0.0
  0
LINE
  5
373B
330
1E
100
AcDbEntity
  8
7
100
AcDbLine
 10
4.668307086614173
 20
2.845472440944881
 30
0.0
 11
4.45767716535433
 21
2.545275590551181
 31
0.0
  0
LINE
  5
373C
330
1E
100
AcDbEntity
  8
7
100
AcDbLine
 10
5.102362204724409
 20
2.924212598425197
 30
0.0
 11
5.075787401574802
 21
2.825787401574802
 31
0.0
  0
LINE
  5
373D
330
1E
100
AcDbEntity
  8
7
100
AcDbLine
 10
5.075787401574802
 20
2.825787401574802
 30
0.0
 11
5.068897637795275
 21
2.81496062992126
 31
0.0
  0
LINE
  5
373E
330
1E
100
AcDbEntity
  8
7
100
AcDbLine
 10
5.068897637795275
 20
2.81496062992126
 30
0.0
 11
5.056102362204724
 21
2.811023622047244
 31
0.0
  0
LINE
  5
373F
330
1E
100
AcDbEntity
  8
7
100
AcDbLine
 10
5.056102362204724
 20
2.811023622047244
 30
0.0
 11
4.966535433070865
 21
2.811023622047244
 31
0.0
  0
LINE
  5
3740
330
1E
100
AcDbEntity
  8
7
100
AcDbLine
 10
4.966535433070865
 20
2.731299212598425
 30
0.0
 11
5.096456692913386
 21
2.733267716535433
 31
0.0
  0
LINE
  5
3741
330
1E
100
AcDbEntity
  8
7
100
AcDbLine
 10
5.096456692913386
 20
2.733267716535433
 30
0.0
 11
5.156496062992125
 21
2.76771653543307
 31
0.0
  0
LINE
  5
3742
330
1E
100
AcDbEntity
  8
7
100
AcDbLine
 10
4.966535433070865
 20
1.330708661417323
 30
0.0
 11
4.966535433070865
 21
1.306102362204724
 31
0.0
  0
LINE
  5
3743
330
1E
100
AcDbEntity
  8
7
100
AcDbLine
 10
4.966535433070865
 20
1.306102362204724
 30
0.0
 11
4.966535433070865
 21
1.287401574803149
 31
0.0
  0
LINE
  5
3744
330
1E
100
AcDbEntity
  8
7
100
AcDbLine
 10
4.966535433070865
 20
1.287401574803149
 30
0.0
 11
4.966535433070865
 21
1.274606299212598
 31
0.0
  0
LINE
  5
3745
330
1E
100
AcDbEntity
  8
7
100
AcDbLine
 10
4.966535433070865
 20
1.274606299212598
 30
0.0
 11
4.966535433070865
 21
1.270669291338582
 31
0.0
  0
LINE
  5
3746
330
1E
100
AcDbEntity
  8
7
100
AcDbLine
 10
4.966535433070865
 20
2.976377952755905
 30
0.0
 11
4.966535433070865
 21
2.971456692913386
 31
0.0
  0
LINE
  5
3747
330
1E
100
AcDbEntity
  8
7
100
AcDbLine
 10
4.966535433070865
 20
2.971456692913386
 30
0.0
 11
4.966535433070865
 21
2.959645669291338
 31
0.0
  0
LINE
  5
3748
330
1E
100
AcDbEntity
  8
7
100
AcDbLine
 10
4.966535433070865
 20
2.959645669291338
 30
0.0
 11
4.966535433070865
 21
2.940944881889763
 31
0.0
  0
LINE
  5
3749
330
1E
100
AcDbEntity
  8
7
100
AcDbLine
 10
4.966535433070865
 20
2.940944881889763
 30
0.0
 11
4.966535433070865
 21
2.916338582677164
 31
0.0
  0
LINE
  5
374A
330
1E
100
AcDbEntity
  8
7
100
AcDbLine
 10
4.966535433070865
 20
2.916338582677164
 30
0.0
 11
4.966535433070865
 21
2.886811023622047
 31
0.0
  0
LINE
  5
374B
330
1E
100
AcDbEntity
  8
7
100
AcDbLine
 10
4.966535433070865
 20
2.886811023622047
 30
0.0
 11
4.966535433070865
 21
2.856299212598425
 31
0.0
  0
LINE
  5
374C
330
1E
100
AcDbEntity
  8
7
100
AcDbLine
 10
4.966535433070865
 20
2.856299212598425
 30
0.0
 11
4.966535433070865
 21
1.390748031496062
 31
0.0
  0
LINE
  5
374D
330
1E
100
AcDbEntity
  8
7
100
AcDbLine
 10
4.966535433070865
 20
1.390748031496062
 30
0.0
 11
4.966535433070865
 21
1.36023622047244
 31
0.0
  0
LINE
  5
374E
330
1E
100
AcDbEntity
  8
7
100
AcDbLine
 10
4.966535433070865
 20
1.36023622047244
 30
0.0
 11
4.966535433070865
 21
1.330708661417323
 31
0.0
  0
LINE
  5
374F
330
1E
100
AcDbEntity
  8
7
100
AcDbLine
 10
3.428149606299212
 20
2.965551181102362
 30
0.0
 11
3.428149606299212
 21
2.958661417322834
 31
0.0
  0
LINE
  5
3750
330
1E
100
AcDbEntity
  8
7
100
AcDbLine
 10
3.428149606299212
 20
2.958661417322834
 30
0.0
 11
3.428149606299212
 21
2.940944881889763
 31
0.0
  0
LINE
  5
3751
330
1E
100
AcDbEntity
  8
7
100
AcDbLine
 10
0.7736220472440946
 20
2.965551181102362
 30
0.0
 11
0.7736220472440946
 21
2.958661417322834
 31
0.0
  0
LINE
  5
3752
330
1E
100
AcDbEntity
  8
7
100
AcDbLine
 10
0.7736220472440946
 20
2.958661417322834
 30
0.0
 11
0.7736220472440946
 21
2.940944881889763
 31
0.0
  0
LINE
  5
3753
330
1E
100
AcDbEntity
  8
7
100
AcDbLine
 10
0.7736220472440946
 20
2.940944881889763
 30
0.0
 11
0.7736220472440946
 21
2.914370078740157
 31
0.0
  0
LINE
  5
3754
330
1E
100
AcDbEntity
  8
7
100
AcDbLine
 10
3.548228346456692
 20
2.845472440944881
 30
0.0
 11
3.541338582677165
 21
2.866141732283464
 31
0.0
  0
LINE
  5
3755
330
1E
100
AcDbEntity
  8
7
100
AcDbLine
 10
3.541338582677165
 20
2.866141732283464
 30
0.0
 11
3.524606299212598
 21
2.885826771653543
 31
0.0
  0
LINE
  5
3756
330
1E
100
AcDbEntity
  8
7
100
AcDbLine
 10
3.524606299212598
 20
2.885826771653543
 30
0.0
 11
3.498031496062992
 21
2.900590551181101
 31
0.0
  0
LINE
  5
3757
330
1E
100
AcDbEntity
  8
7
100
AcDbLine
 10
3.498031496062992
 20
2.900590551181101
 30
0.0
 11
3.464566929133858
 21
2.910433070866141
 31
0.0
  0
LINE
  5
3758
330
1E
100
AcDbEntity
  8
7
100
AcDbLine
 10
3.464566929133858
 20
2.910433070866141
 30
0.0
 11
3.428149606299212
 21
2.914370078740157
 31
0.0
  0
LINE
  5
3759
330
1E
100
AcDbEntity
  8
7
100
AcDbLine
 10
3.421259842519685
 20
2.563976377952755
 30
0.0
 11
3.421259842519685
 21
2.58267716535433
 31
0.0
  0
LINE
  5
375A
330
1E
100
AcDbEntity
  8
7
100
AcDbLine
 10
3.421259842519685
 20
2.58267716535433
 30
0.0
 11
3.421259842519685
 21
2.598425196850393
 31
0.0
  0
LINE
  5
375B
330
1E
100
AcDbEntity
  8
7
100
AcDbLine
 10
3.421259842519685
 20
2.598425196850393
 30
0.0
 11
3.451771653543307
 21
2.596456692913386
 31
0.0
  0
LINE
  5
375C
330
1E
100
AcDbEntity
  8
7
100
AcDbLine
 10
3.451771653543307
 20
2.596456692913386
 30
0.0
 11
3.480314960629921
 21
2.590551181102362
 31
0.0
  0
LINE
  5
375D
330
1E
100
AcDbEntity
  8
7
100
AcDbLine
 10
3.480314960629921
 20
2.590551181102362
 30
0.0
 11
3.504921259842519
 21
2.58267716535433
 31
0.0
  0
LINE
  5
375E
330
1E
100
AcDbEntity
  8
7
100
AcDbLine
 10
3.504921259842519
 20
2.58267716535433
 30
0.0
 11
3.523622047244094
 21
2.571850393700787
 31
0.0
  0
LINE
  5
375F
330
1E
100
AcDbEntity
  8
7
100
AcDbLine
 10
3.523622047244094
 20
2.571850393700787
 30
0.0
 11
3.536417322834645
 21
2.559055118110236
 31
0.0
  0
LINE
  5
3760
330
1E
100
AcDbEntity
  8
7
100
AcDbLine
 10
3.536417322834645
 20
2.559055118110236
 30
0.0
 11
3.541338582677165
 21
2.545275590551181
 31
0.0
  0
LINE
  5
3761
330
1E
100
AcDbEntity
  8
7
100
AcDbLine
 10
3.503937007874015
 20
2.558070866141732
 30
0.0
 11
3.523622047244094
 21
2.55511811023622
 31
0.0
  0
LINE
  5
3762
330
1E
100
AcDbEntity
  8
7
100
AcDbLine
 10
3.523622047244094
 20
2.55511811023622
 30
0.0
 11
3.535433070866141
 21
2.5501968503937
 31
0.0
  0
LINE
  5
3763
330
1E
100
AcDbEntity
  8
7
100
AcDbLine
 10
3.535433070866141
 20
2.5501968503937
 30
0.0
 11
3.541338582677165
 21
2.545275590551181
 31
0.0
  0
LINE
  5
3764
330
1E
100
AcDbEntity
  8
7
100
AcDbLine
 10
3.421259842519685
 20
2.563976377952755
 30
0.0
 11
3.451771653543307
 21
2.563976377952755
 31
0.0
  0
LINE
  5
3765
330
1E
100
AcDbEntity
  8
7
100
AcDbLine
 10
3.451771653543307
 20
2.563976377952755
 30
0.0
 11
3.479330708661417
 21
2.562007874015748
 31
0.0
  0
LINE
  5
3766
330
1E
100
AcDbEntity
  8
7
100
AcDbLine
 10
3.479330708661417
 20
2.562007874015748
 30
0.0
 11
3.503937007874015
 21
2.558070866141732
 31
0.0
  0
LINE
  5
3767
330
1E
100
AcDbEntity
  8
7
100
AcDbLine
 10
3.421259842519685
 20
1.408464566929134
 30
0.0
 11
3.45767716535433
 21
1.408464566929134
 31
0.0
  0
LINE
  5
3768
330
1E
100
AcDbEntity
  8
7
100
AcDbLine
 10
3.45767716535433
 20
1.408464566929134
 30
0.0
 11
3.490157480314961
 21
1.408464566929134
 31
0.0
  0
LINE
  5
3769
330
1E
100
AcDbEntity
  8
7
100
AcDbLine
 10
3.490157480314961
 20
1.408464566929134
 30
0.0
 11
3.516732283464566
 21
1.408464566929134
 31
0.0
  0
LINE
  5
376A
330
1E
100
AcDbEntity
  8
7
100
AcDbLine
 10
3.516732283464566
 20
1.408464566929134
 30
0.0
 11
3.534448818897637
 21
1.408464566929134
 31
0.0
  0
LINE
  5
376B
330
1E
100
AcDbEntity
  8
7
100
AcDbLine
 10
3.534448818897637
 20
1.408464566929134
 30
0.0
 11
3.541338582677165
 21
1.408464566929134
 31
0.0
  0
LINE
  5
376C
330
1E
100
AcDbEntity
  8
7
100
AcDbLine
 10
3.421259842519685
 20
1.408464566929134
 30
0.0
 11
3.421259842519685
 21
1.372047244094487
 31
0.0
  0
LINE
  5
376D
330
1E
100
AcDbEntity
  8
7
100
AcDbLine
 10
3.421259842519685
 20
1.372047244094487
 30
0.0
 11
3.421259842519685
 21
1.339566929133858
 31
0.0
  0
LINE
  5
376E
330
1E
100
AcDbEntity
  8
7
100
AcDbLine
 10
3.421259842519685
 20
1.339566929133858
 30
0.0
 11
3.421259842519685
 21
1.312992125984251
 31
0.0
  0
LINE
  5
376F
330
1E
100
AcDbEntity
  8
7
100
AcDbLine
 10
3.421259842519685
 20
1.312992125984251
 30
0.0
 11
3.421259842519685
 21
1.295275590551181
 31
0.0
  0
LINE
  5
3770
330
1E
100
AcDbEntity
  8
7
100
AcDbLine
 10
3.421259842519685
 20
1.295275590551181
 30
0.0
 11
3.421259842519685
 21
1.288385826771653
 31
0.0
  0
LINE
  5
3771
330
1E
100
AcDbEntity
  8
7
100
AcDbLine
 10
0.7814960629921261
 20
1.408464566929134
 30
0.0
 11
0.7814960629921261
 21
1.372047244094487
 31
0.0
  0
LINE
  5
3772
330
1E
100
AcDbEntity
  8
7
100
AcDbLine
 10
0.7814960629921261
 20
1.372047244094487
 30
0.0
 11
0.7814960629921261
 21
1.339566929133858
 31
0.0
  0
LINE
  5
3773
330
1E
100
AcDbEntity
  8
7
100
AcDbLine
 10
0.7814960629921261
 20
1.339566929133858
 30
0.0
 11
0.7814960629921261
 21
1.312992125984251
 31
0.0
  0
LINE
  5
3774
330
1E
100
AcDbEntity
  8
7
100
AcDbLine
 10
0.7814960629921261
 20
1.312992125984251
 30
0.0
 11
0.7814960629921261
 21
1.295275590551181
 31
0.0
  0
LINE
  5
3775
330
1E
100
AcDbEntity
  8
7
100
AcDbLine
 10
0.7814960629921261
 20
1.295275590551181
 30
0.0
 11
0.7814960629921261
 21
1.288385826771653
 31
0.0
  0
LINE
  5
3776
330
1E
100
AcDbEntity
  8
7
100
AcDbLine
 10
0.7814960629921261
 20
1.408464566929134
 30
0.0
 11
0.7450787401574802
 21
1.408464566929134
 31
0.0
  0
LINE
  5
3777
330
1E
100
AcDbEntity
  8
7
100
AcDbLine
 10
0.7450787401574802
 20
1.408464566929134
 30
0.0
 11
0.7125984251968504
 21
1.408464566929134
 31
0.0
  0
LINE
  5
3778
330
1E
100
AcDbEntity
  8
7
100
AcDbLine
 10
0.7125984251968504
 20
1.408464566929134
 30
0.0
 11
0.6860236220472441
 21
1.408464566929134
 31
0.0
  0
LINE
  5
3779
330
1E
100
AcDbEntity
  8
7
100
AcDbLine
 10
0.6860236220472441
 20
1.408464566929134
 30
0.0
 11
0.6683070866141733
 21
1.408464566929134
 31
0.0
  0
LINE
  5
377A
330
1E
100
AcDbEntity
  8
7
100
AcDbLine
 10
0.6683070866141733
 20
1.408464566929134
 30
0.0
 11
0.6614173228346458
 21
1.408464566929134
 31
0.0
  0
LINE
  5
377B
330
1E
100
AcDbEntity
  8
7
100
AcDbLine
 10
0.7814960629921261
 20
2.563976377952755
 30
0.0
 11
0.7509842519685038
 21
2.563976377952755
 31
0.0
  0
LINE
  5
377C
330
1E
100
AcDbEntity
  8
7
100
AcDbLine
 10
0.7509842519685038
 20
2.563976377952755
 30
0.0
 11
0.7224409448818898
 21
2.562007874015748
 31
0.0
  0
LINE
  5
377D
330
1E
100
AcDbEntity
  8
7
100
AcDbLine
 10
0.7224409448818898
 20
2.562007874015748
 30
0.0
 11
0.6978346456692913
 21
2.558070866141732
 31
0.0
  0
LINE
  5
377E
330
1E
100
AcDbEntity
  8
7
100
AcDbLine
 10
0.6978346456692913
 20
2.558070866141732
 30
0.0
 11
0.6791338582677166
 21
2.55511811023622
 31
0.0
  0
LINE
  5
377F
330
1E
100
AcDbEntity
  8
7
100
AcDbLine
 10
0.6791338582677166
 20
2.55511811023622
 30
0.0
 11
0.6663385826771654
 21
2.5501968503937
 31
0.0
  0
LINE
  5
3780
330
1E
100
AcDbEntity
  8
7
100
AcDbLine
 10
0.6663385826771654
 20
2.5501968503937
 30
0.0
 11
0.6614173228346458
 21
2.545275590551181
 31
0.0
  0
LINE
  5
3781
330
1E
100
AcDbEntity
  8
7
100
AcDbLine
 10
0.7814960629921261
 20
2.563976377952755
 30
0.0
 11
0.7814960629921261
 21
2.58267716535433
 31
0.0
  0
LINE
  5
3782
330
1E
100
AcDbEntity
  8
7
100
AcDbLine
 10
0.7814960629921261
 20
2.58267716535433
 30
0.0
 11
0.7805118110236222
 21
2.598425196850393
 31
0.0
  0
LINE
  5
3783
330
1E
100
AcDbEntity
  8
7
100
AcDbLine
 10
0.7805118110236222
 20
2.598425196850393
 30
0.0
 11
0.7509842519685038
 21
2.596456692913386
 31
0.0
  0
LINE
  5
3784
330
1E
100
AcDbEntity
  8
7
100
AcDbLine
 10
0.7509842519685038
 20
2.596456692913386
 30
0.0
 11
0.7224409448818898
 21
2.590551181102362
 31
0.0
  0
LINE
  5
3785
330
1E
100
AcDbEntity
  8
7
100
AcDbLine
 10
0.7224409448818898
 20
2.590551181102362
 30
0.0
 11
0.6978346456692913
 21
2.58267716535433
 31
0.0
  0
LINE
  5
3786
330
1E
100
AcDbEntity
  8
7
100
AcDbLine
 10
0.6978346456692913
 20
2.58267716535433
 30
0.0
 11
0.6791338582677166
 21
2.571850393700787
 31
0.0
  0
LINE
  5
3787
330
1E
100
AcDbEntity
  8
7
100
AcDbLine
 10
0.6791338582677166
 20
2.571850393700787
 30
0.0
 11
0.6663385826771654
 21
2.559055118110236
 31
0.0
  0
LINE
  5
3788
330
1E
100
AcDbEntity
  8
7
100
AcDbLine
 10
0.7736220472440946
 20
2.914370078740157
 30
0.0
 11
0.7372047244094487
 21
2.910433070866141
 31
0.0
  0
LINE
  5
3789
330
1E
100
AcDbEntity
  8
7
100
AcDbLine
 10
0.7372047244094487
 20
2.910433070866141
 30
0.0
 11
0.7047244094488189
 21
2.900590551181101
 31
0.0
  0
LINE
  5
378A
330
1E
100
AcDbEntity
  8
7
100
AcDbLine
 10
0.7047244094488189
 20
2.900590551181101
 30
0.0
 11
0.6781496062992126
 21
2.885826771653543
 31
0.0
  0
LINE
  5
378B
330
1E
100
AcDbEntity
  8
7
100
AcDbLine
 10
0.6781496062992126
 20
2.885826771653543
 30
0.0
 11
0.6604330708661418
 21
2.866141732283464
 31
0.0
  0
LINE
  5
378C
330
1E
100
AcDbEntity
  8
7
100
AcDbLine
 10
0.6604330708661418
 20
2.866141732283464
 30
0.0
 11
0.6545275590551182
 21
2.845472440944881
 31
0.0
  0
LINE
  5
378D
330
1E
100
AcDbEntity
  8
7
100
AcDbLine
 10
0.7814960629921261
 20
2.598425196850393
 30
0.0
 11
0.7814960629921261
 21
2.58267716535433
 31
0.0
  0
LINE
  5
378E
330
1E
100
AcDbEntity
  8
7
100
AcDbLine
 10
0.7814960629921261
 20
2.58267716535433
 30
0.0
 11
0.7814960629921261
 21
2.563976377952755
 31
0.0
  0
LINE
  5
378F
330
1E
100
AcDbEntity
  8
7
100
AcDbLine
 10
3.420275590551181
 20
2.563976377952755
 30
0.0
 11
3.420275590551181
 21
2.58267716535433
 31
0.0
  0
LINE
  5
3790
330
1E
100
AcDbEntity
  8
7
100
AcDbLine
 10
3.420275590551181
 20
2.58267716535433
 30
0.0
 11
3.420275590551181
 21
2.598425196850393
 31
0.0
  0
LINE
  5
3791
330
1E
100
AcDbEntity
  8
7
100
AcDbLine
 10
0.7814960629921261
 20
1.288385826771653
 30
0.0
 11
0.75
 21
1.293307086614173
 31
0.0
  0
LINE
  5
3792
330
1E
100
AcDbEntity
  8
7
100
AcDbLine
 10
0.75
 20
1.293307086614173
 30
0.0
 11
0.7214566929133858
 21
1.30511811023622
 31
0.0
  0
LINE
  5
3793
330
1E
100
AcDbEntity
  8
7
100
AcDbLine
 10
0.7214566929133858
 20
1.30511811023622
 30
0.0
 11
0.6968503937007874
 21
1.323818897637795
 31
0.0
  0
LINE
  5
3794
330
1E
100
AcDbEntity
  8
7
100
AcDbLine
 10
0.6968503937007874
 20
1.323818897637795
 30
0.0
 11
0.6771653543307087
 21
1.348425196850393
 31
0.0
  0
LINE
  5
3795
330
1E
100
AcDbEntity
  8
7
100
AcDbLine
 10
0.6771653543307087
 20
1.348425196850393
 30
0.0
 11
0.6653543307086615
 21
1.377952755905512
 31
0.0
  0
LINE
  5
3796
330
1E
100
AcDbEntity
  8
7
100
AcDbLine
 10
0.6653543307086615
 20
1.377952755905512
 30
0.0
 11
0.6614173228346458
 21
1.408464566929134
 31
0.0
  0
LINE
  5
3797
330
1E
100
AcDbEntity
  8
7
100
AcDbLine
 10
3.541338582677165
 20
1.408464566929134
 30
0.0
 11
3.536417322834645
 21
1.377952755905512
 31
0.0
  0
LINE
  5
3798
330
1E
100
AcDbEntity
  8
7
100
AcDbLine
 10
3.536417322834645
 20
1.377952755905512
 30
0.0
 11
3.524606299212598
 21
1.348425196850393
 31
0.0
  0
LINE
  5
3799
330
1E
100
AcDbEntity
  8
7
100
AcDbLine
 10
3.524606299212598
 20
1.348425196850393
 30
0.0
 11
3.505905511811024
 21
1.323818897637795
 31
0.0
  0
LINE
  5
379A
330
1E
100
AcDbEntity
  8
7
100
AcDbLine
 10
3.505905511811024
 20
1.323818897637795
 30
0.0
 11
3.481299212598425
 21
1.30511811023622
 31
0.0
  0
LINE
  5
379B
330
1E
100
AcDbEntity
  8
7
100
AcDbLine
 10
3.481299212598425
 20
1.30511811023622
 30
0.0
 11
3.451771653543307
 21
1.293307086614173
 31
0.0
  0
LINE
  5
379C
330
1E
100
AcDbEntity
  8
7
100
AcDbLine
 10
3.451771653543307
 20
1.293307086614173
 30
0.0
 11
3.421259842519685
 21
1.288385826771653
 31
0.0
  0
LINE
  5
379D
330
1E
100
AcDbEntity
  8
7
100
AcDbLine
 10
3.51279527559055
 20
2.93011811023622
 30
0.0
 11
3.532480314960629
 21
2.905511811023622
 31
0.0
  0
LINE
  5
379E
330
1E
100
AcDbEntity
  8
7
100
AcDbLine
 10
3.532480314960629
 20
2.905511811023622
 30
0.0
 11
3.544291338582676
 21
2.876968503937007
 31
0.0
  0
LINE
  5
379F
330
1E
100
AcDbEntity
  8
7
100
AcDbLine
 10
3.544291338582676
 20
2.876968503937007
 30
0.0
 11
3.548228346456692
 21
2.845472440944881
 31
0.0
  0
LINE
  5
37A0
330
1E
100
AcDbEntity
  8
7
100
AcDbLine
 10
3.428149606299212
 20
2.965551181102362
 30
0.0
 11
3.459645669291338
 21
2.961614173228346
 31
0.0
  0
LINE
  5
37A1
330
1E
100
AcDbEntity
  8
7
100
AcDbLine
 10
3.459645669291338
 20
2.961614173228346
 30
0.0
 11
3.488188976377952
 21
2.949803149606299
 31
0.0
  0
LINE
  5
37A2
330
1E
100
AcDbEntity
  8
7
100
AcDbLine
 10
3.488188976377952
 20
2.949803149606299
 30
0.0
 11
3.51279527559055
 21
2.93011811023622
 31
0.0
  0
LINE
  5
37A3
330
1E
100
AcDbEntity
  8
7
100
AcDbLine
 10
0.6545275590551182
 20
2.845472440944881
 30
0.0
 11
0.6584645669291339
 21
2.876968503937007
 31
0.0
  0
LINE
  5
37A4
330
1E
100
AcDbEntity
  8
7
100
AcDbLine
 10
0.6584645669291339
 20
2.876968503937007
 30
0.0
 11
0.6702755905511811
 21
2.905511811023622
 31
0.0
  0
LINE
  5
37A5
330
1E
100
AcDbEntity
  8
7
100
AcDbLine
 10
0.6702755905511811
 20
2.905511811023622
 30
0.0
 11
0.688976377952756
 21
2.93011811023622
 31
0.0
  0
LINE
  5
37A6
330
1E
100
AcDbEntity
  8
7
100
AcDbLine
 10
0.688976377952756
 20
2.93011811023622
 30
0.0
 11
0.7145669291338583
 21
2.949803149606299
 31
0.0
  0
LINE
  5
37A7
330
1E
100
AcDbEntity
  8
7
100
AcDbLine
 10
0.7145669291338583
 20
2.949803149606299
 30
0.0
 11
0.7431102362204724
 21
2.961614173228346
 31
0.0
  0
LINE
  5
37A8
330
1E
100
AcDbEntity
  8
7
100
AcDbLine
 10
0.7431102362204724
 20
2.961614173228346
 30
0.0
 11
0.7736220472440946
 21
2.965551181102362
 31
0.0
  0
LINE
  5
37A9
330
1E
100
AcDbEntity
  8
7
100
AcDbLine
 10
2.281496062992125
 20
1.193897637795275
 30
0.0
 11
2.288385826771653
 21
1.192913385826771
 31
0.0
  0
LINE
  5
37AA
330
1E
100
AcDbEntity
  8
7
100
AcDbLine
 10
2.288385826771653
 20
1.192913385826771
 30
0.0
 11
2.291338582677165
 21
1.193897637795275
 31
0.0
  0
LINE
  5
37AB
330
1E
100
AcDbEntity
  8
7
100
AcDbLine
 10
2.281496062992125
 20
1.193897637795275
 30
0.0
 11
2.281496062992125
 21
1.187007874015748
 31
0.0
  0
LINE
  5
37AC
330
1E
100
AcDbEntity
  8
7
100
AcDbLine
 10
2.281496062992125
 20
1.187007874015748
 30
0.0
 11
2.281496062992125
 21
1.184055118110236
 31
0.0
  0
LINE
  5
37AD
330
1E
100
AcDbEntity
  8
7
100
AcDbLine
 10
1.921259842519685
 20
1.193897637795275
 30
0.0
 11
1.921259842519685
 21
1.187007874015748
 31
0.0
  0
LINE
  5
37AE
330
1E
100
AcDbEntity
  8
7
100
AcDbLine
 10
1.921259842519685
 20
1.187007874015748
 30
0.0
 11
1.921259842519685
 21
1.184055118110236
 31
0.0
  0
LINE
  5
37AF
330
1E
100
AcDbEntity
  8
7
100
AcDbLine
 10
1.921259842519685
 20
1.193897637795275
 30
0.0
 11
1.914370078740157
 21
1.192913385826771
 31
0.0
  0
LINE
  5
37B0
330
1E
100
AcDbEntity
  8
7
100
AcDbLine
 10
1.914370078740157
 20
1.192913385826771
 30
0.0
 11
1.911417322834645
 21
1.193897637795275
 31
0.0
  0
LINE
  5
37B1
330
1E
100
AcDbEntity
  8
7
100
AcDbLine
 10
2.281496062992125
 20
1.184055118110236
 30
0.0
 11
2.288385826771653
 21
1.187007874015748
 31
0.0
  0
LINE
  5
37B2
330
1E
100
AcDbEntity
  8
7
100
AcDbLine
 10
2.288385826771653
 20
1.187007874015748
 30
0.0
 11
2.291338582677165
 21
1.192913385826771
 31
0.0
  0
LINE
  5
37B3
330
1E
100
AcDbEntity
  8
7
100
AcDbLine
 10
1.911417322834645
 20
1.192913385826771
 30
0.0
 11
1.914370078740157
 21
1.187007874015748
 31
0.0
  0
LINE
  5
37B4
330
1E
100
AcDbEntity
  8
7
100
AcDbLine
 10
1.914370078740157
 20
1.187007874015748
 30
0.0
 11
1.921259842519685
 21
1.184055118110236
 31
0.0
  0
LINE
  5
37B5
330
1E
100
AcDbEntity
  8
7
100
AcDbLine
 10
1.921259842519685
 20
1.193897637795275
 30
0.0
 11
2.281496062992125
 21
1.193897637795275
 31
0.0
  0
LINE
  5
37B6
330
1E
100
AcDbEntity
  8
7
100
AcDbLine
 10
2.281496062992125
 20
1.193897637795275
 30
0.0
 11
2.286417322834645
 21
1.291338582677165
 31
0.0
  0
LINE
  5
37B7
330
1E
100
AcDbEntity
  8
7
100
AcDbLine
 10
3.077755905511811
 20
2.704724409448818
 30
0.0
 11
3.062992125984251
 21
2.711614173228346
 31
0.0
  0
LINE
  5
37B8
330
1E
100
AcDbEntity
  8
7
100
AcDbLine
 10
3.062992125984251
 20
2.711614173228346
 30
0.0
 11
3.044291338582677
 21
2.711614173228346
 31
0.0
  0
LINE
  5
37B9
330
1E
100
AcDbEntity
  8
7
100
AcDbLine
 10
3.044291338582677
 20
2.711614173228346
 30
0.0
 11
3.029527559055118
 21
2.704724409448818
 31
0.0
  0
LINE
  5
37BA
330
1E
100
AcDbEntity
  8
7
100
AcDbLine
 10
3.029527559055118
 20
2.704724409448818
 30
0.0
 11
3.019685039370078
 21
2.691929133858267
 31
0.0
  0
LINE
  5
37BB
330
1E
100
AcDbEntity
  8
7
100
AcDbLine
 10
2.452755905511811
 20
2.691929133858267
 30
0.0
 11
2.442913385826771
 21
2.704724409448818
 31
0.0
  0
LINE
  5
37BC
330
1E
100
AcDbEntity
  8
7
100
AcDbLine
 10
2.442913385826771
 20
2.704724409448818
 30
0.0
 11
2.427165354330708
 21
2.711614173228346
 31
0.0
  0
LINE
  5
37BD
330
1E
100
AcDbEntity
  8
7
100
AcDbLine
 10
2.427165354330708
 20
2.711614173228346
 30
0.0
 11
2.409448818897637
 21
2.711614173228346
 31
0.0
  0
LINE
  5
37BE
330
1E
100
AcDbEntity
  8
7
100
AcDbLine
 10
2.409448818897637
 20
2.711614173228346
 30
0.0
 11
2.393700787401574
 21
2.704724409448818
 31
0.0
  0
LINE
  5
37BF
330
1E
100
AcDbEntity
  8
7
100
AcDbLine
 10
2.393700787401574
 20
2.704724409448818
 30
0.0
 11
2.384842519685039
 21
2.691929133858267
 31
0.0
  0
LINE
  5
37C0
330
1E
100
AcDbEntity
  8
7
100
AcDbLine
 10
1.817913385826771
 20
2.691929133858267
 30
0.0
 11
1.808070866141732
 21
2.704724409448818
 31
0.0
  0
LINE
  5
37C1
330
1E
100
AcDbEntity
  8
7
100
AcDbLine
 10
1.808070866141732
 20
2.704724409448818
 30
0.0
 11
1.792322834645669
 21
2.711614173228346
 31
0.0
  0
LINE
  5
37C2
330
1E
100
AcDbEntity
  8
7
100
AcDbLine
 10
1.792322834645669
 20
2.711614173228346
 30
0.0
 11
1.774606299212598
 21
2.711614173228346
 31
0.0
  0
LINE
  5
37C3
330
1E
100
AcDbEntity
  8
7
100
AcDbLine
 10
1.774606299212598
 20
2.711614173228346
 30
0.0
 11
1.758858267716535
 21
2.704724409448818
 31
0.0
  0
LINE
  5
37C4
330
1E
100
AcDbEntity
  8
7
100
AcDbLine
 10
1.758858267716535
 20
2.704724409448818
 30
0.0
 11
1.749015748031496
 21
2.691929133858267
 31
0.0
  0
LINE
  5
37C5
330
1E
100
AcDbEntity
  8
7
100
AcDbLine
 10
1.183070866141732
 20
2.691929133858267
 30
0.0
 11
1.173228346456693
 21
2.704724409448818
 31
0.0
  0
LINE
  5
37C6
330
1E
100
AcDbEntity
  8
7
100
AcDbLine
 10
1.173228346456693
 20
2.704724409448818
 30
0.0
 11
1.15748031496063
 21
2.711614173228346
 31
0.0
  0
LINE
  5
37C7
330
1E
100
AcDbEntity
  8
7
100
AcDbLine
 10
1.15748031496063
 20
2.711614173228346
 30
0.0
 11
1.139763779527558
 21
2.711614173228346
 31
0.0
  0
LINE
  5
37C8
330
1E
100
AcDbEntity
  8
7
100
AcDbLine
 10
1.139763779527558
 20
2.711614173228346
 30
0.0
 11
1.124015748031495
 21
2.704724409448818
 31
0.0
  0
LINE
  5
37C9
330
1E
100
AcDbEntity
  8
7
100
AcDbLine
 10
1.124015748031495
 20
2.704724409448818
 30
0.0
 11
1.114173228346456
 21
2.691929133858267
 31
0.0
  0
LINE
  5
37CA
330
1E
100
AcDbEntity
  8
7
100
AcDbLine
 10
3.140748031496062
 20
2.407480314960629
 30
0.0
 11
2.966535433070866
 21
2.407480314960629
 31
0.0
  0
LINE
  5
37CB
330
1E
100
AcDbEntity
  8
7
100
AcDbLine
 10
2.966535433070866
 20
2.407480314960629
 30
0.0
 11
2.966535433070866
 21
2.445866141732283
 31
0.0
  0
LINE
  5
37CC
330
1E
100
AcDbEntity
  8
7
100
AcDbLine
 10
2.505905511811023
 20
2.407480314960629
 30
0.0
 11
2.330708661417322
 21
2.407480314960629
 31
0.0
  0
LINE
  5
37CD
330
1E
100
AcDbEntity
  8
7
100
AcDbLine
 10
2.330708661417322
 20
2.407480314960629
 30
0.0
 11
2.330708661417322
 21
2.445866141732283
 31
0.0
  0
LINE
  5
37CE
330
1E
100
AcDbEntity
  8
7
100
AcDbLine
 10
1.871062992125984
 20
2.407480314960629
 30
0.0
 11
1.695866141732283
 21
2.407480314960629
 31
0.0
  0
LINE
  5
37CF
330
1E
100
AcDbEntity
  8
7
100
AcDbLine
 10
1.695866141732283
 20
2.407480314960629
 30
0.0
 11
1.695866141732283
 21
2.445866141732283
 31
0.0
  0
LINE
  5
37D0
330
1E
100
AcDbEntity
  8
7
100
AcDbLine
 10
1.236220472440944
 20
2.407480314960629
 30
0.0
 11
1.061023622047243
 21
2.407480314960629
 31
0.0
  0
LINE
  5
37D1
330
1E
100
AcDbEntity
  8
7
100
AcDbLine
 10
1.061023622047243
 20
2.407480314960629
 30
0.0
 11
1.061023622047243
 21
2.445866141732283
 31
0.0
  0
LINE
  5
37D2
330
1E
100
AcDbEntity
  8
7
100
AcDbLine
 10
2.952755905511811
 20
1.733267716535433
 30
0.0
 11
2.952755905511811
 21
1.738188976377952
 31
0.0
  0
LINE
  5
37D3
330
1E
100
AcDbEntity
  8
7
100
AcDbLine
 10
2.952755905511811
 20
1.738188976377952
 30
0.0
 11
2.953740157480314
 21
1.748031496062991
 31
0.0
  0
LINE
  5
37D4
330
1E
100
AcDbEntity
  8
7
100
AcDbLine
 10
2.953740157480314
 20
1.764763779527559
 30
0.0
 11
2.952755905511811
 21
1.782480314960629
 31
0.0
  0
LINE
  5
37D5
330
1E
100
AcDbEntity
  8
7
100
AcDbLine
 10
2.952755905511811
 20
1.782480314960629
 30
0.0
 11
2.952755905511811
 21
1.797244094488188
 31
0.0
  0
LINE
  5
37D6
330
1E
100
AcDbEntity
  8
7
100
AcDbLine
 10
2.952755905511811
 20
1.797244094488188
 30
0.0
 11
2.952755905511811
 21
1.8001968503937
 31
0.0
  0
LINE
  5
37D7
330
1E
100
AcDbEntity
  8
7
100
AcDbLine
 10
3.153543307086614
 20
1.764763779527559
 30
0.0
 11
3.153543307086614
 21
1.748031496062991
 31
0.0
  0
LINE
  5
37D8
330
1E
100
AcDbEntity
  8
7
100
AcDbLine
 10
3.153543307086614
 20
1.748031496062991
 30
0.0
 11
3.154527559055118
 21
1.738188976377952
 31
0.0
  0
LINE
  5
37D9
330
1E
100
AcDbEntity
  8
7
100
AcDbLine
 10
3.154527559055118
 20
1.738188976377952
 30
0.0
 11
3.154527559055118
 21
1.733267716535433
 31
0.0
  0
LINE
  5
37DA
330
1E
100
AcDbEntity
  8
7
100
AcDbLine
 10
3.153543307086614
 20
1.764763779527559
 30
0.0
 11
3.154527559055118
 21
1.782480314960629
 31
0.0
  0
LINE
  5
37DB
330
1E
100
AcDbEntity
  8
7
100
AcDbLine
 10
3.154527559055118
 20
1.782480314960629
 30
0.0
 11
3.154527559055118
 21
1.797244094488188
 31
0.0
  0
LINE
  5
37DC
330
1E
100
AcDbEntity
  8
7
100
AcDbLine
 10
2.317913385826771
 20
1.733267716535433
 30
0.0
 11
2.317913385826771
 21
1.738188976377952
 31
0.0
  0
LINE
  5
37DD
330
1E
100
AcDbEntity
  8
7
100
AcDbLine
 10
2.317913385826771
 20
1.738188976377952
 30
0.0
 11
2.317913385826771
 21
1.748031496062991
 31
0.0
  0
LINE
  5
37DE
330
1E
100
AcDbEntity
  8
7
100
AcDbLine
 10
2.317913385826771
 20
1.764763779527559
 30
0.0
 11
2.317913385826771
 21
1.782480314960629
 31
0.0
  0
LINE
  5
37DF
330
1E
100
AcDbEntity
  8
7
100
AcDbLine
 10
2.317913385826771
 20
1.782480314960629
 30
0.0
 11
2.317913385826771
 21
1.797244094488188
 31
0.0
  0
LINE
  5
37E0
330
1E
100
AcDbEntity
  8
7
100
AcDbLine
 10
2.317913385826771
 20
1.797244094488188
 30
0.0
 11
2.317913385826771
 21
1.8001968503937
 31
0.0
  0
LINE
  5
37E1
330
1E
100
AcDbEntity
  8
7
100
AcDbLine
 10
2.518700787401574
 20
1.748031496062991
 30
0.0
 11
2.518700787401574
 21
1.738188976377952
 31
0.0
  0
LINE
  5
37E2
330
1E
100
AcDbEntity
  8
7
100
AcDbLine
 10
2.518700787401574
 20
1.738188976377952
 30
0.0
 11
2.519685039370078
 21
1.733267716535433
 31
0.0
  0
LINE
  5
37E3
330
1E
100
AcDbEntity
  8
7
100
AcDbLine
 10
2.518700787401574
 20
1.764763779527559
 30
0.0
 11
2.518700787401574
 21
1.782480314960629
 31
0.0
  0
LINE
  5
37E4
330
1E
100
AcDbEntity
  8
7
100
AcDbLine
 10
2.518700787401574
 20
1.782480314960629
 30
0.0
 11
2.519685039370078
 21
1.797244094488188
 31
0.0
  0
LINE
  5
37E5
330
1E
100
AcDbEntity
  8
7
100
AcDbLine
 10
2.519685039370078
 20
1.818897637795275
 30
0.0
 11
2.519685039370078
 21
1.8001968503937
 31
0.0
  0
LINE
  5
37E6
330
1E
100
AcDbEntity
  8
7
100
AcDbLine
 10
2.519685039370078
 20
1.8001968503937
 30
0.0
 11
2.519685039370078
 21
1.797244094488188
 31
0.0
  0
LINE
  5
37E7
330
1E
100
AcDbEntity
  8
7
100
AcDbLine
 10
1.683070866141732
 20
1.733267716535433
 30
0.0
 11
1.683070866141732
 21
1.738188976377952
 31
0.0
  0
LINE
  5
37E8
330
1E
100
AcDbEntity
  8
7
100
AcDbLine
 10
1.683070866141732
 20
1.738188976377952
 30
0.0
 11
1.683070866141732
 21
1.748031496062991
 31
0.0
  0
LINE
  5
37E9
330
1E
100
AcDbEntity
  8
7
100
AcDbLine
 10
1.683070866141732
 20
1.764763779527559
 30
0.0
 11
1.683070866141732
 21
1.782480314960629
 31
0.0
  0
LINE
  5
37EA
330
1E
100
AcDbEntity
  8
7
100
AcDbLine
 10
1.683070866141732
 20
1.782480314960629
 30
0.0
 11
1.683070866141732
 21
1.797244094488188
 31
0.0
  0
LINE
  5
37EB
330
1E
100
AcDbEntity
  8
7
100
AcDbLine
 10
1.683070866141732
 20
1.797244094488188
 30
0.0
 11
1.683070866141732
 21
1.8001968503937
 31
0.0
  0
LINE
  5
37EC
330
1E
100
AcDbEntity
  8
7
100
AcDbLine
 10
1.883858267716535
 20
1.764763779527559
 30
0.0
 11
1.883858267716535
 21
1.748031496062991
 31
0.0
  0
LINE
  5
37ED
330
1E
100
AcDbEntity
  8
7
100
AcDbLine
 10
1.883858267716535
 20
1.748031496062991
 30
0.0
 11
1.883858267716535
 21
1.738188976377952
 31
0.0
  0
LINE
  5
37EE
330
1E
100
AcDbEntity
  8
7
100
AcDbLine
 10
1.883858267716535
 20
1.738188976377952
 30
0.0
 11
1.884842519685039
 21
1.733267716535433
 31
0.0
  0
LINE
  5
37EF
330
1E
100
AcDbEntity
  8
7
100
AcDbLine
 10
1.883858267716535
 20
1.764763779527559
 30
0.0
 11
1.883858267716535
 21
1.782480314960629
 31
0.0
  0
LINE
  5
37F0
330
1E
100
AcDbEntity
  8
7
100
AcDbLine
 10
1.883858267716535
 20
1.782480314960629
 30
0.0
 11
1.884842519685039
 21
1.797244094488188
 31
0.0
  0
LINE
  5
37F1
330
1E
100
AcDbEntity
  8
7
100
AcDbLine
 10
1.884842519685039
 20
1.818897637795275
 30
0.0
 11
1.884842519685039
 21
1.8001968503937
 31
0.0
  0
LINE
  5
37F2
330
1E
100
AcDbEntity
  8
7
100
AcDbLine
 10
1.884842519685039
 20
1.8001968503937
 30
0.0
 11
1.884842519685039
 21
1.797244094488188
 31
0.0
  0
LINE
  5
37F3
330
1E
100
AcDbEntity
  8
7
100
AcDbLine
 10
1.047244094488188
 20
1.733267716535433
 30
0.0
 11
1.048228346456693
 21
1.738188976377952
 31
0.0
  0
LINE
  5
37F4
330
1E
100
AcDbEntity
  8
7
100
AcDbLine
 10
1.048228346456693
 20
1.738188976377952
 30
0.0
 11
1.048228346456693
 21
1.748031496062991
 31
0.0
  0
LINE
  5
37F5
330
1E
100
AcDbEntity
  8
7
100
AcDbLine
 10
1.048228346456693
 20
1.764763779527559
 30
0.0
 11
1.048228346456693
 21
1.782480314960629
 31
0.0
  0
LINE
  5
37F6
330
1E
100
AcDbEntity
  8
7
100
AcDbLine
 10
1.048228346456693
 20
1.782480314960629
 30
0.0
 11
1.048228346456693
 21
1.797244094488188
 31
0.0
  0
LINE
  5
37F7
330
1E
100
AcDbEntity
  8
7
100
AcDbLine
 10
1.048228346456693
 20
1.797244094488188
 30
0.0
 11
1.047244094488188
 21
1.8001968503937
 31
0.0
  0
LINE
  5
37F8
330
1E
100
AcDbEntity
  8
7
100
AcDbLine
 10
1.249015748031495
 20
1.764763779527559
 30
0.0
 11
1.249015748031495
 21
1.748031496062991
 31
0.0
  0
LINE
  5
37F9
330
1E
100
AcDbEntity
  8
7
100
AcDbLine
 10
1.249015748031495
 20
1.748031496062991
 30
0.0
 11
1.249015748031495
 21
1.738188976377952
 31
0.0
  0
LINE
  5
37FA
330
1E
100
AcDbEntity
  8
7
100
AcDbLine
 10
1.249015748031495
 20
1.738188976377952
 30
0.0
 11
1.25
 21
1.733267716535433
 31
0.0
  0
LINE
  5
37FB
330
1E
100
AcDbEntity
  8
7
100
AcDbLine
 10
1.249015748031495
 20
1.764763779527559
 30
0.0
 11
1.249015748031495
 21
1.782480314960629
 31
0.0
  0
LINE
  5
37FC
330
1E
100
AcDbEntity
  8
7
100
AcDbLine
 10
1.249015748031495
 20
1.782480314960629
 30
0.0
 11
1.25
 21
1.797244094488188
 31
0.0
  0
LINE
  5
37FD
330
1E
100
AcDbEntity
  8
7
100
AcDbLine
 10
1.25
 20
1.818897637795275
 30
0.0
 11
1.25
 21
1.8001968503937
 31
0.0
  0
LINE
  5
37FE
330
1E
100
AcDbEntity
  8
7
100
AcDbLine
 10
1.25
 20
1.8001968503937
 30
0.0
 11
1.25
 21
1.797244094488188
 31
0.0
  0
LINE
  5
37FF
330
1E
100
AcDbEntity
  8
7
100
AcDbLine
 10
0.8366141732283464
 20
2.445866141732283
 30
0.0
 11
0.8366141732283464
 21
1.786417322834645
 31
0.0
  0
LINE
  5
3800
330
1E
100
AcDbEntity
  8
7
100
AcDbLine
 10
0.8366141732283464
 20
1.786417322834645
 30
0.0
 11
0.9035433070866142
 21
1.786417322834645
 31
0.0
  0
LINE
  5
3801
330
1E
100
AcDbEntity
  8
7
100
AcDbLine
 10
3.154527559055118
 20
1.733267716535433
 30
0.0
 11
2.952755905511811
 21
1.733267716535433
 31
0.0
  0
LINE
  5
3802
330
1E
100
AcDbEntity
  8
7
100
AcDbLine
 10
2.952755905511811
 20
1.733267716535433
 30
0.0
 11
2.929133858267716
 21
1.721456692913386
 31
0.0
  0
LINE
  5
3803
330
1E
100
AcDbEntity
  8
7
100
AcDbLine
 10
2.519685039370078
 20
1.733267716535433
 30
0.0
 11
2.317913385826771
 21
1.733267716535433
 31
0.0
  0
LINE
  5
3804
330
1E
100
AcDbEntity
  8
7
100
AcDbLine
 10
2.317913385826771
 20
1.733267716535433
 30
0.0
 11
2.293307086614173
 21
1.721456692913386
 31
0.0
  0
LINE
  5
3805
330
1E
100
AcDbEntity
  8
7
100
AcDbLine
 10
1.25
 20
1.733267716535433
 30
0.0
 11
1.047244094488188
 21
1.733267716535433
 31
0.0
  0
LINE
  5
3806
330
1E
100
AcDbEntity
  8
7
100
AcDbLine
 10
1.047244094488188
 20
1.733267716535433
 30
0.0
 11
1.023622047244094
 21
1.721456692913386
 31
0.0
  0
LINE
  5
3807
330
1E
100
AcDbEntity
  8
7
100
AcDbLine
 10
0.6614173228346458
 20
2.545275590551181
 30
0.0
 11
0.6545275590551182
 21
2.845472440944881
 31
0.0
  0
LINE
  5
3808
330
1E
100
AcDbEntity
  8
7
100
AcDbLine
 10
0.6545275590551182
 20
2.845472440944881
 30
0.0
 11
0.6437007874015749
 21
2.856299212598425
 31
0.0
  0
LINE
  5
3809
330
1E
100
AcDbEntity
  8
7
100
AcDbLine
 10
3.559055118110236
 20
2.856299212598425
 30
0.0
 11
3.548228346456692
 21
2.845472440944881
 31
0.0
  0
LINE
  5
380A
330
1E
100
AcDbEntity
  8
7
100
AcDbLine
 10
3.548228346456692
 20
2.845472440944881
 30
0.0
 11
3.541338582677165
 21
2.545275590551181
 31
0.0
  0
LINE
  5
380B
330
1E
100
AcDbEntity
  8
7
100
AcDbLine
 10
3.541338582677165
 20
2.545275590551181
 30
0.0
 11
3.541338582677165
 21
1.408464566929134
 31
0.0
  0
LINE
  5
380C
330
1E
100
AcDbEntity
  8
7
100
AcDbLine
 10
3.541338582677165
 20
1.408464566929134
 30
0.0
 11
3.559055118110236
 21
1.390748031496062
 31
0.0
  0
LINE
  5
380D
330
1E
100
AcDbEntity
  8
7
100
AcDbLine
 10
3.420275590551181
 20
2.598425196850393
 30
0.0
 11
3.428149606299212
 21
2.914370078740157
 31
0.0
  0
LINE
  5
380E
330
1E
100
AcDbEntity
  8
7
100
AcDbLine
 10
3.428149606299212
 20
2.914370078740157
 30
0.0
 11
0.7736220472440946
 21
2.914370078740157
 31
0.0
  0
LINE
  5
380F
330
1E
100
AcDbEntity
  8
7
100
AcDbLine
 10
0.7736220472440946
 20
2.914370078740157
 30
0.0
 11
0.7814960629921261
 21
2.598425196850393
 31
0.0
  0
LINE
  5
3810
330
1E
100
AcDbEntity
  8
7
100
AcDbLine
 10
0.7814960629921261
 20
2.598425196850393
 30
0.0
 11
3.420275590551181
 21
2.598425196850393
 31
0.0
  0
LINE
  5
3811
330
1E
100
AcDbEntity
  8
7
100
AcDbLine
 10
0.763779527559055
 20
2.976377952755905
 30
0.0
 11
0.7736220472440946
 21
2.965551181102362
 31
0.0
  0
LINE
  5
3812
330
1E
100
AcDbEntity
  8
7
100
AcDbLine
 10
0.7736220472440946
 20
2.965551181102362
 30
0.0
 11
3.428149606299212
 21
2.965551181102362
 31
0.0
  0
LINE
  5
3813
330
1E
100
AcDbEntity
  8
7
100
AcDbLine
 10
3.428149606299212
 20
2.965551181102362
 30
0.0
 11
3.438976377952755
 21
2.976377952755905
 31
0.0
  0
LINE
  5
3814
330
1E
100
AcDbEntity
  8
7
100
AcDbLine
 10
2.173228346456693
 20
1.719488188976377
 30
0.0
 11
2.173228346456693
 21
1.785433070866141
 31
0.0
  0
LINE
  5
3815
330
1E
100
AcDbEntity
  8
7
100
AcDbLine
 10
2.173228346456693
 20
1.785433070866141
 30
0.0
 11
2.029527559055118
 21
1.785433070866141
 31
0.0
  0
LINE
  5
3816
330
1E
100
AcDbEntity
  8
7
100
AcDbLine
 10
2.029527559055118
 20
1.785433070866141
 30
0.0
 11
2.029527559055118
 21
1.719488188976377
 31
0.0
  0
LINE
  5
3817
330
1E
100
AcDbEntity
  8
7
100
AcDbLine
 10
2.029527559055118
 20
1.719488188976377
 30
0.0
 11
1.537401574803149
 21
1.719488188976377
 31
0.0
  0
LINE
  5
3818
330
1E
100
AcDbEntity
  8
7
100
AcDbLine
 10
1.537401574803149
 20
1.719488188976377
 30
0.0
 11
1.537401574803149
 21
1.785433070866141
 31
0.0
  0
LINE
  5
3819
330
1E
100
AcDbEntity
  8
7
100
AcDbLine
 10
1.537401574803149
 20
1.785433070866141
 30
0.0
 11
1.394685039370078
 21
1.785433070866141
 31
0.0
  0
LINE
  5
381A
330
1E
100
AcDbEntity
  8
7
100
AcDbLine
 10
1.394685039370078
 20
1.785433070866141
 30
0.0
 11
1.394685039370078
 21
1.719488188976377
 31
0.0
  0
LINE
  5
381B
330
1E
100
AcDbEntity
  8
7
100
AcDbLine
 10
1.394685039370078
 20
1.719488188976377
 30
0.0
 11
0.9025590551181103
 21
1.719488188976377
 31
0.0
  0
LINE
  5
381C
330
1E
100
AcDbEntity
  8
7
100
AcDbLine
 10
0.9025590551181103
 20
1.719488188976377
 30
0.0
 11
0.9025590551181103
 21
1.785433070866141
 31
0.0
  0
LINE
  5
381D
330
1E
100
AcDbEntity
  8
7
100
AcDbLine
 10
0.9025590551181103
 20
1.785433070866141
 30
0.0
 11
0.8356299212598424
 21
1.785433070866141
 31
0.0
  0
LINE
  5
381E
330
1E
100
AcDbEntity
  8
7
100
AcDbLine
 10
0.8356299212598424
 20
1.785433070866141
 30
0.0
 11
0.8356299212598424
 21
2.446850393700787
 31
0.0
  0
LINE
  5
381F
330
1E
100
AcDbEntity
  8
7
100
AcDbLine
 10
0.8356299212598424
 20
2.446850393700787
 30
0.0
 11
3.367125984251968
 21
2.446850393700787
 31
0.0
  0
LINE
  5
3820
330
1E
100
AcDbEntity
  8
7
100
AcDbLine
 10
3.367125984251968
 20
2.446850393700787
 30
0.0
 11
3.367125984251968
 21
1.785433070866141
 31
0.0
  0
LINE
  5
3821
330
1E
100
AcDbEntity
  8
7
100
AcDbLine
 10
3.367125984251968
 20
1.785433070866141
 30
0.0
 11
3.299212598425196
 21
1.785433070866141
 31
0.0
  0
LINE
  5
3822
330
1E
100
AcDbEntity
  8
7
100
AcDbLine
 10
3.299212598425196
 20
1.785433070866141
 30
0.0
 11
3.299212598425196
 21
1.719488188976377
 31
0.0
  0
LINE
  5
3823
330
1E
100
AcDbEntity
  8
7
100
AcDbLine
 10
3.299212598425196
 20
1.719488188976377
 30
0.0
 11
2.808070866141732
 21
1.719488188976377
 31
0.0
  0
LINE
  5
3824
330
1E
100
AcDbEntity
  8
7
100
AcDbLine
 10
2.808070866141732
 20
1.719488188976377
 30
0.0
 11
2.808070866141732
 21
1.785433070866141
 31
0.0
  0
LINE
  5
3825
330
1E
100
AcDbEntity
  8
7
100
AcDbLine
 10
2.808070866141732
 20
1.785433070866141
 30
0.0
 11
2.664370078740157
 21
1.785433070866141
 31
0.0
  0
LINE
  5
3826
330
1E
100
AcDbEntity
  8
7
100
AcDbLine
 10
2.664370078740157
 20
1.785433070866141
 30
0.0
 11
2.664370078740157
 21
1.719488188976377
 31
0.0
  0
LINE
  5
3827
330
1E
100
AcDbEntity
  8
7
100
AcDbLine
 10
2.664370078740157
 20
1.719488188976377
 30
0.0
 11
2.173228346456693
 21
1.719488188976377
 31
0.0
  0
LINE
  5
3828
330
1E
100
AcDbEntity
  8
7
100
AcDbLine
 10
3.421259842519685
 20
1.408464566929134
 30
0.0
 11
3.421259842519685
 21
2.563976377952755
 31
0.0
  0
LINE
  5
3829
330
1E
100
AcDbEntity
  8
7
100
AcDbLine
 10
3.421259842519685
 20
2.563976377952755
 30
0.0
 11
3.420275590551181
 21
2.563976377952755
 31
0.0
  0
LINE
  5
382A
330
1E
100
AcDbEntity
  8
7
100
AcDbLine
 10
3.420275590551181
 20
2.563976377952755
 30
0.0
 11
0.7814960629921261
 21
2.563976377952755
 31
0.0
  0
LINE
  5
382B
330
1E
100
AcDbEntity
  8
7
100
AcDbLine
 10
0.7814960629921261
 20
2.563976377952755
 30
0.0
 11
0.7814960629921261
 21
1.408464566929134
 31
0.0
  0
LINE
  5
382C
330
1E
100
AcDbEntity
  8
7
100
AcDbLine
 10
0.7814960629921261
 20
1.408464566929134
 30
0.0
 11
3.421259842519685
 21
1.408464566929134
 31
0.0
  0
LINE
  5
382D
330
1E
100
AcDbEntity
  8
7
100
AcDbLine
 10
0.8297244094488188
 20
2.671259842519685
 30
0.0
 11
0.8287401574803149
 21
2.681102362204724
 31
0.0
  0
LINE
  5
382E
330
1E
100
AcDbEntity
  8
7
100
AcDbLine
 10
0.8287401574803149
 20
2.681102362204724
 30
0.0
 11
0.8287401574803149
 21
2.639763779527559
 31
0.0
  0
LINE
  5
382F
330
1E
100
AcDbEntity
  8
7
100
AcDbLine
 10
3.372047244094487
 20
2.671259842519685
 30
0.0
 11
3.373031496062992
 21
2.681102362204724
 31
0.0
  0
LINE
  5
3830
330
1E
100
AcDbEntity
  8
7
100
AcDbLine
 10
3.373031496062992
 20
2.681102362204724
 30
0.0
 11
3.398622047244094
 21
2.681102362204724
 31
0.0
  0
LINE
  5
3831
330
1E
100
AcDbEntity
  8
7
100
AcDbLine
 10
0.8297244094488188
 20
2.827755905511811
 30
0.0
 11
0.8287401574803149
 21
2.839566929133858
 31
0.0
  0
LINE
  5
3832
330
1E
100
AcDbEntity
  8
7
100
AcDbLine
 10
0.8287401574803149
 20
2.839566929133858
 30
0.0
 11
0.8287401574803149
 21
2.798228346456692
 31
0.0
  0
LINE
  5
3833
330
1E
100
AcDbEntity
  8
7
100
AcDbLine
 10
3.085629921259842
 20
2.716535433070865
 30
0.0
 11
3.074803149606299
 21
2.727362204724409
 31
0.0
  0
LINE
  5
3834
330
1E
100
AcDbEntity
  8
7
100
AcDbLine
 10
3.074803149606299
 20
2.727362204724409
 30
0.0
 11
3.058070866141732
 21
2.732283464566928
 31
0.0
  0
LINE
  5
3835
330
1E
100
AcDbEntity
  8
7
100
AcDbLine
 10
3.058070866141732
 20
2.732283464566928
 30
0.0
 11
3.040354330708661
 21
2.731299212598425
 31
0.0
  0
LINE
  5
3836
330
1E
100
AcDbEntity
  8
7
100
AcDbLine
 10
3.040354330708661
 20
2.731299212598425
 30
0.0
 11
3.026574803149606
 21
2.722440944881889
 31
0.0
  0
LINE
  5
3837
330
1E
100
AcDbEntity
  8
7
100
AcDbLine
 10
3.026574803149606
 20
2.722440944881889
 30
0.0
 11
3.01771653543307
 21
2.710629921259842
 31
0.0
  0
LINE
  5
3838
330
1E
100
AcDbEntity
  8
7
100
AcDbLine
 10
3.01771653543307
 20
2.710629921259842
 30
0.0
 11
3.01771653543307
 21
2.695866141732283
 31
0.0
  0
LINE
  5
3839
330
1E
100
AcDbEntity
  8
7
100
AcDbLine
 10
3.01771653543307
 20
2.695866141732283
 30
0.0
 11
3.026574803149606
 21
2.683070866141732
 31
0.0
  0
LINE
  5
383A
330
1E
100
AcDbEntity
  8
7
100
AcDbLine
 10
3.026574803149606
 20
2.683070866141732
 30
0.0
 11
3.040354330708661
 21
2.6751968503937
 31
0.0
  0
LINE
  5
383B
330
1E
100
AcDbEntity
  8
7
100
AcDbLine
 10
3.040354330708661
 20
2.6751968503937
 30
0.0
 11
3.058070866141732
 21
2.673228346456692
 31
0.0
  0
LINE
  5
383C
330
1E
100
AcDbEntity
  8
7
100
AcDbLine
 10
3.058070866141732
 20
2.673228346456692
 30
0.0
 11
3.074803149606299
 21
2.678149606299212
 31
0.0
  0
LINE
  5
383D
330
1E
100
AcDbEntity
  8
7
100
AcDbLine
 10
3.074803149606299
 20
2.678149606299212
 30
0.0
 11
3.085629921259842
 21
2.688976377952755
 31
0.0
  0
LINE
  5
383E
330
1E
100
AcDbEntity
  8
7
100
AcDbLine
 10
3.085629921259842
 20
2.688976377952755
 30
0.0
 11
3.090551181102362
 21
2.702755905511811
 31
0.0
  0
LINE
  5
383F
330
1E
100
AcDbEntity
  8
7
100
AcDbLine
 10
1.815944881889763
 20
2.716535433070865
 30
0.0
 11
1.804133858267716
 21
2.727362204724409
 31
0.0
  0
LINE
  5
3840
330
1E
100
AcDbEntity
  8
7
100
AcDbLine
 10
1.804133858267716
 20
2.727362204724409
 30
0.0
 11
1.788385826771653
 21
2.732283464566928
 31
0.0
  0
LINE
  5
3841
330
1E
100
AcDbEntity
  8
7
100
AcDbLine
 10
1.788385826771653
 20
2.732283464566928
 30
0.0
 11
1.770669291338582
 21
2.731299212598425
 31
0.0
  0
LINE
  5
3842
330
1E
100
AcDbEntity
  8
7
100
AcDbLine
 10
1.770669291338582
 20
2.731299212598425
 30
0.0
 11
1.755905511811023
 21
2.722440944881889
 31
0.0
  0
LINE
  5
3843
330
1E
100
AcDbEntity
  8
7
100
AcDbLine
 10
1.755905511811023
 20
2.722440944881889
 30
0.0
 11
1.748031496062992
 21
2.710629921259842
 31
0.0
  0
LINE
  5
3844
330
1E
100
AcDbEntity
  8
7
100
AcDbLine
 10
1.748031496062992
 20
2.710629921259842
 30
0.0
 11
1.748031496062992
 21
2.695866141732283
 31
0.0
  0
LINE
  5
3845
330
1E
100
AcDbEntity
  8
7
100
AcDbLine
 10
1.748031496062992
 20
2.695866141732283
 30
0.0
 11
1.755905511811023
 21
2.683070866141732
 31
0.0
  0
LINE
  5
3846
330
1E
100
AcDbEntity
  8
7
100
AcDbLine
 10
1.755905511811023
 20
2.683070866141732
 30
0.0
 11
1.770669291338582
 21
2.6751968503937
 31
0.0
  0
LINE
  5
3847
330
1E
100
AcDbEntity
  8
7
100
AcDbLine
 10
1.770669291338582
 20
2.6751968503937
 30
0.0
 11
1.788385826771653
 21
2.673228346456692
 31
0.0
  0
LINE
  5
3848
330
1E
100
AcDbEntity
  8
7
100
AcDbLine
 10
1.788385826771653
 20
2.673228346456692
 30
0.0
 11
1.804133858267716
 21
2.678149606299212
 31
0.0
  0
LINE
  5
3849
330
1E
100
AcDbEntity
  8
7
100
AcDbLine
 10
1.804133858267716
 20
2.678149606299212
 30
0.0
 11
1.815944881889763
 21
2.688976377952755
 31
0.0
  0
LINE
  5
384A
330
1E
100
AcDbEntity
  8
7
100
AcDbLine
 10
1.815944881889763
 20
2.688976377952755
 30
0.0
 11
1.819881889763779
 21
2.702755905511811
 31
0.0
  0
LINE
  5
384B
330
1E
100
AcDbEntity
  8
7
100
AcDbLine
 10
3.398622047244094
 20
2.751968503937007
 30
0.0
 11
3.37007874015748
 21
2.751968503937007
 31
0.0
  0
LINE
  5
384C
330
1E
100
AcDbEntity
  8
7
100
AcDbLine
 10
3.37007874015748
 20
2.751968503937007
 30
0.0
 11
3.37007874015748
 21
2.802165354330708
 31
0.0
  0
LINE
  5
384D
330
1E
100
AcDbEntity
  8
7
100
AcDbLine
 10
3.37007874015748
 20
2.802165354330708
 30
0.0
 11
0.8326771653543307
 21
2.802165354330708
 31
0.0
  0
LINE
  5
384E
330
1E
100
AcDbEntity
  8
7
100
AcDbLine
 10
0.8326771653543307
 20
2.802165354330708
 30
0.0
 11
0.8326771653543307
 21
2.751968503937007
 31
0.0
  0
LINE
  5
384F
330
1E
100
AcDbEntity
  8
7
100
AcDbLine
 10
0.8326771653543307
 20
2.751968503937007
 30
0.0
 11
0.8041338582677164
 21
2.751968503937007
 31
0.0
  0
LINE
  5
3850
330
1E
100
AcDbEntity
  8
7
100
AcDbLine
 10
3.37007874015748
 20
2.639763779527559
 30
0.0
 11
3.37007874015748
 21
2.674212598425197
 31
0.0
  0
LINE
  5
3851
330
1E
100
AcDbEntity
  8
7
100
AcDbLine
 10
3.37007874015748
 20
2.674212598425197
 30
0.0
 11
3.372047244094487
 21
2.674212598425197
 31
0.0
  0
LINE
  5
3852
330
1E
100
AcDbEntity
  8
7
100
AcDbLine
 10
1.181102362204724
 20
2.716535433070865
 30
0.0
 11
1.169291338582677
 21
2.727362204724409
 31
0.0
  0
LINE
  5
3853
330
1E
100
AcDbEntity
  8
7
100
AcDbLine
 10
1.169291338582677
 20
2.727362204724409
 30
0.0
 11
1.153543307086614
 21
2.732283464566928
 31
0.0
  0
LINE
  5
3854
330
1E
100
AcDbEntity
  8
7
100
AcDbLine
 10
1.153543307086614
 20
2.732283464566928
 30
0.0
 11
1.135826771653543
 21
2.731299212598425
 31
0.0
  0
LINE
  5
3855
330
1E
100
AcDbEntity
  8
7
100
AcDbLine
 10
1.135826771653543
 20
2.731299212598425
 30
0.0
 11
1.121062992125984
 21
2.722440944881889
 31
0.0
  0
LINE
  5
3856
330
1E
100
AcDbEntity
  8
7
100
AcDbLine
 10
1.121062992125984
 20
2.722440944881889
 30
0.0
 11
1.113188976377952
 21
2.710629921259842
 31
0.0
  0
LINE
  5
3857
330
1E
100
AcDbEntity
  8
7
100
AcDbLine
 10
1.113188976377952
 20
2.710629921259842
 30
0.0
 11
1.113188976377952
 21
2.695866141732283
 31
0.0
  0
LINE
  5
3858
330
1E
100
AcDbEntity
  8
7
100
AcDbLine
 10
1.113188976377952
 20
2.695866141732283
 30
0.0
 11
1.121062992125984
 21
2.683070866141732
 31
0.0
  0
LINE
  5
3859
330
1E
100
AcDbEntity
  8
7
100
AcDbLine
 10
1.121062992125984
 20
2.683070866141732
 30
0.0
 11
1.135826771653543
 21
2.6751968503937
 31
0.0
  0
LINE
  5
385A
330
1E
100
AcDbEntity
  8
7
100
AcDbLine
 10
1.135826771653543
 20
2.6751968503937
 30
0.0
 11
1.153543307086614
 21
2.673228346456692
 31
0.0
  0
LINE
  5
385B
330
1E
100
AcDbEntity
  8
7
100
AcDbLine
 10
1.153543307086614
 20
2.673228346456692
 30
0.0
 11
1.169291338582677
 21
2.678149606299212
 31
0.0
  0
LINE
  5
385C
330
1E
100
AcDbEntity
  8
7
100
AcDbLine
 10
1.169291338582677
 20
2.678149606299212
 30
0.0
 11
1.181102362204724
 21
2.688976377952755
 31
0.0
  0
LINE
  5
385D
330
1E
100
AcDbEntity
  8
7
100
AcDbLine
 10
1.181102362204724
 20
2.688976377952755
 30
0.0
 11
1.18503937007874
 21
2.702755905511811
 31
0.0
  0
LINE
  5
385E
330
1E
100
AcDbEntity
  8
7
100
AcDbLine
 10
2.450787401574803
 20
2.716535433070865
 30
0.0
 11
2.438976377952756
 21
2.727362204724409
 31
0.0
  0
LINE
  5
385F
330
1E
100
AcDbEntity
  8
7
100
AcDbLine
 10
2.438976377952756
 20
2.727362204724409
 30
0.0
 11
2.423228346456693
 21
2.732283464566928
 31
0.0
  0
LINE
  5
3860
330
1E
100
AcDbEntity
  8
7
100
AcDbLine
 10
2.423228346456693
 20
2.732283464566928
 30
0.0
 11
2.405511811023622
 21
2.731299212598425
 31
0.0
  0
LINE
  5
3861
330
1E
100
AcDbEntity
  8
7
100
AcDbLine
 10
2.405511811023622
 20
2.731299212598425
 30
0.0
 11
2.391732283464567
 21
2.722440944881889
 31
0.0
  0
LINE
  5
3862
330
1E
100
AcDbEntity
  8
7
100
AcDbLine
 10
2.391732283464567
 20
2.722440944881889
 30
0.0
 11
2.382874015748031
 21
2.710629921259842
 31
0.0
  0
LINE
  5
3863
330
1E
100
AcDbEntity
  8
7
100
AcDbLine
 10
2.382874015748031
 20
2.710629921259842
 30
0.0
 11
2.382874015748031
 21
2.695866141732283
 31
0.0
  0
LINE
  5
3864
330
1E
100
AcDbEntity
  8
7
100
AcDbLine
 10
2.382874015748031
 20
2.695866141732283
 30
0.0
 11
2.391732283464567
 21
2.683070866141732
 31
0.0
  0
LINE
  5
3865
330
1E
100
AcDbEntity
  8
7
100
AcDbLine
 10
2.391732283464567
 20
2.683070866141732
 30
0.0
 11
2.405511811023622
 21
2.6751968503937
 31
0.0
  0
LINE
  5
3866
330
1E
100
AcDbEntity
  8
7
100
AcDbLine
 10
2.405511811023622
 20
2.6751968503937
 30
0.0
 11
2.423228346456693
 21
2.673228346456692
 31
0.0
  0
LINE
  5
3867
330
1E
100
AcDbEntity
  8
7
100
AcDbLine
 10
2.423228346456693
 20
2.673228346456692
 30
0.0
 11
2.438976377952756
 21
2.678149606299212
 31
0.0
  0
LINE
  5
3868
330
1E
100
AcDbEntity
  8
7
100
AcDbLine
 10
2.438976377952756
 20
2.678149606299212
 30
0.0
 11
2.450787401574803
 21
2.688976377952755
 31
0.0
  0
LINE
  5
3869
330
1E
100
AcDbEntity
  8
7
100
AcDbLine
 10
2.450787401574803
 20
2.688976377952755
 30
0.0
 11
2.455708661417322
 21
2.702755905511811
 31
0.0
  0
LINE
  5
386A
330
1E
100
AcDbEntity
  8
7
100
AcDbLine
 10
1.689960629921259
 20
1.288385826771653
 30
0.0
 11
0.7814960629921261
 21
1.288385826771653
 31
0.0
  0
LINE
  5
386B
330
1E
100
AcDbEntity
  8
7
100
AcDbLine
 10
0.7814960629921261
 20
1.288385826771653
 30
0.0
 11
0.763779527559055
 21
1.270669291338582
 31
0.0
  0
LINE
  5
386C
330
1E
100
AcDbEntity
  8
7
100
AcDbLine
 10
3.438976377952755
 20
1.270669291338582
 30
0.0
 11
3.421259842519685
 21
1.288385826771653
 31
0.0
  0
LINE
  5
386D
330
1E
100
AcDbEntity
  8
7
100
AcDbLine
 10
3.421259842519685
 20
1.288385826771653
 30
0.0
 11
2.512795275590551
 21
1.288385826771653
 31
0.0
  0
LINE
  5
386E
330
1E
100
AcDbEntity
  8
7
100
AcDbLine
 10
2.512795275590551
 20
1.288385826771653
 30
0.0
 11
2.513779527559055
 21
1.270669291338582
 31
0.0
  0
LINE
  5
386F
330
1E
100
AcDbEntity
  8
7
100
AcDbLine
 10
3.542322834645669
 20
2.916338582677164
 30
0.0
 11
3.554133858267716
 21
2.886811023622047
 31
0.0
  0
LINE
  5
3870
330
1E
100
AcDbEntity
  8
7
100
AcDbLine
 10
3.554133858267716
 20
2.886811023622047
 30
0.0
 11
3.559055118110236
 21
2.856299212598425
 31
0.0
  0
LINE
  5
3871
330
1E
100
AcDbEntity
  8
7
100
AcDbLine
 10
3.559055118110236
 20
2.856299212598425
 30
0.0
 11
3.559055118110236
 21
1.390748031496062
 31
0.0
  0
LINE
  5
3872
330
1E
100
AcDbEntity
  8
7
100
AcDbLine
 10
3.559055118110236
 20
1.390748031496062
 30
0.0
 11
3.554133858267716
 21
1.36023622047244
 31
0.0
  0
LINE
  5
3873
330
1E
100
AcDbEntity
  8
7
100
AcDbLine
 10
3.554133858267716
 20
1.36023622047244
 30
0.0
 11
3.542322834645669
 21
1.330708661417323
 31
0.0
  0
LINE
  5
3874
330
1E
100
AcDbEntity
  8
7
100
AcDbLine
 10
3.542322834645669
 20
1.330708661417323
 30
0.0
 11
3.523622047244094
 21
1.306102362204724
 31
0.0
  0
LINE
  5
3875
330
1E
100
AcDbEntity
  8
7
100
AcDbLine
 10
3.523622047244094
 20
1.306102362204724
 30
0.0
 11
3.499015748031496
 21
1.287401574803149
 31
0.0
  0
LINE
  5
3876
330
1E
100
AcDbEntity
  8
7
100
AcDbLine
 10
3.499015748031496
 20
1.287401574803149
 30
0.0
 11
3.469488188976377
 21
1.274606299212598
 31
0.0
  0
LINE
  5
3877
330
1E
100
AcDbEntity
  8
7
100
AcDbLine
 10
3.469488188976377
 20
1.274606299212598
 30
0.0
 11
3.438976377952755
 21
1.270669291338582
 31
0.0
  0
LINE
  5
3878
330
1E
100
AcDbEntity
  8
7
100
AcDbLine
 10
3.438976377952755
 20
1.270669291338582
 30
0.0
 11
2.513779527559055
 21
1.270669291338582
 31
0.0
  0
LINE
  5
3879
330
1E
100
AcDbEntity
  8
7
100
AcDbLine
 10
3.438976377952755
 20
2.976377952755905
 30
0.0
 11
3.469488188976377
 21
2.971456692913386
 31
0.0
  0
LINE
  5
387A
330
1E
100
AcDbEntity
  8
7
100
AcDbLine
 10
3.469488188976377
 20
2.971456692913386
 30
0.0
 11
3.499015748031496
 21
2.959645669291338
 31
0.0
  0
LINE
  5
387B
330
1E
100
AcDbEntity
  8
7
100
AcDbLine
 10
3.499015748031496
 20
2.959645669291338
 30
0.0
 11
3.523622047244094
 21
2.940944881889763
 31
0.0
  0
LINE
  5
387C
330
1E
100
AcDbEntity
  8
7
100
AcDbLine
 10
3.523622047244094
 20
2.940944881889763
 30
0.0
 11
3.542322834645669
 21
2.916338582677164
 31
0.0
  0
LINE
  5
387D
330
1E
100
AcDbEntity
  8
7
100
AcDbLine
 10
0.6437007874015749
 20
2.856299212598425
 30
0.0
 11
0.6476377952755907
 21
2.886811023622047
 31
0.0
  0
LINE
  5
387E
330
1E
100
AcDbEntity
  8
7
100
AcDbLine
 10
0.6476377952755907
 20
2.886811023622047
 30
0.0
 11
0.6594488188976379
 21
2.916338582677164
 31
0.0
  0
LINE
  5
387F
330
1E
100
AcDbEntity
  8
7
100
AcDbLine
 10
0.6594488188976379
 20
2.916338582677164
 30
0.0
 11
0.6791338582677166
 21
2.940944881889763
 31
0.0
  0
LINE
  5
3880
330
1E
100
AcDbEntity
  8
7
100
AcDbLine
 10
0.6791338582677166
 20
2.940944881889763
 30
0.0
 11
0.7037401574803149
 21
2.959645669291338
 31
0.0
  0
LINE
  5
3881
330
1E
100
AcDbEntity
  8
7
100
AcDbLine
 10
0.7037401574803149
 20
2.959645669291338
 30
0.0
 11
0.7322834645669291
 21
2.971456692913386
 31
0.0
  0
LINE
  5
3882
330
1E
100
AcDbEntity
  8
7
100
AcDbLine
 10
0.7322834645669291
 20
2.971456692913386
 30
0.0
 11
0.763779527559055
 21
2.976377952755905
 31
0.0
  0
LINE
  5
3883
330
1E
100
AcDbEntity
  8
7
100
AcDbLine
 10
1.688976377952756
 20
1.270669291338582
 30
0.0
 11
0.763779527559055
 21
1.270669291338582
 31
0.0
  0
LINE
  5
3884
330
1E
100
AcDbEntity
  8
7
100
AcDbLine
 10
0.763779527559055
 20
1.270669291338582
 30
0.0
 11
0.7322834645669291
 21
1.274606299212598
 31
0.0
  0
LINE
  5
3885
330
1E
100
AcDbEntity
  8
7
100
AcDbLine
 10
0.7322834645669291
 20
1.274606299212598
 30
0.0
 11
0.7037401574803149
 21
1.287401574803149
 31
0.0
  0
LINE
  5
3886
330
1E
100
AcDbEntity
  8
7
100
AcDbLine
 10
0.7037401574803149
 20
1.287401574803149
 30
0.0
 11
0.6791338582677166
 21
1.306102362204724
 31
0.0
  0
LINE
  5
3887
330
1E
100
AcDbEntity
  8
7
100
AcDbLine
 10
0.6791338582677166
 20
1.306102362204724
 30
0.0
 11
0.6594488188976379
 21
1.330708661417323
 31
0.0
  0
LINE
  5
3888
330
1E
100
AcDbEntity
  8
7
100
AcDbLine
 10
0.6594488188976379
 20
1.330708661417323
 30
0.0
 11
0.6476377952755907
 21
1.36023622047244
 31
0.0
  0
LINE
  5
3889
330
1E
100
AcDbEntity
  8
7
100
AcDbLine
 10
0.6476377952755907
 20
1.36023622047244
 30
0.0
 11
0.6437007874015749
 21
1.390748031496062
 31
0.0
  0
ENDSEC
  0
SECTION
  2
OBJECTS
  0
DICTIONARY
  5
C
330
0
100
AcDbDictionary
  3
ACAD_GROUP
350
D
  3
ACAD_MLINESTYLE
350
16
  3
ACAD_PLOTSETTINGS
350
18
  3
ACAD_LAYOUT
350
19
1001
ACAD
1000
TREAT_AS_HARD
1070
     0
  0
DICTIONARY
  5
4A92
330
1E
100
AcDbDictionary
  3
ACAD_LAYOUTSELFREF
350
4A93
  0
DICTIONARY
  5
4A90
330
1A
100
AcDbDictionary
  3
ACAD_LAYOUTSELFREF
350
4A91
  0
DICTIONARY
  5
D
102
{ACAD_REACTORS
330
C
102
}
330
C
100
AcDbDictionary
1001
ACAD
1000
TREAT_AS_HARD
1070
     0
  0
DICTIONARY
  5
16
102
{ACAD_REACTORS
330
C
102
}
330
C
100
AcDbDictionary
  3
STANDARD
350
17
1001
ACAD
1000
TREAT_AS_HARD
1070
     0
  0
DICTIONARY
  5
18
102
{ACAD_REACTORS
330
C
102
}
330
C
100
AcDbDictionary
1001
ACAD
1000
TREAT_AS_HARD
1070
     0
  0
DICTIONARY
  5
19
102
{ACAD_REACTORS
330
C
102
}
330
C
100
AcDbDictionary
1001
ACAD
1000
TREAT_AS_HARD
1070
     0
  0
XRECORD
  5
4A93
102
{ACAD_REACTORS
330
4A92
102
}
330
4A92
100
AcDbXrecord
340
1E
  0
XRECORD
  5
4A91
102
{ACAD_REACTORS
330
4A90
102
}
330
4A90
100
AcDbXrecord
340
1A
  0
MLINESTYLE
  5
17
102
{ACAD_REACTORS
330
16
102
}
330
16
100
AcDbMlineStyle
  2
STANDARD
 70
     0
  3

 62
   256
 51
90.0
 52
90.0
 71
     2
 49
0.5
 62
   256
  6
BYLAYER
 49
-0.5
 62
   256
  6
BYLAYER
  0
ENDSEC
  0
EOF
