999
DXF file: C:\Users\sesa63760\Dev\_Creo\CAD\MCADID0000862_3D-CAD\drw0001_1.dxf
999
Pro/ENGINEER 2019471 by Parametric Technology Corporation
  0
SECTION
  2
HEADER
  9
$ACADVER
  1
AC1024
  9
$DWGCODEPAGE
  3
ANSI_1252
  9
$EXTMAX
 10
204.0640699736
 20
288.6048989627
 30
0.0
  9
$EXTMIN
 10
0.0
 20
0.0
 30
0.0
  9
$LIMMIN
 10
0.0
 20
0.0
  9
$LIMMAX
 10
204.0640699736
 20
288.6048989627
  9
$VIEWCTR
 10
102.0320349868
 20
144.3024494813
  9
$VIEWSIZE
 40
288.6048989627
  9
$CLAYER
  8
0
  9
$LTSCALE
 40
18.8127637842
  9
$CELTYPE
  6
BYLAYER
  9
$DIMSCALE
 40
1.0
  9
$DIMASZ
 40
2.4293341664
  9
$DIMEXO
 40
1.0
  9
$DIMDLI
 40
12.9979095237
  9
$DIMEXE
 40
1.0
  9
$DIMCEN
 40
3.0784522556
  9
$DIMLFAC
 40
1.0
  9
$DIMBLK
  1
_FILLED
  9
$DIMALT
 70
0
  9
$DIMALTF
 40
0.0393700787
  9
$DIMTXT
 40
3.4010678329
  9
$DIMTOL
 70
1
  9
$DIMLIM
 70
0
  9
$DIMTFAC
 40
1.0
  9
$DIMTP
 40
0.01
  9
$DIMTM
 40
0.01
  9
$DIMGAP
 40
0.625
  9
$DIMDSEP
 70
46
  9
$AUNITS
 70
0
  9
$PDMODE
 70
3
  9
$PDSIZE
 40
0.3125
  9
$HANDSEED
  5
259
  9
$TILEMODE
 70
1
  9
$MEASUREMENT
 70
1
  9
$INSUNITS
 70
4
  0
ENDSEC
  0
SECTION
  2
CLASSES
  0
CLASS
  1
ACDBDICTIONARYWDFLT
  2
AcDbDictionaryWithDefault
  3
AutoCAD 2000
 90
0
 91
1
280
0
281
0
  0
CLASS
  1
ACDBPLACEHOLDER
  2
AcDbPlaceHolder
  3
AutoCAD 2000
 90
0
 91
1
280
0
281
0
  0
CLASS
  1
LAYOUT
  2
AcDbLayout
  3
AutoCAD 2000
 90
0
 91
0
280
0
281
0
  0
ENDSEC
  0
SECTION
  2
TABLES
  0
TABLE
  2
VPORT
  5
8
100
AcDbSymbolTable
 70
2
  0
VPORT
  5
1F4
100
AcDbSymbolTableRecord
100
AcDbViewportTableRecord
  2
*ACTIVE
 70
0
 10
0.0
 20
0.0
 11
1.0
 21
1.0
 12
102.0320349868
 22
144.3024494813
 13
0.0
 23
0.0
 14
1.0
 24
1.0
 15
0.0
 25
0.0
 16
0.0
 26
0.0
 36
1.0
 17
0.0
 27
0.0
 37
0.0
 40
288.6048989627
 41
0.7070707071
 42
50.0
 43
0.0
 44
0.0
 50
0.0
 51
0.0
 71
0
 72
100
 73
1
 74
1
 75
0
 76
0
 77
0
 78
0
  0
ENDTAB
  0
TABLE
  2
LTYPE
  5
5
100
AcDbSymbolTable
 70
6
  0
LTYPE
  5
14
100
AcDbSymbolTableRecord
100
AcDbLinetypeTableRecord
  2
BYBLOCK
 70
0
  3

 72
65
 73
0
 40
0.0
  0
LTYPE
  5
15
100
AcDbSymbolTableRecord
100
AcDbLinetypeTableRecord
  2
BYLAYER
 70
0
  3

 72
65
 73
0
 40
0.0
  0
LTYPE
  5
16
100
AcDbSymbolTableRecord
100
AcDbLinetypeTableRecord
  2
CONTINUOUS
 70
64
  3
Solid line
 72
65
 73
0
 40
0.0
  0
LTYPE
  5
1F5
100
AcDbSymbolTableRecord
100
AcDbLinetypeTableRecord
  2
CENTER
 70
64
  3
____ _ ____ _ ____ _ ____ _ ____ _ ____ _ ____
 72
65
 73
4
 40
0.6
 49
0.375
 74
0
 49
-0.075
 74
0
 49
0.075
 74
0
 49
-0.075
 74
0
  0
LTYPE
  5
1F6
100
AcDbSymbolTableRecord
100
AcDbLinetypeTableRecord
  2
HIDDEN
 70
64
  3
- - - - - - - - - - - - - - - - - - - -
 72
65
 73
2
 40
0.2
 49
0.1
 74
0
 49
-0.1
 74
0
  0
LTYPE
  5
1F7
100
AcDbSymbolTableRecord
100
AcDbLinetypeTableRecord
  2
PHANTOM
 70
64
  3
_____ _ _ _____ _ _ _____ _ _ _____
 72
65
 73
6
 40
0.8
 49
0.45
 74
0
 49
-0.05
 74
0
 49
0.1
 74
0
 49
-0.05
 74
0
 49
0.1
 74
0
 49
-0.05
 74
0
  0
LTYPE
  5
1F8
100
AcDbSymbolTableRecord
100
AcDbLinetypeTableRecord
  2
DOT
 70
64
  3
. . . . . . . . . . . . . . . . . . . .
 72
65
 73
2
 40
0.2
 49
0.1
 74
0
 49
-0.1
 74
0
  0
LTYPE
  5
1F9
100
AcDbSymbolTableRecord
100
AcDbLinetypeTableRecord
  2
DASHED
 70
64
  3
- - - - - - - - - - - - - - - - - - - -
 72
65
 73
2
 40
0.2
 49
0.1
 74
0
 49
-0.1
 74
0
  0
ENDTAB
  0
TABLE
  2
LAYER
  5
2
100
AcDbSymbolTable
 70
36
  0
LAYER
  5
10
100
AcDbSymbolTableRecord
100
AcDbLayerTableRecord
  2
0
 70
0
 62
7
  6
CONTINUOUS
370
-3
390
F
  0
LAYER
  5
1FA
100
AcDbSymbolTableRecord
100
AcDbLayerTableRecord
  2
DEFAULT_1
 70
0
 62
7
  6
CENTER
370
-3
390
F
  0
LAYER
  5
1FB
100
AcDbSymbolTableRecord
100
AcDbLayerTableRecord
  2
DEFAULT_2
 70
0
 62
8
  6
HIDDEN
370
-3
390
F
  0
LAYER
  5
1FC
100
AcDbSymbolTableRecord
100
AcDbLayerTableRecord
  2
DEFAULT_3
 70
0
 62
7
  6
PHANTOM
370
-3
390
F
  0
LAYER
  5
1FD
100
AcDbSymbolTableRecord
100
AcDbLayerTableRecord
  2
00_COMPONENTS
 70
0
 62
7
  6
CONTINUOUS
370
-3
390
F
  0
LAYER
  5
1FE
100
AcDbSymbolTableRecord
100
AcDbLayerTableRecord
  2
01_1_DEFAULT_DATUMS
 70
0
 62
7
  6
CONTINUOUS
370
-3
390
F
  0
LAYER
  5
1FF
100
AcDbSymbolTableRecord
100
AcDbLayerTableRecord
  2
01_PLANES
 70
0
 62
7
  6
CONTINUOUS
370
-3
390
F
  0
LAYER
  5
200
100
AcDbSymbolTableRecord
100
AcDbLayerTableRecord
  2
02_COORD_SYS
 70
0
 62
7
  6
CONTINUOUS
370
-3
390
F
  0
LAYER
  5
201
100
AcDbSymbolTableRecord
100
AcDbLayerTableRecord
  2
03_AXES
 70
0
 62
7
  6
CONTINUOUS
370
-3
390
F
  0
LAYER
  5
202
100
AcDbSymbolTableRecord
100
AcDbLayerTableRecord
  2
04_POINTS
 70
0
 62
7
  6
CONTINUOUS
370
-3
390
F
  0
LAYER
  5
203
100
AcDbSymbolTableRecord
100
AcDbLayerTableRecord
  2
05_CURVES
 70
0
 62
7
  6
CONTINUOUS
370
-3
390
F
  0
LAYER
  5
204
100
AcDbSymbolTableRecord
100
AcDbLayerTableRecord
  2
06_SURFS
 70
0
 62
7
  6
CONTINUOUS
370
-3
390
F
  0
LAYER
  5
205
100
AcDbSymbolTableRecord
100
AcDbLayerTableRecord
  2
07_COSMETICS
 70
0
 62
7
  6
CONTINUOUS
370
-3
390
F
  0
LAYER
  5
206
100
AcDbSymbolTableRecord
100
AcDbLayerTableRecord
  2
10_NOTES
 70
0
 62
7
  6
CONTINUOUS
370
-3
390
F
  0
LAYER
  5
207
100
AcDbSymbolTableRecord
100
AcDbLayerTableRecord
  2
11_NOTES_PUB
 70
0
 62
7
  6
CONTINUOUS
370
-3
390
F
  0
LAYER
  5
208
100
AcDbSymbolTableRecord
100
AcDbLayerTableRecord
  2
13_REF_GTOL
 70
0
 62
7
  6
CONTINUOUS
370
-3
390
F
  0
LAYER
  5
209
100
AcDbSymbolTableRecord
100
AcDbLayerTableRecord
  2
16_MISC
 70
0
 62
7
  6
CONTINUOUS
370
-3
390
F
  0
LAYER
  5
20A
100
AcDbSymbolTableRecord
100
AcDbLayerTableRecord
  2
17_NO_PRINT
 70
0
 62
7
  6
CONTINUOUS
370
-3
390
F
  0
LAYER
  5
20B
100
AcDbSymbolTableRecord
100
AcDbLayerTableRecord
  2
18_DATUM_CAMS_JOINTS
 70
0
 62
7
  6
CONTINUOUS
370
-3
390
F
  0
LAYER
  5
20C
100
AcDbSymbolTableRecord
100
AcDbLayerTableRecord
  2
19_DATUM_FUNCTIONAL
 70
0
 62
7
  6
CONTINUOUS
370
-3
390
F
  0
LAYER
  5
20D
100
AcDbSymbolTableRecord
100
AcDbLayerTableRecord
  2
20_DATUM_KINEMATIC_SCHEME
 70
0
 62
7
  6
CONTINUOUS
370
-3
390
F
  0
ENDTAB
  0
TABLE
  2
STYLE
  5
3
100
AcDbSymbolTable
 70
1
  0
STYLE
  5
11
100
AcDbSymbolTableRecord
100
AcDbTextStyleTableRecord
  2
STANDARD
 70
0
 40
0.0
 41
0.8
 50
0.0
 71
0
 42
0.2
  3
txt
  4

  0
STYLE
  5
20E
100
AcDbSymbolTableRecord
100
AcDbTextStyleTableRecord
  2
TEXTSTYLE_1
 70
0
 40
0.0
 41
0.8
 50
0.0
 71
0
 42
0.2
  3
gdt
  4

  0
ENDTAB
  0
TABLE
  2
VIEW
  5
6
100
AcDbSymbolTable
 70
0
  0
ENDTAB
  0
TABLE
  2
UCS
  5
7
100
AcDbSymbolTable
 70
0
  0
ENDTAB
  0
TABLE
  2
APPID
  5
9
100
AcDbSymbolTable
 70
1
  0
APPID
  5
20F
100
AcDbSymbolTableRecord
100
AcDbRegAppTableRecord
  2
ACAD
 70
0
  0
ENDTAB
  0
TABLE
  2
BLOCK_RECORD
  5
1
100
AcDbSymbolTable
 70
0
  0
BLOCK_RECORD
  5
210
100
AcDbSymbolTableRecord
100
AcDbBlockTableRecord
  2
*Model_Space
  0
BLOCK_RECORD
  5
211
100
AcDbSymbolTableRecord
100
AcDbBlockTableRecord
  2
*Paper_Space
  0
BLOCK_RECORD
  5
212
100
AcDbSymbolTableRecord
100
AcDbBlockTableRecord
  2
_FILLED
  0
ENDTAB
  0
TABLE
  2
DIMSTYLE
  5
A
100
AcDbSymbolTable
 70
1
100
AcDbDimStyleTable
 71
0
  0
DIMSTYLE
105
213
100
AcDbSymbolTableRecord
100
AcDbDimStyleTableRecord
  2
STANDARD
 70
0
  3

  4

 40
1.0
 41
2.4293341664
 42
1.0
 43
0.38
 44
1.0
 45
0.0
 46
0.0
 47
0.01
 48
0.01
140
3.4010678329
141
0.09
142
0.0
143
25.4
144
1.0
145
0.0
146
1.0
147
0.625
 71
1
 72
0
 73
0
 74
0
 75
0
 76
0
 77
1
 78
8
 79
2
170
0
171
1
172
0
173
0
174
0
175
0
176
0
177
0
178
0
270
2
179
2
271
2
272
2
273
2
274
2
275
0
280
0
281
0
282
0
283
1
284
8
285
0
286
0
287
3
288
0
340
11
278
46
341
212
342
212
343
212
344
212
  0
ENDTAB
  0
ENDSEC
  0
SECTION
  2
BLOCKS
  0
BLOCK
  5
20
100
AcDbEntity
  8
0
100
AcDbBlockBegin
  2
*Model_Space
 70
0
 10
0.0
 20
0.0
 30
0.0
  3
*Model_Space
  1

  0
ENDBLK
  5
21
100
AcDbEntity
  8
0
100
AcDbBlockEnd
  0
BLOCK
  5
1C
100
AcDbEntity
  8
0
100
AcDbBlockBegin
  2
*Paper_Space
 70
0
 10
0.0
 20
0.0
 30
0.0
  3
*Paper_Space
  1

  0
ENDBLK
  5
1D
100
AcDbEntity
  8
0
100
AcDbBlockEnd
  0
BLOCK
  5
214
100
AcDbEntity
  8
0
100
AcDbBlockBegin
  2
_FILLED
 70
64
 10
0.0
 20
0.0
  3
_FILLED
  1

  0
SOLID
  5
215
100
AcDbEntity
  8
0
  6
BYBLOCK
 62
0
100
AcDbTrace
 10
0.0
 20
0.0
 11
-1.0
 21
0.25
 12
-1.0
 22
-0.25
 13
-1.0
 23
-0.25
  0
ENDBLK
  5
216
100
AcDbEntity
  8
0
  6
BYBLOCK
 62
0
100
AcDbBlockEnd
  0
ENDSEC
  0
SECTION
  2
ENTITIES
  0
LINE
  5
217
100
AcDbEntity
  8
0
100
AcDbLine
 62
7
  6
CONTINUOUS
 10
29.9427057871
 20
85.9450886772
 11
52.9237718544
 21
72.6772641553
  0
LINE
  5
218
100
AcDbEntity
  8
0
100
AcDbLine
 62
7
  6
CONTINUOUS
 10
59.1937555569
 20
76.2972193255
 11
102.3276264238
 21
51.3944307457
  0
LINE
  5
219
100
AcDbEntity
  8
0
100
AcDbLine
 62
7
  6
CONTINUOUS
 10
103.7979063686
 20
234.7305076825
 11
109.3133162989
 21
237.9148120827
  0
LINE
  5
21A
100
AcDbEntity
  8
0
100
AcDbLine
 62
7
  6
CONTINUOUS
 10
39.45164854
 20
91.6808099741
 11
90.7171036132
 21
62.0833552714
  0
LINE
  5
21B
100
AcDbEntity
  8
0
100
AcDbLine
 62
7
  6
CONTINUOUS
 10
23.6737800386
 20
179.7037961313
 11
103.7979063686
 21
225.9632059051
  0
LINE
  5
21C
100
AcDbEntity
  8
0
100
AcDbLine
 62
7
  6
CONTINUOUS
 10
32.0854853955
 20
183.529818435
 11
112.2831287964
 21
229.8316730561
  0
LINE
  5
21D
100
AcDbEntity
  8
0
100
AcDbLine
 62
7
  6
CONTINUOUS
 10
32.117335195
 20
178.6494562452
 11
28.8087052889
 21
176.7392292808
  0
LINE
  5
21E
100
AcDbEntity
  8
0
100
AcDbLine
 62
7
  6
CONTINUOUS
 10
39.45164854
 20
104.0562268435
 11
27.1881610808
 21
111.1363944545
  0
LINE
  5
21F
100
AcDbEntity
  8
0
100
AcDbLine
 62
7
  6
CONTINUOUS
 10
39.45164854
 20
91.6808099741
 11
39.45164854
 21
171.0445301574
  0
LINE
  5
220
100
AcDbEntity
  8
0
100
AcDbLine
 62
7
  6
CONTINUOUS
 10
133.3546304116
 20
61.1434261585
 11
126.2839976285
 21
65.2255655488
  0
LINE
  5
221
100
AcDbEntity
  8
0
100
AcDbLine
 62
7
  6
CONTINUOUS
 10
39.45164854
 20
171.0445301574
 11
46.5813270029
 21
175.1608273662
  0
LINE
  5
222
100
AcDbEntity
  8
0
100
AcDbLine
 62
7
  6
CONTINUOUS
 10
47.5772945859
 20
115.2576061795
 11
82.9522075109
 21
94.8347032326
  0
LINE
  5
223
100
AcDbEntity
  8
0
100
AcDbLine
 62
7
  6
CONTINUOUS
 10
90.7171036132
 20
141.4470754547
 11
90.7171036132
 21
62.0833552714
  0
LINE
  5
224
100
AcDbEntity
  8
0
100
AcDbLine
 62
7
  6
CONTINUOUS
 10
169.9128433028
 20
90.4145409854
 11
172.0339274999
 21
89.189960157
  0
LINE
  5
225
100
AcDbEntity
  8
0
100
AcDbLine
 62
7
  6
CONTINUOUS
 10
175.5692928106
 20
87.1488622189
 11
178.0444275091
 21
85.7198748625
  0
LINE
  5
226
100
AcDbEntity
  8
0
100
AcDbLine
 62
7
  6
CONTINUOUS
 10
46.5097490266
 20
165.5786648598
 11
81.79515928
 21
145.2070930943
  0
LINE
  5
227
100
AcDbEntity
  8
0
100
AcDbLine
 62
7
  6
CONTINUOUS
 10
28.8087052889
 20
176.7392292808
 11
23.6737800386
 21
179.7037961313
  0
LINE
  5
228
100
AcDbEntity
  8
0
100
AcDbLine
 62
7
  6
CONTINUOUS
 10
86.3052207752
 20
143.8381791211
 11
44.2195236624
 21
168.1358179922
  0
LINE
  5
229
100
AcDbEntity
  8
0
100
AcDbLine
 62
7
  6
CONTINUOUS
 10
39.45164854
 20
171.0445301574
 11
90.7171036132
 21
141.4470754547
  0
LINE
  5
22A
100
AcDbEntity
  8
0
100
AcDbLine
 62
7
  6
CONTINUOUS
 10
103.7979063686
 20
234.7305076825
 11
103.7979063686
 21
225.9632059051
  0
LINE
  5
22B
100
AcDbEntity
  8
0
100
AcDbLine
 62
7
  6
CONTINUOUS
 10
90.7171036132
 20
141.4470754547
 11
183.5598374394
 21
195.049532858
  0
LINE
  5
22C
100
AcDbEntity
  8
0
100
AcDbLine
 62
7
  6
CONTINUOUS
 10
46.5813303752
 20
175.1608293132
 11
32.0854867357
 21
183.5298192087
  0
LINE
  5
22D
100
AcDbEntity
  8
0
100
AcDbLine
 62
7
  6
CONTINUOUS
 10
133.3546304116
 20
69.307772922
 11
133.3546304116
 21
61.1434261585
  0
LINE
  5
22E
100
AcDbEntity
  8
0
100
AcDbLine
 62
7
  6
CONTINUOUS
 10
141.1331336456
 20
65.6343202876
 11
141.1331336456
 21
73.798667051
  0
LINE
  5
22F
100
AcDbEntity
  8
0
100
AcDbLine
 62
7
  6
CONTINUOUS
 10
52.9237718544
 20
72.6772641553
 11
59.1937555569
 21
76.2972193255
  0
LINE
  5
230
100
AcDbEntity
  8
0
100
AcDbLine
 62
7
  6
CONTINUOUS
 10
169.9128433028
 20
91.5154402795
 11
169.9128433028
 21
90.4145409854
  0
LINE
  5
231
100
AcDbEntity
  8
0
100
AcDbLine
 62
7
  6
CONTINUOUS
 10
90.7171036132
 20
62.0830405097
 11
108.8189618458
 21
72.5340908488
  0
LINE
  5
232
100
AcDbEntity
  8
0
100
AcDbLine
 62
7
  6
CONTINUOUS
 10
172.0339274999
 20
89.189960157
 11
172.033522553
 21
92.739807707
  0
LINE
  5
233
100
AcDbEntity
  8
0
100
AcDbLine
 62
7
  6
CONTINUOUS
 10
178.0444275091
 20
85.7198748625
 11
178.0444275091
 21
96.2101845861
  0
LINE
  5
234
100
AcDbEntity
  8
0
100
AcDbLine
 62
7
  6
CONTINUOUS
 10
175.5699667619
 20
92.693596373
 11
175.5692928106
 21
87.1488622189
  0
LINE
  5
235
100
AcDbEntity
  8
0
100
AcDbLine
 62
7
  6
CONTINUOUS
 10
103.7979063686
 20
225.9632059051
 11
104.6903167188
 21
225.4479871262
  0
LINE
  5
236
100
AcDbEntity
  8
0
100
AcDbLine
 62
7
  6
CONTINUOUS
 10
183.5598374394
 20
195.049532858
 11
183.5598374394
 21
88.9041792627
  0
LINE
  5
237
100
AcDbEntity
  8
0
100
AcDbLine
 62
7
  6
CONTINUOUS
 10
101.4082084588
 20
56.9874756204
 11
104.517341026
 21
58.78252343
  0
LINE
  5
238
100
AcDbEntity
  8
0
100
AcDbLine
 62
7
  6
CONTINUOUS
 10
109.0843556926
 20
56.3963062163
 11
178.0444275091
 21
96.2101845861
  0
LINE
  5
239
100
AcDbEntity
  8
0
100
AcDbLine
 62
7
  6
CONTINUOUS
 10
102.3276264238
 20
51.3944307457
 11
169.9128433028
 21
90.4145409854
  0
LINE
  5
23A
100
AcDbEntity
  8
0
100
AcDbLine
 62
7
  6
CONTINUOUS
 10
172.0339274999
 20
89.189960157
 11
175.5697890322
 21
91.2313785789
  0
LINE
  5
23B
100
AcDbEntity
  8
0
100
AcDbLine
 62
7
  6
CONTINUOUS
 10
112.2831287964
 20
229.8316730561
 11
103.7979063686
 21
234.7305076825
  0
LINE
  5
23C
100
AcDbEntity
  8
0
100
AcDbLine
 62
7
  6
CONTINUOUS
 10
133.3546304116
 20
61.1434261585
 11
141.1331336456
 21
65.6343202876
  0
LINE
  5
23D
100
AcDbEntity
  8
0
100
AcDbLine
 62
7
  6
CONTINUOUS
 10
178.0444275091
 20
85.7198748625
 11
183.5598374394
 21
88.9041792627
  0
LINE
  5
23E
100
AcDbEntity
  8
0
100
AcDbLine
 62
7
  6
CONTINUOUS
 10
109.3133162989
 20
237.9148120827
 11
183.5598374394
 21
195.049532858
  0
ARC
  5
23F
100
AcDbEntity
  8
0
100
AcDbCircle
 62
7
  6
CONTINUOUS
 10
984.0092180409
 20
187.1843697545
 40
951.9307477537
100
AcDbArc
 50
180.2199644055
 51
180.5137311411
  0
ARC
  5
240
100
AcDbEntity
  8
0
100
AcDbCircle
 62
7
  6
CONTINUOUS
 10
869.5199800681
 20
190.5828040009
 40
846.0727220264
100
AcDbArc
 50
185.388121586
 51
187.1042227209
  0
ARC
  5
241
100
AcDbEntity
  8
0
100
AcDbCircle
 62
7
  6
CONTINUOUS
 10
869.0102480096
 20
174.586010844
 40
822.4247863574
100
AcDbArc
 50
186.2742355757
 51
187.117960856
  0
ARC
  5
242
100
AcDbEntity
  8
0
100
AcDbCircle
 62
7
  6
CONTINUOUS
 10
233.3009512409
 20
66.1441778897
 40
124.645885096
100
AcDbArc
 50
177.0614706193
 51
179.9674220962
  0
ARC
  5
243
100
AcDbEntity
  8
0
100
AcDbCircle
 62
7
  6
CONTINUOUS
 10
191.136398233
 20
68.8654367217
 40
90.5109606627
100
AcDbArc
 50
187.5408077321
 51
191.1294550769
  0
ARC
  5
244
100
AcDbEntity
  8
0
100
AcDbCircle
 62
7
  6
CONTINUOUS
 10
145.6776935043
 20
93.3686989801
 40
88.1527477761
100
AcDbArc
 50
188.2892208955
 51
191.1663349174
  0
ARC
  5
245
100
AcDbEntity
  8
0
100
AcDbCircle
 62
7
  6
CONTINUOUS
 10
173.3587951644
 20
92.8564805818
 40
2.2171628489
100
AcDbArc
 50
355.7869612402
 51
0.0447680963
  0
SPLINE
  5
246
100
AcDbEntity
  8
0
100
AcDbSpline
 62
7
  6
CONTINUOUS
 70
0
 71
3
 72
9
 73
5
 74
0
 42
0.0000001
 43
0.0000001
 44
0.0000000001
 40
0.0
 40
0.0
 40
0.0
 40
0.0
 40
0.5254042058
 40
1.0
 40
1.0
 40
1.0
 40
1.0
 10
175.1087872738
 20
94.5119099769
 30
0.0
 10
175.2539722222
 20
94.2457529847
 30
0.0
 10
175.4788878102
 20
93.7094204619
 30
0.0
 10
175.5759573366
 20
93.1320745552
 30
0.0
 10
175.5759573366
 20
92.8582129633
 30
0.0
  0
SPLINE
  5
247
100
AcDbEntity
  8
0
100
AcDbSpline
 62
7
  6
CONTINUOUS
 70
0
 71
3
 72
11
 73
7
 74
0
 42
0.0000001
 43
0.0000001
 44
0.0000000001
 40
0.0
 40
0.0
 40
0.0
 40
0.0
 40
0.2088196339
 40
0.4396126229
 40
0.7023167582
 40
1.0
 40
1.0
 40
1.0
 40
1.0
 10
102.1300102886
 20
59.0843778859
 30
0.0
 10
102.2681762336
 20
59.1640969525
 30
0.0
 10
102.5923165252
 20
59.2777627197
 30
0.0
 10
103.1351170894
 20
59.2902618771
 30
0.0
 10
103.7293696806
 20
59.1576307363
 30
0.0
 10
104.1245161582
 20
58.9872214889
 30
0.0
 10
104.3265165301
 20
58.8827942246
 30
0.0
  0
SPLINE
  5
248
100
AcDbEntity
  8
0
100
AcDbSpline
 62
7
  6
CONTINUOUS
 70
0
 71
3
 72
13
 73
9
 74
0
 42
0.0000001
 43
0.0000001
 44
0.0000000001
 40
0.0
 40
0.0
 40
0.0
 40
0.0
 40
0.0879350574
 40
0.1843825565
 40
0.2944170119
 40
0.4190857119
 40
0.7018960572
 40
1.0
 40
1.0
 40
1.0
 40
1.0
 10
106.790621664
 20
230.3635287488
 30
0.0
 10
106.8890288867
 20
230.4203462524
 30
0.0
 10
107.1228079826
 20
230.4959626506
 30
0.0
 10
107.5090452369
 20
230.4717401723
 30
0.0
 10
107.9157231428
 20
230.3251963882
 30
0.0
 10
108.4846374096
 20
229.9663402987
 30
0.0
 10
109.1138866635
 20
229.2863658193
 30
0.0
 10
109.4709007374
 20
228.615234957
 30
0.0
 10
109.6023450799
 20
228.2531370756
 30
0.0
  0
SPLINE
  5
249
100
AcDbEntity
  8
0
100
AcDbSpline
 62
7
  6
CONTINUOUS
 70
0
 71
3
 72
11
 73
7
 74
0
 42
0.0000001
 43
0.0000001
 44
0.0000000001
 40
0.0
 40
0.0
 40
0.0
 40
0.0
 40
0.2908576265
 40
0.5504618709
 40
0.7830386064
 40
1.0
 40
1.0
 40
1.0
 40
1.0
 10
32.1167170556
 20
178.6505269005
 30
0.0
 10
32.1187882121
 20
178.4119290275
 30
0.0
 10
32.0870414122
 20
177.958527565
 30
0.0
 10
31.9097752974
 20
177.3350952515
 30
0.0
 10
31.6056911611
 20
176.8295957439
 30
0.0
 10
31.3175213141
 20
176.5860696138
 30
0.0
 10
31.1633780992
 20
176.4970822378
 30
0.0
  0
SPLINE
  5
24A
100
AcDbEntity
  8
0
100
AcDbSpline
 62
7
  6
CONTINUOUS
 70
0
 71
3
 72
9
 73
5
 74
0
 42
0.0000001
 43
0.0000001
 44
0.0000000001
 40
0.0
 40
0.0
 40
0.0
 40
0.0
 40
0.4944027671
 40
1.0
 40
1.0
 40
1.0
 40
1.0
 10
27.1856697045
 20
111.1349560663
 30
0.0
 10
26.1574891691
 20
122.4053298162
 30
0.0
 10
24.5427932225
 20
145.2458342199
 30
0.0
 10
23.8246263117
 20
168.1313548678
 30
0.0
 10
23.6737800386
 20
179.7037961313
 30
0.0
  0
SPLINE
  5
24B
100
AcDbEntity
  8
0
100
AcDbSpline
 62
7
  6
CONTINUOUS
 70
0
 71
3
 72
11
 73
7
 74
0
 42
0.0000001
 43
0.0000001
 44
0.0000000001
 40
0.0
 40
0.0
 40
0.0
 40
0.0
 40
0.249541068
 40
0.4372541721
 40
0.6254127959
 40
1.0
 40
1.0
 40
1.0
 40
1.0
 10
104.3265128996
 20
58.8828198178
 30
0.0
 10
104.7222603178
 20
58.6759639437
 30
0.0
 10
105.4132612876
 20
58.3088521502
 30
0.0
 10
106.406165742
 20
57.7924373136
 30
0.0
 10
107.6015293946
 20
57.1803845779
 30
0.0
 10
108.4902569895
 20
56.706740995
 30
0.0
 10
109.0843556926
 20
56.3963062163
 30
0.0
  0
SPLINE
  5
24C
100
AcDbEntity
  8
0
100
AcDbSpline
 62
7
  6
CONTINUOUS
 70
0
 71
3
 72
11
 73
7
 74
0
 42
0.0000001
 43
0.0000001
 44
0.0000000001
 40
0.0
 40
0.0
 40
0.0
 40
0.0
 40
0.216366996
 40
0.4489907643
 40
0.7089032739
 40
1.0
 40
1.0
 40
1.0
 40
1.0
 10
31.1633780992
 20
176.4970822378
 30
0.0
 10
31.0089418793
 20
176.407925709
 30
0.0
 10
30.6527697206
 20
176.2798216284
 30
0.0
 10
30.0606306291
 20
176.2677118547
 30
0.0
 10
29.4279108342
 20
176.4230413175
 30
0.0
 10
29.0154741543
 20
176.6199238876
 30
0.0
 10
28.8076672969
 20
176.7398202736
 30
0.0
  0
SPLINE
  5
24D
100
AcDbEntity
  8
0
100
AcDbSpline
 62
7
  6
CONTINUOUS
 70
0
 71
3
 72
9
 73
5
 74
0
 42
0.0000001
 43
0.0000001
 44
0.0000000001
 40
0.0
 40
0.0
 40
0.0
 40
0.0
 40
0.2548423739
 40
1.0
 40
1.0
 40
1.0
 40
1.0
 10
108.6550862936
 20
66.2150504997
 30
0.0
 10
108.6550862936
 20
65.3800211707
 30
0.0
 10
108.6897746381
 20
62.103511716
 30
0.0
 10
108.8656576804
 20
58.8281129353
 30
0.0
 10
109.0843556926
 20
56.3963062163
 30
0.0
  0
SPLINE
  5
24E
100
AcDbEntity
  8
0
100
AcDbSpline
 62
7
  6
CONTINUOUS
 70
0
 71
3
 72
44
 73
40
 74
0
 42
0.0000001
 43
0.0000001
 44
0.0000000001
 40
0.0
 40
0.0
 40
0.0
 40
0.0
 40
0.1261669586
 40
0.2522700389
 40
0.3782844657
 40
0.5041694242
 40
0.5670424349
 40
0.6298509119
 40
0.6925727336
 40
0.7551724895
 40
0.7864089065
 40
0.8175878957
 40
0.848691399
 40
0.8642065692
 40
0.879690909
 40
0.8951374886
 40
0.9105365914
 40
0.9258738544
 40
0.9335127159
 40
0.9411265741
 40
0.9487098612
 40
0.9562547089
 40
0.9637493592
 40
0.9711748583
 40
0.974852107
 40
0.9784971961
 40
0.9820996052
 40
0.9856417514
 40
0.9873810854
 40
0.9890907158
 40
0.9907596192
 40
0.9923688572
 40
0.993142115
 40
0.9938875753
 40
0.9946063066
 40
0.9953520495
 40
0.9963314405
 40
0.9975372594
 40
1.0
 40
1.0
 40
1.0
 40
1.0
 10
86.3052207752
 20
143.8381791211
 30
0.0
 10
86.2070534981
 20
141.7545430704
 30
0.0
 10
86.0094189152
 20
137.5883893092
 30
0.0
 10
85.7076705355
 20
131.3414077901
 30
0.0
 10
85.3986984491
 20
125.0994469037
 30
0.0
 10
85.1324907169
 20
119.9020509398
 30
0.0
 10
84.911348324
 20
115.7487268348
 30
0.0
 10
84.7402489078
 20
112.6385121686
 30
0.0
 10
84.562085631
 20
109.5332183285
 30
0.0
 10
84.4053507889
 20
106.9495506182
 30
0.0
 10
84.2725366327
 20
104.8869151728
 30
0.0
 10
84.1682816755
 20
103.3442614496
 30
0.0
 10
84.0762345579
 20
102.0613067616
 30
0.0
 10
83.9983528311
 20
101.0374997905
 30
0.0
 10
83.9374516819
 20
100.2720128877
 30
0.0
 10
83.8734635158
 20
99.5087024138
 30
0.0
 10
83.8056123846
 20
98.7481657314
 30
0.0
 10
83.7448459691
 20
98.1166078371
 30
0.0
 10
83.6927965649
 20
97.6135399401
 30
0.0
 10
83.6517701103
 20
97.2382200587
 30
0.0
 10
83.6082649215
 20
96.8647431045
 30
0.0
 10
83.5616665449
 20
96.4936225859
 30
0.0
 10
83.511062425
 20
96.1256575951
 30
0.0
 10
83.4642519026
 20
95.8217422307
 30
0.0
 10
83.4226820289
 20
95.5814753601
 30
0.0
 10
83.3890387883
 20
95.404003435
 30
0.0
 10
83.3520299144
 20
95.2294822888
 30
0.0
 10
83.3171391284
 20
95.086759379
 30
0.0
 10
83.2854457004
 20
94.9755891996
 30
0.0
 10
83.259435595
 20
94.895041456
 30
0.0
 10
83.2301694315
 20
94.8179108784
 30
0.0
 10
83.201488934
 20
94.75720162
 30
0.0
 10
83.1740284925
 20
94.7132611695
 30
0.0
 10
83.1505034297
 20
94.6845867301
 30
0.0
 10
83.1216703732
 20
94.6612088776
 30
0.0
 10
83.0791221646
 20
94.6530798787
 30
0.0
 10
83.0353740321
 20
94.6811584267
 30
0.0
 10
82.9896720815
 20
94.7429073735
 30
0.0
 10
82.9645579799
 20
94.7988265126
 30
0.0
 10
82.9491021173
 20
94.8364960611
 30
0.0
  0
SPLINE
  5
24F
100
AcDbEntity
  8
0
100
AcDbSpline
 62
7
  6
CONTINUOUS
 70
0
 71
3
 72
11
 73
7
 74
0
 42
0.0000001
 43
0.0000001
 44
0.0000000001
 40
0.0
 40
0.0
 40
0.0
 40
0.0
 40
0.2895453772
 40
0.5491366158
 40
0.7822776227
 40
1.0
 40
1.0
 40
1.0
 40
1.0
 10
106.2727904067
 20
229.219152956
 30
0.0
 10
106.2727904067
 20
229.3457525215
 30
0.0
 10
106.2921214014
 20
229.58665258
 30
0.0
 10
106.3895068508
 20
229.9176958365
 30
0.0
 10
106.5537946746
 20
230.1863778922
 30
0.0
 10
106.7081802695
 20
230.3159294559
 30
0.0
 10
106.790621664
 20
230.3635287488
 30
0.0
  0
SPLINE
  5
250
100
AcDbEntity
  8
0
100
AcDbSpline
 62
7
  6
CONTINUOUS
 70
0
 71
3
 72
10
 73
6
 74
0
 42
0.0000001
 43
0.0000001
 44
0.0000000001
 40
0.0
 40
0.0
 40
0.0
 40
0.0
 40
0.5207513672
 40
0.7714636056
 40
1.0
 40
1.0
 40
1.0
 40
1.0
 10
107.2140695812
 20
226.8713698226
 30
0.0
 10
106.9267873669
 20
227.2126451402
 30
0.0
 10
106.5800153367
 20
227.7925656125
 30
0.0
 10
106.3231548741
 20
228.6121879514
 30
0.0
 10
106.2727904067
 20
229.0233805871
 30
0.0
 10
106.2727904067
 20
229.219152956
 30
0.0
  0
SPLINE
  5
251
100
AcDbEntity
  8
0
100
AcDbSpline
 62
7
  6
CONTINUOUS
 70
0
 71
3
 72
11
 73
7
 74
0
 42
0.0000001
 43
0.0000001
 44
0.0000000001
 40
0.0
 40
0.0
 40
0.0
 40
0.0
 40
0.2978471577
 40
0.5574628789
 40
0.7861128139
 40
1.0
 40
1.0
 40
1.0
 40
1.0
 10
101.4082091473
 20
56.9874704297
 30
0.0
 10
101.378558563
 20
57.2182485011
 30
0.0
 10
101.3572424914
 20
57.6563084518
 30
0.0
 10
101.4646943133
 20
58.2676770627
 30
0.0
 10
101.7180832504
 20
58.7655268911
 30
0.0
 10
101.9852860572
 20
59.0008748154
 30
0.0
 10
102.1300102886
 20
59.0843778859
 30
0.0
  0
SPLINE
  5
252
100
AcDbEntity
  8
0
100
AcDbSpline
 62
7
  6
CONTINUOUS
 70
0
 71
3
 72
40
 73
36
 74
0
 42
0.0000001
 43
0.0000001
 44
0.0000000001
 40
0.0
 40
0.0
 40
0.0
 40
0.0
 40
0.1240237261
 40
0.2481053844
 40
0.3722672126
 40
0.4343887321
 40
0.4965457013
 40
0.5587473164
 40
0.621006639
 40
0.6833431495
 40
0.7145493541
 40
0.7457878562
 40
0.7770661788
 40
0.8083948578
 40
0.8397893486
 40
0.8712738616
 40
0.8870617956
 40
0.9028901527
 40
0.918770696
 40
0.9347217843
 40
0.9507749967
 40
0.9669938368
 40
0.971089519
 40
0.9752093114
 40
0.9793602792
 40
0.9835536482
 40
0.985671919
 40
0.9878093927
 40
0.9899718698
 40
0.9921684037
 40
0.994413197
 40
0.9967114525
 40
0.9986430774
 40
0.9993285794
 40
1.0
 40
1.0
 40
1.0
 40
1.0
 10
44.2195236624
 20
168.1358179922
 30
0.0
 10
44.3178755971
 20
165.9405107975
 30
0.0
 10
44.5159412785
 20
161.5489296967
 30
0.0
 10
44.8183827531
 20
154.9598652783
 30
0.0
 10
45.0765340446
 20
149.4667366001
 30
0.0
 10
45.2884113483
 20
145.0698586826
 30
0.0
 10
45.4506985825
 20
141.7697059692
 30
0.0
 10
45.6171833939
 20
138.4673171315
 30
0.0
 10
45.7890889056
 20
135.1620200335
 30
0.0
 10
45.9382876495
 20
132.4054795718
 30
0.0
 10
46.0626640532
 20
130.1980490525
 30
0.0
 10
46.1590572385
 20
128.5402203553
 30
0.0
 10
46.2592313873
 20
126.8804413056
 30
0.0
 10
46.3641834859
 20
125.2181868717
 30
0.0
 10
46.4753784688
 20
123.5526756204
 30
0.0
 10
46.5750079912
 20
122.1623745567
 30
0.0
 10
46.6608489445
 20
121.0476231088
 30
0.0
 10
46.7292000532
 20
120.208828952
 30
0.0
 10
46.8025965575
 20
119.3675580726
 30
0.0
 10
46.8827955469
 20
118.52289687
 30
0.0
 10
46.9729165931
 20
117.6732104503
 30
0.0
 10
47.0517074598
 20
117.0335846664
 30
0.0
 10
47.1134835596
 20
116.6050698132
 30
0.0
 10
47.1471002395
 20
116.3885441312
 30
0.0
 10
47.1840236981
 20
116.1707982708
 30
0.0
 10
47.2184762113
 20
115.9886305525
 30
0.0
 10
47.249413302
 20
115.8421429938
 30
0.0
 10
47.2749197326
 20
115.7313350981
 30
0.0
 10
47.303568143
 20
115.6197390669
 30
0.0
 10
47.3362487681
 20
115.507723481
 30
0.0
 10
47.377415151
 20
115.3940079277
 30
0.0
 10
47.4229416336
 20
115.29418561
 30
0.0
 10
47.4922940023
 20
115.2166104371
 30
0.0
 10
47.5531132233
 20
115.2316859484
 30
0.0
 10
47.571276701
 20
115.2478692477
 30
0.0
 10
47.5798198387
 20
115.2561482821
 30
0.0
  0
SPLINE
  5
253
100
AcDbEntity
  8
0
100
AcDbSpline
 62
7
  6
CONTINUOUS
 70
0
 71
3
 72
9
 73
5
 74
0
 42
0.0000001
 43
0.0000001
 44
0.0000000001
 40
0.0
 40
0.0
 40
0.0
 40
0.0
 40
0.5000019552
 40
1.0
 40
1.0
 40
1.0
 40
1.0
 10
47.5772945859
 20
115.2576061795
 30
0.0
 10
47.4000251514
 20
123.64449597
 30
0.0
 10
47.0422085437
 20
140.4181404306
 30
0.0
 10
46.6889938248
 20
157.1918826758
 30
0.0
 10
46.5097490266
 20
165.5786648598
 30
0.0
  0
SPLINE
  5
254
100
AcDbEntity
  8
0
100
AcDbSpline
 62
7
  6
CONTINUOUS
 70
0
 71
3
 72
9
 73
5
 74
0
 42
0.0000001
 43
0.0000001
 44
0.0000000001
 40
0.0
 40
0.0
 40
0.0
 40
0.0
 40
0.4730874294
 40
1.0
 40
1.0
 40
1.0
 40
1.0
 10
81.79515928
 20
145.2070930943
 30
0.0
 10
82.4333004266
 20
144.8170675219
 30
0.0
 10
83.910838966
 20
144.201741053
 30
0.0
 10
85.4756451491
 20
143.9134563383
 30
0.0
 10
86.3052207752
 20
143.8381791211
 30
0.0
  0
SPLINE
  5
255
100
AcDbEntity
  8
0
100
AcDbSpline
 62
7
  6
CONTINUOUS
 70
0
 71
3
 72
11
 73
7
 74
0
 42
0.0000001
 43
0.0000001
 44
0.0000000001
 40
0.0
 40
0.0
 40
0.0
 40
0.0
 40
0.2148271325
 40
0.4501823768
 40
0.7114848213
 40
1.0
 40
1.0
 40
1.0
 40
1.0
 10
44.2195236624
 20
168.1358179922
 30
0.0
 10
44.277055978
 20
167.8899832427
 30
0.0
 10
44.4771513784
 20
167.3916675035
 30
0.0
 10
44.9764383583
 20
166.7126169013
 30
0.0
 10
45.6659474482
 20
166.0917115718
 30
0.0
 10
46.2127131339
 20
165.7422025991
 30
0.0
 10
46.5097490266
 20
165.5786648598
 30
0.0
  0
SPLINE
  5
256
100
AcDbEntity
  8
0
100
AcDbSpline
 62
7
  6
CONTINUOUS
 70
0
 71
3
 72
9
 73
5
 74
0
 42
0.0000001
 43
0.0000001
 44
0.0000000001
 40
0.0
 40
0.0
 40
0.0
 40
0.0
 40
0.5000023608
 40
1.0
 40
1.0
 40
1.0
 40
1.0
 10
81.79515928
 20
145.2070930943
 30
0.0
 10
81.9863888186
 20
136.8116182542
 30
0.0
 10
82.3752792077
 20
120.0208950995
 30
0.0
 10
82.75857343
 20
103.2300436363
 30
0.0
 10
82.9522075109
 20
94.8347032326
 30
0.0
  0
ENDSEC
  0
SECTION
  2
OBJECTS
  0
DICTIONARY
  5
C
100
AcDbDictionary
280
0
281
1
  3
ACAD_GROUP
350
D
  3
ACAD_MLINESTYLE
350
17
  3
ACAD_LAYOUT
350
1A
  3
ACAD_PLOTSETTINGS
350
19
  3
ACAD_PLOTSTYLENAME
350
E
  0
DICTIONARY
  5
D
102
{ACAD_REACTORS
330
C
102
}
100
AcDbDictionary
280
0
281
1
  0
ACDBDICTIONARYWDFLT
  5
E
102
{ACAD_REACTORS
330
C
102
}
100
AcDbDictionary
281
1
  3
Normal
350
F
100
AcDbDictionaryWithDefault
340
F
  0
DICTIONARY
  5
17
102
{ACAD_REACTORS
330
C
102
}
100
AcDbDictionary
280
0
281
1
  3
Standard
350
18
  0
DICTIONARY
  5
19
102
{ACAD_REACTORS
330
C
102
}
100
AcDbDictionary
281
1
  0
DICTIONARY
  5
1A
102
{ACAD_REACTORS
330
C
102
}
100
AcDbDictionary
281
1
  3
Model
350
257
  3
Layout1
350
258
  0
ACDBPLACEHOLDER
  5
F
102
{ACAD_REACTORS
330
E
102
}
  0
MLINESTYLE
  5
18
102
{ACAD_REACTORS
330
17
102
}
100
AcDbMlineStyle
  2
STANDARD
 70
0
  3

 62
256
 51
90.0
 52
90.0
 71
2
 49
0.5
 62
256
  6
BYLAYER
 49
-0.5
 62
256
  6
BYLAYER
  0
LAYOUT
  5
257
102
{ACAD_REACTORS
330
1A
102
}
100
AcDbPlotSettings
  1

  2
none_device
  4

  6

 40
0.0
 41
0.0
 42
0.0
 43
0.0
 44
210.0
 45
297.0
 46
0.0
 47
0.0
 48
0.0
 49
0.0
140
0.0
141
0.0
142
1.0
143
1.0
 70
1024
 72
1
 73
0
 74
0
  7

 75
0
147
1.0
148
0.0
149
0.0
100
AcDbLayout
  1
Model
 70
0
 71
0
 10
0.0
 20
0.0
 11
210.0
 21
297.0
 12
0.0
 22
0.0
 32
0.0
 14
0.0
 24
0.0
 34
0.0
 15
0.0
 25
0.0
 35
0.0
146
0.0
 13
0.0
 23
0.0
 33
0.0
 16
1.0
 26
0.0
 36
0.0
 17
0.0
 27
1.0
 37
0.0
 76
0
330
210
345
0
346
0
  0
LAYOUT
  5
258
102
{ACAD_REACTORS
330
1A
102
}
100
AcDbPlotSettings
  1

  2
none_device
  4

  6

 40
0.0
 41
0.0
 42
0.0
 43
0.0
 44
210.0
 45
297.0
 46
0.0
 47
0.0
 48
0.0
 49
0.0
140
0.0
141
0.0
142
1.0
143
1.0
 70
0
 72
1
 73
0
 74
0
  7

 75
0
147
1.0
148
0.0
149
0.0
100
AcDbLayout
  1
Layout1
 70
0
 71
1
 10
0.0
 20
0.0
 11
210.0
 21
297.0
 12
0.0
 22
0.0
 32
0.0
 14
0.0
 24
0.0
 34
0.0
 15
0.0
 25
0.0
 35
0.0
146
0.0
 13
0.0
 23
0.0
 33
0.0
 16
1.0
 26
0.0
 36
0.0
 17
0.0
 27
1.0
 37
0.0
 76
0
330
211
345
0
346
0
  0
ENDSEC
  0
EOF
