999
DXF file: C:\Users\sesa63760\Dev\_Creo\CAD\MCADUE0001379_3D-CAD\drw0001_6.dxf
999
Pro/ENGINEER 2019471 by Parametric Technology Corporation
  0
SECTION
  2
HEADER
  9
$ACADVER
  1
AC1024
  9
$DWGCODEPAGE
  3
ANSI_1252
  9
$EXTMAX
 10
304.0849847448
 20
430.0630498534
 30
0.0
  9
$EXTMIN
 10
0.0
 20
0.0
 30
0.0
  9
$LIMMIN
 10
0.0
 20
0.0
  9
$LIMMAX
 10
304.0849847448
 20
430.0630498534
  9
$VIEWCTR
 10
152.0424923724
 20
215.0315249267
  9
$VIEWSIZE
 40
430.0630498534
  9
$CLAYER
  8
0
  9
$LTSCALE
 40
28.033739546
  9
$CELTYPE
  6
BYLAYER
  9
$DIMSCALE
 40
1.0
  9
$DIMASZ
 40
3.6200593422
  9
$DIMEXO
 40
1.0
  9
$DIMDLI
 40
19.3687655045
  9
$DIMEXE
 40
1.0
  9
$DIMCEN
 40
4.5873391984
  9
$DIMLFAC
 40
1.0
  9
$DIMBLK
  1
_FILLED
  9
$DIMALT
 70
0
  9
$DIMALTF
 40
0.0393700787
  9
$DIMTXT
 40
5.0680830791
  9
$DIMTOL
 70
1
  9
$DIMLIM
 70
0
  9
$DIMTFAC
 40
1.0
  9
$DIMTP
 40
0.01
  9
$DIMTM
 40
0.01
  9
$DIMGAP
 40
0.625
  9
$DIMDSEP
 70
46
  9
$AUNITS
 70
0
  9
$PDMODE
 70
3
  9
$PDSIZE
 40
0.3125
  9
$HANDSEED
  5
306
  9
$TILEMODE
 70
1
  9
$MEASUREMENT
 70
1
  9
$INSUNITS
 70
4
  0
ENDSEC
  0
SECTION
  2
CLASSES
  0
CLASS
  1
ACDBDICTIONARYWDFLT
  2
AcDbDictionaryWithDefault
  3
AutoCAD 2000
 90
0
 91
1
280
0
281
0
  0
CLASS
  1
ACDBPLACEHOLDER
  2
AcDbPlaceHolder
  3
AutoCAD 2000
 90
0
 91
1
280
0
281
0
  0
CLASS
  1
LAYOUT
  2
AcDbLayout
  3
AutoCAD 2000
 90
0
 91
0
280
0
281
0
  0
ENDSEC
  0
SECTION
  2
TABLES
  0
TABLE
  2
VPORT
  5
8
100
AcDbSymbolTable
 70
2
  0
VPORT
  5
1F4
100
AcDbSymbolTableRecord
100
AcDbViewportTableRecord
  2
*ACTIVE
 70
0
 10
0.0
 20
0.0
 11
1.0
 21
1.0
 12
152.0424923724
 22
215.0315249267
 13
0.0
 23
0.0
 14
1.0
 24
1.0
 15
0.0
 25
0.0
 16
0.0
 26
0.0
 36
1.0
 17
0.0
 27
0.0
 37
0.0
 40
430.0630498534
 41
0.7070707071
 42
50.0
 43
0.0
 44
0.0
 50
0.0
 51
0.0
 71
0
 72
100
 73
1
 74
1
 75
0
 76
0
 77
0
 78
0
  0
ENDTAB
  0
TABLE
  2
LTYPE
  5
5
100
AcDbSymbolTable
 70
6
  0
LTYPE
  5
14
100
AcDbSymbolTableRecord
100
AcDbLinetypeTableRecord
  2
BYBLOCK
 70
0
  3

 72
65
 73
0
 40
0.0
  0
LTYPE
  5
15
100
AcDbSymbolTableRecord
100
AcDbLinetypeTableRecord
  2
BYLAYER
 70
0
  3

 72
65
 73
0
 40
0.0
  0
LTYPE
  5
16
100
AcDbSymbolTableRecord
100
AcDbLinetypeTableRecord
  2
CONTINUOUS
 70
64
  3
Solid line
 72
65
 73
0
 40
0.0
  0
LTYPE
  5
1F5
100
AcDbSymbolTableRecord
100
AcDbLinetypeTableRecord
  2
CENTER
 70
64
  3
____ _ ____ _ ____ _ ____ _ ____ _ ____ _ ____
 72
65
 73
4
 40
0.6
 49
0.375
 74
0
 49
-0.075
 74
0
 49
0.075
 74
0
 49
-0.075
 74
0
  0
LTYPE
  5
1F6
100
AcDbSymbolTableRecord
100
AcDbLinetypeTableRecord
  2
HIDDEN
 70
64
  3
- - - - - - - - - - - - - - - - - - - -
 72
65
 73
2
 40
0.2
 49
0.1
 74
0
 49
-0.1
 74
0
  0
LTYPE
  5
1F7
100
AcDbSymbolTableRecord
100
AcDbLinetypeTableRecord
  2
PHANTOM
 70
64
  3
_____ _ _ _____ _ _ _____ _ _ _____
 72
65
 73
6
 40
0.8
 49
0.45
 74
0
 49
-0.05
 74
0
 49
0.1
 74
0
 49
-0.05
 74
0
 49
0.1
 74
0
 49
-0.05
 74
0
  0
LTYPE
  5
1F8
100
AcDbSymbolTableRecord
100
AcDbLinetypeTableRecord
  2
DOT
 70
64
  3
. . . . . . . . . . . . . . . . . . . .
 72
65
 73
2
 40
0.2
 49
0.1
 74
0
 49
-0.1
 74
0
  0
LTYPE
  5
1F9
100
AcDbSymbolTableRecord
100
AcDbLinetypeTableRecord
  2
DASHED
 70
64
  3
- - - - - - - - - - - - - - - - - - - -
 72
65
 73
2
 40
0.2
 49
0.1
 74
0
 49
-0.1
 74
0
  0
ENDTAB
  0
TABLE
  2
LAYER
  5
2
100
AcDbSymbolTable
 70
36
  0
LAYER
  5
10
100
AcDbSymbolTableRecord
100
AcDbLayerTableRecord
  2
0
 70
0
 62
7
  6
CONTINUOUS
370
-3
390
F
  0
LAYER
  5
1FA
100
AcDbSymbolTableRecord
100
AcDbLayerTableRecord
  2
DEFAULT_1
 70
0
 62
7
  6
CENTER
370
-3
390
F
  0
LAYER
  5
1FB
100
AcDbSymbolTableRecord
100
AcDbLayerTableRecord
  2
DEFAULT_2
 70
0
 62
8
  6
HIDDEN
370
-3
390
F
  0
LAYER
  5
1FC
100
AcDbSymbolTableRecord
100
AcDbLayerTableRecord
  2
DEFAULT_3
 70
0
 62
7
  6
PHANTOM
370
-3
390
F
  0
LAYER
  5
1FD
100
AcDbSymbolTableRecord
100
AcDbLayerTableRecord
  2
00_COMPONENTS
 70
0
 62
7
  6
CONTINUOUS
370
-3
390
F
  0
LAYER
  5
1FE
100
AcDbSymbolTableRecord
100
AcDbLayerTableRecord
  2
01_1_DEFAULT_DATUMS
 70
0
 62
7
  6
CONTINUOUS
370
-3
390
F
  0
LAYER
  5
1FF
100
AcDbSymbolTableRecord
100
AcDbLayerTableRecord
  2
01_PLANES
 70
0
 62
7
  6
CONTINUOUS
370
-3
390
F
  0
LAYER
  5
200
100
AcDbSymbolTableRecord
100
AcDbLayerTableRecord
  2
02_COORD_SYS
 70
0
 62
7
  6
CONTINUOUS
370
-3
390
F
  0
LAYER
  5
201
100
AcDbSymbolTableRecord
100
AcDbLayerTableRecord
  2
03_AXES
 70
0
 62
7
  6
CONTINUOUS
370
-3
390
F
  0
LAYER
  5
202
100
AcDbSymbolTableRecord
100
AcDbLayerTableRecord
  2
04_POINTS
 70
0
 62
7
  6
CONTINUOUS
370
-3
390
F
  0
LAYER
  5
203
100
AcDbSymbolTableRecord
100
AcDbLayerTableRecord
  2
05_CURVES
 70
0
 62
7
  6
CONTINUOUS
370
-3
390
F
  0
LAYER
  5
204
100
AcDbSymbolTableRecord
100
AcDbLayerTableRecord
  2
06_SURFS
 70
0
 62
7
  6
CONTINUOUS
370
-3
390
F
  0
LAYER
  5
205
100
AcDbSymbolTableRecord
100
AcDbLayerTableRecord
  2
07_COSMETICS
 70
0
 62
7
  6
CONTINUOUS
370
-3
390
F
  0
LAYER
  5
206
100
AcDbSymbolTableRecord
100
AcDbLayerTableRecord
  2
10_NOTES
 70
0
 62
7
  6
CONTINUOUS
370
-3
390
F
  0
LAYER
  5
207
100
AcDbSymbolTableRecord
100
AcDbLayerTableRecord
  2
11_NOTES_PUB
 70
0
 62
7
  6
CONTINUOUS
370
-3
390
F
  0
LAYER
  5
208
100
AcDbSymbolTableRecord
100
AcDbLayerTableRecord
  2
13_REF_GTOL
 70
0
 62
7
  6
CONTINUOUS
370
-3
390
F
  0
LAYER
  5
209
100
AcDbSymbolTableRecord
100
AcDbLayerTableRecord
  2
16_MISC
 70
0
 62
7
  6
CONTINUOUS
370
-3
390
F
  0
LAYER
  5
20A
100
AcDbSymbolTableRecord
100
AcDbLayerTableRecord
  2
17_NO_PRINT
 70
0
 62
7
  6
CONTINUOUS
370
-3
390
F
  0
LAYER
  5
20B
100
AcDbSymbolTableRecord
100
AcDbLayerTableRecord
  2
18_DATUM_CAMS_JOINTS
 70
0
 62
7
  6
CONTINUOUS
370
-3
390
F
  0
LAYER
  5
20C
100
AcDbSymbolTableRecord
100
AcDbLayerTableRecord
  2
19_DATUM_FUNCTIONAL
 70
0
 62
7
  6
CONTINUOUS
370
-3
390
F
  0
LAYER
  5
20D
100
AcDbSymbolTableRecord
100
AcDbLayerTableRecord
  2
20_DATUM_KINEMATIC_SCHEME
 70
0
 62
7
  6
CONTINUOUS
370
-3
390
F
  0
ENDTAB
  0
TABLE
  2
STYLE
  5
3
100
AcDbSymbolTable
 70
1
  0
STYLE
  5
11
100
AcDbSymbolTableRecord
100
AcDbTextStyleTableRecord
  2
STANDARD
 70
0
 40
0.0
 41
0.8
 50
0.0
 71
0
 42
0.2
  3
txt
  4

  0
STYLE
  5
20E
100
AcDbSymbolTableRecord
100
AcDbTextStyleTableRecord
  2
TEXTSTYLE_1
 70
0
 40
0.0
 41
0.8
 50
0.0
 71
0
 42
0.2
  3
gdt
  4

  0
ENDTAB
  0
TABLE
  2
VIEW
  5
6
100
AcDbSymbolTable
 70
0
  0
ENDTAB
  0
TABLE
  2
UCS
  5
7
100
AcDbSymbolTable
 70
0
  0
ENDTAB
  0
TABLE
  2
APPID
  5
9
100
AcDbSymbolTable
 70
1
  0
APPID
  5
20F
100
AcDbSymbolTableRecord
100
AcDbRegAppTableRecord
  2
ACAD
 70
0
  0
ENDTAB
  0
TABLE
  2
BLOCK_RECORD
  5
1
100
AcDbSymbolTable
 70
0
  0
BLOCK_RECORD
  5
210
100
AcDbSymbolTableRecord
100
AcDbBlockTableRecord
  2
*Model_Space
  0
BLOCK_RECORD
  5
211
100
AcDbSymbolTableRecord
100
AcDbBlockTableRecord
  2
*Paper_Space
  0
BLOCK_RECORD
  5
212
100
AcDbSymbolTableRecord
100
AcDbBlockTableRecord
  2
_FILLED
  0
ENDTAB
  0
TABLE
  2
DIMSTYLE
  5
A
100
AcDbSymbolTable
 70
1
100
AcDbDimStyleTable
 71
0
  0
DIMSTYLE
105
213
100
AcDbSymbolTableRecord
100
AcDbDimStyleTableRecord
  2
STANDARD
 70
0
  3

  4

 40
1.0
 41
3.6200593422
 42
1.0
 43
0.38
 44
1.0
 45
0.0
 46
0.0
 47
0.01
 48
0.01
140
5.0680830791
141
0.09
142
0.0
143
25.4
144
1.0
145
0.0
146
1.0
147
0.625
 71
1
 72
0
 73
0
 74
0
 75
0
 76
0
 77
1
 78
8
 79
2
170
0
171
1
172
0
173
0
174
0
175
0
176
0
177
0
178
0
270
2
179
2
271
2
272
2
273
2
274
2
275
0
280
0
281
0
282
0
283
1
284
8
285
0
286
0
287
3
288
0
340
11
278
46
341
212
342
212
343
212
344
212
  0
ENDTAB
  0
ENDSEC
  0
SECTION
  2
BLOCKS
  0
BLOCK
  5
20
100
AcDbEntity
  8
0
100
AcDbBlockBegin
  2
*Model_Space
 70
0
 10
0.0
 20
0.0
 30
0.0
  3
*Model_Space
  1

  0
ENDBLK
  5
21
100
AcDbEntity
  8
0
100
AcDbBlockEnd
  0
BLOCK
  5
1C
100
AcDbEntity
  8
0
100
AcDbBlockBegin
  2
*Paper_Space
 70
0
 10
0.0
 20
0.0
 30
0.0
  3
*Paper_Space
  1

  0
ENDBLK
  5
1D
100
AcDbEntity
  8
0
100
AcDbBlockEnd
  0
BLOCK
  5
214
100
AcDbEntity
  8
0
100
AcDbBlockBegin
  2
_FILLED
 70
64
 10
0.0
 20
0.0
  3
_FILLED
  1

  0
SOLID
  5
215
100
AcDbEntity
  8
0
  6
BYBLOCK
 62
0
100
AcDbTrace
 10
0.0
 20
0.0
 11
-1.0
 21
0.25
 12
-1.0
 22
-0.25
 13
-1.0
 23
-0.25
  0
ENDBLK
  5
216
100
AcDbEntity
  8
0
  6
BYBLOCK
 62
0
100
AcDbBlockEnd
  0
ENDSEC
  0
SECTION
  2
ENTITIES
  0
LINE
  5
217
100
AcDbEntity
  8
0
100
AcDbLine
 62
7
  6
CONTINUOUS
 10
144.3277068549
 20
35.5315249267
 11
165.8277068549
 21
35.5315249267
  0
LINE
  5
218
100
AcDbEntity
  8
0
100
AcDbLine
 62
7
  6
CONTINUOUS
 10
167.3277068549
 20
37.5315249267
 11
166.298107299
 21
37.5315249267
  0
LINE
  5
219
100
AcDbEntity
  8
0
100
AcDbLine
 62
7
  6
CONTINUOUS
 10
144.3277068549
 20
37.5315249267
 11
142.3277068549
 21
37.5315249267
  0
LINE
  5
21A
100
AcDbEntity
  8
0
100
AcDbLine
 62
7
  6
CONTINUOUS
 10
165.8277068549
 20
38.0315249267
 11
144.3277068549
 21
38.0315249267
  0
LINE
  5
21B
100
AcDbEntity
  8
0
100
AcDbLine
 62
7
  6
CONTINUOUS
 10
142.3277068549
 20
39.0315249267
 11
144.3277068549
 21
39.0315249267
  0
LINE
  5
21C
100
AcDbEntity
  8
0
100
AcDbLine
 62
7
  6
CONTINUOUS
 10
168.3277068549
 20
40.0315249267
 11
165.8277068549
 21
40.0315249267
  0
LINE
  5
21D
100
AcDbEntity
  8
0
100
AcDbLine
 62
7
  6
CONTINUOUS
 10
133.3277068549
 20
62.2815249267
 11
141.8277068549
 21
62.2815249267
  0
LINE
  5
21E
100
AcDbEntity
  8
0
100
AcDbLine
 62
7
  6
CONTINUOUS
 10
142.0643357196
 20
74.922085862
 11
142.1562367225
 21
74.9263793897
  0
LINE
  5
21F
100
AcDbEntity
  8
0
100
AcDbLine
 62
7
  6
CONTINUOUS
 10
142.5312283385
 20
74.9315249074
 11
142.3277067137
 21
74.9315249267
  0
LINE
  5
220
100
AcDbEntity
  8
0
100
AcDbLine
 62
7
  6
CONTINUOUS
 10
141.8277068549
 20
89.7815249267
 11
157.3277068549
 21
89.7815249267
  0
LINE
  5
221
100
AcDbEntity
  8
0
100
AcDbLine
 62
7
  6
CONTINUOUS
 10
157.5312283385
 20
99.9315249073
 11
157.3277067137
 21
99.9315249267
  0
LINE
  5
222
100
AcDbEntity
  8
0
100
AcDbLine
 62
7
  6
CONTINUOUS
 10
133.3277068549
 20
105.7815249267
 11
157.3277068549
 21
105.7815249267
  0
LINE
  5
223
100
AcDbEntity
  8
0
100
AcDbLine
 62
7
  6
CONTINUOUS
 10
142.3277068549
 20
355.1315249685
 11
142.3671856732
 21
351.718884622
  0
LINE
  5
224
100
AcDbEntity
  8
0
100
AcDbLine
 62
7
  6
CONTINUOUS
 10
133.3277068549
 20
367.7815249267
 11
133.3277068549
 21
324.2815249267
  0
LINE
  5
225
100
AcDbEntity
  8
0
100
AcDbLine
 62
7
  6
CONTINUOUS
 10
133.3277068549
 20
105.7815249267
 11
133.3277068549
 21
62.2815249267
  0
LINE
  5
226
100
AcDbEntity
  8
0
100
AcDbLine
 62
7
  6
CONTINUOUS
 10
135.8277068549
 20
62.2815249267
 11
135.8277068549
 21
105.7815249267
  0
LINE
  5
227
100
AcDbEntity
  8
0
100
AcDbLine
 62
7
  6
CONTINUOUS
 10
135.8277068549
 20
324.2815249267
 11
135.8277068549
 21
367.7815249267
  0
LINE
  5
228
100
AcDbEntity
  8
0
100
AcDbLine
 62
7
  6
CONTINUOUS
 10
139.3277068549
 20
226.7815249267
 11
139.3277068549
 21
203.2815249058
  0
LINE
  5
229
100
AcDbEntity
  8
0
100
AcDbLine
 62
7
  6
CONTINUOUS
 10
141.8277068549
 20
367.7815249267
 11
141.8277068549
 21
324.2815249267
  0
LINE
  5
22A
100
AcDbEntity
  8
0
100
AcDbLine
 62
7
  6
CONTINUOUS
 10
141.8277068549
 20
105.7815249267
 11
141.8277068549
 21
62.2815249267
  0
LINE
  5
22B
100
AcDbEntity
  8
0
100
AcDbLine
 62
7
  6
CONTINUOUS
 10
142.327706855
 20
39.0315249267
 11
142.327706855
 21
37.5315249267
  0
LINE
  5
22C
100
AcDbEntity
  8
0
100
AcDbLine
 62
7
  6
CONTINUOUS
 10
142.3277068549
 20
391.0315249267
 11
142.3277068549
 21
392.5315249267
  0
LINE
  5
22D
100
AcDbEntity
  8
0
100
AcDbLine
 62
7
  6
CONTINUOUS
 10
143.8277068549
 20
195.0315249267
 11
143.8277068549
 21
235.0315249267
  0
LINE
  5
22E
100
AcDbEntity
  8
0
100
AcDbLine
 62
7
  6
CONTINUOUS
 10
142.3671856732
 20
78.3441652314
 11
142.3277068549
 21
74.9315248849
  0
LINE
  5
22F
100
AcDbEntity
  8
0
100
AcDbLine
 62
7
  6
CONTINUOUS
 10
139.3972368043
 20
227.2329176982
 11
141.5272368043
 21
233.9829176982
  0
LINE
  5
230
100
AcDbEntity
  8
0
100
AcDbLine
 62
7
  6
CONTINUOUS
 10
142.9577068549
 20
195.0315249267
 11
143.8277068549
 21
195.0315249267
  0
LINE
  5
231
100
AcDbEntity
  8
0
100
AcDbLine
 62
7
  6
CONTINUOUS
 10
143.8277068549
 20
196.0315249267
 11
144.3277068549
 21
196.0315249267
  0
LINE
  5
232
100
AcDbEntity
  8
0
100
AcDbLine
 62
7
  6
CONTINUOUS
 10
144.3277068549
 20
196.8923518257
 11
143.8277068549
 21
196.8923518257
  0
LINE
  5
233
100
AcDbEntity
  8
0
100
AcDbLine
 62
7
  6
CONTINUOUS
 10
141.5272368043
 20
196.0801321551
 11
139.3972368043
 21
202.8301321551
  0
LINE
  5
234
100
AcDbEntity
  8
0
100
AcDbLine
 62
7
  6
CONTINUOUS
 10
144.3277068549
 20
357.8435071947
 11
144.3277068549
 21
356.690267126
  0
LINE
  5
235
100
AcDbEntity
  8
0
100
AcDbLine
 62
7
  6
CONTINUOUS
 10
144.3277068549
 20
350.7981174537
 11
144.3277068549
 21
340.2815249267
  0
LINE
  5
236
100
AcDbEntity
  8
0
100
AcDbLine
 62
7
  6
CONTINUOUS
 10
144.3277068549
 20
324.2815249267
 11
144.3277068549
 21
105.7815249267
  0
LINE
  5
237
100
AcDbEntity
  8
0
100
AcDbLine
 62
7
  6
CONTINUOUS
 10
144.3277068549
 20
89.7815249267
 11
144.3277068549
 21
79.2554988444
  0
LINE
  5
238
100
AcDbEntity
  8
0
100
AcDbLine
 62
7
  6
CONTINUOUS
 10
144.3277068549
 20
73.3729383003
 11
144.3277068549
 21
72.2189038149
  0
LINE
  5
239
100
AcDbEntity
  8
0
100
AcDbLine
 62
7
  6
CONTINUOUS
 10
144.3277068549
 20
35.5315249267
 11
144.3277068549
 21
66.0145547036
  0
LINE
  5
23A
100
AcDbEntity
  8
0
100
AcDbLine
 62
7
  6
CONTINUOUS
 10
144.3277068549
 20
364.0484951498
 11
144.3277068549
 21
394.5315249267
  0
LINE
  5
23B
100
AcDbEntity
  8
0
100
AcDbLine
 62
7
  6
CONTINUOUS
 10
172.8913508562
 20
210.1945726496
 11
173.5277068549
 21
210.2502465855
  0
LINE
  5
23C
100
AcDbEntity
  8
0
100
AcDbLine
 62
7
  6
CONTINUOUS
 10
175.5213765749
 20
206.7815249267
 11
168.3277068549
 21
206.7815249267
  0
LINE
  5
23D
100
AcDbEntity
  8
0
100
AcDbLine
 62
7
  6
CONTINUOUS
 10
176.021342888
 20
207.2815249267
 11
174.2513632822
 21
207.2815354868
  0
LINE
  5
23E
100
AcDbEntity
  8
0
100
AcDbLine
 62
7
  6
CONTINUOUS
 10
144.3277068549
 20
210.0315249267
 11
143.8277068549
 21
210.0315249267
  0
LINE
  5
23F
100
AcDbEntity
  8
0
100
AcDbLine
 62
7
  6
CONTINUOUS
 10
176.0043058012
 20
211.9604091608
 11
176.021342888
 21
211.9604091608
  0
LINE
  5
240
100
AcDbEntity
  8
0
100
AcDbLine
 62
7
  6
CONTINUOUS
 10
174.3385661334
 20
212.1982749267
 11
174.3578386091
 21
212.1982749267
  0
LINE
  5
241
100
AcDbEntity
  8
0
100
AcDbLine
 62
7
  6
CONTINUOUS
 10
174.3385661334
 20
214.4315249267
 11
174.7407867656
 21
214.4315249267
  0
LINE
  5
242
100
AcDbEntity
  8
0
100
AcDbLine
 62
7
  6
CONTINUOUS
 10
172.1747597186
 20
215.0315249267
 11
171.6917965143
 21
215.0315249267
  0
LINE
  5
243
100
AcDbEntity
  8
0
100
AcDbLine
 62
7
  6
CONTINUOUS
 10
175.4730651446
 20
215.0315249264
 11
175.9556067029
 21
215.0315249263
  0
LINE
  5
244
100
AcDbEntity
  8
0
100
AcDbLine
 62
7
  6
CONTINUOUS
 10
172.3490769632
 20
215.0315249267
 11
172.3661339857
 21
215.0315249267
  0
LINE
  5
245
100
AcDbEntity
  8
0
100
AcDbLine
 62
7
  6
CONTINUOUS
 10
174.7407867656
 20
215.6315249267
 11
174.3385661334
 21
215.6315249267
  0
LINE
  5
246
100
AcDbEntity
  8
0
100
AcDbLine
 62
7
  6
CONTINUOUS
 10
173.7845892297
 20
208.3654592664
 11
173.7851070441
 21
208.365441001
  0
LWPOLYLINE
  5
247
100
AcDbEntity
  8
0
100
AcDbPolyline
 62
7
  6
CONTINUOUS
 90
8
 70
0
 10
173.7860812197
 20
208.3654191125
 10
173.7644615363
 20
208.371598028
 10
173.682998992
 20
208.4261154095
 10
173.5384436095
 20
208.5862645661
 10
173.3541419753
 20
208.8853607825
 10
173.1573574055
 20
209.3258268997
 10
172.9621457802
 20
209.9115772341
 10
172.7805693419
 20
210.6374103413
  0
LINE
  5
248
100
AcDbEntity
  8
0
100
AcDbLine
 62
7
  6
CONTINUOUS
 10
157.3277068549
 20
330.1315249686
 11
157.3671856732
 21
326.718884622
  0
LINE
  5
249
100
AcDbEntity
  8
0
100
AcDbLine
 62
7
  6
CONTINUOUS
 10
156.3277068549
 20
334.0432428423
 11
156.3277068549
 21
330.32737047
  0
LINE
  5
24A
100
AcDbEntity
  8
0
100
AcDbLine
 62
7
  6
CONTINUOUS
 10
156.3277068549
 20
286.7130235746
 11
156.3277068549
 21
281.3553090412
  0
LINE
  5
24B
100
AcDbEntity
  8
0
100
AcDbLine
 62
7
  6
CONTINUOUS
 10
156.3277068549
 20
260.7130235746
 11
156.3277068549
 21
255.3553090412
  0
LINE
  5
24C
100
AcDbEntity
  8
0
100
AcDbLine
 62
7
  6
CONTINUOUS
 10
156.3277068549
 20
230.7130235746
 11
156.3277068549
 21
225.3553090412
  0
LINE
  5
24D
100
AcDbEntity
  8
0
100
AcDbLine
 62
7
  6
CONTINUOUS
 10
156.3277068549
 20
204.7130235746
 11
156.3277068549
 21
199.3553090412
  0
LINE
  5
24E
100
AcDbEntity
  8
0
100
AcDbLine
 62
7
  6
CONTINUOUS
 10
156.3277068549
 20
174.7130235746
 11
156.3277068549
 21
169.3553090412
  0
LINE
  5
24F
100
AcDbEntity
  8
0
100
AcDbLine
 62
7
  6
CONTINUOUS
 10
156.3277068549
 20
148.7130235746
 11
156.3277068549
 21
143.3553090412
  0
LINE
  5
250
100
AcDbEntity
  8
0
100
AcDbLine
 62
7
  6
CONTINUOUS
 10
156.3277068549
 20
99.7356955019
 11
156.3277068549
 21
96.0221481154
  0
LINE
  5
251
100
AcDbEntity
  8
0
100
AcDbLine
 62
7
  6
CONTINUOUS
 10
157.3277076464
 20
100.0315249267
 11
157.3277085447
 21
99.9315249213
  0
LINE
  5
252
100
AcDbEntity
  8
0
100
AcDbLine
 62
7
  6
CONTINUOUS
 10
157.3277032233
 20
330.0315249267
 11
157.327703884
 21
330.1315249272
  0
LINE
  5
253
100
AcDbEntity
  8
0
100
AcDbLine
 62
7
  6
CONTINUOUS
 10
165.8277068549
 20
35.5315249267
 11
165.8277068549
 21
394.5315249267
  0
LINE
  5
254
100
AcDbEntity
  8
0
100
AcDbLine
 62
7
  6
CONTINUOUS
 10
167.3277068549
 20
37.5315249267
 11
167.3277068549
 21
38.0392608058
  0
LINE
  5
255
100
AcDbEntity
  8
0
100
AcDbLine
 62
7
  6
CONTINUOUS
 10
167.3277068549
 20
392.023760378
 11
167.3277068549
 21
392.5315249267
  0
LINE
  5
256
100
AcDbEntity
  8
0
100
AcDbLine
 62
7
  6
CONTINUOUS
 10
168.3277068549
 20
40.0315249267
 11
168.3277068549
 21
390.0315249267
  0
LINE
  5
257
100
AcDbEntity
  8
0
100
AcDbLine
 62
7
  6
CONTINUOUS
 10
157.3671856732
 20
103.3441652314
 11
157.3277068549
 21
99.9315248848
  0
LINE
  5
258
100
AcDbEntity
  8
0
100
AcDbLine
 62
7
  6
CONTINUOUS
 10
173.7776672211
 20
221.6961135246
 11
173.7849323495
 21
221.6975911207
  0
LINE
  5
259
100
AcDbEntity
  8
0
100
AcDbLine
 62
7
  6
CONTINUOUS
 10
173.7851030785
 20
221.6976087134
 11
173.7841605407
 21
221.6975751035
  0
LINE
  5
25A
100
AcDbEntity
  8
0
100
AcDbLine
 62
7
  6
CONTINUOUS
 10
174.3578386091
 20
217.8647749267
 11
174.3385661334
 21
217.8647749267
  0
LINE
  5
25B
100
AcDbEntity
  8
0
100
AcDbLine
 62
7
  6
CONTINUOUS
 10
176.021342888
 20
218.1026406925
 11
176.0043058012
 21
218.1026406925
  0
LINE
  5
25C
100
AcDbEntity
  8
0
100
AcDbLine
 62
7
  6
CONTINUOUS
 10
144.3277068549
 20
220.0315249267
 11
143.8277068549
 21
220.0315249267
  0
LINE
  5
25D
100
AcDbEntity
  8
0
100
AcDbLine
 62
7
  6
CONTINUOUS
 10
176.021342888
 20
222.7815249267
 11
174.2513646359
 21
222.7815160404
  0
LINE
  5
25E
100
AcDbEntity
  8
0
100
AcDbLine
 62
7
  6
CONTINUOUS
 10
168.3277068549
 20
223.2815249267
 11
175.521394878
 21
223.2815249267
  0
LINE
  5
25F
100
AcDbEntity
  8
0
100
AcDbLine
 62
7
  6
CONTINUOUS
 10
173.5277068549
 20
219.8128032679
 11
172.8932060565
 21
219.8683148947
  0
LWPOLYLINE
  5
260
100
AcDbEntity
  8
0
100
AcDbPolyline
 62
7
  6
CONTINUOUS
 90
4
 70
0
 10
176.0208351413
 20
211.9829365669
 10
175.9929895421
 20
212.7005556146
 10
175.96039022
 20
214.191190906
 10
175.9556067029
 20
215.0315249263
  0
LINE
  5
261
100
AcDbEntity
  8
0
100
AcDbLine
 62
7
  6
CONTINUOUS
 10
172.3691574382
 20
214.6341984595
 11
172.3661339857
 21
215.0315249267
  0
LINE
  5
262
100
AcDbEntity
  8
0
100
AcDbLine
 62
7
  6
CONTINUOUS
 10
172.3661339857
 20
215.0315249267
 11
172.366279411
 21
214.944507304
  0
LINE
  5
263
100
AcDbEntity
  8
0
100
AcDbLine
 62
7
  6
CONTINUOUS
 10
173.5277068549
 20
219.8128032679
 11
173.5277068549
 21
210.2502465855
  0
LINE
  5
264
100
AcDbEntity
  8
0
100
AcDbLine
 62
7
  6
CONTINUOUS
 10
176.0043058012
 20
222.7815235999
 11
176.0043058012
 21
218.1026406926
  0
LINE
  5
265
100
AcDbEntity
  8
0
100
AcDbLine
 62
7
  6
CONTINUOUS
 10
176.0043058012
 20
211.9604091608
 11
176.0043058012
 21
207.2815263025
  0
LINE
  5
266
100
AcDbEntity
  8
0
100
AcDbLine
 62
7
  6
CONTINUOUS
 10
176.021342888
 20
222.7815249267
 11
176.021342888
 21
218.1026406925
  0
LINE
  5
267
100
AcDbEntity
  8
0
100
AcDbLine
 62
7
  6
CONTINUOUS
 10
176.021342888
 20
207.2815249267
 11
176.021342888
 21
211.9604091608
  0
LWPOLYLINE
  5
268
100
AcDbEntity
  8
0
100
AcDbPolyline
 62
7
  6
CONTINUOUS
 90
4
 70
0
 10
175.9556067029
 20
215.0315249263
 10
175.96039022
 20
215.871858947
 10
175.9929895421
 20
217.3624942387
 10
176.0208351413
 20
218.0801132864
  0
LWPOLYLINE
  5
269
100
AcDbEntity
  8
0
100
AcDbPolyline
 62
7
  6
CONTINUOUS
 90
5
 70
0
 10
172.366279411
 20
214.944507304
 10
172.3940476085
 20
216.2370229388
 10
172.4823961905
 20
217.4623385772
 10
172.6234511266
 20
218.5749146725
 10
172.8059268091
 20
219.5405320319
  0
LWPOLYLINE
  5
26A
100
AcDbEntity
  8
0
100
AcDbPolyline
 62
7
  6
CONTINUOUS
 90
8
 70
0
 10
172.8059268091
 20
219.5405320319
 10
173.0172485125
 20
220.3341643668
 10
173.1290696407
 20
220.6623721584
 10
173.3537999215
 20
221.1770364885
 10
173.5621536722
 20
221.5077507144
 10
173.7135972743
 20
221.6611303839
 10
173.7756823353
 20
221.69558523
 10
173.7776672211
 20
221.6961135246
  0
LINE
  5
26B
100
AcDbEntity
  8
0
100
AcDbLine
 62
7
  6
CONTINUOUS
 10
143.8277068549
 20
233.1706980277
 11
144.3277068549
 21
233.1706980277
  0
LINE
  5
26C
100
AcDbEntity
  8
0
100
AcDbLine
 62
7
  6
CONTINUOUS
 10
144.3277068549
 20
234.0315249267
 11
143.8277068549
 21
234.0315249267
  0
LINE
  5
26D
100
AcDbEntity
  8
0
100
AcDbLine
 62
7
  6
CONTINUOUS
 10
143.8277068549
 20
235.0315249267
 11
142.9577068549
 21
235.0315249267
  0
LWPOLYLINE
  5
26E
100
AcDbEntity
  8
0
100
AcDbPolyline
 62
7
  6
CONTINUOUS
 90
5
 70
0
 10
172.7805693419
 20
210.6374103413
 10
172.6226088568
 20
211.4935116393
 10
172.4966293945
 20
212.4616177388
 10
172.4102741183
 20
213.5184243154
 10
172.3691574382
 20
214.6341984595
  0
LINE
  5
26F
100
AcDbEntity
  8
0
100
AcDbLine
 62
7
  6
CONTINUOUS
 10
133.3277068549
 20
324.2815249267
 11
157.3277068549
 21
324.2815249267
  0
LINE
  5
270
100
AcDbEntity
  8
0
100
AcDbLine
 62
7
  6
CONTINUOUS
 10
157.3277065087
 20
330.1315249267
 11
157.5312283385
 21
330.131524946
  0
LINE
  5
271
100
AcDbEntity
  8
0
100
AcDbLine
 62
7
  6
CONTINUOUS
 10
166.5850661678
 20
40.0315249267
 11
165.8277068549
 21
39.2741656138
  0
LINE
  5
272
100
AcDbEntity
  8
0
100
AcDbLine
 62
7
  6
CONTINUOUS
 10
141.8277068549
 20
64.9166047692
 11
145.1424732854
 21
66.3723838031
  0
LINE
  5
273
100
AcDbEntity
  8
0
100
AcDbLine
 62
7
  6
CONTINUOUS
 10
141.8277068549
 20
340.2815249267
 11
157.3277068549
 21
340.2815249267
  0
LINE
  5
274
100
AcDbEntity
  8
0
100
AcDbLine
 62
7
  6
CONTINUOUS
 10
145.1424732853
 20
363.6906660503
 11
141.8277068549
 21
365.1464450842
  0
LINE
  5
275
100
AcDbEntity
  8
0
100
AcDbLine
 62
7
  6
CONTINUOUS
 10
165.8277068549
 20
390.7888842396
 11
166.5850661678
 21
390.0315249267
  0
LINE
  5
276
100
AcDbEntity
  8
0
100
AcDbLine
 62
7
  6
CONTINUOUS
 10
142.3277065087
 20
355.1315249267
 11
142.5312283385
 21
355.131524946
  0
LINE
  5
277
100
AcDbEntity
  8
0
100
AcDbLine
 62
7
  6
CONTINUOUS
 10
133.3277068549
 20
367.7815249267
 11
141.8277068549
 21
367.7815249267
  0
LINE
  5
278
100
AcDbEntity
  8
0
100
AcDbLine
 62
7
  6
CONTINUOUS
 10
165.8277068549
 20
390.0315249267
 11
168.3277068549
 21
390.0315249267
  0
LINE
  5
279
100
AcDbEntity
  8
0
100
AcDbLine
 62
7
  6
CONTINUOUS
 10
144.3277068549
 20
391.0315249267
 11
142.3277068549
 21
391.0315249267
  0
LINE
  5
27A
100
AcDbEntity
  8
0
100
AcDbLine
 62
7
  6
CONTINUOUS
 10
144.3277068549
 20
392.0315249267
 11
165.8277068549
 21
392.0315249267
  0
LINE
  5
27B
100
AcDbEntity
  8
0
100
AcDbLine
 62
7
  6
CONTINUOUS
 10
142.3277068549
 20
392.5315249267
 11
144.3277068549
 21
392.5315249267
  0
LINE
  5
27C
100
AcDbEntity
  8
0
100
AcDbLine
 62
7
  6
CONTINUOUS
 10
166.2982251187
 20
392.5315249267
 11
167.3277068549
 21
392.5315249267
  0
LINE
  5
27D
100
AcDbEntity
  8
0
100
AcDbLine
 62
7
  6
CONTINUOUS
 10
165.8277068549
 20
394.5315249267
 11
144.3277068549
 21
394.5315249267
  0
ARC
  5
27E
100
AcDbEntity
  8
0
100
AcDbCircle
 62
7
  6
CONTINUOUS
 10
157.3277068549
 20
97.7815249267
 40
8.0
100
AcDbArc
 50
270.0
 51
90.0
  0
ARC
  5
27F
100
AcDbEntity
  8
0
100
AcDbCircle
 62
7
  6
CONTINUOUS
 10
142.3277068549
 20
72.7815249267
 40
7.0
100
AcDbArc
 50
293.7101192895
 51
85.2172514217
  0
ARC
  5
280
100
AcDbEntity
  8
0
100
AcDbCircle
 62
7
  6
CONTINUOUS
 10
157.1314242902
 20
97.8953830109
 40
5.4538803724
100
AcDbArc
 50
86.1135678365
 51
87.522435057
  0
ARC
  5
281
100
AcDbEntity
  8
0
100
AcDbCircle
 62
7
  6
CONTINUOUS
 10
142.1314244199
 20
72.8953855981
 40
5.453877782
100
AcDbArc
 50
86.1137866525
 51
87.5224352425
  0
ARC
  5
282
100
AcDbEntity
  8
0
100
AcDbCircle
 62
7
  6
CONTINUOUS
 10
157.2825798577
 20
96.197300363
 40
3.7311741094
100
AcDbArc
 50
91.9405342491
 51
93.3532636817
  0
CIRCLE
  5
283
100
AcDbEntity
  8
0
100
AcDbCircle
 62
7
  6
CONTINUOUS
 10
152.3277068549
 20
72.0315249267
 40
3.0
  0
CIRCLE
  5
284
100
AcDbEntity
  8
0
100
AcDbCircle
 62
7
  6
CONTINUOUS
 10
157.3277068549
 20
146.0315249267
 40
3.0
  0
CIRCLE
  5
285
100
AcDbEntity
  8
0
100
AcDbCircle
 62
7
  6
CONTINUOUS
 10
157.3277068549
 20
172.0315249267
 40
3.0
  0
CIRCLE
  5
286
100
AcDbEntity
  8
0
100
AcDbCircle
 62
7
  6
CONTINUOUS
 10
157.3277068549
 20
202.0315249267
 40
3.0
  0
ARC
  5
287
100
AcDbEntity
  8
0
100
AcDbCircle
 62
7
  6
CONTINUOUS
 10
165.8277068549
 20
40.0315249267
 40
2.5
100
AcDbArc
 50
270.0
 51
360.0
  0
ARC
  5
288
100
AcDbEntity
  8
0
100
AcDbCircle
 62
7
  6
CONTINUOUS
 10
157.3277068974
 20
97.7815250006
 40
2.1595856811
100
AcDbArc
 50
269.6534021641
 51
84.5924285662
  0
ARC
  5
289
100
AcDbEntity
  8
0
100
AcDbCircle
 62
7
  6
CONTINUOUS
 10
142.3277068998
 20
72.781525005
 40
2.1595650089
100
AcDbArc
 50
269.6589720496
 51
84.5924276726
  0
ARC
  5
28A
100
AcDbEntity
  8
0
100
AcDbCircle
 62
7
  6
CONTINUOUS
 10
142.3281431149
 20
72.7736934723
 40
2.1517969246
100
AcDbArc
 50
255.9073117986
 51
264.5616034771
  0
ARC
  5
28B
100
AcDbEntity
  8
0
100
AcDbCircle
 62
7
  6
CONTINUOUS
 10
142.3266426758
 20
72.7870654752
 40
2.1511142339
100
AcDbArc
 50
99.4959824608
 51
103.9484105222
  0
ARC
  5
28C
100
AcDbEntity
  8
0
100
AcDbCircle
 62
7
  6
CONTINUOUS
 10
157.3278083299
 20
97.7702923944
 40
2.1483539007
100
AcDbArc
 50
264.5618940352
 51
269.6488848815
  0
ARC
  5
28D
100
AcDbEntity
  8
0
100
AcDbCircle
 62
7
  6
CONTINUOUS
 10
142.3278074009
 20
72.7702801466
 40
2.1483209545
100
AcDbArc
 50
264.5618867449
 51
269.6545067141
  0
ARC
  5
28E
100
AcDbEntity
  8
0
100
AcDbCircle
 62
7
  6
CONTINUOUS
 10
157.3207258315
 20
97.8214485472
 40
2.1162261259
100
AcDbArc
 50
96.9587310977
 51
99.4915614866
  0
ARC
  5
28F
100
AcDbEntity
  8
0
100
AcDbCircle
 62
7
  6
CONTINUOUS
 10
142.3207237946
 20
72.8214570529
 40
2.1162174365
100
AcDbArc
 50
96.9587042529
 51
99.4915447498
  0
ARC
  5
290
100
AcDbEntity
  8
0
100
AcDbCircle
 62
7
  6
CONTINUOUS
 10
140.8277068549
 20
203.2815249267
 40
1.5
100
AcDbArc
 50
180.0000002668
 51
197.513380376
  0
ARC
  5
291
100
AcDbEntity
  8
0
100
AcDbCircle
 62
7
  6
CONTINUOUS
 10
142.9577068549
 20
196.5315249267
 40
1.5
100
AcDbArc
 50
197.5133803758
 51
270.0
  0
ARC
  5
292
100
AcDbEntity
  8
0
100
AcDbCircle
 62
7
  6
CONTINUOUS
 10
165.8277068549
 20
40.0315249267
 40
1.0
100
AcDbArc
 50
270.0
 51
360.0
  0
ARC
  5
293
100
AcDbEntity
  8
0
100
AcDbCircle
 62
7
  6
CONTINUOUS
 10
165.0084578246
 20
215.0315249267
 40
9.7692490304
100
AcDbArc
 50
330.6974490758
 51
343.1410157674
  0
ARC
  5
294
100
AcDbEntity
  8
0
100
AcDbCircle
 62
7
  6
CONTINUOUS
 10
165.0084578246
 20
215.0315249267
 40
9.7692490304
100
AcDbArc
 50
16.8589842327
 51
29.3025509242
  0
ARC
  5
295
100
AcDbEntity
  8
0
100
AcDbCircle
 62
7
  6
CONTINUOUS
 10
165.0084578246
 20
215.0315249267
 40
9.7508064598
100
AcDbArc
 50
343.1081727277
 51
356.4721688285
  0
ARC
  5
296
100
AcDbEntity
  8
0
100
AcDbCircle
 62
7
  6
CONTINUOUS
 10
165.0084578246
 20
215.0315249267
 40
9.7508064598
100
AcDbArc
 50
3.5278311715
 51
16.8918272723
  0
ARC
  5
297
100
AcDbEntity
  8
0
100
AcDbCircle
 62
7
  6
CONTINUOUS
 10
165.0084578246
 20
215.0315249267
 40
9.3493807846
100
AcDbArc
 50
356.3204933584
 51
3.6795066416
  0
ARC
  5
298
100
AcDbEntity
  8
0
100
AcDbCircle
 62
7
  6
CONTINUOUS
 10
157.3277068549
 20
332.2815249267
 40
8.0
100
AcDbArc
 50
270.0
 51
90.0
  0
ARC
  5
299
100
AcDbEntity
  8
0
100
AcDbCircle
 62
7
  6
CONTINUOUS
 10
142.3277068549
 20
357.2815249267
 40
7.0
100
AcDbArc
 50
274.676042829
 51
66.2898807112
  0
ARC
  5
29A
100
AcDbEntity
  8
0
100
AcDbCircle
 62
7
  6
CONTINUOUS
 10
157.1314247425
 20
332.1676542638
 40
5.4538677859
100
AcDbArc
 50
272.4775659082
 51
273.8872981109
  0
ARC
  5
29B
100
AcDbEntity
  8
0
100
AcDbCircle
 62
7
  6
CONTINUOUS
 10
142.1314248644
 20
357.1676519178
 40
5.4538654368
100
AcDbArc
 50
272.4775656942
 51
273.8870523033
  0
ARC
  5
29C
100
AcDbEntity
  8
0
100
AcDbCircle
 62
7
  6
CONTINUOUS
 10
142.2826771116
 20
358.8677795105
 40
3.7332063462
100
AcDbArc
 50
266.6470686937
 51
268.0573572534
  0
ARC
  5
29D
100
AcDbEntity
  8
0
100
AcDbCircle
 62
7
  6
CONTINUOUS
 10
157.2826005575
 20
333.8661910687
 40
3.7316161523
100
AcDbArc
 50
266.6468156852
 51
268.0576463409
  0
CIRCLE
  5
29E
100
AcDbEntity
  8
0
100
AcDbCircle
 62
7
  6
CONTINUOUS
 10
152.3277068549
 20
358.0315249267
 40
3.0
  0
CIRCLE
  5
29F
100
AcDbEntity
  8
0
100
AcDbCircle
 62
7
  6
CONTINUOUS
 10
157.3277068549
 20
258.0315249267
 40
3.0
  0
CIRCLE
  5
2A0
100
AcDbEntity
  8
0
100
AcDbCircle
 62
7
  6
CONTINUOUS
 10
157.3277068549
 20
284.0315249267
 40
3.0
  0
CIRCLE
  5
2A1
100
AcDbEntity
  8
0
100
AcDbCircle
 62
7
  6
CONTINUOUS
 10
157.3277068549
 20
228.0315249267
 40
3.0
  0
ARC
  5
2A2
100
AcDbEntity
  8
0
100
AcDbCircle
 62
7
  6
CONTINUOUS
 10
165.8277068549
 20
390.0315249267
 40
2.5
100
AcDbArc
 50
0.0
 51
90.0
  0
ARC
  5
2A3
100
AcDbEntity
  8
0
100
AcDbCircle
 62
7
  6
CONTINUOUS
 10
157.3277068974
 20
332.2815248528
 40
2.1595851518
100
AcDbArc
 50
275.4075714579
 51
90.3465500347
  0
ARC
  5
2A4
100
AcDbEntity
  8
0
100
AcDbCircle
 62
7
  6
CONTINUOUS
 10
142.3277068999
 20
357.2815248484
 40
2.1595616641
100
AcDbArc
 50
275.4075724803
 51
90.3410005315
  0
ARC
  5
2A5
100
AcDbEntity
  8
0
100
AcDbCircle
 62
7
  6
CONTINUOUS
 10
142.3281568137
 20
357.289090453
 40
2.152062954
100
AcDbArc
 50
95.438088584
 51
104.0851409901
  0
ARC
  5
2A6
100
AcDbEntity
  8
0
100
AcDbCircle
 62
7
  6
CONTINUOUS
 10
142.3266439274
 20
357.2760724421
 40
2.151201578
100
AcDbArc
 50
256.0533424296
 51
260.5034884234
  0
ARC
  5
2A7
100
AcDbEntity
  8
0
100
AcDbCircle
 62
7
  6
CONTINUOUS
 10
157.3278083213
 20
332.2927575702
 40
2.14835326
100
AcDbArc
 50
90.3510668551
 51
95.4381060422
  0
ARC
  5
2A8
100
AcDbEntity
  8
0
100
AcDbCircle
 62
7
  6
CONTINUOUS
 10
142.3278073899
 20
357.292769817
 40
2.1483174992
100
AcDbArc
 50
90.3454654552
 51
95.4381134038
  0
ARC
  5
2A9
100
AcDbEntity
  8
0
100
AcDbCircle
 62
7
  6
CONTINUOUS
 10
157.3207573575
 20
332.2418680749
 40
2.1164947491
100
AcDbArc
 50
260.507890172
 51
263.0412966916
  0
ARC
  5
2AA
100
AcDbEntity
  8
0
100
AcDbCircle
 62
7
  6
CONTINUOUS
 10
142.3207570426
 20
357.2418667531
 40
2.1164933992
100
AcDbArc
 50
260.5078927773
 51
263.0413008186
  0
ARC
  5
2AB
100
AcDbEntity
  8
0
100
AcDbCircle
 62
7
  6
CONTINUOUS
 10
140.8277068549
 20
226.7815249267
 40
1.5
100
AcDbArc
 50
162.486619624
 51
180.0000000001
  0
ARC
  5
2AC
100
AcDbEntity
  8
0
100
AcDbCircle
 62
7
  6
CONTINUOUS
 10
142.9577068549
 20
233.5315249267
 40
1.5
100
AcDbArc
 50
90.0
 51
162.4866196242
  0
ARC
  5
2AD
100
AcDbEntity
  8
0
100
AcDbCircle
 62
7
  6
CONTINUOUS
 10
165.8277068549
 20
390.0315249267
 40
1.0
100
AcDbArc
 50
0.0
 51
90.0
  0
ARC
  5
2AE
100
AcDbEntity
  8
0
100
AcDbCircle
 62
7
  6
CONTINUOUS
 10
198.9578090032
 20
215.0314120318
 40
26.6087320403
100
AcDbArc
 50
179.194830219
 51
179.9997569069
  0
ARC
  5
2AF
100
AcDbEntity
  8
0
100
AcDbCircle
 62
7
  6
CONTINUOUS
 10
188.1525418198
 20
213.8203298802
 40
15.7255796346
100
AcDbArc
 50
189.3483844586
 51
191.3054400421
  0
ARC
  5
2B0
100
AcDbEntity
  8
0
100
AcDbCircle
 62
7
  6
CONTINUOUS
 10
175.521342888
 20
207.2815249267
 40
0.5
100
AcDbArc
 50
270.0000000222
 51
360.0
  0
ARC
  5
2B1
100
AcDbEntity
  8
0
100
AcDbCircle
 62
7
  6
CONTINUOUS
 10
198.9416314614
 20
215.0315922945
 40
26.5925544983
100
AcDbArc
 50
180.0001451493
 51
180.496037507
  0
ARC
  5
2B2
100
AcDbEntity
  8
0
100
AcDbCircle
 62
7
  6
CONTINUOUS
 10
190.4678236729
 20
215.8462896332
 40
18.0744390136
100
AcDbArc
 50
169.8568580394
 51
172.0665968942
  0
ARC
  5
2B3
100
AcDbEntity
  8
0
100
AcDbCircle
 62
7
  6
CONTINUOUS
 10
173.8059758657
 20
221.1321897849
 40
0.5657922691
100
AcDbArc
 50
92.0384915623
 51
100.5202294626
  0
ARC
  5
2B4
100
AcDbEntity
  8
0
100
AcDbCircle
 62
7
  6
CONTINUOUS
 10
175.521342888
 20
222.7815249267
 40
0.5
100
AcDbArc
 50
0.0
 51
89.9940423534
  0
SPLINE
  5
2B5
100
AcDbEntity
  8
0
100
AcDbSpline
 62
7
  6
CONTINUOUS
 70
0
 71
3
 72
9
 73
5
 74
0
 42
0.0000001
 43
0.0000001
 44
0.0000000001
 40
0.0
 40
0.0
 40
0.0
 40
0.0
 40
0.2185590021
 40
1.0
 40
1.0
 40
1.0
 40
1.0
 10
142.2200195322
 20
74.9284020015
 30
0.0
 10
142.2278628156
 20
74.9286961662
 30
0.0
 10
142.2637387932
 20
74.9302566276
 30
0.0
 10
142.2996440787
 20
74.9315258143
 30
0.0
 10
142.3277068549
 20
74.9315248014
 30
0.0
  0
SPLINE
  5
2B6
100
AcDbEntity
  8
0
100
AcDbSpline
 62
7
  6
CONTINUOUS
 70
0
 71
3
 72
9
 73
5
 74
0
 42
0.0000001
 43
0.0000001
 44
0.0000000001
 40
0.0
 40
0.0
 40
0.0
 40
0.0
 40
0.218573737
 40
1.0
 40
1.0
 40
1.0
 40
1.0
 10
157.2200017023
 20
99.9284014569
 30
0.0
 10
157.227846813
 20
99.9286956953
 30
0.0
 10
157.2637287346
 20
99.930256317
 30
0.0
 10
157.2996399614
 20
99.9315258134
 30
0.0
 10
157.3277068549
 20
99.931524801
 30
0.0
  0
SPLINE
  5
2B7
100
AcDbEntity
  8
0
100
AcDbSpline
 62
7
  6
CONTINUOUS
 70
0
 71
3
 72
9
 73
5
 74
0
 42
0.0000001
 43
0.0000001
 44
0.0000000001
 40
0.0
 40
0.0
 40
0.0
 40
0.0
 40
0.2879837666
 40
1.0
 40
1.0
 40
1.0
 40
1.0
 10
142.3277068549
 20
355.1315250519
 30
0.0
 10
142.3173644215
 20
355.1315246786
 30
0.0
 10
142.281448425
 20
355.1318910427
 30
0.0
 10
142.2455725772
 20
355.1336894759
 30
0.0
 10
142.2200197248
 20
355.1346478446
 30
0.0
  0
SPLINE
  5
2B8
100
AcDbEntity
  8
0
100
AcDbSpline
 62
7
  6
CONTINUOUS
 70
0
 71
3
 72
9
 73
5
 74
0
 42
0.0000001
 43
0.0000001
 44
0.0000000001
 40
0.0
 40
0.0
 40
0.0
 40
0.0
 40
0.2879510489
 40
1.0
 40
1.0
 40
1.0
 40
1.0
 10
157.3277068549
 20
330.1315250523
 30
0.0
 10
157.3173638844
 20
330.1315246792
 30
0.0
 10
157.2814419438
 20
330.1318912198
 30
0.0
 10
157.2455601516
 20
330.1336898013
 30
0.0
 10
157.2200018948
 20
330.1346483891
 30
0.0
  0
SPLINE
  5
2B9
100
AcDbEntity
  8
0
100
AcDbSpline
 62
7
  6
CONTINUOUS
 70
0
 71
3
 72
9
 73
5
 74
0
 42
0.0000001
 43
0.0000001
 44
0.0000000001
 40
0.0
 40
0.0
 40
0.0
 40
0.0
 40
0.450332104
 40
1.0
 40
1.0
 40
1.0
 40
1.0
 10
142.3671872507
 20
351.7189000515
 30
0.0
 10
142.3860588598
 20
351.9033246235
 30
0.0
 10
142.4048881762
 20
352.3148823632
 30
0.0
 10
142.4228317156
 20
352.7260410591
 30
0.0
 10
142.4317092344
 20
352.9521478727
 30
0.0
  0
SPLINE
  5
2BA
100
AcDbEntity
  8
0
100
AcDbSpline
 62
7
  6
CONTINUOUS
 70
0
 71
3
 72
9
 73
5
 74
0
 42
0.0000001
 43
0.0000001
 44
0.0000000001
 40
0.0
 40
0.0
 40
0.0
 40
0.0
 40
0.2329373205
 40
1.0
 40
1.0
 40
1.0
 40
1.0
 10
142.4317092344
 20
352.9521478727
 30
0.0
 10
142.4383550506
 20
353.1214141216
 30
0.0
 10
142.4670863103
 20
353.848057772
 30
0.0
 10
142.4982024022
 20
354.5746801558
 30
0.0
 10
142.5312281527
 20
355.1315249341
 30
0.0
  0
LINE
  5
2BB
100
AcDbEntity
  8
0
100
AcDbLine
 62
7
  6
CONTINUOUS
 10
142.1562382244
 20
74.9263348965
 11
142.2200195322
 21
74.9284020015
  0
SPLINE
  5
2BC
100
AcDbEntity
  8
0
100
AcDbSpline
 62
7
  6
CONTINUOUS
 70
0
 71
3
 72
8
 73
4
 74
0
 42
0.0000001
 43
0.0000001
 44
0.0000000001
 40
0.0
 40
0.0
 40
0.0
 40
0.0
 40
1.0
 40
1.0
 40
1.0
 40
1.0
 10
157.0643357196
 20
330.1409639918
 30
0.0
 10
157.051355863
 20
330.0805672657
 30
0.0
 10
157.0274963718
 20
330.0216294298
 30
0.0
 10
156.9949810609
 20
329.9691032862
 30
0.0
  0
SPLINE
  5
2BD
100
AcDbEntity
  8
0
100
AcDbSpline
 62
7
  6
CONTINUOUS
 70
0
 71
3
 72
8
 73
4
 74
0
 42
0.0000001
 43
0.0000001
 44
0.0000000001
 40
0.0
 40
0.0
 40
0.0
 40
0.0
 40
1.0
 40
1.0
 40
1.0
 40
1.0
 10
156.9949810609
 20
329.9691032862
 30
0.0
 10
156.9541001759
 20
329.9030631601
 30
0.0
 10
156.8986847368
 20
329.8450840563
 30
0.0
 10
156.8371529436
 20
329.7976880286
 30
0.0
  0
SPLINE
  5
2BE
100
AcDbEntity
  8
0
100
AcDbSpline
 62
7
  6
CONTINUOUS
 70
0
 71
3
 72
8
 73
4
 74
0
 42
0.0000001
 43
0.0000001
 44
0.0000000001
 40
0.0
 40
0.0
 40
0.0
 40
0.0
 40
1.0
 40
1.0
 40
1.0
 40
1.0
 10
156.8371529436
 20
329.7976880286
 30
0.0
 10
156.6659722589
 20
329.6658328679
 30
0.0
 10
156.4405549408
 20
329.6027963309
 30
0.0
 10
156.2253454388
 20
329.5834706878
 30
0.0
  0
SPLINE
  5
2BF
100
AcDbEntity
  8
0
100
AcDbSpline
 62
7
  6
CONTINUOUS
 70
0
 71
3
 72
11
 73
7
 74
0
 42
0.0000001
 43
0.0000001
 44
0.0000000001
 40
0.0
 40
0.0
 40
0.0
 40
0.0
 40
0.2478907745
 40
0.49806916
 40
0.7488890956
 40
1.0
 40
1.0
 40
1.0
 40
1.0
 10
156.2253454388
 20
329.5834706878
 30
0.0
 10
155.7118483937
 20
329.5373590594
 30
0.0
 10
154.6408674639
 20
329.9098048564
 30
0.0
 10
153.6106697749
 20
331.145393479
 30
0.0
 10
153.2182880704
 20
332.7111840955
 30
0.0
 10
153.405190697
 20
333.7717393734
 30
0.0
 10
153.5927793772
 20
334.25914734
 30
0.0
  0
SPLINE
  5
2C0
100
AcDbEntity
  8
0
100
AcDbSpline
 62
7
  6
CONTINUOUS
 70
0
 71
3
 72
15
 73
11
 74
0
 42
0.0000001
 43
0.0000001
 44
0.0000000001
 40
0.0
 40
0.0
 40
0.0
 40
0.0
 40
0.1250614628
 40
0.2500355035
 40
0.3750434103
 40
0.5000364206
 40
0.6250243435
 40
0.7500124318
 40
0.8750101445
 40
1.0
 40
1.0
 40
1.0
 40
1.0
 10
156.9717224338
 20
330.1543516929
 30
0.0
 10
156.7173399064
 20
330.1968721124
 30
0.0
 10
156.2195723696
 20
330.3754647405
 30
0.0
 10
155.6184185804
 20
330.8875492342
 30
0.0
 10
155.2360504845
 20
331.5792990108
 30
0.0
 10
155.1225365725
 20
332.3614171458
 30
0.0
 10
155.2925335891
 20
333.1330092864
 30
0.0
 10
155.7226882686
 20
333.7960139377
 30
0.0
 10
156.3586163282
 20
334.2639699099
 30
0.0
 10
156.8675886871
 20
334.4071757448
 30
0.0
 10
157.1242055636
 20
334.4314673679
 30
0.0
  0
LINE
  5
2C1
100
AcDbEntity
  8
0
100
AcDbLine
 62
7
  6
CONTINUOUS
 10
157.156233955
 20
99.9263346814
 11
157.2200017023
 21
99.9284014569
  0
SPLINE
  5
2C2
100
AcDbEntity
  8
0
100
AcDbSpline
 62
7
  6
CONTINUOUS
 70
0
 71
3
 72
9
 73
5
 74
0
 42
0.0000001
 43
0.0000001
 44
0.0000000001
 40
0.0
 40
0.0
 40
0.0
 40
0.0
 40
0.4503610782
 40
1.0
 40
1.0
 40
1.0
 40
1.0
 10
157.3671900169
 20
326.7189270733
 30
0.0
 10
157.3860462489
 20
326.9031638004
 30
0.0
 10
157.4048588716
 20
327.3142767217
 30
0.0
 10
157.4227890499
 20
327.724990783
 30
0.0
 10
157.4316574401
 20
327.9508412995
 30
0.0
  0
SPLINE
  5
2C3
100
AcDbEntity
  8
0
100
AcDbSpline
 62
7
  6
CONTINUOUS
 70
0
 71
3
 72
9
 73
5
 74
0
 42
0.0000001
 43
0.0000001
 44
0.0000000001
 40
0.0
 40
0.0
 40
0.0
 40
0.0
 40
0.2329133186
 40
1.0
 40
1.0
 40
1.0
 40
1.0
 10
157.4316574401
 20
327.9508412995
 30
0.0
 10
157.4383072536
 20
328.120191518
 30
0.0
 10
157.4670561029
 20
328.847270653
 30
0.0
 10
157.4981815745
 20
329.5743289798
 30
0.0
 10
157.5312281528
 20
330.1315249341
 30
0.0
  0
SPLINE
  5
2C4
100
AcDbEntity
  8
0
100
AcDbSpline
 62
7
  6
CONTINUOUS
 70
0
 71
3
 72
8
 73
4
 74
0
 42
0.0000001
 43
0.0000001
 44
0.0000000001
 40
0.0
 40
0.0
 40
0.0
 40
0.0
 40
1.0
 40
1.0
 40
1.0
 40
1.0
 10
142.0643357196
 20
74.922085862
 30
0.0
 10
142.0513463496
 20
74.9825268546
 30
0.0
 10
142.0274604757
 20
75.0415070661
 30
0.0
 10
141.9949084901
 20
75.0940637551
 30
0.0
  0
SPLINE
  5
2C5
100
AcDbEntity
  8
0
100
AcDbSpline
 62
7
  6
CONTINUOUS
 70
0
 71
3
 72
8
 73
4
 74
0
 42
0.0000001
 43
0.0000001
 44
0.0000000001
 40
0.0
 40
0.0
 40
0.0
 40
0.0
 40
1.0
 40
1.0
 40
1.0
 40
1.0
 10
141.9949084901
 20
75.0940637551
 30
0.0
 10
141.9539788277
 20
75.1601465914
 30
0.0
 10
141.8984954256
 20
75.2181527691
 30
0.0
 10
141.8368945799
 20
75.2655607255
 30
0.0
  0
SPLINE
  5
2C6
100
AcDbEntity
  8
0
100
AcDbSpline
 62
7
  6
CONTINUOUS
 70
0
 71
3
 72
8
 73
4
 74
0
 42
0.0000001
 43
0.0000001
 44
0.0000000001
 40
0.0
 40
0.0
 40
0.0
 40
0.0
 40
1.0
 40
1.0
 40
1.0
 40
1.0
 10
142.0643357196
 20
355.1409639914
 30
0.0
 10
142.0513559502
 20
355.0805676712
 30
0.0
 10
142.027496701
 20
355.0216302238
 30
0.0
 10
141.9949817263
 20
354.9691043604
 30
0.0
  0
SPLINE
  5
2C7
100
AcDbEntity
  8
0
100
AcDbSpline
 62
7
  6
CONTINUOUS
 70
0
 71
3
 72
8
 73
4
 74
0
 42
0.0000001
 43
0.0000001
 44
0.0000000001
 40
0.0
 40
0.0
 40
0.0
 40
0.0
 40
1.0
 40
1.0
 40
1.0
 40
1.0
 10
141.9949817263
 20
354.9691043604
 30
0.0
 10
141.9541011125
 20
354.9030643414
 30
0.0
 10
141.8986859926
 20
354.8450852727
 30
0.0
 10
141.8371545053
 20
354.797689231
 30
0.0
  0
SPLINE
  5
2C8
100
AcDbEntity
  8
0
100
AcDbSpline
 62
7
  6
CONTINUOUS
 70
0
 71
3
 72
9
 73
5
 74
0
 42
0.0000001
 43
0.0000001
 44
0.0000000001
 40
0.0
 40
0.0
 40
0.0
 40
0.0
 40
0.4503169423
 40
1.0
 40
1.0
 40
1.0
 40
1.0
 10
142.3671856732
 20
78.3441652314
 30
0.0
 10
142.3860670391
 20
78.1596453078
 30
0.0
 10
142.4049028727
 20
77.7478606369
 30
0.0
 10
142.4228522278
 20
77.3364753884
 30
0.0
 10
142.4317347432
 20
77.1102378102
 30
0.0
  0
SPLINE
  5
2C9
100
AcDbEntity
  8
0
100
AcDbSpline
 62
7
  6
CONTINUOUS
 70
0
 71
3
 72
9
 73
5
 74
0
 42
0.0000001
 43
0.0000001
 44
0.0000000001
 40
0.0
 40
0.0
 40
0.0
 40
0.0
 40
0.2329491165
 40
1.0
 40
1.0
 40
1.0
 40
1.0
 10
142.4317347432
 20
77.1102378102
 30
0.0
 10
142.4383787683
 20
76.9410145561
 30
0.0
 10
142.4671037052
 20
76.2145923733
 30
0.0
 10
142.4982129527
 20
75.4881914989
 30
0.0
 10
142.5312281343
 20
74.9315249267
 30
0.0
  0
LINE
  5
2CA
100
AcDbEntity
  8
0
100
AcDbLine
 62
7
  6
CONTINUOUS
 10
157.2200018948
 20
330.1346483891
 11
157.1561212579
 21
330.1367189753
  0
LINE
  5
2CB
100
AcDbEntity
  8
0
100
AcDbLine
 62
7
  6
CONTINUOUS
 10
142.2200197248
 20
355.1346478446
 11
142.1561250889
 21
355.1367187755
  0
SPLINE
  5
2CC
100
AcDbEntity
  8
0
100
AcDbSpline
 62
7
  6
CONTINUOUS
 70
0
 71
3
 72
15
 73
11
 74
0
 42
0.0000001
 43
0.0000001
 44
0.0000000001
 40
0.0
 40
0.0
 40
0.0
 40
0.0
 40
0.1249992783
 40
0.2500063575
 40
0.3749929145
 40
0.4999735765
 40
0.6249584312
 40
0.7499606314
 40
0.8749335434
 40
1.0
 40
1.0
 40
1.0
 40
1.0
 10
157.1242055634
 20
95.6315824855
 30
0.0
 10
156.8675683787
 20
95.655876031
 30
0.0
 10
156.3585571504
 20
95.799105919
 30
0.0
 10
155.7226182882
 20
96.2671225172
 30
0.0
 10
155.2925129929
 20
96.9301520789
 30
0.0
 10
155.1224829663
 20
97.7017096425
 30
0.0
 10
155.236100123
 20
98.4837747753
 30
0.0
 10
155.6184354932
 20
99.1754940461
 30
0.0
 10
156.2195787353
 20
99.6875978962
 30
0.0
 10
156.7173611276
 20
99.8661835374
 30
0.0
 10
156.9717551828
 20
99.9087033238
 30
0.0
  0
SPLINE
  5
2CD
100
AcDbEntity
  8
0
100
AcDbSpline
 62
7
  6
CONTINUOUS
 70
0
 71
3
 72
9
 73
5
 74
0
 42
0.0000001
 43
0.0000001
 44
0.0000000001
 40
0.0
 40
0.0
 40
0.0
 40
0.0
 40
0.4503435758
 40
1.0
 40
1.0
 40
1.0
 40
1.0
 10
157.3671856732
 20
103.3441652314
 30
0.0
 10
157.386052302
 20
103.1598269187
 30
0.0
 10
157.4048739914
 20
102.7484711632
 30
0.0
 10
157.4228099979
 20
102.337514501
 30
0.0
 10
157.4316837531
 20
102.1115234691
 30
0.0
  0
SPLINE
  5
2CE
100
AcDbEntity
  8
0
100
AcDbSpline
 62
7
  6
CONTINUOUS
 70
0
 71
3
 72
9
 73
5
 74
0
 42
0.0000001
 43
0.0000001
 44
0.0000000001
 40
0.0
 40
0.0
 40
0.0
 40
0.0
 40
0.2329254971
 40
1.0
 40
1.0
 40
1.0
 40
1.0
 10
157.4316837531
 20
102.1115234691
 30
0.0
 10
157.4383317117
 20
101.9422175802
 30
0.0
 10
157.4670740563
 20
101.2153668872
 30
0.0
 10
157.4981924589
 20
100.4885370447
 30
0.0
 10
157.5312281343
 20
99.9315249267
 30
0.0
  0
SPLINE
  5
2CF
100
AcDbEntity
  8
0
100
AcDbSpline
 62
7
  6
CONTINUOUS
 70
0
 71
3
 72
8
 73
4
 74
0
 42
0.0000001
 43
0.0000001
 44
0.0000000001
 40
0.0
 40
0.0
 40
0.0
 40
0.0
 40
1.0
 40
1.0
 40
1.0
 40
1.0
 10
157.0643357196
 20
99.9220858616
 30
0.0
 10
157.0513460451
 20
99.9825282716
 30
0.0
 10
157.0274593259
 20
100.0415098396
 30
0.0
 10
156.994906166
 20
100.0940675066
 30
0.0
  0
SPLINE
  5
2D0
100
AcDbEntity
  8
0
100
AcDbSpline
 62
7
  6
CONTINUOUS
 70
0
 71
3
 72
8
 73
4
 74
0
 42
0.0000001
 43
0.0000001
 44
0.0000000001
 40
0.0
 40
0.0
 40
0.0
 40
0.0
 40
1.0
 40
1.0
 40
1.0
 40
1.0
 10
156.994906166
 20
100.0940675066
 30
0.0
 10
156.9539752734
 20
100.1601511751
 30
0.0
 10
156.8984902653
 20
100.2181578164
 30
0.0
 10
156.8368878251
 20
100.2655659232
 30
0.0
  0
SPLINE
  5
2D1
100
AcDbEntity
  8
0
100
AcDbSpline
 62
7
  6
CONTINUOUS
 70
0
 71
3
 72
8
 73
4
 74
0
 42
0.0000001
 43
0.0000001
 44
0.0000000001
 40
0.0
 40
0.0
 40
0.0
 40
0.0
 40
1.0
 40
1.0
 40
1.0
 40
1.0
 10
156.8368878251
 20
100.2655659232
 30
0.0
 10
156.6655022462
 20
100.3974611177
 30
0.0
 10
156.4398496631
 20
100.4604358935
 30
0.0
 10
156.2244435434
 20
100.4796599044
 30
0.0
  0
SPLINE
  5
2D2
100
AcDbEntity
  8
0
100
AcDbSpline
 62
7
  6
CONTINUOUS
 70
0
 71
3
 72
11
 73
7
 74
0
 42
0.0000001
 43
0.0000001
 44
0.0000000001
 40
0.0
 40
0.0
 40
0.0
 40
0.0
 40
0.247887524
 40
0.4980672056
 40
0.7488877727
 40
1.0
 40
1.0
 40
1.0
 40
1.0
 10
156.2244435434
 20
100.4796599044
 30
0.0
 10
155.710144674
 20
100.525558726
 30
0.0
 10
154.6377031081
 20
100.151527098
 30
0.0
 10
153.6076641891
 20
98.9124522441
 30
0.0
 10
153.2176943164
 20
97.3434056395
 30
0.0
 10
153.4074575455
 20
96.2816042582
 30
0.0
 10
153.5966255149
 20
95.7939495188
 30
0.0
  0
SPLINE
  5
2D3
100
AcDbEntity
  8
0
100
AcDbSpline
 62
7
  6
CONTINUOUS
 70
0
 71
3
 72
15
 73
11
 74
0
 42
0.0000001
 43
0.0000001
 44
0.0000000001
 40
0.0
 40
0.0
 40
0.0
 40
0.0
 40
0.1249281786
 40
0.2498841956
 40
0.3748665917
 40
0.4998673386
 40
0.6248792231
 40
0.7499049801
 40
0.8749472327
 40
1.0
 40
1.0
 40
1.0
 40
1.0
 10
141.8213273693
 20
68.1529397038
 30
0.0
 10
142.305184661
 20
68.0589588312
 30
0.0
 10
143.3109451071
 20
68.0298929856
 30
0.0
 10
144.750880564
 20
68.4580472167
 30
0.0
 10
145.9928647074
 20
69.3042231269
 30
0.0
 10
146.9249931817
 20
70.4817721512
 30
0.0
 10
147.4716445619
 20
71.8798650313
 30
0.0
 10
147.5931134769
 20
73.3757480128
 30
0.0
 10
147.2868224054
 20
74.8435601394
 30
0.0
 10
146.8152758661
 20
75.7277753033
 30
0.0
 10
146.5252288431
 20
76.126909152
 30
0.0
  0
SPLINE
  5
2D4
100
AcDbEntity
  8
0
100
AcDbSpline
 62
7
  6
CONTINUOUS
 70
0
 71
3
 72
9
 73
5
 74
0
 42
0.0000001
 43
0.0000001
 44
0.0000000001
 40
0.0
 40
0.0
 40
0.0
 40
0.0
 40
0.4999177192
 40
1.0
 40
1.0
 40
1.0
 40
1.0
 10
146.5252288431
 20
76.126909152
 30
0.0
 10
146.0645260317
 20
76.760882514
 30
0.0
 10
144.8435732835
 20
77.8352323665
 30
0.0
 10
143.2832076522
 20
78.2835983284
 30
0.0
 10
142.5010622051
 20
78.3367228205
 30
0.0
  0
SPLINE
  5
2D5
100
AcDbEntity
  8
0
100
AcDbSpline
 62
7
  6
CONTINUOUS
 70
0
 71
3
 72
15
 73
11
 74
0
 42
0.0000001
 43
0.0000001
 44
0.0000000001
 40
0.0
 40
0.0
 40
0.0
 40
0.0
 40
0.1249285806
 40
0.2498850996
 40
0.3748672819
 40
0.499867615
 40
0.6248795303
 40
0.749905468
 40
0.8749476052
 40
1.0
 40
1.0
 40
1.0
 40
1.0
 10
141.8210623951
 20
361.9100602259
 30
0.0
 10
142.3048245625
 20
362.0040502968
 30
0.0
 10
143.3103882676
 20
362.0332018283
 30
0.0
 10
144.7501075425
 20
361.6053359522
 30
0.0
 10
145.9920200165
 20
360.7595760631
 30
0.0
 10
146.9242637655
 20
359.5824933287
 30
0.0
 10
147.4712359223
 20
358.1848399015
 30
0.0
 10
147.593213386
 20
356.6892895432
 30
0.0
 10
147.2875720602
 20
355.2216396702
 30
0.0
 10
146.8165183268
 20
354.3373849065
 30
0.0
 10
146.5267168581
 20
353.9381898379
 30
0.0
  0
SPLINE
  5
2D6
100
AcDbEntity
  8
0
100
AcDbSpline
 62
7
  6
CONTINUOUS
 70
0
 71
3
 72
9
 73
5
 74
0
 42
0.0000001
 43
0.0000001
 44
0.0000000001
 40
0.0
 40
0.0
 40
0.0
 40
0.0
 40
0.4999174322
 40
1.0
 40
1.0
 40
1.0
 40
1.0
 10
146.5267168581
 20
353.9381898379
 30
0.0
 10
146.0660816096
 20
353.3036750427
 30
0.0
 10
144.8448468604
 20
352.228296794
 30
0.0
 10
143.2836846392
 20
351.7794954297
 30
0.0
 10
142.5011414878
 20
351.7263324251
 30
0.0
  0
SPLINE
  5
2D7
100
AcDbEntity
  8
0
100
AcDbSpline
 62
7
  6
CONTINUOUS
 70
0
 71
3
 72
18
 73
14
 74
0
 42
0.0000001
 43
0.0000001
 44
0.0000000001
 40
0.0
 40
0.0
 40
0.0
 40
0.0
 40
0.062671235
 40
0.1253487408
 40
0.1880361571
 40
0.2507270119
 40
0.375365046
 40
0.5000694253
 40
0.5627803571
 40
0.6254954272
 40
0.7502966501
 40
0.875133924
 40
1.0
 40
1.0
 40
1.0
 40
1.0
 10
153.5927793772
 20
334.25914734
 30
0.0
 10
153.7139973911
 20
334.5741057138
 30
0.0
 10
154.0373861638
 20
335.1758560822
 30
0.0
 10
154.7226649249
 20
335.9336001946
 30
0.0
 10
155.5665717247
 20
336.5105043897
 30
0.0
 10
156.8306337056
 20
337.0019521445
 30
0.0
 10
158.5688873588
 20
337.0637243963
 30
0.0
 10
160.1663833366
 20
336.3884442618
 30
0.0
 10
161.1924211026
 20
335.5030480145
 30
0.0
 10
162.0171556961
 20
334.4269519626
 30
0.0
 10
162.6095157696
 20
332.7995095711
 30
0.0
 10
162.5091308918
 20
330.7356076601
 30
0.0
 10
161.9217422074
 20
329.4823319225
 30
0.0
 10
161.5267263473
 20
328.938202912
 30
0.0
  0
SPLINE
  5
2D8
100
AcDbEntity
  8
0
100
AcDbSpline
 62
7
  6
CONTINUOUS
 70
0
 71
3
 72
9
 73
5
 74
0
 42
0.0000001
 43
0.0000001
 44
0.0000000001
 40
0.0
 40
0.0
 40
0.0
 40
0.0
 40
0.4999174324
 40
1.0
 40
1.0
 40
1.0
 40
1.0
 10
161.5267263473
 20
328.938202912
 30
0.0
 10
161.0660937149
 20
328.3036876842
 30
0.0
 10
159.844864543
 20
327.2283070717
 30
0.0
 10
158.2837066078
 20
326.7795002925
 30
0.0
 10
157.5011648692
 20
326.7263340136
 30
0.0
  0
SPLINE
  5
2D9
100
AcDbEntity
  8
0
100
AcDbSpline
 62
7
  6
CONTINUOUS
 70
0
 71
3
 72
18
 73
14
 74
0
 42
0.0000001
 43
0.0000001
 44
0.0000000001
 40
0.0
 40
0.0
 40
0.0
 40
0.0
 40
0.0626709753
 40
0.1253485456
 40
0.1880361091
 40
0.2507268252
 40
0.3753649871
 40
0.5000694134
 40
0.5627802729
 40
0.6254951666
 40
0.7502964758
 40
0.8751336882
 40
1.0
 40
1.0
 40
1.0
 40
1.0
 10
153.5966255149
 20
95.7939495188
 30
0.0
 10
153.7186167863
 20
95.4794691031
 30
0.0
 10
154.0433482668
 20
94.8788401767
 30
0.0
 10
154.7300585417
 20
94.1230900882
 30
0.0
 10
155.5747704333
 20
93.5482826404
 30
0.0
 10
156.8391815559
 20
93.0596116594
 30
0.0
 10
158.5766050254
 20
93.0009323086
 30
0.0
 10
160.172255572
 20
93.6782243731
 30
0.0
 10
161.1966215424
 20
94.5645204568
 30
0.0
 10
162.0196757491
 20
95.6410503267
 30
0.0
 10
162.6100757431
 20
97.2682413058
 30
0.0
 10
162.5081075461
 20
99.3309949827
 30
0.0
 10
161.9202902673
 20
100.5832744467
 30
0.0
 10
161.5252028531
 20
101.1269449246
 30
0.0
  0
SPLINE
  5
2DA
100
AcDbEntity
  8
0
100
AcDbSpline
 62
7
  6
CONTINUOUS
 70
0
 71
3
 72
9
 73
5
 74
0
 42
0.0000001
 43
0.0000001
 44
0.0000000001
 40
0.0
 40
0.0
 40
0.0
 40
0.0
 40
0.4999177261
 40
1.0
 40
1.0
 40
1.0
 40
1.0
 10
161.5252028531
 20
101.1269449246
 30
0.0
 10
161.0645009883
 20
101.7609059013
 30
0.0
 10
159.8435603281
 20
102.8352337267
 30
0.0
 10
158.2832176997
 20
103.2835946474
 30
0.0
 10
157.5010830319
 20
103.3367214061
 30
0.0
  0
SPLINE
  5
2DB
100
AcDbEntity
  8
0
100
AcDbSpline
 62
7
  6
CONTINUOUS
 70
0
 71
3
 72
10
 73
6
 74
0
 42
0.0000001
 43
0.0000001
 44
0.0000000001
 40
0.0
 40
0.0
 40
0.0
 40
0.0
 40
0.3243598579
 40
0.6289262313
 40
1.0
 40
1.0
 40
1.0
 40
1.0
 10
175.5387926364
 20
212.1727528886
 30
0.0
 10
175.5976074438
 20
212.1740546557
 30
0.0
 10
175.7137940737
 20
212.1652539048
 30
0.0
 10
175.8835888781
 20
212.1333197216
 30
0.0
 10
176.0162506683
 20
212.0489273077
 30
0.0
 10
176.0205387065
 20
211.9817623268
 30
0.0
  0
SPLINE
  5
2DC
100
AcDbEntity
  8
0
100
AcDbSpline
 62
7
  6
CONTINUOUS
 70
0
 71
3
 72
9
 73
5
 74
0
 42
0.0000001
 43
0.0000001
 44
0.0000000001
 40
0.0
 40
0.0
 40
0.0
 40
0.0
 40
0.4938716221
 40
1.0
 40
1.0
 40
1.0
 40
1.0
 10
175.5213690162
 20
223.2815249259
 30
0.0
 10
175.6452333379
 20
223.2815179885
 30
0.0
 10
175.9054487604
 20
223.1706762812
 30
0.0
 10
176.0043058012
 20
222.9084632756
 30
0.0
 10
176.0043058012
 20
222.7815249267
 30
0.0
  0
SPLINE
  5
2DD
100
AcDbEntity
  8
0
100
AcDbSpline
 62
7
  6
CONTINUOUS
 70
0
 71
3
 72
9
 73
5
 74
0
 42
0.0000001
 43
0.0000001
 44
0.0000000001
 40
0.0
 40
0.0
 40
0.0
 40
0.0
 40
0.5881761409
 40
1.0
 40
1.0
 40
1.0
 40
1.0
 10
175.5387926364
 20
217.8902969648
 30
0.0
 10
175.6404546643
 20
217.9023864641
 30
0.0
 10
175.8072998347
 20
217.9427729632
 30
0.0
 10
175.9708838533
 20
218.0392267257
 30
0.0
 10
176.0043058012
 20
218.1026406927
 30
0.0
  0
SPLINE
  5
2DE
100
AcDbEntity
  8
0
100
AcDbSpline
 62
7
  6
CONTINUOUS
 70
0
 71
3
 72
9
 73
5
 74
0
 42
0.0000001
 43
0.0000001
 44
0.0000000001
 40
0.0
 40
0.0
 40
0.0
 40
0.0
 40
0.4118238591
 40
1.0
 40
1.0
 40
1.0
 40
1.0
 10
176.0043058012
 20
211.9604091607
 30
0.0
 10
175.9708838532
 20
212.0238231277
 30
0.0
 10
175.8072998347
 20
212.1202768901
 30
0.0
 10
175.6404546643
 20
212.1606633892
 30
0.0
 10
175.5387926364
 20
212.1727528885
 30
0.0
  0
SPLINE
  5
2DF
100
AcDbEntity
  8
0
100
AcDbSpline
 62
7
  6
CONTINUOUS
 70
0
 71
3
 72
9
 73
5
 74
0
 42
0.0000001
 43
0.0000001
 44
0.0000000001
 40
0.0
 40
0.0
 40
0.0
 40
0.0
 40
0.5061289809
 40
1.0
 40
1.0
 40
1.0
 40
1.0
 10
176.0043058012
 20
207.2815308946
 30
0.0
 10
176.004306533
 20
207.1545873979
 30
0.0
 10
175.905444991
 20
206.8923617676
 30
0.0
 10
175.6452119344
 20
206.7815249267
 30
0.0
 10
175.5213428882
 20
206.7815249267
 30
0.0
  0
SPLINE
  5
2E0
100
AcDbEntity
  8
0
100
AcDbSpline
 62
7
  6
CONTINUOUS
 70
0
 71
3
 72
15
 73
11
 74
0
 42
0.0000001
 43
0.0000001
 44
0.0000000001
 40
0.0
 40
0.0
 40
0.0
 40
0.0
 40
0.1979548869
 40
0.3780074099
 40
0.5369311088
 40
0.6726837168
 40
0.7842406521
 40
0.8723547331
 40
0.9410077268
 40
1.0
 40
1.0
 40
1.0
 40
1.0
 10
176.0043058012
 20
211.9604091608
 30
0.0
 10
175.9647270305
 20
211.6490105462
 30
0.0
 10
175.8752615077
 20
211.0559965835
 30
0.0
 10
175.7021866884
 20
210.2218411195
 30
0.0
 10
175.4995069989
 20
209.496070367
 30
0.0
 10
175.2726957964
 20
208.8920823134
 30
0.0
 10
175.0262128527
 20
208.4184480312
 30
0.0
 10
174.7630806119
 20
208.0803740447
 30
0.0
 10
174.4758987279
 20
207.8775752957
 30
0.0
 10
174.2626352512
 20
207.8572618292
 30
0.0
 10
174.1707587315
 20
207.8748563681
 30
0.0
  0
SPLINE
  5
2E1
100
AcDbEntity
  8
0
100
AcDbSpline
 62
7
  6
CONTINUOUS
 70
0
 71
3
 72
9
 73
5
 74
0
 42
0.0000001
 43
0.0000001
 44
0.0000000001
 40
0.0
 40
0.0
 40
0.0
 40
0.0
 40
0.2070894843
 40
1.0
 40
1.0
 40
1.0
 40
1.0
 10
174.1707587315
 20
207.8748563681
 30
0.0
 10
174.1178071506
 20
207.8849967028
 30
0.0
 10
173.8691042777
 20
207.9739934513
 30
0.0
 10
173.6880132198
 20
208.1860556963
 30
0.0
 10
173.5711823577
 20
208.3562395673
 30
0.0
  0
SPLINE
  5
2E2
100
AcDbEntity
  8
0
100
AcDbSpline
 62
7
  6
CONTINUOUS
 70
0
 71
3
 72
9
 73
5
 74
0
 42
0.0000001
 43
0.0000001
 44
0.0000000001
 40
0.0
 40
0.0
 40
0.0
 40
0.0
 40
0.2377591699
 40
1.0
 40
1.0
 40
1.0
 40
1.0
 10
173.5711823577
 20
208.3562395673
 30
0.0
 10
173.5583697845
 20
208.3749032429
 30
0.0
 10
173.505638018
 20
208.454194492
 30
0.0
 10
173.4573294985
 20
208.5363861251
 30
0.0
 10
173.4225525439
 20
208.6000885611
 30
0.0
  0
SPLINE
  5
2E3
100
AcDbEntity
  8
0
100
AcDbSpline
 62
7
  6
CONTINUOUS
 70
0
 71
3
 72
9
 73
5
 74
0
 42
0.0000001
 43
0.0000001
 44
0.0000000001
 40
0.0
 40
0.0
 40
0.0
 40
0.0
 40
0.2157634458
 40
1.0
 40
1.0
 40
1.0
 40
1.0
 10
173.4225525439
 20
208.6000885611
 30
0.0
 10
173.3762993164
 20
208.6848125769
 30
0.0
 10
173.1787361382
 20
209.0866631409
 30
0.0
 10
173.0370553005
 20
209.5137629148
 30
0.0
 10
172.9423505943
 20
209.8515876452
 30
0.0
  0
SPLINE
  5
2E4
100
AcDbEntity
  8
0
100
AcDbSpline
 62
7
  6
CONTINUOUS
 70
0
 71
3
 72
9
 73
5
 74
0
 42
0.0000001
 43
0.0000001
 44
0.0000000001
 40
0.0
 40
0.0
 40
0.0
 40
0.0
 40
0.2371531452
 40
1.0
 40
1.0
 40
1.0
 40
1.0
 10
172.9423505943
 20
209.8515876452
 30
0.0
 10
172.9229190025
 20
209.9209028094
 30
0.0
 10
172.8441806224
 20
210.2140775296
 30
0.0
 10
172.777554173
 20
210.5104433769
 30
0.0
 10
172.7321005509
 20
210.7374990517
 30
0.0
  0
SPLINE
  5
2E5
100
AcDbEntity
  8
0
100
AcDbSpline
 62
7
  6
CONTINUOUS
 70
0
 71
3
 72
9
 73
5
 74
0
 42
0.0000001
 43
0.0000001
 44
0.0000000001
 40
0.0
 40
0.0
 40
0.0
 40
0.0
 40
0.2335686646
 40
1.0
 40
1.0
 40
1.0
 40
1.0
 10
172.6358152552
 20
211.2659118321
 30
0.0
 10
172.5907383589
 20
211.5385209869
 30
0.0
 10
172.4255966079
 20
212.7102085528
 30
0.0
 10
172.3579207997
 20
213.8947190819
 30
0.0
 10
172.3500735407
 20
214.8013704567
 30
0.0
  0
SPLINE
  5
2E6
100
AcDbEntity
  8
0
100
AcDbSpline
 62
7
  6
CONTINUOUS
 70
0
 71
3
 72
9
 73
5
 74
0
 42
0.0000001
 43
0.0000001
 44
0.0000000001
 40
0.0
 40
0.0
 40
0.0
 40
0.0
 40
0.2595277191
 40
1.0
 40
1.0
 40
1.0
 40
1.0
 10
172.3517043056
 20
215.4053286095
 30
0.0
 10
172.3552827776
 20
215.660029225
 30
0.0
 10
172.3831953713
 20
216.6411107138
 30
0.0
 10
172.4658648505
 20
217.6211712937
 30
0.0
 10
172.5663721229
 20
218.3409595637
 30
0.0
  0
SPLINE
  5
2E7
100
AcDbEntity
  8
0
100
AcDbSpline
 62
7
  6
CONTINUOUS
 70
0
 71
3
 72
9
 73
5
 74
0
 42
0.0000001
 43
0.0000001
 44
0.0000000001
 40
0.0
 40
0.0
 40
0.0
 40
0.0
 40
0.2647306258
 40
1.0
 40
1.0
 40
1.0
 40
1.0
 10
172.6758726848
 20
219.0293425222
 30
0.0
 10
172.6939325798
 20
219.1297585898
 30
0.0
 10
172.76575145
 20
219.5083976194
 30
0.0
 10
172.8524553
 20
219.884356825
 30
0.0
 10
172.9274229416
 20
220.1576332577
 30
0.0
  0
SPLINE
  5
2E8
100
AcDbEntity
  8
0
100
AcDbSpline
 62
7
  6
CONTINUOUS
 70
0
 71
3
 72
9
 73
5
 74
0
 42
0.0000001
 43
0.0000001
 44
0.0000000001
 40
0.0
 40
0.0
 40
0.0
 40
0.0
 40
0.2691402722
 40
1.0
 40
1.0
 40
1.0
 40
1.0
 10
172.9274229416
 20
220.1576332577
 30
0.0
 10
172.9489505872
 20
220.236107091
 30
0.0
 10
173.0324677051
 20
220.5266636405
 30
0.0
 10
173.1304350558
 20
220.8133320678
 30
0.0
 10
173.2137951662
 20
221.0179768514
 30
0.0
  0
SPLINE
  5
2E9
100
AcDbEntity
  8
0
100
AcDbSpline
 62
7
  6
CONTINUOUS
 70
0
 71
3
 72
9
 73
5
 74
0
 42
0.0000001
 43
0.0000001
 44
0.0000000001
 40
0.0
 40
0.0
 40
0.0
 40
0.0
 40
0.2603274777
 40
1.0
 40
1.0
 40
1.0
 40
1.0
 10
173.2137951662
 20
221.0179768514
 30
0.0
 10
173.224745395
 20
221.0448591
 30
0.0
 10
173.2676166634
 20
221.1477889911
 30
0.0
 10
173.3138258362
 20
221.2493465908
 30
0.0
 10
173.3502415619
 20
221.3233463681
 30
0.0
  0
SPLINE
  5
2EA
100
AcDbEntity
  8
0
100
AcDbSpline
 62
7
  6
CONTINUOUS
 70
0
 71
3
 72
9
 73
5
 74
0
 42
0.0000001
 43
0.0000001
 44
0.0000000001
 40
0.0
 40
0.0
 40
0.0
 40
0.0
 40
0.2665729074
 40
1.0
 40
1.0
 40
1.0
 40
1.0
 10
173.3502415619
 20
221.3233463681
 30
0.0
 10
173.3663196975
 20
221.3560184743
 30
0.0
 10
173.4282868091
 20
221.4777444729
 30
0.0
 10
173.4971491312
 20
221.5960892195
 30
0.0
 10
173.5526937401
 20
221.6794684028
 30
0.0
  0
SPLINE
  5
2EB
100
AcDbEntity
  8
0
100
AcDbSpline
 62
7
  6
CONTINUOUS
 70
0
 71
3
 72
16
 73
12
 74
0
 42
0.0000001
 43
0.0000001
 44
0.0000000001
 40
0.0
 40
0.0
 40
0.0
 40
0.0
 40
0.0925374686
 40
0.16112198
 40
0.2285932225
 40
0.270141507
 40
0.3190249041
 40
0.4414973201
 40
0.5978194379
 40
0.7856448837
 40
1.0
 40
1.0
 40
1.0
 40
1.0
 10
173.5526937401
 20
221.6794684028
 30
0.0
 10
173.6479192955
 20
221.8224134917
 30
0.0
 10
173.8349237021
 20
222.0620397696
 30
0.0
 10
174.250659069
 20
222.2494797028
 30
0.0
 10
174.5848145651
 20
222.1230124622
 30
0.0
 10
174.8020767273
 20
221.9263716686
 30
0.0
 10
175.0484376645
 20
221.6148019573
 30
0.0
 10
175.3238352894
 20
221.0675374347
 30
0.0
 10
175.6028798303
 20
220.2463690049
 30
0.0
 10
175.8382847805
 20
219.2353410099
 30
0.0
 10
175.9541406776
 20
218.4973308179
 30
0.0
 10
176.0043058012
 20
218.1026406926
 30
0.0
  0
SPLINE
  5
2EC
100
AcDbEntity
  8
0
100
AcDbSpline
 62
7
  6
CONTINUOUS
 70
0
 71
3
 72
9
 73
5
 74
0
 42
0.0000001
 43
0.0000001
 44
0.0000000001
 40
0.0
 40
0.0
 40
0.0
 40
0.0
 40
0.423176432
 40
1.0
 40
1.0
 40
1.0
 40
1.0
 10
174.2513646356
 20
222.7815070472
 30
0.0
 10
174.108314585
 20
222.7815079108
 30
0.0
 10
173.7748827572
 20
222.6334842319
 30
0.0
 10
173.5661974863
 20
222.3599434425
 30
0.0
 10
173.4598823368
 20
222.1964879472
 30
0.0
  0
SPLINE
  5
2ED
100
AcDbEntity
  8
0
100
AcDbSpline
 62
7
  6
CONTINUOUS
 70
0
 71
3
 72
9
 73
5
 74
0
 42
0.0000001
 43
0.0000001
 44
0.0000000001
 40
0.0
 40
0.0
 40
0.0
 40
0.0
 40
0.2305557864
 40
1.0
 40
1.0
 40
1.0
 40
1.0
 10
173.4598823368
 20
222.1964879472
 30
0.0
 10
173.4366716503
 20
222.1608024003
 30
0.0
 10
173.3396849134
 20
222.0036245941
 30
0.0
 10
173.2562294222
 20
221.8383652019
 30
0.0
 10
173.1974142416
 20
221.7090409511
 30
0.0
  0
SPLINE
  5
2EE
100
AcDbEntity
  8
0
100
AcDbSpline
 62
7
  6
CONTINUOUS
 70
0
 71
3
 72
9
 73
5
 74
0
 42
0.0000001
 43
0.0000001
 44
0.0000000001
 40
0.0
 40
0.0
 40
0.0
 40
0.0
 40
0.2191271791
 40
1.0
 40
1.0
 40
1.0
 40
1.0
 10
173.1974142416
 20
221.7090409511
 30
0.0
 10
173.1491248882
 20
221.6028611451
 30
0.0
 10
172.9456312995
 20
221.1106266479
 30
0.0
 10
172.798878025
 20
220.5965794307
 30
0.0
 10
172.7022838729
 20
220.1922877439
 30
0.0
  0
SPLINE
  5
2EF
100
AcDbEntity
  8
0
100
AcDbSpline
 62
7
  6
CONTINUOUS
 70
0
 71
3
 72
9
 73
5
 74
0
 42
0.0000001
 43
0.0000001
 44
0.0000000001
 40
0.0
 40
0.0
 40
0.0
 40
0.0
 40
0.4657096099
 40
1.0
 40
1.0
 40
1.0
 40
1.0
 10
172.7022838729
 20
220.1922877439
 30
0.0
 10
172.5148498091
 20
219.4077885561
 30
0.0
 10
172.2559759748
 20
217.6894096537
 30
0.0
 10
172.1747596695
 20
215.9568819973
 30
0.0
 10
172.1747596695
 20
215.0315249267
 30
0.0
  0
SPLINE
  5
2F0
100
AcDbEntity
  8
0
100
AcDbSpline
 62
7
  6
CONTINUOUS
 70
0
 71
3
 72
9
 73
5
 74
0
 42
0.0000001
 43
0.0000001
 44
0.0000000001
 40
0.0
 40
0.0
 40
0.0
 40
0.0
 40
0.534288233
 40
1.0
 40
1.0
 40
1.0
 40
1.0
 10
172.1747597186
 20
215.0315249267
 30
0.0
 10
172.1747597186
 20
214.1061951538
 30
0.0
 10
172.255971646
 20
212.3737115765
 30
0.0
 10
172.5148308906
 20
210.6553758359
 30
0.0
 10
172.7022531255
 20
209.8708910965
 30
0.0
  0
SPLINE
  5
2F1
100
AcDbEntity
  8
0
100
AcDbSpline
 62
7
  6
CONTINUOUS
 70
0
 71
3
 72
9
 73
5
 74
0
 42
0.0000001
 43
0.0000001
 44
0.0000000001
 40
0.0
 40
0.0
 40
0.0
 40
0.0
 40
0.2804821362
 40
1.0
 40
1.0
 40
1.0
 40
1.0
 10
172.7022531255
 20
209.8708910965
 30
0.0
 10
172.7369318006
 20
209.7257381409
 30
0.0
 10
172.8695817914
 20
209.2106882792
 30
0.0
 10
173.0386993837
 20
208.7031152804
 30
0.0
 10
173.1971441751
 20
208.3546030701
 30
0.0
  0
SPLINE
  5
2F2
100
AcDbEntity
  8
0
100
AcDbSpline
 62
7
  6
CONTINUOUS
 70
0
 71
3
 72
9
 73
5
 74
0
 42
0.0000001
 43
0.0000001
 44
0.0000000001
 40
0.0
 40
0.0
 40
0.0
 40
0.0
 40
0.269711282
 40
1.0
 40
1.0
 40
1.0
 40
1.0
 10
173.1971441751
 20
208.3546030701
 30
0.0
 10
173.2178139236
 20
208.3091382765
 30
0.0
 10
173.2969632781
 20
208.1417619946
 30
0.0
 10
173.3866406516
 20
207.9790791036
 30
0.0
 10
173.4604133182
 20
207.8657460904
 30
0.0
  0
SPLINE
  5
2F3
100
AcDbEntity
  8
0
100
AcDbSpline
 62
7
  6
CONTINUOUS
 70
0
 71
3
 72
9
 73
5
 74
0
 42
0.0000001
 43
0.0000001
 44
0.0000000001
 40
0.0
 40
0.0
 40
0.0
 40
0.0
 40
0.5767546053
 40
1.0
 40
1.0
 40
1.0
 40
1.0
 10
173.4604133182
 20
207.8657460904
 30
0.0
 10
173.5666744093
 20
207.7025028437
 30
0.0
 10
173.7752853304
 20
207.4293069492
 30
0.0
 10
174.108425
 20
207.2815425135
 30
0.0
 10
174.2513632819
 20
207.2815430268
 30
0.0
  0
SPLINE
  5
2F4
100
AcDbEntity
  8
0
100
AcDbSpline
 62
7
  6
CONTINUOUS
 70
0
 71
3
 72
9
 73
5
 74
0
 42
0.0000001
 43
0.0000001
 44
0.0000000001
 40
0.0
 40
0.0
 40
0.0
 40
0.0
 40
0.4938719088
 40
1.0
 40
1.0
 40
1.0
 40
1.0
 10
173.7683990133
 20
206.7815249267
 30
0.0
 10
173.8922603239
 20
206.7815249267
 30
0.0
 10
174.1524151885
 20
206.8924467703
 30
0.0
 10
174.2513631969
 20
207.1545957772
 30
0.0
 10
174.2513619265
 20
207.2815308946
 30
0.0
  0
SPLINE
  5
2F5
100
AcDbEntity
  8
0
100
AcDbSpline
 62
7
  6
CONTINUOUS
 70
0
 71
3
 72
11
 73
7
 74
0
 42
0.0000001
 43
0.0000001
 44
0.0000000001
 40
0.0
 40
0.0
 40
0.0
 40
0.0
 40
0.1710604456
 40
0.3827125382
 40
0.6563763981
 40
1.0
 40
1.0
 40
1.0
 40
1.0
 10
173.7684032713
 20
206.7815249267
 30
0.0
 10
173.6685844394
 20
206.7815249693
 30
0.0
 10
173.4446864546
 20
206.8528605886
 30
0.0
 10
173.1594625495
 20
207.1179091561
 30
0.0
 10
172.8915329197
 20
207.5235651329
 30
0.0
 10
172.741530952
 20
207.852346349
 30
0.0
 10
172.6667148805
 20
208.038380314
 30
0.0
  0
SPLINE
  5
2F6
100
AcDbEntity
  8
0
100
AcDbSpline
 62
7
  6
CONTINUOUS
 70
0
 71
3
 72
10
 73
6
 74
0
 42
0.0000001
 43
0.0000001
 44
0.0000000001
 40
0.0
 40
0.0
 40
0.0
 40
0.0
 40
0.1919673514
 40
0.4315603872
 40
1.0
 40
1.0
 40
1.0
 40
1.0
 10
172.6667148805
 20
208.038380314
 30
0.0
 10
172.4974174126
 20
208.4593470741
 30
0.0
 10
172.2131087536
 20
209.443617099
 30
0.0
 10
171.799387274
 20
211.7722002817
 30
0.0
 10
171.6917965143
 20
213.6879608164
 30
0.0
 10
171.6917965143
 20
215.0315249271
 30
0.0
  0
SPLINE
  5
2F7
100
AcDbEntity
  8
0
100
AcDbSpline
 62
7
  6
CONTINUOUS
 70
0
 71
3
 72
9
 73
5
 74
0
 42
0.0000001
 43
0.0000001
 44
0.0000000001
 40
0.0
 40
0.0
 40
0.0
 40
0.0
 40
0.2546637017
 40
1.0
 40
1.0
 40
1.0
 40
1.0
 10
171.6917987599
 20
215.0315249271
 30
0.0
 10
171.6917987599
 20
215.2673900101
 30
0.0
 10
171.7020322492
 20
216.1935272842
 30
0.0
 10
171.7512458488
 20
217.1193675475
 30
0.0
 10
171.8129257948
 20
217.8069239627
 30
0.0
  0
LINE
  5
2F8
100
AcDbEntity
  8
0
100
AcDbLine
 62
7
  6
CONTINUOUS
 10
171.81292089
 20
217.8069243536
 11
171.8177649223
 21
217.860338969
  0
SPLINE
  5
2F9
100
AcDbEntity
  8
0
100
AcDbSpline
 62
7
  6
CONTINUOUS
 70
0
 71
3
 72
9
 73
5
 74
0
 42
0.0000001
 43
0.0000001
 44
0.0000000001
 40
0.0
 40
0.0
 40
0.0
 40
0.0
 40
0.5061316095
 40
1.0
 40
1.0
 40
1.0
 40
1.0
 10
174.2513619265
 20
222.7815249267
 30
0.0
 10
174.2513619265
 20
222.9084559355
 30
0.0
 10
174.1524180922
 20
223.1705921066
 30
0.0
 10
173.8922806996
 20
223.2815189036
 30
0.0
 10
173.7684251415
 20
223.281524926
 30
0.0
  0
LINE
  5
2FA
100
AcDbEntity
  8
0
100
AcDbLine
 62
7
  6
CONTINUOUS
 10
171.8177644483
 20
217.8603390074
 11
171.8219511376
 21
217.9055982414
  0
SPLINE
  5
2FB
100
AcDbEntity
  8
0
100
AcDbSpline
 62
7
  6
CONTINUOUS
 70
0
 71
3
 72
9
 73
5
 74
0
 42
0.0000001
 43
0.0000001
 44
0.0000000001
 40
0.0
 40
0.0
 40
0.0
 40
0.0
 40
0.5661804186
 40
1.0
 40
1.0
 40
1.0
 40
1.0
 10
171.8219539493
 20
217.9055980103
 30
0.0
 10
171.8975464735
 20
218.7154367362
 30
0.0
 10
172.0939507668
 20
220.1392843058
 30
0.0
 10
172.4613385297
 20
221.5390776183
 30
0.0
 10
172.7032394465
 20
222.113428213
 30
0.0
  0
SPLINE
  5
2FC
100
AcDbEntity
  8
0
100
AcDbSpline
 62
7
  6
CONTINUOUS
 70
0
 71
3
 72
11
 73
7
 74
0
 42
0.0000001
 43
0.0000001
 44
0.0000000001
 40
0.0
 40
0.0
 40
0.0
 40
0.0
 40
0.34088921
 40
0.613457946
 40
0.8261170538
 40
1.0
 40
1.0
 40
1.0
 40
1.0
 10
172.7032394465
 20
222.113428213
 30
0.0
 10
172.7762389494
 20
222.2867525162
 30
0.0
 10
172.9224913407
 20
222.5932180232
 30
0.0
 10
173.1823325765
 20
222.9705853071
 30
0.0
 10
173.4584349141
 20
223.2163271839
 30
0.0
 10
173.6724712025
 20
223.2815249101
 30
0.0
 10
173.7684030366
 20
223.2815249267
 30
0.0
  0
SPLINE
  5
2FD
100
AcDbEntity
  8
0
100
AcDbSpline
 62
7
  6
CONTINUOUS
 70
0
 71
3
 72
14
 73
10
 74
0
 42
0.0000001
 43
0.0000001
 44
0.0000000001
 40
0.0
 40
0.0
 40
0.0
 40
0.0
 40
0.0623109412
 40
0.1357571825
 40
0.2275894072
 40
0.340899535
 40
0.4761860907
 40
0.6325565902
 40
1.0
 40
1.0
 40
1.0
 40
1.0
 10
173.7858502023
 20
208.3654258553
 30
0.0
 10
173.8774956746
 20
208.3622236297
 30
0.0
 10
174.0806350498
 20
208.4094170612
 30
0.0
 10
174.3507762558
 20
208.617562833
 30
0.0
 10
174.6030427979
 20
208.9440415736
 30
0.0
 10
174.8386295883
 20
209.3880736874
 30
0.0
 10
175.0554518926
 20
209.944223998
 30
0.0
 10
175.3279439789
 20
210.876023378
 30
0.0
 10
175.4656264324
 20
211.6369691292
 30
0.0
 10
175.5387930451
 20
212.1727533566
 30
0.0
  0
SPLINE
  5
2FE
100
AcDbEntity
  8
0
100
AcDbSpline
 62
7
  6
CONTINUOUS
 70
0
 71
3
 72
10
 73
6
 74
0
 42
0.0000001
 43
0.0000001
 44
0.0000000001
 40
0.0
 40
0.0
 40
0.0
 40
0.0
 40
0.3725000981
 40
0.6767057076
 40
1.0
 40
1.0
 40
1.0
 40
1.0
 10
176.0202907404
 20
218.079347228
 30
0.0
 10
176.014281787
 20
218.0122637175
 30
0.0
 10
175.8823378363
 20
217.9295570944
 30
0.0
 10
175.7127254356
 20
217.8976912164
 30
0.0
 10
175.5972334716
 20
217.8890034738
 30
0.0
 10
175.5387926364
 20
217.8902969647
 30
0.0
  0
SPLINE
  5
2FF
100
AcDbEntity
  8
0
100
AcDbSpline
 62
7
  6
CONTINUOUS
 70
0
 71
3
 72
9
 73
5
 74
0
 42
0.0000001
 43
0.0000001
 44
0.0000000001
 40
0.0
 40
0.0
 40
0.0
 40
0.0
 40
0.257548681
 40
1.0
 40
1.0
 40
1.0
 40
1.0
 10
175.4730675545
 20
215.0315247653
 30
0.0
 10
175.4730675539
 20
215.2770266531
 30
0.0
 10
175.4786148914
 20
216.2302336535
 30
0.0
 10
175.5046059003
 20
217.1834001238
 30
0.0
 10
175.5388036814
 20
217.8902967002
 30
0.0
  0
SPLINE
  5
300
100
AcDbEntity
  8
0
100
AcDbSpline
 62
7
  6
CONTINUOUS
 70
0
 71
3
 72
14
 73
10
 74
0
 42
0.0000001
 43
0.0000001
 44
0.0000000001
 40
0.0
 40
0.0
 40
0.0
 40
0.0
 40
0.37323046
 40
0.5306346903
 40
0.6655705109
 40
0.7771883916
 40
0.8664685666
 40
0.937582773
 40
1.0
 40
1.0
 40
1.0
 40
1.0
 10
175.5387930451
 20
217.8902964967
 30
0.0
 10
175.4630886103
 20
218.4446646794
 30
0.0
 10
175.3200809021
 20
219.229977037
 30
0.0
 10
175.0329595126
 20
220.1865506417
 30
0.0
 10
174.8053693472
 20
220.7489401478
 30
0.0
 10
174.5578114131
 20
221.1896366769
 30
0.0
 10
174.2928560774
 20
221.5038618547
 30
0.0
 10
174.0044828283
 20
221.6890103715
 30
0.0
 10
173.7946770411
 20
221.7055144926
 30
0.0
 10
173.7026720011
 20
221.6884713713
 30
0.0
  0
SPLINE
  5
301
100
AcDbEntity
  8
0
100
AcDbSpline
 62
7
  6
CONTINUOUS
 70
0
 71
3
 72
9
 73
5
 74
0
 42
0.0000001
 43
0.0000001
 44
0.0000000001
 40
0.0
 40
0.0
 40
0.0
 40
0.0
 40
0.2393936425
 40
1.0
 40
1.0
 40
1.0
 40
1.0
 10
175.5388036813
 20
212.1727531531
 30
0.0
 10
175.52777703
 20
212.4006832054
 30
0.0
 10
175.4885571823
 20
213.3531207378
 30
0.0
 10
175.4730675545
 20
214.3064939879
 30
0.0
 10
175.4730675545
 20
215.0315249267
 30
0.0
  0
ELLIPSE
  5
302
100
AcDbEntity
  8
0
100
AcDbEllipse
 62
7
  6
CONTINUOUS
 10
132.3976545521
 20
196.0315249267
 30
0.0
 11
11.4300523028
 21
-0.0
 31
0.0
 40
0.0874886635
 41
-0.5903597731
 42
0.0000000001
  0
ELLIPSE
  5
303
100
AcDbEntity
  8
0
100
AcDbEllipse
 62
7
  6
CONTINUOUS
 10
132.3976545521
 20
234.0315249267
 30
0.0
 11
11.4300523028
 21
-0.0
 31
0.0
 40
0.0874886635
 41
0.0000007685
 42
0.5903597731
  0
ENDSEC
  0
SECTION
  2
OBJECTS
  0
DICTIONARY
  5
C
100
AcDbDictionary
280
0
281
1
  3
ACAD_GROUP
350
D
  3
ACAD_MLINESTYLE
350
17
  3
ACAD_LAYOUT
350
1A
  3
ACAD_PLOTSETTINGS
350
19
  3
ACAD_PLOTSTYLENAME
350
E
  0
DICTIONARY
  5
D
102
{ACAD_REACTORS
330
C
102
}
100
AcDbDictionary
280
0
281
1
  0
ACDBDICTIONARYWDFLT
  5
E
102
{ACAD_REACTORS
330
C
102
}
100
AcDbDictionary
281
1
  3
Normal
350
F
100
AcDbDictionaryWithDefault
340
F
  0
DICTIONARY
  5
17
102
{ACAD_REACTORS
330
C
102
}
100
AcDbDictionary
280
0
281
1
  3
Standard
350
18
  0
DICTIONARY
  5
19
102
{ACAD_REACTORS
330
C
102
}
100
AcDbDictionary
281
1
  0
DICTIONARY
  5
1A
102
{ACAD_REACTORS
330
C
102
}
100
AcDbDictionary
281
1
  3
Model
350
304
  3
Layout1
350
305
  0
ACDBPLACEHOLDER
  5
F
102
{ACAD_REACTORS
330
E
102
}
  0
MLINESTYLE
  5
18
102
{ACAD_REACTORS
330
17
102
}
100
AcDbMlineStyle
  2
STANDARD
 70
0
  3

 62
256
 51
90.0
 52
90.0
 71
2
 49
0.5
 62
256
  6
BYLAYER
 49
-0.5
 62
256
  6
BYLAYER
  0
LAYOUT
  5
304
102
{ACAD_REACTORS
330
1A
102
}
100
AcDbPlotSettings
  1

  2
none_device
  4

  6

 40
0.0
 41
0.0
 42
0.0
 43
0.0
 44
210.0
 45
297.0
 46
0.0
 47
0.0
 48
0.0
 49
0.0
140
0.0
141
0.0
142
1.0
143
1.0
 70
1024
 72
1
 73
0
 74
0
  7

 75
0
147
1.0
148
0.0
149
0.0
100
AcDbLayout
  1
Model
 70
0
 71
0
 10
0.0
 20
0.0
 11
210.0
 21
297.0
 12
0.0
 22
0.0
 32
0.0
 14
0.0
 24
0.0
 34
0.0
 15
0.0
 25
0.0
 35
0.0
146
0.0
 13
0.0
 23
0.0
 33
0.0
 16
1.0
 26
0.0
 36
0.0
 17
0.0
 27
1.0
 37
0.0
 76
0
330
210
345
0
346
0
  0
LAYOUT
  5
305
102
{ACAD_REACTORS
330
1A
102
}
100
AcDbPlotSettings
  1

  2
none_device
  4

  6

 40
0.0
 41
0.0
 42
0.0
 43
0.0
 44
210.0
 45
297.0
 46
0.0
 47
0.0
 48
0.0
 49
0.0
140
0.0
141
0.0
142
1.0
143
1.0
 70
0
 72
1
 73
0
 74
0
  7

 75
0
147
1.0
148
0.0
149
0.0
100
AcDbLayout
  1
Layout1
 70
0
 71
1
 10
0.0
 20
0.0
 11
210.0
 21
297.0
 12
0.0
 22
0.0
 32
0.0
 14
0.0
 24
0.0
 34
0.0
 15
0.0
 25
0.0
 35
0.0
146
0.0
 13
0.0
 23
0.0
 33
0.0
 16
1.0
 26
0.0
 36
0.0
 17
0.0
 27
1.0
 37
0.0
 76
0
330
211
345
0
346
0
  0
ENDSEC
  0
EOF
