  0
SECTION
  2
HEADER
  9
$ACADVER
  1
AC1006
  9
$EXTMIN
 10
-2.477000
 20
-4.495933
  9
$EXTMAX
 10
2.473000
 20
4.501000
  9
$LTSCALE
 40
0.000394
  9
$PDMODE
 70
    35
  9
$PDSIZE
 40
0.000315
  0
ENDSEC
  0
SECTION
  2
TABLES
  0
TABLE
  2
LTYPE
 70
     9
  0
LTYPE
  2
CONTINUOUS
 70
    64
  3
Solid line
 72
    65
 73
     0
 40
0.000000
  0
LTYPE
  2
DASHED
 70
    64
  3
__ __ __ __ __ __ __ __ __ __ __ __ __ __ __
 72
    65
 73
     2
 40
0.000003
 49
0.000002
 49
-0.000001
  0
LTYPE
  2
HIDDEN
 70
    64
  3
 _ _ _ _ _ _ _ _ _ _ _ _ _ _ _ _ _ _ _ _ _ _
 72
    65
 73
     2
 40
0.000001
 49
0.000001
 49
-0.000000
  0
LTYPE
  2
CENTER
 70
    64
  3
____ _ ____ _ ____ _ ____ _ ____ _ ____ _ ____
 72
    65
 73
     4
 40
0.000008
 49
0.000005
 49
-0.000001
 49
0.000001
 49
-0.000001
  0
LTYPE
  2
PHANTOM
 70
    64
  3
_____ _ _ _____ _ _ _____ _ _ _____ _ _ ____
 72
    65
 73
     6
 40
0.000010
 49
0.000005
 49
-0.000001
 49
0.000001
 49
-0.000001
 49
0.000001
 49
-0.000001
  0
LTYPE
  2
DOT
 70
    64
  3
...............................................
 72
    65
 73
     2
 40
0.000001
 49
0.000000
 49
-0.000001
  0
LTYPE
  2
DASHDOT
 70
    64
  3
__ . __ . __ . __ . __ . __ . __ . __ . __ . __
 72
    65
 73
     4
 40
0.000004
 49
0.000002
 49
-0.000001
 49
0.000000
 49
-0.000001
  0
LTYPE
  2
BORDER
 70
    64
  3
__ __ . __ __ . __ __ . __ __ . __ __ . __ __
 72
    65
 73
     6
 40
0.000007
 49
0.000002
 49
-0.000001
 49
0.000002
 49
-0.000001
 49
0.000000
 49
-0.000001
  0
LTYPE
  2
DIVIDE
 70
    64
  3
__ . . __ . . __ . . __ . . __ . . __ . . __
 72
    65
 73
     6
 40
0.000005
 49
0.000002
 49
-0.000001
 49
0.000000
 49
-0.000001
 49
0.000000
 49
-0.000001
  0
LTYPE
  2
DOTDOT
 70
    64
  3
 . .  . .  . .  . .  . .  . . 
 72
    65
 73
     5
 40
0.000002
 49
-0.000001
 49
0.000000
 49
-0.000001
 49
0.000000
 49
-0.000001
  0
ENDTAB
  0
TABLE
  2
STYLE
 70
     0
  0
ENDTAB
  0
TABLE
  2
LAYER
 70
     3
  0
LAYER
  2
FOREGROUND
 70
    64
 62
     7
  6
CONTINUOUS
  0
LAYER
  2
BACKGROUND
 70
    65
 62
    -7
  6
CONTINUOUS
  0
LAYER
  2
PLAN_1
 70
    64
 62
     7
  6
CONTINUOUS
  0
ENDTAB
  0
ENDSEC
  0
SECTION
  2
ENTITIES
  0
POLYLINE
  8
PLAN_1
  6
CONTINUOUS
 66
     1
 40
0.003000
 41
0.003000
  0
VERTEX
  8
PLAN_1
  6
CONTINUOUS
 10
0.486366
 20
-4.490874
  0
VERTEX
  8
PLAN_1
  6
CONTINUOUS
 10
0.453189
 20
-4.490874
  0
VERTEX
  8
PLAN_1
  6
CONTINUOUS
 10
0.399209
 20
-4.408776
  0
VERTEX
  8
PLAN_1
  6
CONTINUOUS
 10
0.344102
 20
-4.490874
  0
VERTEX
  8
PLAN_1
  6
CONTINUOUS
 10
0.311488
 20
-4.490874
  0
VERTEX
  8
PLAN_1
  6
CONTINUOUS
 10
0.382902
 20
-4.388531
  0
VERTEX
  8
PLAN_1
  6
CONTINUOUS
 10
0.315984
 20
-4.291252
  0
VERTEX
  8
PLAN_1
  6
CONTINUOUS
 10
0.349724
 20
-4.291252
  0
VERTEX
  8
PLAN_1
  6
CONTINUOUS
 10
0.400331
 20
-4.367728
  0
VERTEX
  8
PLAN_1
  6
CONTINUOUS
 10
0.450941
 20
-4.291252
  0
VERTEX
  8
PLAN_1
  6
CONTINUOUS
 10
0.482992
 20
-4.291252
  0
VERTEX
  8
PLAN_1
  6
CONTINUOUS
 10
0.416075
 20
-4.388531
  0
VERTEX
  8
PLAN_1
  6
CONTINUOUS
 10
0.486366
 20
-4.490874
  0
SEQEND
  8
0
  0
POLYLINE
  8
PLAN_1
  6
CONTINUOUS
 66
     1
 40
0.003000
 41
0.003000
  0
VERTEX
  8
PLAN_1
  6
CONTINUOUS
 10
0.652807
 20
-4.351421
  0
VERTEX
  8
PLAN_1
  6
CONTINUOUS
 10
0.651122
 20
-4.345232
  0
VERTEX
  8
PLAN_1
  6
CONTINUOUS
 10
0.648870
 20
-4.339610
  0
VERTEX
  8
PLAN_1
  6
CONTINUOUS
 10
0.646059
 20
-4.334551
  0
VERTEX
  8
PLAN_1
  6
CONTINUOUS
 10
0.643248
 20
-4.330051
  0
VERTEX
  8
PLAN_1
  6
CONTINUOUS
 10
0.640437
 20
-4.326114
  0
VERTEX
  8
PLAN_1
  6
CONTINUOUS
 10
0.636500
 20
-4.322740
  0
VERTEX
  8
PLAN_1
  6
CONTINUOUS
 10
0.633126
 20
-4.319929
  0
VERTEX
  8
PLAN_1
  6
CONTINUOUS
 10
0.629193
 20
-4.317681
  0
VERTEX
  8
PLAN_1
  6
CONTINUOUS
 10
0.625256
 20
-4.315433
  0
VERTEX
  8
PLAN_1
  6
CONTINUOUS
 10
0.620756
 20
-4.313744
  0
VERTEX
  8
PLAN_1
  6
CONTINUOUS
 10
0.616819
 20
-4.312622
  0
VERTEX
  8
PLAN_1
  6
CONTINUOUS
 10
0.612323
 20
-4.311496
  0
VERTEX
  8
PLAN_1
  6
CONTINUOUS
 10
0.604449
 20
-4.310370
  0
VERTEX
  8
PLAN_1
  6
CONTINUOUS
 10
0.596579
 20
-4.309807
  0
VERTEX
  8
PLAN_1
  6
CONTINUOUS
 10
0.590394
 20
-4.310370
  0
VERTEX
  8
PLAN_1
  6
CONTINUOUS
 10
0.583646
 20
-4.311496
  0
VERTEX
  8
PLAN_1
  6
CONTINUOUS
 10
0.577461
 20
-4.312622
  0
VERTEX
  8
PLAN_1
  6
CONTINUOUS
 10
0.571272
 20
-4.314870
  0
VERTEX
  8
PLAN_1
  6
CONTINUOUS
 10
0.565650
 20
-4.317681
  0
VERTEX
  8
PLAN_1
  6
CONTINUOUS
 10
0.560591
 20
-4.321055
  0
VERTEX
  8
PLAN_1
  6
CONTINUOUS
 10
0.555528
 20
-4.324992
  0
VERTEX
  8
PLAN_1
  6
CONTINUOUS
 10
0.550469
 20
-4.330051
  0
VERTEX
  8
PLAN_1
  6
CONTINUOUS
 10
0.546531
 20
-4.335114
  0
VERTEX
  8
PLAN_1
  6
CONTINUOUS
 10
0.542594
 20
-4.340736
  0
VERTEX
  8
PLAN_1
  6
CONTINUOUS
 10
0.539220
 20
-4.347484
  0
VERTEX
  8
PLAN_1
  6
CONTINUOUS
 10
0.536972
 20
-4.354795
  0
VERTEX
  8
PLAN_1
  6
CONTINUOUS
 10
0.534724
 20
-4.362102
  0
VERTEX
  8
PLAN_1
  6
CONTINUOUS
 10
0.533035
 20
-4.370539
  0
VERTEX
  8
PLAN_1
  6
CONTINUOUS
 10
0.531913
 20
-4.379535
  0
VERTEX
  8
PLAN_1
  6
CONTINUOUS
 10
0.531350
 20
-4.389094
  0
VERTEX
  8
PLAN_1
  6
CONTINUOUS
 10
0.531913
 20
-4.397528
  0
VERTEX
  8
PLAN_1
  6
CONTINUOUS
 10
0.532472
 20
-4.405965
  0
VERTEX
  8
PLAN_1
  6
CONTINUOUS
 10
0.533598
 20
-4.414398
  0
VERTEX
  8
PLAN_1
  6
CONTINUOUS
 10
0.534724
 20
-4.421709
  0
VERTEX
  8
PLAN_1
  6
CONTINUOUS
 10
0.536972
 20
-4.429020
  0
VERTEX
  8
PLAN_1
  6
CONTINUOUS
 10
0.539220
 20
-4.435768
  0
VERTEX
  8
PLAN_1
  6
CONTINUOUS
 10
0.542594
 20
-4.442512
  0
VERTEX
  8
PLAN_1
  6
CONTINUOUS
 10
0.545969
 20
-4.448138
  0
VERTEX
  8
PLAN_1
  6
CONTINUOUS
 10
0.550469
 20
-4.453197
  0
VERTEX
  8
PLAN_1
  6
CONTINUOUS
 10
0.554965
 20
-4.458260
  0
VERTEX
  8
PLAN_1
  6
CONTINUOUS
 10
0.560591
 20
-4.462193
  0
VERTEX
  8
PLAN_1
  6
CONTINUOUS
 10
0.566213
 20
-4.465567
  0
VERTEX
  8
PLAN_1
  6
CONTINUOUS
 10
0.572961
 20
-4.468378
  0
VERTEX
  8
PLAN_1
  6
CONTINUOUS
 10
0.580831
 20
-4.470630
  0
VERTEX
  8
PLAN_1
  6
CONTINUOUS
 10
0.588705
 20
-4.471752
  0
VERTEX
  8
PLAN_1
  6
CONTINUOUS
 10
0.597701
 20
-4.472315
  0
VERTEX
  8
PLAN_1
  6
CONTINUOUS
 10
0.605012
 20
-4.471752
  0
VERTEX
  8
PLAN_1
  6
CONTINUOUS
 10
0.612886
 20
-4.470067
  0
VERTEX
  8
PLAN_1
  6
CONTINUOUS
 10
0.616819
 20
-4.468941
  0
VERTEX
  8
PLAN_1
  6
CONTINUOUS
 10
0.620756
 20
-4.467256
  0
VERTEX
  8
PLAN_1
  6
CONTINUOUS
 10
0.625256
 20
-4.465008
  0
VERTEX
  8
PLAN_1
  6
CONTINUOUS
 10
0.629193
 20
-4.462193
  0
VERTEX
  8
PLAN_1
  6
CONTINUOUS
 10
0.633126
 20
-4.458819
  0
VERTEX
  8
PLAN_1
  6
CONTINUOUS
 10
0.637063
 20
-4.454886
  0
VERTEX
  8
PLAN_1
  6
CONTINUOUS
 10
0.641000
 20
-4.450386
  0
VERTEX
  8
PLAN_1
  6
CONTINUOUS
 10
0.644374
 20
-4.445327
  0
VERTEX
  8
PLAN_1
  6
CONTINUOUS
 10
0.647185
 20
-4.439701
  0
VERTEX
  8
PLAN_1
  6
CONTINUOUS
 10
0.649996
 20
-4.432953
  0
VERTEX
  8
PLAN_1
  6
CONTINUOUS
 10
0.652807
 20
-4.425646
  0
VERTEX
  8
PLAN_1
  6
CONTINUOUS
 10
0.654496
 20
-4.417209
  0
VERTEX
  8
PLAN_1
  6
CONTINUOUS
 10
0.680362
 20
-4.417209
  0
VERTEX
  8
PLAN_1
  6
CONTINUOUS
 10
0.679236
 20
-4.423957
  0
VERTEX
  8
PLAN_1
  6
CONTINUOUS
 10
0.678110
 20
-4.430705
  0
VERTEX
  8
PLAN_1
  6
CONTINUOUS
 10
0.676425
 20
-4.436890
  0
VERTEX
  8
PLAN_1
  6
CONTINUOUS
 10
0.674177
 20
-4.442512
  0
VERTEX
  8
PLAN_1
  6
CONTINUOUS
 10
0.671925
 20
-4.447575
  0
VERTEX
  8
PLAN_1
  6
CONTINUOUS
 10
0.669677
 20
-4.452634
  0
VERTEX
  8
PLAN_1
  6
CONTINUOUS
 10
0.667429
 20
-4.457134
  0
VERTEX
  8
PLAN_1
  6
CONTINUOUS
 10
0.664618
 20
-4.461634
  0
VERTEX
  8
PLAN_1
  6
CONTINUOUS
 10
0.661803
 20
-4.465567
  0
VERTEX
  8
PLAN_1
  6
CONTINUOUS
 10
0.658433
 20
-4.468941
  0
VERTEX
  8
PLAN_1
  6
CONTINUOUS
 10
0.655618
 20
-4.472315
  0
VERTEX
  8
PLAN_1
  6
CONTINUOUS
 10
0.652244
 20
-4.475126
  0
VERTEX
  8
PLAN_1
  6
CONTINUOUS
 10
0.645496
 20
-4.480752
  0
VERTEX
  8
PLAN_1
  6
CONTINUOUS
 10
0.638752
 20
-4.484685
  0
VERTEX
  8
PLAN_1
  6
CONTINUOUS
 10
0.631441
 20
-4.488059
  0
VERTEX
  8
PLAN_1
  6
CONTINUOUS
 10
0.624693
 20
-4.490874
  0
VERTEX
  8
PLAN_1
  6
CONTINUOUS
 10
0.617945
 20
-4.493122
  0
VERTEX
  8
PLAN_1
  6
CONTINUOUS
 10
0.611760
 20
-4.494244
  0
VERTEX
  8
PLAN_1
  6
CONTINUOUS
 10
0.601075
 20
-4.495370
  0
VERTEX
  8
PLAN_1
  6
CONTINUOUS
 10
0.593764
 20
-4.495933
  0
VERTEX
  8
PLAN_1
  6
CONTINUOUS
 10
0.584768
 20
-4.495370
  0
VERTEX
  8
PLAN_1
  6
CONTINUOUS
 10
0.576898
 20
-4.494244
  0
VERTEX
  8
PLAN_1
  6
CONTINUOUS
 10
0.568461
 20
-4.492559
  0
VERTEX
  8
PLAN_1
  6
CONTINUOUS
 10
0.560591
 20
-4.490311
  0
VERTEX
  8
PLAN_1
  6
CONTINUOUS
 10
0.552717
 20
-4.486937
  0
VERTEX
  8
PLAN_1
  6
CONTINUOUS
 10
0.545406
 20
-4.482437
  0
VERTEX
  8
PLAN_1
  6
CONTINUOUS
 10
0.538098
 20
-4.477378
  0
VERTEX
  8
PLAN_1
  6
CONTINUOUS
 10
0.531913
 20
-4.471752
  0
VERTEX
  8
PLAN_1
  6
CONTINUOUS
 10
0.525724
 20
-4.465008
  0
VERTEX
  8
PLAN_1
  6
CONTINUOUS
 10
0.520102
 20
-4.457134
  0
VERTEX
  8
PLAN_1
  6
CONTINUOUS
 10
0.515606
 20
-4.448701
  0
VERTEX
  8
PLAN_1
  6
CONTINUOUS
 10
0.511669
 20
-4.438579
  0
VERTEX
  8
PLAN_1
  6
CONTINUOUS
 10
0.508295
 20
-4.427894
  0
VERTEX
  8
PLAN_1
  6
CONTINUOUS
 10
0.506047
 20
-4.416646
  0
VERTEX
  8
PLAN_1
  6
CONTINUOUS
 10
0.504358
 20
-4.403713
  0
VERTEX
  8
PLAN_1
  6
CONTINUOUS
 10
0.503795
 20
-4.389657
  0
VERTEX
  8
PLAN_1
  6
CONTINUOUS
 10
0.504358
 20
-4.378409
  0
VERTEX
  8
PLAN_1
  6
CONTINUOUS
 10
0.505484
 20
-4.367728
  0
VERTEX
  8
PLAN_1
  6
CONTINUOUS
 10
0.507169
 20
-4.357606
  0
VERTEX
  8
PLAN_1
  6
CONTINUOUS
 10
0.509980
 20
-4.348047
  0
VERTEX
  8
PLAN_1
  6
CONTINUOUS
 10
0.513917
 20
-4.338488
  0
VERTEX
  8
PLAN_1
  6
CONTINUOUS
 10
0.517854
 20
-4.330051
  0
VERTEX
  8
PLAN_1
  6
CONTINUOUS
 10
0.522913
 20
-4.322181
  0
VERTEX
  8
PLAN_1
  6
CONTINUOUS
 10
0.528539
 20
-4.314870
  0
VERTEX
  8
PLAN_1
  6
CONTINUOUS
 10
0.534724
 20
-4.308685
  0
VERTEX
  8
PLAN_1
  6
CONTINUOUS
 10
0.542031
 20
-4.303063
  0
VERTEX
  8
PLAN_1
  6
CONTINUOUS
 10
0.549343
 20
-4.298000
  0
VERTEX
  8
PLAN_1
  6
CONTINUOUS
 10
0.557780
 20
-4.293500
  0
VERTEX
  8
PLAN_1
  6
CONTINUOUS
 10
0.566776
 20
-4.290689
  0
VERTEX
  8
PLAN_1
  6
CONTINUOUS
 10
0.576335
 20
-4.287878
  0
VERTEX
  8
PLAN_1
  6
CONTINUOUS
 10
0.586457
 20
-4.286756
  0
VERTEX
  8
PLAN_1
  6
CONTINUOUS
 10
0.596579
 20
-4.286193
  0
VERTEX
  8
PLAN_1
  6
CONTINUOUS
 10
0.606138
 20
-4.286756
  0
VERTEX
  8
PLAN_1
  6
CONTINUOUS
 10
0.615134
 20
-4.287315
  0
VERTEX
  8
PLAN_1
  6
CONTINUOUS
 10
0.623004
 20
-4.289004
  0
VERTEX
  8
PLAN_1
  6
CONTINUOUS
 10
0.630878
 20
-4.291815
  0
VERTEX
  8
PLAN_1
  6
CONTINUOUS
 10
0.637626
 20
-4.294626
  0
VERTEX
  8
PLAN_1
  6
CONTINUOUS
 10
0.644374
 20
-4.298000
  0
VERTEX
  8
PLAN_1
  6
CONTINUOUS
 10
0.649996
 20
-4.301937
  0
VERTEX
  8
PLAN_1
  6
CONTINUOUS
 10
0.655618
 20
-4.306433
  0
VERTEX
  8
PLAN_1
  6
CONTINUOUS
 10
0.660118
 20
-4.310933
  0
VERTEX
  8
PLAN_1
  6
CONTINUOUS
 10
0.664618
 20
-4.315996
  0
VERTEX
  8
PLAN_1
  6
CONTINUOUS
 10
0.668551
 20
-4.321618
  0
VERTEX
  8
PLAN_1
  6
CONTINUOUS
 10
0.671366
 20
-4.327240
  0
VERTEX
  8
PLAN_1
  6
CONTINUOUS
 10
0.674177
 20
-4.332862
  0
VERTEX
  8
PLAN_1
  6
CONTINUOUS
 10
0.676425
 20
-4.339047
  0
VERTEX
  8
PLAN_1
  6
CONTINUOUS
 10
0.677551
 20
-4.345232
  0
VERTEX
  8
PLAN_1
  6
CONTINUOUS
 10
0.678673
 20
-4.351421
  0
VERTEX
  8
PLAN_1
  6
CONTINUOUS
 10
0.652807
 20
-4.351421
  0
SEQEND
  8
0
  0
POLYLINE
  8
PLAN_1
  6
CONTINUOUS
 66
     1
 40
0.003000
 41
0.003000
  0
VERTEX
  8
PLAN_1
  6
CONTINUOUS
 10
0.739965
 20
-4.490874
  0
VERTEX
  8
PLAN_1
  6
CONTINUOUS
 10
0.712976
 20
-4.490874
  0
VERTEX
  8
PLAN_1
  6
CONTINUOUS
 10
0.712976
 20
-4.291252
  0
VERTEX
  8
PLAN_1
  6
CONTINUOUS
 10
0.739965
 20
-4.291252
  0
VERTEX
  8
PLAN_1
  6
CONTINUOUS
 10
0.739965
 20
-4.387969
  0
VERTEX
  8
PLAN_1
  6
CONTINUOUS
 10
0.836681
 20
-4.291252
  0
VERTEX
  8
PLAN_1
  6
CONTINUOUS
 10
0.873795
 20
-4.291252
  0
VERTEX
  8
PLAN_1
  6
CONTINUOUS
 10
0.791138
 20
-4.371661
  0
VERTEX
  8
PLAN_1
  6
CONTINUOUS
 10
0.876043
 20
-4.490874
  0
VERTEX
  8
PLAN_1
  6
CONTINUOUS
 10
0.841181
 20
-4.490874
  0
VERTEX
  8
PLAN_1
  6
CONTINUOUS
 10
0.771457
 20
-4.390780
  0
VERTEX
  8
PLAN_1
  6
CONTINUOUS
 10
0.739965
 20
-4.420583
  0
VERTEX
  8
PLAN_1
  6
CONTINUOUS
 10
0.739965
 20
-4.490874
  0
SEQEND
  8
0
  0
POLYLINE
  8
PLAN_1
  6
CONTINUOUS
 66
     1
 40
0.003000
 41
0.003000
  0
VERTEX
  8
PLAN_1
  6
CONTINUOUS
 10
0.907535
 20
-4.426768
  0
VERTEX
  8
PLAN_1
  6
CONTINUOUS
 10
0.907535
 20
-4.440264
  0
VERTEX
  8
PLAN_1
  6
CONTINUOUS
 10
0.907535
 20
-4.444764
  0
VERTEX
  8
PLAN_1
  6
CONTINUOUS
 10
0.908094
 20
-4.448701
  0
VERTEX
  8
PLAN_1
  6
CONTINUOUS
 10
0.908657
 20
-4.452071
  0
VERTEX
  8
PLAN_1
  6
CONTINUOUS
 10
0.909220
 20
-4.455445
  0
VERTEX
  8
PLAN_1
  6
CONTINUOUS
 10
0.910346
 20
-4.458260
  0
VERTEX
  8
PLAN_1
  6
CONTINUOUS
 10
0.912031
 20
-4.461071
  0
VERTEX
  8
PLAN_1
  6
CONTINUOUS
 10
0.913720
 20
-4.463319
  0
VERTEX
  8
PLAN_1
  6
CONTINUOUS
 10
0.915406
 20
-4.465567
  0
VERTEX
  8
PLAN_1
  6
CONTINUOUS
 10
0.917094
 20
-4.467256
  0
VERTEX
  8
PLAN_1
  6
CONTINUOUS
 10
0.919343
 20
-4.468941
  0
VERTEX
  8
PLAN_1
  6
CONTINUOUS
 10
0.922154
 20
-4.470067
  0
VERTEX
  8
PLAN_1
  6
CONTINUOUS
 10
0.924965
 20
-4.471193
  0
VERTEX
  8
PLAN_1
  6
CONTINUOUS
 10
0.930587
 20
-4.472315
  0
VERTEX
  8
PLAN_1
  6
CONTINUOUS
 10
0.937335
 20
-4.472878
  0
VERTEX
  8
PLAN_1
  6
CONTINUOUS
 10
0.941835
 20
-4.472878
  0
VERTEX
  8
PLAN_1
  6
CONTINUOUS
 10
0.945772
 20
-4.472315
  0
VERTEX
  8
PLAN_1
  6
CONTINUOUS
 10
0.949709
 20
-4.471193
  0
VERTEX
  8
PLAN_1
  6
CONTINUOUS
 10
0.952520
 20
-4.470067
  0
VERTEX
  8
PLAN_1
  6
CONTINUOUS
 10
0.955894
 20
-4.468941
  0
VERTEX
  8
PLAN_1
  6
CONTINUOUS
 10
0.958142
 20
-4.467256
  0
VERTEX
  8
PLAN_1
  6
CONTINUOUS
 10
0.960390
 20
-4.465008
  0
VERTEX
  8
PLAN_1
  6
CONTINUOUS
 10
0.962642
 20
-4.462756
  0
VERTEX
  8
PLAN_1
  6
CONTINUOUS
 10
0.964327
 20
-4.460508
  0
VERTEX
  8
PLAN_1
  6
CONTINUOUS
 10
0.965453
 20
-4.457697
  0
VERTEX
  8
PLAN_1
  6
CONTINUOUS
 10
0.966575
 20
-4.454886
  0
VERTEX
  8
PLAN_1
  6
CONTINUOUS
 10
0.967701
 20
-4.452071
  0
VERTEX
  8
PLAN_1
  6
CONTINUOUS
 10
0.968827
 20
-4.445327
  0
VERTEX
  8
PLAN_1
  6
CONTINUOUS
 10
0.969386
 20
-4.438579
  0
VERTEX
  8
PLAN_1
  6
CONTINUOUS
 10
0.969386
 20
-4.291252
  0
VERTEX
  8
PLAN_1
  6
CONTINUOUS
 10
0.996378
 20
-4.291252
  0
VERTEX
  8
PLAN_1
  6
CONTINUOUS
 10
0.996378
 20
-4.436890
  0
VERTEX
  8
PLAN_1
  6
CONTINUOUS
 10
0.995815
 20
-4.445327
  0
VERTEX
  8
PLAN_1
  6
CONTINUOUS
 10
0.994693
 20
-4.452634
  0
VERTEX
  8
PLAN_1
  6
CONTINUOUS
 10
0.993004
 20
-4.459382
  0
VERTEX
  8
PLAN_1
  6
CONTINUOUS
 10
0.990756
 20
-4.465567
  0
VERTEX
  8
PLAN_1
  6
CONTINUOUS
 10
0.987945
 20
-4.471193
  0
VERTEX
  8
PLAN_1
  6
CONTINUOUS
 10
0.985134
 20
-4.476252
  0
VERTEX
  8
PLAN_1
  6
CONTINUOUS
 10
0.981197
 20
-4.480189
  0
VERTEX
  8
PLAN_1
  6
CONTINUOUS
 10
0.977260
 20
-4.484126
  0
VERTEX
  8
PLAN_1
  6
CONTINUOUS
 10
0.973323
 20
-4.486937
  0
VERTEX
  8
PLAN_1
  6
CONTINUOUS
 10
0.968827
 20
-4.489748
  0
VERTEX
  8
PLAN_1
  6
CONTINUOUS
 10
0.963764
 20
-4.491433
  0
VERTEX
  8
PLAN_1
  6
CONTINUOUS
 10
0.959268
 20
-4.493122
  0
VERTEX
  8
PLAN_1
  6
CONTINUOUS
 10
0.954205
 20
-4.494244
  0
VERTEX
  8
PLAN_1
  6
CONTINUOUS
 10
0.948583
 20
-4.495370
  0
VERTEX
  8
PLAN_1
  6
CONTINUOUS
 10
0.943520
 20
-4.495933
  0
VERTEX
  8
PLAN_1
  6
CONTINUOUS
 10
0.938461
 20
-4.495933
  0
VERTEX
  8
PLAN_1
  6
CONTINUOUS
 10
0.930587
 20
-4.495370
  0
VERTEX
  8
PLAN_1
  6
CONTINUOUS
 10
0.922717
 20
-4.494807
  0
VERTEX
  8
PLAN_1
  6
CONTINUOUS
 10
0.915969
 20
-4.493122
  0
VERTEX
  8
PLAN_1
  6
CONTINUOUS
 10
0.910346
 20
-4.490874
  0
VERTEX
  8
PLAN_1
  6
CONTINUOUS
 10
0.904720
 20
-4.488059
  0
VERTEX
  8
PLAN_1
  6
CONTINUOUS
 10
0.900224
 20
-4.485248
  0
VERTEX
  8
PLAN_1
  6
CONTINUOUS
 10
0.896287
 20
-4.481874
  0
VERTEX
  8
PLAN_1
  6
CONTINUOUS
 10
0.892913
 20
-4.477941
  0
VERTEX
  8
PLAN_1
  6
CONTINUOUS
 10
0.890102
 20
-4.474004
  0
VERTEX
  8
PLAN_1
  6
CONTINUOUS
 10
0.887854
 20
-4.470067
  0
VERTEX
  8
PLAN_1
  6
CONTINUOUS
 10
0.885602
 20
-4.466130
  0
VERTEX
  8
PLAN_1
  6
CONTINUOUS
 10
0.884480
 20
-4.461634
  0
VERTEX
  8
PLAN_1
  6
CONTINUOUS
 10
0.883354
 20
-4.457697
  0
VERTEX
  8
PLAN_1
  6
CONTINUOUS
 10
0.882791
 20
-4.453760
  0
VERTEX
  8
PLAN_1
  6
CONTINUOUS
 10
0.882228
 20
-4.449823
  0
VERTEX
  8
PLAN_1
  6
CONTINUOUS
 10
0.882228
 20
-4.446449
  0
VERTEX
  8
PLAN_1
  6
CONTINUOUS
 10
0.882228
 20
-4.426768
  0
VERTEX
  8
PLAN_1
  6
CONTINUOUS
 10
0.907535
 20
-4.426768
  0
SEQEND
  8
0
  0
POLYLINE
  8
PLAN_1
  6
CONTINUOUS
 66
     1
 40
0.003000
 41
0.003000
  0
VERTEX
  8
PLAN_1
  6
CONTINUOUS
 10
1.199933
 20
-4.336236
  0
VERTEX
  8
PLAN_1
  6
CONTINUOUS
 10
1.219051
 20
-4.336236
  0
VERTEX
  8
PLAN_1
  6
CONTINUOUS
 10
1.214555
 20
-4.350858
  0
VERTEX
  8
PLAN_1
  6
CONTINUOUS
 10
1.210618
 20
-4.366039
  0
VERTEX
  8
PLAN_1
  6
CONTINUOUS
 10
1.206118
 20
-4.380098
  0
VERTEX
  8
PLAN_1
  6
CONTINUOUS
 10
1.202185
 20
-4.393594
  0
VERTEX
  8
PLAN_1
  6
CONTINUOUS
 10
1.198811
 20
-4.405402
  0
VERTEX
  8
PLAN_1
  6
CONTINUOUS
 10
1.195996
 20
-4.414961
  0
VERTEX
  8
PLAN_1
  6
CONTINUOUS
 10
1.194311
 20
-4.422272
  0
VERTEX
  8
PLAN_1
  6
CONTINUOUS
 10
1.193748
 20
-4.426768
  0
VERTEX
  8
PLAN_1
  6
CONTINUOUS
 10
1.193748
 20
-4.428457
  0
VERTEX
  8
PLAN_1
  6
CONTINUOUS
 10
1.194311
 20
-4.430142
  0
VERTEX
  8
PLAN_1
  6
CONTINUOUS
 10
1.194311
 20
-4.431831
  0
VERTEX
  8
PLAN_1
  6
CONTINUOUS
 10
1.194874
 20
-4.432953
  0
VERTEX
  8
PLAN_1
  6
CONTINUOUS
 10
1.195996
 20
-4.433516
  0
VERTEX
  8
PLAN_1
  6
CONTINUOUS
 10
1.197122
 20
-4.434079
  0
VERTEX
  8
PLAN_1
  6
CONTINUOUS
 10
1.198248
 20
-4.434642
  0
VERTEX
  8
PLAN_1
  6
CONTINUOUS
 10
1.199370
 20
-4.434642
  0
VERTEX
  8
PLAN_1
  6
CONTINUOUS
 10
1.203307
 20
-4.434642
  0
VERTEX
  8
PLAN_1
  6
CONTINUOUS
 10
1.206681
 20
-4.433516
  0
VERTEX
  8
PLAN_1
  6
CONTINUOUS
 10
1.210055
 20
-4.431831
  0
VERTEX
  8
PLAN_1
  6
CONTINUOUS
 10
1.213992
 20
-4.429579
  0
VERTEX
  8
PLAN_1
  6
CONTINUOUS
 10
1.217366
 20
-4.426768
  0
VERTEX
  8
PLAN_1
  6
CONTINUOUS
 10
1.220177
 20
-4.423957
  0
VERTEX
  8
PLAN_1
  6
CONTINUOUS
 10
1.223551
 20
-4.420020
  0
VERTEX
  8
PLAN_1
  6
CONTINUOUS
 10
1.226362
 20
-4.416087
  0
VERTEX
  8
PLAN_1
  6
CONTINUOUS
 10
1.229173
 20
-4.411587
  0
VERTEX
  8
PLAN_1
  6
CONTINUOUS
 10
1.231425
 20
-4.407087
  0
VERTEX
  8
PLAN_1
  6
CONTINUOUS
 10
1.233673
 20
-4.402028
  0
VERTEX
  8
PLAN_1
  6
CONTINUOUS
 10
1.235358
 20
-4.396969
  0
VERTEX
  8
PLAN_1
  6
CONTINUOUS
 10
1.237047
 20
-4.391343
  0
VERTEX
  8
PLAN_1
  6
CONTINUOUS
 10
1.238169
 20
-4.386283
  0
VERTEX
  8
PLAN_1
  6
CONTINUOUS
 10
1.238732
 20
-4.380661
  0
VERTEX
  8
PLAN_1
  6
CONTINUOUS
 10
1.239295
 20
-4.375035
  0
VERTEX
  8
PLAN_1
  6
CONTINUOUS
 10
1.238732
 20
-4.366602
  0
VERTEX
  8
PLAN_1
  6
CONTINUOUS
 10
1.237610
 20
-4.359291
  0
VERTEX
  8
PLAN_1
  6
CONTINUOUS
 10
1.235358
 20
-4.351980
  0
VERTEX
  8
PLAN_1
  6
CONTINUOUS
 10
1.233110
 20
-4.345232
  0
VERTEX
  8
PLAN_1
  6
CONTINUOUS
 10
1.229736
 20
-4.338488
  0
VERTEX
  8
PLAN_1
  6
CONTINUOUS
 10
1.225799
 20
-4.332862
  0
VERTEX
  8
PLAN_1
  6
CONTINUOUS
 10
1.221303
 20
-4.327240
  0
VERTEX
  8
PLAN_1
  6
CONTINUOUS
 10
1.216240
 20
-4.322740
  0
VERTEX
  8
PLAN_1
  6
CONTINUOUS
 10
1.210618
 20
-4.318244
  0
VERTEX
  8
PLAN_1
  6
CONTINUOUS
 10
1.204433
 20
-4.314307
  0
VERTEX
  8
PLAN_1
  6
CONTINUOUS
 10
1.198248
 20
-4.310933
  0
VERTEX
  8
PLAN_1
  6
CONTINUOUS
 10
1.191500
 20
-4.308122
  0
VERTEX
  8
PLAN_1
  6
CONTINUOUS
 10
1.184189
 20
-4.305874
  0
VERTEX
  8
PLAN_1
  6
CONTINUOUS
 10
1.176878
 20
-4.304748
  0
VERTEX
  8
PLAN_1
  6
CONTINUOUS
 10
1.169571
 20
-4.303622
  0
VERTEX
  8
PLAN_1
  6
CONTINUOUS
 10
1.161697
 20
-4.303063
  0
VERTEX
  8
PLAN_1
  6
CONTINUOUS
 10
1.152701
 20
-4.303622
  0
VERTEX
  8
PLAN_1
  6
CONTINUOUS
 10
1.143705
 20
-4.305311
  0
VERTEX
  8
PLAN_1
  6
CONTINUOUS
 10
1.135268
 20
-4.307559
  0
VERTEX
  8
PLAN_1
  6
CONTINUOUS
 10
1.127398
 20
-4.310370
  0
VERTEX
  8
PLAN_1
  6
CONTINUOUS
 10
1.120087
 20
-4.313744
  0
VERTEX
  8
PLAN_1
  6
CONTINUOUS
 10
1.113339
 20
-4.318244
  0
VERTEX
  8
PLAN_1
  6
CONTINUOUS
 10
1.106591
 20
-4.323303
  0
VERTEX
  8
PLAN_1
  6
CONTINUOUS
 10
1.100969
 20
-4.329488
  0
VERTEX
  8
PLAN_1
  6
CONTINUOUS
 10
1.095346
 20
-4.335673
  0
VERTEX
  8
PLAN_1
  6
CONTINUOUS
 10
1.090846
 20
-4.342421
  0
VERTEX
  8
PLAN_1
  6
CONTINUOUS
 10
1.086909
 20
-4.349732
  0
VERTEX
  8
PLAN_1
  6
CONTINUOUS
 10
1.083535
 20
-4.357606
  0
VERTEX
  8
PLAN_1
  6
CONTINUOUS
 10
1.080724
 20
-4.365476
  0
VERTEX
  8
PLAN_1
  6
CONTINUOUS
 10
1.079039
 20
-4.374472
  0
VERTEX
  8
PLAN_1
  6
CONTINUOUS
 10
1.077913
 20
-4.382909
  0
VERTEX
  8
PLAN_1
  6
CONTINUOUS
 10
1.077350
 20
-4.391906
  0
VERTEX
  8
PLAN_1
  6
CONTINUOUS
 10
1.077913
 20
-4.401465
  0
VERTEX
  8
PLAN_1
  6
CONTINUOUS
 10
1.079039
 20
-4.409902
  0
VERTEX
  8
PLAN_1
  6
CONTINUOUS
 10
1.081287
 20
-4.418335
  0
VERTEX
  8
PLAN_1
  6
CONTINUOUS
 10
1.084098
 20
-4.426205
  0
VERTEX
  8
PLAN_1
  6
CONTINUOUS
 10
1.087472
 20
-4.434079
  0
VERTEX
  8
PLAN_1
  6
CONTINUOUS
 10
1.091972
 20
-4.441390
  0
VERTEX
  8
PLAN_1
  6
CONTINUOUS
 10
1.096469
 20
-4.447575
  0
VERTEX
  8
PLAN_1
  6
CONTINUOUS
 10
1.102091
 20
-4.453760
  0
VERTEX
  8
PLAN_1
  6
CONTINUOUS
 10
1.108280
 20
-4.459382
  0
VERTEX
  8
PLAN_1
  6
CONTINUOUS
 10
1.115024
 20
-4.464445
  0
VERTEX
  8
PLAN_1
  6
CONTINUOUS
 10
1.121772
 20
-4.468378
  0
VERTEX
  8
PLAN_1
  6
CONTINUOUS
 10
1.129646
 20
-4.472315
  0
VERTEX
  8
PLAN_1
  6
CONTINUOUS
 10
1.137520
 20
-4.475126
  0
VERTEX
  8
PLAN_1
  6
CONTINUOUS
 10
1.145953
 20
-4.476815
  0
VERTEX
  8
PLAN_1
  6
CONTINUOUS
 10
1.154386
 20
-4.478500
  0
VERTEX
  8
PLAN_1
  6
CONTINUOUS
 10
1.163386
 20
-4.478500
  0
VERTEX
  8
PLAN_1
  6
CONTINUOUS
 10
1.172945
 20
-4.477941
  0
VERTEX
  8
PLAN_1
  6
CONTINUOUS
 10
1.182504
 20
-4.476252
  0
VERTEX
  8
PLAN_1
  6
CONTINUOUS
 10
1.192063
 20
-4.474004
  0
VERTEX
  8
PLAN_1
  6
CONTINUOUS
 10
1.201059
 20
-4.470067
  0
VERTEX
  8
PLAN_1
  6
CONTINUOUS
 10
1.209492
 20
-4.465567
  0
VERTEX
  8
PLAN_1
  6
CONTINUOUS
 10
1.217366
 20
-4.460508
  0
VERTEX
  8
PLAN_1
  6
CONTINUOUS
 10
1.224677
 20
-4.453760
  0
VERTEX
  8
PLAN_1
  6
CONTINUOUS
 10
1.230862
 20
-4.447012
  0
VERTEX
  8
PLAN_1
  6
CONTINUOUS
 10
1.249417
 20
-4.447012
  0
VERTEX
  8
PLAN_1
  6
CONTINUOUS
 10
1.246043
 20
-4.452634
  0
VERTEX
  8
PLAN_1
  6
CONTINUOUS
 10
1.242106
 20
-4.457697
  0
VERTEX
  8
PLAN_1
  6
CONTINUOUS
 10
1.238169
 20
-4.462756
  0
VERTEX
  8
PLAN_1
  6
CONTINUOUS
 10
1.233673
 20
-4.467256
  0
VERTEX
  8
PLAN_1
  6
CONTINUOUS
 10
1.228610
 20
-4.471752
  0
VERTEX
  8
PLAN_1
  6
CONTINUOUS
 10
1.223551
 20
-4.475689
  0
VERTEX
  8
PLAN_1
  6
CONTINUOUS
 10
1.218492
 20
-4.479626
  0
VERTEX
  8
PLAN_1
  6
CONTINUOUS
 10
1.212866
 20
-4.483000
  0
VERTEX
  8
PLAN_1
  6
CONTINUOUS
 10
1.207244
 20
-4.485811
  0
VERTEX
  8
PLAN_1
  6
CONTINUOUS
 10
1.201059
 20
-4.488622
  0
VERTEX
  8
PLAN_1
  6
CONTINUOUS
 10
1.195437
 20
-4.490874
  0
VERTEX
  8
PLAN_1
  6
CONTINUOUS
 10
1.189252
 20
-4.492559
  0
VERTEX
  8
PLAN_1
  6
CONTINUOUS
 10
1.182504
 20
-4.494244
  0
VERTEX
  8
PLAN_1
  6
CONTINUOUS
 10
1.176319
 20
-4.494807
  0
VERTEX
  8
PLAN_1
  6
CONTINUOUS
 10
1.169571
 20
-4.495933
  0
VERTEX
  8
PLAN_1
  6
CONTINUOUS
 10
1.162823
 20
-4.495933
  0
VERTEX
  8
PLAN_1
  6
CONTINUOUS
 10
1.152138
 20
-4.495370
  0
VERTEX
  8
PLAN_1
  6
CONTINUOUS
 10
1.141453
 20
-4.493685
  0
VERTEX
  8
PLAN_1
  6
CONTINUOUS
 10
1.131331
 20
-4.491433
  0
VERTEX
  8
PLAN_1
  6
CONTINUOUS
 10
1.121213
 20
-4.487500
  0
VERTEX
  8
PLAN_1
  6
CONTINUOUS
 10
1.112213
 20
-4.483563
  0
VERTEX
  8
PLAN_1
  6
CONTINUOUS
 10
1.103217
 20
-4.477941
  0
VERTEX
  8
PLAN_1
  6
CONTINUOUS
 10
1.095346
 20
-4.472315
  0
VERTEX
  8
PLAN_1
  6
CONTINUOUS
 10
1.087472
 20
-4.465567
  0
VERTEX
  8
PLAN_1
  6
CONTINUOUS
 10
1.080724
 20
-4.457697
  0
VERTEX
  8
PLAN_1
  6
CONTINUOUS
 10
1.075102
 20
-4.449823
  0
VERTEX
  8
PLAN_1
  6
CONTINUOUS
 10
1.069480
 20
-4.441390
  0
VERTEX
  8
PLAN_1
  6
CONTINUOUS
 10
1.064980
 20
-4.431831
  0
VERTEX
  8
PLAN_1
  6
CONTINUOUS
 10
1.061606
 20
-4.422272
  0
VERTEX
  8
PLAN_1
  6
CONTINUOUS
 10
1.059358
 20
-4.412150
  0
VERTEX
  8
PLAN_1
  6
CONTINUOUS
 10
1.057669
 20
-4.401465
  0
VERTEX
  8
PLAN_1
  6
CONTINUOUS
 10
1.057106
 20
-4.390220
  0
VERTEX
  8
PLAN_1
  6
CONTINUOUS
 10
1.057669
 20
-4.379535
  0
VERTEX
  8
PLAN_1
  6
CONTINUOUS
 10
1.059358
 20
-4.369413
  0
VERTEX
  8
PLAN_1
  6
CONTINUOUS
 10
1.061606
 20
-4.359291
  0
VERTEX
  8
PLAN_1
  6
CONTINUOUS
 10
1.065543
 20
-4.349732
  0
VERTEX
  8
PLAN_1
  6
CONTINUOUS
 10
1.069480
 20
-4.340736
  0
VERTEX
  8
PLAN_1
  6
CONTINUOUS
 10
1.075102
 20
-4.331740
  0
VERTEX
  8
PLAN_1
  6
CONTINUOUS
 10
1.081287
 20
-4.323866
  0
VERTEX
  8
PLAN_1
  6
CONTINUOUS
 10
1.088035
 20
-4.316555
  0
VERTEX
  8
PLAN_1
  6
CONTINUOUS
 10
1.095346
 20
-4.309807
  0
VERTEX
  8
PLAN_1
  6
CONTINUOUS
 10
1.103217
 20
-4.303622
  0
VERTEX
  8
PLAN_1
  6
CONTINUOUS
 10
1.112213
 20
-4.298563
  0
VERTEX
  8
PLAN_1
  6
CONTINUOUS
 10
1.121213
 20
-4.294063
  0
VERTEX
  8
PLAN_1
  6
CONTINUOUS
 10
1.130772
 20
-4.290689
  0
VERTEX
  8
PLAN_1
  6
CONTINUOUS
 10
1.140890
 20
-4.288441
  0
VERTEX
  8
PLAN_1
  6
CONTINUOUS
 10
1.151012
 20
-4.286756
  0
VERTEX
  8
PLAN_1
  6
CONTINUOUS
 10
1.161697
 20
-4.286193
  0
VERTEX
  8
PLAN_1
  6
CONTINUOUS
 10
1.171256
 20
-4.286756
  0
VERTEX
  8
PLAN_1
  6
CONTINUOUS
 10
1.180252
 20
-4.287878
  0
VERTEX
  8
PLAN_1
  6
CONTINUOUS
 10
1.189252
 20
-4.289567
  0
VERTEX
  8
PLAN_1
  6
CONTINUOUS
 10
1.198248
 20
-4.292378
  0
VERTEX
  8
PLAN_1
  6
CONTINUOUS
 10
1.206681
 20
-4.295752
  0
VERTEX
  8
PLAN_1
  6
CONTINUOUS
 10
1.214555
 20
-4.300248
  0
VERTEX
  8
PLAN_1
  6
CONTINUOUS
 10
1.221862
 20
-4.304748
  0
VERTEX
  8
PLAN_1
  6
CONTINUOUS
 10
1.228610
 20
-4.310370
  0
VERTEX
  8
PLAN_1
  6
CONTINUOUS
 10
1.234795
 20
-4.316555
  0
VERTEX
  8
PLAN_1
  6
CONTINUOUS
 10
1.240421
 20
-4.323303
  0
VERTEX
  8
PLAN_1
  6
CONTINUOUS
 10
1.245480
 20
-4.330051
  0
VERTEX
  8
PLAN_1
  6
CONTINUOUS
 10
1.249417
 20
-4.337925
  0
VERTEX
  8
PLAN_1
  6
CONTINUOUS
 10
1.252791
 20
-4.345795
  0
VERTEX
  8
PLAN_1
  6
CONTINUOUS
 10
1.255039
 20
-4.354232
  0
VERTEX
  8
PLAN_1
  6
CONTINUOUS
 10
1.256728
 20
-4.363228
  0
VERTEX
  8
PLAN_1
  6
CONTINUOUS
 10
1.257291
 20
-4.372787
  0
VERTEX
  8
PLAN_1
  6
CONTINUOUS
 10
1.256728
 20
-4.381783
  0
VERTEX
  8
PLAN_1
  6
CONTINUOUS
 10
1.255039
 20
-4.390780
  0
VERTEX
  8
PLAN_1
  6
CONTINUOUS
 10
1.253354
 20
-4.398654
  0
VERTEX
  8
PLAN_1
  6
CONTINUOUS
 10
1.249980
 20
-4.406528
  0
VERTEX
  8
PLAN_1
  6
CONTINUOUS
 10
1.246606
 20
-4.413835
  0
VERTEX
  8
PLAN_1
  6
CONTINUOUS
 10
1.242669
 20
-4.420020
  0
VERTEX
  8
PLAN_1
  6
CONTINUOUS
 10
1.238169
 20
-4.426205
  0
VERTEX
  8
PLAN_1
  6
CONTINUOUS
 10
1.233110
 20
-4.431831
  0
VERTEX
  8
PLAN_1
  6
CONTINUOUS
 10
1.228051
 20
-4.436327
  0
VERTEX
  8
PLAN_1
  6
CONTINUOUS
 10
1.222425
 20
-4.440827
  0
VERTEX
  8
PLAN_1
  6
CONTINUOUS
 10
1.216803
 20
-4.444201
  0
VERTEX
  8
PLAN_1
  6
CONTINUOUS
 10
1.211744
 20
-4.447575
  0
VERTEX
  8
PLAN_1
  6
CONTINUOUS
 10
1.206118
 20
-4.449823
  0
VERTEX
  8
PLAN_1
  6
CONTINUOUS
 10
1.200496
 20
-4.451512
  0
VERTEX
  8
PLAN_1
  6
CONTINUOUS
 10
1.195437
 20
-4.452634
  0
VERTEX
  8
PLAN_1
  6
CONTINUOUS
 10
1.190937
 20
-4.452634
  0
VERTEX
  8
PLAN_1
  6
CONTINUOUS
 10
1.187563
 20
-4.452634
  0
VERTEX
  8
PLAN_1
  6
CONTINUOUS
 10
1.184189
 20
-4.452071
  0
VERTEX
  8
PLAN_1
  6
CONTINUOUS
 10
1.181378
 20
-4.450386
  0
VERTEX
  8
PLAN_1
  6
CONTINUOUS
 10
1.178567
 20
-4.448701
  0
VERTEX
  8
PLAN_1
  6
CONTINUOUS
 10
1.176319
 20
-4.446449
  0
VERTEX
  8
PLAN_1
  6
CONTINUOUS
 10
1.174630
 20
-4.443075
  0
VERTEX
  8
PLAN_1
  6
CONTINUOUS
 10
1.173504
 20
-4.439701
  0
VERTEX
  8
PLAN_1
  6
CONTINUOUS
 10
1.172945
 20
-4.435205
  0
VERTEX
  8
PLAN_1
  6
CONTINUOUS
 10
1.172382
 20
-4.435768
  0
VERTEX
  8
PLAN_1
  6
CONTINUOUS
 10
1.169008
 20
-4.439138
  0
VERTEX
  8
PLAN_1
  6
CONTINUOUS
 10
1.165634
 20
-4.441953
  0
VERTEX
  8
PLAN_1
  6
CONTINUOUS
 10
1.161697
 20
-4.444764
  0
VERTEX
  8
PLAN_1
  6
CONTINUOUS
 10
1.157760
 20
-4.447575
  0
VERTEX
  8
PLAN_1
  6
CONTINUOUS
 10
1.153264
 20
-4.449823
  0
VERTEX
  8
PLAN_1
  6
CONTINUOUS
 10
1.148764
 20
-4.451512
  0
VERTEX
  8
PLAN_1
  6
CONTINUOUS
 10
1.143705
 20
-4.452634
  0
VERTEX
  8
PLAN_1
  6
CONTINUOUS
 10
1.139205
 20
-4.452634
  0
VERTEX
  8
PLAN_1
  6
CONTINUOUS
 10
1.134705
 20
-4.452634
  0
VERTEX
  8
PLAN_1
  6
CONTINUOUS
 10
1.130772
 20
-4.452071
  0
VERTEX
  8
PLAN_1
  6
CONTINUOUS
 10
1.126272
 20
-4.450949
  0
VERTEX
  8
PLAN_1
  6
CONTINUOUS
 10
1.122898
 20
-4.449260
  0
VERTEX
  8
PLAN_1
  6
CONTINUOUS
 10
1.118961
 20
-4.447575
  0
VERTEX
  8
PLAN_1
  6
CONTINUOUS
 10
1.115587
 20
-4.445327
  0
VERTEX
  8
PLAN_1
  6
CONTINUOUS
 10
1.112776
 20
-4.442512
  0
VERTEX
  8
PLAN_1
  6
CONTINUOUS
 10
1.109965
 20
-4.439701
  0
VERTEX
  8
PLAN_1
  6
CONTINUOUS
 10
1.107154
 20
-4.436327
  0
VERTEX
  8
PLAN_1
  6
CONTINUOUS
 10
1.104906
 20
-4.432953
  0
VERTEX
  8
PLAN_1
  6
CONTINUOUS
 10
1.103217
 20
-4.429579
  0
VERTEX
  8
PLAN_1
  6
CONTINUOUS
 10
1.101531
 20
-4.425646
  0
VERTEX
  8
PLAN_1
  6
CONTINUOUS
 10
1.099843
 20
-4.421709
  0
VERTEX
  8
PLAN_1
  6
CONTINUOUS
 10
1.099280
 20
-4.417209
  0
VERTEX
  8
PLAN_1
  6
CONTINUOUS
 10
1.098720
 20
-4.413272
  0
VERTEX
  8
PLAN_1
  6
CONTINUOUS
 10
1.098157
 20
-4.408776
  0
VERTEX
  8
PLAN_1
  6
CONTINUOUS
 10
1.098720
 20
-4.401465
  0
VERTEX
  8
PLAN_1
  6
CONTINUOUS
 10
1.099280
 20
-4.394717
  0
VERTEX
  8
PLAN_1
  6
CONTINUOUS
 10
1.100969
 20
-4.387406
  0
VERTEX
  8
PLAN_1
  6
CONTINUOUS
 10
1.102654
 20
-4.380661
  0
VERTEX
  8
PLAN_1
  6
CONTINUOUS
 10
1.105465
 20
-4.373913
  0
VERTEX
  8
PLAN_1
  6
CONTINUOUS
 10
1.108280
 20
-4.367728
  0
VERTEX
  8
PLAN_1
  6
CONTINUOUS
 10
1.112213
 20
-4.361539
  0
VERTEX
  8
PLAN_1
  6
CONTINUOUS
 10
1.116150
 20
-4.355917
  0
VERTEX
  8
PLAN_1
  6
CONTINUOUS
 10
1.120087
 20
-4.350858
  0
VERTEX
  8
PLAN_1
  6
CONTINUOUS
 10
1.125146
 20
-4.346358
  0
VERTEX
  8
PLAN_1
  6
CONTINUOUS
 10
1.130209
 20
-4.341862
  0
VERTEX
  8
PLAN_1
  6
CONTINUOUS
 10
1.136394
 20
-4.338488
  0
VERTEX
  8
PLAN_1
  6
CONTINUOUS
 10
1.142016
 20
-4.335673
  0
VERTEX
  8
PLAN_1
  6
CONTINUOUS
 10
1.148764
 20
-4.333425
  0
VERTEX
  8
PLAN_1
  6
CONTINUOUS
 10
1.155512
 20
-4.332299
  0
VERTEX
  8
PLAN_1
  6
CONTINUOUS
 10
1.162260
 20
-4.331740
  0
VERTEX
  8
PLAN_1
  6
CONTINUOUS
 10
1.167319
 20
-4.332299
  0
VERTEX
  8
PLAN_1
  6
CONTINUOUS
 10
1.171819
 20
-4.332862
  0
VERTEX
  8
PLAN_1
  6
CONTINUOUS
 10
1.176319
 20
-4.334551
  0
VERTEX
  8
PLAN_1
  6
CONTINUOUS
 10
1.180815
 20
-4.336799
  0
VERTEX
  8
PLAN_1
  6
CONTINUOUS
 10
1.184752
 20
-4.339610
  0
VERTEX
  8
PLAN_1
  6
CONTINUOUS
 10
1.188126
 20
-4.343547
  0
VERTEX
  8
PLAN_1
  6
CONTINUOUS
 10
1.191500
 20
-4.348047
  0
VERTEX
  8
PLAN_1
  6
CONTINUOUS
 10
1.194311
 20
-4.353669
  0
VERTEX
  8
PLAN_1
  6
CONTINUOUS
 10
1.199933
 20
-4.336236
  0
SEQEND
  8
0
  0
POLYLINE
  8
PLAN_1
  6
CONTINUOUS
 66
     1
 40
0.003000
 41
0.003000
  0
VERTEX
  8
PLAN_1
  6
CONTINUOUS
 10
1.162823
 20
-4.351980
  0
VERTEX
  8
PLAN_1
  6
CONTINUOUS
 10
1.158323
 20
-4.351980
  0
VERTEX
  8
PLAN_1
  6
CONTINUOUS
 10
1.153823
 20
-4.353106
  0
VERTEX
  8
PLAN_1
  6
CONTINUOUS
 10
1.149890
 20
-4.354795
  0
VERTEX
  8
PLAN_1
  6
CONTINUOUS
 10
1.145953
 20
-4.357043
  0
VERTEX
  8
PLAN_1
  6
CONTINUOUS
 10
1.142579
 20
-4.359854
  0
VERTEX
  8
PLAN_1
  6
CONTINUOUS
 10
1.138642
 20
-4.362665
  0
VERTEX
  8
PLAN_1
  6
CONTINUOUS
 10
1.135831
 20
-4.366602
  0
VERTEX
  8
PLAN_1
  6
CONTINUOUS
 10
1.133020
 20
-4.370539
  0
VERTEX
  8
PLAN_1
  6
CONTINUOUS
 10
1.130209
 20
-4.374472
  0
VERTEX
  8
PLAN_1
  6
CONTINUOUS
 10
1.127957
 20
-4.378972
  0
VERTEX
  8
PLAN_1
  6
CONTINUOUS
 10
1.125709
 20
-4.383472
  0
VERTEX
  8
PLAN_1
  6
CONTINUOUS
 10
1.124024
 20
-4.387969
  0
VERTEX
  8
PLAN_1
  6
CONTINUOUS
 10
1.122898
 20
-4.392469
  0
VERTEX
  8
PLAN_1
  6
CONTINUOUS
 10
1.121772
 20
-4.396969
  0
VERTEX
  8
PLAN_1
  6
CONTINUOUS
 10
1.121213
 20
-4.401465
  0
VERTEX
  8
PLAN_1
  6
CONTINUOUS
 10
1.121213
 20
-4.405965
  0
VERTEX
  8
PLAN_1
  6
CONTINUOUS
 10
1.121772
 20
-4.411587
  0
VERTEX
  8
PLAN_1
  6
CONTINUOUS
 10
1.122898
 20
-4.416646
  0
VERTEX
  8
PLAN_1
  6
CONTINUOUS
 10
1.124587
 20
-4.421709
  0
VERTEX
  8
PLAN_1
  6
CONTINUOUS
 10
1.127398
 20
-4.425646
  0
VERTEX
  8
PLAN_1
  6
CONTINUOUS
 10
1.130772
 20
-4.428457
  0
VERTEX
  8
PLAN_1
  6
CONTINUOUS
 10
1.134705
 20
-4.430705
  0
VERTEX
  8
PLAN_1
  6
CONTINUOUS
 10
1.139205
 20
-4.432394
  0
VERTEX
  8
PLAN_1
  6
CONTINUOUS
 10
1.144264
 20
-4.432953
  0
VERTEX
  8
PLAN_1
  6
CONTINUOUS
 10
1.148764
 20
-4.432394
  0
VERTEX
  8
PLAN_1
  6
CONTINUOUS
 10
1.152701
 20
-4.431268
  0
VERTEX
  8
PLAN_1
  6
CONTINUOUS
 10
1.157197
 20
-4.429579
  0
VERTEX
  8
PLAN_1
  6
CONTINUOUS
 10
1.160571
 20
-4.427331
  0
VERTEX
  8
PLAN_1
  6
CONTINUOUS
 10
1.164508
 20
-4.424520
  0
VERTEX
  8
PLAN_1
  6
CONTINUOUS
 10
1.167882
 20
-4.421146
  0
VERTEX
  8
PLAN_1
  6
CONTINUOUS
 10
1.171256
 20
-4.417772
  0
VERTEX
  8
PLAN_1
  6
CONTINUOUS
 10
1.174067
 20
-4.413272
  0
VERTEX
  8
PLAN_1
  6
CONTINUOUS
 10
1.176319
 20
-4.409339
  0
VERTEX
  8
PLAN_1
  6
CONTINUOUS
 10
1.179130
 20
-4.404839
  0
VERTEX
  8
PLAN_1
  6
CONTINUOUS
 10
1.180815
 20
-4.400339
  0
VERTEX
  8
PLAN_1
  6
CONTINUOUS
 10
1.182504
 20
-4.395280
  0
VERTEX
  8
PLAN_1
  6
CONTINUOUS
 10
1.184189
 20
-4.390780
  0
VERTEX
  8
PLAN_1
  6
CONTINUOUS
 10
1.184752
 20
-4.386283
  0
VERTEX
  8
PLAN_1
  6
CONTINUOUS
 10
1.185315
 20
-4.381783
  0
VERTEX
  8
PLAN_1
  6
CONTINUOUS
 10
1.185878
 20
-4.377287
  0
VERTEX
  8
PLAN_1
  6
CONTINUOUS
 10
1.185315
 20
-4.372224
  0
VERTEX
  8
PLAN_1
  6
CONTINUOUS
 10
1.184189
 20
-4.367728
  0
VERTEX
  8
PLAN_1
  6
CONTINUOUS
 10
1.181941
 20
-4.363228
  0
VERTEX
  8
PLAN_1
  6
CONTINUOUS
 10
1.179130
 20
-4.359291
  0
VERTEX
  8
PLAN_1
  6
CONTINUOUS
 10
1.175756
 20
-4.356480
  0
VERTEX
  8
PLAN_1
  6
CONTINUOUS
 10
1.171819
 20
-4.354232
  0
VERTEX
  8
PLAN_1
  6
CONTINUOUS
 10
1.167319
 20
-4.352543
  0
VERTEX
  8
PLAN_1
  6
CONTINUOUS
 10
1.162823
 20
-4.351980
  0
SEQEND
  8
0
  0
POLYLINE
  8
PLAN_1
  6
CONTINUOUS
 66
     1
 40
0.003000
 41
0.003000
  0
VERTEX
  8
PLAN_1
  6
CONTINUOUS
 10
1.450161
 20
-4.291252
  0
VERTEX
  8
PLAN_1
  6
CONTINUOUS
 10
1.477154
 20
-4.291252
  0
VERTEX
  8
PLAN_1
  6
CONTINUOUS
 10
1.477154
 20
-4.490874
  0
VERTEX
  8
PLAN_1
  6
CONTINUOUS
 10
1.450161
 20
-4.490874
  0
VERTEX
  8
PLAN_1
  6
CONTINUOUS
 10
1.450161
 20
-4.397528
  0
VERTEX
  8
PLAN_1
  6
CONTINUOUS
 10
1.346134
 20
-4.397528
  0
VERTEX
  8
PLAN_1
  6
CONTINUOUS
 10
1.346134
 20
-4.490874
  0
VERTEX
  8
PLAN_1
  6
CONTINUOUS
 10
1.319142
 20
-4.490874
  0
VERTEX
  8
PLAN_1
  6
CONTINUOUS
 10
1.319142
 20
-4.291252
  0
VERTEX
  8
PLAN_1
  6
CONTINUOUS
 10
1.346134
 20
-4.291252
  0
VERTEX
  8
PLAN_1
  6
CONTINUOUS
 10
1.346134
 20
-4.373913
  0
VERTEX
  8
PLAN_1
  6
CONTINUOUS
 10
1.450161
 20
-4.373913
  0
VERTEX
  8
PLAN_1
  6
CONTINUOUS
 10
1.450161
 20
-4.291252
  0
SEQEND
  8
0
  0
POLYLINE
  8
PLAN_1
  6
CONTINUOUS
 66
     1
 40
0.003000
 41
0.003000
  0
VERTEX
  8
PLAN_1
  6
CONTINUOUS
 10
1.510327
 20
-4.362665
  0
VERTEX
  8
PLAN_1
  6
CONTINUOUS
 10
1.510327
 20
-4.355917
  0
VERTEX
  8
PLAN_1
  6
CONTINUOUS
 10
1.510890
 20
-4.349169
  0
VERTEX
  8
PLAN_1
  6
CONTINUOUS
 10
1.512579
 20
-4.342984
  0
VERTEX
  8
PLAN_1
  6
CONTINUOUS
 10
1.514264
 20
-4.336799
  0
VERTEX
  8
PLAN_1
  6
CONTINUOUS
 10
1.516512
 20
-4.331177
  0
VERTEX
  8
PLAN_1
  6
CONTINUOUS
 10
1.519327
 20
-4.325555
  0
VERTEX
  8
PLAN_1
  6
CONTINUOUS
 10
1.522138
 20
-4.320492
  0
VERTEX
  8
PLAN_1
  6
CONTINUOUS
 10
1.526071
 20
-4.315433
  0
VERTEX
  8
PLAN_1
  6
CONTINUOUS
 10
1.530008
 20
-4.311496
  0
VERTEX
  8
PLAN_1
  6
CONTINUOUS
 10
1.535071
 20
-4.307559
  0
VERTEX
  8
PLAN_1
  6
CONTINUOUS
 10
1.540130
 20
-4.304185
  0
VERTEX
  8
PLAN_1
  6
CONTINUOUS
 10
1.545752
 20
-4.300811
  0
VERTEX
  8
PLAN_1
  6
CONTINUOUS
 10
1.551941
 20
-4.298563
  0
VERTEX
  8
PLAN_1
  6
CONTINUOUS
 10
1.558126
 20
-4.296874
  0
VERTEX
  8
PLAN_1
  6
CONTINUOUS
 10
1.565433
 20
-4.295752
  0
VERTEX
  8
PLAN_1
  6
CONTINUOUS
 10
1.572744
 20
-4.295752
  0
VERTEX
  8
PLAN_1
  6
CONTINUOUS
 10
1.578366
 20
-4.295752
  0
VERTEX
  8
PLAN_1
  6
CONTINUOUS
 10
1.583992
 20
-4.296315
  0
VERTEX
  8
PLAN_1
  6
CONTINUOUS
 10
1.589051
 20
-4.296874
  0
VERTEX
  8
PLAN_1
  6
CONTINUOUS
 10
1.593551
 20
-4.298000
  0
VERTEX
  8
PLAN_1
  6
CONTINUOUS
 10
1.598047
 20
-4.299689
  0
VERTEX
  8
PLAN_1
  6
CONTINUOUS
 10
1.601984
 20
-4.301374
  0
VERTEX
  8
PLAN_1
  6
CONTINUOUS
 10
1.605921
 20
-4.303063
  0
VERTEX
  8
PLAN_1
  6
CONTINUOUS
 10
1.609858
 20
-4.305311
  0
VERTEX
  8
PLAN_1
  6
CONTINUOUS
 10
1.613232
 20
-4.307559
  0
VERTEX
  8
PLAN_1
  6
CONTINUOUS
 10
1.616043
 20
-4.310370
  0
VERTEX
  8
PLAN_1
  6
CONTINUOUS
 10
1.618854
 20
-4.313181
  0
VERTEX
  8
PLAN_1
  6
CONTINUOUS
 10
1.621665
 20
-4.315996
  0
VERTEX
  8
PLAN_1
  6
CONTINUOUS
 10
1.626165
 20
-4.322181
  0
VERTEX
  8
PLAN_1
  6
CONTINUOUS
 10
1.630098
 20
-4.328929
  0
VERTEX
  8
PLAN_1
  6
CONTINUOUS
 10
1.633472
 20
-4.336236
  0
VERTEX
  8
PLAN_1
  6
CONTINUOUS
 10
1.635724
 20
-4.343547
  0
VERTEX
  8
PLAN_1
  6
CONTINUOUS
 10
1.637972
 20
-4.350858
  0
VERTEX
  8
PLAN_1
  6
CONTINUOUS
 10
1.639098
 20
-4.358728
  0
VERTEX
  8
PLAN_1
  6
CONTINUOUS
 10
1.640783
 20
-4.372787
  0
VERTEX
  8
PLAN_1
  6
CONTINUOUS
 10
1.641346
 20
-4.386283
  0
VERTEX
  8
PLAN_1
  6
CONTINUOUS
 10
1.640783
 20
-4.396969
  0
VERTEX
  8
PLAN_1
  6
CONTINUOUS
 10
1.639657
 20
-4.412150
  0
VERTEX
  8
PLAN_1
  6
CONTINUOUS
 10
1.637972
 20
-4.420583
  0
VERTEX
  8
PLAN_1
  6
CONTINUOUS
 10
1.636283
 20
-4.430142
  0
VERTEX
  8
PLAN_1
  6
CONTINUOUS
 10
1.634035
 20
-4.439138
  0
VERTEX
  8
PLAN_1
  6
CONTINUOUS
 10
1.630661
 20
-4.448701
  0
VERTEX
  8
PLAN_1
  6
CONTINUOUS
 10
1.627287
 20
-4.457697
  0
VERTEX
  8
PLAN_1
  6
CONTINUOUS
 10
1.622228
 20
-4.466693
  0
VERTEX
  8
PLAN_1
  6
CONTINUOUS
 10
1.619417
 20
-4.470630
  0
VERTEX
  8
PLAN_1
  6
CONTINUOUS
 10
1.616606
 20
-4.474567
  0
VERTEX
  8
PLAN_1
  6
CONTINUOUS
 10
1.613232
 20
-4.478500
  0
VERTEX
  8
PLAN_1
  6
CONTINUOUS
 10
1.609858
 20
-4.481874
  0
VERTEX
  8
PLAN_1
  6
CONTINUOUS
 10
1.605921
 20
-4.484685
  0
VERTEX
  8
PLAN_1
  6
CONTINUOUS
 10
1.601984
 20
-4.487500
  0
VERTEX
  8
PLAN_1
  6
CONTINUOUS
 10
1.597484
 20
-4.489748
  0
VERTEX
  8
PLAN_1
  6
CONTINUOUS
 10
1.592425
 20
-4.491996
  0
VERTEX
  8
PLAN_1
  6
CONTINUOUS
 10
1.587366
 20
-4.493685
  0
VERTEX
  8
PLAN_1
  6
CONTINUOUS
 10
1.582303
 20
-4.494807
  0
VERTEX
  8
PLAN_1
  6
CONTINUOUS
 10
1.576681
 20
-4.495933
  0
VERTEX
  8
PLAN_1
  6
CONTINUOUS
 10
1.570496
 20
-4.495933
  0
VERTEX
  8
PLAN_1
  6
CONTINUOUS
 10
1.562059
 20
-4.495370
  0
VERTEX
  8
PLAN_1
  6
CONTINUOUS
 10
1.554752
 20
-4.494244
  0
VERTEX
  8
PLAN_1
  6
CONTINUOUS
 10
1.548004
 20
-4.492559
  0
VERTEX
  8
PLAN_1
  6
CONTINUOUS
 10
1.541819
 20
-4.490311
  0
VERTEX
  8
PLAN_1
  6
CONTINUOUS
 10
1.536756
 20
-4.487500
  0
VERTEX
  8
PLAN_1
  6
CONTINUOUS
 10
1.531697
 20
-4.484126
  0
VERTEX
  8
PLAN_1
  6
CONTINUOUS
 10
1.527760
 20
-4.480752
  0
VERTEX
  8
PLAN_1
  6
CONTINUOUS
 10
1.524386
 20
-4.476815
  0
VERTEX
  8
PLAN_1
  6
CONTINUOUS
 10
1.521012
 20
-4.472878
  0
VERTEX
  8
PLAN_1
  6
CONTINUOUS
 10
1.518764
 20
-4.468378
  0
VERTEX
  8
PLAN_1
  6
CONTINUOUS
 10
1.516512
 20
-4.464445
  0
VERTEX
  8
PLAN_1
  6
CONTINUOUS
 10
1.514827
 20
-4.459945
  0
VERTEX
  8
PLAN_1
  6
CONTINUOUS
 10
1.513701
 20
-4.455445
  0
VERTEX
  8
PLAN_1
  6
CONTINUOUS
 10
1.513138
 20
-4.451512
  0
VERTEX
  8
PLAN_1
  6
CONTINUOUS
 10
1.512579
 20
-4.447575
  0
VERTEX
  8
PLAN_1
  6
CONTINUOUS
 10
1.512579
 20
-4.443638
  0
VERTEX
  8
PLAN_1
  6
CONTINUOUS
 10
1.536756
 20
-4.443638
  0
VERTEX
  8
PLAN_1
  6
CONTINUOUS
 10
1.537882
 20
-4.450949
  0
VERTEX
  8
PLAN_1
  6
CONTINUOUS
 10
1.539567
 20
-4.457134
  0
VERTEX
  8
PLAN_1
  6
CONTINUOUS
 10
1.541256
 20
-4.459945
  0
VERTEX
  8
PLAN_1
  6
CONTINUOUS
 10
1.542378
 20
-4.462756
  0
VERTEX
  8
PLAN_1
  6
CONTINUOUS
 10
1.544067
 20
-4.465008
  0
VERTEX
  8
PLAN_1
  6
CONTINUOUS
 10
1.546315
 20
-4.467256
  0
VERTEX
  8
PLAN_1
  6
CONTINUOUS
 10
1.548567
 20
-4.468941
  0
VERTEX
  8
PLAN_1
  6
CONTINUOUS
 10
1.550815
 20
-4.470630
  0
VERTEX
  8
PLAN_1
  6
CONTINUOUS
 10
1.553626
 20
-4.472315
  0
VERTEX
  8
PLAN_1
  6
CONTINUOUS
 10
1.556437
 20
-4.473441
  0
VERTEX
  8
PLAN_1
  6
CONTINUOUS
 10
1.559248
 20
-4.474567
  0
VERTEX
  8
PLAN_1
  6
CONTINUOUS
 10
1.562622
 20
-4.475126
  0
VERTEX
  8
PLAN_1
  6
CONTINUOUS
 10
1.565996
 20
-4.475689
  0
VERTEX
  8
PLAN_1
  6
CONTINUOUS
 10
1.569933
 20
-4.475689
  0
VERTEX
  8
PLAN_1
  6
CONTINUOUS
 10
1.574433
 20
-4.475126
  0
VERTEX
  8
PLAN_1
  6
CONTINUOUS
 10
1.579492
 20
-4.474567
  0
VERTEX
  8
PLAN_1
  6
CONTINUOUS
 10
1.583429
 20
-4.473441
  0
VERTEX
  8
PLAN_1
  6
CONTINUOUS
 10
1.587366
 20
-4.471193
  0
VERTEX
  8
PLAN_1
  6
CONTINUOUS
 10
1.591299
 20
-4.468941
  0
VERTEX
  8
PLAN_1
  6
CONTINUOUS
 10
1.594673
 20
-4.466130
  0
VERTEX
  8
PLAN_1
  6
CONTINUOUS
 10
1.598047
 20
-4.462193
  0
VERTEX
  8
PLAN_1
  6
CONTINUOUS
 10
1.600858
 20
-4.458260
  0
VERTEX
  8
PLAN_1
  6
CONTINUOUS
 10
1.603673
 20
-4.453197
  0
VERTEX
  8
PLAN_1
  6
CONTINUOUS
 10
1.606484
 20
-4.448138
  0
VERTEX
  8
PLAN_1
  6
CONTINUOUS
 10
1.608732
 20
-4.441953
  0
VERTEX
  8
PLAN_1
  6
CONTINUOUS
 10
1.610417
 20
-4.435205
  0
VERTEX
  8
PLAN_1
  6
CONTINUOUS
 10
1.612669
 20
-4.427894
  0
VERTEX
  8
PLAN_1
  6
CONTINUOUS
 10
1.613791
 20
-4.420583
  0
VERTEX
  8
PLAN_1
  6
CONTINUOUS
 10
1.615480
 20
-4.411587
  0
VERTEX
  8
PLAN_1
  6
CONTINUOUS
 10
1.616606
 20
-4.402591
  0
VERTEX
  8
PLAN_1
  6
CONTINUOUS
 10
1.616043
 20
-4.402028
  0
VERTEX
  8
PLAN_1
  6
CONTINUOUS
 10
1.614917
 20
-4.404839
  0
VERTEX
  8
PLAN_1
  6
CONTINUOUS
 10
1.612669
 20
-4.407650
  0
VERTEX
  8
PLAN_1
  6
CONTINUOUS
 10
1.610980
 20
-4.409902
  0
VERTEX
  8
PLAN_1
  6
CONTINUOUS
 10
1.608732
 20
-4.412150
  0
VERTEX
  8
PLAN_1
  6
CONTINUOUS
 10
1.603673
 20
-4.416087
  0
VERTEX
  8
PLAN_1
  6
CONTINUOUS
 10
1.598047
 20
-4.419461
  0
VERTEX
  8
PLAN_1
  6
CONTINUOUS
 10
1.591862
 20
-4.422272
  0
VERTEX
  8
PLAN_1
  6
CONTINUOUS
 10
1.585114
 20
-4.423957
  0
VERTEX
  8
PLAN_1
  6
CONTINUOUS
 10
1.578366
 20
-4.425083
  0
VERTEX
  8
PLAN_1
  6
CONTINUOUS
 10
1.571618
 20
-4.425646
  0
VERTEX
  8
PLAN_1
  6
CONTINUOUS
 10
1.564874
 20
-4.425083
  0
VERTEX
  8
PLAN_1
  6
CONTINUOUS
 10
1.558685
 20
-4.424520
  0
VERTEX
  8
PLAN_1
  6
CONTINUOUS
 10
1.552500
 20
-4.422835
  0
VERTEX
  8
PLAN_1
  6
CONTINUOUS
 10
1.546878
 20
-4.421146
  0
VERTEX
  8
PLAN_1
  6
CONTINUOUS
 10
1.541256
 20
-4.418898
  0
VERTEX
  8
PLAN_1
  6
CONTINUOUS
 10
1.536193
 20
-4.415524
  0
VERTEX
  8
PLAN_1
  6
CONTINUOUS
 10
1.531697
 20
-4.412150
  0
VERTEX
  8
PLAN_1
  6
CONTINUOUS
 10
1.527197
 20
-4.408776
  0
VERTEX
  8
PLAN_1
  6
CONTINUOUS
 10
1.523260
 20
-4.404276
  0
VERTEX
  8
PLAN_1
  6
CONTINUOUS
 10
1.519886
 20
-4.399217
  0
VERTEX
  8
PLAN_1
  6
CONTINUOUS
 10
1.517075
 20
-4.394154
  0
VERTEX
  8
PLAN_1
  6
CONTINUOUS
 10
1.514827
 20
-4.388531
  0
VERTEX
  8
PLAN_1
  6
CONTINUOUS
 10
1.512579
 20
-4.382909
  0
VERTEX
  8
PLAN_1
  6
CONTINUOUS
 10
1.511453
 20
-4.376161
  0
VERTEX
  8
PLAN_1
  6
CONTINUOUS
 10
1.510327
 20
-4.369413
  0
VERTEX
  8
PLAN_1
  6
CONTINUOUS
 10
1.510327
 20
-4.362665
  0
SEQEND
  8
0
  0
POLYLINE
  8
PLAN_1
  6
CONTINUOUS
 66
     1
 40
0.003000
 41
0.003000
  0
VERTEX
  8
PLAN_1
  6
CONTINUOUS
 10
1.612669
 20
-4.359291
  0
VERTEX
  8
PLAN_1
  6
CONTINUOUS
 10
1.612669
 20
-4.354795
  0
VERTEX
  8
PLAN_1
  6
CONTINUOUS
 10
1.612106
 20
-4.350858
  0
VERTEX
  8
PLAN_1
  6
CONTINUOUS
 10
1.611543
 20
-4.346921
  0
VERTEX
  8
PLAN_1
  6
CONTINUOUS
 10
1.610417
 20
-4.342984
  0
VERTEX
  8
PLAN_1
  6
CONTINUOUS
 10
1.609295
 20
-4.339610
  0
VERTEX
  8
PLAN_1
  6
CONTINUOUS
 10
1.607606
 20
-4.336236
  0
VERTEX
  8
PLAN_1
  6
CONTINUOUS
 10
1.605358
 20
-4.332862
  0
VERTEX
  8
PLAN_1
  6
CONTINUOUS
 10
1.603110
 20
-4.330051
  0
VERTEX
  8
PLAN_1
  6
CONTINUOUS
 10
1.600858
 20
-4.327240
  0
VERTEX
  8
PLAN_1
  6
CONTINUOUS
 10
1.598047
 20
-4.324992
  0
VERTEX
  8
PLAN_1
  6
CONTINUOUS
 10
1.594673
 20
-4.322740
  0
VERTEX
  8
PLAN_1
  6
CONTINUOUS
 10
1.591299
 20
-4.321055
  0
VERTEX
  8
PLAN_1
  6
CONTINUOUS
 10
1.587366
 20
-4.319366
  0
VERTEX
  8
PLAN_1
  6
CONTINUOUS
 10
1.582866
 20
-4.318244
  0
VERTEX
  8
PLAN_1
  6
CONTINUOUS
 10
1.578366
 20
-4.317681
  0
VERTEX
  8
PLAN_1
  6
CONTINUOUS
 10
1.573307
 20
-4.317681
  0
VERTEX
  8
PLAN_1
  6
CONTINUOUS
 10
1.568807
 20
-4.317681
  0
VERTEX
  8
PLAN_1
  6
CONTINUOUS
 10
1.564874
 20
-4.318244
  0
VERTEX
  8
PLAN_1
  6
CONTINUOUS
 10
1.560937
 20
-4.319366
  0
VERTEX
  8
PLAN_1
  6
CONTINUOUS
 10
1.557563
 20
-4.320492
  0
VERTEX
  8
PLAN_1
  6
CONTINUOUS
 10
1.554189
 20
-4.322181
  0
VERTEX
  8
PLAN_1
  6
CONTINUOUS
 10
1.551378
 20
-4.324429
  0
VERTEX
  8
PLAN_1
  6
CONTINUOUS
 10
1.548567
 20
-4.326677
  0
VERTEX
  8
PLAN_1
  6
CONTINUOUS
 10
1.545752
 20
-4.329488
  0
VERTEX
  8
PLAN_1
  6
CONTINUOUS
 10
1.543504
 20
-4.332862
  0
VERTEX
  8
PLAN_1
  6
CONTINUOUS
 10
1.541256
 20
-4.336236
  0
VERTEX
  8
PLAN_1
  6
CONTINUOUS
 10
1.539567
 20
-4.339610
  0
VERTEX
  8
PLAN_1
  6
CONTINUOUS
 10
1.537882
 20
-4.343547
  0
VERTEX
  8
PLAN_1
  6
CONTINUOUS
 10
1.536756
 20
-4.347484
  0
VERTEX
  8
PLAN_1
  6
CONTINUOUS
 10
1.536193
 20
-4.351980
  0
VERTEX
  8
PLAN_1
  6
CONTINUOUS
 10
1.535634
 20
-4.356480
  0
VERTEX
  8
PLAN_1
  6
CONTINUOUS
 10
1.535634
 20
-4.361539
  0
VERTEX
  8
PLAN_1
  6
CONTINUOUS
 10
1.535634
 20
-4.367728
  0
VERTEX
  8
PLAN_1
  6
CONTINUOUS
 10
1.536193
 20
-4.373913
  0
VERTEX
  8
PLAN_1
  6
CONTINUOUS
 10
1.537882
 20
-4.378972
  0
VERTEX
  8
PLAN_1
  6
CONTINUOUS
 10
1.539567
 20
-4.383472
  0
VERTEX
  8
PLAN_1
  6
CONTINUOUS
 10
1.541256
 20
-4.387969
  0
VERTEX
  8
PLAN_1
  6
CONTINUOUS
 10
1.543504
 20
-4.391343
  0
VERTEX
  8
PLAN_1
  6
CONTINUOUS
 10
1.546315
 20
-4.394154
  0
VERTEX
  8
PLAN_1
  6
CONTINUOUS
 10
1.549126
 20
-4.396406
  0
VERTEX
  8
PLAN_1
  6
CONTINUOUS
 10
1.551941
 20
-4.398654
  0
VERTEX
  8
PLAN_1
  6
CONTINUOUS
 10
1.555311
 20
-4.399780
  0
VERTEX
  8
PLAN_1
  6
CONTINUOUS
 10
1.558685
 20
-4.401465
  0
VERTEX
  8
PLAN_1
  6
CONTINUOUS
 10
1.562059
 20
-4.402028
  0
VERTEX
  8
PLAN_1
  6
CONTINUOUS
 10
1.568807
 20
-4.403154
  0
VERTEX
  8
PLAN_1
  6
CONTINUOUS
 10
1.574992
 20
-4.403713
  0
VERTEX
  8
PLAN_1
  6
CONTINUOUS
 10
1.580618
 20
-4.403154
  0
VERTEX
  8
PLAN_1
  6
CONTINUOUS
 10
1.586240
 20
-4.402028
  0
VERTEX
  8
PLAN_1
  6
CONTINUOUS
 10
1.589614
 20
-4.400902
  0
VERTEX
  8
PLAN_1
  6
CONTINUOUS
 10
1.592425
 20
-4.399780
  0
VERTEX
  8
PLAN_1
  6
CONTINUOUS
 10
1.595799
 20
-4.398091
  0
VERTEX
  8
PLAN_1
  6
CONTINUOUS
 10
1.598610
 20
-4.395843
  0
VERTEX
  8
PLAN_1
  6
CONTINUOUS
 10
1.601421
 20
-4.393031
  0
VERTEX
  8
PLAN_1
  6
CONTINUOUS
 10
1.604232
 20
-4.390220
  0
VERTEX
  8
PLAN_1
  6
CONTINUOUS
 10
1.606484
 20
-4.386283
  0
VERTEX
  8
PLAN_1
  6
CONTINUOUS
 10
1.608732
 20
-4.382346
  0
VERTEX
  8
PLAN_1
  6
CONTINUOUS
 10
1.610417
 20
-4.377287
  0
VERTEX
  8
PLAN_1
  6
CONTINUOUS
 10
1.611543
 20
-4.372224
  0
VERTEX
  8
PLAN_1
  6
CONTINUOUS
 10
1.612106
 20
-4.366039
  0
VERTEX
  8
PLAN_1
  6
CONTINUOUS
 10
1.612669
 20
-4.359291
  0
SEQEND
  8
0
  0
POLYLINE
  8
PLAN_1
  6
CONTINUOUS
 66
     1
 40
0.003000
 41
0.003000
  0
VERTEX
  8
PLAN_1
  6
CONTINUOUS
 10
1.704323
 20
-4.490874
  0
VERTEX
  8
PLAN_1
  6
CONTINUOUS
 10
1.677335
 20
-4.490874
  0
VERTEX
  8
PLAN_1
  6
CONTINUOUS
 10
1.677335
 20
-4.291252
  0
VERTEX
  8
PLAN_1
  6
CONTINUOUS
 10
1.769551
 20
-4.291252
  0
VERTEX
  8
PLAN_1
  6
CONTINUOUS
 10
1.775736
 20
-4.291252
  0
VERTEX
  8
PLAN_1
  6
CONTINUOUS
 10
1.781362
 20
-4.291815
  0
VERTEX
  8
PLAN_1
  6
CONTINUOUS
 10
1.787547
 20
-4.292941
  0
VERTEX
  8
PLAN_1
  6
CONTINUOUS
 10
1.793732
 20
-4.294063
  0
VERTEX
  8
PLAN_1
  6
CONTINUOUS
 10
1.799354
 20
-4.295189
  0
VERTEX
  8
PLAN_1
  6
CONTINUOUS
 10
1.804417
 20
-4.297437
  0
VERTEX
  8
PLAN_1
  6
CONTINUOUS
 10
1.809476
 20
-4.299689
  0
VERTEX
  8
PLAN_1
  6
CONTINUOUS
 10
1.814535
 20
-4.302500
  0
VERTEX
  8
PLAN_1
  6
CONTINUOUS
 10
1.819035
 20
-4.305874
  0
VERTEX
  8
PLAN_1
  6
CONTINUOUS
 10
1.822972
 20
-4.309248
  0
VERTEX
  8
PLAN_1
  6
CONTINUOUS
 10
1.826346
 20
-4.313744
  0
VERTEX
  8
PLAN_1
  6
CONTINUOUS
 10
1.829157
 20
-4.318807
  0
VERTEX
  8
PLAN_1
  6
CONTINUOUS
 10
1.831406
 20
-4.324429
  0
VERTEX
  8
PLAN_1
  6
CONTINUOUS
 10
1.833654
 20
-4.330614
  0
VERTEX
  8
PLAN_1
  6
CONTINUOUS
 10
1.834780
 20
-4.337362
  0
VERTEX
  8
PLAN_1
  6
CONTINUOUS
 10
1.834780
 20
-4.344673
  0
VERTEX
  8
PLAN_1
  6
CONTINUOUS
 10
1.834780
 20
-4.350295
  0
VERTEX
  8
PLAN_1
  6
CONTINUOUS
 10
1.834217
 20
-4.355354
  0
VERTEX
  8
PLAN_1
  6
CONTINUOUS
 10
1.833654
 20
-4.359854
  0
VERTEX
  8
PLAN_1
  6
CONTINUOUS
 10
1.832531
 20
-4.363791
  0
VERTEX
  8
PLAN_1
  6
CONTINUOUS
 10
1.830843
 20
-4.367728
  0
VERTEX
  8
PLAN_1
  6
CONTINUOUS
 10
1.829720
 20
-4.371102
  0
VERTEX
  8
PLAN_1
  6
CONTINUOUS
 10
1.828031
 20
-4.373913
  0
VERTEX
  8
PLAN_1
  6
CONTINUOUS
 10
1.825783
 20
-4.377287
  0
VERTEX
  8
PLAN_1
  6
CONTINUOUS
 10
1.821283
 20
-4.381783
  0
VERTEX
  8
PLAN_1
  6
CONTINUOUS
 10
1.816787
 20
-4.386283
  0
VERTEX
  8
PLAN_1
  6
CONTINUOUS
 10
1.812287
 20
-4.389657
  0
VERTEX
  8
PLAN_1
  6
CONTINUOUS
 10
1.807228
 20
-4.392469
  0
VERTEX
  8
PLAN_1
  6
CONTINUOUS
 10
1.811161
 20
-4.394717
  0
VERTEX
  8
PLAN_1
  6
CONTINUOUS
 10
1.815661
 20
-4.396406
  0
VERTEX
  8
PLAN_1
  6
CONTINUOUS
 10
1.819598
 20
-4.399217
  0
VERTEX
  8
PLAN_1
  6
CONTINUOUS
 10
1.822972
 20
-4.402591
  0
VERTEX
  8
PLAN_1
  6
CONTINUOUS
 10
1.824657
 20
-4.404839
  0
VERTEX
  8
PLAN_1
  6
CONTINUOUS
 10
1.825783
 20
-4.407087
  0
VERTEX
  8
PLAN_1
  6
CONTINUOUS
 10
1.827469
 20
-4.409902
  0
VERTEX
  8
PLAN_1
  6
CONTINUOUS
 10
1.828594
 20
-4.413272
  0
VERTEX
  8
PLAN_1
  6
CONTINUOUS
 10
1.830283
 20
-4.420583
  0
VERTEX
  8
PLAN_1
  6
CONTINUOUS
 10
1.830843
 20
-4.430142
  0
VERTEX
  8
PLAN_1
  6
CONTINUOUS
 10
1.832531
 20
-4.466130
  0
VERTEX
  8
PLAN_1
  6
CONTINUOUS
 10
1.833094
 20
-4.470067
  0
VERTEX
  8
PLAN_1
  6
CONTINUOUS
 10
1.833094
 20
-4.473441
  0
VERTEX
  8
PLAN_1
  6
CONTINUOUS
 10
1.833654
 20
-4.476252
  0
VERTEX
  8
PLAN_1
  6
CONTINUOUS
 10
1.834780
 20
-4.478500
  0
VERTEX
  8
PLAN_1
  6
CONTINUOUS
 10
1.835906
 20
-4.480752
  0
VERTEX
  8
PLAN_1
  6
CONTINUOUS
 10
1.837591
 20
-4.482437
  0
VERTEX
  8
PLAN_1
  6
CONTINUOUS
 10
1.839843
 20
-4.484685
  0
VERTEX
  8
PLAN_1
  6
CONTINUOUS
 10
1.842654
 20
-4.486374
  0
VERTEX
  8
PLAN_1
  6
CONTINUOUS
 10
1.842654
 20
-4.490874
  0
VERTEX
  8
PLAN_1
  6
CONTINUOUS
 10
1.809476
 20
-4.490874
  0
VERTEX
  8
PLAN_1
  6
CONTINUOUS
 10
1.808350
 20
-4.485248
  0
VERTEX
  8
PLAN_1
  6
CONTINUOUS
 10
1.807228
 20
-4.478500
  0
VERTEX
  8
PLAN_1
  6
CONTINUOUS
 10
1.806665
 20
-4.471193
  0
VERTEX
  8
PLAN_1
  6
CONTINUOUS
 10
1.806102
 20
-4.463882
  0
VERTEX
  8
PLAN_1
  6
CONTINUOUS
 10
1.805539
 20
-4.456571
  0
VERTEX
  8
PLAN_1
  6
CONTINUOUS
 10
1.804976
 20
-4.449823
  0
VERTEX
  8
PLAN_1
  6
CONTINUOUS
 10
1.804976
 20
-4.444764
  0
VERTEX
  8
PLAN_1
  6
CONTINUOUS
 10
1.804976
 20
-4.440827
  0
VERTEX
  8
PLAN_1
  6
CONTINUOUS
 10
1.804976
 20
-4.434642
  0
VERTEX
  8
PLAN_1
  6
CONTINUOUS
 10
1.803854
 20
-4.428457
  0
VERTEX
  8
PLAN_1
  6
CONTINUOUS
 10
1.803291
 20
-4.425083
  0
VERTEX
  8
PLAN_1
  6
CONTINUOUS
 10
1.802165
 20
-4.422272
  0
VERTEX
  8
PLAN_1
  6
CONTINUOUS
 10
1.801043
 20
-4.419461
  0
VERTEX
  8
PLAN_1
  6
CONTINUOUS
 10
1.799354
 20
-4.416646
  0
VERTEX
  8
PLAN_1
  6
CONTINUOUS
 10
1.797106
 20
-4.414398
  0
VERTEX
  8
PLAN_1
  6
CONTINUOUS
 10
1.794854
 20
-4.412150
  0
VERTEX
  8
PLAN_1
  6
CONTINUOUS
 10
1.792043
 20
-4.409902
  0
VERTEX
  8
PLAN_1
  6
CONTINUOUS
 10
1.788669
 20
-4.408213
  0
VERTEX
  8
PLAN_1
  6
CONTINUOUS
 10
1.784736
 20
-4.407087
  0
VERTEX
  8
PLAN_1
  6
CONTINUOUS
 10
1.780236
 20
-4.405965
  0
VERTEX
  8
PLAN_1
  6
CONTINUOUS
 10
1.775177
 20
-4.405402
  0
VERTEX
  8
PLAN_1
  6
CONTINUOUS
 10
1.769551
 20
-4.405402
  0
VERTEX
  8
PLAN_1
  6
CONTINUOUS
 10
1.704323
 20
-4.405402
  0
VERTEX
  8
PLAN_1
  6
CONTINUOUS
 10
1.704323
 20
-4.490874
  0
SEQEND
  8
0
  0
POLYLINE
  8
PLAN_1
  6
CONTINUOUS
 66
     1
 40
0.003000
 41
0.003000
  0
VERTEX
  8
PLAN_1
  6
CONTINUOUS
 10
1.704323
 20
-4.382346
  0
VERTEX
  8
PLAN_1
  6
CONTINUOUS
 10
1.766740
 20
-4.382346
  0
VERTEX
  8
PLAN_1
  6
CONTINUOUS
 10
1.774051
 20
-4.381783
  0
VERTEX
  8
PLAN_1
  6
CONTINUOUS
 10
1.781362
 20
-4.380661
  0
VERTEX
  8
PLAN_1
  6
CONTINUOUS
 10
1.784736
 20
-4.380098
  0
VERTEX
  8
PLAN_1
  6
CONTINUOUS
 10
1.788110
 20
-4.378972
  0
VERTEX
  8
PLAN_1
  6
CONTINUOUS
 10
1.791484
 20
-4.377846
  0
VERTEX
  8
PLAN_1
  6
CONTINUOUS
 10
1.794295
 20
-4.376161
  0
VERTEX
  8
PLAN_1
  6
CONTINUOUS
 10
1.797106
 20
-4.373913
  0
VERTEX
  8
PLAN_1
  6
CONTINUOUS
 10
1.799354
 20
-4.371661
  0
VERTEX
  8
PLAN_1
  6
CONTINUOUS
 10
1.801602
 20
-4.368850
  0
VERTEX
  8
PLAN_1
  6
CONTINUOUS
 10
1.803854
 20
-4.365476
  0
VERTEX
  8
PLAN_1
  6
CONTINUOUS
 10
1.804976
 20
-4.362102
  0
VERTEX
  8
PLAN_1
  6
CONTINUOUS
 10
1.806102
 20
-4.357606
  0
VERTEX
  8
PLAN_1
  6
CONTINUOUS
 10
1.806665
 20
-4.353106
  0
VERTEX
  8
PLAN_1
  6
CONTINUOUS
 10
1.807228
 20
-4.347484
  0
VERTEX
  8
PLAN_1
  6
CONTINUOUS
 10
1.806665
 20
-4.342421
  0
VERTEX
  8
PLAN_1
  6
CONTINUOUS
 10
1.806102
 20
-4.337362
  0
VERTEX
  8
PLAN_1
  6
CONTINUOUS
 10
1.804976
 20
-4.333425
  0
VERTEX
  8
PLAN_1
  6
CONTINUOUS
 10
1.803291
 20
-4.329488
  0
VERTEX
  8
PLAN_1
  6
CONTINUOUS
 10
1.801602
 20
-4.326114
  0
VERTEX
  8
PLAN_1
  6
CONTINUOUS
 10
1.799354
 20
-4.323866
  0
VERTEX
  8
PLAN_1
  6
CONTINUOUS
 10
1.797106
 20
-4.321618
  0
VERTEX
  8
PLAN_1
  6
CONTINUOUS
 10
1.794295
 20
-4.319366
  0
VERTEX
  8
PLAN_1
  6
CONTINUOUS
 10
1.791484
 20
-4.318244
  0
VERTEX
  8
PLAN_1
  6
CONTINUOUS
 10
1.788669
 20
-4.317118
  0
VERTEX
  8
PLAN_1
  6
CONTINUOUS
 10
1.785295
 20
-4.315996
  0
VERTEX
  8
PLAN_1
  6
CONTINUOUS
 10
1.782484
 20
-4.315433
  0
VERTEX
  8
PLAN_1
  6
CONTINUOUS
 10
1.776862
 20
-4.314870
  0
VERTEX
  8
PLAN_1
  6
CONTINUOUS
 10
1.771240
 20
-4.314307
  0
VERTEX
  8
PLAN_1
  6
CONTINUOUS
 10
1.704323
 20
-4.314307
  0
VERTEX
  8
PLAN_1
  6
CONTINUOUS
 10
1.704323
 20
-4.382346
  0
SEQEND
  8
0
  0
SOLID
  8
PLAN_1
 10
1.906193
 20
-4.490874
 11
1.877516
 21
-4.490874
 12
1.906193
 22
-4.461071
 13
1.877516
 23
-4.461071
  0
POLYLINE
  8
PLAN_1
  6
CONTINUOUS
 66
     1
 40
0.003000
 41
0.003000
  0
VERTEX
  8
PLAN_1
  6
CONTINUOUS
 10
1.906193
 20
-4.490874
  0
VERTEX
  8
PLAN_1
  6
CONTINUOUS
 10
1.877516
 20
-4.490874
  0
VERTEX
  8
PLAN_1
  6
CONTINUOUS
 10
1.877516
 20
-4.461071
  0
VERTEX
  8
PLAN_1
  6
CONTINUOUS
 10
1.906193
 20
-4.461071
  0
VERTEX
  8
PLAN_1
  6
CONTINUOUS
 10
1.906193
 20
-4.490874
  0
SEQEND
  8
0
  0
POLYLINE
  8
PLAN_1
  6
CONTINUOUS
 66
     1
 40
0.003000
 41
0.003000
  0
VERTEX
  8
PLAN_1
  6
CONTINUOUS
 10
2.101315
 20
-4.490874
  0
VERTEX
  8
PLAN_1
  6
CONTINUOUS
 10
1.954551
 20
-4.490874
  0
VERTEX
  8
PLAN_1
  6
CONTINUOUS
 10
1.954551
 20
-4.291252
  0
VERTEX
  8
PLAN_1
  6
CONTINUOUS
 10
2.099626
 20
-4.291252
  0
VERTEX
  8
PLAN_1
  6
CONTINUOUS
 10
2.099626
 20
-4.315433
  0
VERTEX
  8
PLAN_1
  6
CONTINUOUS
 10
1.981543
 20
-4.315433
  0
VERTEX
  8
PLAN_1
  6
CONTINUOUS
 10
1.981543
 20
-4.376161
  0
VERTEX
  8
PLAN_1
  6
CONTINUOUS
 10
2.090067
 20
-4.376161
  0
VERTEX
  8
PLAN_1
  6
CONTINUOUS
 10
2.090067
 20
-4.400339
  0
VERTEX
  8
PLAN_1
  6
CONTINUOUS
 10
1.981543
 20
-4.400339
  0
VERTEX
  8
PLAN_1
  6
CONTINUOUS
 10
1.981543
 20
-4.466693
  0
VERTEX
  8
PLAN_1
  6
CONTINUOUS
 10
2.101315
 20
-4.466693
  0
VERTEX
  8
PLAN_1
  6
CONTINUOUS
 10
2.101315
 20
-4.490874
  0
SEQEND
  8
0
  0
POLYLINE
  8
PLAN_1
  6
CONTINUOUS
 66
     1
 40
0.003000
 41
0.003000
  0
VERTEX
  8
PLAN_1
  6
CONTINUOUS
 10
2.166543
 20
-4.490874
  0
VERTEX
  8
PLAN_1
  6
CONTINUOUS
 10
2.139551
 20
-4.490874
  0
VERTEX
  8
PLAN_1
  6
CONTINUOUS
 10
2.139551
 20
-4.291252
  0
VERTEX
  8
PLAN_1
  6
CONTINUOUS
 10
2.228957
 20
-4.291252
  0
VERTEX
  8
PLAN_1
  6
CONTINUOUS
 10
2.235705
 20
-4.291815
  0
VERTEX
  8
PLAN_1
  6
CONTINUOUS
 10
2.242453
 20
-4.292378
  0
VERTEX
  8
PLAN_1
  6
CONTINUOUS
 10
2.248638
 20
-4.294063
  0
VERTEX
  8
PLAN_1
  6
CONTINUOUS
 10
2.254264
 20
-4.295752
  0
VERTEX
  8
PLAN_1
  6
CONTINUOUS
 10
2.259323
 20
-4.298000
  0
VERTEX
  8
PLAN_1
  6
CONTINUOUS
 10
2.264382
 20
-4.300811
  0
VERTEX
  8
PLAN_1
  6
CONTINUOUS
 10
2.268319
 20
-4.303622
  0
VERTEX
  8
PLAN_1
  6
CONTINUOUS
 10
2.272819
 20
-4.307559
  0
VERTEX
  8
PLAN_1
  6
CONTINUOUS
 10
2.276193
 20
-4.311496
  0
VERTEX
  8
PLAN_1
  6
CONTINUOUS
 10
2.279567
 20
-4.315433
  0
VERTEX
  8
PLAN_1
  6
CONTINUOUS
 10
2.281815
 20
-4.319929
  0
VERTEX
  8
PLAN_1
  6
CONTINUOUS
 10
2.284063
 20
-4.324992
  0
VERTEX
  8
PLAN_1
  6
CONTINUOUS
 10
2.286315
 20
-4.330051
  0
VERTEX
  8
PLAN_1
  6
CONTINUOUS
 10
2.287437
 20
-4.335673
  0
VERTEX
  8
PLAN_1
  6
CONTINUOUS
 10
2.288000
 20
-4.341299
  0
VERTEX
  8
PLAN_1
  6
CONTINUOUS
 10
2.288563
 20
-4.347484
  0
VERTEX
  8
PLAN_1
  6
CONTINUOUS
 10
2.288000
 20
-4.352543
  0
VERTEX
  8
PLAN_1
  6
CONTINUOUS
 10
2.287437
 20
-4.358169
  0
VERTEX
  8
PLAN_1
  6
CONTINUOUS
 10
2.286315
 20
-4.363228
  0
VERTEX
  8
PLAN_1
  6
CONTINUOUS
 10
2.285189
 20
-4.368287
  0
VERTEX
  8
PLAN_1
  6
CONTINUOUS
 10
2.283504
 20
-4.373350
  0
VERTEX
  8
PLAN_1
  6
CONTINUOUS
 10
2.281252
 20
-4.378409
  0
VERTEX
  8
PLAN_1
  6
CONTINUOUS
 10
2.278441
 20
-4.382909
  0
VERTEX
  8
PLAN_1
  6
CONTINUOUS
 10
2.275067
 20
-4.387406
  0
VERTEX
  8
PLAN_1
  6
CONTINUOUS
 10
2.271130
 20
-4.391343
  0
VERTEX
  8
PLAN_1
  6
CONTINUOUS
 10
2.267197
 20
-4.395280
  0
VERTEX
  8
PLAN_1
  6
CONTINUOUS
 10
2.262134
 20
-4.398654
  0
VERTEX
  8
PLAN_1
  6
CONTINUOUS
 10
2.256512
 20
-4.401465
  0
VERTEX
  8
PLAN_1
  6
CONTINUOUS
 10
2.250890
 20
-4.403713
  0
VERTEX
  8
PLAN_1
  6
CONTINUOUS
 10
2.244142
 20
-4.405402
  0
VERTEX
  8
PLAN_1
  6
CONTINUOUS
 10
2.236831
 20
-4.405965
  0
VERTEX
  8
PLAN_1
  6
CONTINUOUS
 10
2.228957
 20
-4.406528
  0
VERTEX
  8
PLAN_1
  6
CONTINUOUS
 10
2.166543
 20
-4.406528
  0
VERTEX
  8
PLAN_1
  6
CONTINUOUS
 10
2.166543
 20
-4.490874
  0
SEQEND
  8
0
  0
POLYLINE
  8
PLAN_1
  6
CONTINUOUS
 66
     1
 40
0.003000
 41
0.003000
  0
VERTEX
  8
PLAN_1
  6
CONTINUOUS
 10
2.166543
 20
-4.383472
  0
VERTEX
  8
PLAN_1
  6
CONTINUOUS
 10
2.219961
 20
-4.383472
  0
VERTEX
  8
PLAN_1
  6
CONTINUOUS
 10
2.228957
 20
-4.382909
  0
VERTEX
  8
PLAN_1
  6
CONTINUOUS
 10
2.236831
 20
-4.381783
  0
VERTEX
  8
PLAN_1
  6
CONTINUOUS
 10
2.240205
 20
-4.380661
  0
VERTEX
  8
PLAN_1
  6
CONTINUOUS
 10
2.243579
 20
-4.379535
  0
VERTEX
  8
PLAN_1
  6
CONTINUOUS
 10
2.246390
 20
-4.377846
  0
VERTEX
  8
PLAN_1
  6
CONTINUOUS
 10
2.249201
 20
-4.375598
  0
VERTEX
  8
PLAN_1
  6
CONTINUOUS
 10
2.252012
 20
-4.373350
  0
VERTEX
  8
PLAN_1
  6
CONTINUOUS
 10
2.254264
 20
-4.371102
  0
VERTEX
  8
PLAN_1
  6
CONTINUOUS
 10
2.255949
 20
-4.367728
  0
VERTEX
  8
PLAN_1
  6
CONTINUOUS
 10
2.257638
 20
-4.364913
  0
VERTEX
  8
PLAN_1
  6
CONTINUOUS
 10
2.258760
 20
-4.360980
  0
VERTEX
  8
PLAN_1
  6
CONTINUOUS
 10
2.259886
 20
-4.357043
  0
VERTEX
  8
PLAN_1
  6
CONTINUOUS
 10
2.260449
 20
-4.352543
  0
VERTEX
  8
PLAN_1
  6
CONTINUOUS
 10
2.260449
 20
-4.347484
  0
VERTEX
  8
PLAN_1
  6
CONTINUOUS
 10
2.260449
 20
-4.342984
  0
VERTEX
  8
PLAN_1
  6
CONTINUOUS
 10
2.259886
 20
-4.339047
  0
VERTEX
  8
PLAN_1
  6
CONTINUOUS
 10
2.258760
 20
-4.335114
  0
VERTEX
  8
PLAN_1
  6
CONTINUOUS
 10
2.257638
 20
-4.331740
  0
VERTEX
  8
PLAN_1
  6
CONTINUOUS
 10
2.255949
 20
-4.328929
  0
VERTEX
  8
PLAN_1
  6
CONTINUOUS
 10
2.253701
 20
-4.326114
  0
VERTEX
  8
PLAN_1
  6
CONTINUOUS
 10
2.251449
 20
-4.323866
  0
VERTEX
  8
PLAN_1
  6
CONTINUOUS
 10
2.249201
 20
-4.321618
  0
VERTEX
  8
PLAN_1
  6
CONTINUOUS
 10
2.246390
 20
-4.319929
  0
VERTEX
  8
PLAN_1
  6
CONTINUOUS
 10
2.243579
 20
-4.318244
  0
VERTEX
  8
PLAN_1
  6
CONTINUOUS
 10
2.240205
 20
-4.317118
  0
VERTEX
  8
PLAN_1
  6
CONTINUOUS
 10
2.236831
 20
-4.315996
  0
VERTEX
  8
PLAN_1
  6
CONTINUOUS
 10
2.228957
 20
-4.314870
  0
VERTEX
  8
PLAN_1
  6
CONTINUOUS
 10
2.221087
 20
-4.314307
  0
VERTEX
  8
PLAN_1
  6
CONTINUOUS
 10
2.166543
 20
-4.314307
  0
VERTEX
  8
PLAN_1
  6
CONTINUOUS
 10
2.166543
 20
-4.383472
  0
SEQEND
  8
0
  0
POLYLINE
  8
PLAN_1
  6
CONTINUOUS
 66
     1
 40
0.003000
 41
0.003000
  0
VERTEX
  8
PLAN_1
  6
CONTINUOUS
 10
2.442075
 20
-4.349732
  0
VERTEX
  8
PLAN_1
  6
CONTINUOUS
 10
2.441512
 20
-4.344110
  0
VERTEX
  8
PLAN_1
  6
CONTINUOUS
 10
2.440386
 20
-4.339047
  0
VERTEX
  8
PLAN_1
  6
CONTINUOUS
 10
2.439260
 20
-4.334551
  0
VERTEX
  8
PLAN_1
  6
CONTINUOUS
 10
2.437012
 20
-4.330614
  0
VERTEX
  8
PLAN_1
  6
CONTINUOUS
 10
2.434764
 20
-4.326677
  0
VERTEX
  8
PLAN_1
  6
CONTINUOUS
 10
2.431953
 20
-4.323303
  0
VERTEX
  8
PLAN_1
  6
CONTINUOUS
 10
2.428579
 20
-4.320492
  0
VERTEX
  8
PLAN_1
  6
CONTINUOUS
 10
2.425205
 20
-4.317681
  0
VERTEX
  8
PLAN_1
  6
CONTINUOUS
 10
2.421831
 20
-4.315433
  0
VERTEX
  8
PLAN_1
  6
CONTINUOUS
 10
2.417894
 20
-4.313744
  0
VERTEX
  8
PLAN_1
  6
CONTINUOUS
 10
2.413957
 20
-4.312622
  0
VERTEX
  8
PLAN_1
  6
CONTINUOUS
 10
2.410020
 20
-4.310933
  0
VERTEX
  8
PLAN_1
  6
CONTINUOUS
 10
2.401587
 20
-4.309807
  0
VERTEX
  8
PLAN_1
  6
CONTINUOUS
 10
2.392591
 20
-4.309248
  0
VERTEX
  8
PLAN_1
  6
CONTINUOUS
 10
2.385843
 20
-4.309248
  0
VERTEX
  8
PLAN_1
  6
CONTINUOUS
 10
2.378531
 20
-4.310370
  0
VERTEX
  8
PLAN_1
  6
CONTINUOUS
 10
2.374594
 20
-4.310933
  0
VERTEX
  8
PLAN_1
  6
CONTINUOUS
 10
2.371220
 20
-4.312059
  0
VERTEX
  8
PLAN_1
  6
CONTINUOUS
 10
2.367287
 20
-4.313744
  0
VERTEX
  8
PLAN_1
  6
CONTINUOUS
 10
2.363913
 20
-4.315433
  0
VERTEX
  8
PLAN_1
  6
CONTINUOUS
 10
2.360539
 20
-4.317118
  0
VERTEX
  8
PLAN_1
  6
CONTINUOUS
 10
2.357165
 20
-4.319929
  0
VERTEX
  8
PLAN_1
  6
CONTINUOUS
 10
2.354354
 20
-4.322740
  0
VERTEX
  8
PLAN_1
  6
CONTINUOUS
 10
2.352102
 20
-4.326114
  0
VERTEX
  8
PLAN_1
  6
CONTINUOUS
 10
2.349854
 20
-4.329488
  0
VERTEX
  8
PLAN_1
  6
CONTINUOUS
 10
2.348728
 20
-4.333988
  0
VERTEX
  8
PLAN_1
  6
CONTINUOUS
 10
2.347606
 20
-4.338488
  0
VERTEX
  8
PLAN_1
  6
CONTINUOUS
 10
2.347043
 20
-4.344110
  0
VERTEX
  8
PLAN_1
  6
CONTINUOUS
 10
2.347606
 20
-4.346921
  0
VERTEX
  8
PLAN_1
  6
CONTINUOUS
 10
2.347606
 20
-4.349732
  0
VERTEX
  8
PLAN_1
  6
CONTINUOUS
 10
2.348169
 20
-4.352543
  0
VERTEX
  8
PLAN_1
  6
CONTINUOUS
 10
2.349291
 20
-4.354795
  0
VERTEX
  8
PLAN_1
  6
CONTINUOUS
 10
2.351543
 20
-4.358728
  0
VERTEX
  8
PLAN_1
  6
CONTINUOUS
 10
2.354913
 20
-4.362102
  0
VERTEX
  8
PLAN_1
  6
CONTINUOUS
 10
2.358287
 20
-4.364354
  0
VERTEX
  8
PLAN_1
  6
CONTINUOUS
 10
2.362224
 20
-4.366602
  0
VERTEX
  8
PLAN_1
  6
CONTINUOUS
 10
2.366724
 20
-4.368287
  0
VERTEX
  8
PLAN_1
  6
CONTINUOUS
 10
2.370661
 20
-4.369413
  0
VERTEX
  8
PLAN_1
  6
CONTINUOUS
 10
2.428016
 20
-4.382346
  0
VERTEX
  8
PLAN_1
  6
CONTINUOUS
 10
2.432516
 20
-4.383472
  0
VERTEX
  8
PLAN_1
  6
CONTINUOUS
 10
2.437012
 20
-4.385157
  0
VERTEX
  8
PLAN_1
  6
CONTINUOUS
 10
2.441512
 20
-4.386846
  0
VERTEX
  8
PLAN_1
  6
CONTINUOUS
 10
2.445449
 20
-4.389094
  0
VERTEX
  8
PLAN_1
  6
CONTINUOUS
 10
2.449945
 20
-4.391343
  0
VERTEX
  8
PLAN_1
  6
CONTINUOUS
 10
2.453319
 20
-4.393594
  0
VERTEX
  8
PLAN_1
  6
CONTINUOUS
 10
2.456693
 20
-4.396406
  0
VERTEX
  8
PLAN_1
  6
CONTINUOUS
 10
2.460067
 20
-4.399217
  0
VERTEX
  8
PLAN_1
  6
CONTINUOUS
 10
2.462878
 20
-4.402591
  0
VERTEX
  8
PLAN_1
  6
CONTINUOUS
 10
2.465689
 20
-4.406528
  0
VERTEX
  8
PLAN_1
  6
CONTINUOUS
 10
2.467941
 20
-4.410461
  0
VERTEX
  8
PLAN_1
  6
CONTINUOUS
 10
2.469626
 20
-4.414961
  0
VERTEX
  8
PLAN_1
  6
CONTINUOUS
 10
2.471315
 20
-4.419461
  0
VERTEX
  8
PLAN_1
  6
CONTINUOUS
 10
2.471874
 20
-4.424520
  0
VERTEX
  8
PLAN_1
  6
CONTINUOUS
 10
2.473000
 20
-4.430142
  0
VERTEX
  8
PLAN_1
  6
CONTINUOUS
 10
2.473000
 20
-4.435768
  0
VERTEX
  8
PLAN_1
  6
CONTINUOUS
 10
2.472437
 20
-4.444201
  0
VERTEX
  8
PLAN_1
  6
CONTINUOUS
 10
2.471315
 20
-4.452071
  0
VERTEX
  8
PLAN_1
  6
CONTINUOUS
 10
2.468500
 20
-4.458819
  0
VERTEX
  8
PLAN_1
  6
CONTINUOUS
 10
2.465689
 20
-4.465008
  0
VERTEX
  8
PLAN_1
  6
CONTINUOUS
 10
2.461752
 20
-4.470630
  0
VERTEX
  8
PLAN_1
  6
CONTINUOUS
 10
2.457256
 20
-4.475689
  0
VERTEX
  8
PLAN_1
  6
CONTINUOUS
 10
2.452193
 20
-4.479626
  0
VERTEX
  8
PLAN_1
  6
CONTINUOUS
 10
2.446571
 20
-4.483563
  0
VERTEX
  8
PLAN_1
  6
CONTINUOUS
 10
2.440949
 20
-4.486937
  0
VERTEX
  8
PLAN_1
  6
CONTINUOUS
 10
2.434764
 20
-4.489185
  0
VERTEX
  8
PLAN_1
  6
CONTINUOUS
 10
2.428016
 20
-4.491433
  0
VERTEX
  8
PLAN_1
  6
CONTINUOUS
 10
2.421831
 20
-4.493122
  0
VERTEX
  8
PLAN_1
  6
CONTINUOUS
 10
2.415083
 20
-4.494244
  0
VERTEX
  8
PLAN_1
  6
CONTINUOUS
 10
2.408335
 20
-4.495370
  0
VERTEX
  8
PLAN_1
  6
CONTINUOUS
 10
2.401587
 20
-4.495933
  0
VERTEX
  8
PLAN_1
  6
CONTINUOUS
 10
2.394839
 20
-4.495933
  0
VERTEX
  8
PLAN_1
  6
CONTINUOUS
 10
2.382469
 20
-4.495370
  0
VERTEX
  8
PLAN_1
  6
CONTINUOUS
 10
2.371220
 20
-4.494244
  0
VERTEX
  8
PLAN_1
  6
CONTINUOUS
 10
2.362224
 20
-4.491996
  0
VERTEX
  8
PLAN_1
  6
CONTINUOUS
 10
2.354354
 20
-4.489185
  0
VERTEX
  8
PLAN_1
  6
CONTINUOUS
 10
2.348169
 20
-4.486374
  0
VERTEX
  8
PLAN_1
  6
CONTINUOUS
 10
2.342543
 20
-4.483000
  0
VERTEX
  8
PLAN_1
  6
CONTINUOUS
 10
2.338610
 20
-4.480189
  0
VERTEX
  8
PLAN_1
  6
CONTINUOUS
 10
2.334673
 20
-4.476815
  0
VERTEX
  8
PLAN_1
  6
CONTINUOUS
 10
2.329047
 20
-4.471193
  0
VERTEX
  8
PLAN_1
  6
CONTINUOUS
 10
2.324551
 20
-4.465008
  0
VERTEX
  8
PLAN_1
  6
CONTINUOUS
 10
2.321177
 20
-4.458819
  0
VERTEX
  8
PLAN_1
  6
CONTINUOUS
 10
2.318366
 20
-4.452634
  0
VERTEX
  8
PLAN_1
  6
CONTINUOUS
 10
2.316677
 20
-4.446449
  0
VERTEX
  8
PLAN_1
  6
CONTINUOUS
 10
2.315555
 20
-4.439701
  0
VERTEX
  8
PLAN_1
  6
CONTINUOUS
 10
2.314429
 20
-4.432953
  0
VERTEX
  8
PLAN_1
  6
CONTINUOUS
 10
2.314429
 20
-4.426205
  0
VERTEX
  8
PLAN_1
  6
CONTINUOUS
 10
2.339732
 20
-4.426205
  0
VERTEX
  8
PLAN_1
  6
CONTINUOUS
 10
2.340295
 20
-4.432953
  0
VERTEX
  8
PLAN_1
  6
CONTINUOUS
 10
2.340858
 20
-4.438579
  0
VERTEX
  8
PLAN_1
  6
CONTINUOUS
 10
2.342543
 20
-4.444201
  0
VERTEX
  8
PLAN_1
  6
CONTINUOUS
 10
2.344795
 20
-4.448701
  0
VERTEX
  8
PLAN_1
  6
CONTINUOUS
 10
2.347606
 20
-4.453197
  0
VERTEX
  8
PLAN_1
  6
CONTINUOUS
 10
2.350417
 20
-4.457134
  0
VERTEX
  8
PLAN_1
  6
CONTINUOUS
 10
2.353791
 20
-4.460508
  0
VERTEX
  8
PLAN_1
  6
CONTINUOUS
 10
2.357728
 20
-4.463319
  0
VERTEX
  8
PLAN_1
  6
CONTINUOUS
 10
2.361661
 20
-4.465567
  0
VERTEX
  8
PLAN_1
  6
CONTINUOUS
 10
2.366161
 20
-4.467819
  0
VERTEX
  8
PLAN_1
  6
CONTINUOUS
 10
2.370661
 20
-4.469504
  0
VERTEX
  8
PLAN_1
  6
CONTINUOUS
 10
2.375157
 20
-4.470630
  0
VERTEX
  8
PLAN_1
  6
CONTINUOUS
 10
2.380220
 20
-4.471752
  0
VERTEX
  8
PLAN_1
  6
CONTINUOUS
 10
2.385280
 20
-4.472315
  0
VERTEX
  8
PLAN_1
  6
CONTINUOUS
 10
2.389780
 20
-4.472878
  0
VERTEX
  8
PLAN_1
  6
CONTINUOUS
 10
2.394839
 20
-4.472878
  0
VERTEX
  8
PLAN_1
  6
CONTINUOUS
 10
2.402713
 20
-4.472878
  0
VERTEX
  8
PLAN_1
  6
CONTINUOUS
 10
2.411146
 20
-4.471752
  0
VERTEX
  8
PLAN_1
  6
CONTINUOUS
 10
2.415646
 20
-4.470630
  0
VERTEX
  8
PLAN_1
  6
CONTINUOUS
 10
2.419583
 20
-4.470067
  0
VERTEX
  8
PLAN_1
  6
CONTINUOUS
 10
2.424079
 20
-4.468378
  0
VERTEX
  8
PLAN_1
  6
CONTINUOUS
 10
2.428016
 20
-4.466693
  0
VERTEX
  8
PLAN_1
  6
CONTINUOUS
 10
2.431953
 20
-4.465008
  0
VERTEX
  8
PLAN_1
  6
CONTINUOUS
 10
2.435327
 20
-4.462756
  0
VERTEX
  8
PLAN_1
  6
CONTINUOUS
 10
2.438701
 20
-4.459945
  0
VERTEX
  8
PLAN_1
  6
CONTINUOUS
 10
2.441512
 20
-4.456571
  0
VERTEX
  8
PLAN_1
  6
CONTINUOUS
 10
2.443760
 20
-4.453197
  0
VERTEX
  8
PLAN_1
  6
CONTINUOUS
 10
2.445449
 20
-4.448701
  0
VERTEX
  8
PLAN_1
  6
CONTINUOUS
 10
2.446571
 20
-4.444201
  0
VERTEX
  8
PLAN_1
  6
CONTINUOUS
 10
2.447134
 20
-4.439138
  0
VERTEX
  8
PLAN_1
  6
CONTINUOUS
 10
2.446571
 20
-4.435768
  0
VERTEX
  8
PLAN_1
  6
CONTINUOUS
 10
2.446571
 20
-4.432394
  0
VERTEX
  8
PLAN_1
  6
CONTINUOUS
 10
2.446008
 20
-4.429020
  0
VERTEX
  8
PLAN_1
  6
CONTINUOUS
 10
2.444886
 20
-4.426205
  0
VERTEX
  8
PLAN_1
  6
CONTINUOUS
 10
2.443760
 20
-4.423394
  0
VERTEX
  8
PLAN_1
  6
CONTINUOUS
 10
2.442075
 20
-4.421146
  0
VERTEX
  8
PLAN_1
  6
CONTINUOUS
 10
2.440386
 20
-4.418898
  0
VERTEX
  8
PLAN_1
  6
CONTINUOUS
 10
2.438138
 20
-4.416646
  0
VERTEX
  8
PLAN_1
  6
CONTINUOUS
 10
2.435327
 20
-4.414961
  0
VERTEX
  8
PLAN_1
  6
CONTINUOUS
 10
2.432516
 20
-4.413272
  0
VERTEX
  8
PLAN_1
  6
CONTINUOUS
 10
2.428579
 20
-4.411587
  0
VERTEX
  8
PLAN_1
  6
CONTINUOUS
 10
2.424642
 20
-4.409902
  0
VERTEX
  8
PLAN_1
  6
CONTINUOUS
 10
2.415646
 20
-4.407087
  0
VERTEX
  8
PLAN_1
  6
CONTINUOUS
 10
2.404398
 20
-4.404276
  0
VERTEX
  8
PLAN_1
  6
CONTINUOUS
 10
2.363913
 20
-4.394717
  0
VERTEX
  8
PLAN_1
  6
CONTINUOUS
 10
2.358287
 20
-4.393031
  0
VERTEX
  8
PLAN_1
  6
CONTINUOUS
 10
2.351543
 20
-4.390780
  0
VERTEX
  8
PLAN_1
  6
CONTINUOUS
 10
2.348169
 20
-4.389657
  0
VERTEX
  8
PLAN_1
  6
CONTINUOUS
 10
2.344232
 20
-4.387406
  0
VERTEX
  8
PLAN_1
  6
CONTINUOUS
 10
2.340858
 20
-4.385720
  0
VERTEX
  8
PLAN_1
  6
CONTINUOUS
 10
2.337484
 20
-4.382909
  0
VERTEX
  8
PLAN_1
  6
CONTINUOUS
 10
2.334110
 20
-4.380098
  0
VERTEX
  8
PLAN_1
  6
CONTINUOUS
 10
2.331299
 20
-4.377287
  0
VERTEX
  8
PLAN_1
  6
CONTINUOUS
 10
2.328488
 20
-4.373350
  0
VERTEX
  8
PLAN_1
  6
CONTINUOUS
 10
2.326236
 20
-4.369413
  0
VERTEX
  8
PLAN_1
  6
CONTINUOUS
 10
2.323988
 20
-4.364913
  0
VERTEX
  8
PLAN_1
  6
CONTINUOUS
 10
2.322303
 20
-4.359854
  0
VERTEX
  8
PLAN_1
  6
CONTINUOUS
 10
2.321740
 20
-4.353669
  0
VERTEX
  8
PLAN_1
  6
CONTINUOUS
 10
2.321177
 20
-4.347484
  0
VERTEX
  8
PLAN_1
  6
CONTINUOUS
 10
2.321177
 20
-4.341862
  0
VERTEX
  8
PLAN_1
  6
CONTINUOUS
 10
2.322303
 20
-4.336236
  0
VERTEX
  8
PLAN_1
  6
CONTINUOUS
 10
2.323425
 20
-4.330614
  0
VERTEX
  8
PLAN_1
  6
CONTINUOUS
 10
2.325114
 20
-4.324992
  0
VERTEX
  8
PLAN_1
  6
CONTINUOUS
 10
2.327362
 20
-4.319929
  0
VERTEX
  8
PLAN_1
  6
CONTINUOUS
 10
2.330173
 20
-4.314307
  0
VERTEX
  8
PLAN_1
  6
CONTINUOUS
 10
2.333547
 20
-4.309807
  0
VERTEX
  8
PLAN_1
  6
CONTINUOUS
 10
2.337484
 20
-4.305311
  0
VERTEX
  8
PLAN_1
  6
CONTINUOUS
 10
2.341980
 20
-4.301374
  0
VERTEX
  8
PLAN_1
  6
CONTINUOUS
 10
2.347043
 20
-4.297437
  0
VERTEX
  8
PLAN_1
  6
CONTINUOUS
 10
2.352665
 20
-4.294063
  0
VERTEX
  8
PLAN_1
  6
CONTINUOUS
 10
2.358850
 20
-4.291252
  0
VERTEX
  8
PLAN_1
  6
CONTINUOUS
 10
2.365598
 20
-4.289004
  0
VERTEX
  8
PLAN_1
  6
CONTINUOUS
 10
2.372909
 20
-4.287315
  0
VERTEX
  8
PLAN_1
  6
CONTINUOUS
 10
2.380780
 20
-4.286193
  0
VERTEX
  8
PLAN_1
  6
CONTINUOUS
 10
2.389780
 20
-4.286193
  0
VERTEX
  8
PLAN_1
  6
CONTINUOUS
 10
2.402150
 20
-4.286756
  0
VERTEX
  8
PLAN_1
  6
CONTINUOUS
 10
2.412835
 20
-4.287878
  0
VERTEX
  8
PLAN_1
  6
CONTINUOUS
 10
2.422953
 20
-4.290130
  0
VERTEX
  8
PLAN_1
  6
CONTINUOUS
 10
2.431390
 20
-4.292941
  0
VERTEX
  8
PLAN_1
  6
CONTINUOUS
 10
2.438138
 20
-4.296315
  0
VERTEX
  8
PLAN_1
  6
CONTINUOUS
 10
2.444886
 20
-4.300248
  0
VERTEX
  8
PLAN_1
  6
CONTINUOUS
 10
2.449945
 20
-4.304748
  0
VERTEX
  8
PLAN_1
  6
CONTINUOUS
 10
2.454445
 20
-4.309807
  0
VERTEX
  8
PLAN_1
  6
CONTINUOUS
 10
2.457819
 20
-4.314870
  0
VERTEX
  8
PLAN_1
  6
CONTINUOUS
 10
2.460630
 20
-4.319929
  0
VERTEX
  8
PLAN_1
  6
CONTINUOUS
 10
2.462878
 20
-4.324992
  0
VERTEX
  8
PLAN_1
  6
CONTINUOUS
 10
2.464567
 20
-4.330614
  0
VERTEX
  8
PLAN_1
  6
CONTINUOUS
 10
2.466815
 20
-4.340736
  0
VERTEX
  8
PLAN_1
  6
CONTINUOUS
 10
2.467378
 20
-4.349732
  0
VERTEX
  8
PLAN_1
  6
CONTINUOUS
 10
2.442075
 20
-4.349732
  0
SEQEND
  8
0
  0
POLYLINE
  8
PLAN_1
  6
CONTINUOUS
 66
     1
 40
0.008433
 41
0.008433
  0
VERTEX
  8
PLAN_1
  6
CONTINUOUS
 10
-2.198094
 20
1.630417
  0
VERTEX
  8
PLAN_1
  6
CONTINUOUS
 10
-2.198094
 20
2.069579
  0
VERTEX
  8
PLAN_1
  6
CONTINUOUS
 10
-2.301559
 20
2.069579
  0
VERTEX
  8
PLAN_1
  6
CONTINUOUS
 10
-2.301559
 20
1.630417
  0
VERTEX
  8
PLAN_1
  6
CONTINUOUS
 10
-2.198094
 20
1.630417
  0
SEQEND
  8
0
  0
POLYLINE
  8
PLAN_1
  6
CONTINUOUS
 66
     1
 40
0.008433
 41
0.008433
  0
VERTEX
  8
PLAN_1
  6
CONTINUOUS
 10
-2.300996
 20
1.957118
  0
VERTEX
  8
PLAN_1
  6
CONTINUOUS
 10
-2.198094
 20
1.957118
  0
SEQEND
  8
0
  0
POLYLINE
  8
PLAN_1
  6
CONTINUOUS
 66
     1
 40
0.008433
 41
0.008433
  0
VERTEX
  8
PLAN_1
  6
CONTINUOUS
 10
-2.300996
 20
1.742315
  0
VERTEX
  8
PLAN_1
  6
CONTINUOUS
 10
-2.198094
 20
1.742315
  0
SEQEND
  8
0
  0
POLYLINE
  8
PLAN_1
  6
CONTINUOUS
 66
     1
 40
0.008433
 41
0.008433
  0
VERTEX
  8
PLAN_1
  6
CONTINUOUS
 10
-2.289189
 20
2.069016
  0
VERTEX
  8
PLAN_1
  6
CONTINUOUS
 10
-2.290315
 20
2.066768
  0
VERTEX
  8
PLAN_1
  6
CONTINUOUS
 10
-2.293689
 20
2.059457
  0
VERTEX
  8
PLAN_1
  6
CONTINUOUS
 10
-2.295374
 20
2.054398
  0
VERTEX
  8
PLAN_1
  6
CONTINUOUS
 10
-2.297063
 20
2.048213
  0
VERTEX
  8
PLAN_1
  6
CONTINUOUS
 10
-2.298748
 20
2.041465
  0
VERTEX
  8
PLAN_1
  6
CONTINUOUS
 10
-2.299874
 20
2.033591
  0
VERTEX
  8
PLAN_1
  6
CONTINUOUS
 10
-2.300996
 20
2.025720
  0
VERTEX
  8
PLAN_1
  6
CONTINUOUS
 10
-2.301559
 20
2.016720
  0
VERTEX
  8
PLAN_1
  6
CONTINUOUS
 10
-2.301559
 20
2.007724
  0
VERTEX
  8
PLAN_1
  6
CONTINUOUS
 10
-2.300996
 20
1.998165
  0
VERTEX
  8
PLAN_1
  6
CONTINUOUS
 10
-2.298748
 20
1.988043
  0
VERTEX
  8
PLAN_1
  6
CONTINUOUS
 10
-2.296500
 20
1.977921
  0
VERTEX
  8
PLAN_1
  6
CONTINUOUS
 10
-2.294248
 20
1.972862
  0
VERTEX
  8
PLAN_1
  6
CONTINUOUS
 10
-2.292000
 20
1.967240
  0
VERTEX
  8
PLAN_1
  6
CONTINUOUS
 10
-2.289752
 20
1.962177
  0
VERTEX
  8
PLAN_1
  6
CONTINUOUS
 10
-2.286941
 20
1.957118
  0
VERTEX
  8
PLAN_1
  6
CONTINUOUS
 10
-2.288063
 20
1.953181
  0
VERTEX
  8
PLAN_1
  6
CONTINUOUS
 10
-2.291437
 20
1.941374
  0
VERTEX
  8
PLAN_1
  6
CONTINUOUS
 10
-2.293126
 20
1.932937
  0
VERTEX
  8
PLAN_1
  6
CONTINUOUS
 10
-2.295374
 20
1.922815
  0
VERTEX
  8
PLAN_1
  6
CONTINUOUS
 10
-2.297622
 20
1.911008
  0
VERTEX
  8
PLAN_1
  6
CONTINUOUS
 10
-2.299311
 20
1.897512
  0
VERTEX
  8
PLAN_1
  6
CONTINUOUS
 10
-2.300437
 20
1.882894
  0
VERTEX
  8
PLAN_1
  6
CONTINUOUS
 10
-2.301559
 20
1.866587
  0
VERTEX
  8
PLAN_1
  6
CONTINUOUS
 10
-2.301559
 20
1.849154
  0
VERTEX
  8
PLAN_1
  6
CONTINUOUS
 10
-2.301559
 20
1.830035
  0
VERTEX
  8
PLAN_1
  6
CONTINUOUS
 10
-2.299874
 20
1.809791
  0
VERTEX
  8
PLAN_1
  6
CONTINUOUS
 10
-2.297622
 20
1.788425
  0
VERTEX
  8
PLAN_1
  6
CONTINUOUS
 10
-2.294248
 20
1.765933
  0
VERTEX
  8
PLAN_1
  6
CONTINUOUS
 10
-2.289752
 20
1.742315
  0
VERTEX
  8
PLAN_1
  6
CONTINUOUS
 10
-2.290874
 20
1.739504
  0
VERTEX
  8
PLAN_1
  6
CONTINUOUS
 10
-2.293689
 20
1.732756
  0
VERTEX
  8
PLAN_1
  6
CONTINUOUS
 10
-2.295374
 20
1.727697
  0
VERTEX
  8
PLAN_1
  6
CONTINUOUS
 10
-2.297622
 20
1.721512
  0
VERTEX
  8
PLAN_1
  6
CONTINUOUS
 10
-2.299311
 20
1.714764
  0
VERTEX
  8
PLAN_1
  6
CONTINUOUS
 10
-2.300437
 20
1.707453
  0
VERTEX
  8
PLAN_1
  6
CONTINUOUS
 10
-2.301559
 20
1.699579
  0
VERTEX
  8
PLAN_1
  6
CONTINUOUS
 10
-2.302122
 20
1.690583
  0
VERTEX
  8
PLAN_1
  6
CONTINUOUS
 10
-2.302122
 20
1.681587
  0
VERTEX
  8
PLAN_1
  6
CONTINUOUS
 10
-2.300996
 20
1.672028
  0
VERTEX
  8
PLAN_1
  6
CONTINUOUS
 10
-2.299311
 20
1.662469
  0
VERTEX
  8
PLAN_1
  6
CONTINUOUS
 10
-2.296500
 20
1.652346
  0
VERTEX
  8
PLAN_1
  6
CONTINUOUS
 10
-2.294811
 20
1.647283
  0
VERTEX
  8
PLAN_1
  6
CONTINUOUS
 10
-2.292563
 20
1.641661
  0
VERTEX
  8
PLAN_1
  6
CONTINUOUS
 10
-2.290315
 20
1.636602
  0
VERTEX
  8
PLAN_1
  6
CONTINUOUS
 10
-2.287504
 20
1.631539
  0
SEQEND
  8
0
  0
POLYLINE
  8
PLAN_1
  6
CONTINUOUS
 66
     1
 40
0.008433
 41
0.008433
  0
VERTEX
  8
PLAN_1
  6
CONTINUOUS
 10
-1.472717
 20
2.232087
  0
VERTEX
  8
PLAN_1
  6
CONTINUOUS
 10
-1.472717
 20
1.441480
  0
SEQEND
  8
0
  0
POLYLINE
  8
PLAN_1
  6
CONTINUOUS
 66
     1
 40
0.008433
 41
0.008433
  0
VERTEX
  8
PLAN_1
  6
CONTINUOUS
 10
-1.573933
 20
2.232087
  0
VERTEX
  8
PLAN_1
  6
CONTINUOUS
 10
-1.573933
 20
1.425173
  0
SEQEND
  8
0
  0
POLYLINE
  8
PLAN_1
  6
CONTINUOUS
 66
     1
 40
0.008433
 41
0.008433
  0
VERTEX
  8
PLAN_1
  6
CONTINUOUS
 10
-1.825283
 20
1.475220
  0
VERTEX
  8
PLAN_1
  6
CONTINUOUS
 10
-1.825283
 20
2.161236
  0
SEQEND
  8
0
  0
POLYLINE
  8
PLAN_1
  6
CONTINUOUS
 66
     1
 40
0.008433
 41
0.008433
  0
VERTEX
  8
PLAN_1
  6
CONTINUOUS
 10
-2.350480
 20
1.973425
  0
VERTEX
  8
PLAN_1
  6
CONTINUOUS
 10
-2.350480
 20
1.723760
  0
SEQEND
  8
0
  0
POLYLINE
  8
PLAN_1
  6
CONTINUOUS
 66
     1
 40
0.008433
 41
0.008433
  0
VERTEX
  8
PLAN_1
  6
CONTINUOUS
 10
-2.350480
 20
1.723760
  0
VERTEX
  8
PLAN_1
  6
CONTINUOUS
 10
-2.358913
 20
1.732756
  0
VERTEX
  8
PLAN_1
  6
CONTINUOUS
 10
-2.358913
 20
1.963866
  0
VERTEX
  8
PLAN_1
  6
CONTINUOUS
 10
-2.350480
 20
1.972299
  0
VERTEX
  8
PLAN_1
  6
CONTINUOUS
 10
-2.302122
 20
1.973425
  0
VERTEX
  8
PLAN_1
  6
CONTINUOUS
 10
-2.302122
 20
1.723760
  0
VERTEX
  8
PLAN_1
  6
CONTINUOUS
 10
-2.350480
 20
1.723760
  0
SEQEND
  8
0
  0
POLYLINE
  8
PLAN_1
  6
CONTINUOUS
 66
     1
 40
0.008433
 41
0.008433
  0
VERTEX
  8
PLAN_1
  6
CONTINUOUS
 10
-2.129492
 20
3.362327
  0
VERTEX
  8
PLAN_1
  6
CONTINUOUS
 10
-2.129492
 20
4.104571
  0
VERTEX
  8
PLAN_1
  6
CONTINUOUS
 10
-2.294248
 20
4.104571
  0
VERTEX
  8
PLAN_1
  6
CONTINUOUS
 10
-2.294248
 20
3.362327
  0
VERTEX
  8
PLAN_1
  6
CONTINUOUS
 10
-2.129492
 20
3.362327
  0
SEQEND
  8
0
  0
POLYLINE
  8
PLAN_1
  6
CONTINUOUS
 66
     1
 40
0.008433
 41
0.008433
  0
VERTEX
  8
PLAN_1
  6
CONTINUOUS
 10
-2.319555
 20
3.523146
  0
VERTEX
  8
PLAN_1
  6
CONTINUOUS
 10
-2.319555
 20
3.935319
  0
VERTEX
  8
PLAN_1
  6
CONTINUOUS
 10
-2.417394
 20
3.935319
  0
VERTEX
  8
PLAN_1
  6
CONTINUOUS
 10
-2.417394
 20
3.523146
  0
VERTEX
  8
PLAN_1
  6
CONTINUOUS
 10
-2.319555
 20
3.523146
  0
SEQEND
  8
0
  0
POLYLINE
  8
PLAN_1
  6
CONTINUOUS
 66
     1
 40
0.008433
 41
0.008433
  0
VERTEX
  8
PLAN_1
  6
CONTINUOUS
 10
-2.416835
 20
3.830165
  0
VERTEX
  8
PLAN_1
  6
CONTINUOUS
 10
-2.322366
 20
3.830165
  0
SEQEND
  8
0
  0
POLYLINE
  8
PLAN_1
  6
CONTINUOUS
 66
     1
 40
0.008433
 41
0.008433
  0
VERTEX
  8
PLAN_1
  6
CONTINUOUS
 10
-2.416835
 20
3.628299
  0
VERTEX
  8
PLAN_1
  6
CONTINUOUS
 10
-2.322366
 20
3.628299
  0
SEQEND
  8
0
  0
POLYLINE
  8
PLAN_1
  6
CONTINUOUS
 66
     1
 40
0.008433
 41
0.008433
  0
VERTEX
  8
PLAN_1
  6
CONTINUOUS
 10
-2.320114
 20
3.558008
  0
VERTEX
  8
PLAN_1
  6
CONTINUOUS
 10
-2.320114
 20
3.905516
  0
VERTEX
  8
PLAN_1
  6
CONTINUOUS
 10
-2.293689
 20
3.905516
  0
VERTEX
  8
PLAN_1
  6
CONTINUOUS
 10
-2.293689
 20
3.558008
  0
VERTEX
  8
PLAN_1
  6
CONTINUOUS
 10
-2.320114
 20
3.558008
  0
SEQEND
  8
0
  0
POLYLINE
  8
PLAN_1
  6
CONTINUOUS
 66
     1
 40
0.008433
 41
0.008433
  0
VERTEX
  8
PLAN_1
  6
CONTINUOUS
 10
-2.129492
 20
3.557445
  0
VERTEX
  8
PLAN_1
  6
CONTINUOUS
 10
-2.129492
 20
3.904953
  0
VERTEX
  8
PLAN_1
  6
CONTINUOUS
 10
-2.067638
 20
3.904953
  0
VERTEX
  8
PLAN_1
  6
CONTINUOUS
 10
-2.067638
 20
3.557445
  0
VERTEX
  8
PLAN_1
  6
CONTINUOUS
 10
-2.129492
 20
3.557445
  0
SEQEND
  8
0
  0
POLYLINE
  8
PLAN_1
  6
CONTINUOUS
 66
     1
 40
0.008433
 41
0.008433
  0
VERTEX
  8
PLAN_1
  6
CONTINUOUS
 10
-2.405587
 20
3.934756
  0
VERTEX
  8
PLAN_1
  6
CONTINUOUS
 10
-2.406713
 20
3.932508
  0
VERTEX
  8
PLAN_1
  6
CONTINUOUS
 10
-2.409524
 20
3.925760
  0
VERTEX
  8
PLAN_1
  6
CONTINUOUS
 10
-2.411209
 20
3.921260
  0
VERTEX
  8
PLAN_1
  6
CONTINUOUS
 10
-2.412898
 20
3.915638
  0
VERTEX
  8
PLAN_1
  6
CONTINUOUS
 10
-2.414583
 20
3.908890
  0
VERTEX
  8
PLAN_1
  6
CONTINUOUS
 10
-2.415709
 20
3.901579
  0
VERTEX
  8
PLAN_1
  6
CONTINUOUS
 10
-2.416835
 20
3.894268
  0
VERTEX
  8
PLAN_1
  6
CONTINUOUS
 10
-2.417394
 20
3.885835
  0
VERTEX
  8
PLAN_1
  6
CONTINUOUS
 10
-2.417394
 20
3.877402
  0
VERTEX
  8
PLAN_1
  6
CONTINUOUS
 10
-2.416272
 20
3.867843
  0
VERTEX
  8
PLAN_1
  6
CONTINUOUS
 10
-2.414583
 20
3.858843
  0
VERTEX
  8
PLAN_1
  6
CONTINUOUS
 10
-2.412335
 20
3.849283
  0
VERTEX
  8
PLAN_1
  6
CONTINUOUS
 10
-2.408398
 20
3.839724
  0
VERTEX
  8
PLAN_1
  6
CONTINUOUS
 10
-2.403339
 20
3.829602
  0
VERTEX
  8
PLAN_1
  6
CONTINUOUS
 10
-2.404461
 20
3.826228
  0
VERTEX
  8
PLAN_1
  6
CONTINUOUS
 10
-2.407835
 20
3.814984
  0
VERTEX
  8
PLAN_1
  6
CONTINUOUS
 10
-2.409524
 20
3.807110
  0
VERTEX
  8
PLAN_1
  6
CONTINUOUS
 10
-2.411209
 20
3.797551
  0
VERTEX
  8
PLAN_1
  6
CONTINUOUS
 10
-2.413461
 20
3.786870
  0
VERTEX
  8
PLAN_1
  6
CONTINUOUS
 10
-2.414583
 20
3.773937
  0
VERTEX
  8
PLAN_1
  6
CONTINUOUS
 10
-2.416272
 20
3.760441
  0
VERTEX
  8
PLAN_1
  6
CONTINUOUS
 10
-2.416835
 20
3.744697
  0
VERTEX
  8
PLAN_1
  6
CONTINUOUS
 10
-2.417394
 20
3.728390
  0
VERTEX
  8
PLAN_1
  6
CONTINUOUS
 10
-2.416835
 20
3.710394
  0
VERTEX
  8
PLAN_1
  6
CONTINUOUS
 10
-2.415709
 20
3.691276
  0
VERTEX
  8
PLAN_1
  6
CONTINUOUS
 10
-2.413461
 20
3.671594
  0
VERTEX
  8
PLAN_1
  6
CONTINUOUS
 10
-2.410646
 20
3.650228
  0
VERTEX
  8
PLAN_1
  6
CONTINUOUS
 10
-2.406150
 20
3.628299
  0
VERTEX
  8
PLAN_1
  6
CONTINUOUS
 10
-2.407276
 20
3.626047
  0
VERTEX
  8
PLAN_1
  6
CONTINUOUS
 10
-2.410087
 20
3.619299
  0
VERTEX
  8
PLAN_1
  6
CONTINUOUS
 10
-2.411772
 20
3.614240
  0
VERTEX
  8
PLAN_1
  6
CONTINUOUS
 10
-2.413461
 20
3.609177
  0
VERTEX
  8
PLAN_1
  6
CONTINUOUS
 10
-2.414583
 20
3.602433
  0
VERTEX
  8
PLAN_1
  6
CONTINUOUS
 10
-2.416272
 20
3.595685
  0
VERTEX
  8
PLAN_1
  6
CONTINUOUS
 10
-2.417394
 20
3.588374
  0
VERTEX
  8
PLAN_1
  6
CONTINUOUS
 10
-2.417394
 20
3.579941
  0
VERTEX
  8
PLAN_1
  6
CONTINUOUS
 10
-2.417394
 20
3.571504
  0
VERTEX
  8
PLAN_1
  6
CONTINUOUS
 10
-2.416835
 20
3.562508
  0
VERTEX
  8
PLAN_1
  6
CONTINUOUS
 10
-2.415146
 20
3.552949
  0
VERTEX
  8
PLAN_1
  6
CONTINUOUS
 10
-2.412335
 20
3.543953
  0
VERTEX
  8
PLAN_1
  6
CONTINUOUS
 10
-2.408961
 20
3.533831
  0
VERTEX
  8
PLAN_1
  6
CONTINUOUS
 10
-2.403902
 20
3.524272
  0
SEQEND
  8
0
  0
POLYLINE
  8
PLAN_1
 62
     5
  6
CONTINUOUS
 66
     1
 40
0.003000
 41
0.003000
  0
VERTEX
  8
PLAN_1
 62
     5
  6
CONTINUOUS
 10
-1.734752
 20
3.507402
  0
VERTEX
  8
PLAN_1
 62
     5
  6
CONTINUOUS
 10
-1.726319
 20
3.507402
  0
SEQEND
  8
0
  0
POLYLINE
  8
PLAN_1
 62
     5
  6
CONTINUOUS
 66
     1
 40
0.003000
 41
0.003000
  0
VERTEX
  8
PLAN_1
 62
     5
  6
CONTINUOUS
 10
-1.718445
 20
3.507402
  0
VERTEX
  8
PLAN_1
 62
     5
  6
CONTINUOUS
 10
-1.710012
 20
3.507402
  0
SEQEND
  8
0
  0
POLYLINE
  8
PLAN_1
 62
     5
  6
CONTINUOUS
 66
     1
 40
0.003000
 41
0.003000
  0
VERTEX
  8
PLAN_1
 62
     5
  6
CONTINUOUS
 10
-1.701579
 20
3.507402
  0
VERTEX
  8
PLAN_1
 62
     5
  6
CONTINUOUS
 10
-1.693142
 20
3.507402
  0
SEQEND
  8
0
  0
POLYLINE
  8
PLAN_1
 62
     5
  6
CONTINUOUS
 66
     1
 40
0.003000
 41
0.003000
  0
VERTEX
  8
PLAN_1
 62
     5
  6
CONTINUOUS
 10
-1.684709
 20
3.507402
  0
VERTEX
  8
PLAN_1
 62
     5
  6
CONTINUOUS
 10
-1.676272
 20
3.507402
  0
SEQEND
  8
0
  0
POLYLINE
  8
PLAN_1
 62
     5
  6
CONTINUOUS
 66
     1
 40
0.003000
 41
0.003000
  0
VERTEX
  8
PLAN_1
 62
     5
  6
CONTINUOUS
 10
-1.668402
 20
3.507402
  0
VERTEX
  8
PLAN_1
 62
     5
  6
CONTINUOUS
 10
-1.659965
 20
3.507402
  0
SEQEND
  8
0
  0
POLYLINE
  8
PLAN_1
 62
     5
  6
CONTINUOUS
 66
     1
 40
0.003000
 41
0.003000
  0
VERTEX
  8
PLAN_1
 62
     5
  6
CONTINUOUS
 10
-1.651531
 20
3.507402
  0
VERTEX
  8
PLAN_1
 62
     5
  6
CONTINUOUS
 10
-1.643098
 20
3.507402
  0
SEQEND
  8
0
  0
POLYLINE
  8
PLAN_1
 62
     5
  6
CONTINUOUS
 66
     1
 40
0.003000
 41
0.003000
  0
VERTEX
  8
PLAN_1
 62
     5
  6
CONTINUOUS
 10
-1.636909
 20
3.509650
  0
VERTEX
  8
PLAN_1
 62
     5
  6
CONTINUOUS
 10
-1.636909
 20
3.518087
  0
SEQEND
  8
0
  0
POLYLINE
  8
PLAN_1
 62
     5
  6
CONTINUOUS
 66
     1
 40
0.003000
 41
0.003000
  0
VERTEX
  8
PLAN_1
 62
     5
  6
CONTINUOUS
 10
-1.636909
 20
3.526520
  0
VERTEX
  8
PLAN_1
 62
     5
  6
CONTINUOUS
 10
-1.636909
 20
3.534953
  0
SEQEND
  8
0
  0
POLYLINE
  8
PLAN_1
 62
     5
  6
CONTINUOUS
 66
     1
 40
0.003000
 41
0.003000
  0
VERTEX
  8
PLAN_1
 62
     5
  6
CONTINUOUS
 10
-1.636909
 20
3.543390
  0
VERTEX
  8
PLAN_1
 62
     5
  6
CONTINUOUS
 10
-1.636909
 20
3.551260
  0
SEQEND
  8
0
  0
POLYLINE
  8
PLAN_1
 62
     5
  6
CONTINUOUS
 66
     1
 40
0.003000
 41
0.003000
  0
VERTEX
  8
PLAN_1
 62
     5
  6
CONTINUOUS
 10
-1.636909
 20
3.559697
  0
VERTEX
  8
PLAN_1
 62
     5
  6
CONTINUOUS
 10
-1.636909
 20
3.568130
  0
SEQEND
  8
0
  0
POLYLINE
  8
PLAN_1
 62
     5
  6
CONTINUOUS
 66
     1
 40
0.003000
 41
0.003000
  0
VERTEX
  8
PLAN_1
 62
     5
  6
CONTINUOUS
 10
-1.636909
 20
3.576567
  0
VERTEX
  8
PLAN_1
 62
     5
  6
CONTINUOUS
 10
-1.636909
 20
3.585000
  0
SEQEND
  8
0
  0
POLYLINE
  8
PLAN_1
 62
     5
  6
CONTINUOUS
 66
     1
 40
0.003000
 41
0.003000
  0
VERTEX
  8
PLAN_1
 62
     5
  6
CONTINUOUS
 10
-1.636909
 20
3.592874
  0
VERTEX
  8
PLAN_1
 62
     5
  6
CONTINUOUS
 10
-1.636909
 20
3.601307
  0
SEQEND
  8
0
  0
POLYLINE
  8
PLAN_1
 62
     5
  6
CONTINUOUS
 66
     1
 40
0.003000
 41
0.003000
  0
VERTEX
  8
PLAN_1
 62
     5
  6
CONTINUOUS
 10
-1.636909
 20
3.609740
  0
VERTEX
  8
PLAN_1
 62
     5
  6
CONTINUOUS
 10
-1.636909
 20
3.618177
  0
SEQEND
  8
0
  0
POLYLINE
  8
PLAN_1
 62
     5
  6
CONTINUOUS
 66
     1
 40
0.003000
 41
0.003000
  0
VERTEX
  8
PLAN_1
 62
     5
  6
CONTINUOUS
 10
-1.636909
 20
3.626610
  0
VERTEX
  8
PLAN_1
 62
     5
  6
CONTINUOUS
 10
-1.636909
 20
3.634484
  0
SEQEND
  8
0
  0
POLYLINE
  8
PLAN_1
 62
     5
  6
CONTINUOUS
 66
     1
 40
0.003000
 41
0.003000
  0
VERTEX
  8
PLAN_1
 62
     5
  6
CONTINUOUS
 10
-1.636909
 20
3.642917
  0
VERTEX
  8
PLAN_1
 62
     5
  6
CONTINUOUS
 10
-1.636909
 20
3.651350
  0
SEQEND
  8
0
  0
POLYLINE
  8
PLAN_1
 62
     5
  6
CONTINUOUS
 66
     1
 40
0.003000
 41
0.003000
  0
VERTEX
  8
PLAN_1
 62
     5
  6
CONTINUOUS
 10
-1.636909
 20
3.659787
  0
VERTEX
  8
PLAN_1
 62
     5
  6
CONTINUOUS
 10
-1.636909
 20
3.668220
  0
SEQEND
  8
0
  0
POLYLINE
  8
PLAN_1
 62
     5
  6
CONTINUOUS
 66
     1
 40
0.003000
 41
0.003000
  0
VERTEX
  8
PLAN_1
 62
     5
  6
CONTINUOUS
 10
-1.636909
 20
3.676657
  0
VERTEX
  8
PLAN_1
 62
     5
  6
CONTINUOUS
 10
-1.636909
 20
3.684528
  0
SEQEND
  8
0
  0
POLYLINE
  8
PLAN_1
 62
     5
  6
CONTINUOUS
 66
     1
 40
0.003000
 41
0.003000
  0
VERTEX
  8
PLAN_1
 62
     5
  6
CONTINUOUS
 10
-1.636909
 20
3.692965
  0
VERTEX
  8
PLAN_1
 62
     5
  6
CONTINUOUS
 10
-1.636909
 20
3.701398
  0
SEQEND
  8
0
  0
POLYLINE
  8
PLAN_1
 62
     5
  6
CONTINUOUS
 66
     1
 40
0.003000
 41
0.003000
  0
VERTEX
  8
PLAN_1
 62
     5
  6
CONTINUOUS
 10
-1.636909
 20
3.709831
  0
VERTEX
  8
PLAN_1
 62
     5
  6
CONTINUOUS
 10
-1.636909
 20
3.718268
  0
SEQEND
  8
0
  0
POLYLINE
  8
PLAN_1
 62
     5
  6
CONTINUOUS
 66
     1
 40
0.003000
 41
0.003000
  0
VERTEX
  8
PLAN_1
 62
     5
  6
CONTINUOUS
 10
-1.636909
 20
3.726138
  0
VERTEX
  8
PLAN_1
 62
     5
  6
CONTINUOUS
 10
-1.636909
 20
3.734575
  0
SEQEND
  8
0
  0
POLYLINE
  8
PLAN_1
 62
     5
  6
CONTINUOUS
 66
     1
 40
0.003000
 41
0.003000
  0
VERTEX
  8
PLAN_1
 62
     5
  6
CONTINUOUS
 10
-1.636909
 20
3.743008
  0
VERTEX
  8
PLAN_1
 62
     5
  6
CONTINUOUS
 10
-1.636909
 20
3.751445
  0
SEQEND
  8
0
  0
POLYLINE
  8
PLAN_1
 62
     5
  6
CONTINUOUS
 66
     1
 40
0.003000
 41
0.003000
  0
VERTEX
  8
PLAN_1
 62
     5
  6
CONTINUOUS
 10
-1.636909
 20
3.759878
  0
VERTEX
  8
PLAN_1
 62
     5
  6
CONTINUOUS
 10
-1.636909
 20
3.767748
  0
SEQEND
  8
0
  0
POLYLINE
  8
PLAN_1
 62
     5
  6
CONTINUOUS
 66
     1
 40
0.003000
 41
0.003000
  0
VERTEX
  8
PLAN_1
 62
     5
  6
CONTINUOUS
 10
-1.636909
 20
3.776185
  0
VERTEX
  8
PLAN_1
 62
     5
  6
CONTINUOUS
 10
-1.636909
 20
3.784618
  0
SEQEND
  8
0
  0
POLYLINE
  8
PLAN_1
 62
     5
  6
CONTINUOUS
 66
     1
 40
0.003000
 41
0.003000
  0
VERTEX
  8
PLAN_1
 62
     5
  6
CONTINUOUS
 10
-1.636909
 20
3.793055
  0
VERTEX
  8
PLAN_1
 62
     5
  6
CONTINUOUS
 10
-1.636909
 20
3.801488
  0
SEQEND
  8
0
  0
POLYLINE
  8
PLAN_1
 62
     5
  6
CONTINUOUS
 66
     1
 40
0.003000
 41
0.003000
  0
VERTEX
  8
PLAN_1
 62
     5
  6
CONTINUOUS
 10
-1.636909
 20
3.809362
  0
VERTEX
  8
PLAN_1
 62
     5
  6
CONTINUOUS
 10
-1.636909
 20
3.817795
  0
SEQEND
  8
0
  0
POLYLINE
  8
PLAN_1
 62
     5
  6
CONTINUOUS
 66
     1
 40
0.003000
 41
0.003000
  0
VERTEX
  8
PLAN_1
 62
     5
  6
CONTINUOUS
 10
-1.636909
 20
3.826228
  0
VERTEX
  8
PLAN_1
 62
     5
  6
CONTINUOUS
 10
-1.636909
 20
3.834665
  0
SEQEND
  8
0
  0
POLYLINE
  8
PLAN_1
 62
     5
  6
CONTINUOUS
 66
     1
 40
0.003000
 41
0.003000
  0
VERTEX
  8
PLAN_1
 62
     5
  6
CONTINUOUS
 10
-1.636909
 20
3.843098
  0
VERTEX
  8
PLAN_1
 62
     5
  6
CONTINUOUS
 10
-1.636909
 20
3.851535
  0
SEQEND
  8
0
  0
POLYLINE
  8
PLAN_1
 62
     5
  6
CONTINUOUS
 66
     1
 40
0.003000
 41
0.003000
  0
VERTEX
  8
PLAN_1
 62
     5
  6
CONTINUOUS
 10
-1.636909
 20
3.859406
  0
VERTEX
  8
PLAN_1
 62
     5
  6
CONTINUOUS
 10
-1.636909
 20
3.867843
  0
SEQEND
  8
0
  0
POLYLINE
  8
PLAN_1
 62
     5
  6
CONTINUOUS
 66
     1
 40
0.003000
 41
0.003000
  0
VERTEX
  8
PLAN_1
 62
     5
  6
CONTINUOUS
 10
-1.636909
 20
3.876276
  0
VERTEX
  8
PLAN_1
 62
     5
  6
CONTINUOUS
 10
-1.636909
 20
3.884709
  0
SEQEND
  8
0
  0
POLYLINE
  8
PLAN_1
 62
     5
  6
CONTINUOUS
 66
     1
 40
0.003000
 41
0.003000
  0
VERTEX
  8
PLAN_1
 62
     5
  6
CONTINUOUS
 10
-1.636909
 20
3.893146
  0
VERTEX
  8
PLAN_1
 62
     5
  6
CONTINUOUS
 10
-1.636909
 20
3.901016
  0
SEQEND
  8
0
  0
POLYLINE
  8
PLAN_1
 62
     5
  6
CONTINUOUS
 66
     1
 40
0.003000
 41
0.003000
  0
VERTEX
  8
PLAN_1
 62
     5
  6
CONTINUOUS
 10
-1.636909
 20
3.909453
  0
VERTEX
  8
PLAN_1
 62
     5
  6
CONTINUOUS
 10
-1.636909
 20
3.917886
  0
SEQEND
  8
0
  0
POLYLINE
  8
PLAN_1
 62
     5
  6
CONTINUOUS
 66
     1
 40
0.003000
 41
0.003000
  0
VERTEX
  8
PLAN_1
 62
     5
  6
CONTINUOUS
 10
-1.643657
 20
3.919575
  0
VERTEX
  8
PLAN_1
 62
     5
  6
CONTINUOUS
 10
-1.652094
 20
3.919575
  0
SEQEND
  8
0
  0
POLYLINE
  8
PLAN_1
 62
     5
  6
CONTINUOUS
 66
     1
 40
0.003000
 41
0.003000
  0
VERTEX
  8
PLAN_1
 62
     5
  6
CONTINUOUS
 10
-1.660528
 20
3.919575
  0
VERTEX
  8
PLAN_1
 62
     5
  6
CONTINUOUS
 10
-1.668965
 20
3.919575
  0
SEQEND
  8
0
  0
POLYLINE
  8
PLAN_1
 62
     5
  6
CONTINUOUS
 66
     1
 40
0.003000
 41
0.003000
  0
VERTEX
  8
PLAN_1
 62
     5
  6
CONTINUOUS
 10
-1.677398
 20
3.919575
  0
VERTEX
  8
PLAN_1
 62
     5
  6
CONTINUOUS
 10
-1.685272
 20
3.919575
  0
SEQEND
  8
0
  0
POLYLINE
  8
PLAN_1
 62
     5
  6
CONTINUOUS
 66
     1
 40
0.003000
 41
0.003000
  0
VERTEX
  8
PLAN_1
 62
     5
  6
CONTINUOUS
 10
-1.693705
 20
3.919575
  0
VERTEX
  8
PLAN_1
 62
     5
  6
CONTINUOUS
 10
-1.702138
 20
3.919575
  0
SEQEND
  8
0
  0
POLYLINE
  8
PLAN_1
 62
     5
  6
CONTINUOUS
 66
     1
 40
0.003000
 41
0.003000
  0
VERTEX
  8
PLAN_1
 62
     5
  6
CONTINUOUS
 10
-1.710575
 20
3.919575
  0
VERTEX
  8
PLAN_1
 62
     5
  6
CONTINUOUS
 10
-1.719008
 20
3.919575
  0
SEQEND
  8
0
  0
POLYLINE
  8
PLAN_1
 62
     5
  6
CONTINUOUS
 66
     1
 40
0.003000
 41
0.003000
  0
VERTEX
  8
PLAN_1
 62
     5
  6
CONTINUOUS
 10
-1.726882
 20
3.919575
  0
VERTEX
  8
PLAN_1
 62
     5
  6
CONTINUOUS
 10
-1.734752
 20
3.919575
  0
VERTEX
  8
PLAN_1
 62
     5
  6
CONTINUOUS
 10
-1.734752
 20
3.919012
  0
SEQEND
  8
0
  0
POLYLINE
  8
PLAN_1
 62
     5
  6
CONTINUOUS
 66
     1
 40
0.003000
 41
0.003000
  0
VERTEX
  8
PLAN_1
 62
     5
  6
CONTINUOUS
 10
-1.734752
 20
3.910575
  0
VERTEX
  8
PLAN_1
 62
     5
  6
CONTINUOUS
 10
-1.734752
 20
3.902142
  0
SEQEND
  8
0
  0
POLYLINE
  8
PLAN_1
 62
     5
  6
CONTINUOUS
 66
     1
 40
0.003000
 41
0.003000
  0
VERTEX
  8
PLAN_1
 62
     5
  6
CONTINUOUS
 10
-1.734752
 20
3.893709
  0
VERTEX
  8
PLAN_1
 62
     5
  6
CONTINUOUS
 10
-1.734752
 20
3.887520
  0
VERTEX
  8
PLAN_1
 62
     5
  6
CONTINUOUS
 10
-1.737004
 20
3.887520
  0
SEQEND
  8
0
  0
POLYLINE
  8
PLAN_1
 62
     5
  6
CONTINUOUS
 66
     1
 40
0.003000
 41
0.003000
  0
VERTEX
  8
PLAN_1
 62
     5
  6
CONTINUOUS
 10
-1.744874
 20
3.887520
  0
VERTEX
  8
PLAN_1
 62
     5
  6
CONTINUOUS
 10
-1.753311
 20
3.887520
  0
SEQEND
  8
0
  0
POLYLINE
  8
PLAN_1
 62
     5
  6
CONTINUOUS
 66
     1
 40
0.003000
 41
0.003000
  0
VERTEX
  8
PLAN_1
 62
     5
  6
CONTINUOUS
 10
-1.761744
 20
3.887520
  0
VERTEX
  8
PLAN_1
 62
     5
  6
CONTINUOUS
 10
-1.763429
 20
3.887520
  0
VERTEX
  8
PLAN_1
 62
     5
  6
CONTINUOUS
 10
-1.763429
 20
3.894268
  0
SEQEND
  8
0
  0
POLYLINE
  8
PLAN_1
 62
     5
  6
CONTINUOUS
 66
     1
 40
0.003000
 41
0.003000
  0
VERTEX
  8
PLAN_1
 62
     5
  6
CONTINUOUS
 10
-1.763429
 20
3.902705
  0
VERTEX
  8
PLAN_1
 62
     5
  6
CONTINUOUS
 10
-1.763429
 20
3.911138
  0
SEQEND
  8
0
  0
POLYLINE
  8
PLAN_1
 62
     5
  6
CONTINUOUS
 66
     1
 40
0.003000
 41
0.003000
  0
VERTEX
  8
PLAN_1
 62
     5
  6
CONTINUOUS
 10
-1.763429
 20
3.919012
  0
VERTEX
  8
PLAN_1
 62
     5
  6
CONTINUOUS
 10
-1.763429
 20
3.927445
  0
SEQEND
  8
0
  0
POLYLINE
  8
PLAN_1
 62
     5
  6
CONTINUOUS
 66
     1
 40
0.003000
 41
0.003000
  0
VERTEX
  8
PLAN_1
 62
     5
  6
CONTINUOUS
 10
-1.763429
 20
3.935882
  0
VERTEX
  8
PLAN_1
 62
     5
  6
CONTINUOUS
 10
-1.763429
 20
3.944315
  0
SEQEND
  8
0
  0
POLYLINE
  8
PLAN_1
 62
     5
  6
CONTINUOUS
 66
     1
 40
0.003000
 41
0.003000
  0
VERTEX
  8
PLAN_1
 62
     5
  6
CONTINUOUS
 10
-1.763429
 20
3.952748
  0
VERTEX
  8
PLAN_1
 62
     5
  6
CONTINUOUS
 10
-1.763429
 20
3.960622
  0
SEQEND
  8
0
  0
POLYLINE
  8
PLAN_1
 62
     5
  6
CONTINUOUS
 66
     1
 40
0.003000
 41
0.003000
  0
VERTEX
  8
PLAN_1
 62
     5
  6
CONTINUOUS
 10
-1.763429
 20
3.969055
  0
VERTEX
  8
PLAN_1
 62
     5
  6
CONTINUOUS
 10
-1.763429
 20
3.977492
  0
SEQEND
  8
0
  0
POLYLINE
  8
PLAN_1
 62
     5
  6
CONTINUOUS
 66
     1
 40
0.003000
 41
0.003000
  0
VERTEX
  8
PLAN_1
 62
     5
  6
CONTINUOUS
 10
-1.763429
 20
3.985925
  0
VERTEX
  8
PLAN_1
 62
     5
  6
CONTINUOUS
 10
-1.763429
 20
3.994358
  0
SEQEND
  8
0
  0
POLYLINE
  8
PLAN_1
 62
     5
  6
CONTINUOUS
 66
     1
 40
0.003000
 41
0.003000
  0
VERTEX
  8
PLAN_1
 62
     5
  6
CONTINUOUS
 10
-1.763429
 20
4.002232
  0
VERTEX
  8
PLAN_1
 62
     5
  6
CONTINUOUS
 10
-1.763429
 20
4.010665
  0
SEQEND
  8
0
  0
POLYLINE
  8
PLAN_1
 62
     5
  6
CONTINUOUS
 66
     1
 40
0.003000
 41
0.003000
  0
VERTEX
  8
PLAN_1
 62
     5
  6
CONTINUOUS
 10
-1.763429
 20
4.019102
  0
VERTEX
  8
PLAN_1
 62
     5
  6
CONTINUOUS
 10
-1.763429
 20
4.027535
  0
SEQEND
  8
0
  0
POLYLINE
  8
PLAN_1
 62
     5
  6
CONTINUOUS
 66
     1
 40
0.003000
 41
0.003000
  0
VERTEX
  8
PLAN_1
 62
     5
  6
CONTINUOUS
 10
-1.763429
 20
4.035972
  0
VERTEX
  8
PLAN_1
 62
     5
  6
CONTINUOUS
 10
-1.763429
 20
4.044406
  0
SEQEND
  8
0
  0
POLYLINE
  8
PLAN_1
 62
     5
  6
CONTINUOUS
 66
     1
 40
0.003000
 41
0.003000
  0
VERTEX
  8
PLAN_1
 62
     5
  6
CONTINUOUS
 10
-1.763429
 20
4.052280
  0
VERTEX
  8
PLAN_1
 62
     5
  6
CONTINUOUS
 10
-1.763429
 20
4.060713
  0
SEQEND
  8
0
  0
POLYLINE
  8
PLAN_1
 62
     5
  6
CONTINUOUS
 66
     1
 40
0.003000
 41
0.003000
  0
VERTEX
  8
PLAN_1
 62
     5
  6
CONTINUOUS
 10
-1.763429
 20
4.069146
  0
VERTEX
  8
PLAN_1
 62
     5
  6
CONTINUOUS
 10
-1.763429
 20
4.077583
  0
SEQEND
  8
0
  0
POLYLINE
  8
PLAN_1
 62
     5
  6
CONTINUOUS
 66
     1
 40
0.003000
 41
0.003000
  0
VERTEX
  8
PLAN_1
 62
     5
  6
CONTINUOUS
 10
-1.763429
 20
4.086016
  0
VERTEX
  8
PLAN_1
 62
     5
  6
CONTINUOUS
 10
-1.771866
 20
4.086016
  0
SEQEND
  8
0
  0
POLYLINE
  8
PLAN_1
 62
     5
  6
CONTINUOUS
 66
     1
 40
0.003000
 41
0.003000
  0
VERTEX
  8
PLAN_1
 62
     5
  6
CONTINUOUS
 10
-1.779736
 20
4.086016
  0
VERTEX
  8
PLAN_1
 62
     5
  6
CONTINUOUS
 10
-1.788173
 20
4.086016
  0
SEQEND
  8
0
  0
POLYLINE
  8
PLAN_1
 62
     5
  6
CONTINUOUS
 66
     1
 40
0.003000
 41
0.003000
  0
VERTEX
  8
PLAN_1
 62
     5
  6
CONTINUOUS
 10
-1.796606
 20
4.086016
  0
VERTEX
  8
PLAN_1
 62
     5
  6
CONTINUOUS
 10
-1.805043
 20
4.086016
  0
SEQEND
  8
0
  0
POLYLINE
  8
PLAN_1
 62
     5
  6
CONTINUOUS
 66
     1
 40
0.003000
 41
0.003000
  0
VERTEX
  8
PLAN_1
 62
     5
  6
CONTINUOUS
 10
-1.813476
 20
4.086016
  0
VERTEX
  8
PLAN_1
 62
     5
  6
CONTINUOUS
 10
-1.821350
 20
4.086016
  0
SEQEND
  8
0
  0
POLYLINE
  8
PLAN_1
 62
     5
  6
CONTINUOUS
 66
     1
 40
0.003000
 41
0.003000
  0
VERTEX
  8
PLAN_1
 62
     5
  6
CONTINUOUS
 10
-1.829783
 20
4.086016
  0
VERTEX
  8
PLAN_1
 62
     5
  6
CONTINUOUS
 10
-1.838217
 20
4.086016
  0
SEQEND
  8
0
  0
POLYLINE
  8
PLAN_1
 62
     5
  6
CONTINUOUS
 66
     1
 40
0.003000
 41
0.003000
  0
VERTEX
  8
PLAN_1
 62
     5
  6
CONTINUOUS
 10
-1.846654
 20
4.086016
  0
VERTEX
  8
PLAN_1
 62
     5
  6
CONTINUOUS
 10
-1.855087
 20
4.086016
  0
SEQEND
  8
0
  0
POLYLINE
  8
PLAN_1
 62
     5
  6
CONTINUOUS
 66
     1
 40
0.003000
 41
0.003000
  0
VERTEX
  8
PLAN_1
 62
     5
  6
CONTINUOUS
 10
-1.863520
 20
4.086016
  0
VERTEX
  8
PLAN_1
 62
     5
  6
CONTINUOUS
 10
-1.871394
 20
4.086016
  0
SEQEND
  8
0
  0
POLYLINE
  8
PLAN_1
 62
     5
  6
CONTINUOUS
 66
     1
 40
0.003000
 41
0.003000
  0
VERTEX
  8
PLAN_1
 62
     5
  6
CONTINUOUS
 10
-1.879827
 20
4.086016
  0
VERTEX
  8
PLAN_1
 62
     5
  6
CONTINUOUS
 10
-1.888264
 20
4.086016
  0
SEQEND
  8
0
  0
POLYLINE
  8
PLAN_1
 62
     5
  6
CONTINUOUS
 66
     1
 40
0.003000
 41
0.003000
  0
VERTEX
  8
PLAN_1
 62
     5
  6
CONTINUOUS
 10
-1.896697
 20
4.086016
  0
VERTEX
  8
PLAN_1
 62
     5
  6
CONTINUOUS
 10
-1.905134
 20
4.086016
  0
SEQEND
  8
0
  0
POLYLINE
  8
PLAN_1
 62
     5
  6
CONTINUOUS
 66
     1
 40
0.003000
 41
0.003000
  0
VERTEX
  8
PLAN_1
 62
     5
  6
CONTINUOUS
 10
-1.913004
 20
4.086016
  0
VERTEX
  8
PLAN_1
 62
     5
  6
CONTINUOUS
 10
-1.921441
 20
4.086016
  0
SEQEND
  8
0
  0
POLYLINE
  8
PLAN_1
 62
     5
  6
CONTINUOUS
 66
     1
 40
0.003000
 41
0.003000
  0
VERTEX
  8
PLAN_1
 62
     5
  6
CONTINUOUS
 10
-1.927626
 20
4.083768
  0
VERTEX
  8
PLAN_1
 62
     5
  6
CONTINUOUS
 10
-1.927626
 20
4.075331
  0
SEQEND
  8
0
  0
POLYLINE
  8
PLAN_1
 62
     5
  6
CONTINUOUS
 66
     1
 40
0.003000
 41
0.003000
  0
VERTEX
  8
PLAN_1
 62
     5
  6
CONTINUOUS
 10
-1.927626
 20
4.067461
  0
VERTEX
  8
PLAN_1
 62
     5
  6
CONTINUOUS
 10
-1.927626
 20
4.059028
  0
SEQEND
  8
0
  0
POLYLINE
  8
PLAN_1
 62
     5
  6
CONTINUOUS
 66
     1
 40
0.003000
 41
0.003000
  0
VERTEX
  8
PLAN_1
 62
     5
  6
CONTINUOUS
 10
-1.927626
 20
4.050591
  0
VERTEX
  8
PLAN_1
 62
     5
  6
CONTINUOUS
 10
-1.927626
 20
4.042157
  0
SEQEND
  8
0
  0
POLYLINE
  8
PLAN_1
 62
     5
  6
CONTINUOUS
 66
     1
 40
0.003000
 41
0.003000
  0
VERTEX
  8
PLAN_1
 62
     5
  6
CONTINUOUS
 10
-1.927626
 20
4.033720
  0
VERTEX
  8
PLAN_1
 62
     5
  6
CONTINUOUS
 10
-1.927626
 20
4.025850
  0
SEQEND
  8
0
  0
POLYLINE
  8
PLAN_1
 62
     5
  6
CONTINUOUS
 66
     1
 40
0.003000
 41
0.003000
  0
VERTEX
  8
PLAN_1
 62
     5
  6
CONTINUOUS
 10
-1.927626
 20
4.017413
  0
VERTEX
  8
PLAN_1
 62
     5
  6
CONTINUOUS
 10
-1.927626
 20
4.008980
  0
SEQEND
  8
0
  0
POLYLINE
  8
PLAN_1
 62
     5
  6
CONTINUOUS
 66
     1
 40
0.003000
 41
0.003000
  0
VERTEX
  8
PLAN_1
 62
     5
  6
CONTINUOUS
 10
-1.927626
 20
4.000547
  0
VERTEX
  8
PLAN_1
 62
     5
  6
CONTINUOUS
 10
-1.927626
 20
3.992110
  0
SEQEND
  8
0
  0
POLYLINE
  8
PLAN_1
 62
     5
  6
CONTINUOUS
 66
     1
 40
0.003000
 41
0.003000
  0
VERTEX
  8
PLAN_1
 62
     5
  6
CONTINUOUS
 10
-1.927626
 20
3.984240
  0
VERTEX
  8
PLAN_1
 62
     5
  6
CONTINUOUS
 10
-1.927626
 20
3.975803
  0
SEQEND
  8
0
  0
POLYLINE
  8
PLAN_1
 62
     5
  6
CONTINUOUS
 66
     1
 40
0.003000
 41
0.003000
  0
VERTEX
  8
PLAN_1
 62
     5
  6
CONTINUOUS
 10
-1.927626
 20
3.967370
  0
VERTEX
  8
PLAN_1
 62
     5
  6
CONTINUOUS
 10
-1.927626
 20
3.958933
  0
SEQEND
  8
0
  0
POLYLINE
  8
PLAN_1
 62
     5
  6
CONTINUOUS
 66
     1
 40
0.003000
 41
0.003000
  0
VERTEX
  8
PLAN_1
 62
     5
  6
CONTINUOUS
 10
-1.927626
 20
3.950500
  0
VERTEX
  8
PLAN_1
 62
     5
  6
CONTINUOUS
 10
-1.927626
 20
3.942067
  0
SEQEND
  8
0
  0
POLYLINE
  8
PLAN_1
 62
     5
  6
CONTINUOUS
 66
     1
 40
0.003000
 41
0.003000
  0
VERTEX
  8
PLAN_1
 62
     5
  6
CONTINUOUS
 10
-1.927626
 20
3.934193
  0
VERTEX
  8
PLAN_1
 62
     5
  6
CONTINUOUS
 10
-1.927626
 20
3.925760
  0
SEQEND
  8
0
  0
POLYLINE
  8
PLAN_1
 62
     5
  6
CONTINUOUS
 66
     1
 40
0.003000
 41
0.003000
  0
VERTEX
  8
PLAN_1
 62
     5
  6
CONTINUOUS
 10
-1.927626
 20
3.917323
  0
VERTEX
  8
PLAN_1
 62
     5
  6
CONTINUOUS
 10
-1.927626
 20
3.908890
  0
SEQEND
  8
0
  0
POLYLINE
  8
PLAN_1
 62
     5
  6
CONTINUOUS
 66
     1
 40
0.003000
 41
0.003000
  0
VERTEX
  8
PLAN_1
 62
     5
  6
CONTINUOUS
 10
-1.927626
 20
3.900457
  0
VERTEX
  8
PLAN_1
 62
     5
  6
CONTINUOUS
 10
-1.927626
 20
3.892583
  0
SEQEND
  8
0
  0
POLYLINE
  8
PLAN_1
 62
     5
  6
CONTINUOUS
 66
     1
 40
0.003000
 41
0.003000
  0
VERTEX
  8
PLAN_1
 62
     5
  6
CONTINUOUS
 10
-1.927626
 20
3.884150
  0
VERTEX
  8
PLAN_1
 62
     5
  6
CONTINUOUS
 10
-1.927626
 20
3.875713
  0
SEQEND
  8
0
  0
POLYLINE
  8
PLAN_1
 62
     5
  6
CONTINUOUS
 66
     1
 40
0.003000
 41
0.003000
  0
VERTEX
  8
PLAN_1
 62
     5
  6
CONTINUOUS
 10
-1.927626
 20
3.867280
  0
VERTEX
  8
PLAN_1
 62
     5
  6
CONTINUOUS
 10
-1.927626
 20
3.858843
  0
SEQEND
  8
0
  0
POLYLINE
  8
PLAN_1
 62
     5
  6
CONTINUOUS
 66
     1
 40
0.003000
 41
0.003000
  0
VERTEX
  8
PLAN_1
 62
     5
  6
CONTINUOUS
 10
-1.927626
 20
3.850972
  0
VERTEX
  8
PLAN_1
 62
     5
  6
CONTINUOUS
 10
-1.927626
 20
3.842535
  0
SEQEND
  8
0
  0
POLYLINE
  8
PLAN_1
 62
     5
  6
CONTINUOUS
 66
     1
 40
0.003000
 41
0.003000
  0
VERTEX
  8
PLAN_1
 62
     5
  6
CONTINUOUS
 10
-1.927626
 20
3.834102
  0
VERTEX
  8
PLAN_1
 62
     5
  6
CONTINUOUS
 10
-1.927626
 20
3.825669
  0
SEQEND
  8
0
  0
POLYLINE
  8
PLAN_1
 62
     5
  6
CONTINUOUS
 66
     1
 40
0.003000
 41
0.003000
  0
VERTEX
  8
PLAN_1
 62
     5
  6
CONTINUOUS
 10
-1.927626
 20
3.817232
  0
VERTEX
  8
PLAN_1
 62
     5
  6
CONTINUOUS
 10
-1.927626
 20
3.808799
  0
SEQEND
  8
0
  0
POLYLINE
  8
PLAN_1
 62
     5
  6
CONTINUOUS
 66
     1
 40
0.003000
 41
0.003000
  0
VERTEX
  8
PLAN_1
 62
     5
  6
CONTINUOUS
 10
-1.927626
 20
3.800925
  0
VERTEX
  8
PLAN_1
 62
     5
  6
CONTINUOUS
 10
-1.927626
 20
3.792492
  0
SEQEND
  8
0
  0
POLYLINE
  8
PLAN_1
 62
     5
  6
CONTINUOUS
 66
     1
 40
0.003000
 41
0.003000
  0
VERTEX
  8
PLAN_1
 62
     5
  6
CONTINUOUS
 10
-1.927626
 20
3.784055
  0
VERTEX
  8
PLAN_1
 62
     5
  6
CONTINUOUS
 10
-1.927626
 20
3.775622
  0
SEQEND
  8
0
  0
POLYLINE
  8
PLAN_1
 62
     5
  6
CONTINUOUS
 66
     1
 40
0.003000
 41
0.003000
  0
VERTEX
  8
PLAN_1
 62
     5
  6
CONTINUOUS
 10
-1.927626
 20
3.767189
  0
VERTEX
  8
PLAN_1
 62
     5
  6
CONTINUOUS
 10
-1.927626
 20
3.759315
  0
SEQEND
  8
0
  0
POLYLINE
  8
PLAN_1
 62
     5
  6
CONTINUOUS
 66
     1
 40
0.003000
 41
0.003000
  0
VERTEX
  8
PLAN_1
 62
     5
  6
CONTINUOUS
 10
-1.927626
 20
3.750882
  0
VERTEX
  8
PLAN_1
 62
     5
  6
CONTINUOUS
 10
-1.927626
 20
3.742445
  0
SEQEND
  8
0
  0
POLYLINE
  8
PLAN_1
 62
     5
  6
CONTINUOUS
 66
     1
 40
0.003000
 41
0.003000
  0
VERTEX
  8
PLAN_1
 62
     5
  6
CONTINUOUS
 10
-1.927626
 20
3.734012
  0
VERTEX
  8
PLAN_1
 62
     5
  6
CONTINUOUS
 10
-1.927626
 20
3.725579
  0
SEQEND
  8
0
  0
POLYLINE
  8
PLAN_1
 62
     5
  6
CONTINUOUS
 66
     1
 40
0.003000
 41
0.003000
  0
VERTEX
  8
PLAN_1
 62
     5
  6
CONTINUOUS
 10
-1.927626
 20
3.717705
  0
VERTEX
  8
PLAN_1
 62
     5
  6
CONTINUOUS
 10
-1.927626
 20
3.709272
  0
SEQEND
  8
0
  0
POLYLINE
  8
PLAN_1
 62
     5
  6
CONTINUOUS
 66
     1
 40
0.003000
 41
0.003000
  0
VERTEX
  8
PLAN_1
 62
     5
  6
CONTINUOUS
 10
-1.927626
 20
3.700835
  0
VERTEX
  8
PLAN_1
 62
     5
  6
CONTINUOUS
 10
-1.927626
 20
3.692402
  0
SEQEND
  8
0
  0
POLYLINE
  8
PLAN_1
 62
     5
  6
CONTINUOUS
 66
     1
 40
0.003000
 41
0.003000
  0
VERTEX
  8
PLAN_1
 62
     5
  6
CONTINUOUS
 10
-1.927626
 20
3.683965
  0
VERTEX
  8
PLAN_1
 62
     5
  6
CONTINUOUS
 10
-1.927626
 20
3.676094
  0
SEQEND
  8
0
  0
POLYLINE
  8
PLAN_1
 62
     5
  6
CONTINUOUS
 66
     1
 40
0.003000
 41
0.003000
  0
VERTEX
  8
PLAN_1
 62
     5
  6
CONTINUOUS
 10
-1.927626
 20
3.667657
  0
VERTEX
  8
PLAN_1
 62
     5
  6
CONTINUOUS
 10
-1.927626
 20
3.659224
  0
SEQEND
  8
0
  0
POLYLINE
  8
PLAN_1
 62
     5
  6
CONTINUOUS
 66
     1
 40
0.003000
 41
0.003000
  0
VERTEX
  8
PLAN_1
 62
     5
  6
CONTINUOUS
 10
-1.927626
 20
3.650791
  0
VERTEX
  8
PLAN_1
 62
     5
  6
CONTINUOUS
 10
-1.927626
 20
3.642354
  0
SEQEND
  8
0
  0
POLYLINE
  8
PLAN_1
 62
     5
  6
CONTINUOUS
 66
     1
 40
0.003000
 41
0.003000
  0
VERTEX
  8
PLAN_1
 62
     5
  6
CONTINUOUS
 10
-1.927626
 20
3.633921
  0
VERTEX
  8
PLAN_1
 62
     5
  6
CONTINUOUS
 10
-1.927626
 20
3.626047
  0
SEQEND
  8
0
  0
POLYLINE
  8
PLAN_1
 62
     5
  6
CONTINUOUS
 66
     1
 40
0.003000
 41
0.003000
  0
VERTEX
  8
PLAN_1
 62
     5
  6
CONTINUOUS
 10
-1.927626
 20
3.617614
  0
VERTEX
  8
PLAN_1
 62
     5
  6
CONTINUOUS
 10
-1.927626
 20
3.609177
  0
SEQEND
  8
0
  0
POLYLINE
  8
PLAN_1
 62
     5
  6
CONTINUOUS
 66
     1
 40
0.003000
 41
0.003000
  0
VERTEX
  8
PLAN_1
 62
     5
  6
CONTINUOUS
 10
-1.927626
 20
3.600744
  0
VERTEX
  8
PLAN_1
 62
     5
  6
CONTINUOUS
 10
-1.927626
 20
3.592311
  0
SEQEND
  8
0
  0
POLYLINE
  8
PLAN_1
 62
     5
  6
CONTINUOUS
 66
     1
 40
0.003000
 41
0.003000
  0
VERTEX
  8
PLAN_1
 62
     5
  6
CONTINUOUS
 10
-1.927626
 20
3.584437
  0
VERTEX
  8
PLAN_1
 62
     5
  6
CONTINUOUS
 10
-1.927626
 20
3.576004
  0
SEQEND
  8
0
  0
POLYLINE
  8
PLAN_1
 62
     5
  6
CONTINUOUS
 66
     1
 40
0.003000
 41
0.003000
  0
VERTEX
  8
PLAN_1
 62
     5
  6
CONTINUOUS
 10
-1.927626
 20
3.567567
  0
VERTEX
  8
PLAN_1
 62
     5
  6
CONTINUOUS
 10
-1.927626
 20
3.559134
  0
SEQEND
  8
0
  0
POLYLINE
  8
PLAN_1
 62
     5
  6
CONTINUOUS
 66
     1
 40
0.003000
 41
0.003000
  0
VERTEX
  8
PLAN_1
 62
     5
  6
CONTINUOUS
 10
-1.927626
 20
3.550701
  0
VERTEX
  8
PLAN_1
 62
     5
  6
CONTINUOUS
 10
-1.927626
 20
3.542827
  0
SEQEND
  8
0
  0
POLYLINE
  8
PLAN_1
 62
     5
  6
CONTINUOUS
 66
     1
 40
0.003000
 41
0.003000
  0
VERTEX
  8
PLAN_1
 62
     5
  6
CONTINUOUS
 10
-1.927626
 20
3.534394
  0
VERTEX
  8
PLAN_1
 62
     5
  6
CONTINUOUS
 10
-1.927626
 20
3.525957
  0
SEQEND
  8
0
  0
POLYLINE
  8
PLAN_1
 62
     5
  6
CONTINUOUS
 66
     1
 40
0.003000
 41
0.003000
  0
VERTEX
  8
PLAN_1
 62
     5
  6
CONTINUOUS
 10
-1.927626
 20
3.517524
  0
VERTEX
  8
PLAN_1
 62
     5
  6
CONTINUOUS
 10
-1.927626
 20
3.509087
  0
SEQEND
  8
0
  0
POLYLINE
  8
PLAN_1
 62
     5
  6
CONTINUOUS
 66
     1
 40
0.003000
 41
0.003000
  0
VERTEX
  8
PLAN_1
 62
     5
  6
CONTINUOUS
 10
-1.927626
 20
3.500654
  0
VERTEX
  8
PLAN_1
 62
     5
  6
CONTINUOUS
 10
-1.927626
 20
3.492780
  0
SEQEND
  8
0
  0
POLYLINE
  8
PLAN_1
 62
     5
  6
CONTINUOUS
 66
     1
 40
0.003000
 41
0.003000
  0
VERTEX
  8
PLAN_1
 62
     5
  6
CONTINUOUS
 10
-1.927626
 20
3.484346
  0
VERTEX
  8
PLAN_1
 62
     5
  6
CONTINUOUS
 10
-1.927626
 20
3.475913
  0
SEQEND
  8
0
  0
POLYLINE
  8
PLAN_1
 62
     5
  6
CONTINUOUS
 66
     1
 40
0.003000
 41
0.003000
  0
VERTEX
  8
PLAN_1
 62
     5
  6
CONTINUOUS
 10
-1.927626
 20
3.467476
  0
VERTEX
  8
PLAN_1
 62
     5
  6
CONTINUOUS
 10
-1.927626
 20
3.459043
  0
SEQEND
  8
0
  0
POLYLINE
  8
PLAN_1
 62
     5
  6
CONTINUOUS
 66
     1
 40
0.003000
 41
0.003000
  0
VERTEX
  8
PLAN_1
 62
     5
  6
CONTINUOUS
 10
-1.927626
 20
3.451169
  0
VERTEX
  8
PLAN_1
 62
     5
  6
CONTINUOUS
 10
-1.927626
 20
3.442736
  0
SEQEND
  8
0
  0
POLYLINE
  8
PLAN_1
 62
     5
  6
CONTINUOUS
 66
     1
 40
0.003000
 41
0.003000
  0
VERTEX
  8
PLAN_1
 62
     5
  6
CONTINUOUS
 10
-1.927626
 20
3.434299
  0
VERTEX
  8
PLAN_1
 62
     5
  6
CONTINUOUS
 10
-1.927626
 20
3.425866
  0
SEQEND
  8
0
  0
POLYLINE
  8
PLAN_1
 62
     5
  6
CONTINUOUS
 66
     1
 40
0.003000
 41
0.003000
  0
VERTEX
  8
PLAN_1
 62
     5
  6
CONTINUOUS
 10
-1.927626
 20
3.417433
  0
VERTEX
  8
PLAN_1
 62
     5
  6
CONTINUOUS
 10
-1.927626
 20
3.409559
  0
SEQEND
  8
0
  0
POLYLINE
  8
PLAN_1
 62
     5
  6
CONTINUOUS
 66
     1
 40
0.003000
 41
0.003000
  0
VERTEX
  8
PLAN_1
 62
     5
  6
CONTINUOUS
 10
-1.927626
 20
3.401126
  0
VERTEX
  8
PLAN_1
 62
     5
  6
CONTINUOUS
 10
-1.927626
 20
3.392689
  0
SEQEND
  8
0
  0
POLYLINE
  8
PLAN_1
 62
     5
  6
CONTINUOUS
 66
     1
 40
0.003000
 41
0.003000
  0
VERTEX
  8
PLAN_1
 62
     5
  6
CONTINUOUS
 10
-1.927626
 20
3.384256
  0
VERTEX
  8
PLAN_1
 62
     5
  6
CONTINUOUS
 10
-1.927626
 20
3.375823
  0
SEQEND
  8
0
  0
POLYLINE
  8
PLAN_1
 62
     5
  6
CONTINUOUS
 66
     1
 40
0.003000
 41
0.003000
  0
VERTEX
  8
PLAN_1
 62
     5
  6
CONTINUOUS
 10
-1.927626
 20
3.367949
  0
VERTEX
  8
PLAN_1
 62
     5
  6
CONTINUOUS
 10
-1.927626
 20
3.359516
  0
SEQEND
  8
0
  0
POLYLINE
  8
PLAN_1
 62
     5
  6
CONTINUOUS
 66
     1
 40
0.003000
 41
0.003000
  0
VERTEX
  8
PLAN_1
 62
     5
  6
CONTINUOUS
 10
-1.927626
 20
3.351079
  0
VERTEX
  8
PLAN_1
 62
     5
  6
CONTINUOUS
 10
-1.927626
 20
3.343768
  0
VERTEX
  8
PLAN_1
 62
     5
  6
CONTINUOUS
 10
-1.927063
 20
3.343768
  0
SEQEND
  8
0
  0
POLYLINE
  8
PLAN_1
 62
     5
  6
CONTINUOUS
 66
     1
 40
0.003000
 41
0.003000
  0
VERTEX
  8
PLAN_1
 62
     5
  6
CONTINUOUS
 10
-1.918626
 20
3.343768
  0
VERTEX
  8
PLAN_1
 62
     5
  6
CONTINUOUS
 10
-1.910193
 20
3.343768
  0
SEQEND
  8
0
  0
POLYLINE
  8
PLAN_1
 62
     5
  6
CONTINUOUS
 66
     1
 40
0.003000
 41
0.003000
  0
VERTEX
  8
PLAN_1
 62
     5
  6
CONTINUOUS
 10
-1.901760
 20
3.343768
  0
VERTEX
  8
PLAN_1
 62
     5
  6
CONTINUOUS
 10
-1.893323
 20
3.343768
  0
SEQEND
  8
0
  0
POLYLINE
  8
PLAN_1
 62
     5
  6
CONTINUOUS
 66
     1
 40
0.003000
 41
0.003000
  0
VERTEX
  8
PLAN_1
 62
     5
  6
CONTINUOUS
 10
-1.885453
 20
3.343768
  0
VERTEX
  8
PLAN_1
 62
     5
  6
CONTINUOUS
 10
-1.877016
 20
3.343768
  0
SEQEND
  8
0
  0
POLYLINE
  8
PLAN_1
 62
     5
  6
CONTINUOUS
 66
     1
 40
0.003000
 41
0.003000
  0
VERTEX
  8
PLAN_1
 62
     5
  6
CONTINUOUS
 10
-1.868583
 20
3.343768
  0
VERTEX
  8
PLAN_1
 62
     5
  6
CONTINUOUS
 10
-1.860150
 20
3.343768
  0
SEQEND
  8
0
  0
POLYLINE
  8
PLAN_1
 62
     5
  6
CONTINUOUS
 66
     1
 40
0.003000
 41
0.003000
  0
VERTEX
  8
PLAN_1
 62
     5
  6
CONTINUOUS
 10
-1.851713
 20
3.343768
  0
VERTEX
  8
PLAN_1
 62
     5
  6
CONTINUOUS
 10
-1.843843
 20
3.343768
  0
SEQEND
  8
0
  0
POLYLINE
  8
PLAN_1
 62
     5
  6
CONTINUOUS
 66
     1
 40
0.003000
 41
0.003000
  0
VERTEX
  8
PLAN_1
 62
     5
  6
CONTINUOUS
 10
-1.835406
 20
3.343768
  0
VERTEX
  8
PLAN_1
 62
     5
  6
CONTINUOUS
 10
-1.826972
 20
3.343768
  0
SEQEND
  8
0
  0
POLYLINE
  8
PLAN_1
 62
     5
  6
CONTINUOUS
 66
     1
 40
0.003000
 41
0.003000
  0
VERTEX
  8
PLAN_1
 62
     5
  6
CONTINUOUS
 10
-1.818535
 20
3.343768
  0
VERTEX
  8
PLAN_1
 62
     5
  6
CONTINUOUS
 10
-1.810102
 20
3.343768
  0
SEQEND
  8
0
  0
POLYLINE
  8
PLAN_1
 62
     5
  6
CONTINUOUS
 66
     1
 40
0.003000
 41
0.003000
  0
VERTEX
  8
PLAN_1
 62
     5
  6
CONTINUOUS
 10
-1.802228
 20
3.343768
  0
VERTEX
  8
PLAN_1
 62
     5
  6
CONTINUOUS
 10
-1.793795
 20
3.343768
  0
SEQEND
  8
0
  0
POLYLINE
  8
PLAN_1
 62
     5
  6
CONTINUOUS
 66
     1
 40
0.003000
 41
0.003000
  0
VERTEX
  8
PLAN_1
 62
     5
  6
CONTINUOUS
 10
-1.785362
 20
3.343768
  0
VERTEX
  8
PLAN_1
 62
     5
  6
CONTINUOUS
 10
-1.776925
 20
3.343768
  0
SEQEND
  8
0
  0
POLYLINE
  8
PLAN_1
 62
     5
  6
CONTINUOUS
 66
     1
 40
0.003000
 41
0.003000
  0
VERTEX
  8
PLAN_1
 62
     5
  6
CONTINUOUS
 10
-1.768492
 20
3.343768
  0
VERTEX
  8
PLAN_1
 62
     5
  6
CONTINUOUS
 10
-1.763429
 20
3.343768
  0
VERTEX
  8
PLAN_1
 62
     5
  6
CONTINUOUS
 10
-1.763429
 20
3.346583
  0
SEQEND
  8
0
  0
POLYLINE
  8
PLAN_1
 62
     5
  6
CONTINUOUS
 66
     1
 40
0.003000
 41
0.003000
  0
VERTEX
  8
PLAN_1
 62
     5
  6
CONTINUOUS
 10
-1.763429
 20
3.355016
  0
VERTEX
  8
PLAN_1
 62
     5
  6
CONTINUOUS
 10
-1.763429
 20
3.363449
  0
SEQEND
  8
0
  0
POLYLINE
  8
PLAN_1
 62
     5
  6
CONTINUOUS
 66
     1
 40
0.003000
 41
0.003000
  0
VERTEX
  8
PLAN_1
 62
     5
  6
CONTINUOUS
 10
-1.763429
 20
3.371886
  0
VERTEX
  8
PLAN_1
 62
     5
  6
CONTINUOUS
 10
-1.763429
 20
3.380319
  0
SEQEND
  8
0
  0
POLYLINE
  8
PLAN_1
 62
     5
  6
CONTINUOUS
 66
     1
 40
0.003000
 41
0.003000
  0
VERTEX
  8
PLAN_1
 62
     5
  6
CONTINUOUS
 10
-1.763429
 20
3.388193
  0
VERTEX
  8
PLAN_1
 62
     5
  6
CONTINUOUS
 10
-1.763429
 20
3.396626
  0
SEQEND
  8
0
  0
POLYLINE
  8
PLAN_1
 62
     5
  6
CONTINUOUS
 66
     1
 40
0.003000
 41
0.003000
  0
VERTEX
  8
PLAN_1
 62
     5
  6
CONTINUOUS
 10
-1.763429
 20
3.405063
  0
VERTEX
  8
PLAN_1
 62
     5
  6
CONTINUOUS
 10
-1.763429
 20
3.413496
  0
SEQEND
  8
0
  0
POLYLINE
  8
PLAN_1
 62
     5
  6
CONTINUOUS
 66
     1
 40
0.003000
 41
0.003000
  0
VERTEX
  8
PLAN_1
 62
     5
  6
CONTINUOUS
 10
-1.763429
 20
3.421929
  0
VERTEX
  8
PLAN_1
 62
     5
  6
CONTINUOUS
 10
-1.763429
 20
3.429803
  0
SEQEND
  8
0
  0
POLYLINE
  8
PLAN_1
 62
     5
  6
CONTINUOUS
 66
     1
 40
0.003000
 41
0.003000
  0
VERTEX
  8
PLAN_1
 62
     5
  6
CONTINUOUS
 10
-1.763429
 20
3.438236
  0
VERTEX
  8
PLAN_1
 62
     5
  6
CONTINUOUS
 10
-1.763429
 20
3.446673
  0
SEQEND
  8
0
  0
POLYLINE
  8
PLAN_1
 62
     5
  6
CONTINUOUS
 66
     1
 40
0.003000
 41
0.003000
  0
VERTEX
  8
PLAN_1
 62
     5
  6
CONTINUOUS
 10
-1.763429
 20
3.455106
  0
VERTEX
  8
PLAN_1
 62
     5
  6
CONTINUOUS
 10
-1.763429
 20
3.463539
  0
SEQEND
  8
0
  0
POLYLINE
  8
PLAN_1
 62
     5
  6
CONTINUOUS
 66
     1
 40
0.003000
 41
0.003000
  0
VERTEX
  8
PLAN_1
 62
     5
  6
CONTINUOUS
 10
-1.763429
 20
3.471413
  0
VERTEX
  8
PLAN_1
 62
     5
  6
CONTINUOUS
 10
-1.763429
 20
3.479846
  0
SEQEND
  8
0
  0
POLYLINE
  8
PLAN_1
 62
     5
  6
CONTINUOUS
 66
     1
 40
0.003000
 41
0.003000
  0
VERTEX
  8
PLAN_1
 62
     5
  6
CONTINUOUS
 10
-1.763429
 20
3.488283
  0
VERTEX
  8
PLAN_1
 62
     5
  6
CONTINUOUS
 10
-1.763429
 20
3.496717
  0
SEQEND
  8
0
  0
POLYLINE
  8
PLAN_1
 62
     5
  6
CONTINUOUS
 66
     1
 40
0.003000
 41
0.003000
  0
VERTEX
  8
PLAN_1
 62
     5
  6
CONTINUOUS
 10
-1.763429
 20
3.505154
  0
VERTEX
  8
PLAN_1
 62
     5
  6
CONTINUOUS
 10
-1.763429
 20
3.513024
  0
SEQEND
  8
0
  0
POLYLINE
  8
PLAN_1
 62
     5
  6
CONTINUOUS
 66
     1
 40
0.003000
 41
0.003000
  0
VERTEX
  8
PLAN_1
 62
     5
  6
CONTINUOUS
 10
-1.763429
 20
3.521461
  0
VERTEX
  8
PLAN_1
 62
     5
  6
CONTINUOUS
 10
-1.763429
 20
3.529894
  0
SEQEND
  8
0
  0
POLYLINE
  8
PLAN_1
 62
     5
  6
CONTINUOUS
 66
     1
 40
0.003000
 41
0.003000
  0
VERTEX
  8
PLAN_1
 62
     5
  6
CONTINUOUS
 10
-1.763429
 20
3.538327
  0
VERTEX
  8
PLAN_1
 62
     5
  6
CONTINUOUS
 10
-1.763429
 20
3.540016
  0
VERTEX
  8
PLAN_1
 62
     5
  6
CONTINUOUS
 10
-1.756681
 20
3.540016
  0
SEQEND
  8
0
  0
POLYLINE
  8
PLAN_1
 62
     5
  6
CONTINUOUS
 66
     1
 40
0.003000
 41
0.003000
  0
VERTEX
  8
PLAN_1
 62
     5
  6
CONTINUOUS
 10
-1.748811
 20
3.540016
  0
VERTEX
  8
PLAN_1
 62
     5
  6
CONTINUOUS
 10
-1.740378
 20
3.540016
  0
SEQEND
  8
0
  0
POLYLINE
  8
PLAN_1
 62
     5
  6
CONTINUOUS
 66
     1
 40
0.003000
 41
0.003000
  0
VERTEX
  8
PLAN_1
 62
     5
  6
CONTINUOUS
 10
-1.734752
 20
3.537205
  0
VERTEX
  8
PLAN_1
 62
     5
  6
CONTINUOUS
 10
-1.734752
 20
3.528768
  0
SEQEND
  8
0
  0
POLYLINE
  8
PLAN_1
 62
     5
  6
CONTINUOUS
 66
     1
 40
0.003000
 41
0.003000
  0
VERTEX
  8
PLAN_1
 62
     5
  6
CONTINUOUS
 10
-1.734752
 20
3.520335
  0
VERTEX
  8
PLAN_1
 62
     5
  6
CONTINUOUS
 10
-1.734752
 20
3.512461
  0
SEQEND
  8
0
  0
POLYLINE
  8
PLAN_1
  6
CONTINUOUS
 66
     1
 40
0.008433
 41
0.008433
  0
VERTEX
  8
PLAN_1
  6
CONTINUOUS
 10
-1.927626
 20
3.613677
  0
VERTEX
  8
PLAN_1
  6
CONTINUOUS
 10
-1.927626
 20
3.901579
  0
VERTEX
  8
PLAN_1
  6
CONTINUOUS
 10
-1.996228
 20
3.901579
  0
VERTEX
  8
PLAN_1
  6
CONTINUOUS
 10
-1.996228
 20
3.613677
  0
VERTEX
  8
PLAN_1
  6
CONTINUOUS
 10
-1.927626
 20
3.613677
  0
SEQEND
  8
0
  0
POLYLINE
  8
PLAN_1
  6
CONTINUOUS
 66
     1
 40
0.008433
 41
0.008433
  0
VERTEX
  8
PLAN_1
  6
CONTINUOUS
 10
-1.995665
 20
3.826791
  0
VERTEX
  8
PLAN_1
  6
CONTINUOUS
 10
-1.928189
 20
3.826791
  0
SEQEND
  8
0
  0
POLYLINE
  8
PLAN_1
  6
CONTINUOUS
 66
     1
 40
0.008433
 41
0.008433
  0
VERTEX
  8
PLAN_1
  6
CONTINUOUS
 10
-1.995665
 20
3.689591
  0
VERTEX
  8
PLAN_1
  6
CONTINUOUS
 10
-1.928189
 20
3.689591
  0
SEQEND
  8
0
  0
POLYLINE
  8
PLAN_1
  6
CONTINUOUS
 66
     1
 40
0.008433
 41
0.008433
  0
VERTEX
  8
PLAN_1
  6
CONTINUOUS
 10
-1.987791
 20
3.901579
  0
VERTEX
  8
PLAN_1
  6
CONTINUOUS
 10
-1.988354
 20
3.899894
  0
VERTEX
  8
PLAN_1
  6
CONTINUOUS
 10
-1.990039
 20
3.895394
  0
VERTEX
  8
PLAN_1
  6
CONTINUOUS
 10
-1.992291
 20
3.888083
  0
VERTEX
  8
PLAN_1
  6
CONTINUOUS
 10
-1.994539
 20
3.878524
  0
VERTEX
  8
PLAN_1
  6
CONTINUOUS
 10
-1.995102
 20
3.872902
  0
VERTEX
  8
PLAN_1
  6
CONTINUOUS
 10
-1.995665
 20
3.867280
  0
VERTEX
  8
PLAN_1
  6
CONTINUOUS
 10
-1.995665
 20
3.861094
  0
VERTEX
  8
PLAN_1
  6
CONTINUOUS
 10
-1.995665
 20
3.854346
  0
VERTEX
  8
PLAN_1
  6
CONTINUOUS
 10
-1.994539
 20
3.847598
  0
VERTEX
  8
PLAN_1
  6
CONTINUOUS
 10
-1.992854
 20
3.840850
  0
VERTEX
  8
PLAN_1
  6
CONTINUOUS
 10
-1.990602
 20
3.834102
  0
VERTEX
  8
PLAN_1
  6
CONTINUOUS
 10
-1.987791
 20
3.827354
  0
VERTEX
  8
PLAN_1
  6
CONTINUOUS
 10
-1.988354
 20
3.823980
  0
VERTEX
  8
PLAN_1
  6
CONTINUOUS
 10
-1.990039
 20
3.815547
  0
VERTEX
  8
PLAN_1
  6
CONTINUOUS
 10
-1.992291
 20
3.802614
  0
VERTEX
  8
PLAN_1
  6
CONTINUOUS
 10
-1.994539
 20
3.785181
  0
VERTEX
  8
PLAN_1
  6
CONTINUOUS
 10
-1.995102
 20
3.775622
  0
VERTEX
  8
PLAN_1
  6
CONTINUOUS
 10
-1.995665
 20
3.764937
  0
VERTEX
  8
PLAN_1
  6
CONTINUOUS
 10
-1.995665
 20
3.753130
  0
VERTEX
  8
PLAN_1
  6
CONTINUOUS
 10
-1.995102
 20
3.741323
  0
VERTEX
  8
PLAN_1
  6
CONTINUOUS
 10
-1.993976
 20
3.728390
  0
VERTEX
  8
PLAN_1
  6
CONTINUOUS
 10
-1.992854
 20
3.715457
  0
VERTEX
  8
PLAN_1
  6
CONTINUOUS
 10
-1.990602
 20
3.701961
  0
VERTEX
  8
PLAN_1
  6
CONTINUOUS
 10
-1.987228
 20
3.688465
  0
VERTEX
  8
PLAN_1
  6
CONTINUOUS
 10
-1.988354
 20
3.686780
  0
VERTEX
  8
PLAN_1
  6
CONTINUOUS
 10
-1.990039
 20
3.681717
  0
VERTEX
  8
PLAN_1
  6
CONTINUOUS
 10
-1.992291
 20
3.674406
  0
VERTEX
  8
PLAN_1
  6
CONTINUOUS
 10
-1.993976
 20
3.664846
  0
VERTEX
  8
PLAN_1
  6
CONTINUOUS
 10
-1.995102
 20
3.659224
  0
VERTEX
  8
PLAN_1
  6
CONTINUOUS
 10
-1.995102
 20
3.653602
  0
VERTEX
  8
PLAN_1
  6
CONTINUOUS
 10
-1.995665
 20
3.647417
  0
VERTEX
  8
PLAN_1
  6
CONTINUOUS
 10
-1.995102
 20
3.641232
  0
VERTEX
  8
PLAN_1
  6
CONTINUOUS
 10
-1.993976
 20
3.634484
  0
VERTEX
  8
PLAN_1
  6
CONTINUOUS
 10
-1.992291
 20
3.627736
  0
VERTEX
  8
PLAN_1
  6
CONTINUOUS
 10
-1.990602
 20
3.620988
  0
VERTEX
  8
PLAN_1
  6
CONTINUOUS
 10
-1.987228
 20
3.613677
  0
SEQEND
  8
0
  0
POLYLINE
  8
PLAN_1
  6
CONTINUOUS
 66
     1
 40
0.008433
 41
0.008433
  0
VERTEX
  8
PLAN_1
  6
CONTINUOUS
 10
-1.936059
 20
3.614240
  0
VERTEX
  8
PLAN_1
  6
CONTINUOUS
 10
-1.935496
 20
3.615925
  0
VERTEX
  8
PLAN_1
  6
CONTINUOUS
 10
-1.933811
 20
3.620988
  0
VERTEX
  8
PLAN_1
  6
CONTINUOUS
 10
-1.931559
 20
3.628299
  0
VERTEX
  8
PLAN_1
  6
CONTINUOUS
 10
-1.929311
 20
3.637858
  0
VERTEX
  8
PLAN_1
  6
CONTINUOUS
 10
-1.928748
 20
3.643480
  0
VERTEX
  8
PLAN_1
  6
CONTINUOUS
 10
-1.928189
 20
3.649102
  0
VERTEX
  8
PLAN_1
  6
CONTINUOUS
 10
-1.928189
 20
3.655287
  0
VERTEX
  8
PLAN_1
  6
CONTINUOUS
 10
-1.928748
 20
3.662035
  0
VERTEX
  8
PLAN_1
  6
CONTINUOUS
 10
-1.929311
 20
3.668220
  0
VERTEX
  8
PLAN_1
  6
CONTINUOUS
 10
-1.931000
 20
3.674969
  0
VERTEX
  8
PLAN_1
  6
CONTINUOUS
 10
-1.933248
 20
3.682280
  0
VERTEX
  8
PLAN_1
  6
CONTINUOUS
 10
-1.936059
 20
3.689028
  0
SEQEND
  8
0
  0
POLYLINE
  8
PLAN_1
  6
CONTINUOUS
 66
     1
 40
0.008433
 41
0.008433
  0
VERTEX
  8
PLAN_1
  6
CONTINUOUS
 10
-1.935496
 20
3.827354
  0
VERTEX
  8
PLAN_1
  6
CONTINUOUS
 10
-1.934933
 20
3.829043
  0
VERTEX
  8
PLAN_1
  6
CONTINUOUS
 10
-1.932685
 20
3.833539
  0
VERTEX
  8
PLAN_1
  6
CONTINUOUS
 10
-1.930437
 20
3.840850
  0
VERTEX
  8
PLAN_1
  6
CONTINUOUS
 10
-1.928748
 20
3.850409
  0
VERTEX
  8
PLAN_1
  6
CONTINUOUS
 10
-1.927626
 20
3.856031
  0
VERTEX
  8
PLAN_1
  6
CONTINUOUS
 10
-1.927626
 20
3.861654
  0
VERTEX
  8
PLAN_1
  6
CONTINUOUS
 10
-1.927626
 20
3.867843
  0
VERTEX
  8
PLAN_1
  6
CONTINUOUS
 10
-1.927626
 20
3.874587
  0
VERTEX
  8
PLAN_1
  6
CONTINUOUS
 10
-1.928748
 20
3.880776
  0
VERTEX
  8
PLAN_1
  6
CONTINUOUS
 10
-1.930437
 20
3.888083
  0
VERTEX
  8
PLAN_1
  6
CONTINUOUS
 10
-1.932685
 20
3.894831
  0
VERTEX
  8
PLAN_1
  6
CONTINUOUS
 10
-1.935496
 20
3.901579
  0
SEQEND
  8
0
  0
POLYLINE
  8
PLAN_1
  6
CONTINUOUS
 66
     1
 40
0.008433
 41
0.008433
  0
VERTEX
  8
PLAN_1
  6
CONTINUOUS
 10
-1.935496
 20
3.689028
  0
VERTEX
  8
PLAN_1
  6
CONTINUOUS
 10
-1.934933
 20
3.691839
  0
VERTEX
  8
PLAN_1
  6
CONTINUOUS
 10
-1.933248
 20
3.700272
  0
VERTEX
  8
PLAN_1
  6
CONTINUOUS
 10
-1.931000
 20
3.713768
  0
VERTEX
  8
PLAN_1
  6
CONTINUOUS
 10
-1.928748
 20
3.730638
  0
VERTEX
  8
PLAN_1
  6
CONTINUOUS
 10
-1.928189
 20
3.740760
  0
VERTEX
  8
PLAN_1
  6
CONTINUOUS
 10
-1.928189
 20
3.751445
  0
VERTEX
  8
PLAN_1
  6
CONTINUOUS
 10
-1.927626
 20
3.762689
  0
VERTEX
  8
PLAN_1
  6
CONTINUOUS
 10
-1.928189
 20
3.775059
  0
VERTEX
  8
PLAN_1
  6
CONTINUOUS
 10
-1.929311
 20
3.787429
  0
VERTEX
  8
PLAN_1
  6
CONTINUOUS
 10
-1.931000
 20
3.800925
  0
VERTEX
  8
PLAN_1
  6
CONTINUOUS
 10
-1.933248
 20
3.814421
  0
VERTEX
  8
PLAN_1
  6
CONTINUOUS
 10
-1.936059
 20
3.827917
  0
SEQEND
  8
0
  0
POLYLINE
  8
PLAN_1
  6
CONTINUOUS
 66
     1
 40
0.008433
 41
0.008433
  0
VERTEX
  8
PLAN_1
  6
CONTINUOUS
 10
-1.928748
 20
1.479154
  0
VERTEX
  8
PLAN_1
  6
CONTINUOUS
 10
-1.825283
 20
1.479154
  0
VERTEX
  8
PLAN_1
  6
CONTINUOUS
 10
-1.825283
 20
1.449354
  0
VERTEX
  8
PLAN_1
  6
CONTINUOUS
 10
-1.575059
 20
1.424047
  0
VERTEX
  8
PLAN_1
  6
CONTINUOUS
 10
-1.472717
 20
1.424047
  0
VERTEX
  8
PLAN_1
  6
CONTINUOUS
 10
-1.472717
 20
1.280661
  0
VERTEX
  8
PLAN_1
  6
CONTINUOUS
 10
-0.174909
 20
1.280661
  0
VERTEX
  8
PLAN_1
  6
CONTINUOUS
 10
-0.174909
 20
2.238835
  0
VERTEX
  8
PLAN_1
  6
CONTINUOUS
 10
-1.573933
 20
2.238272
  0
VERTEX
  8
PLAN_1
  6
CONTINUOUS
 10
-1.825283
 20
2.201720
  0
VERTEX
  8
PLAN_1
  6
CONTINUOUS
 10
-1.825283
 20
2.166858
  0
VERTEX
  8
PLAN_1
  6
CONTINUOUS
 10
-1.928748
 20
2.166858
  0
SEQEND
  8
0
  0
POLYLINE
  8
PLAN_1
  6
CONTINUOUS
 66
     1
 40
0.008433
 41
0.008433
  0
VERTEX
  8
PLAN_1
  6
CONTINUOUS
 10
-1.996787
 20
1.478594
  0
VERTEX
  8
PLAN_1
  6
CONTINUOUS
 10
-1.996228
 20
1.478594
  0
SEQEND
  8
0
  0
POLYLINE
  8
PLAN_1
  6
CONTINUOUS
 66
     1
 40
0.008433
 41
0.008433
  0
VERTEX
  8
PLAN_1
  6
CONTINUOUS
 10
-1.996228
 20
2.166858
  0
VERTEX
  8
PLAN_1
  6
CONTINUOUS
 10
-1.996787
 20
2.166858
  0
SEQEND
  8
0
  0
POLYLINE
  8
PLAN_1
  6
CONTINUOUS
 66
     1
 40
0.008433
 41
0.008433
  0
VERTEX
  8
PLAN_1
  6
CONTINUOUS
 10
-2.064827
 20
2.166858
  0
VERTEX
  8
PLAN_1
  6
CONTINUOUS
 10
-2.139614
 20
2.166858
  0
VERTEX
  8
PLAN_1
  6
CONTINUOUS
 10
-2.139614
 20
1.478594
  0
VERTEX
  8
PLAN_1
  6
CONTINUOUS
 10
-2.064827
 20
1.478594
  0
SEQEND
  8
0
  0
POLYLINE
  8
PLAN_1
  6
CONTINUOUS
 66
     1
 40
0.008433
 41
0.008433
  0
VERTEX
  8
PLAN_1
  6
CONTINUOUS
 10
-2.064827
 20
2.166858
  0
VERTEX
  8
PLAN_1
  6
CONTINUOUS
 10
-2.064827
 20
3.913949
  0
VERTEX
  8
PLAN_1
  6
CONTINUOUS
 10
-1.996787
 20
3.913949
  0
VERTEX
  8
PLAN_1
  6
CONTINUOUS
 10
-1.996787
 20
2.166858
  0
SEQEND
  8
0
  0
POLYLINE
  8
PLAN_1
  6
CONTINUOUS
 66
     1
 40
0.008433
 41
0.008433
  0
VERTEX
  8
PLAN_1
  6
CONTINUOUS
 10
-2.064827
 20
2.166858
  0
VERTEX
  8
PLAN_1
  6
CONTINUOUS
 10
-2.064827
 20
1.478594
  0
SEQEND
  8
0
  0
POLYLINE
  8
PLAN_1
  6
CONTINUOUS
 66
     1
 40
0.008433
 41
0.008433
  0
VERTEX
  8
PLAN_1
  6
CONTINUOUS
 10
-2.064827
 20
1.478594
  0
VERTEX
  8
PLAN_1
  6
CONTINUOUS
 10
-2.064827
 20
0.482181
  0
VERTEX
  8
PLAN_1
  6
CONTINUOUS
 10
-1.996787
 20
0.482181
  0
VERTEX
  8
PLAN_1
  6
CONTINUOUS
 10
-1.996787
 20
1.478594
  0
SEQEND
  8
0
  0
POLYLINE
  8
PLAN_1
  6
CONTINUOUS
 66
     1
 40
0.008433
 41
0.008433
  0
VERTEX
  8
PLAN_1
  6
CONTINUOUS
 10
-1.996787
 20
2.166858
  0
VERTEX
  8
PLAN_1
  6
CONTINUOUS
 10
-1.996787
 20
1.478594
  0
SEQEND
  8
0
  0
POLYLINE
  8
PLAN_1
  6
CONTINUOUS
 66
     1
 40
0.008433
 41
0.008433
  0
VERTEX
  8
PLAN_1
  6
CONTINUOUS
 10
-1.996228
 20
1.478594
  0
VERTEX
  8
PLAN_1
  6
CONTINUOUS
 10
-1.996228
 20
1.408303
  0
VERTEX
  8
PLAN_1
  6
CONTINUOUS
 10
-1.928748
 20
1.408303
  0
VERTEX
  8
PLAN_1
  6
CONTINUOUS
 10
-1.928748
 20
1.479154
  0
SEQEND
  8
0
  0
POLYLINE
  8
PLAN_1
  6
CONTINUOUS
 66
     1
 40
0.008433
 41
0.008433
  0
VERTEX
  8
PLAN_1
  6
CONTINUOUS
 10
-1.928748
 20
2.166858
  0
VERTEX
  8
PLAN_1
  6
CONTINUOUS
 10
-1.928748
 20
2.248394
  0
VERTEX
  8
PLAN_1
  6
CONTINUOUS
 10
-1.996228
 20
2.248394
  0
VERTEX
  8
PLAN_1
  6
CONTINUOUS
 10
-1.996228
 20
2.166858
  0
SEQEND
  8
0
  0
POLYLINE
  8
PLAN_1
  6
CONTINUOUS
 66
     1
 40
0.008433
 41
0.008433
  0
VERTEX
  8
PLAN_1
  6
CONTINUOUS
 10
-1.928748
 20
2.166858
  0
VERTEX
  8
PLAN_1
  6
CONTINUOUS
 10
-1.928748
 20
1.479154
  0
SEQEND
  8
0
  0
POLYLINE
  8
PLAN_1
  6
CONTINUOUS
 66
     1
 40
0.008433
 41
0.008433
  0
VERTEX
  8
PLAN_1
  6
CONTINUOUS
 10
-1.996228
 20
2.166858
  0
VERTEX
  8
PLAN_1
  6
CONTINUOUS
 10
-1.996228
 20
1.478594
  0
SEQEND
  8
0
  0
POLYLINE
  8
PLAN_1
  6
CONTINUOUS
 66
     1
 40
0.008433
 41
0.008433
  0
VERTEX
  8
PLAN_1
  6
CONTINUOUS
 10
-2.399402
 20
2.196661
  0
VERTEX
  8
PLAN_1
  6
CONTINUOUS
 10
-2.399402
 20
2.250642
  0
VERTEX
  8
PLAN_1
  6
CONTINUOUS
 10
-2.067638
 20
2.250642
  0
VERTEX
  8
PLAN_1
  6
CONTINUOUS
 10
-2.067638
 20
2.196661
  0
VERTEX
  8
PLAN_1
  6
CONTINUOUS
 10
-2.399402
 20
2.196661
  0
SEQEND
  8
0
  0
POLYLINE
  8
PLAN_1
  6
CONTINUOUS
 66
     1
 40
0.008433
 41
0.008433
  0
VERTEX
  8
PLAN_1
  6
CONTINUOUS
 10
-2.139614
 20
1.519642
  0
VERTEX
  8
PLAN_1
  6
CONTINUOUS
 10
-2.139614
 20
2.146051
  0
VERTEX
  8
PLAN_1
  6
CONTINUOUS
 10
-2.198094
 20
2.146051
  0
VERTEX
  8
PLAN_1
  6
CONTINUOUS
 10
-2.198094
 20
1.519642
  0
VERTEX
  8
PLAN_1
  6
CONTINUOUS
 10
-2.139614
 20
1.519642
  0
SEQEND
  8
0
  0
POLYLINE
  8
PLAN_1
  6
CONTINUOUS
 66
     1
 40
0.008433
 41
0.008433
  0
VERTEX
  8
PLAN_1
  6
CONTINUOUS
 10
-0.170972
 20
-1.725441
  0
VERTEX
  8
PLAN_1
  6
CONTINUOUS
 10
-0.170972
 20
1.280661
  0
VERTEX
  8
PLAN_1
  6
CONTINUOUS
 10
-1.782551
 20
1.280661
  0
VERTEX
  8
PLAN_1
  6
CONTINUOUS
 10
-1.782551
 20
-1.725441
  0
VERTEX
  8
PLAN_1
  6
CONTINUOUS
 10
-0.170972
 20
-1.725441
  0
SEQEND
  8
0
  0
POLYLINE
  8
PLAN_1
  6
CONTINUOUS
 66
     1
 40
0.008433
 41
0.008433
  0
VERTEX
  8
PLAN_1
  6
CONTINUOUS
 10
-1.167386
 20
1.280661
  0
VERTEX
  8
PLAN_1
  6
CONTINUOUS
 10
-1.167386
 20
1.475220
  0
VERTEX
  8
PLAN_1
  6
CONTINUOUS
 10
-1.472717
 20
1.475220
  0
VERTEX
  8
PLAN_1
  6
CONTINUOUS
 10
-1.472717
 20
1.280661
  0
VERTEX
  8
PLAN_1
  6
CONTINUOUS
 10
-1.167386
 20
1.280661
  0
SEQEND
  8
0
  0
POLYLINE
  8
PLAN_1
  6
CONTINUOUS
 66
     1
 40
0.008433
 41
0.008433
  0
VERTEX
  8
PLAN_1
  6
CONTINUOUS
 10
-0.175472
 20
1.280661
  0
VERTEX
  8
PLAN_1
  6
CONTINUOUS
 10
-0.175472
 20
1.475220
  0
VERTEX
  8
PLAN_1
  6
CONTINUOUS
 10
-0.483055
 20
1.475220
  0
VERTEX
  8
PLAN_1
  6
CONTINUOUS
 10
-0.483055
 20
1.280661
  0
VERTEX
  8
PLAN_1
  6
CONTINUOUS
 10
-0.175472
 20
1.280661
  0
SEQEND
  8
0
  0
POLYLINE
  8
PLAN_1
  6
CONTINUOUS
 66
     1
 40
0.008433
 41
0.008433
  0
VERTEX
  8
PLAN_1
  6
CONTINUOUS
 10
-0.152417
 20
0.955646
  0
VERTEX
  8
PLAN_1
  6
CONTINUOUS
 10
-0.152417
 20
1.248610
  0
VERTEX
  8
PLAN_1
  6
CONTINUOUS
 10
-0.170972
 20
1.248610
  0
VERTEX
  8
PLAN_1
  6
CONTINUOUS
 10
-0.170972
 20
0.955646
  0
VERTEX
  8
PLAN_1
  6
CONTINUOUS
 10
-0.152417
 20
0.955646
  0
SEQEND
  8
0
  0
POLYLINE
  8
PLAN_1
  6
CONTINUOUS
 66
     1
 40
0.008433
 41
0.008433
  0
VERTEX
  8
PLAN_1
  6
CONTINUOUS
 10
-0.152417
 20
-1.697323
  0
VERTEX
  8
PLAN_1
  6
CONTINUOUS
 10
-0.152417
 20
-1.404362
  0
VERTEX
  8
PLAN_1
  6
CONTINUOUS
 10
-0.170972
 20
-1.404362
  0
VERTEX
  8
PLAN_1
  6
CONTINUOUS
 10
-0.170972
 20
-1.697323
  0
VERTEX
  8
PLAN_1
  6
CONTINUOUS
 10
-0.152417
 20
-1.697323
  0
SEQEND
  8
0
  0
POLYLINE
  8
PLAN_1
  6
CONTINUOUS
 66
     1
 40
0.008433
 41
0.008433
  0
VERTEX
  8
PLAN_1
  6
CONTINUOUS
 10
-1.709449
 20
1.280661
  0
VERTEX
  8
PLAN_1
  6
CONTINUOUS
 10
-1.709449
 20
-1.725441
  0
SEQEND
  8
0
  0
POLYLINE
  8
PLAN_1
  6
CONTINUOUS
 66
     1
 40
0.008433
 41
0.008433
  0
VERTEX
  8
PLAN_1
  6
CONTINUOUS
 10
-1.628476
 20
1.280661
  0
VERTEX
  8
PLAN_1
  6
CONTINUOUS
 10
-1.628476
 20
-1.725441
  0
SEQEND
  8
0
  0
POLYLINE
  8
PLAN_1
  6
CONTINUOUS
 66
     1
 40
0.008433
 41
0.008433
  0
VERTEX
  8
PLAN_1
  6
CONTINUOUS
 10
-1.628476
 20
0.713854
  0
VERTEX
  8
PLAN_1
  6
CONTINUOUS
 10
-1.472717
 20
0.713854
  0
VERTEX
  8
PLAN_1
  6
CONTINUOUS
 10
-1.472717
 20
1.280661
  0
SEQEND
  8
0
  0
POLYLINE
  8
PLAN_1
  6
CONTINUOUS
 66
     1
 40
0.008433
 41
0.008433
  0
VERTEX
  8
PLAN_1
  6
CONTINUOUS
 10
-1.625102
 20
-1.191811
  0
VERTEX
  8
PLAN_1
  6
CONTINUOUS
 10
-1.471031
 20
-1.191811
  0
VERTEX
  8
PLAN_1
  6
CONTINUOUS
 10
-1.471031
 20
-1.726563
  0
SEQEND
  8
0
  0
POLYLINE
  8
PLAN_1
  6
CONTINUOUS
 66
     1
 40
0.008433
 41
0.008433
  0
VERTEX
  8
PLAN_1
  6
CONTINUOUS
 10
-1.782551
 20
-1.641094
  0
VERTEX
  8
PLAN_1
  6
CONTINUOUS
 10
-1.782551
 20
-1.391992
  0
VERTEX
  8
PLAN_1
  6
CONTINUOUS
 10
-1.877579
 20
-1.391992
  0
VERTEX
  8
PLAN_1
  6
CONTINUOUS
 10
-1.877579
 20
-1.641094
  0
VERTEX
  8
PLAN_1
  6
CONTINUOUS
 10
-1.782551
 20
-1.641094
  0
SEQEND
  8
0
  0
POLYLINE
  8
PLAN_1
  6
CONTINUOUS
 66
     1
 40
0.008433
 41
0.008433
  0
VERTEX
  8
PLAN_1
  6
CONTINUOUS
 10
-1.826409
 20
-1.619165
  0
VERTEX
  8
PLAN_1
  6
CONTINUOUS
 10
-1.826409
 20
-1.597232
  0
VERTEX
  8
PLAN_1
  6
CONTINUOUS
 10
-1.877579
 20
-1.597232
  0
VERTEX
  8
PLAN_1
  6
CONTINUOUS
 10
-1.877579
 20
-1.619165
  0
VERTEX
  8
PLAN_1
  6
CONTINUOUS
 10
-1.826409
 20
-1.619165
  0
SEQEND
  8
0
  0
POLYLINE
  8
PLAN_1
  6
CONTINUOUS
 66
     1
 40
0.008433
 41
0.008433
  0
VERTEX
  8
PLAN_1
  6
CONTINUOUS
 10
-1.782551
 20
1.199126
  0
VERTEX
  8
PLAN_1
  6
CONTINUOUS
 10
-1.782551
 20
0.950024
  0
VERTEX
  8
PLAN_1
  6
CONTINUOUS
 10
-1.877579
 20
0.950024
  0
VERTEX
  8
PLAN_1
  6
CONTINUOUS
 10
-1.877579
 20
1.199126
  0
VERTEX
  8
PLAN_1
  6
CONTINUOUS
 10
-1.782551
 20
1.199126
  0
SEQEND
  8
0
  0
POLYLINE
  8
PLAN_1
  6
CONTINUOUS
 66
     1
 40
0.008433
 41
0.008433
  0
VERTEX
  8
PLAN_1
  6
CONTINUOUS
 10
-1.826409
 20
1.177197
  0
VERTEX
  8
PLAN_1
  6
CONTINUOUS
 10
-1.826409
 20
1.155264
  0
VERTEX
  8
PLAN_1
  6
CONTINUOUS
 10
-1.877579
 20
1.155264
  0
VERTEX
  8
PLAN_1
  6
CONTINUOUS
 10
-1.877579
 20
1.177197
  0
VERTEX
  8
PLAN_1
  6
CONTINUOUS
 10
-1.826409
 20
1.177197
  0
SEQEND
  8
0
  0
POLYLINE
  8
PLAN_1
 62
     2
  6
CONTINUOUS
 66
     1
 40
0.003933
 41
0.003933
  0
VERTEX
  8
PLAN_1
 62
     2
  6
CONTINUOUS
 10
-0.152417
 20
-1.749055
  0
VERTEX
  8
PLAN_1
 62
     2
  6
CONTINUOUS
 10
-0.152417
 20
-2.059453
  0
SEQEND
  8
0
  0
POLYLINE
  8
PLAN_1
 62
     2
  6
CONTINUOUS
 66
     1
 40
0.003933
 41
0.003933
  0
VERTEX
  8
PLAN_1
 62
     2
  6
CONTINUOUS
 10
-1.471031
 20
-1.749055
  0
VERTEX
  8
PLAN_1
 62
     2
  6
CONTINUOUS
 10
-1.471031
 20
-1.902004
  0
SEQEND
  8
0
  0
POLYLINE
  8
PLAN_1
 62
     2
  6
CONTINUOUS
 66
     1
 40
0.003933
 41
0.003933
  0
VERTEX
  8
PLAN_1
 62
     2
  6
CONTINUOUS
 10
-1.441791
 20
-1.878386
  0
VERTEX
  8
PLAN_1
 62
     2
  6
CONTINUOUS
 10
-0.182220
 20
-1.878386
  0
SEQEND
  8
0
  0
SOLID
  8
PLAN_1
 62
     2
 10
-0.152417
 20
-1.878386
 11
-0.211461
 21
-1.862642
 12
-0.152417
 22
-1.878386
 13
-0.211461
 23
-1.894134
  0
POLYLINE
  8
PLAN_1
 62
     2
  6
CONTINUOUS
 66
     1
 40
0.003000
 41
0.003000
  0
VERTEX
  8
PLAN_1
 62
     2
  6
CONTINUOUS
 10
-0.152417
 20
-1.878386
  0
VERTEX
  8
PLAN_1
 62
     2
  6
CONTINUOUS
 10
-0.211461
 20
-1.862642
  0
VERTEX
  8
PLAN_1
 62
     2
  6
CONTINUOUS
 10
-0.211461
 20
-1.894134
  0
VERTEX
  8
PLAN_1
 62
     2
  6
CONTINUOUS
 10
-0.152417
 20
-1.878386
  0
SEQEND
  8
0
  0
SOLID
  8
PLAN_1
 62
     2
 10
-1.471031
 20
-1.878386
 11
-1.411988
 21
-1.862642
 12
-1.471031
 22
-1.878386
 13
-1.411988
 23
-1.894134
  0
POLYLINE
  8
PLAN_1
 62
     2
  6
CONTINUOUS
 66
     1
 40
0.003000
 41
0.003000
  0
VERTEX
  8
PLAN_1
 62
     2
  6
CONTINUOUS
 10
-1.471031
 20
-1.878386
  0
VERTEX
  8
PLAN_1
 62
     2
  6
CONTINUOUS
 10
-1.411988
 20
-1.862642
  0
VERTEX
  8
PLAN_1
 62
     2
  6
CONTINUOUS
 10
-1.411988
 20
-1.894134
  0
VERTEX
  8
PLAN_1
 62
     2
  6
CONTINUOUS
 10
-1.471031
 20
-1.878386
  0
SEQEND
  8
0
  0
POLYLINE
  8
PLAN_1
 62
     2
  6
CONTINUOUS
 66
     1
 40
0.003000
 41
0.003000
  0
VERTEX
  8
PLAN_1
 62
     2
  6
CONTINUOUS
 10
-0.937961
 20
-1.813161
  0
VERTEX
  8
PLAN_1
 62
     2
  6
CONTINUOUS
 10
-0.937402
 20
-1.813161
  0
VERTEX
  8
PLAN_1
 62
     2
  6
CONTINUOUS
 10
-0.936839
 20
-1.813161
  0
VERTEX
  8
PLAN_1
 62
     2
  6
CONTINUOUS
 10
-0.936276
 20
-1.813161
  0
VERTEX
  8
PLAN_1
 62
     2
  6
CONTINUOUS
 10
-0.935713
 20
-1.813161
  0
VERTEX
  8
PLAN_1
 62
     2
  6
CONTINUOUS
 10
-0.935150
 20
-1.813161
  0
VERTEX
  8
PLAN_1
 62
     2
  6
CONTINUOUS
 10
-0.934587
 20
-1.813161
  0
VERTEX
  8
PLAN_1
 62
     2
  6
CONTINUOUS
 10
-0.934028
 20
-1.813161
  0
VERTEX
  8
PLAN_1
 62
     2
  6
CONTINUOUS
 10
-0.933465
 20
-1.813161
  0
VERTEX
  8
PLAN_1
 62
     2
  6
CONTINUOUS
 10
-0.930654
 20
-1.813161
  0
VERTEX
  8
PLAN_1
 62
     2
  6
CONTINUOUS
 10
-0.927843
 20
-1.812598
  0
VERTEX
  8
PLAN_1
 62
     2
  6
CONTINUOUS
 10
-0.925591
 20
-1.812035
  0
VERTEX
  8
PLAN_1
 62
     2
  6
CONTINUOUS
 10
-0.923343
 20
-1.810909
  0
VERTEX
  8
PLAN_1
 62
     2
  6
CONTINUOUS
 10
-0.921654
 20
-1.809224
  0
VERTEX
  8
PLAN_1
 62
     2
  6
CONTINUOUS
 10
-0.920531
 20
-1.806976
  0
VERTEX
  8
PLAN_1
 62
     2
  6
CONTINUOUS
 10
-0.919406
 20
-1.804724
  0
VERTEX
  8
PLAN_1
 62
     2
  6
CONTINUOUS
 10
-0.919406
 20
-1.801350
  0
VERTEX
  8
PLAN_1
 62
     2
  6
CONTINUOUS
 10
-0.919406
 20
-1.799665
  0
VERTEX
  8
PLAN_1
 62
     2
  6
CONTINUOUS
 10
-0.919969
 20
-1.797413
  0
VERTEX
  8
PLAN_1
 62
     2
  6
CONTINUOUS
 10
-0.920531
 20
-1.795728
  0
VERTEX
  8
PLAN_1
 62
     2
  6
CONTINUOUS
 10
-0.921654
 20
-1.794043
  0
VERTEX
  8
PLAN_1
 62
     2
  6
CONTINUOUS
 10
-0.923906
 20
-1.792354
  0
VERTEX
  8
PLAN_1
 62
     2
  6
CONTINUOUS
 10
-0.926154
 20
-1.791228
  0
VERTEX
  8
PLAN_1
 62
     2
  6
CONTINUOUS
 10
-0.928965
 20
-1.790106
  0
VERTEX
  8
PLAN_1
 62
     2
  6
CONTINUOUS
 10
-0.932902
 20
-1.789543
  0
VERTEX
  8
PLAN_1
 62
     2
  6
CONTINUOUS
 10
-0.936839
 20
-1.790106
  0
VERTEX
  8
PLAN_1
 62
     2
  6
CONTINUOUS
 10
-0.940213
 20
-1.791791
  0
VERTEX
  8
PLAN_1
 62
     2
  6
CONTINUOUS
 10
-0.943024
 20
-1.793480
  0
VERTEX
  8
PLAN_1
 62
     2
  6
CONTINUOUS
 10
-0.944709
 20
-1.795728
  0
VERTEX
  8
PLAN_1
 62
     2
  6
CONTINUOUS
 10
-0.945835
 20
-1.798539
  0
VERTEX
  8
PLAN_1
 62
     2
  6
CONTINUOUS
 10
-0.946398
 20
-1.800787
  0
VERTEX
  8
PLAN_1
 62
     2
  6
CONTINUOUS
 10
-0.946961
 20
-1.803602
  0
VERTEX
  8
PLAN_1
 62
     2
  6
CONTINUOUS
 10
-0.946961
 20
-1.805287
  0
VERTEX
  8
PLAN_1
 62
     2
  6
CONTINUOUS
 10
-0.955957
 20
-1.805287
  0
VERTEX
  8
PLAN_1
 62
     2
  6
CONTINUOUS
 10
-0.955957
 20
-1.801350
  0
VERTEX
  8
PLAN_1
 62
     2
  6
CONTINUOUS
 10
-0.954831
 20
-1.797413
  0
VERTEX
  8
PLAN_1
 62
     2
  6
CONTINUOUS
 10
-0.953709
 20
-1.793480
  0
VERTEX
  8
PLAN_1
 62
     2
  6
CONTINUOUS
 10
-0.951457
 20
-1.789543
  0
VERTEX
  8
PLAN_1
 62
     2
  6
CONTINUOUS
 10
-0.949772
 20
-1.787854
  0
VERTEX
  8
PLAN_1
 62
     2
  6
CONTINUOUS
 10
-0.948083
 20
-1.786169
  0
VERTEX
  8
PLAN_1
 62
     2
  6
CONTINUOUS
 10
-0.946398
 20
-1.785043
  0
VERTEX
  8
PLAN_1
 62
     2
  6
CONTINUOUS
 10
-0.944146
 20
-1.783921
  0
VERTEX
  8
PLAN_1
 62
     2
  6
CONTINUOUS
 10
-0.941898
 20
-1.782795
  0
VERTEX
  8
PLAN_1
 62
     2
  6
CONTINUOUS
 10
-0.939087
 20
-1.782232
  0
VERTEX
  8
PLAN_1
 62
     2
  6
CONTINUOUS
 10
-0.935713
 20
-1.781669
  0
VERTEX
  8
PLAN_1
 62
     2
  6
CONTINUOUS
 10
-0.932339
 20
-1.781669
  0
VERTEX
  8
PLAN_1
 62
     2
  6
CONTINUOUS
 10
-0.927280
 20
-1.781669
  0
VERTEX
  8
PLAN_1
 62
     2
  6
CONTINUOUS
 10
-0.922780
 20
-1.782795
  0
VERTEX
  8
PLAN_1
 62
     2
  6
CONTINUOUS
 10
-0.918843
 20
-1.784480
  0
VERTEX
  8
PLAN_1
 62
     2
  6
CONTINUOUS
 10
-0.916031
 20
-1.787295
  0
VERTEX
  8
PLAN_1
 62
     2
  6
CONTINUOUS
 10
-0.913220
 20
-1.790106
  0
VERTEX
  8
PLAN_1
 62
     2
  6
CONTINUOUS
 10
-0.911535
 20
-1.792917
  0
VERTEX
  8
PLAN_1
 62
     2
  6
CONTINUOUS
 10
-0.910409
 20
-1.796854
  0
VERTEX
  8
PLAN_1
 62
     2
  6
CONTINUOUS
 10
-0.909846
 20
-1.800787
  0
VERTEX
  8
PLAN_1
 62
     2
  6
CONTINUOUS
 10
-0.909846
 20
-1.804161
  0
VERTEX
  8
PLAN_1
 62
     2
  6
CONTINUOUS
 10
-0.910972
 20
-1.806976
  0
VERTEX
  8
PLAN_1
 62
     2
  6
CONTINUOUS
 10
-0.911535
 20
-1.809224
  0
VERTEX
  8
PLAN_1
 62
     2
  6
CONTINUOUS
 10
-0.913220
 20
-1.811472
  0
VERTEX
  8
PLAN_1
 62
     2
  6
CONTINUOUS
 10
-0.914346
 20
-1.813161
  0
VERTEX
  8
PLAN_1
 62
     2
  6
CONTINUOUS
 10
-0.916031
 20
-1.814283
  0
VERTEX
  8
PLAN_1
 62
     2
  6
CONTINUOUS
 10
-0.917720
 20
-1.815409
  0
VERTEX
  8
PLAN_1
 62
     2
  6
CONTINUOUS
 10
-0.919406
 20
-1.815972
  0
VERTEX
  8
PLAN_1
 62
     2
  6
CONTINUOUS
 10
-0.916594
 20
-1.817094
  0
VERTEX
  8
PLAN_1
 62
     2
  6
CONTINUOUS
 10
-0.914346
 20
-1.818220
  0
VERTEX
  8
PLAN_1
 62
     2
  6
CONTINUOUS
 10
-0.912094
 20
-1.819909
  0
VERTEX
  8
PLAN_1
 62
     2
  6
CONTINUOUS
 10
-0.910409
 20
-1.821594
  0
VERTEX
  8
PLAN_1
 62
     2
  6
CONTINUOUS
 10
-0.908720
 20
-1.823843
  0
VERTEX
  8
PLAN_1
 62
     2
  6
CONTINUOUS
 10
-0.908161
 20
-1.826654
  0
VERTEX
  8
PLAN_1
 62
     2
  6
CONTINUOUS
 10
-0.907035
 20
-1.829469
  0
VERTEX
  8
PLAN_1
 62
     2
  6
CONTINUOUS
 10
-0.907035
 20
-1.833402
  0
VERTEX
  8
PLAN_1
 62
     2
  6
CONTINUOUS
 10
-0.907598
 20
-1.837339
  0
VERTEX
  8
PLAN_1
 62
     2
  6
CONTINUOUS
 10
-0.908720
 20
-1.841839
  0
VERTEX
  8
PLAN_1
 62
     2
  6
CONTINUOUS
 10
-0.910409
 20
-1.845776
  0
VERTEX
  8
PLAN_1
 62
     2
  6
CONTINUOUS
 10
-0.913220
 20
-1.849150
  0
VERTEX
  8
PLAN_1
 62
     2
  6
CONTINUOUS
 10
-0.916594
 20
-1.852520
  0
VERTEX
  8
PLAN_1
 62
     2
  6
CONTINUOUS
 10
-0.921094
 20
-1.854772
  0
VERTEX
  8
PLAN_1
 62
     2
  6
CONTINUOUS
 10
-0.926717
 20
-1.855894
  0
VERTEX
  8
PLAN_1
 62
     2
  6
CONTINUOUS
 10
-0.933465
 20
-1.856457
  0
VERTEX
  8
PLAN_1
 62
     2
  6
CONTINUOUS
 10
-0.935150
 20
-1.856457
  0
VERTEX
  8
PLAN_1
 62
     2
  6
CONTINUOUS
 10
-0.937402
 20
-1.856457
  0
VERTEX
  8
PLAN_1
 62
     2
  6
CONTINUOUS
 10
-0.939087
 20
-1.855894
  0
VERTEX
  8
PLAN_1
 62
     2
  6
CONTINUOUS
 10
-0.940776
 20
-1.855894
  0
VERTEX
  8
PLAN_1
 62
     2
  6
CONTINUOUS
 10
-0.942461
 20
-1.855335
  0
VERTEX
  8
PLAN_1
 62
     2
  6
CONTINUOUS
 10
-0.944146
 20
-1.854772
  0
VERTEX
  8
PLAN_1
 62
     2
  6
CONTINUOUS
 10
-0.945272
 20
-1.854209
  0
VERTEX
  8
PLAN_1
 62
     2
  6
CONTINUOUS
 10
-0.946961
 20
-1.853646
  0
VERTEX
  8
PLAN_1
 62
     2
  6
CONTINUOUS
 10
-0.949772
 20
-1.851398
  0
VERTEX
  8
PLAN_1
 62
     2
  6
CONTINUOUS
 10
-0.952020
 20
-1.849709
  0
VERTEX
  8
PLAN_1
 62
     2
  6
CONTINUOUS
 10
-0.953709
 20
-1.846898
  0
VERTEX
  8
PLAN_1
 62
     2
  6
CONTINUOUS
 10
-0.954831
 20
-1.844650
  0
VERTEX
  8
PLAN_1
 62
     2
  6
CONTINUOUS
 10
-0.955957
 20
-1.841839
  0
VERTEX
  8
PLAN_1
 62
     2
  6
CONTINUOUS
 10
-0.957079
 20
-1.838465
  0
VERTEX
  8
PLAN_1
 62
     2
  6
CONTINUOUS
 10
-0.957642
 20
-1.835654
  0
VERTEX
  8
PLAN_1
 62
     2
  6
CONTINUOUS
 10
-0.957642
 20
-1.832280
  0
VERTEX
  8
PLAN_1
 62
     2
  6
CONTINUOUS
 10
-0.948083
 20
-1.832280
  0
VERTEX
  8
PLAN_1
 62
     2
  6
CONTINUOUS
 10
-0.948083
 20
-1.835091
  0
VERTEX
  8
PLAN_1
 62
     2
  6
CONTINUOUS
 10
-0.947520
 20
-1.837902
  0
VERTEX
  8
PLAN_1
 62
     2
  6
CONTINUOUS
 10
-0.946961
 20
-1.840713
  0
VERTEX
  8
PLAN_1
 62
     2
  6
CONTINUOUS
 10
-0.945272
 20
-1.842961
  0
VERTEX
  8
PLAN_1
 62
     2
  6
CONTINUOUS
 10
-0.943587
 20
-1.845213
  0
VERTEX
  8
PLAN_1
 62
     2
  6
CONTINUOUS
 10
-0.940776
 20
-1.846898
  0
VERTEX
  8
PLAN_1
 62
     2
  6
CONTINUOUS
 10
-0.937402
 20
-1.848024
  0
VERTEX
  8
PLAN_1
 62
     2
  6
CONTINUOUS
 10
-0.932902
 20
-1.848587
  0
VERTEX
  8
PLAN_1
 62
     2
  6
CONTINUOUS
 10
-0.929528
 20
-1.848024
  0
VERTEX
  8
PLAN_1
 62
     2
  6
CONTINUOUS
 10
-0.926154
 20
-1.847461
  0
VERTEX
  8
PLAN_1
 62
     2
  6
CONTINUOUS
 10
-0.923343
 20
-1.846335
  0
VERTEX
  8
PLAN_1
 62
     2
  6
CONTINUOUS
 10
-0.921094
 20
-1.844650
  0
VERTEX
  8
PLAN_1
 62
     2
  6
CONTINUOUS
 10
-0.919406
 20
-1.842402
  0
VERTEX
  8
PLAN_1
 62
     2
  6
CONTINUOUS
 10
-0.917720
 20
-1.840150
  0
VERTEX
  8
PLAN_1
 62
     2
  6
CONTINUOUS
 10
-0.917157
 20
-1.837339
  0
VERTEX
  8
PLAN_1
 62
     2
  6
CONTINUOUS
 10
-0.916594
 20
-1.834528
  0
VERTEX
  8
PLAN_1
 62
     2
  6
CONTINUOUS
 10
-0.917157
 20
-1.830028
  0
VERTEX
  8
PLAN_1
 62
     2
  6
CONTINUOUS
 10
-0.918280
 20
-1.827217
  0
VERTEX
  8
PLAN_1
 62
     2
  6
CONTINUOUS
 10
-0.920531
 20
-1.824406
  0
VERTEX
  8
PLAN_1
 62
     2
  6
CONTINUOUS
 10
-0.922780
 20
-1.822720
  0
VERTEX
  8
PLAN_1
 62
     2
  6
CONTINUOUS
 10
-0.925591
 20
-1.822157
  0
VERTEX
  8
PLAN_1
 62
     2
  6
CONTINUOUS
 10
-0.928402
 20
-1.821031
  0
VERTEX
  8
PLAN_1
 62
     2
  6
CONTINUOUS
 10
-0.931213
 20
-1.821031
  0
VERTEX
  8
PLAN_1
 62
     2
  6
CONTINUOUS
 10
-0.934028
 20
-1.821031
  0
VERTEX
  8
PLAN_1
 62
     2
  6
CONTINUOUS
 10
-0.934587
 20
-1.821031
  0
VERTEX
  8
PLAN_1
 62
     2
  6
CONTINUOUS
 10
-0.935150
 20
-1.821031
  0
VERTEX
  8
PLAN_1
 62
     2
  6
CONTINUOUS
 10
-0.935713
 20
-1.821031
  0
VERTEX
  8
PLAN_1
 62
     2
  6
CONTINUOUS
 10
-0.936276
 20
-1.821031
  0
VERTEX
  8
PLAN_1
 62
     2
  6
CONTINUOUS
 10
-0.936839
 20
-1.821031
  0
VERTEX
  8
PLAN_1
 62
     2
  6
CONTINUOUS
 10
-0.937402
 20
-1.821031
  0
VERTEX
  8
PLAN_1
 62
     2
  6
CONTINUOUS
 10
-0.937961
 20
-1.821031
  0
VERTEX
  8
PLAN_1
 62
     2
  6
CONTINUOUS
 10
-0.937961
 20
-1.813161
  0
SEQEND
  8
0
  0
POLYLINE
  8
PLAN_1
 62
     2
  6
CONTINUOUS
 66
     1
 40
0.003000
 41
0.003000
  0
VERTEX
  8
PLAN_1
 62
     2
  6
CONTINUOUS
 10
-0.880043
 20
-1.813161
  0
VERTEX
  8
PLAN_1
 62
     2
  6
CONTINUOUS
 10
-0.879480
 20
-1.813161
  0
VERTEX
  8
PLAN_1
 62
     2
  6
CONTINUOUS
 10
-0.878921
 20
-1.813161
  0
VERTEX
  8
PLAN_1
 62
     2
  6
CONTINUOUS
 10
-0.878358
 20
-1.813161
  0
VERTEX
  8
PLAN_1
 62
     2
  6
CONTINUOUS
 10
-0.877795
 20
-1.813161
  0
VERTEX
  8
PLAN_1
 62
     2
  6
CONTINUOUS
 10
-0.877232
 20
-1.813161
  0
VERTEX
  8
PLAN_1
 62
     2
  6
CONTINUOUS
 10
-0.876669
 20
-1.813161
  0
VERTEX
  8
PLAN_1
 62
     2
  6
CONTINUOUS
 10
-0.876106
 20
-1.813161
  0
VERTEX
  8
PLAN_1
 62
     2
  6
CONTINUOUS
 10
-0.875547
 20
-1.813161
  0
VERTEX
  8
PLAN_1
 62
     2
  6
CONTINUOUS
 10
-0.872736
 20
-1.813161
  0
VERTEX
  8
PLAN_1
 62
     2
  6
CONTINUOUS
 10
-0.869921
 20
-1.812598
  0
VERTEX
  8
PLAN_1
 62
     2
  6
CONTINUOUS
 10
-0.867673
 20
-1.812035
  0
VERTEX
  8
PLAN_1
 62
     2
  6
CONTINUOUS
 10
-0.865425
 20
-1.810909
  0
VERTEX
  8
PLAN_1
 62
     2
  6
CONTINUOUS
 10
-0.863736
 20
-1.809224
  0
VERTEX
  8
PLAN_1
 62
     2
  6
CONTINUOUS
 10
-0.862614
 20
-1.806976
  0
VERTEX
  8
PLAN_1
 62
     2
  6
CONTINUOUS
 10
-0.861488
 20
-1.804724
  0
VERTEX
  8
PLAN_1
 62
     2
  6
CONTINUOUS
 10
-0.861488
 20
-1.801350
  0
VERTEX
  8
PLAN_1
 62
     2
  6
CONTINUOUS
 10
-0.861488
 20
-1.799665
  0
VERTEX
  8
PLAN_1
 62
     2
  6
CONTINUOUS
 10
-0.862051
 20
-1.797413
  0
VERTEX
  8
PLAN_1
 62
     2
  6
CONTINUOUS
 10
-0.862614
 20
-1.795728
  0
VERTEX
  8
PLAN_1
 62
     2
  6
CONTINUOUS
 10
-0.864299
 20
-1.794043
  0
VERTEX
  8
PLAN_1
 62
     2
  6
CONTINUOUS
 10
-0.865988
 20
-1.792354
  0
VERTEX
  8
PLAN_1
 62
     2
  6
CONTINUOUS
 10
-0.868236
 20
-1.791228
  0
VERTEX
  8
PLAN_1
 62
     2
  6
CONTINUOUS
 10
-0.871047
 20
-1.790106
  0
VERTEX
  8
PLAN_1
 62
     2
  6
CONTINUOUS
 10
-0.874984
 20
-1.789543
  0
VERTEX
  8
PLAN_1
 62
     2
  6
CONTINUOUS
 10
-0.879480
 20
-1.790106
  0
VERTEX
  8
PLAN_1
 62
     2
  6
CONTINUOUS
 10
-0.882295
 20
-1.791791
  0
VERTEX
  8
PLAN_1
 62
     2
  6
CONTINUOUS
 10
-0.885106
 20
-1.793480
  0
VERTEX
  8
PLAN_1
 62
     2
  6
CONTINUOUS
 10
-0.886791
 20
-1.795728
  0
VERTEX
  8
PLAN_1
 62
     2
  6
CONTINUOUS
 10
-0.887917
 20
-1.798539
  0
VERTEX
  8
PLAN_1
 62
     2
  6
CONTINUOUS
 10
-0.888480
 20
-1.800787
  0
VERTEX
  8
PLAN_1
 62
     2
  6
CONTINUOUS
 10
-0.889043
 20
-1.803602
  0
VERTEX
  8
PLAN_1
 62
     2
  6
CONTINUOUS
 10
-0.889043
 20
-1.805287
  0
VERTEX
  8
PLAN_1
 62
     2
  6
CONTINUOUS
 10
-0.898039
 20
-1.805287
  0
VERTEX
  8
PLAN_1
 62
     2
  6
CONTINUOUS
 10
-0.898039
 20
-1.801350
  0
VERTEX
  8
PLAN_1
 62
     2
  6
CONTINUOUS
 10
-0.896913
 20
-1.797413
  0
VERTEX
  8
PLAN_1
 62
     2
  6
CONTINUOUS
 10
-0.895787
 20
-1.793480
  0
VERTEX
  8
PLAN_1
 62
     2
  6
CONTINUOUS
 10
-0.893539
 20
-1.789543
  0
VERTEX
  8
PLAN_1
 62
     2
  6
CONTINUOUS
 10
-0.891854
 20
-1.787854
  0
VERTEX
  8
PLAN_1
 62
     2
  6
CONTINUOUS
 10
-0.890165
 20
-1.786169
  0
VERTEX
  8
PLAN_1
 62
     2
  6
CONTINUOUS
 10
-0.888480
 20
-1.785043
  0
VERTEX
  8
PLAN_1
 62
     2
  6
CONTINUOUS
 10
-0.886228
 20
-1.783921
  0
VERTEX
  8
PLAN_1
 62
     2
  6
CONTINUOUS
 10
-0.883980
 20
-1.782795
  0
VERTEX
  8
PLAN_1
 62
     2
  6
CONTINUOUS
 10
-0.881169
 20
-1.782232
  0
VERTEX
  8
PLAN_1
 62
     2
  6
CONTINUOUS
 10
-0.877795
 20
-1.781669
  0
VERTEX
  8
PLAN_1
 62
     2
  6
CONTINUOUS
 10
-0.874421
 20
-1.781669
  0
VERTEX
  8
PLAN_1
 62
     2
  6
CONTINUOUS
 10
-0.869362
 20
-1.781669
  0
VERTEX
  8
PLAN_1
 62
     2
  6
CONTINUOUS
 10
-0.864862
 20
-1.782795
  0
VERTEX
  8
PLAN_1
 62
     2
  6
CONTINUOUS
 10
-0.860925
 20
-1.784480
  0
VERTEX
  8
PLAN_1
 62
     2
  6
CONTINUOUS
 10
-0.858114
 20
-1.787295
  0
VERTEX
  8
PLAN_1
 62
     2
  6
CONTINUOUS
 10
-0.855303
 20
-1.790106
  0
VERTEX
  8
PLAN_1
 62
     2
  6
CONTINUOUS
 10
-0.853614
 20
-1.792917
  0
VERTEX
  8
PLAN_1
 62
     2
  6
CONTINUOUS
 10
-0.852492
 20
-1.796854
  0
VERTEX
  8
PLAN_1
 62
     2
  6
CONTINUOUS
 10
-0.851929
 20
-1.800787
  0
VERTEX
  8
PLAN_1
 62
     2
  6
CONTINUOUS
 10
-0.851929
 20
-1.804161
  0
VERTEX
  8
PLAN_1
 62
     2
  6
CONTINUOUS
 10
-0.853055
 20
-1.806976
  0
VERTEX
  8
PLAN_1
 62
     2
  6
CONTINUOUS
 10
-0.853614
 20
-1.809224
  0
VERTEX
  8
PLAN_1
 62
     2
  6
CONTINUOUS
 10
-0.855303
 20
-1.811472
  0
VERTEX
  8
PLAN_1
 62
     2
  6
CONTINUOUS
 10
-0.856429
 20
-1.813161
  0
VERTEX
  8
PLAN_1
 62
     2
  6
CONTINUOUS
 10
-0.858114
 20
-1.814283
  0
VERTEX
  8
PLAN_1
 62
     2
  6
CONTINUOUS
 10
-0.859803
 20
-1.815409
  0
VERTEX
  8
PLAN_1
 62
     2
  6
CONTINUOUS
 10
-0.861488
 20
-1.815972
  0
VERTEX
  8
PLAN_1
 62
     2
  6
CONTINUOUS
 10
-0.858677
 20
-1.817094
  0
VERTEX
  8
PLAN_1
 62
     2
  6
CONTINUOUS
 10
-0.856429
 20
-1.818220
  0
VERTEX
  8
PLAN_1
 62
     2
  6
CONTINUOUS
 10
-0.854177
 20
-1.819909
  0
VERTEX
  8
PLAN_1
 62
     2
  6
CONTINUOUS
 10
-0.852492
 20
-1.821594
  0
VERTEX
  8
PLAN_1
 62
     2
  6
CONTINUOUS
 10
-0.850803
 20
-1.823843
  0
VERTEX
  8
PLAN_1
 62
     2
  6
CONTINUOUS
 10
-0.850240
 20
-1.826654
  0
VERTEX
  8
PLAN_1
 62
     2
  6
CONTINUOUS
 10
-0.849118
 20
-1.829469
  0
VERTEX
  8
PLAN_1
 62
     2
  6
CONTINUOUS
 10
-0.849118
 20
-1.833402
  0
VERTEX
  8
PLAN_1
 62
     2
  6
CONTINUOUS
 10
-0.849681
 20
-1.837339
  0
VERTEX
  8
PLAN_1
 62
     2
  6
CONTINUOUS
 10
-0.850803
 20
-1.841839
  0
VERTEX
  8
PLAN_1
 62
     2
  6
CONTINUOUS
 10
-0.852492
 20
-1.845776
  0
VERTEX
  8
PLAN_1
 62
     2
  6
CONTINUOUS
 10
-0.855303
 20
-1.849150
  0
VERTEX
  8
PLAN_1
 62
     2
  6
CONTINUOUS
 10
-0.858677
 20
-1.852520
  0
VERTEX
  8
PLAN_1
 62
     2
  6
CONTINUOUS
 10
-0.863173
 20
-1.854772
  0
VERTEX
  8
PLAN_1
 62
     2
  6
CONTINUOUS
 10
-0.868799
 20
-1.855894
  0
VERTEX
  8
PLAN_1
 62
     2
  6
CONTINUOUS
 10
-0.875547
 20
-1.856457
  0
VERTEX
  8
PLAN_1
 62
     2
  6
CONTINUOUS
 10
-0.877232
 20
-1.856457
  0
VERTEX
  8
PLAN_1
 62
     2
  6
CONTINUOUS
 10
-0.879480
 20
-1.856457
  0
VERTEX
  8
PLAN_1
 62
     2
  6
CONTINUOUS
 10
-0.881169
 20
-1.855894
  0
VERTEX
  8
PLAN_1
 62
     2
  6
CONTINUOUS
 10
-0.882854
 20
-1.855894
  0
VERTEX
  8
PLAN_1
 62
     2
  6
CONTINUOUS
 10
-0.884543
 20
-1.855335
  0
VERTEX
  8
PLAN_1
 62
     2
  6
CONTINUOUS
 10
-0.886228
 20
-1.854772
  0
VERTEX
  8
PLAN_1
 62
     2
  6
CONTINUOUS
 10
-0.887354
 20
-1.854209
  0
VERTEX
  8
PLAN_1
 62
     2
  6
CONTINUOUS
 10
-0.889043
 20
-1.853646
  0
VERTEX
  8
PLAN_1
 62
     2
  6
CONTINUOUS
 10
-0.891854
 20
-1.851398
  0
VERTEX
  8
PLAN_1
 62
     2
  6
CONTINUOUS
 10
-0.894102
 20
-1.849709
  0
VERTEX
  8
PLAN_1
 62
     2
  6
CONTINUOUS
 10
-0.895787
 20
-1.846898
  0
VERTEX
  8
PLAN_1
 62
     2
  6
CONTINUOUS
 10
-0.897476
 20
-1.844650
  0
VERTEX
  8
PLAN_1
 62
     2
  6
CONTINUOUS
 10
-0.898039
 20
-1.841839
  0
VERTEX
  8
PLAN_1
 62
     2
  6
CONTINUOUS
 10
-0.899161
 20
-1.838465
  0
VERTEX
  8
PLAN_1
 62
     2
  6
CONTINUOUS
 10
-0.899724
 20
-1.835654
  0
VERTEX
  8
PLAN_1
 62
     2
  6
CONTINUOUS
 10
-0.899724
 20
-1.832280
  0
VERTEX
  8
PLAN_1
 62
     2
  6
CONTINUOUS
 10
-0.890165
 20
-1.832280
  0
VERTEX
  8
PLAN_1
 62
     2
  6
CONTINUOUS
 10
-0.890165
 20
-1.835091
  0
VERTEX
  8
PLAN_1
 62
     2
  6
CONTINUOUS
 10
-0.889602
 20
-1.837902
  0
VERTEX
  8
PLAN_1
 62
     2
  6
CONTINUOUS
 10
-0.889043
 20
-1.840713
  0
VERTEX
  8
PLAN_1
 62
     2
  6
CONTINUOUS
 10
-0.887354
 20
-1.842961
  0
VERTEX
  8
PLAN_1
 62
     2
  6
CONTINUOUS
 10
-0.885669
 20
-1.845213
  0
VERTEX
  8
PLAN_1
 62
     2
  6
CONTINUOUS
 10
-0.882854
 20
-1.846898
  0
VERTEX
  8
PLAN_1
 62
     2
  6
CONTINUOUS
 10
-0.879480
 20
-1.848024
  0
VERTEX
  8
PLAN_1
 62
     2
  6
CONTINUOUS
 10
-0.874984
 20
-1.848587
  0
VERTEX
  8
PLAN_1
 62
     2
  6
CONTINUOUS
 10
-0.871610
 20
-1.848024
  0
VERTEX
  8
PLAN_1
 62
     2
  6
CONTINUOUS
 10
-0.868236
 20
-1.847461
  0
VERTEX
  8
PLAN_1
 62
     2
  6
CONTINUOUS
 10
-0.865425
 20
-1.846335
  0
VERTEX
  8
PLAN_1
 62
     2
  6
CONTINUOUS
 10
-0.863173
 20
-1.844650
  0
VERTEX
  8
PLAN_1
 62
     2
  6
CONTINUOUS
 10
-0.861488
 20
-1.842402
  0
VERTEX
  8
PLAN_1
 62
     2
  6
CONTINUOUS
 10
-0.859803
 20
-1.840150
  0
VERTEX
  8
PLAN_1
 62
     2
  6
CONTINUOUS
 10
-0.859240
 20
-1.837339
  0
VERTEX
  8
PLAN_1
 62
     2
  6
CONTINUOUS
 10
-0.858677
 20
-1.834528
  0
VERTEX
  8
PLAN_1
 62
     2
  6
CONTINUOUS
 10
-0.859240
 20
-1.830028
  0
VERTEX
  8
PLAN_1
 62
     2
  6
CONTINUOUS
 10
-0.860925
 20
-1.827217
  0
VERTEX
  8
PLAN_1
 62
     2
  6
CONTINUOUS
 10
-0.862614
 20
-1.824406
  0
VERTEX
  8
PLAN_1
 62
     2
  6
CONTINUOUS
 10
-0.864862
 20
-1.822720
  0
VERTEX
  8
PLAN_1
 62
     2
  6
CONTINUOUS
 10
-0.867673
 20
-1.822157
  0
VERTEX
  8
PLAN_1
 62
     2
  6
CONTINUOUS
 10
-0.870484
 20
-1.821031
  0
VERTEX
  8
PLAN_1
 62
     2
  6
CONTINUOUS
 10
-0.873295
 20
-1.821031
  0
VERTEX
  8
PLAN_1
 62
     2
  6
CONTINUOUS
 10
-0.876106
 20
-1.821031
  0
VERTEX
  8
PLAN_1
 62
     2
  6
CONTINUOUS
 10
-0.876669
 20
-1.821031
  0
VERTEX
  8
PLAN_1
 62
     2
  6
CONTINUOUS
 10
-0.877232
 20
-1.821031
  0
VERTEX
  8
PLAN_1
 62
     2
  6
CONTINUOUS
 10
-0.877795
 20
-1.821031
  0
VERTEX
  8
PLAN_1
 62
     2
  6
CONTINUOUS
 10
-0.878358
 20
-1.821031
  0
VERTEX
  8
PLAN_1
 62
     2
  6
CONTINUOUS
 10
-0.878921
 20
-1.821031
  0
VERTEX
  8
PLAN_1
 62
     2
  6
CONTINUOUS
 10
-0.879480
 20
-1.821031
  0
VERTEX
  8
PLAN_1
 62
     2
  6
CONTINUOUS
 10
-0.880043
 20
-1.821031
  0
VERTEX
  8
PLAN_1
 62
     2
  6
CONTINUOUS
 10
-0.880043
 20
-1.813161
  0
SEQEND
  8
0
  0
POLYLINE
  8
PLAN_1
 62
     2
  6
CONTINUOUS
 66
     1
 40
0.003000
 41
0.003000
  0
VERTEX
  8
PLAN_1
 62
     2
  6
CONTINUOUS
 10
-0.836185
 20
-1.843524
  0
VERTEX
  8
PLAN_1
 62
     2
  6
CONTINUOUS
 10
-0.825500
 20
-1.843524
  0
VERTEX
  8
PLAN_1
 62
     2
  6
CONTINUOUS
 10
-0.825500
 20
-1.853646
  0
VERTEX
  8
PLAN_1
 62
     2
  6
CONTINUOUS
 10
-0.826063
 20
-1.858709
  0
VERTEX
  8
PLAN_1
 62
     2
  6
CONTINUOUS
 10
-0.827189
 20
-1.862083
  0
VERTEX
  8
PLAN_1
 62
     2
  6
CONTINUOUS
 10
-0.828311
 20
-1.864894
  0
VERTEX
  8
PLAN_1
 62
     2
  6
CONTINUOUS
 10
-0.830000
 20
-1.867142
  0
VERTEX
  8
PLAN_1
 62
     2
  6
CONTINUOUS
 10
-0.832248
 20
-1.868268
  0
VERTEX
  8
PLAN_1
 62
     2
  6
CONTINUOUS
 10
-0.833937
 20
-1.869390
  0
VERTEX
  8
PLAN_1
 62
     2
  6
CONTINUOUS
 10
-0.835622
 20
-1.869953
  0
VERTEX
  8
PLAN_1
 62
     2
  6
CONTINUOUS
 10
-0.836185
 20
-1.869953
  0
VERTEX
  8
PLAN_1
 62
     2
  6
CONTINUOUS
 10
-0.836185
 20
-1.865453
  0
VERTEX
  8
PLAN_1
 62
     2
  6
CONTINUOUS
 10
-0.835059
 20
-1.864894
  0
VERTEX
  8
PLAN_1
 62
     2
  6
CONTINUOUS
 10
-0.833937
 20
-1.864331
  0
VERTEX
  8
PLAN_1
 62
     2
  6
CONTINUOUS
 10
-0.832811
 20
-1.863205
  0
VERTEX
  8
PLAN_1
 62
     2
  6
CONTINUOUS
 10
-0.832248
 20
-1.861520
  0
VERTEX
  8
PLAN_1
 62
     2
  6
CONTINUOUS
 10
-0.831685
 20
-1.859831
  0
VERTEX
  8
PLAN_1
 62
     2
  6
CONTINUOUS
 10
-0.831122
 20
-1.858146
  0
VERTEX
  8
PLAN_1
 62
     2
  6
CONTINUOUS
 10
-0.831122
 20
-1.856457
  0
VERTEX
  8
PLAN_1
 62
     2
  6
CONTINUOUS
 10
-0.831122
 20
-1.854772
  0
VERTEX
  8
PLAN_1
 62
     2
  6
CONTINUOUS
 10
-0.836185
 20
-1.854772
  0
VERTEX
  8
PLAN_1
 62
     2
  6
CONTINUOUS
 10
-0.836185
 20
-1.843524
  0
SEQEND
  8
0
  0
POLYLINE
  8
PLAN_1
 62
     2
  6
CONTINUOUS
 66
     1
 40
0.003000
 41
0.003000
  0
VERTEX
  8
PLAN_1
 62
     2
  6
CONTINUOUS
 10
-0.801323
 20
-1.812035
  0
VERTEX
  8
PLAN_1
 62
     2
  6
CONTINUOUS
 10
-0.800197
 20
-1.811472
  0
VERTEX
  8
PLAN_1
 62
     2
  6
CONTINUOUS
 10
-0.798508
 20
-1.810346
  0
VERTEX
  8
PLAN_1
 62
     2
  6
CONTINUOUS
 10
-0.797386
 20
-1.809787
  0
VERTEX
  8
PLAN_1
 62
     2
  6
CONTINUOUS
 10
-0.795697
 20
-1.809224
  0
VERTEX
  8
PLAN_1
 62
     2
  6
CONTINUOUS
 10
-0.793449
 20
-1.808661
  0
VERTEX
  8
PLAN_1
 62
     2
  6
CONTINUOUS
 10
-0.791764
 20
-1.808098
  0
VERTEX
  8
PLAN_1
 62
     2
  6
CONTINUOUS
 10
-0.789512
 20
-1.807535
  0
VERTEX
  8
PLAN_1
 62
     2
  6
CONTINUOUS
 10
-0.787264
 20
-1.807535
  0
VERTEX
  8
PLAN_1
 62
     2
  6
CONTINUOUS
 10
-0.782764
 20
-1.808098
  0
VERTEX
  8
PLAN_1
 62
     2
  6
CONTINUOUS
 10
-0.778268
 20
-1.809224
  0
VERTEX
  8
PLAN_1
 62
     2
  6
CONTINUOUS
 10
-0.774331
 20
-1.810909
  0
VERTEX
  8
PLAN_1
 62
     2
  6
CONTINUOUS
 10
-0.770394
 20
-1.813720
  0
VERTEX
  8
PLAN_1
 62
     2
  6
CONTINUOUS
 10
-0.767583
 20
-1.817094
  0
VERTEX
  8
PLAN_1
 62
     2
  6
CONTINUOUS
 10
-0.765335
 20
-1.821031
  0
VERTEX
  8
PLAN_1
 62
     2
  6
CONTINUOUS
 10
-0.763646
 20
-1.825531
  0
VERTEX
  8
PLAN_1
 62
     2
  6
CONTINUOUS
 10
-0.763083
 20
-1.831154
  0
VERTEX
  8
PLAN_1
 62
     2
  6
CONTINUOUS
 10
-0.763083
 20
-1.834528
  0
VERTEX
  8
PLAN_1
 62
     2
  6
CONTINUOUS
 10
-0.764209
 20
-1.838465
  0
VERTEX
  8
PLAN_1
 62
     2
  6
CONTINUOUS
 10
-0.765335
 20
-1.842402
  0
VERTEX
  8
PLAN_1
 62
     2
  6
CONTINUOUS
 10
-0.767583
 20
-1.846898
  0
VERTEX
  8
PLAN_1
 62
     2
  6
CONTINUOUS
 10
-0.769268
 20
-1.848587
  0
VERTEX
  8
PLAN_1
 62
     2
  6
CONTINUOUS
 10
-0.770957
 20
-1.850835
  0
VERTEX
  8
PLAN_1
 62
     2
  6
CONTINUOUS
 10
-0.773205
 20
-1.852520
  0
VERTEX
  8
PLAN_1
 62
     2
  6
CONTINUOUS
 10
-0.776016
 20
-1.853646
  0
VERTEX
  8
PLAN_1
 62
     2
  6
CONTINUOUS
 10
-0.778831
 20
-1.854772
  0
VERTEX
  8
PLAN_1
 62
     2
  6
CONTINUOUS
 10
-0.781642
 20
-1.855894
  0
VERTEX
  8
PLAN_1
 62
     2
  6
CONTINUOUS
 10
-0.785575
 20
-1.856457
  0
VERTEX
  8
PLAN_1
 62
     2
  6
CONTINUOUS
 10
-0.789512
 20
-1.856457
  0
VERTEX
  8
PLAN_1
 62
     2
  6
CONTINUOUS
 10
-0.793449
 20
-1.856457
  0
VERTEX
  8
PLAN_1
 62
     2
  6
CONTINUOUS
 10
-0.796823
 20
-1.855894
  0
VERTEX
  8
PLAN_1
 62
     2
  6
CONTINUOUS
 10
-0.800760
 20
-1.854772
  0
VERTEX
  8
PLAN_1
 62
     2
  6
CONTINUOUS
 10
-0.804134
 20
-1.852520
  0
VERTEX
  8
PLAN_1
 62
     2
  6
CONTINUOUS
 10
-0.807508
 20
-1.850272
  0
VERTEX
  8
PLAN_1
 62
     2
  6
CONTINUOUS
 10
-0.810319
 20
-1.846335
  0
VERTEX
  8
PLAN_1
 62
     2
  6
CONTINUOUS
 10
-0.812004
 20
-1.841839
  0
VERTEX
  8
PLAN_1
 62
     2
  6
CONTINUOUS
 10
-0.813130
 20
-1.836217
  0
VERTEX
  8
PLAN_1
 62
     2
  6
CONTINUOUS
 10
-0.803571
 20
-1.836217
  0
VERTEX
  8
PLAN_1
 62
     2
  6
CONTINUOUS
 10
-0.803008
 20
-1.839587
  0
VERTEX
  8
PLAN_1
 62
     2
  6
CONTINUOUS
 10
-0.801882
 20
-1.841839
  0
VERTEX
  8
PLAN_1
 62
     2
  6
CONTINUOUS
 10
-0.800760
 20
-1.844087
  0
VERTEX
  8
PLAN_1
 62
     2
  6
CONTINUOUS
 10
-0.798508
 20
-1.845776
  0
VERTEX
  8
PLAN_1
 62
     2
  6
CONTINUOUS
 10
-0.796823
 20
-1.846898
  0
VERTEX
  8
PLAN_1
 62
     2
  6
CONTINUOUS
 10
-0.794012
 20
-1.848024
  0
VERTEX
  8
PLAN_1
 62
     2
  6
CONTINUOUS
 10
-0.791201
 20
-1.848587
  0
VERTEX
  8
PLAN_1
 62
     2
  6
CONTINUOUS
 10
-0.788390
 20
-1.848587
  0
VERTEX
  8
PLAN_1
 62
     2
  6
CONTINUOUS
 10
-0.785016
 20
-1.848587
  0
VERTEX
  8
PLAN_1
 62
     2
  6
CONTINUOUS
 10
-0.781642
 20
-1.847461
  0
VERTEX
  8
PLAN_1
 62
     2
  6
CONTINUOUS
 10
-0.779390
 20
-1.845776
  0
VERTEX
  8
PLAN_1
 62
     2
  6
CONTINUOUS
 10
-0.777142
 20
-1.844087
  0
VERTEX
  8
PLAN_1
 62
     2
  6
CONTINUOUS
 10
-0.775457
 20
-1.841276
  0
VERTEX
  8
PLAN_1
 62
     2
  6
CONTINUOUS
 10
-0.773768
 20
-1.838465
  0
VERTEX
  8
PLAN_1
 62
     2
  6
CONTINUOUS
 10
-0.773205
 20
-1.835654
  0
VERTEX
  8
PLAN_1
 62
     2
  6
CONTINUOUS
 10
-0.772642
 20
-1.832280
  0
VERTEX
  8
PLAN_1
 62
     2
  6
CONTINUOUS
 10
-0.773205
 20
-1.828343
  0
VERTEX
  8
PLAN_1
 62
     2
  6
CONTINUOUS
 10
-0.774331
 20
-1.824969
  0
VERTEX
  8
PLAN_1
 62
     2
  6
CONTINUOUS
 10
-0.775457
 20
-1.822157
  0
VERTEX
  8
PLAN_1
 62
     2
  6
CONTINUOUS
 10
-0.777705
 20
-1.819909
  0
VERTEX
  8
PLAN_1
 62
     2
  6
CONTINUOUS
 10
-0.779953
 20
-1.818220
  0
VERTEX
  8
PLAN_1
 62
     2
  6
CONTINUOUS
 10
-0.782764
 20
-1.817094
  0
VERTEX
  8
PLAN_1
 62
     2
  6
CONTINUOUS
 10
-0.785575
 20
-1.815972
  0
VERTEX
  8
PLAN_1
 62
     2
  6
CONTINUOUS
 10
-0.788949
 20
-1.815972
  0
VERTEX
  8
PLAN_1
 62
     2
  6
CONTINUOUS
 10
-0.791201
 20
-1.815972
  0
VERTEX
  8
PLAN_1
 62
     2
  6
CONTINUOUS
 10
-0.792886
 20
-1.816535
  0
VERTEX
  8
PLAN_1
 62
     2
  6
CONTINUOUS
 10
-0.794575
 20
-1.817094
  0
VERTEX
  8
PLAN_1
 62
     2
  6
CONTINUOUS
 10
-0.796823
 20
-1.817657
  0
VERTEX
  8
PLAN_1
 62
     2
  6
CONTINUOUS
 10
-0.798508
 20
-1.818783
  0
VERTEX
  8
PLAN_1
 62
     2
  6
CONTINUOUS
 10
-0.799634
 20
-1.819909
  0
VERTEX
  8
PLAN_1
 62
     2
  6
CONTINUOUS
 10
-0.801323
 20
-1.821031
  0
VERTEX
  8
PLAN_1
 62
     2
  6
CONTINUOUS
 10
-0.802445
 20
-1.822720
  0
VERTEX
  8
PLAN_1
 62
     2
  6
CONTINUOUS
 10
-0.810319
 20
-1.822157
  0
VERTEX
  8
PLAN_1
 62
     2
  6
CONTINUOUS
 10
-0.805256
 20
-1.783358
  0
VERTEX
  8
PLAN_1
 62
     2
  6
CONTINUOUS
 10
-0.767020
 20
-1.783358
  0
VERTEX
  8
PLAN_1
 62
     2
  6
CONTINUOUS
 10
-0.767020
 20
-1.792354
  0
VERTEX
  8
PLAN_1
 62
     2
  6
CONTINUOUS
 10
-0.797949
 20
-1.792354
  0
VERTEX
  8
PLAN_1
 62
     2
  6
CONTINUOUS
 10
-0.801323
 20
-1.812035
  0
SEQEND
  8
0
  0
POLYLINE
  8
PLAN_1
 62
     2
  6
CONTINUOUS
 66
     1
 40
0.003933
 41
0.003933
  0
VERTEX
  8
PLAN_1
 62
     2
  6
CONTINUOUS
 10
-2.358913
 20
1.709138
  0
VERTEX
  8
PLAN_1
 62
     2
  6
CONTINUOUS
 10
-2.358913
 20
-2.067886
  0
SEQEND
  8
0
  0
POLYLINE
  8
PLAN_1
 62
     2
  6
CONTINUOUS
 66
     1
 40
0.003933
 41
0.003933
  0
VERTEX
  8
PLAN_1
 62
     2
  6
CONTINUOUS
 10
-2.329677
 20
-2.035835
  0
VERTEX
  8
PLAN_1
 62
     2
  6
CONTINUOUS
 10
-0.182220
 20
-2.035835
  0
SEQEND
  8
0
  0
SOLID
  8
PLAN_1
 62
     2
 10
-0.152417
 20
-2.035835
 11
-0.211461
 21
-2.020091
 12
-0.152417
 22
-2.035835
 13
-0.211461
 23
-2.051579
  0
POLYLINE
  8
PLAN_1
 62
     2
  6
CONTINUOUS
 66
     1
 40
0.003000
 41
0.003000
  0
VERTEX
  8
PLAN_1
 62
     2
  6
CONTINUOUS
 10
-0.152417
 20
-2.035835
  0
VERTEX
  8
PLAN_1
 62
     2
  6
CONTINUOUS
 10
-0.211461
 20
-2.020091
  0
VERTEX
  8
PLAN_1
 62
     2
  6
CONTINUOUS
 10
-0.211461
 20
-2.051579
  0
VERTEX
  8
PLAN_1
 62
     2
  6
CONTINUOUS
 10
-0.152417
 20
-2.035835
  0
SEQEND
  8
0
  0
SOLID
  8
PLAN_1
 62
     2
 10
-2.358913
 20
-2.035835
 11
-2.299874
 21
-2.020091
 12
-2.358913
 22
-2.035835
 13
-2.299874
 23
-2.051579
  0
POLYLINE
  8
PLAN_1
 62
     2
  6
CONTINUOUS
 66
     1
 40
0.003000
 41
0.003000
  0
VERTEX
  8
PLAN_1
 62
     2
  6
CONTINUOUS
 10
-2.358913
 20
-2.035835
  0
VERTEX
  8
PLAN_1
 62
     2
  6
CONTINUOUS
 10
-2.299874
 20
-2.020091
  0
VERTEX
  8
PLAN_1
 62
     2
  6
CONTINUOUS
 10
-2.299874
 20
-2.051579
  0
VERTEX
  8
PLAN_1
 62
     2
  6
CONTINUOUS
 10
-2.358913
 20
-2.035835
  0
SEQEND
  8
0
  0
POLYLINE
  8
PLAN_1
 62
     2
  6
CONTINUOUS
 66
     1
 40
0.003000
 41
0.003000
  0
VERTEX
  8
PLAN_1
 62
     2
  6
CONTINUOUS
 10
-1.266350
 20
-1.958236
  0
VERTEX
  8
PLAN_1
 62
     2
  6
CONTINUOUS
 10
-1.266913
 20
-1.955988
  0
VERTEX
  8
PLAN_1
 62
     2
  6
CONTINUOUS
 10
-1.268035
 20
-1.953736
  0
VERTEX
  8
PLAN_1
 62
     2
  6
CONTINUOUS
 10
-1.269161
 20
-1.952051
  0
VERTEX
  8
PLAN_1
 62
     2
  6
CONTINUOUS
 10
-1.270287
 20
-1.950362
  0
VERTEX
  8
PLAN_1
 62
     2
  6
CONTINUOUS
 10
-1.271972
 20
-1.949240
  0
VERTEX
  8
PLAN_1
 62
     2
  6
CONTINUOUS
 10
-1.274224
 20
-1.948114
  0
VERTEX
  8
PLAN_1
 62
     2
  6
CONTINUOUS
 10
-1.276472
 20
-1.947551
  0
VERTEX
  8
PLAN_1
 62
     2
  6
CONTINUOUS
 10
-1.279283
 20
-1.946988
  0
VERTEX
  8
PLAN_1
 62
     2
  6
CONTINUOUS
 10
-1.281531
 20
-1.947551
  0
VERTEX
  8
PLAN_1
 62
     2
  6
CONTINUOUS
 10
-1.284343
 20
-1.948114
  0
VERTEX
  8
PLAN_1
 62
     2
  6
CONTINUOUS
 10
-1.286031
 20
-1.949240
  0
VERTEX
  8
PLAN_1
 62
     2
  6
CONTINUOUS
 10
-1.287717
 20
-1.950362
  0
VERTEX
  8
PLAN_1
 62
     2
  6
CONTINUOUS
 10
-1.291091
 20
-1.953736
  0
VERTEX
  8
PLAN_1
 62
     2
  6
CONTINUOUS
 10
-1.293343
 20
-1.957673
  0
VERTEX
  8
PLAN_1
 62
     2
  6
CONTINUOUS
 10
-1.295028
 20
-1.962173
  0
VERTEX
  8
PLAN_1
 62
     2
  6
CONTINUOUS
 10
-1.296154
 20
-1.966669
  0
VERTEX
  8
PLAN_1
 62
     2
  6
CONTINUOUS
 10
-1.296154
 20
-1.971169
  0
VERTEX
  8
PLAN_1
 62
     2
  6
CONTINUOUS
 10
-1.296717
 20
-1.974543
  0
VERTEX
  8
PLAN_1
 62
     2
  6
CONTINUOUS
 10
-1.296154
 20
-1.974543
  0
VERTEX
  8
PLAN_1
 62
     2
  6
CONTINUOUS
 10
-1.295591
 20
-1.972854
  0
VERTEX
  8
PLAN_1
 62
     2
  6
CONTINUOUS
 10
-1.293902
 20
-1.971169
  0
VERTEX
  8
PLAN_1
 62
     2
  6
CONTINUOUS
 10
-1.292780
 20
-1.970043
  0
VERTEX
  8
PLAN_1
 62
     2
  6
CONTINUOUS
 10
-1.290528
 20
-1.968358
  0
VERTEX
  8
PLAN_1
 62
     2
  6
CONTINUOUS
 10
-1.288280
 20
-1.967232
  0
VERTEX
  8
PLAN_1
 62
     2
  6
CONTINUOUS
 10
-1.285469
 20
-1.966106
  0
VERTEX
  8
PLAN_1
 62
     2
  6
CONTINUOUS
 10
-1.282657
 20
-1.965547
  0
VERTEX
  8
PLAN_1
 62
     2
  6
CONTINUOUS
 10
-1.278720
 20
-1.965547
  0
VERTEX
  8
PLAN_1
 62
     2
  6
CONTINUOUS
 10
-1.275346
 20
-1.965547
  0
VERTEX
  8
PLAN_1
 62
     2
  6
CONTINUOUS
 10
-1.271409
 20
-1.966669
  0
VERTEX
  8
PLAN_1
 62
     2
  6
CONTINUOUS
 10
-1.268035
 20
-1.968358
  0
VERTEX
  8
PLAN_1
 62
     2
  6
CONTINUOUS
 10
-1.264102
 20
-1.970606
  0
VERTEX
  8
PLAN_1
 62
     2
  6
CONTINUOUS
 10
-1.260728
 20
-1.973980
  0
VERTEX
  8
PLAN_1
 62
     2
  6
CONTINUOUS
 10
-1.258476
 20
-1.977917
  0
VERTEX
  8
PLAN_1
 62
     2
  6
CONTINUOUS
 10
-1.257354
 20
-1.980165
  0
VERTEX
  8
PLAN_1
 62
     2
  6
CONTINUOUS
 10
-1.256791
 20
-1.982976
  0
VERTEX
  8
PLAN_1
 62
     2
  6
CONTINUOUS
 10
-1.256228
 20
-1.985787
  0
VERTEX
  8
PLAN_1
 62
     2
  6
CONTINUOUS
 10
-1.256228
 20
-1.988598
  0
VERTEX
  8
PLAN_1
 62
     2
  6
CONTINUOUS
 10
-1.256228
 20
-1.991413
  0
VERTEX
  8
PLAN_1
 62
     2
  6
CONTINUOUS
 10
-1.256228
 20
-1.994224
  0
VERTEX
  8
PLAN_1
 62
     2
  6
CONTINUOUS
 10
-1.256791
 20
-1.996472
  0
VERTEX
  8
PLAN_1
 62
     2
  6
CONTINUOUS
 10
-1.257917
 20
-1.998720
  0
VERTEX
  8
PLAN_1
 62
     2
  6
CONTINUOUS
 10
-1.258476
 20
-2.000972
  0
VERTEX
  8
PLAN_1
 62
     2
  6
CONTINUOUS
 10
-1.260165
 20
-2.003220
  0
VERTEX
  8
PLAN_1
 62
     2
  6
CONTINUOUS
 10
-1.261291
 20
-2.004906
  0
VERTEX
  8
PLAN_1
 62
     2
  6
CONTINUOUS
 10
-1.262976
 20
-2.007157
  0
VERTEX
  8
PLAN_1
 62
     2
  6
CONTINUOUS
 10
-1.264661
 20
-2.008843
  0
VERTEX
  8
PLAN_1
 62
     2
  6
CONTINUOUS
 10
-1.266350
 20
-2.009969
  0
VERTEX
  8
PLAN_1
 62
     2
  6
CONTINUOUS
 10
-1.268035
 20
-2.011091
  0
VERTEX
  8
PLAN_1
 62
     2
  6
CONTINUOUS
 10
-1.269724
 20
-2.012217
  0
VERTEX
  8
PLAN_1
 62
     2
  6
CONTINUOUS
 10
-1.271972
 20
-2.012780
  0
VERTEX
  8
PLAN_1
 62
     2
  6
CONTINUOUS
 10
-1.274783
 20
-2.013343
  0
VERTEX
  8
PLAN_1
 62
     2
  6
CONTINUOUS
 10
-1.278157
 20
-2.013906
  0
VERTEX
  8
PLAN_1
 62
     2
  6
CONTINUOUS
 10
-1.281531
 20
-2.013906
  0
VERTEX
  8
PLAN_1
 62
     2
  6
CONTINUOUS
 10
-1.283783
 20
-2.013906
  0
VERTEX
  8
PLAN_1
 62
     2
  6
CONTINUOUS
 10
-1.286031
 20
-2.013343
  0
VERTEX
  8
PLAN_1
 62
     2
  6
CONTINUOUS
 10
-1.288843
 20
-2.012780
  0
VERTEX
  8
PLAN_1
 62
     2
  6
CONTINUOUS
 10
-1.291091
 20
-2.011654
  0
VERTEX
  8
PLAN_1
 62
     2
  6
CONTINUOUS
 10
-1.293902
 20
-2.010531
  0
VERTEX
  8
PLAN_1
 62
     2
  6
CONTINUOUS
 10
-1.296154
 20
-2.008843
  0
VERTEX
  8
PLAN_1
 62
     2
  6
CONTINUOUS
 10
-1.298402
 20
-2.006031
  0
VERTEX
  8
PLAN_1
 62
     2
  6
CONTINUOUS
 10
-1.300650
 20
-2.003220
  0
VERTEX
  8
PLAN_1
 62
     2
  6
CONTINUOUS
 10
-1.301776
 20
-2.000972
  0
VERTEX
  8
PLAN_1
 62
     2
  6
CONTINUOUS
 10
-1.302902
 20
-1.998157
  0
VERTEX
  8
PLAN_1
 62
     2
  6
CONTINUOUS
 10
-1.304024
 20
-1.994787
  0
VERTEX
  8
PLAN_1
 62
     2
  6
CONTINUOUS
 10
-1.305150
 20
-1.991972
  0
VERTEX
  8
PLAN_1
 62
     2
  6
CONTINUOUS
 10
-1.305150
 20
-1.988598
  0
VERTEX
  8
PLAN_1
 62
     2
  6
CONTINUOUS
 10
-1.305713
 20
-1.985224
  0
VERTEX
  8
PLAN_1
 62
     2
  6
CONTINUOUS
 10
-1.306276
 20
-1.981854
  0
VERTEX
  8
PLAN_1
 62
     2
  6
CONTINUOUS
 10
-1.306276
 20
-1.977917
  0
VERTEX
  8
PLAN_1
 62
     2
  6
CONTINUOUS
 10
-1.305713
 20
-1.971732
  0
VERTEX
  8
PLAN_1
 62
     2
  6
CONTINUOUS
 10
-1.305150
 20
-1.964984
  0
VERTEX
  8
PLAN_1
 62
     2
  6
CONTINUOUS
 10
-1.303461
 20
-1.958799
  0
VERTEX
  8
PLAN_1
 62
     2
  6
CONTINUOUS
 10
-1.300650
 20
-1.952614
  0
VERTEX
  8
PLAN_1
 62
     2
  6
CONTINUOUS
 10
-1.298965
 20
-1.949799
  0
VERTEX
  8
PLAN_1
 62
     2
  6
CONTINUOUS
 10
-1.297276
 20
-1.946988
  0
VERTEX
  8
PLAN_1
 62
     2
  6
CONTINUOUS
 10
-1.295028
 20
-1.944740
  0
VERTEX
  8
PLAN_1
 62
     2
  6
CONTINUOUS
 10
-1.292217
 20
-1.943055
  0
VERTEX
  8
PLAN_1
 62
     2
  6
CONTINUOUS
 10
-1.289406
 20
-1.941366
  0
VERTEX
  8
PLAN_1
 62
     2
  6
CONTINUOUS
 10
-1.286594
 20
-1.940240
  0
VERTEX
  8
PLAN_1
 62
     2
  6
CONTINUOUS
 10
-1.282657
 20
-1.939118
  0
VERTEX
  8
PLAN_1
 62
     2
  6
CONTINUOUS
 10
-1.278720
 20
-1.939118
  0
VERTEX
  8
PLAN_1
 62
     2
  6
CONTINUOUS
 10
-1.275909
 20
-1.939118
  0
VERTEX
  8
PLAN_1
 62
     2
  6
CONTINUOUS
 10
-1.271972
 20
-1.939681
  0
VERTEX
  8
PLAN_1
 62
     2
  6
CONTINUOUS
 10
-1.268598
 20
-1.941366
  0
VERTEX
  8
PLAN_1
 62
     2
  6
CONTINUOUS
 10
-1.265787
 20
-1.943055
  0
VERTEX
  8
PLAN_1
 62
     2
  6
CONTINUOUS
 10
-1.262413
 20
-1.945866
  0
VERTEX
  8
PLAN_1
 62
     2
  6
CONTINUOUS
 10
-1.260165
 20
-1.949240
  0
VERTEX
  8
PLAN_1
 62
     2
  6
CONTINUOUS
 10
-1.258476
 20
-1.953173
  0
VERTEX
  8
PLAN_1
 62
     2
  6
CONTINUOUS
 10
-1.257917
 20
-1.958236
  0
VERTEX
  8
PLAN_1
 62
     2
  6
CONTINUOUS
 10
-1.266350
 20
-1.958236
  0
SEQEND
  8
0
  0
POLYLINE
  8
PLAN_1
 62
     2
  6
CONTINUOUS
 66
     1
 40
0.003000
 41
0.003000
  0
VERTEX
  8
PLAN_1
 62
     2
  6
CONTINUOUS
 10
-1.279846
 20
-2.006031
  0
VERTEX
  8
PLAN_1
 62
     2
  6
CONTINUOUS
 10
-1.277035
 20
-2.005469
  0
VERTEX
  8
PLAN_1
 62
     2
  6
CONTINUOUS
 10
-1.274224
 20
-2.004906
  0
VERTEX
  8
PLAN_1
 62
     2
  6
CONTINUOUS
 10
-1.271409
 20
-2.003220
  0
VERTEX
  8
PLAN_1
 62
     2
  6
CONTINUOUS
 10
-1.269724
 20
-2.000972
  0
VERTEX
  8
PLAN_1
 62
     2
  6
CONTINUOUS
 10
-1.268035
 20
-1.998720
  0
VERTEX
  8
PLAN_1
 62
     2
  6
CONTINUOUS
 10
-1.266350
 20
-1.995909
  0
VERTEX
  8
PLAN_1
 62
     2
  6
CONTINUOUS
 10
-1.265787
 20
-1.992535
  0
VERTEX
  8
PLAN_1
 62
     2
  6
CONTINUOUS
 10
-1.265787
 20
-1.989161
  0
VERTEX
  8
PLAN_1
 62
     2
  6
CONTINUOUS
 10
-1.265787
 20
-1.986350
  0
VERTEX
  8
PLAN_1
 62
     2
  6
CONTINUOUS
 10
-1.266350
 20
-1.984102
  0
VERTEX
  8
PLAN_1
 62
     2
  6
CONTINUOUS
 10
-1.267476
 20
-1.981291
  0
VERTEX
  8
PLAN_1
 62
     2
  6
CONTINUOUS
 10
-1.268598
 20
-1.979039
  0
VERTEX
  8
PLAN_1
 62
     2
  6
CONTINUOUS
 10
-1.270850
 20
-1.976791
  0
VERTEX
  8
PLAN_1
 62
     2
  6
CONTINUOUS
 10
-1.273098
 20
-1.975106
  0
VERTEX
  8
PLAN_1
 62
     2
  6
CONTINUOUS
 10
-1.276472
 20
-1.973980
  0
VERTEX
  8
PLAN_1
 62
     2
  6
CONTINUOUS
 10
-1.280409
 20
-1.973980
  0
VERTEX
  8
PLAN_1
 62
     2
  6
CONTINUOUS
 10
-1.283783
 20
-1.973980
  0
VERTEX
  8
PLAN_1
 62
     2
  6
CONTINUOUS
 10
-1.287157
 20
-1.975106
  0
VERTEX
  8
PLAN_1
 62
     2
  6
CONTINUOUS
 10
-1.289406
 20
-1.976228
  0
VERTEX
  8
PLAN_1
 62
     2
  6
CONTINUOUS
 10
-1.291654
 20
-1.978480
  0
VERTEX
  8
PLAN_1
 62
     2
  6
CONTINUOUS
 10
-1.293343
 20
-1.980728
  0
VERTEX
  8
PLAN_1
 62
     2
  6
CONTINUOUS
 10
-1.294465
 20
-1.983539
  0
VERTEX
  8
PLAN_1
 62
     2
  6
CONTINUOUS
 10
-1.295028
 20
-1.986350
  0
VERTEX
  8
PLAN_1
 62
     2
  6
CONTINUOUS
 10
-1.295591
 20
-1.989724
  0
VERTEX
  8
PLAN_1
 62
     2
  6
CONTINUOUS
 10
-1.295028
 20
-1.992535
  0
VERTEX
  8
PLAN_1
 62
     2
  6
CONTINUOUS
 10
-1.294465
 20
-1.995346
  0
VERTEX
  8
PLAN_1
 62
     2
  6
CONTINUOUS
 10
-1.293343
 20
-1.998157
  0
VERTEX
  8
PLAN_1
 62
     2
  6
CONTINUOUS
 10
-1.291654
 20
-2.000972
  0
VERTEX
  8
PLAN_1
 62
     2
  6
CONTINUOUS
 10
-1.289406
 20
-2.002657
  0
VERTEX
  8
PLAN_1
 62
     2
  6
CONTINUOUS
 10
-1.286594
 20
-2.004346
  0
VERTEX
  8
PLAN_1
 62
     2
  6
CONTINUOUS
 10
-1.283783
 20
-2.005469
  0
VERTEX
  8
PLAN_1
 62
     2
  6
CONTINUOUS
 10
-1.279846
 20
-2.006031
  0
SEQEND
  8
0
  0
POLYLINE
  8
PLAN_1
 62
     2
  6
CONTINUOUS
 66
     1
 40
0.003000
 41
0.003000
  0
VERTEX
  8
PLAN_1
 62
     2
  6
CONTINUOUS
 10
-1.223051
 20
-2.013906
  0
VERTEX
  8
PLAN_1
 62
     2
  6
CONTINUOUS
 10
-1.226988
 20
-2.013906
  0
VERTEX
  8
PLAN_1
 62
     2
  6
CONTINUOUS
 10
-1.230362
 20
-2.013343
  0
VERTEX
  8
PLAN_1
 62
     2
  6
CONTINUOUS
 10
-1.233173
 20
-2.012217
  0
VERTEX
  8
PLAN_1
 62
     2
  6
CONTINUOUS
 10
-1.235984
 20
-2.010531
  0
VERTEX
  8
PLAN_1
 62
     2
  6
CONTINUOUS
 10
-1.238236
 20
-2.008280
  0
VERTEX
  8
PLAN_1
 62
     2
  6
CONTINUOUS
 10
-1.240484
 20
-2.006031
  0
VERTEX
  8
PLAN_1
 62
     2
  6
CONTINUOUS
 10
-1.242169
 20
-2.003783
  0
VERTEX
  8
PLAN_1
 62
     2
  6
CONTINUOUS
 10
-1.243858
 20
-2.000972
  0
VERTEX
  8
PLAN_1
 62
     2
  6
CONTINUOUS
 10
-1.246106
 20
-1.995346
  0
VERTEX
  8
PLAN_1
 62
     2
  6
CONTINUOUS
 10
-1.247232
 20
-1.988598
  0
VERTEX
  8
PLAN_1
 62
     2
  6
CONTINUOUS
 10
-1.247795
 20
-1.982413
  0
VERTEX
  8
PLAN_1
 62
     2
  6
CONTINUOUS
 10
-1.248358
 20
-1.976791
  0
VERTEX
  8
PLAN_1
 62
     2
  6
CONTINUOUS
 10
-1.247795
 20
-1.970606
  0
VERTEX
  8
PLAN_1
 62
     2
  6
CONTINUOUS
 10
-1.247232
 20
-1.964421
  0
VERTEX
  8
PLAN_1
 62
     2
  6
CONTINUOUS
 10
-1.246106
 20
-1.958236
  0
VERTEX
  8
PLAN_1
 62
     2
  6
CONTINUOUS
 10
-1.243858
 20
-1.952051
  0
VERTEX
  8
PLAN_1
 62
     2
  6
CONTINUOUS
 10
-1.242169
 20
-1.949240
  0
VERTEX
  8
PLAN_1
 62
     2
  6
CONTINUOUS
 10
-1.240484
 20
-1.946988
  0
VERTEX
  8
PLAN_1
 62
     2
  6
CONTINUOUS
 10
-1.238236
 20
-1.944740
  0
VERTEX
  8
PLAN_1
 62
     2
  6
CONTINUOUS
 10
-1.235984
 20
-1.942492
  0
VERTEX
  8
PLAN_1
 62
     2
  6
CONTINUOUS
 10
-1.233173
 20
-1.941366
  0
VERTEX
  8
PLAN_1
 62
     2
  6
CONTINUOUS
 10
-1.230362
 20
-1.940240
  0
VERTEX
  8
PLAN_1
 62
     2
  6
CONTINUOUS
 10
-1.226988
 20
-1.939118
  0
VERTEX
  8
PLAN_1
 62
     2
  6
CONTINUOUS
 10
-1.223051
 20
-1.939118
  0
VERTEX
  8
PLAN_1
 62
     2
  6
CONTINUOUS
 10
-1.219677
 20
-1.939118
  0
VERTEX
  8
PLAN_1
 62
     2
  6
CONTINUOUS
 10
-1.216303
 20
-1.940240
  0
VERTEX
  8
PLAN_1
 62
     2
  6
CONTINUOUS
 10
-1.212929
 20
-1.941366
  0
VERTEX
  8
PLAN_1
 62
     2
  6
CONTINUOUS
 10
-1.210681
 20
-1.942492
  0
VERTEX
  8
PLAN_1
 62
     2
  6
CONTINUOUS
 10
-1.207870
 20
-1.944740
  0
VERTEX
  8
PLAN_1
 62
     2
  6
CONTINUOUS
 10
-1.206185
 20
-1.946988
  0
VERTEX
  8
PLAN_1
 62
     2
  6
CONTINUOUS
 10
-1.204496
 20
-1.949240
  0
VERTEX
  8
PLAN_1
 62
     2
  6
CONTINUOUS
 10
-1.202811
 20
-1.952051
  0
VERTEX
  8
PLAN_1
 62
     2
  6
CONTINUOUS
 10
-1.200559
 20
-1.958236
  0
VERTEX
  8
PLAN_1
 62
     2
  6
CONTINUOUS
 10
-1.198874
 20
-1.964421
  0
VERTEX
  8
PLAN_1
 62
     2
  6
CONTINUOUS
 10
-1.198311
 20
-1.970606
  0
VERTEX
  8
PLAN_1
 62
     2
  6
CONTINUOUS
 10
-1.198311
 20
-1.976791
  0
VERTEX
  8
PLAN_1
 62
     2
  6
CONTINUOUS
 10
-1.198311
 20
-1.982413
  0
VERTEX
  8
PLAN_1
 62
     2
  6
CONTINUOUS
 10
-1.198874
 20
-1.988598
  0
VERTEX
  8
PLAN_1
 62
     2
  6
CONTINUOUS
 10
-1.200559
 20
-1.995346
  0
VERTEX
  8
PLAN_1
 62
     2
  6
CONTINUOUS
 10
-1.202811
 20
-2.000972
  0
VERTEX
  8
PLAN_1
 62
     2
  6
CONTINUOUS
 10
-1.204496
 20
-2.003783
  0
VERTEX
  8
PLAN_1
 62
     2
  6
CONTINUOUS
 10
-1.206185
 20
-2.006031
  0
VERTEX
  8
PLAN_1
 62
     2
  6
CONTINUOUS
 10
-1.207870
 20
-2.008280
  0
VERTEX
  8
PLAN_1
 62
     2
  6
CONTINUOUS
 10
-1.210681
 20
-2.010531
  0
VERTEX
  8
PLAN_1
 62
     2
  6
CONTINUOUS
 10
-1.212929
 20
-2.012217
  0
VERTEX
  8
PLAN_1
 62
     2
  6
CONTINUOUS
 10
-1.216303
 20
-2.013343
  0
VERTEX
  8
PLAN_1
 62
     2
  6
CONTINUOUS
 10
-1.219677
 20
-2.013906
  0
VERTEX
  8
PLAN_1
 62
     2
  6
CONTINUOUS
 10
-1.223051
 20
-2.013906
  0
SEQEND
  8
0
  0
POLYLINE
  8
PLAN_1
 62
     2
  6
CONTINUOUS
 66
     1
 40
0.003000
 41
0.003000
  0
VERTEX
  8
PLAN_1
 62
     2
  6
CONTINUOUS
 10
-1.223051
 20
-1.946988
  0
VERTEX
  8
PLAN_1
 62
     2
  6
CONTINUOUS
 10
-1.226988
 20
-1.947551
  0
VERTEX
  8
PLAN_1
 62
     2
  6
CONTINUOUS
 10
-1.229799
 20
-1.949240
  0
VERTEX
  8
PLAN_1
 62
     2
  6
CONTINUOUS
 10
-1.232610
 20
-1.951488
  0
VERTEX
  8
PLAN_1
 62
     2
  6
CONTINUOUS
 10
-1.234862
 20
-1.954862
  0
VERTEX
  8
PLAN_1
 62
     2
  6
CONTINUOUS
 10
-1.236547
 20
-1.959358
  0
VERTEX
  8
PLAN_1
 62
     2
  6
CONTINUOUS
 10
-1.237673
 20
-1.964421
  0
VERTEX
  8
PLAN_1
 62
     2
  6
CONTINUOUS
 10
-1.238236
 20
-1.970043
  0
VERTEX
  8
PLAN_1
 62
     2
  6
CONTINUOUS
 10
-1.238236
 20
-1.976791
  0
VERTEX
  8
PLAN_1
 62
     2
  6
CONTINUOUS
 10
-1.238236
 20
-1.982976
  0
VERTEX
  8
PLAN_1
 62
     2
  6
CONTINUOUS
 10
-1.237673
 20
-1.988598
  0
VERTEX
  8
PLAN_1
 62
     2
  6
CONTINUOUS
 10
-1.236547
 20
-1.993661
  0
VERTEX
  8
PLAN_1
 62
     2
  6
CONTINUOUS
 10
-1.234862
 20
-1.998157
  0
VERTEX
  8
PLAN_1
 62
     2
  6
CONTINUOUS
 10
-1.232610
 20
-2.001531
  0
VERTEX
  8
PLAN_1
 62
     2
  6
CONTINUOUS
 10
-1.229799
 20
-2.003783
  0
VERTEX
  8
PLAN_1
 62
     2
  6
CONTINUOUS
 10
-1.226988
 20
-2.005469
  0
VERTEX
  8
PLAN_1
 62
     2
  6
CONTINUOUS
 10
-1.223051
 20
-2.006031
  0
VERTEX
  8
PLAN_1
 62
     2
  6
CONTINUOUS
 10
-1.219677
 20
-2.005469
  0
VERTEX
  8
PLAN_1
 62
     2
  6
CONTINUOUS
 10
-1.216303
 20
-2.003783
  0
VERTEX
  8
PLAN_1
 62
     2
  6
CONTINUOUS
 10
-1.213492
 20
-2.001531
  0
VERTEX
  8
PLAN_1
 62
     2
  6
CONTINUOUS
 10
-1.211807
 20
-1.998157
  0
VERTEX
  8
PLAN_1
 62
     2
  6
CONTINUOUS
 10
-1.210118
 20
-1.993661
  0
VERTEX
  8
PLAN_1
 62
     2
  6
CONTINUOUS
 10
-1.208996
 20
-1.988598
  0
VERTEX
  8
PLAN_1
 62
     2
  6
CONTINUOUS
 10
-1.207870
 20
-1.982976
  0
VERTEX
  8
PLAN_1
 62
     2
  6
CONTINUOUS
 10
-1.207870
 20
-1.976791
  0
VERTEX
  8
PLAN_1
 62
     2
  6
CONTINUOUS
 10
-1.207870
 20
-1.970043
  0
VERTEX
  8
PLAN_1
 62
     2
  6
CONTINUOUS
 10
-1.208996
 20
-1.964421
  0
VERTEX
  8
PLAN_1
 62
     2
  6
CONTINUOUS
 10
-1.210118
 20
-1.959358
  0
VERTEX
  8
PLAN_1
 62
     2
  6
CONTINUOUS
 10
-1.211807
 20
-1.954862
  0
VERTEX
  8
PLAN_1
 62
     2
  6
CONTINUOUS
 10
-1.213492
 20
-1.951488
  0
VERTEX
  8
PLAN_1
 62
     2
  6
CONTINUOUS
 10
-1.216303
 20
-1.949240
  0
VERTEX
  8
PLAN_1
 62
     2
  6
CONTINUOUS
 10
-1.219677
 20
-1.947551
  0
VERTEX
  8
PLAN_1
 62
     2
  6
CONTINUOUS
 10
-1.223051
 20
-1.946988
  0
SEQEND
  8
0
  0
POLYLINE
  8
PLAN_1
 62
     2
  6
CONTINUOUS
 66
     1
 40
0.003933
 41
0.003933
  0
VERTEX
  8
PLAN_1
 62
     2
  6
CONTINUOUS
 10
0.004469
 20
-1.725441
  0
VERTEX
  8
PLAN_1
 62
     2
  6
CONTINUOUS
 10
-0.152417
 20
-1.725441
  0
SEQEND
  8
0
  0
POLYLINE
  8
PLAN_1
 62
     2
  6
CONTINUOUS
 66
     1
 40
0.003933
 41
0.003933
  0
VERTEX
  8
PLAN_1
 62
     2
  6
CONTINUOUS
 10
-0.169287
 20
4.086016
  0
VERTEX
  8
PLAN_1
 62
     2
  6
CONTINUOUS
 10
-1.739815
 20
4.086016
  0
SEQEND
  8
0
  0
POLYLINE
  8
PLAN_1
 62
     2
  6
CONTINUOUS
 66
     1
 40
0.003933
 41
0.003933
  0
VERTEX
  8
PLAN_1
 62
     2
  6
CONTINUOUS
 10
-0.019150
 20
-1.695638
  0
VERTEX
  8
PLAN_1
 62
     2
  6
CONTINUOUS
 10
-0.019150
 20
4.056213
  0
SEQEND
  8
0
  0
SOLID
  8
PLAN_1
 62
     2
 10
-0.019150
 20
-1.725441
 11
-0.034894
 21
-1.666398
 12
-0.019150
 22
-1.725441
 13
-0.003406
 23
-1.666398
  0
POLYLINE
  8
PLAN_1
 62
     2
  6
CONTINUOUS
 66
     1
 40
0.003000
 41
0.003000
  0
VERTEX
  8
PLAN_1
 62
     2
  6
CONTINUOUS
 10
-0.019150
 20
-1.725441
  0
VERTEX
  8
PLAN_1
 62
     2
  6
CONTINUOUS
 10
-0.034894
 20
-1.666398
  0
VERTEX
  8
PLAN_1
 62
     2
  6
CONTINUOUS
 10
-0.003406
 20
-1.666398
  0
VERTEX
  8
PLAN_1
 62
     2
  6
CONTINUOUS
 10
-0.019150
 20
-1.725441
  0
SEQEND
  8
0
  0
POLYLINE
  8
PLAN_1
 62
     2
  6
CONTINUOUS
 66
     1
 40
0.003933
 41
0.003933
  0
VERTEX
  8
PLAN_1
 62
     2
  6
CONTINUOUS
 10
0.004469
 20
4.086016
  0
VERTEX
  8
PLAN_1
 62
     2
  6
CONTINUOUS
 10
-0.134984
 20
4.086016
  0
SEQEND
  8
0
  0
SOLID
  8
PLAN_1
 62
     2
 10
-0.019150
 20
4.086016
 11
-0.034894
 21
4.026972
 12
-0.019150
 22
4.086016
 13
-0.003406
 23
4.026972
  0
POLYLINE
  8
PLAN_1
 62
     2
  6
CONTINUOUS
 66
     1
 40
0.003000
 41
0.003000
  0
VERTEX
  8
PLAN_1
 62
     2
  6
CONTINUOUS
 10
-0.019150
 20
4.086016
  0
VERTEX
  8
PLAN_1
 62
     2
  6
CONTINUOUS
 10
-0.034894
 20
4.026972
  0
VERTEX
  8
PLAN_1
 62
     2
  6
CONTINUOUS
 10
-0.003406
 20
4.026972
  0
VERTEX
  8
PLAN_1
 62
     2
  6
CONTINUOUS
 10
-0.019150
 20
4.086016
  0
SEQEND
  8
0
  0
POLYLINE
  8
PLAN_1
 62
     2
  6
CONTINUOUS
 66
     1
 40
0.003933
 41
0.003933
  0
VERTEX
  8
PLAN_1
 62
     2
  6
CONTINUOUS
 10
-1.817976
 20
4.245150
  0
VERTEX
  8
PLAN_1
 62
     2
  6
CONTINUOUS
 10
-0.182220
 20
4.245150
  0
SEQEND
  8
0
  0
SOLID
  8
PLAN_1
 62
     2
 10
-0.152417
 20
4.245150
 11
-0.211461
 21
4.260894
 12
-0.152417
 22
4.245150
 13
-0.211461
 23
4.229406
  0
POLYLINE
  8
PLAN_1
 62
     2
  6
CONTINUOUS
 66
     1
 40
0.003000
 41
0.003000
  0
VERTEX
  8
PLAN_1
 62
     2
  6
CONTINUOUS
 10
-0.152417
 20
4.245150
  0
VERTEX
  8
PLAN_1
 62
     2
  6
CONTINUOUS
 10
-0.211461
 20
4.260894
  0
VERTEX
  8
PLAN_1
 62
     2
  6
CONTINUOUS
 10
-0.211461
 20
4.229406
  0
VERTEX
  8
PLAN_1
 62
     2
  6
CONTINUOUS
 10
-0.152417
 20
4.245150
  0
SEQEND
  8
0
  0
SOLID
  8
PLAN_1
 62
     2
 10
-1.847217
 20
4.245150
 11
-1.788173
 21
4.260894
 12
-1.847217
 22
4.245150
 13
-1.788173
 23
4.229406
  0
POLYLINE
  8
PLAN_1
 62
     2
  6
CONTINUOUS
 66
     1
 40
0.003000
 41
0.003000
  0
VERTEX
  8
PLAN_1
 62
     2
  6
CONTINUOUS
 10
-1.847217
 20
4.245150
  0
VERTEX
  8
PLAN_1
 62
     2
  6
CONTINUOUS
 10
-1.788173
 20
4.260894
  0
VERTEX
  8
PLAN_1
 62
     2
  6
CONTINUOUS
 10
-1.788173
 20
4.229406
  0
VERTEX
  8
PLAN_1
 62
     2
  6
CONTINUOUS
 10
-1.847217
 20
4.245150
  0
SEQEND
  8
0
  0
POLYLINE
  8
PLAN_1
 62
     2
  6
CONTINUOUS
 66
     1
 40
0.003000
 41
0.003000
  0
VERTEX
  8
PLAN_1
 62
     2
  6
CONTINUOUS
 10
-1.014437
 20
4.286760
  0
VERTEX
  8
PLAN_1
 62
     2
  6
CONTINUOUS
 10
-1.014437
 20
4.268768
  0
VERTEX
  8
PLAN_1
 62
     2
  6
CONTINUOUS
 10
-1.023433
 20
4.268768
  0
VERTEX
  8
PLAN_1
 62
     2
  6
CONTINUOUS
 10
-1.023433
 20
4.286760
  0
VERTEX
  8
PLAN_1
 62
     2
  6
CONTINUOUS
 10
-1.055484
 20
4.286760
  0
VERTEX
  8
PLAN_1
 62
     2
  6
CONTINUOUS
 10
-1.055484
 20
4.295756
  0
VERTEX
  8
PLAN_1
 62
     2
  6
CONTINUOUS
 10
-1.021748
 20
4.341866
  0
VERTEX
  8
PLAN_1
 62
     2
  6
CONTINUOUS
 10
-1.014437
 20
4.341866
  0
VERTEX
  8
PLAN_1
 62
     2
  6
CONTINUOUS
 10
-1.014437
 20
4.294634
  0
VERTEX
  8
PLAN_1
 62
     2
  6
CONTINUOUS
 10
-1.003752
 20
4.294634
  0
VERTEX
  8
PLAN_1
 62
     2
  6
CONTINUOUS
 10
-1.003752
 20
4.286760
  0
VERTEX
  8
PLAN_1
 62
     2
  6
CONTINUOUS
 10
-1.014437
 20
4.286760
  0
SEQEND
  8
0
  0
SOLID
  8
PLAN_1
 62
     2
 10
-1.047051
 20
4.294634
 11
-1.023433
 21
4.294634
 12
-1.047051
 22
4.294634
 13
-1.023433
 23
4.327807
  0
POLYLINE
  8
PLAN_1
 62
     2
  6
CONTINUOUS
 66
     1
 40
0.003000
 41
0.003000
  0
VERTEX
  8
PLAN_1
 62
     2
  6
CONTINUOUS
 10
-1.047051
 20
4.294634
  0
VERTEX
  8
PLAN_1
 62
     2
  6
CONTINUOUS
 10
-1.023433
 20
4.294634
  0
VERTEX
  8
PLAN_1
 62
     2
  6
CONTINUOUS
 10
-1.023433
 20
4.327807
  0
VERTEX
  8
PLAN_1
 62
     2
  6
CONTINUOUS
 10
-1.047051
 20
4.294634
  0
SEQEND
  8
0
  0
POLYLINE
  8
PLAN_1
 62
     2
  6
CONTINUOUS
 66
     1
 40
0.003000
 41
0.003000
  0
VERTEX
  8
PLAN_1
 62
     2
  6
CONTINUOUS
 10
-0.956520
 20
4.286760
  0
VERTEX
  8
PLAN_1
 62
     2
  6
CONTINUOUS
 10
-0.956520
 20
4.268768
  0
VERTEX
  8
PLAN_1
 62
     2
  6
CONTINUOUS
 10
-0.965516
 20
4.268768
  0
VERTEX
  8
PLAN_1
 62
     2
  6
CONTINUOUS
 10
-0.965516
 20
4.286760
  0
VERTEX
  8
PLAN_1
 62
     2
  6
CONTINUOUS
 10
-0.997567
 20
4.286760
  0
VERTEX
  8
PLAN_1
 62
     2
  6
CONTINUOUS
 10
-0.997567
 20
4.295756
  0
VERTEX
  8
PLAN_1
 62
     2
  6
CONTINUOUS
 10
-0.963827
 20
4.341866
  0
VERTEX
  8
PLAN_1
 62
     2
  6
CONTINUOUS
 10
-0.956520
 20
4.341866
  0
VERTEX
  8
PLAN_1
 62
     2
  6
CONTINUOUS
 10
-0.956520
 20
4.294634
  0
VERTEX
  8
PLAN_1
 62
     2
  6
CONTINUOUS
 10
-0.945835
 20
4.294634
  0
VERTEX
  8
PLAN_1
 62
     2
  6
CONTINUOUS
 10
-0.945835
 20
4.286760
  0
VERTEX
  8
PLAN_1
 62
     2
  6
CONTINUOUS
 10
-0.956520
 20
4.286760
  0
SEQEND
  8
0
  0
SOLID
  8
PLAN_1
 62
     2
 10
-0.989134
 20
4.294634
 11
-0.965516
 21
4.294634
 12
-0.989134
 22
4.294634
 13
-0.965516
 23
4.327807
  0
POLYLINE
  8
PLAN_1
 62
     2
  6
CONTINUOUS
 66
     1
 40
0.003000
 41
0.003000
  0
VERTEX
  8
PLAN_1
 62
     2
  6
CONTINUOUS
 10
-0.989134
 20
4.294634
  0
VERTEX
  8
PLAN_1
 62
     2
  6
CONTINUOUS
 10
-0.965516
 20
4.294634
  0
VERTEX
  8
PLAN_1
 62
     2
  6
CONTINUOUS
 10
-0.965516
 20
4.327807
  0
VERTEX
  8
PLAN_1
 62
     2
  6
CONTINUOUS
 10
-0.989134
 20
4.294634
  0
SEQEND
  8
0
  0
POLYLINE
  8
PLAN_1
 62
     2
  6
CONTINUOUS
 66
     1
 40
0.003933
 41
0.003933
  0
VERTEX
  8
PLAN_1
 62
     2
  6
CONTINUOUS
 10
-2.181787
 20
4.404283
  0
VERTEX
  8
PLAN_1
 62
     2
  6
CONTINUOUS
 10
-0.182220
 20
4.404283
  0
SEQEND
  8
0
  0
SOLID
  8
PLAN_1
 62
     2
 10
-0.152417
 20
4.404283
 11
-0.211461
 21
4.420028
 12
-0.152417
 22
4.404283
 13
-0.211461
 23
4.388539
  0
POLYLINE
  8
PLAN_1
 62
     2
  6
CONTINUOUS
 66
     1
 40
0.003000
 41
0.003000
  0
VERTEX
  8
PLAN_1
 62
     2
  6
CONTINUOUS
 10
-0.152417
 20
4.404283
  0
VERTEX
  8
PLAN_1
 62
     2
  6
CONTINUOUS
 10
-0.211461
 20
4.420028
  0
VERTEX
  8
PLAN_1
 62
     2
  6
CONTINUOUS
 10
-0.211461
 20
4.388539
  0
VERTEX
  8
PLAN_1
 62
     2
  6
CONTINUOUS
 10
-0.152417
 20
4.404283
  0
SEQEND
  8
0
  0
SOLID
  8
PLAN_1
 62
     2
 10
-2.211028
 20
4.404283
 11
-2.151984
 21
4.420028
 12
-2.211028
 22
4.404283
 13
-2.151984
 23
4.388539
  0
POLYLINE
  8
PLAN_1
 62
     2
  6
CONTINUOUS
 66
     1
 40
0.003000
 41
0.003000
  0
VERTEX
  8
PLAN_1
 62
     2
  6
CONTINUOUS
 10
-2.211028
 20
4.404283
  0
VERTEX
  8
PLAN_1
 62
     2
  6
CONTINUOUS
 10
-2.151984
 20
4.420028
  0
VERTEX
  8
PLAN_1
 62
     2
  6
CONTINUOUS
 10
-2.151984
 20
4.388539
  0
VERTEX
  8
PLAN_1
 62
     2
  6
CONTINUOUS
 10
-2.211028
 20
4.404283
  0
SEQEND
  8
0
  0
POLYLINE
  8
PLAN_1
 62
     2
  6
CONTINUOUS
 66
     1
 40
0.003000
 41
0.003000
  0
VERTEX
  8
PLAN_1
 62
     2
  6
CONTINUOUS
 10
-1.224740
 20
4.470634
  0
VERTEX
  8
PLAN_1
 62
     2
  6
CONTINUOUS
 10
-1.223614
 20
4.471197
  0
VERTEX
  8
PLAN_1
 62
     2
  6
CONTINUOUS
 10
-1.221929
 20
4.472323
  0
VERTEX
  8
PLAN_1
 62
     2
  6
CONTINUOUS
 10
-1.220240
 20
4.472886
  0
VERTEX
  8
PLAN_1
 62
     2
  6
CONTINUOUS
 10
-1.218555
 20
4.473449
  0
VERTEX
  8
PLAN_1
 62
     2
  6
CONTINUOUS
 10
-1.216866
 20
4.474008
  0
VERTEX
  8
PLAN_1
 62
     2
  6
CONTINUOUS
 10
-1.215181
 20
4.474571
  0
VERTEX
  8
PLAN_1
 62
     2
  6
CONTINUOUS
 10
-1.212929
 20
4.475134
  0
VERTEX
  8
PLAN_1
 62
     2
  6
CONTINUOUS
 10
-1.210681
 20
4.475134
  0
VERTEX
  8
PLAN_1
 62
     2
  6
CONTINUOUS
 10
-1.206185
 20
4.474571
  0
VERTEX
  8
PLAN_1
 62
     2
  6
CONTINUOUS
 10
-1.201685
 20
4.473449
  0
VERTEX
  8
PLAN_1
 62
     2
  6
CONTINUOUS
 10
-1.197748
 20
4.471760
  0
VERTEX
  8
PLAN_1
 62
     2
  6
CONTINUOUS
 10
-1.193811
 20
4.468949
  0
VERTEX
  8
PLAN_1
 62
     2
  6
CONTINUOUS
 10
-1.191000
 20
4.465575
  0
VERTEX
  8
PLAN_1
 62
     2
  6
CONTINUOUS
 10
-1.188752
 20
4.461638
  0
VERTEX
  8
PLAN_1
 62
     2
  6
CONTINUOUS
 10
-1.187063
 20
4.457142
  0
VERTEX
  8
PLAN_1
 62
     2
  6
CONTINUOUS
 10
-1.186504
 20
4.451516
  0
VERTEX
  8
PLAN_1
 62
     2
  6
CONTINUOUS
 10
-1.186504
 20
4.448142
  0
VERTEX
  8
PLAN_1
 62
     2
  6
CONTINUOUS
 10
-1.187063
 20
4.444209
  0
VERTEX
  8
PLAN_1
 62
     2
  6
CONTINUOUS
 10
-1.188752
 20
4.439709
  0
VERTEX
  8
PLAN_1
 62
     2
  6
CONTINUOUS
 10
-1.191000
 20
4.435772
  0
VERTEX
  8
PLAN_1
 62
     2
  6
CONTINUOUS
 10
-1.192689
 20
4.433524
  0
VERTEX
  8
PLAN_1
 62
     2
  6
CONTINUOUS
 10
-1.194374
 20
4.431835
  0
VERTEX
  8
PLAN_1
 62
     2
  6
CONTINUOUS
 10
-1.196622
 20
4.430150
  0
VERTEX
  8
PLAN_1
 62
     2
  6
CONTINUOUS
 10
-1.198874
 20
4.429024
  0
VERTEX
  8
PLAN_1
 62
     2
  6
CONTINUOUS
 10
-1.202248
 20
4.427339
  0
VERTEX
  8
PLAN_1
 62
     2
  6
CONTINUOUS
 10
-1.205059
 20
4.426776
  0
VERTEX
  8
PLAN_1
 62
     2
  6
CONTINUOUS
 10
-1.208996
 20
4.426213
  0
VERTEX
  8
PLAN_1
 62
     2
  6
CONTINUOUS
 10
-1.212929
 20
4.425650
  0
VERTEX
  8
PLAN_1
 62
     2
  6
CONTINUOUS
 10
-1.216866
 20
4.426213
  0
VERTEX
  8
PLAN_1
 62
     2
  6
CONTINUOUS
 10
-1.220240
 20
4.426776
  0
VERTEX
  8
PLAN_1
 62
     2
  6
CONTINUOUS
 10
-1.224177
 20
4.427902
  0
VERTEX
  8
PLAN_1
 62
     2
  6
CONTINUOUS
 10
-1.227551
 20
4.429587
  0
VERTEX
  8
PLAN_1
 62
     2
  6
CONTINUOUS
 10
-1.230925
 20
4.432398
  0
VERTEX
  8
PLAN_1
 62
     2
  6
CONTINUOUS
 10
-1.233736
 20
4.435772
  0
VERTEX
  8
PLAN_1
 62
     2
  6
CONTINUOUS
 10
-1.235425
 20
4.440272
  0
VERTEX
  8
PLAN_1
 62
     2
  6
CONTINUOUS
 10
-1.236547
 20
4.445894
  0
VERTEX
  8
PLAN_1
 62
     2
  6
CONTINUOUS
 10
-1.226988
 20
4.445894
  0
VERTEX
  8
PLAN_1
 62
     2
  6
CONTINUOUS
 10
-1.226425
 20
4.443083
  0
VERTEX
  8
PLAN_1
 62
     2
  6
CONTINUOUS
 10
-1.225303
 20
4.440835
  0
VERTEX
  8
PLAN_1
 62
     2
  6
CONTINUOUS
 10
-1.224177
 20
4.438583
  0
VERTEX
  8
PLAN_1
 62
     2
  6
CONTINUOUS
 10
-1.221929
 20
4.436898
  0
VERTEX
  8
PLAN_1
 62
     2
  6
CONTINUOUS
 10
-1.219677
 20
4.435209
  0
VERTEX
  8
PLAN_1
 62
     2
  6
CONTINUOUS
 10
-1.217429
 20
4.434646
  0
VERTEX
  8
PLAN_1
 62
     2
  6
CONTINUOUS
 10
-1.214618
 20
4.434087
  0
VERTEX
  8
PLAN_1
 62
     2
  6
CONTINUOUS
 10
-1.211807
 20
4.433524
  0
VERTEX
  8
PLAN_1
 62
     2
  6
CONTINUOUS
 10
-1.208433
 20
4.434087
  0
VERTEX
  8
PLAN_1
 62
     2
  6
CONTINUOUS
 10
-1.205059
 20
4.435209
  0
VERTEX
  8
PLAN_1
 62
     2
  6
CONTINUOUS
 10
-1.202811
 20
4.436898
  0
VERTEX
  8
PLAN_1
 62
     2
  6
CONTINUOUS
 10
-1.200559
 20
4.438583
  0
VERTEX
  8
PLAN_1
 62
     2
  6
CONTINUOUS
 10
-1.198311
 20
4.441394
  0
VERTEX
  8
PLAN_1
 62
     2
  6
CONTINUOUS
 10
-1.197185
 20
4.444209
  0
VERTEX
  8
PLAN_1
 62
     2
  6
CONTINUOUS
 10
-1.196622
 20
4.447020
  0
VERTEX
  8
PLAN_1
 62
     2
  6
CONTINUOUS
 10
-1.196063
 20
4.450394
  0
VERTEX
  8
PLAN_1
 62
     2
  6
CONTINUOUS
 10
-1.196622
 20
4.454327
  0
VERTEX
  8
PLAN_1
 62
     2
  6
CONTINUOUS
 10
-1.197185
 20
4.457701
  0
VERTEX
  8
PLAN_1
 62
     2
  6
CONTINUOUS
 10
-1.198874
 20
4.460516
  0
VERTEX
  8
PLAN_1
 62
     2
  6
CONTINUOUS
 10
-1.201122
 20
4.462764
  0
VERTEX
  8
PLAN_1
 62
     2
  6
CONTINUOUS
 10
-1.203370
 20
4.464449
  0
VERTEX
  8
PLAN_1
 62
     2
  6
CONTINUOUS
 10
-1.206185
 20
4.465575
  0
VERTEX
  8
PLAN_1
 62
     2
  6
CONTINUOUS
 10
-1.208996
 20
4.466701
  0
VERTEX
  8
PLAN_1
 62
     2
  6
CONTINUOUS
 10
-1.212370
 20
4.466701
  0
VERTEX
  8
PLAN_1
 62
     2
  6
CONTINUOUS
 10
-1.214618
 20
4.466701
  0
VERTEX
  8
PLAN_1
 62
     2
  6
CONTINUOUS
 10
-1.216303
 20
4.466138
  0
VERTEX
  8
PLAN_1
 62
     2
  6
CONTINUOUS
 10
-1.217992
 20
4.465575
  0
VERTEX
  8
PLAN_1
 62
     2
  6
CONTINUOUS
 10
-1.219677
 20
4.465012
  0
VERTEX
  8
PLAN_1
 62
     2
  6
CONTINUOUS
 10
-1.221366
 20
4.463886
  0
VERTEX
  8
PLAN_1
 62
     2
  6
CONTINUOUS
 10
-1.223051
 20
4.462764
  0
VERTEX
  8
PLAN_1
 62
     2
  6
CONTINUOUS
 10
-1.224740
 20
4.461638
  0
VERTEX
  8
PLAN_1
 62
     2
  6
CONTINUOUS
 10
-1.225862
 20
4.459953
  0
VERTEX
  8
PLAN_1
 62
     2
  6
CONTINUOUS
 10
-1.233736
 20
4.459953
  0
VERTEX
  8
PLAN_1
 62
     2
  6
CONTINUOUS
 10
-1.228114
 20
4.499315
  0
VERTEX
  8
PLAN_1
 62
     2
  6
CONTINUOUS
 10
-1.190437
 20
4.499315
  0
VERTEX
  8
PLAN_1
 62
     2
  6
CONTINUOUS
 10
-1.190437
 20
4.490315
  0
VERTEX
  8
PLAN_1
 62
     2
  6
CONTINUOUS
 10
-1.221366
 20
4.490315
  0
VERTEX
  8
PLAN_1
 62
     2
  6
CONTINUOUS
 10
-1.224740
 20
4.470634
  0
SEQEND
  8
0
  0
POLYLINE
  8
PLAN_1
 62
     2
  6
CONTINUOUS
 66
     1
 40
0.003000
 41
0.003000
  0
VERTEX
  8
PLAN_1
 62
     2
  6
CONTINUOUS
 10
-1.177504
 20
4.474571
  0
VERTEX
  8
PLAN_1
 62
     2
  6
CONTINUOUS
 10
-1.177504
 20
4.479071
  0
VERTEX
  8
PLAN_1
 62
     2
  6
CONTINUOUS
 10
-1.176945
 20
4.483008
  0
VERTEX
  8
PLAN_1
 62
     2
  6
CONTINUOUS
 10
-1.175819
 20
4.485819
  0
VERTEX
  8
PLAN_1
 62
     2
  6
CONTINUOUS
 10
-1.174693
 20
4.489193
  0
VERTEX
  8
PLAN_1
 62
     2
  6
CONTINUOUS
 10
-1.173008
 20
4.491441
  0
VERTEX
  8
PLAN_1
 62
     2
  6
CONTINUOUS
 10
-1.171319
 20
4.493689
  0
VERTEX
  8
PLAN_1
 62
     2
  6
CONTINUOUS
 10
-1.169634
 20
4.495378
  0
VERTEX
  8
PLAN_1
 62
     2
  6
CONTINUOUS
 10
-1.167945
 20
4.497063
  0
VERTEX
  8
PLAN_1
 62
     2
  6
CONTINUOUS
 10
-1.163449
 20
4.498752
  0
VERTEX
  8
PLAN_1
 62
     2
  6
CONTINUOUS
 10
-1.159512
 20
4.500437
  0
VERTEX
  8
PLAN_1
 62
     2
  6
CONTINUOUS
 10
-1.155575
 20
4.501000
  0
VERTEX
  8
PLAN_1
 62
     2
  6
CONTINUOUS
 10
-1.152201
 20
4.501000
  0
VERTEX
  8
PLAN_1
 62
     2
  6
CONTINUOUS
 10
-1.147705
 20
4.500437
  0
VERTEX
  8
PLAN_1
 62
     2
  6
CONTINUOUS
 10
-1.143205
 20
4.499315
  0
VERTEX
  8
PLAN_1
 62
     2
  6
CONTINUOUS
 10
-1.139268
 20
4.497626
  0
VERTEX
  8
PLAN_1
 62
     2
  6
CONTINUOUS
 10
-1.135894
 20
4.495378
  0
VERTEX
  8
PLAN_1
 62
     2
  6
CONTINUOUS
 10
-1.133083
 20
4.492004
  0
VERTEX
  8
PLAN_1
 62
     2
  6
CONTINUOUS
 10
-1.130835
 20
4.488067
  0
VERTEX
  8
PLAN_1
 62
     2
  6
CONTINUOUS
 10
-1.129709
 20
4.484130
  0
VERTEX
  8
PLAN_1
 62
     2
  6
CONTINUOUS
 10
-1.129146
 20
4.479071
  0
VERTEX
  8
PLAN_1
 62
     2
  6
CONTINUOUS
 10
-1.129709
 20
4.474571
  0
VERTEX
  8
PLAN_1
 62
     2
  6
CONTINUOUS
 10
-1.130835
 20
4.470634
  0
VERTEX
  8
PLAN_1
 62
     2
  6
CONTINUOUS
 10
-1.132520
 20
4.467260
  0
VERTEX
  8
PLAN_1
 62
     2
  6
CONTINUOUS
 10
-1.134772
 20
4.464449
  0
VERTEX
  8
PLAN_1
 62
     2
  6
CONTINUOUS
 10
-1.137583
 20
4.461638
  0
VERTEX
  8
PLAN_1
 62
     2
  6
CONTINUOUS
 10
-1.140957
 20
4.459390
  0
VERTEX
  8
PLAN_1
 62
     2
  6
CONTINUOUS
 10
-1.144890
 20
4.457142
  0
VERTEX
  8
PLAN_1
 62
     2
  6
CONTINUOUS
 10
-1.148827
 20
4.454890
  0
VERTEX
  8
PLAN_1
 62
     2
  6
CONTINUOUS
 10
-1.156138
 20
4.450394
  0
VERTEX
  8
PLAN_1
 62
     2
  6
CONTINUOUS
 10
-1.160075
 20
4.448705
  0
VERTEX
  8
PLAN_1
 62
     2
  6
CONTINUOUS
 10
-1.162323
 20
4.446457
  0
VERTEX
  8
PLAN_1
 62
     2
  6
CONTINUOUS
 10
-1.164571
 20
4.444209
  0
VERTEX
  8
PLAN_1
 62
     2
  6
CONTINUOUS
 10
-1.166260
 20
4.442520
  0
VERTEX
  8
PLAN_1
 62
     2
  6
CONTINUOUS
 10
-1.167386
 20
4.440835
  0
VERTEX
  8
PLAN_1
 62
     2
  6
CONTINUOUS
 10
-1.168508
 20
4.439146
  0
VERTEX
  8
PLAN_1
 62
     2
  6
CONTINUOUS
 10
-1.168508
 20
4.437461
  0
VERTEX
  8
PLAN_1
 62
     2
  6
CONTINUOUS
 10
-1.169071
 20
4.436335
  0
VERTEX
  8
PLAN_1
 62
     2
  6
CONTINUOUS
 10
-1.129146
 20
4.436335
  0
VERTEX
  8
PLAN_1
 62
     2
  6
CONTINUOUS
 10
-1.129146
 20
4.427902
  0
VERTEX
  8
PLAN_1
 62
     2
  6
CONTINUOUS
 10
-1.179193
 20
4.427902
  0
VERTEX
  8
PLAN_1
 62
     2
  6
CONTINUOUS
 10
-1.178630
 20
4.432961
  0
VERTEX
  8
PLAN_1
 62
     2
  6
CONTINUOUS
 10
-1.177504
 20
4.438020
  0
VERTEX
  8
PLAN_1
 62
     2
  6
CONTINUOUS
 10
-1.176382
 20
4.441957
  0
VERTEX
  8
PLAN_1
 62
     2
  6
CONTINUOUS
 10
-1.174130
 20
4.445894
  0
VERTEX
  8
PLAN_1
 62
     2
  6
CONTINUOUS
 10
-1.171882
 20
4.449268
  0
VERTEX
  8
PLAN_1
 62
     2
  6
CONTINUOUS
 10
-1.169071
 20
4.452079
  0
VERTEX
  8
PLAN_1
 62
     2
  6
CONTINUOUS
 10
-1.165697
 20
4.454890
  0
VERTEX
  8
PLAN_1
 62
     2
  6
CONTINUOUS
 10
-1.162323
 20
4.457142
  0
VERTEX
  8
PLAN_1
 62
     2
  6
CONTINUOUS
 10
-1.152201
 20
4.462764
  0
VERTEX
  8
PLAN_1
 62
     2
  6
CONTINUOUS
 10
-1.149390
 20
4.463886
  0
VERTEX
  8
PLAN_1
 62
     2
  6
CONTINUOUS
 10
-1.147142
 20
4.465575
  0
VERTEX
  8
PLAN_1
 62
     2
  6
CONTINUOUS
 10
-1.144890
 20
4.467260
  0
VERTEX
  8
PLAN_1
 62
     2
  6
CONTINUOUS
 10
-1.142642
 20
4.468949
  0
VERTEX
  8
PLAN_1
 62
     2
  6
CONTINUOUS
 10
-1.140957
 20
4.471197
  0
VERTEX
  8
PLAN_1
 62
     2
  6
CONTINUOUS
 10
-1.139831
 20
4.473449
  0
VERTEX
  8
PLAN_1
 62
     2
  6
CONTINUOUS
 10
-1.139268
 20
4.476260
  0
VERTEX
  8
PLAN_1
 62
     2
  6
CONTINUOUS
 10
-1.139268
 20
4.479634
  0
VERTEX
  8
PLAN_1
 62
     2
  6
CONTINUOUS
 10
-1.139268
 20
4.481882
  0
VERTEX
  8
PLAN_1
 62
     2
  6
CONTINUOUS
 10
-1.139831
 20
4.484130
  0
VERTEX
  8
PLAN_1
 62
     2
  6
CONTINUOUS
 10
-1.140957
 20
4.486382
  0
VERTEX
  8
PLAN_1
 62
     2
  6
CONTINUOUS
 10
-1.142079
 20
4.488630
  0
VERTEX
  8
PLAN_1
 62
     2
  6
CONTINUOUS
 10
-1.144331
 20
4.490315
  0
VERTEX
  8
PLAN_1
 62
     2
  6
CONTINUOUS
 10
-1.146579
 20
4.491441
  0
VERTEX
  8
PLAN_1
 62
     2
  6
CONTINUOUS
 10
-1.149953
 20
4.492567
  0
VERTEX
  8
PLAN_1
 62
     2
  6
CONTINUOUS
 10
-1.153327
 20
4.492567
  0
VERTEX
  8
PLAN_1
 62
     2
  6
CONTINUOUS
 10
-1.156138
 20
4.492567
  0
VERTEX
  8
PLAN_1
 62
     2
  6
CONTINUOUS
 10
-1.157823
 20
4.492004
  0
VERTEX
  8
PLAN_1
 62
     2
  6
CONTINUOUS
 10
-1.160075
 20
4.491441
  0
VERTEX
  8
PLAN_1
 62
     2
  6
CONTINUOUS
 10
-1.161760
 20
4.490878
  0
VERTEX
  8
PLAN_1
 62
     2
  6
CONTINUOUS
 10
-1.164012
 20
4.488630
  0
VERTEX
  8
PLAN_1
 62
     2
  6
CONTINUOUS
 10
-1.165697
 20
4.485819
  0
VERTEX
  8
PLAN_1
 62
     2
  6
CONTINUOUS
 10
-1.167386
 20
4.482445
  0
VERTEX
  8
PLAN_1
 62
     2
  6
CONTINUOUS
 10
-1.167945
 20
4.479634
  0
VERTEX
  8
PLAN_1
 62
     2
  6
CONTINUOUS
 10
-1.167945
 20
4.476819
  0
VERTEX
  8
PLAN_1
 62
     2
  6
CONTINUOUS
 10
-1.168508
 20
4.474571
  0
VERTEX
  8
PLAN_1
 62
     2
  6
CONTINUOUS
 10
-1.177504
 20
4.474571
  0
SEQEND
  8
0
  0
POLYLINE
  8
PLAN_1
 62
     2
  6
CONTINUOUS
 66
     1
 40
0.003933
 41
0.003933
  0
VERTEX
  8
PLAN_1
 62
     2
  6
CONTINUOUS
 10
-2.477000
 20
4.264831
  0
VERTEX
  8
PLAN_1
 62
     2
  6
CONTINUOUS
 10
-2.159295
 20
4.264831
  0
SEQEND
  8
0
  0
SOLID
  8
PLAN_1
 62
     2
 10
-2.129492
 20
4.264831
 11
-2.188535
 21
4.280575
 12
-2.129492
 22
4.264831
 13
-2.188535
 23
4.249087
  0
POLYLINE
  8
PLAN_1
 62
     2
  6
CONTINUOUS
 66
     1
 40
0.003000
 41
0.003000
  0
VERTEX
  8
PLAN_1
 62
     2
  6
CONTINUOUS
 10
-2.129492
 20
4.264831
  0
VERTEX
  8
PLAN_1
 62
     2
  6
CONTINUOUS
 10
-2.188535
 20
4.280575
  0
VERTEX
  8
PLAN_1
 62
     2
  6
CONTINUOUS
 10
-2.188535
 20
4.249087
  0
VERTEX
  8
PLAN_1
 62
     2
  6
CONTINUOUS
 10
-2.129492
 20
4.264831
  0
SEQEND
  8
0
  0
SOLID
  8
PLAN_1
 62
     2
 10
-2.294248
 20
4.264831
 11
-2.235209
 21
4.280575
 12
-2.294248
 22
4.264831
 13
-2.235209
 23
4.249087
  0
POLYLINE
  8
PLAN_1
 62
     2
  6
CONTINUOUS
 66
     1
 40
0.003000
 41
0.003000
  0
VERTEX
  8
PLAN_1
 62
     2
  6
CONTINUOUS
 10
-2.294248
 20
4.264831
  0
VERTEX
  8
PLAN_1
 62
     2
  6
CONTINUOUS
 10
-2.235209
 20
4.280575
  0
VERTEX
  8
PLAN_1
 62
     2
  6
CONTINUOUS
 10
-2.235209
 20
4.249087
  0
VERTEX
  8
PLAN_1
 62
     2
  6
CONTINUOUS
 10
-2.294248
 20
4.264831
  0
SEQEND
  8
0
  0
POLYLINE
  8
PLAN_1
 62
     2
  6
CONTINUOUS
 66
     1
 40
0.003000
 41
0.003000
  0
VERTEX
  8
PLAN_1
 62
     2
  6
CONTINUOUS
 10
-2.446075
 20
4.330622
  0
VERTEX
  8
PLAN_1
 62
     2
  6
CONTINUOUS
 10
-2.444949
 20
4.331744
  0
VERTEX
  8
PLAN_1
 62
     2
  6
CONTINUOUS
 10
-2.443823
 20
4.332307
  0
VERTEX
  8
PLAN_1
 62
     2
  6
CONTINUOUS
 10
-2.442138
 20
4.333433
  0
VERTEX
  8
PLAN_1
 62
     2
  6
CONTINUOUS
 10
-2.440449
 20
4.333996
  0
VERTEX
  8
PLAN_1
 62
     2
  6
CONTINUOUS
 10
-2.438764
 20
4.334555
  0
VERTEX
  8
PLAN_1
 62
     2
  6
CONTINUOUS
 10
-2.436516
 20
4.335118
  0
VERTEX
  8
PLAN_1
 62
     2
  6
CONTINUOUS
 10
-2.434264
 20
4.335118
  0
VERTEX
  8
PLAN_1
 62
     2
  6
CONTINUOUS
 10
-2.432016
 20
4.335118
  0
VERTEX
  8
PLAN_1
 62
     2
  6
CONTINUOUS
 10
-2.427516
 20
4.335118
  0
VERTEX
  8
PLAN_1
 62
     2
  6
CONTINUOUS
 10
-2.423020
 20
4.333996
  0
VERTEX
  8
PLAN_1
 62
     2
  6
CONTINUOUS
 10
-2.419083
 20
4.331744
  0
VERTEX
  8
PLAN_1
 62
     2
  6
CONTINUOUS
 10
-2.415709
 20
4.329496
  0
VERTEX
  8
PLAN_1
 62
     2
  6
CONTINUOUS
 10
-2.412335
 20
4.326122
  0
VERTEX
  8
PLAN_1
 62
     2
  6
CONTINUOUS
 10
-2.410087
 20
4.322185
  0
VERTEX
  8
PLAN_1
 62
     2
  6
CONTINUOUS
 10
-2.408398
 20
4.317126
  0
VERTEX
  8
PLAN_1
 62
     2
  6
CONTINUOUS
 10
-2.407835
 20
4.312063
  0
VERTEX
  8
PLAN_1
 62
     2
  6
CONTINUOUS
 10
-2.408398
 20
4.308689
  0
VERTEX
  8
PLAN_1
 62
     2
  6
CONTINUOUS
 10
-2.408961
 20
4.304756
  0
VERTEX
  8
PLAN_1
 62
     2
  6
CONTINUOUS
 10
-2.410087
 20
4.300256
  0
VERTEX
  8
PLAN_1
 62
     2
  6
CONTINUOUS
 10
-2.412898
 20
4.296319
  0
VERTEX
  8
PLAN_1
 62
     2
  6
CONTINUOUS
 10
-2.414020
 20
4.294071
  0
VERTEX
  8
PLAN_1
 62
     2
  6
CONTINUOUS
 10
-2.416272
 20
4.292382
  0
VERTEX
  8
PLAN_1
 62
     2
  6
CONTINUOUS
 10
-2.417957
 20
4.290697
  0
VERTEX
  8
PLAN_1
 62
     2
  6
CONTINUOUS
 10
-2.420768
 20
4.289008
  0
VERTEX
  8
PLAN_1
 62
     2
  6
CONTINUOUS
 10
-2.423583
 20
4.287886
  0
VERTEX
  8
PLAN_1
 62
     2
  6
CONTINUOUS
 10
-2.426953
 20
4.286760
  0
VERTEX
  8
PLAN_1
 62
     2
  6
CONTINUOUS
 10
-2.430327
 20
4.286197
  0
VERTEX
  8
PLAN_1
 62
     2
  6
CONTINUOUS
 10
-2.434264
 20
4.286197
  0
VERTEX
  8
PLAN_1
 62
     2
  6
CONTINUOUS
 10
-2.438201
 20
4.286197
  0
VERTEX
  8
PLAN_1
 62
     2
  6
CONTINUOUS
 10
-2.442138
 20
4.287323
  0
VERTEX
  8
PLAN_1
 62
     2
  6
CONTINUOUS
 10
-2.445512
 20
4.288449
  0
VERTEX
  8
PLAN_1
 62
     2
  6
CONTINUOUS
 10
-2.449449
 20
4.290134
  0
VERTEX
  8
PLAN_1
 62
     2
  6
CONTINUOUS
 10
-2.452260
 20
4.292945
  0
VERTEX
  8
PLAN_1
 62
     2
  6
CONTINUOUS
 10
-2.455071
 20
4.296319
  0
VERTEX
  8
PLAN_1
 62
     2
  6
CONTINUOUS
 10
-2.456756
 20
4.300819
  0
VERTEX
  8
PLAN_1
 62
     2
  6
CONTINUOUS
 10
-2.457882
 20
4.306441
  0
VERTEX
  8
PLAN_1
 62
     2
  6
CONTINUOUS
 10
-2.448886
 20
4.306441
  0
VERTEX
  8
PLAN_1
 62
     2
  6
CONTINUOUS
 10
-2.448323
 20
4.303630
  0
VERTEX
  8
PLAN_1
 62
     2
  6
CONTINUOUS
 10
-2.447197
 20
4.300819
  0
VERTEX
  8
PLAN_1
 62
     2
  6
CONTINUOUS
 10
-2.445512
 20
4.298571
  0
VERTEX
  8
PLAN_1
 62
     2
  6
CONTINUOUS
 10
-2.443823
 20
4.296882
  0
VERTEX
  8
PLAN_1
 62
     2
  6
CONTINUOUS
 10
-2.441575
 20
4.295756
  0
VERTEX
  8
PLAN_1
 62
     2
  6
CONTINUOUS
 10
-2.438764
 20
4.294634
  0
VERTEX
  8
PLAN_1
 62
     2
  6
CONTINUOUS
 10
-2.435953
 20
4.294071
  0
VERTEX
  8
PLAN_1
 62
     2
  6
CONTINUOUS
 10
-2.433142
 20
4.294071
  0
VERTEX
  8
PLAN_1
 62
     2
  6
CONTINUOUS
 10
-2.429768
 20
4.294634
  0
VERTEX
  8
PLAN_1
 62
     2
  6
CONTINUOUS
 10
-2.426953
 20
4.295756
  0
VERTEX
  8
PLAN_1
 62
     2
  6
CONTINUOUS
 10
-2.424142
 20
4.296882
  0
VERTEX
  8
PLAN_1
 62
     2
  6
CONTINUOUS
 10
-2.421894
 20
4.299130
  0
VERTEX
  8
PLAN_1
 62
     2
  6
CONTINUOUS
 10
-2.420209
 20
4.301382
  0
VERTEX
  8
PLAN_1
 62
     2
  6
CONTINUOUS
 10
-2.419083
 20
4.304193
  0
VERTEX
  8
PLAN_1
 62
     2
  6
CONTINUOUS
 10
-2.417957
 20
4.307567
  0
VERTEX
  8
PLAN_1
 62
     2
  6
CONTINUOUS
 10
-2.417957
 20
4.310941
  0
VERTEX
  8
PLAN_1
 62
     2
  6
CONTINUOUS
 10
-2.417957
 20
4.314874
  0
VERTEX
  8
PLAN_1
 62
     2
  6
CONTINUOUS
 10
-2.419083
 20
4.317689
  0
VERTEX
  8
PLAN_1
 62
     2
  6
CONTINUOUS
 10
-2.420768
 20
4.320500
  0
VERTEX
  8
PLAN_1
 62
     2
  6
CONTINUOUS
 10
-2.422457
 20
4.322748
  0
VERTEX
  8
PLAN_1
 62
     2
  6
CONTINUOUS
 10
-2.424705
 20
4.324996
  0
VERTEX
  8
PLAN_1
 62
     2
  6
CONTINUOUS
 10
-2.427516
 20
4.326122
  0
VERTEX
  8
PLAN_1
 62
     2
  6
CONTINUOUS
 10
-2.430890
 20
4.326685
  0
VERTEX
  8
PLAN_1
 62
     2
  6
CONTINUOUS
 10
-2.434264
 20
4.327248
  0
VERTEX
  8
PLAN_1
 62
     2
  6
CONTINUOUS
 10
-2.435953
 20
4.327248
  0
VERTEX
  8
PLAN_1
 62
     2
  6
CONTINUOUS
 10
-2.437638
 20
4.326685
  0
VERTEX
  8
PLAN_1
 62
     2
  6
CONTINUOUS
 10
-2.439886
 20
4.326122
  0
VERTEX
  8
PLAN_1
 62
     2
  6
CONTINUOUS
 10
-2.441575
 20
4.325559
  0
VERTEX
  8
PLAN_1
 62
     2
  6
CONTINUOUS
 10
-2.443260
 20
4.324437
  0
VERTEX
  8
PLAN_1
 62
     2
  6
CONTINUOUS
 10
-2.444949
 20
4.323311
  0
VERTEX
  8
PLAN_1
 62
     2
  6
CONTINUOUS
 10
-2.446075
 20
4.321622
  0
VERTEX
  8
PLAN_1
 62
     2
  6
CONTINUOUS
 10
-2.447760
 20
4.319937
  0
VERTEX
  8
PLAN_1
 62
     2
  6
CONTINUOUS
 10
-2.455634
 20
4.320500
  0
VERTEX
  8
PLAN_1
 62
     2
  6
CONTINUOUS
 10
-2.450008
 20
4.359862
  0
VERTEX
  8
PLAN_1
 62
     2
  6
CONTINUOUS
 10
-2.411772
 20
4.359862
  0
VERTEX
  8
PLAN_1
 62
     2
  6
CONTINUOUS
 10
-2.411772
 20
4.350862
  0
VERTEX
  8
PLAN_1
 62
     2
  6
CONTINUOUS
 10
-2.443260
 20
4.350862
  0
VERTEX
  8
PLAN_1
 62
     2
  6
CONTINUOUS
 10
-2.446075
 20
4.330622
  0
SEQEND
  8
0
  0
POLYLINE
  8
PLAN_1
 62
     2
  6
CONTINUOUS
 66
     1
 40
0.003000
 41
0.003000
  0
VERTEX
  8
PLAN_1
 62
     2
  6
CONTINUOUS
 10
-2.394343
 20
4.288449
  0
VERTEX
  8
PLAN_1
 62
     2
  6
CONTINUOUS
 10
-2.388717
 20
4.288449
  0
VERTEX
  8
PLAN_1
 62
     2
  6
CONTINUOUS
 10
-2.389280
 20
4.286197
  0
VERTEX
  8
PLAN_1
 62
     2
  6
CONTINUOUS
 10
-2.389280
 20
4.284512
  0
VERTEX
  8
PLAN_1
 62
     2
  6
CONTINUOUS
 10
-2.389843
 20
4.282823
  0
VERTEX
  8
PLAN_1
 62
     2
  6
CONTINUOUS
 10
-2.389843
 20
4.281138
  0
VERTEX
  8
PLAN_1
 62
     2
  6
CONTINUOUS
 10
-2.390969
 20
4.280012
  0
VERTEX
  8
PLAN_1
 62
     2
  6
CONTINUOUS
 10
-2.391528
 20
4.278890
  0
VERTEX
  8
PLAN_1
 62
     2
  6
CONTINUOUS
 10
-2.393217
 20
4.278327
  0
VERTEX
  8
PLAN_1
 62
     2
  6
CONTINUOUS
 10
-2.394343
 20
4.277764
  0
VERTEX
  8
PLAN_1
 62
     2
  6
CONTINUOUS
 10
-2.394343
 20
4.272705
  0
VERTEX
  8
PLAN_1
 62
     2
  6
CONTINUOUS
 10
-2.393217
 20
4.273264
  0
VERTEX
  8
PLAN_1
 62
     2
  6
CONTINUOUS
 10
-2.392091
 20
4.273827
  0
VERTEX
  8
PLAN_1
 62
     2
  6
CONTINUOUS
 10
-2.390406
 20
4.274390
  0
VERTEX
  8
PLAN_1
 62
     2
  6
CONTINUOUS
 10
-2.388154
 20
4.276075
  0
VERTEX
  8
PLAN_1
 62
     2
  6
CONTINUOUS
 10
-2.386469
 20
4.277764
  0
VERTEX
  8
PLAN_1
 62
     2
  6
CONTINUOUS
 10
-2.385343
 20
4.280575
  0
VERTEX
  8
PLAN_1
 62
     2
  6
CONTINUOUS
 10
-2.384220
 20
4.284512
  0
VERTEX
  8
PLAN_1
 62
     2
  6
CONTINUOUS
 10
-2.383657
 20
4.289008
  0
VERTEX
  8
PLAN_1
 62
     2
  6
CONTINUOUS
 10
-2.383657
 20
4.299130
  0
VERTEX
  8
PLAN_1
 62
     2
  6
CONTINUOUS
 10
-2.394343
 20
4.299130
  0
VERTEX
  8
PLAN_1
 62
     2
  6
CONTINUOUS
 10
-2.394343
 20
4.288449
  0
SEQEND
  8
0
  0
POLYLINE
  8
PLAN_1
 62
     2
  6
CONTINUOUS
 66
     1
 40
0.003000
 41
0.003000
  0
VERTEX
  8
PLAN_1
 62
     2
  6
CONTINUOUS
 10
-2.359476
 20
4.330622
  0
VERTEX
  8
PLAN_1
 62
     2
  6
CONTINUOUS
 10
-2.358354
 20
4.331744
  0
VERTEX
  8
PLAN_1
 62
     2
  6
CONTINUOUS
 10
-2.356665
 20
4.332307
  0
VERTEX
  8
PLAN_1
 62
     2
  6
CONTINUOUS
 10
-2.354980
 20
4.333433
  0
VERTEX
  8
PLAN_1
 62
     2
  6
CONTINUOUS
 10
-2.353291
 20
4.333996
  0
VERTEX
  8
PLAN_1
 62
     2
  6
CONTINUOUS
 10
-2.351606
 20
4.334555
  0
VERTEX
  8
PLAN_1
 62
     2
  6
CONTINUOUS
 10
-2.349917
 20
4.335118
  0
VERTEX
  8
PLAN_1
 62
     2
  6
CONTINUOUS
 10
-2.347669
 20
4.335118
  0
VERTEX
  8
PLAN_1
 62
     2
  6
CONTINUOUS
 10
-2.345421
 20
4.335118
  0
VERTEX
  8
PLAN_1
 62
     2
  6
CONTINUOUS
 10
-2.340921
 20
4.335118
  0
VERTEX
  8
PLAN_1
 62
     2
  6
CONTINUOUS
 10
-2.336421
 20
4.333996
  0
VERTEX
  8
PLAN_1
 62
     2
  6
CONTINUOUS
 10
-2.332488
 20
4.331744
  0
VERTEX
  8
PLAN_1
 62
     2
  6
CONTINUOUS
 10
-2.328551
 20
4.329496
  0
VERTEX
  8
PLAN_1
 62
     2
  6
CONTINUOUS
 10
-2.325740
 20
4.326122
  0
VERTEX
  8
PLAN_1
 62
     2
  6
CONTINUOUS
 10
-2.323488
 20
4.322185
  0
VERTEX
  8
PLAN_1
 62
     2
  6
CONTINUOUS
 10
-2.321803
 20
4.317126
  0
VERTEX
  8
PLAN_1
 62
     2
  6
CONTINUOUS
 10
-2.321240
 20
4.312063
  0
VERTEX
  8
PLAN_1
 62
     2
  6
CONTINUOUS
 10
-2.321240
 20
4.308689
  0
VERTEX
  8
PLAN_1
 62
     2
  6
CONTINUOUS
 10
-2.322366
 20
4.304756
  0
VERTEX
  8
PLAN_1
 62
     2
  6
CONTINUOUS
 10
-2.323488
 20
4.300256
  0
VERTEX
  8
PLAN_1
 62
     2
  6
CONTINUOUS
 10
-2.325740
 20
4.296319
  0
VERTEX
  8
PLAN_1
 62
     2
  6
CONTINUOUS
 10
-2.327425
 20
4.294071
  0
VERTEX
  8
PLAN_1
 62
     2
  6
CONTINUOUS
 10
-2.329114
 20
4.292382
  0
VERTEX
  8
PLAN_1
 62
     2
  6
CONTINUOUS
 10
-2.331362
 20
4.290697
  0
VERTEX
  8
PLAN_1
 62
     2
  6
CONTINUOUS
 10
-2.333610
 20
4.289008
  0
VERTEX
  8
PLAN_1
 62
     2
  6
CONTINUOUS
 10
-2.336984
 20
4.287886
  0
VERTEX
  8
PLAN_1
 62
     2
  6
CONTINUOUS
 10
-2.339795
 20
4.286760
  0
VERTEX
  8
PLAN_1
 62
     2
  6
CONTINUOUS
 10
-2.343732
 20
4.286197
  0
VERTEX
  8
PLAN_1
 62
     2
  6
CONTINUOUS
 10
-2.347669
 20
4.286197
  0
VERTEX
  8
PLAN_1
 62
     2
  6
CONTINUOUS
 10
-2.351606
 20
4.286197
  0
VERTEX
  8
PLAN_1
 62
     2
  6
CONTINUOUS
 10
-2.354980
 20
4.287323
  0
VERTEX
  8
PLAN_1
 62
     2
  6
CONTINUOUS
 10
-2.358913
 20
4.288449
  0
VERTEX
  8
PLAN_1
 62
     2
  6
CONTINUOUS
 10
-2.362287
 20
4.290134
  0
VERTEX
  8
PLAN_1
 62
     2
  6
CONTINUOUS
 10
-2.365661
 20
4.292945
  0
VERTEX
  8
PLAN_1
 62
     2
  6
CONTINUOUS
 10
-2.368476
 20
4.296319
  0
VERTEX
  8
PLAN_1
 62
     2
  6
CONTINUOUS
 10
-2.370161
 20
4.300819
  0
VERTEX
  8
PLAN_1
 62
     2
  6
CONTINUOUS
 10
-2.371287
 20
4.306441
  0
VERTEX
  8
PLAN_1
 62
     2
  6
CONTINUOUS
 10
-2.361728
 20
4.306441
  0
VERTEX
  8
PLAN_1
 62
     2
  6
CONTINUOUS
 10
-2.361165
 20
4.303630
  0
VERTEX
  8
PLAN_1
 62
     2
  6
CONTINUOUS
 10
-2.360039
 20
4.300819
  0
VERTEX
  8
PLAN_1
 62
     2
  6
CONTINUOUS
 10
-2.358913
 20
4.298571
  0
VERTEX
  8
PLAN_1
 62
     2
  6
CONTINUOUS
 10
-2.356665
 20
4.296882
  0
VERTEX
  8
PLAN_1
 62
     2
  6
CONTINUOUS
 10
-2.354417
 20
4.295756
  0
VERTEX
  8
PLAN_1
 62
     2
  6
CONTINUOUS
 10
-2.352169
 20
4.294634
  0
VERTEX
  8
PLAN_1
 62
     2
  6
CONTINUOUS
 10
-2.349354
 20
4.294071
  0
VERTEX
  8
PLAN_1
 62
     2
  6
CONTINUOUS
 10
-2.346543
 20
4.294071
  0
VERTEX
  8
PLAN_1
 62
     2
  6
CONTINUOUS
 10
-2.343169
 20
4.294634
  0
VERTEX
  8
PLAN_1
 62
     2
  6
CONTINUOUS
 10
-2.339795
 20
4.295756
  0
VERTEX
  8
PLAN_1
 62
     2
  6
CONTINUOUS
 10
-2.337547
 20
4.296882
  0
VERTEX
  8
PLAN_1
 62
     2
  6
CONTINUOUS
 10
-2.335299
 20
4.299130
  0
VERTEX
  8
PLAN_1
 62
     2
  6
CONTINUOUS
 10
-2.333047
 20
4.301382
  0
VERTEX
  8
PLAN_1
 62
     2
  6
CONTINUOUS
 10
-2.331925
 20
4.304193
  0
VERTEX
  8
PLAN_1
 62
     2
  6
CONTINUOUS
 10
-2.331362
 20
4.307567
  0
VERTEX
  8
PLAN_1
 62
     2
  6
CONTINUOUS
 10
-2.330799
 20
4.310941
  0
VERTEX
  8
PLAN_1
 62
     2
  6
CONTINUOUS
 10
-2.331362
 20
4.314874
  0
VERTEX
  8
PLAN_1
 62
     2
  6
CONTINUOUS
 10
-2.331925
 20
4.317689
  0
VERTEX
  8
PLAN_1
 62
     2
  6
CONTINUOUS
 10
-2.333610
 20
4.320500
  0
VERTEX
  8
PLAN_1
 62
     2
  6
CONTINUOUS
 10
-2.335862
 20
4.322748
  0
VERTEX
  8
PLAN_1
 62
     2
  6
CONTINUOUS
 10
-2.338110
 20
4.324996
  0
VERTEX
  8
PLAN_1
 62
     2
  6
CONTINUOUS
 10
-2.340921
 20
4.326122
  0
VERTEX
  8
PLAN_1
 62
     2
  6
CONTINUOUS
 10
-2.343732
 20
4.326685
  0
VERTEX
  8
PLAN_1
 62
     2
  6
CONTINUOUS
 10
-2.347106
 20
4.327248
  0
VERTEX
  8
PLAN_1
 62
     2
  6
CONTINUOUS
 10
-2.349354
 20
4.327248
  0
VERTEX
  8
PLAN_1
 62
     2
  6
CONTINUOUS
 10
-2.351043
 20
4.326685
  0
VERTEX
  8
PLAN_1
 62
     2
  6
CONTINUOUS
 10
-2.352728
 20
4.326122
  0
VERTEX
  8
PLAN_1
 62
     2
  6
CONTINUOUS
 10
-2.354417
 20
4.325559
  0
VERTEX
  8
PLAN_1
 62
     2
  6
CONTINUOUS
 10
-2.356102
 20
4.324437
  0
VERTEX
  8
PLAN_1
 62
     2
  6
CONTINUOUS
 10
-2.357791
 20
4.323311
  0
VERTEX
  8
PLAN_1
 62
     2
  6
CONTINUOUS
 10
-2.359476
 20
4.321622
  0
VERTEX
  8
PLAN_1
 62
     2
  6
CONTINUOUS
 10
-2.360602
 20
4.319937
  0
VERTEX
  8
PLAN_1
 62
     2
  6
CONTINUOUS
 10
-2.368476
 20
4.320500
  0
VERTEX
  8
PLAN_1
 62
     2
  6
CONTINUOUS
 10
-2.362850
 20
4.359862
  0
VERTEX
  8
PLAN_1
 62
     2
  6
CONTINUOUS
 10
-2.325177
 20
4.359862
  0
VERTEX
  8
PLAN_1
 62
     2
  6
CONTINUOUS
 10
-2.325177
 20
4.350862
  0
VERTEX
  8
PLAN_1
 62
     2
  6
CONTINUOUS
 10
-2.356102
 20
4.350862
  0
VERTEX
  8
PLAN_1
 62
     2
  6
CONTINUOUS
 10
-2.359476
 20
4.330622
  0
SEQEND
  8
0
  0
POLYLINE
  8
PLAN_1
 62
     2
  6
CONTINUOUS
 66
     1
 40
0.003933
 41
0.003933
  0
VERTEX
  8
PLAN_1
 62
     2
  6
CONTINUOUS
 10
-2.211028
 20
4.087142
  0
VERTEX
  8
PLAN_1
 62
     2
  6
CONTINUOUS
 10
-2.211028
 20
4.243465
  0
SEQEND
  8
0
  0
POLYLINE
  8
PLAN_1
 62
     2
  6
CONTINUOUS
 66
     1
 40
0.003933
 41
0.003933
  0
VERTEX
  8
PLAN_1
 62
     2
  6
CONTINUOUS
 10
-2.294248
 20
4.288449
  0
VERTEX
  8
PLAN_1
 62
     2
  6
CONTINUOUS
 10
-2.294248
 20
4.128189
  0
SEQEND
  8
0
  0
POLYLINE
  8
PLAN_1
 62
     2
  6
CONTINUOUS
 66
     1
 40
0.003933
 41
0.003933
  0
VERTEX
  8
PLAN_1
 62
     2
  6
CONTINUOUS
 10
-2.129492
 20
4.288449
  0
VERTEX
  8
PLAN_1
 62
     2
  6
CONTINUOUS
 10
-2.129492
 20
4.128189
  0
SEQEND
  8
0
  0
POLYLINE
  8
PLAN_1
 62
     2
  6
CONTINUOUS
 66
     1
 40
0.003933
 41
0.003933
  0
VERTEX
  8
PLAN_1
 62
     2
  6
CONTINUOUS
 10
-1.847217
 20
4.268768
  0
VERTEX
  8
PLAN_1
 62
     2
  6
CONTINUOUS
 10
-1.847217
 20
4.112445
  0
SEQEND
  8
0
  0
POLYLINE
  8
PLAN_1
 62
     2
  6
CONTINUOUS
 66
     1
 40
0.003933
 41
0.003933
  0
VERTEX
  8
PLAN_1
 62
     2
  6
CONTINUOUS
 10
-0.152417
 20
1.272224
  0
VERTEX
  8
PLAN_1
 62
     2
  6
CONTINUOUS
 10
-0.152417
 20
4.427902
  0
SEQEND
  8
0
  0
POLYLINE
  8
PLAN_1
 62
     2
  6
CONTINUOUS
 66
     1
 40
0.003933
 41
0.003933
  0
VERTEX
  8
PLAN_1
 62
     2
  6
CONTINUOUS
 10
-2.211028
 20
4.285075
  0
VERTEX
  8
PLAN_1
 62
     2
  6
CONTINUOUS
 10
-2.211028
 20
4.427902
  0
SEQEND
  8
0
  0
POLYLINE
  8
PLAN_1
 62
     2
  6
CONTINUOUS
 66
     1
 40
0.003000
 41
0.003000
  0
VERTEX
  8
PLAN_1
 62
     2
  6
CONTINUOUS
 10
-0.042768
 20
0.989949
  0
VERTEX
  8
PLAN_1
 62
     2
  6
CONTINUOUS
 10
-0.042768
 20
0.979827
  0
VERTEX
  8
PLAN_1
 62
     2
  6
CONTINUOUS
 10
-0.094500
 20
0.979827
  0
VERTEX
  8
PLAN_1
 62
     2
  6
CONTINUOUS
 10
-0.094500
 20
0.962957
  0
VERTEX
  8
PLAN_1
 62
     2
  6
CONTINUOUS
 10
-0.101811
 20
0.962957
  0
VERTEX
  8
PLAN_1
 62
     2
  6
CONTINUOUS
 10
-0.101811
 20
0.966894
  0
VERTEX
  8
PLAN_1
 62
     2
  6
CONTINUOUS
 10
-0.102370
 20
0.970268
  0
VERTEX
  8
PLAN_1
 62
     2
  6
CONTINUOUS
 10
-0.103496
 20
0.973642
  0
VERTEX
  8
PLAN_1
 62
     2
  6
CONTINUOUS
 10
-0.104622
 20
0.975890
  0
VERTEX
  8
PLAN_1
 62
     2
  6
CONTINUOUS
 10
-0.106307
 20
0.978138
  0
VERTEX
  8
PLAN_1
 62
     2
  6
CONTINUOUS
 10
-0.108559
 20
0.979827
  0
VERTEX
  8
PLAN_1
 62
     2
  6
CONTINUOUS
 10
-0.111370
 20
0.981512
  0
VERTEX
  8
PLAN_1
 62
     2
  6
CONTINUOUS
 10
-0.115866
 20
0.982638
  0
VERTEX
  8
PLAN_1
 62
     2
  6
CONTINUOUS
 10
-0.115866
 20
0.989949
  0
VERTEX
  8
PLAN_1
 62
     2
  6
CONTINUOUS
 10
-0.042768
 20
0.989949
  0
SEQEND
  8
0
  0
POLYLINE
  8
PLAN_1
 62
     2
  6
CONTINUOUS
 66
     1
 40
0.003000
 41
0.003000
  0
VERTEX
  8
PLAN_1
 62
     2
  6
CONTINUOUS
 10
-0.084378
 20
1.033807
  0
VERTEX
  8
PLAN_1
 62
     2
  6
CONTINUOUS
 10
-0.083815
 20
1.034370
  0
VERTEX
  8
PLAN_1
 62
     2
  6
CONTINUOUS
 10
-0.083815
 20
1.034933
  0
VERTEX
  8
PLAN_1
 62
     2
  6
CONTINUOUS
 10
-0.083815
 20
1.035492
  0
VERTEX
  8
PLAN_1
 62
     2
  6
CONTINUOUS
 10
-0.083815
 20
1.036055
  0
VERTEX
  8
PLAN_1
 62
     2
  6
CONTINUOUS
 10
-0.083815
 20
1.036618
  0
VERTEX
  8
PLAN_1
 62
     2
  6
CONTINUOUS
 10
-0.083815
 20
1.037181
  0
VERTEX
  8
PLAN_1
 62
     2
  6
CONTINUOUS
 10
-0.083815
 20
1.037744
  0
VERTEX
  8
PLAN_1
 62
     2
  6
CONTINUOUS
 10
-0.083815
 20
1.038307
  0
VERTEX
  8
PLAN_1
 62
     2
  6
CONTINUOUS
 10
-0.083815
 20
1.041118
  0
VERTEX
  8
PLAN_1
 62
     2
  6
CONTINUOUS
 10
-0.084378
 20
1.043366
  0
VERTEX
  8
PLAN_1
 62
     2
  6
CONTINUOUS
 10
-0.085504
 20
1.045614
  0
VERTEX
  8
PLAN_1
 62
     2
  6
CONTINUOUS
 10
-0.086626
 20
1.047866
  0
VERTEX
  8
PLAN_1
 62
     2
  6
CONTINUOUS
 10
-0.088315
 20
1.049551
  0
VERTEX
  8
PLAN_1
 62
     2
  6
CONTINUOUS
 10
-0.090000
 20
1.051240
  0
VERTEX
  8
PLAN_1
 62
     2
  6
CONTINUOUS
 10
-0.092811
 20
1.051799
  0
VERTEX
  8
PLAN_1
 62
     2
  6
CONTINUOUS
 10
-0.095626
 20
1.052362
  0
VERTEX
  8
PLAN_1
 62
     2
  6
CONTINUOUS
 10
-0.097874
 20
1.052362
  0
VERTEX
  8
PLAN_1
 62
     2
  6
CONTINUOUS
 10
-0.099559
 20
1.051799
  0
VERTEX
  8
PLAN_1
 62
     2
  6
CONTINUOUS
 10
-0.101248
 20
1.050677
  0
VERTEX
  8
PLAN_1
 62
     2
  6
CONTINUOUS
 10
-0.103496
 20
1.049551
  0
VERTEX
  8
PLAN_1
 62
     2
  6
CONTINUOUS
 10
-0.105185
 20
1.047866
  0
VERTEX
  8
PLAN_1
 62
     2
  6
CONTINUOUS
 10
-0.106307
 20
1.045614
  0
VERTEX
  8
PLAN_1
 62
     2
  6
CONTINUOUS
 10
-0.106870
 20
1.042240
  0
VERTEX
  8
PLAN_1
 62
     2
  6
CONTINUOUS
 10
-0.107433
 20
1.038866
  0
VERTEX
  8
PLAN_1
 62
     2
  6
CONTINUOUS
 10
-0.106870
 20
1.034370
  0
VERTEX
  8
PLAN_1
 62
     2
  6
CONTINUOUS
 10
-0.105744
 20
1.030996
  0
VERTEX
  8
PLAN_1
 62
     2
  6
CONTINUOUS
 10
-0.104059
 20
1.028748
  0
VERTEX
  8
PLAN_1
 62
     2
  6
CONTINUOUS
 10
-0.101248
 20
1.027059
  0
VERTEX
  8
PLAN_1
 62
     2
  6
CONTINUOUS
 10
-0.099000
 20
1.025933
  0
VERTEX
  8
PLAN_1
 62
     2
  6
CONTINUOUS
 10
-0.096185
 20
1.024811
  0
VERTEX
  8
PLAN_1
 62
     2
  6
CONTINUOUS
 10
-0.093937
 20
1.024811
  0
VERTEX
  8
PLAN_1
 62
     2
  6
CONTINUOUS
 10
-0.091689
 20
1.024248
  0
VERTEX
  8
PLAN_1
 62
     2
  6
CONTINUOUS
 10
-0.091689
 20
1.015815
  0
VERTEX
  8
PLAN_1
 62
     2
  6
CONTINUOUS
 10
-0.095626
 20
1.015815
  0
VERTEX
  8
PLAN_1
 62
     2
  6
CONTINUOUS
 10
-0.100122
 20
1.016374
  0
VERTEX
  8
PLAN_1
 62
     2
  6
CONTINUOUS
 10
-0.104059
 20
1.018063
  0
VERTEX
  8
PLAN_1
 62
     2
  6
CONTINUOUS
 10
-0.107433
 20
1.020311
  0
VERTEX
  8
PLAN_1
 62
     2
  6
CONTINUOUS
 10
-0.109118
 20
1.021437
  0
VERTEX
  8
PLAN_1
 62
     2
  6
CONTINUOUS
 10
-0.110807
 20
1.023122
  0
VERTEX
  8
PLAN_1
 62
     2
  6
CONTINUOUS
 10
-0.112492
 20
1.025374
  0
VERTEX
  8
PLAN_1
 62
     2
  6
CONTINUOUS
 10
-0.113618
 20
1.027622
  0
VERTEX
  8
PLAN_1
 62
     2
  6
CONTINUOUS
 10
-0.114181
 20
1.029870
  0
VERTEX
  8
PLAN_1
 62
     2
  6
CONTINUOUS
 10
-0.115307
 20
1.032681
  0
VERTEX
  8
PLAN_1
 62
     2
  6
CONTINUOUS
 10
-0.115307
 20
1.035492
  0
VERTEX
  8
PLAN_1
 62
     2
  6
CONTINUOUS
 10
-0.115866
 20
1.039429
  0
VERTEX
  8
PLAN_1
 62
     2
  6
CONTINUOUS
 10
-0.115307
 20
1.043929
  0
VERTEX
  8
PLAN_1
 62
     2
  6
CONTINUOUS
 10
-0.114181
 20
1.048425
  0
VERTEX
  8
PLAN_1
 62
     2
  6
CONTINUOUS
 10
-0.112492
 20
1.052362
  0
VERTEX
  8
PLAN_1
 62
     2
  6
CONTINUOUS
 10
-0.110244
 20
1.055736
  0
VERTEX
  8
PLAN_1
 62
     2
  6
CONTINUOUS
 10
-0.107433
 20
1.058547
  0
VERTEX
  8
PLAN_1
 62
     2
  6
CONTINUOUS
 10
-0.104059
 20
1.060236
  0
VERTEX
  8
PLAN_1
 62
     2
  6
CONTINUOUS
 10
-0.100685
 20
1.061358
  0
VERTEX
  8
PLAN_1
 62
     2
  6
CONTINUOUS
 10
-0.096185
 20
1.061921
  0
VERTEX
  8
PLAN_1
 62
     2
  6
CONTINUOUS
 10
-0.093374
 20
1.061358
  0
VERTEX
  8
PLAN_1
 62
     2
  6
CONTINUOUS
 10
-0.090000
 20
1.060799
  0
VERTEX
  8
PLAN_1
 62
     2
  6
CONTINUOUS
 10
-0.087752
 20
1.059673
  0
VERTEX
  8
PLAN_1
 62
     2
  6
CONTINUOUS
 10
-0.086067
 20
1.058547
  0
VERTEX
  8
PLAN_1
 62
     2
  6
CONTINUOUS
 10
-0.084378
 20
1.056862
  0
VERTEX
  8
PLAN_1
 62
     2
  6
CONTINUOUS
 10
-0.082693
 20
1.055736
  0
VERTEX
  8
PLAN_1
 62
     2
  6
CONTINUOUS
 10
-0.082130
 20
1.054051
  0
VERTEX
  8
PLAN_1
 62
     2
  6
CONTINUOUS
 10
-0.081567
 20
1.052362
  0
VERTEX
  8
PLAN_1
 62
     2
  6
CONTINUOUS
 10
-0.081004
 20
1.052362
  0
VERTEX
  8
PLAN_1
 62
     2
  6
CONTINUOUS
 10
-0.079878
 20
1.055173
  0
VERTEX
  8
PLAN_1
 62
     2
  6
CONTINUOUS
 10
-0.078756
 20
1.057425
  0
VERTEX
  8
PLAN_1
 62
     2
  6
CONTINUOUS
 10
-0.077067
 20
1.059110
  0
VERTEX
  8
PLAN_1
 62
     2
  6
CONTINUOUS
 10
-0.075382
 20
1.061358
  0
VERTEX
  8
PLAN_1
 62
     2
  6
CONTINUOUS
 10
-0.073134
 20
1.062484
  0
VERTEX
  8
PLAN_1
 62
     2
  6
CONTINUOUS
 10
-0.070319
 20
1.063610
  0
VERTEX
  8
PLAN_1
 62
     2
  6
CONTINUOUS
 10
-0.067508
 20
1.064173
  0
VERTEX
  8
PLAN_1
 62
     2
  6
CONTINUOUS
 10
-0.064134
 20
1.064732
  0
VERTEX
  8
PLAN_1
 62
     2
  6
CONTINUOUS
 10
-0.059638
 20
1.064173
  0
VERTEX
  8
PLAN_1
 62
     2
  6
CONTINUOUS
 10
-0.055138
 20
1.063047
  0
VERTEX
  8
PLAN_1
 62
     2
  6
CONTINUOUS
 10
-0.051201
 20
1.061358
  0
VERTEX
  8
PLAN_1
 62
     2
  6
CONTINUOUS
 10
-0.047827
 20
1.058547
  0
VERTEX
  8
PLAN_1
 62
     2
  6
CONTINUOUS
 10
-0.045016
 20
1.054614
  0
VERTEX
  8
PLAN_1
 62
     2
  6
CONTINUOUS
 10
-0.042768
 20
1.050114
  0
VERTEX
  8
PLAN_1
 62
     2
  6
CONTINUOUS
 10
-0.041079
 20
1.044492
  0
VERTEX
  8
PLAN_1
 62
     2
  6
CONTINUOUS
 10
-0.040520
 20
1.038307
  0
VERTEX
  8
PLAN_1
 62
     2
  6
CONTINUOUS
 10
-0.040520
 20
1.036055
  0
VERTEX
  8
PLAN_1
 62
     2
  6
CONTINUOUS
 10
-0.040520
 20
1.034370
  0
VERTEX
  8
PLAN_1
 62
     2
  6
CONTINUOUS
 10
-0.041079
 20
1.032681
  0
VERTEX
  8
PLAN_1
 62
     2
  6
CONTINUOUS
 10
-0.041642
 20
1.030996
  0
VERTEX
  8
PLAN_1
 62
     2
  6
CONTINUOUS
 10
-0.041642
 20
1.029307
  0
VERTEX
  8
PLAN_1
 62
     2
  6
CONTINUOUS
 10
-0.042205
 20
1.027622
  0
VERTEX
  8
PLAN_1
 62
     2
  6
CONTINUOUS
 10
-0.043331
 20
1.025933
  0
VERTEX
  8
PLAN_1
 62
     2
  6
CONTINUOUS
 10
-0.043894
 20
1.024811
  0
VERTEX
  8
PLAN_1
 62
     2
  6
CONTINUOUS
 10
-0.045579
 20
1.022000
  0
VERTEX
  8
PLAN_1
 62
     2
  6
CONTINUOUS
 10
-0.047827
 20
1.019748
  0
VERTEX
  8
PLAN_1
 62
     2
  6
CONTINUOUS
 10
-0.050079
 20
1.018063
  0
VERTEX
  8
PLAN_1
 62
     2
  6
CONTINUOUS
 10
-0.052890
 20
1.016374
  0
VERTEX
  8
PLAN_1
 62
     2
  6
CONTINUOUS
 10
-0.055701
 20
1.015252
  0
VERTEX
  8
PLAN_1
 62
     2
  6
CONTINUOUS
 10
-0.058512
 20
1.014689
  0
VERTEX
  8
PLAN_1
 62
     2
  6
CONTINUOUS
 10
-0.061886
 20
1.014126
  0
VERTEX
  8
PLAN_1
 62
     2
  6
CONTINUOUS
 10
-0.064697
 20
1.013563
  0
VERTEX
  8
PLAN_1
 62
     2
  6
CONTINUOUS
 10
-0.064697
 20
1.023122
  0
VERTEX
  8
PLAN_1
 62
     2
  6
CONTINUOUS
 10
-0.062449
 20
1.023685
  0
VERTEX
  8
PLAN_1
 62
     2
  6
CONTINUOUS
 10
-0.059638
 20
1.023685
  0
VERTEX
  8
PLAN_1
 62
     2
  6
CONTINUOUS
 10
-0.056827
 20
1.024811
  0
VERTEX
  8
PLAN_1
 62
     2
  6
CONTINUOUS
 10
-0.054012
 20
1.025933
  0
VERTEX
  8
PLAN_1
 62
     2
  6
CONTINUOUS
 10
-0.051764
 20
1.028185
  0
VERTEX
  8
PLAN_1
 62
     2
  6
CONTINUOUS
 10
-0.050079
 20
1.030996
  0
VERTEX
  8
PLAN_1
 62
     2
  6
CONTINUOUS
 10
-0.048953
 20
1.034370
  0
VERTEX
  8
PLAN_1
 62
     2
  6
CONTINUOUS
 10
-0.048953
 20
1.038866
  0
VERTEX
  8
PLAN_1
 62
     2
  6
CONTINUOUS
 10
-0.048953
 20
1.042240
  0
VERTEX
  8
PLAN_1
 62
     2
  6
CONTINUOUS
 10
-0.049516
 20
1.045055
  0
VERTEX
  8
PLAN_1
 62
     2
  6
CONTINUOUS
 10
-0.051201
 20
1.047866
  0
VERTEX
  8
PLAN_1
 62
     2
  6
CONTINUOUS
 10
-0.052890
 20
1.050114
  0
VERTEX
  8
PLAN_1
 62
     2
  6
CONTINUOUS
 10
-0.054575
 20
1.052362
  0
VERTEX
  8
PLAN_1
 62
     2
  6
CONTINUOUS
 10
-0.057386
 20
1.053488
  0
VERTEX
  8
PLAN_1
 62
     2
  6
CONTINUOUS
 10
-0.059638
 20
1.054614
  0
VERTEX
  8
PLAN_1
 62
     2
  6
CONTINUOUS
 10
-0.063012
 20
1.054614
  0
VERTEX
  8
PLAN_1
 62
     2
  6
CONTINUOUS
 10
-0.066945
 20
1.054051
  0
VERTEX
  8
PLAN_1
 62
     2
  6
CONTINUOUS
 10
-0.070319
 20
1.052925
  0
VERTEX
  8
PLAN_1
 62
     2
  6
CONTINUOUS
 10
-0.072571
 20
1.051240
  0
VERTEX
  8
PLAN_1
 62
     2
  6
CONTINUOUS
 10
-0.074256
 20
1.048425
  0
VERTEX
  8
PLAN_1
 62
     2
  6
CONTINUOUS
 10
-0.075382
 20
1.045614
  0
VERTEX
  8
PLAN_1
 62
     2
  6
CONTINUOUS
 10
-0.075945
 20
1.042803
  0
VERTEX
  8
PLAN_1
 62
     2
  6
CONTINUOUS
 10
-0.076504
 20
1.039992
  0
VERTEX
  8
PLAN_1
 62
     2
  6
CONTINUOUS
 10
-0.076504
 20
1.037744
  0
VERTEX
  8
PLAN_1
 62
     2
  6
CONTINUOUS
 10
-0.076504
 20
1.037181
  0
VERTEX
  8
PLAN_1
 62
     2
  6
CONTINUOUS
 10
-0.076504
 20
1.036618
  0
VERTEX
  8
PLAN_1
 62
     2
  6
CONTINUOUS
 10
-0.076504
 20
1.036055
  0
VERTEX
  8
PLAN_1
 62
     2
  6
CONTINUOUS
 10
-0.076504
 20
1.035492
  0
VERTEX
  8
PLAN_1
 62
     2
  6
CONTINUOUS
 10
-0.076504
 20
1.034933
  0
VERTEX
  8
PLAN_1
 62
     2
  6
CONTINUOUS
 10
-0.075945
 20
1.034370
  0
VERTEX
  8
PLAN_1
 62
     2
  6
CONTINUOUS
 10
-0.075945
 20
1.033807
  0
VERTEX
  8
PLAN_1
 62
     2
  6
CONTINUOUS
 10
-0.084378
 20
1.033807
  0
SEQEND
  8
0
  0
POLYLINE
  8
PLAN_1
 62
     2
  6
CONTINUOUS
 66
     1
 40
0.003000
 41
0.003000
  0
VERTEX
  8
PLAN_1
 62
     2
  6
CONTINUOUS
 10
-0.089437
 20
1.072606
  0
VERTEX
  8
PLAN_1
 62
     2
  6
CONTINUOUS
 10
-0.093374
 20
1.073169
  0
VERTEX
  8
PLAN_1
 62
     2
  6
CONTINUOUS
 10
-0.097311
 20
1.073732
  0
VERTEX
  8
PLAN_1
 62
     2
  6
CONTINUOUS
 10
-0.100685
 20
1.074291
  0
VERTEX
  8
PLAN_1
 62
     2
  6
CONTINUOUS
 10
-0.103496
 20
1.075417
  0
VERTEX
  8
PLAN_1
 62
     2
  6
CONTINUOUS
 10
-0.106307
 20
1.077106
  0
VERTEX
  8
PLAN_1
 62
     2
  6
CONTINUOUS
 10
-0.107996
 20
1.078791
  0
VERTEX
  8
PLAN_1
 62
     2
  6
CONTINUOUS
 10
-0.110244
 20
1.080480
  0
VERTEX
  8
PLAN_1
 62
     2
  6
CONTINUOUS
 10
-0.111370
 20
1.082165
  0
VERTEX
  8
PLAN_1
 62
     2
  6
CONTINUOUS
 10
-0.113618
 20
1.086665
  0
VERTEX
  8
PLAN_1
 62
     2
  6
CONTINUOUS
 10
-0.114744
 20
1.090598
  0
VERTEX
  8
PLAN_1
 62
     2
  6
CONTINUOUS
 10
-0.115307
 20
1.094535
  0
VERTEX
  8
PLAN_1
 62
     2
  6
CONTINUOUS
 10
-0.115866
 20
1.097909
  0
VERTEX
  8
PLAN_1
 62
     2
  6
CONTINUOUS
 10
-0.115307
 20
1.102409
  0
VERTEX
  8
PLAN_1
 62
     2
  6
CONTINUOUS
 10
-0.114181
 20
1.106906
  0
VERTEX
  8
PLAN_1
 62
     2
  6
CONTINUOUS
 10
-0.112492
 20
1.110843
  0
VERTEX
  8
PLAN_1
 62
     2
  6
CONTINUOUS
 10
-0.109681
 20
1.114217
  0
VERTEX
  8
PLAN_1
 62
     2
  6
CONTINUOUS
 10
-0.106870
 20
1.117028
  0
VERTEX
  8
PLAN_1
 62
     2
  6
CONTINUOUS
 10
-0.102933
 20
1.119280
  0
VERTEX
  8
PLAN_1
 62
     2
  6
CONTINUOUS
 10
-0.098437
 20
1.120402
  0
VERTEX
  8
PLAN_1
 62
     2
  6
CONTINUOUS
 10
-0.093937
 20
1.120965
  0
VERTEX
  8
PLAN_1
 62
     2
  6
CONTINUOUS
 10
-0.089437
 20
1.120402
  0
VERTEX
  8
PLAN_1
 62
     2
  6
CONTINUOUS
 10
-0.085504
 20
1.119280
  0
VERTEX
  8
PLAN_1
 62
     2
  6
CONTINUOUS
 10
-0.081567
 20
1.117591
  0
VERTEX
  8
PLAN_1
 62
     2
  6
CONTINUOUS
 10
-0.078756
 20
1.115343
  0
VERTEX
  8
PLAN_1
 62
     2
  6
CONTINUOUS
 10
-0.075945
 20
1.112531
  0
VERTEX
  8
PLAN_1
 62
     2
  6
CONTINUOUS
 10
-0.073693
 20
1.109157
  0
VERTEX
  8
PLAN_1
 62
     2
  6
CONTINUOUS
 10
-0.071445
 20
1.105220
  0
VERTEX
  8
PLAN_1
 62
     2
  6
CONTINUOUS
 10
-0.069197
 20
1.101283
  0
VERTEX
  8
PLAN_1
 62
     2
  6
CONTINUOUS
 10
-0.065260
 20
1.093972
  0
VERTEX
  8
PLAN_1
 62
     2
  6
CONTINUOUS
 10
-0.063012
 20
1.090598
  0
VERTEX
  8
PLAN_1
 62
     2
  6
CONTINUOUS
 10
-0.061323
 20
1.087787
  0
VERTEX
  8
PLAN_1
 62
     2
  6
CONTINUOUS
 10
-0.059075
 20
1.085539
  0
VERTEX
  8
PLAN_1
 62
     2
  6
CONTINUOUS
 10
-0.057386
 20
1.083854
  0
VERTEX
  8
PLAN_1
 62
     2
  6
CONTINUOUS
 10
-0.055138
 20
1.082728
  0
VERTEX
  8
PLAN_1
 62
     2
  6
CONTINUOUS
 10
-0.054012
 20
1.082165
  0
VERTEX
  8
PLAN_1
 62
     2
  6
CONTINUOUS
 10
-0.052327
 20
1.081602
  0
VERTEX
  8
PLAN_1
 62
     2
  6
CONTINUOUS
 10
-0.051201
 20
1.081039
  0
VERTEX
  8
PLAN_1
 62
     2
  6
CONTINUOUS
 10
-0.051201
 20
1.120965
  0
VERTEX
  8
PLAN_1
 62
     2
  6
CONTINUOUS
 10
-0.042768
 20
1.120965
  0
VERTEX
  8
PLAN_1
 62
     2
  6
CONTINUOUS
 10
-0.042768
 20
1.070921
  0
VERTEX
  8
PLAN_1
 62
     2
  6
CONTINUOUS
 10
-0.047827
 20
1.071480
  0
VERTEX
  8
PLAN_1
 62
     2
  6
CONTINUOUS
 10
-0.052890
 20
1.072606
  0
VERTEX
  8
PLAN_1
 62
     2
  6
CONTINUOUS
 10
-0.056827
 20
1.073732
  0
VERTEX
  8
PLAN_1
 62
     2
  6
CONTINUOUS
 10
-0.060760
 20
1.075980
  0
VERTEX
  8
PLAN_1
 62
     2
  6
CONTINUOUS
 10
-0.063571
 20
1.078228
  0
VERTEX
  8
PLAN_1
 62
     2
  6
CONTINUOUS
 10
-0.066945
 20
1.081039
  0
VERTEX
  8
PLAN_1
 62
     2
  6
CONTINUOUS
 10
-0.069197
 20
1.084413
  0
VERTEX
  8
PLAN_1
 62
     2
  6
CONTINUOUS
 10
-0.071445
 20
1.087787
  0
VERTEX
  8
PLAN_1
 62
     2
  6
CONTINUOUS
 10
-0.077067
 20
1.097909
  0
VERTEX
  8
PLAN_1
 62
     2
  6
CONTINUOUS
 10
-0.078756
 20
1.100720
  0
VERTEX
  8
PLAN_1
 62
     2
  6
CONTINUOUS
 10
-0.080441
 20
1.102972
  0
VERTEX
  8
PLAN_1
 62
     2
  6
CONTINUOUS
 10
-0.082130
 20
1.105220
  0
VERTEX
  8
PLAN_1
 62
     2
  6
CONTINUOUS
 10
-0.083815
 20
1.107469
  0
VERTEX
  8
PLAN_1
 62
     2
  6
CONTINUOUS
 10
-0.085504
 20
1.109157
  0
VERTEX
  8
PLAN_1
 62
     2
  6
CONTINUOUS
 10
-0.088315
 20
1.110280
  0
VERTEX
  8
PLAN_1
 62
     2
  6
CONTINUOUS
 10
-0.091126
 20
1.110843
  0
VERTEX
  8
PLAN_1
 62
     2
  6
CONTINUOUS
 10
-0.093937
 20
1.110843
  0
VERTEX
  8
PLAN_1
 62
     2
  6
CONTINUOUS
 10
-0.096185
 20
1.110843
  0
VERTEX
  8
PLAN_1
 62
     2
  6
CONTINUOUS
 10
-0.099000
 20
1.110280
  0
VERTEX
  8
PLAN_1
 62
     2
  6
CONTINUOUS
 10
-0.100685
 20
1.109157
  0
VERTEX
  8
PLAN_1
 62
     2
  6
CONTINUOUS
 10
-0.102933
 20
1.108031
  0
VERTEX
  8
PLAN_1
 62
     2
  6
CONTINUOUS
 10
-0.104622
 20
1.105783
  0
VERTEX
  8
PLAN_1
 62
     2
  6
CONTINUOUS
 10
-0.106307
 20
1.103531
  0
VERTEX
  8
PLAN_1
 62
     2
  6
CONTINUOUS
 10
-0.106870
 20
1.100157
  0
VERTEX
  8
PLAN_1
 62
     2
  6
CONTINUOUS
 10
-0.107433
 20
1.096787
  0
VERTEX
  8
PLAN_1
 62
     2
  6
CONTINUOUS
 10
-0.107433
 20
1.093972
  0
VERTEX
  8
PLAN_1
 62
     2
  6
CONTINUOUS
 10
-0.106870
 20
1.092287
  0
VERTEX
  8
PLAN_1
 62
     2
  6
CONTINUOUS
 10
-0.106307
 20
1.090039
  0
VERTEX
  8
PLAN_1
 62
     2
  6
CONTINUOUS
 10
-0.105185
 20
1.088350
  0
VERTEX
  8
PLAN_1
 62
     2
  6
CONTINUOUS
 10
-0.102933
 20
1.086102
  0
VERTEX
  8
PLAN_1
 62
     2
  6
CONTINUOUS
 10
-0.100122
 20
1.084413
  0
VERTEX
  8
PLAN_1
 62
     2
  6
CONTINUOUS
 10
-0.097311
 20
1.083291
  0
VERTEX
  8
PLAN_1
 62
     2
  6
CONTINUOUS
 10
-0.094500
 20
1.082165
  0
VERTEX
  8
PLAN_1
 62
     2
  6
CONTINUOUS
 10
-0.091689
 20
1.082165
  0
VERTEX
  8
PLAN_1
 62
     2
  6
CONTINUOUS
 10
-0.089437
 20
1.081602
  0
VERTEX
  8
PLAN_1
 62
     2
  6
CONTINUOUS
 10
-0.089437
 20
1.072606
  0
SEQEND
  8
0
  0
SOLID
  8
PLAN_1
 62
     2
 10
-0.042768
 20
1.218244
 11
-0.042768
 21
1.207559
 12
-0.053453
 22
1.218244
 13
-0.053453
 23
1.207559
  0
POLYLINE
  8
PLAN_1
 62
     2
  6
CONTINUOUS
 66
     1
 40
0.003000
 41
0.003000
  0
VERTEX
  8
PLAN_1
 62
     2
  6
CONTINUOUS
 10
-0.042768
 20
1.218244
  0
VERTEX
  8
PLAN_1
 62
     2
  6
CONTINUOUS
 10
-0.042768
 20
1.207559
  0
VERTEX
  8
PLAN_1
 62
     2
  6
CONTINUOUS
 10
-0.053453
 20
1.207559
  0
VERTEX
  8
PLAN_1
 62
     2
  6
CONTINUOUS
 10
-0.053453
 20
1.218244
  0
VERTEX
  8
PLAN_1
 62
     2
  6
CONTINUOUS
 10
-0.042768
 20
1.218244
  0
SEQEND
  8
0
  0
SOLID
  8
PLAN_1
 62
     2
 10
-0.042768
 20
1.149079
 11
-0.042768
 21
1.137835
 12
-0.053453
 22
1.149079
 13
-0.053453
 23
1.137835
  0
POLYLINE
  8
PLAN_1
 62
     2
  6
CONTINUOUS
 66
     1
 40
0.003000
 41
0.003000
  0
VERTEX
  8
PLAN_1
 62
     2
  6
CONTINUOUS
 10
-0.042768
 20
1.149079
  0
VERTEX
  8
PLAN_1
 62
     2
  6
CONTINUOUS
 10
-0.042768
 20
1.137835
  0
VERTEX
  8
PLAN_1
 62
     2
  6
CONTINUOUS
 10
-0.053453
 20
1.137835
  0
VERTEX
  8
PLAN_1
 62
     2
  6
CONTINUOUS
 10
-0.053453
 20
1.149079
  0
VERTEX
  8
PLAN_1
 62
     2
  6
CONTINUOUS
 10
-0.042768
 20
1.149079
  0
SEQEND
  8
0
  0
SOLID
  8
PLAN_1
 62
     2
 10
-0.042768
 20
1.183382
 11
-0.042768
 21
1.172697
 12
-0.053453
 22
1.183382
 13
-0.053453
 23
1.172697
  0
POLYLINE
  8
PLAN_1
 62
     2
  6
CONTINUOUS
 66
     1
 40
0.003000
 41
0.003000
  0
VERTEX
  8
PLAN_1
 62
     2
  6
CONTINUOUS
 10
-0.042768
 20
1.183382
  0
VERTEX
  8
PLAN_1
 62
     2
  6
CONTINUOUS
 10
-0.042768
 20
1.172697
  0
VERTEX
  8
PLAN_1
 62
     2
  6
CONTINUOUS
 10
-0.053453
 20
1.172697
  0
VERTEX
  8
PLAN_1
 62
     2
  6
CONTINUOUS
 10
-0.053453
 20
1.183382
  0
VERTEX
  8
PLAN_1
 62
     2
  6
CONTINUOUS
 10
-0.042768
 20
1.183382
  0
SEQEND
  8
0
  0
POLYLINE
  8
PLAN_1
 62
     2
  6
CONTINUOUS
 66
     1
 40
0.003000
 41
0.003000
  0
VERTEX
  8
PLAN_1
 62
     2
  6
CONTINUOUS
 10
-0.042768
 20
1.267728
  0
VERTEX
  8
PLAN_1
 62
     2
  6
CONTINUOUS
 10
-0.042768
 20
1.257606
  0
VERTEX
  8
PLAN_1
 62
     2
  6
CONTINUOUS
 10
-0.094500
 20
1.257606
  0
VERTEX
  8
PLAN_1
 62
     2
  6
CONTINUOUS
 10
-0.094500
 20
1.240736
  0
VERTEX
  8
PLAN_1
 62
     2
  6
CONTINUOUS
 10
-0.101811
 20
1.240736
  0
VERTEX
  8
PLAN_1
 62
     2
  6
CONTINUOUS
 10
-0.101811
 20
1.244673
  0
VERTEX
  8
PLAN_1
 62
     2
  6
CONTINUOUS
 10
-0.102370
 20
1.248610
  0
VERTEX
  8
PLAN_1
 62
     2
  6
CONTINUOUS
 10
-0.103496
 20
1.251421
  0
VERTEX
  8
PLAN_1
 62
     2
  6
CONTINUOUS
 10
-0.104622
 20
1.253669
  0
VERTEX
  8
PLAN_1
 62
     2
  6
CONTINUOUS
 10
-0.106307
 20
1.255917
  0
VERTEX
  8
PLAN_1
 62
     2
  6
CONTINUOUS
 10
-0.108559
 20
1.257606
  0
VERTEX
  8
PLAN_1
 62
     2
  6
CONTINUOUS
 10
-0.111370
 20
1.259291
  0
VERTEX
  8
PLAN_1
 62
     2
  6
CONTINUOUS
 10
-0.115866
 20
1.260417
  0
VERTEX
  8
PLAN_1
 62
     2
  6
CONTINUOUS
 10
-0.115866
 20
1.267728
  0
VERTEX
  8
PLAN_1
 62
     2
  6
CONTINUOUS
 10
-0.042768
 20
1.267728
  0
SEQEND
  8
0
  0
POLYLINE
  8
PLAN_1
 62
     2
  6
CONTINUOUS
 66
     1
 40
0.003000
 41
0.003000
  0
VERTEX
  8
PLAN_1
 62
     2
  6
CONTINUOUS
 10
-0.114181
 20
1.291906
  0
VERTEX
  8
PLAN_1
 62
     2
  6
CONTINUOUS
 10
-0.114181
 20
1.342516
  0
VERTEX
  8
PLAN_1
 62
     2
  6
CONTINUOUS
 10
-0.106307
 20
1.342516
  0
VERTEX
  8
PLAN_1
 62
     2
  6
CONTINUOUS
 10
-0.102370
 20
1.339142
  0
VERTEX
  8
PLAN_1
 62
     2
  6
CONTINUOUS
 10
-0.097311
 20
1.335205
  0
VERTEX
  8
PLAN_1
 62
     2
  6
CONTINUOUS
 10
-0.091126
 20
1.331268
  0
VERTEX
  8
PLAN_1
 62
     2
  6
CONTINUOUS
 10
-0.083815
 20
1.326768
  0
VERTEX
  8
PLAN_1
 62
     2
  6
CONTINUOUS
 10
-0.074819
 20
1.322272
  0
VERTEX
  8
PLAN_1
 62
     2
  6
CONTINUOUS
 10
-0.065260
 20
1.318335
  0
VERTEX
  8
PLAN_1
 62
     2
  6
CONTINUOUS
 10
-0.054575
 20
1.314961
  0
VERTEX
  8
PLAN_1
 62
     2
  6
CONTINUOUS
 10
-0.042768
 20
1.312150
  0
VERTEX
  8
PLAN_1
 62
     2
  6
CONTINUOUS
 10
-0.042768
 20
1.302591
  0
VERTEX
  8
PLAN_1
 62
     2
  6
CONTINUOUS
 10
-0.050079
 20
1.303717
  0
VERTEX
  8
PLAN_1
 62
     2
  6
CONTINUOUS
 10
-0.058512
 20
1.305965
  0
VERTEX
  8
PLAN_1
 62
     2
  6
CONTINUOUS
 10
-0.066945
 20
1.309339
  0
VERTEX
  8
PLAN_1
 62
     2
  6
CONTINUOUS
 10
-0.075382
 20
1.312713
  0
VERTEX
  8
PLAN_1
 62
     2
  6
CONTINUOUS
 10
-0.083252
 20
1.317209
  0
VERTEX
  8
PLAN_1
 62
     2
  6
CONTINUOUS
 10
-0.091126
 20
1.321709
  0
VERTEX
  8
PLAN_1
 62
     2
  6
CONTINUOUS
 10
-0.098437
 20
1.326768
  0
VERTEX
  8
PLAN_1
 62
     2
  6
CONTINUOUS
 10
-0.105185
 20
1.332394
  0
VERTEX
  8
PLAN_1
 62
     2
  6
CONTINUOUS
 10
-0.105185
 20
1.291906
  0
VERTEX
  8
PLAN_1
 62
     2
  6
CONTINUOUS
 10
-0.114181
 20
1.291906
  0
SEQEND
  8
0
  0
POLYLINE
  8
PLAN_1
 62
     2
  6
CONTINUOUS
 66
     1
 40
0.003000
 41
0.003000
  0
VERTEX
  8
PLAN_1
 62
     2
  6
CONTINUOUS
 10
-0.114181
 20
1.349823
  0
VERTEX
  8
PLAN_1
 62
     2
  6
CONTINUOUS
 10
-0.114181
 20
1.400433
  0
VERTEX
  8
PLAN_1
 62
     2
  6
CONTINUOUS
 10
-0.106307
 20
1.400433
  0
VERTEX
  8
PLAN_1
 62
     2
  6
CONTINUOUS
 10
-0.102370
 20
1.397059
  0
VERTEX
  8
PLAN_1
 62
     2
  6
CONTINUOUS
 10
-0.097311
 20
1.393122
  0
VERTEX
  8
PLAN_1
 62
     2
  6
CONTINUOUS
 10
-0.091126
 20
1.389185
  0
VERTEX
  8
PLAN_1
 62
     2
  6
CONTINUOUS
 10
-0.083815
 20
1.384689
  0
VERTEX
  8
PLAN_1
 62
     2
  6
CONTINUOUS
 10
-0.074819
 20
1.380189
  0
VERTEX
  8
PLAN_1
 62
     2
  6
CONTINUOUS
 10
-0.065260
 20
1.376252
  0
VERTEX
  8
PLAN_1
 62
     2
  6
CONTINUOUS
 10
-0.054575
 20
1.372878
  0
VERTEX
  8
PLAN_1
 62
     2
  6
CONTINUOUS
 10
-0.042768
 20
1.370067
  0
VERTEX
  8
PLAN_1
 62
     2
  6
CONTINUOUS
 10
-0.042768
 20
1.359945
  0
VERTEX
  8
PLAN_1
 62
     2
  6
CONTINUOUS
 10
-0.050079
 20
1.361634
  0
VERTEX
  8
PLAN_1
 62
     2
  6
CONTINUOUS
 10
-0.058512
 20
1.363882
  0
VERTEX
  8
PLAN_1
 62
     2
  6
CONTINUOUS
 10
-0.066945
 20
1.367256
  0
VERTEX
  8
PLAN_1
 62
     2
  6
CONTINUOUS
 10
-0.075382
 20
1.370630
  0
VERTEX
  8
PLAN_1
 62
     2
  6
CONTINUOUS
 10
-0.083252
 20
1.375130
  0
VERTEX
  8
PLAN_1
 62
     2
  6
CONTINUOUS
 10
-0.091126
 20
1.379626
  0
VERTEX
  8
PLAN_1
 62
     2
  6
CONTINUOUS
 10
-0.098437
 20
1.384689
  0
VERTEX
  8
PLAN_1
 62
     2
  6
CONTINUOUS
 10
-0.105185
 20
1.390311
  0
VERTEX
  8
PLAN_1
 62
     2
  6
CONTINUOUS
 10
-0.105185
 20
1.349823
  0
VERTEX
  8
PLAN_1
 62
     2
  6
CONTINUOUS
 10
-0.114181
 20
1.349823
  0
SEQEND
  8
0
  0
ENDSEC
  0
EOF
