999
DXF file: C:\Users\sesa63760\Dev\_Creo\CAD\MCADID0004829_3D-CAD\drw0001_5.dxf
999
Pro/ENGINEER 2019471 by Parametric Technology Corporation
  0
SECTION
  2
HEADER
  9
$ACADVER
  1
AC1024
  9
$DWGCODEPAGE
  3
ANSI_1252
  9
$EXTMAX
 10
74.6323144297
 20
105.551416122
 30
0.0
  9
$EXTMIN
 10
0.0
 20
0.0
 30
0.0
  9
$LIMMIN
 10
0.0
 20
0.0
  9
$LIMMAX
 10
74.6323144297
 20
105.551416122
  9
$VIEWCTR
 10
37.3161572149
 20
52.775708061
  9
$VIEWSIZE
 40
105.551416122
  9
$CLAYER
  8
0
  9
$LTSCALE
 40
6.8803886065
  9
$CELTYPE
  6
BYLAYER
  9
$DIMSCALE
 40
1.0
  9
$DIMASZ
 40
0.8884799337
  9
$DIMEXO
 40
1.0
  9
$DIMDLI
 40
4.7537230372
  9
$DIMEXE
 40
1.0
  9
$DIMCEN
 40
1.125881772
  9
$DIMLFAC
 40
1.0
  9
$DIMBLK
  1
_FILLED
  9
$DIMALT
 70
0
  9
$DIMALTF
 40
0.0393700787
  9
$DIMTXT
 40
1.2438719072
  9
$DIMTOL
 70
1
  9
$DIMLIM
 70
0
  9
$DIMTFAC
 40
1.0
  9
$DIMTP
 40
0.01
  9
$DIMTM
 40
0.01
  9
$DIMGAP
 40
0.625
  9
$DIMDSEP
 70
46
  9
$AUNITS
 70
0
  9
$PDMODE
 70
3
  9
$PDSIZE
 40
0.3125
  9
$HANDSEED
  5
25A
  9
$TILEMODE
 70
1
  9
$MEASUREMENT
 70
1
  9
$INSUNITS
 70
4
  0
ENDSEC
  0
SECTION
  2
CLASSES
  0
CLASS
  1
ACDBDICTIONARYWDFLT
  2
AcDbDictionaryWithDefault
  3
AutoCAD 2000
 90
0
 91
1
280
0
281
0
  0
CLASS
  1
ACDBPLACEHOLDER
  2
AcDbPlaceHolder
  3
AutoCAD 2000
 90
0
 91
1
280
0
281
0
  0
CLASS
  1
LAYOUT
  2
AcDbLayout
  3
AutoCAD 2000
 90
0
 91
0
280
0
281
0
  0
ENDSEC
  0
SECTION
  2
TABLES
  0
TABLE
  2
VPORT
  5
8
100
AcDbSymbolTable
 70
2
  0
VPORT
  5
1F4
100
AcDbSymbolTableRecord
100
AcDbViewportTableRecord
  2
*ACTIVE
 70
0
 10
0.0
 20
0.0
 11
1.0
 21
1.0
 12
37.3161572149
 22
52.775708061
 13
0.0
 23
0.0
 14
1.0
 24
1.0
 15
0.0
 25
0.0
 16
0.0
 26
0.0
 36
1.0
 17
0.0
 27
0.0
 37
0.0
 40
105.551416122
 41
0.7070707071
 42
50.0
 43
0.0
 44
0.0
 50
0.0
 51
0.0
 71
0
 72
100
 73
1
 74
1
 75
0
 76
0
 77
0
 78
0
  0
ENDTAB
  0
TABLE
  2
LTYPE
  5
5
100
AcDbSymbolTable
 70
6
  0
LTYPE
  5
14
100
AcDbSymbolTableRecord
100
AcDbLinetypeTableRecord
  2
BYBLOCK
 70
0
  3

 72
65
 73
0
 40
0.0
  0
LTYPE
  5
15
100
AcDbSymbolTableRecord
100
AcDbLinetypeTableRecord
  2
BYLAYER
 70
0
  3

 72
65
 73
0
 40
0.0
  0
LTYPE
  5
16
100
AcDbSymbolTableRecord
100
AcDbLinetypeTableRecord
  2
CONTINUOUS
 70
64
  3
Solid line
 72
65
 73
0
 40
0.0
  0
LTYPE
  5
1F5
100
AcDbSymbolTableRecord
100
AcDbLinetypeTableRecord
  2
CENTER
 70
64
  3
____ _ ____ _ ____ _ ____ _ ____ _ ____ _ ____
 72
65
 73
4
 40
0.6
 49
0.375
 74
0
 49
-0.075
 74
0
 49
0.075
 74
0
 49
-0.075
 74
0
  0
LTYPE
  5
1F6
100
AcDbSymbolTableRecord
100
AcDbLinetypeTableRecord
  2
HIDDEN
 70
64
  3
- - - - - - - - - - - - - - - - - - - -
 72
65
 73
2
 40
0.2
 49
0.1
 74
0
 49
-0.1
 74
0
  0
LTYPE
  5
1F7
100
AcDbSymbolTableRecord
100
AcDbLinetypeTableRecord
  2
PHANTOM
 70
64
  3
_____ _ _ _____ _ _ _____ _ _ _____
 72
65
 73
6
 40
0.8
 49
0.45
 74
0
 49
-0.05
 74
0
 49
0.1
 74
0
 49
-0.05
 74
0
 49
0.1
 74
0
 49
-0.05
 74
0
  0
LTYPE
  5
1F8
100
AcDbSymbolTableRecord
100
AcDbLinetypeTableRecord
  2
DOT
 70
64
  3
. . . . . . . . . . . . . . . . . . . .
 72
65
 73
2
 40
0.2
 49
0.1
 74
0
 49
-0.1
 74
0
  0
LTYPE
  5
1F9
100
AcDbSymbolTableRecord
100
AcDbLinetypeTableRecord
  2
DASHED
 70
64
  3
- - - - - - - - - - - - - - - - - - - -
 72
65
 73
2
 40
0.2
 49
0.1
 74
0
 49
-0.1
 74
0
  0
ENDTAB
  0
TABLE
  2
LAYER
  5
2
100
AcDbSymbolTable
 70
36
  0
LAYER
  5
10
100
AcDbSymbolTableRecord
100
AcDbLayerTableRecord
  2
0
 70
0
 62
7
  6
CONTINUOUS
370
-3
390
F
  0
LAYER
  5
1FA
100
AcDbSymbolTableRecord
100
AcDbLayerTableRecord
  2
DEFAULT_1
 70
0
 62
7
  6
CENTER
370
-3
390
F
  0
LAYER
  5
1FB
100
AcDbSymbolTableRecord
100
AcDbLayerTableRecord
  2
DEFAULT_2
 70
0
 62
7
  6
HIDDEN
370
-3
390
F
  0
LAYER
  5
1FC
100
AcDbSymbolTableRecord
100
AcDbLayerTableRecord
  2
DEFAULT_3
 70
0
 62
7
  6
PHANTOM
370
-3
390
F
  0
LAYER
  5
1FD
100
AcDbSymbolTableRecord
100
AcDbLayerTableRecord
  2
00_COMPONENTS
 70
0
 62
7
  6
CONTINUOUS
370
-3
390
F
  0
LAYER
  5
1FE
100
AcDbSymbolTableRecord
100
AcDbLayerTableRecord
  2
01_1_DEFAULT_DATUMS
 70
0
 62
7
  6
CONTINUOUS
370
-3
390
F
  0
LAYER
  5
1FF
100
AcDbSymbolTableRecord
100
AcDbLayerTableRecord
  2
01_PLANES
 70
0
 62
7
  6
CONTINUOUS
370
-3
390
F
  0
LAYER
  5
200
100
AcDbSymbolTableRecord
100
AcDbLayerTableRecord
  2
02_COORD_SYS
 70
0
 62
7
  6
CONTINUOUS
370
-3
390
F
  0
LAYER
  5
201
100
AcDbSymbolTableRecord
100
AcDbLayerTableRecord
  2
03_AXES
 70
0
 62
7
  6
CONTINUOUS
370
-3
390
F
  0
LAYER
  5
202
100
AcDbSymbolTableRecord
100
AcDbLayerTableRecord
  2
04_POINTS
 70
0
 62
7
  6
CONTINUOUS
370
-3
390
F
  0
LAYER
  5
203
100
AcDbSymbolTableRecord
100
AcDbLayerTableRecord
  2
05_CURVES
 70
0
 62
7
  6
CONTINUOUS
370
-3
390
F
  0
LAYER
  5
204
100
AcDbSymbolTableRecord
100
AcDbLayerTableRecord
  2
06_SURFS
 70
0
 62
7
  6
CONTINUOUS
370
-3
390
F
  0
LAYER
  5
205
100
AcDbSymbolTableRecord
100
AcDbLayerTableRecord
  2
07_COSMETICS
 70
0
 62
7
  6
CONTINUOUS
370
-3
390
F
  0
LAYER
  5
206
100
AcDbSymbolTableRecord
100
AcDbLayerTableRecord
  2
10_NOTES
 70
0
 62
7
  6
CONTINUOUS
370
-3
390
F
  0
LAYER
  5
207
100
AcDbSymbolTableRecord
100
AcDbLayerTableRecord
  2
11_NOTES_PUB
 70
0
 62
7
  6
CONTINUOUS
370
-3
390
F
  0
LAYER
  5
208
100
AcDbSymbolTableRecord
100
AcDbLayerTableRecord
  2
13_REF_GTOL
 70
0
 62
7
  6
CONTINUOUS
370
-3
390
F
  0
LAYER
  5
209
100
AcDbSymbolTableRecord
100
AcDbLayerTableRecord
  2
16_MISC
 70
0
 62
7
  6
CONTINUOUS
370
-3
390
F
  0
LAYER
  5
20A
100
AcDbSymbolTableRecord
100
AcDbLayerTableRecord
  2
17_NO_PRINT
 70
0
 62
7
  6
CONTINUOUS
370
-3
390
F
  0
LAYER
  5
20B
100
AcDbSymbolTableRecord
100
AcDbLayerTableRecord
  2
18_DATUM_CAMS_JOINTS
 70
0
 62
7
  6
CONTINUOUS
370
-3
390
F
  0
LAYER
  5
20C
100
AcDbSymbolTableRecord
100
AcDbLayerTableRecord
  2
19_DATUM_FUNCTIONAL
 70
0
 62
7
  6
CONTINUOUS
370
-3
390
F
  0
LAYER
  5
20D
100
AcDbSymbolTableRecord
100
AcDbLayerTableRecord
  2
20_DATUM_KINEMATIC_SCHEME
 70
0
 62
7
  6
CONTINUOUS
370
-3
390
F
  0
ENDTAB
  0
TABLE
  2
STYLE
  5
3
100
AcDbSymbolTable
 70
1
  0
STYLE
  5
11
100
AcDbSymbolTableRecord
100
AcDbTextStyleTableRecord
  2
STANDARD
 70
0
 40
0.0
 41
1.0
 50
0.0
 71
0
 42
0.2
  3
ARIAL.TTF
  4

  0
STYLE
  5
20E
100
AcDbSymbolTableRecord
100
AcDbTextStyleTableRecord
  2
TEXTSTYLE_1
 70
0
 40
0.0
 41
0.8
 50
0.0
 71
0
 42
0.2
  3
gdt
  4

  0
ENDTAB
  0
TABLE
  2
VIEW
  5
6
100
AcDbSymbolTable
 70
0
  0
ENDTAB
  0
TABLE
  2
UCS
  5
7
100
AcDbSymbolTable
 70
0
  0
ENDTAB
  0
TABLE
  2
APPID
  5
9
100
AcDbSymbolTable
 70
1
  0
APPID
  5
20F
100
AcDbSymbolTableRecord
100
AcDbRegAppTableRecord
  2
ACAD
 70
0
  0
ENDTAB
  0
TABLE
  2
BLOCK_RECORD
  5
1
100
AcDbSymbolTable
 70
0
  0
BLOCK_RECORD
  5
210
100
AcDbSymbolTableRecord
100
AcDbBlockTableRecord
  2
*Model_Space
  0
BLOCK_RECORD
  5
211
100
AcDbSymbolTableRecord
100
AcDbBlockTableRecord
  2
*Paper_Space
  0
BLOCK_RECORD
  5
212
100
AcDbSymbolTableRecord
100
AcDbBlockTableRecord
  2
_FILLED
  0
ENDTAB
  0
TABLE
  2
DIMSTYLE
  5
A
100
AcDbSymbolTable
 70
1
100
AcDbDimStyleTable
 71
0
  0
DIMSTYLE
105
213
100
AcDbSymbolTableRecord
100
AcDbDimStyleTableRecord
  2
STANDARD
 70
0
  3

  4

 40
1.0
 41
0.8884799337
 42
1.0
 43
0.38
 44
1.0
 45
0.0
 46
0.0
 47
0.01
 48
0.01
140
1.2438719072
141
0.09
142
0.0
143
25.4
144
1.0
145
0.0
146
1.0
147
0.625
 71
1
 72
0
 73
0
 74
0
 75
0
 76
0
 77
1
 78
8
 79
2
170
0
171
1
172
0
173
0
174
0
175
0
176
0
177
0
178
0
270
2
179
2
271
2
272
2
273
2
274
2
275
0
280
0
281
0
282
0
283
1
284
8
285
0
286
0
287
3
288
0
340
11
278
46
341
212
342
212
343
212
344
212
  0
ENDTAB
  0
ENDSEC
  0
SECTION
  2
BLOCKS
  0
BLOCK
  5
20
100
AcDbEntity
  8
0
100
AcDbBlockBegin
  2
*Model_Space
 70
0
 10
0.0
 20
0.0
 30
0.0
  3
*Model_Space
  1

  0
ENDBLK
  5
21
100
AcDbEntity
  8
0
100
AcDbBlockEnd
  0
BLOCK
  5
1C
100
AcDbEntity
  8
0
100
AcDbBlockBegin
  2
*Paper_Space
 70
0
 10
0.0
 20
0.0
 30
0.0
  3
*Paper_Space
  1

  0
ENDBLK
  5
1D
100
AcDbEntity
  8
0
100
AcDbBlockEnd
  0
BLOCK
  5
214
100
AcDbEntity
  8
0
100
AcDbBlockBegin
  2
_FILLED
 70
64
 10
0.0
 20
0.0
  3
_FILLED
  1

  0
SOLID
  5
215
100
AcDbEntity
  8
0
  6
BYBLOCK
 62
0
100
AcDbTrace
 10
0.0
 20
0.0
 11
-1.0
 21
0.25
 12
-1.0
 22
-0.25
 13
-1.0
 23
-0.25
  0
ENDBLK
  5
216
100
AcDbEntity
  8
0
  6
BYBLOCK
 62
0
100
AcDbBlockEnd
  0
ENDSEC
  0
SECTION
  2
ENTITIES
  0
LINE
  5
217
100
AcDbEntity
  8
0
100
AcDbLine
 62
7
  6
BYLAYER
 10
8.6997084131
 20
41.4322003104
 11
8.6997084131
 21
60.9322003104
  0
LINE
  5
218
100
AcDbEntity
  8
0
100
AcDbLine
 62
7
  6
BYLAYER
 10
9.1997084131
 20
40.9322003104
 11
9.1997084131
 21
61.4322003104
  0
LINE
  5
219
100
AcDbEntity
  8
0
100
AcDbLine
 62
7
  6
BYLAYER
 10
9.1997084131
 20
40.9322003104
 11
8.6997084131
 21
41.4322003104
  0
LINE
  5
21A
100
AcDbEntity
  8
0
100
AcDbLine
 62
7
  6
BYLAYER
 10
9.9997084131
 20
37.1822003104
 11
9.9997084131
 21
64.9321894353
  0
LINE
  5
21B
100
AcDbEntity
  8
0
100
AcDbLine
 62
7
  6
BYLAYER
 10
9.1997084131
 20
61.4322003104
 11
8.6997084131
 21
60.9322003104
  0
LINE
  5
21C
100
AcDbEntity
  8
0
100
AcDbLine
 62
7
  6
BYLAYER
 10
13.9997084131
 20
64.9321916327
 11
13.9997084131
 21
37.1822003104
  0
LINE
  5
21D
100
AcDbEntity
  8
0
100
AcDbLine
 62
7
  6
BYLAYER
 10
14.1497084131
 20
66.6822001513
 11
14.1497084131
 21
62.1822003129
  0
LINE
  5
21E
100
AcDbEntity
  8
0
100
AcDbLine
 62
7
  6
BYLAYER
 10
9.9997084131
 20
37.1822003104
 11
67.9997084131
 21
37.1822003104
  0
LINE
  5
21F
100
AcDbEntity
  8
0
100
AcDbLine
 62
7
  6
BYLAYER
 10
9.1997084131
 20
40.9322003104
 11
9.9997084131
 21
40.9322003104
  0
LINE
  5
220
100
AcDbEntity
  8
0
100
AcDbLine
 62
7
  6
BYLAYER
 10
36.1997084131
 20
62.1822003104
 11
36.1997084131
 21
62.3822003104
  0
LINE
  5
221
100
AcDbEntity
  8
0
100
AcDbLine
 62
7
  6
BYLAYER
 10
36.3165428261
 20
67.3822003104
 11
36.3420479665
 21
67.6737253986
  0
LINE
  5
222
100
AcDbEntity
  8
0
100
AcDbLine
 62
7
  6
BYLAYER
 10
40.2425877095
 20
68.5252624671
 11
40.2378764248
 21
68.5123183187
  0
LINE
  5
223
100
AcDbEntity
  8
0
100
AcDbLine
 62
7
  6
BYLAYER
 10
37.1333565353
 20
67.3822003104
 11
37.1333565353
 21
62.3822003104
  0
LINE
  5
224
100
AcDbEntity
  8
0
100
AcDbLine
 62
7
  6
BYLAYER
 10
38.4497084131
 20
67.7822003104
 11
38.4284350995
 21
68.594595383
  0
LINE
  5
225
100
AcDbEntity
  8
0
100
AcDbLine
 62
7
  6
BYLAYER
 10
40.8660602909
 20
67.3822003104
 11
40.8660602909
 21
62.3822003104
  0
LINE
  5
226
100
AcDbEntity
  8
0
100
AcDbLine
 62
7
  6
BYLAYER
 10
39.5709817268
 20
68.594595383
 11
39.5497084131
 21
67.7822003104
  0
LINE
  5
227
100
AcDbEntity
  8
0
100
AcDbLine
 62
7
  6
BYLAYER
 10
67.9997084131
 20
55.3443624725
 11
63.9997084131
 21
55.3443624725
  0
LINE
  5
228
100
AcDbEntity
  8
0
100
AcDbLine
 62
7
  6
BYLAYER
 10
9.9997084131
 20
55.3443624725
 11
13.9997084131
 21
55.3443624725
  0
LINE
  5
229
100
AcDbEntity
  8
0
100
AcDbLine
 62
7
  6
BYLAYER
 10
41.6828740001
 20
67.3822003104
 11
41.6573688598
 21
67.6737253986
  0
LINE
  5
22A
100
AcDbEntity
  8
0
100
AcDbLine
 62
7
  6
BYLAYER
 10
41.7997084131
 20
62.1822003104
 11
41.7997084131
 21
62.3822003104
  0
LINE
  5
22B
100
AcDbEntity
  8
0
100
AcDbLine
 62
7
  6
BYLAYER
 10
37.7615404014
 20
68.5123183187
 11
37.7568291167
 21
68.5252624671
  0
LINE
  5
22C
100
AcDbEntity
  8
0
100
AcDbLine
 62
7
  6
BYLAYER
 10
9.1997084131
 20
61.4322003104
 11
9.9997084131
 21
61.4322003104
  0
LINE
  5
22D
100
AcDbEntity
  8
0
100
AcDbLine
 62
7
  6
BYLAYER
 10
13.9997084131
 20
62.1822003104
 11
63.9997084131
 21
62.1822003104
  0
LINE
  5
22E
100
AcDbEntity
  8
0
100
AcDbLine
 62
7
  6
BYLAYER
 10
45.5998956037
 20
62.3822003104
 11
32.3995212225
 21
62.3822003104
  0
LINE
  5
22F
100
AcDbEntity
  8
0
100
AcDbLine
 62
7
  6
BYLAYER
 10
67.9997084131
 20
64.9322003104
 11
63.9997084131
 21
64.9322003104
  0
LINE
  5
230
100
AcDbEntity
  8
0
100
AcDbLine
 62
7
  6
BYLAYER
 10
9.9997084131
 20
64.9322003104
 11
13.9997084131
 21
64.9322003104
  0
LINE
  5
231
100
AcDbEntity
  8
0
100
AcDbLine
 62
7
  6
BYLAYER
 10
32.274100019
 20
67.3822003104
 11
45.7253168072
 21
67.3822003104
  0
LINE
  5
232
100
AcDbEntity
  8
0
100
AcDbLine
 62
7
  6
BYLAYER
 10
36.3420479665
 20
67.6737253986
 11
41.6573688598
 21
67.6737253986
  0
LINE
  5
233
100
AcDbEntity
  8
0
100
AcDbLine
 62
7
  6
BYLAYER
 10
38.4497084131
 20
67.7822003104
 11
39.5497084131
 21
67.7822003104
  0
LINE
  5
234
100
AcDbEntity
  8
0
100
AcDbLine
 62
7
  6
BYLAYER
 10
41.399222966
 20
68.0688083291
 11
39.5572135082
 21
68.0688083291
  0
LINE
  5
235
100
AcDbEntity
  8
0
100
AcDbLine
 62
7
  6
BYLAYER
 10
38.442203318
 20
68.0688083291
 11
36.6001938602
 21
68.0688083291
  0
LINE
  5
236
100
AcDbEntity
  8
0
100
AcDbLine
 62
7
  6
BYLAYER
 10
63.8497084131
 20
62.1822003101
 11
63.8497084131
 21
66.6822001508
  0
LINE
  5
237
100
AcDbEntity
  8
0
100
AcDbLine
 62
7
  6
BYLAYER
 10
63.9997084131
 20
37.1822003104
 11
63.9997084131
 21
64.9321916327
  0
LINE
  5
238
100
AcDbEntity
  8
0
100
AcDbLine
 62
7
  6
BYLAYER
 10
67.9997084131
 20
64.9321894353
 11
67.9997084131
 21
37.1822003104
  0
ARC
  5
239
100
AcDbEntity
  8
0
100
AcDbCircle
 62
7
  6
BYLAYER
 10
38.9997084131
 20
-241.5790496896
 40
309.26125
100
AcDbArc
 50
90.494809513
 51
94.6088436026
  0
ARC
  5
23A
100
AcDbEntity
  8
0
100
AcDbCircle
 62
7
  6
BYLAYER
 10
38.9997084131
 20
-241.5790496896
 40
309.26125
100
AcDbArc
 50
85.3911563974
 51
89.5051904803
  0
ARC
  5
23B
100
AcDbEntity
  8
0
100
AcDbCircle
 62
7
  6
BYLAYER
 10
38.9900230377
 20
-229.2375001175
 40
296.2198321665
100
AcDbArc
 50
85.1858967432
 51
88.7034497196
  0
CIRCLE
  5
23C
100
AcDbEntity
  8
0
100
AcDbCircle
 62
7
  6
BYLAYER
 10
38.9997084131
 20
49.6822003104
 40
8.0
  0
CIRCLE
  5
23D
100
AcDbEntity
  8
0
100
AcDbCircle
 62
7
  6
BYLAYER
 10
38.9997084131
 20
49.6822003104
 40
6.79
  0
CIRCLE
  5
23E
100
AcDbEntity
  8
0
100
AcDbCircle
 62
7
  6
BYLAYER
 10
38.9997084131
 20
49.6822003104
 40
6.41
  0
CIRCLE
  5
23F
100
AcDbEntity
  8
0
100
AcDbCircle
 62
7
  6
BYLAYER
 10
38.9997084131
 20
49.6822003104
 40
6.2
  0
ARC
  5
240
100
AcDbEntity
  8
0
100
AcDbCircle
 62
7
  6
BYLAYER
 10
38.9997084131
 20
63.6822003104
 40
5.0
100
AcDbArc
 50
61.3209388561
 51
75.606745128
  0
ARC
  5
241
100
AcDbEntity
  8
0
100
AcDbCircle
 62
7
  6
BYLAYER
 10
38.9997084131
 20
63.6822003104
 40
5.0
100
AcDbArc
 50
104.393254872
 51
118.6790611439
  0
ARC
  5
242
100
AcDbEntity
  8
0
100
AcDbCircle
 62
7
  6
BYLAYER
 10
38.9997084131
 20
63.6822003104
 40
4.9862912069
100
AcDbArc
 50
75.6222093297
 51
82.2779005511
  0
ARC
  5
243
100
AcDbEntity
  8
0
100
AcDbCircle
 62
7
  6
BYLAYER
 10
38.9997084131
 20
63.6822003104
 40
4.9862912069
100
AcDbArc
 50
97.7220994489
 51
104.3777906703
  0
CIRCLE
  5
244
100
AcDbEntity
  8
0
100
AcDbCircle
 62
7
  6
BYLAYER
 10
38.9997084131
 20
49.6822003104
 40
4.85
  0
ARC
  5
245
100
AcDbEntity
  8
0
100
AcDbCircle
 62
7
  6
BYLAYER
 10
39.2774502973
 20
64.230244307
 40
4.4461654401
100
AcDbArc
 50
101.0084916393
 51
105.3466432233
  0
ARC
  5
246
100
AcDbEntity
  8
0
100
AcDbCircle
 62
7
  6
BYLAYER
 10
38.7319287787
 20
64.2727935021
 40
4.4024971718
100
AcDbArc
 50
74.6318313258
 51
79.0130338116
  0
ARC
  5
247
100
AcDbEntity
  8
0
100
AcDbCircle
 62
7
  6
BYLAYER
 10
38.6628974578
 20
67.5228270777
 40
1.1438170751
100
AcDbArc
 50
105.0127528141
 51
106.8487879512
  0
ARC
  5
248
100
AcDbEntity
  8
0
100
AcDbCircle
 62
7
  6
BYLAYER
 10
39.3373234313
 20
67.5256440197
 40
1.1408880017
100
AcDbArc
 50
73.1488549622
 51
74.9896042725
  0
ARC
  5
249
100
AcDbEntity
  8
0
100
AcDbCircle
 62
7
  6
BYLAYER
 10
38.647748233
 20
67.5688282287
 40
1.0954002787
100
AcDbArc
 50
106.7878189754
 51
119.9584480603
  0
ARC
  5
24A
100
AcDbEntity
  8
0
100
AcDbCircle
 62
7
  6
BYLAYER
 10
39.3516685932
 20
67.5688282287
 40
1.0954002787
100
AcDbArc
 50
60.0415519397
 51
73.2121810246
  0
ARC
  5
24B
100
AcDbEntity
  8
0
100
AcDbCircle
 62
7
  6
BYLAYER
 10
39.5322327323
 20
67.6112010706
 40
1.0213663845
100
AcDbArc
 50
82.2645228064
 51
84.3489134864
  0
ARC
  5
24C
100
AcDbEntity
  8
0
100
AcDbCircle
 62
7
  6
BYLAYER
 10
38.4629423134
 20
67.6473462029
 40
0.984979451
100
AcDbArc
 50
95.6125814361
 51
97.7739822711
  0
ARC
  5
24D
100
AcDbEntity
  8
0
100
AcDbCircle
 62
7
  6
BYLAYER
 10
36.8401453155
 20
67.6301475273
 40
0.5
100
AcDbArc
 50
118.6790611439
 51
175.0
  0
ARC
  5
24E
100
AcDbEntity
  8
0
100
AcDbCircle
 62
7
  6
BYLAYER
 10
41.1592715107
 20
67.6301475273
 40
0.5
100
AcDbArc
 50
5.0
 51
61.3209388561
  0
SPLINE
  5
24F
100
AcDbEntity
  8
0
100
AcDbSpline
 62
7
  6
BYLAYER
 70
0
 71
3
 72
9
 73
5
 74
0
 42
0.0000001
 43
0.0000001
 44
0.0000000001
 40
0.0
 40
0.0
 40
0.0
 40
0.0
 40
0.4942005112
 40
1.0
 40
1.0
 40
1.0
 40
1.0
 10
45.6926306667
 20
66.9064919076
 30
0.0
 10
45.667100534
 20
66.1614440581
 30
0.0
 10
45.6207091109
 20
64.6536522871
 30
0.0
 10
45.6013235587
 20
63.145180783
 30
0.0
 10
45.5998956037
 20
62.3822003104
 30
0.0
  0
SPLINE
  5
250
100
AcDbEntity
  8
0
100
AcDbSpline
 62
7
  6
BYLAYER
 70
0
 71
3
 72
9
 73
5
 74
0
 42
0.0000001
 43
0.0000001
 44
0.0000000001
 40
0.0
 40
0.0
 40
0.0
 40
0.0
 40
0.4502463182
 40
1.0
 40
1.0
 40
1.0
 40
1.0
 10
45.7253168072
 20
67.3822003104
 30
0.0
 10
45.717194184
 20
67.3110859987
 30
0.0
 10
45.7035830321
 20
67.1526386884
 30
0.0
 10
45.6956236437
 20
66.9938362453
 30
0.0
 10
45.6926306667
 20
66.9064919076
 30
0.0
  0
SPLINE
  5
251
100
AcDbEntity
  8
0
100
AcDbSpline
 62
7
  6
BYLAYER
 70
0
 71
3
 72
9
 73
5
 74
0
 42
0.0000001
 43
0.0000001
 44
0.0000000001
 40
0.0
 40
0.0
 40
0.0
 40
0.0
 40
0.5057994851
 40
1.0
 40
1.0
 40
1.0
 40
1.0
 10
32.3995212225
 20
62.3822003104
 30
0.0
 10
32.3980932675
 20
63.1451807771
 30
0.0
 10
32.3787076234
 20
64.6536522779
 30
0.0
 10
32.3323164298
 20
66.161444056
 30
0.0
 10
32.3067861595
 20
66.9064919063
 30
0.0
  0
SPLINE
  5
252
100
AcDbEntity
  8
0
100
AcDbSpline
 62
7
  6
BYLAYER
 70
0
 71
3
 72
9
 73
5
 74
0
 42
0.0000001
 43
0.0000001
 44
0.0000000001
 40
0.0
 40
0.0
 40
0.0
 40
0.0
 40
0.5497538193
 40
1.0
 40
1.0
 40
1.0
 40
1.0
 10
32.3067861595
 20
66.9064919063
 30
0.0
 10
32.3037929235
 20
66.9938362574
 30
0.0
 10
32.2958339495
 20
67.152638717
 30
0.0
 10
32.2822226397
 20
67.3110860201
 30
0.0
 10
32.274100019
 20
67.3822003104
 30
0.0
  0
SPLINE
  5
253
100
AcDbEntity
  8
0
100
AcDbSpline
 62
7
  6
BYLAYER
 70
0
 71
3
 72
11
 73
7
 74
0
 42
0.0000001
 43
0.0000001
 44
0.0000000001
 40
0.0
 40
0.0
 40
0.0
 40
0.0
 40
0.2459897785
 40
0.4951490495
 40
0.7467295781
 40
1.0
 40
1.0
 40
1.0
 40
1.0
 10
14.1497024194
 20
65.9366681486
 30
0.0
 10
15.6354486756
 20
66.0636272815
 30
0.0
 10
18.6283515828
 20
66.2932058958
 30
0.0
 10
23.1467290261
 20
66.5684767682
 30
0.0
 10
27.7128767243
 20
66.7766873524
 30
0.0
 10
30.7719174293
 20
66.8703031629
 30
0.0
 10
32.3067855207
 20
66.9065151413
 30
0.0
  0
SPLINE
  5
254
100
AcDbEntity
  8
0
100
AcDbSpline
 62
7
  6
BYLAYER
 70
0
 71
3
 72
33
 73
29
 74
0
 42
0.0000001
 43
0.0000001
 44
0.0000000001
 40
0.0
 40
0.0
 40
0.0
 40
0.0
 40
0.0624743745
 40
0.0937464519
 40
0.125009364
 40
0.1874604839
 40
0.2498988363
 40
0.2811557449
 40
0.3124137077
 40
0.343673284
 40
0.3749335428
 40
0.4061971941
 40
0.4374650647
 40
0.4687364603
 40
0.5000092334
 40
0.5312822952
 40
0.5625531336
 40
0.593819901
 40
0.6250821139
 40
0.6563414026
 40
0.6875988938
 40
0.7188547747
 40
0.7501097599
 40
0.81254463
 40
0.8749927964
 40
0.9062545658
 40
0.9375258248
 40
1.0
 40
1.0
 40
1.0
 40
1.0
 10
38.9997084131
 20
57.6822003104
 30
0.0
 10
39.5315194548
 20
57.6822003104
 30
0.0
 10
40.3321642558
 20
57.6071292237
 30
0.0
 10
41.3683178496
 20
57.359787792
 30
0.0
 10
42.3767952436
 20
57.0162943847
 30
0.0
 10
43.56941455
 20
56.4102824414
 30
0.0
 10
44.6242575084
 20
55.5868815108
 30
0.0
 10
45.3589714192
 20
54.8157536373
 30
0.0
 10
45.8509088628
 20
54.1853733993
 30
0.0
 10
46.2776037996
 20
53.5091311412
 30
0.0
 10
46.6340693413
 20
52.7932720669
 30
0.0
 10
46.9159575832
 20
52.0448049074
 30
0.0
 10
47.1198533268
 20
51.2713334309
 30
0.0
 10
47.2433629622
 20
50.4809344595
 30
0.0
 10
47.2845559048
 20
49.681956383
 30
0.0
 10
47.2432749034
 20
48.8829903918
 30
0.0
 10
47.1197962474
 20
48.0926021639
 30
0.0
 10
46.9159181127
 20
47.3191460442
 30
0.0
 10
46.6338331473
 20
46.5707839913
 30
0.0
 10
46.2773634299
 20
45.8549772959
 30
0.0
 10
45.8507285426
 20
45.1787498146
 30
0.0
 10
45.3588564396
 20
44.5483814208
 30
0.0
 10
44.6241149048
 20
43.7773634832
 30
0.0
 10
43.5692763227
 20
42.9540863095
 30
0.0
 10
42.3767279238
 20
42.3480861491
 30
0.0
 10
41.3682909604
 20
42.004600789
 30
0.0
 10
40.3321533586
 20
41.7572720426
 30
0.0
 10
39.531517758
 20
41.6822003104
 30
0.0
 10
38.9997084131
 20
41.6822003104
 30
0.0
  0
SPLINE
  5
255
100
AcDbEntity
  8
0
100
AcDbSpline
 62
7
  6
BYLAYER
 70
0
 71
3
 72
33
 73
29
 74
0
 42
0.0000001
 43
0.0000001
 44
0.0000000001
 40
0.0
 40
0.0
 40
0.0
 40
0.0
 40
0.0624743679
 40
0.0937464416
 40
0.125009353
 40
0.1874604733
 40
0.2498988212
 40
0.2811557284
 40
0.3124136908
 40
0.3436732671
 40
0.3749335269
 40
0.4061971791
 40
0.4374650504
 40
0.4687364467
 40
0.500009221
 40
0.531282283
 40
0.5625531214
 40
0.5938198889
 40
0.6250821022
 40
0.6563413903
 40
0.6875988816
 40
0.7188547625
 40
0.7501097478
 40
0.8125446191
 40
0.8749927934
 40
0.9062545659
 40
0.9375258262
 40
1.0
 40
1.0
 40
1.0
 40
1.0
 10
38.9997084131
 20
41.6822003104
 30
0.0
 10
38.4678974298
 20
41.6822003104
 30
0.0
 10
37.6672527327
 20
41.7572715199
 30
0.0
 10
36.6310992279
 20
42.0046128761
 30
0.0
 10
35.6226218388
 20
42.3481061804
 30
0.0
 10
34.4300025411
 20
42.9541180539
 30
0.0
 10
33.3751596105
 20
43.7775189221
 30
0.0
 10
32.6404456363
 20
44.5486466576
 30
0.0
 10
32.1485081883
 20
45.1790268703
 30
0.0
 10
31.7218132137
 20
45.8552691083
 30
0.0
 10
31.3653476918
 20
46.5711282034
 30
0.0
 10
31.0834593081
 20
47.3195953297
 30
0.0
 10
30.8795635665
 20
48.0930668287
 30
0.0
 10
30.7560539283
 20
48.8834658175
 30
0.0
 10
30.7148609582
 20
49.6824439046
 30
0.0
 10
30.7561418681
 20
50.4814099101
 30
0.0
 10
30.8796205654
 20
51.2717981361
 30
0.0
 10
31.0834987133
 20
52.0452542456
 30
0.0
 10
31.3655834765
 20
52.7936163684
 30
0.0
 10
31.7220531224
 20
53.5094231018
 30
0.0
 10
32.1486880572
 20
54.1856505493
 30
0.0
 10
32.6405602703
 20
54.8160188567
 30
0.0
 10
33.3753018369
 20
55.5870367572
 30
0.0
 10
34.4301402124
 20
56.4103143088
 30
0.0
 10
35.6226887626
 20
57.0163144673
 30
0.0
 10
36.6311258718
 20
57.3597997055
 30
0.0
 10
37.6672635044
 20
57.6071283791
 30
0.0
 10
38.4678990815
 20
57.6822003104
 30
0.0
 10
38.9997084131
 20
57.6822003104
 30
0.0
  0
ELLIPSE
  5
256
100
AcDbEntity
  8
0
100
AcDbEllipse
 62
7
  6
BYLAYER
 10
39.6697084131
 20
68.5885302528
 30
0.0
 11
0.089048714
 21
0.2194268226
 31
0.0
 40
0.2073622563
 41
1.476363611
 42
1.6711792167
  0
ELLIPSE
  5
257
100
AcDbEntity
  8
0
100
AcDbEllipse
 62
7
  6
BYLAYER
 10
38.3297084131
 20
68.5885302528
 30
0.0
 11
-0.089048714
 21
0.2194268226
 31
0.0
 40
0.2073622563
 41
-1.6711801987
 42
-1.476363611
  0
ENDSEC
  0
SECTION
  2
OBJECTS
  0
DICTIONARY
  5
C
100
AcDbDictionary
280
0
281
1
  3
ACAD_GROUP
350
D
  3
ACAD_MLINESTYLE
350
17
  3
ACAD_LAYOUT
350
1A
  3
ACAD_PLOTSETTINGS
350
19
  3
ACAD_PLOTSTYLENAME
350
E
  0
DICTIONARY
  5
D
102
{ACAD_REACTORS
330
C
102
}
100
AcDbDictionary
280
0
281
1
  0
ACDBDICTIONARYWDFLT
  5
E
102
{ACAD_REACTORS
330
C
102
}
100
AcDbDictionary
281
1
  3
Normal
350
F
100
AcDbDictionaryWithDefault
340
F
  0
DICTIONARY
  5
17
102
{ACAD_REACTORS
330
C
102
}
100
AcDbDictionary
280
0
281
1
  3
Standard
350
18
  0
DICTIONARY
  5
19
102
{ACAD_REACTORS
330
C
102
}
100
AcDbDictionary
281
1
  0
DICTIONARY
  5
1A
102
{ACAD_REACTORS
330
C
102
}
100
AcDbDictionary
281
1
  3
Model
350
258
  3
Layout1
350
259
  0
ACDBPLACEHOLDER
  5
F
102
{ACAD_REACTORS
330
E
102
}
  0
MLINESTYLE
  5
18
102
{ACAD_REACTORS
330
17
102
}
100
AcDbMlineStyle
  2
STANDARD
 70
0
  3

 62
256
 51
90.0
 52
90.0
 71
2
 49
0.5
 62
256
  6
BYLAYER
 49
-0.5
 62
256
  6
BYLAYER
  0
LAYOUT
  5
258
102
{ACAD_REACTORS
330
1A
102
}
100
AcDbPlotSettings
  1

  2
none_device
  4

  6

 40
0.0
 41
0.0
 42
0.0
 43
0.0
 44
210.0
 45
297.0
 46
0.0
 47
0.0
 48
0.0
 49
0.0
140
0.0
141
0.0
142
1.0
143
1.0
 70
1024
 72
1
 73
0
 74
0
  7

 75
0
147
1.0
148
0.0
149
0.0
100
AcDbLayout
  1
Model
 70
0
 71
0
 10
0.0
 20
0.0
 11
210.0
 21
297.0
 12
0.0
 22
0.0
 32
0.0
 14
0.0
 24
0.0
 34
0.0
 15
0.0
 25
0.0
 35
0.0
146
0.0
 13
0.0
 23
0.0
 33
0.0
 16
1.0
 26
0.0
 36
0.0
 17
0.0
 27
1.0
 37
0.0
 76
0
330
210
345
0
346
0
  0
LAYOUT
  5
259
102
{ACAD_REACTORS
330
1A
102
}
100
AcDbPlotSettings
  1

  2
none_device
  4

  6

 40
0.0
 41
0.0
 42
0.0
 43
0.0
 44
210.0
 45
297.0
 46
0.0
 47
0.0
 48
0.0
 49
0.0
140
0.0
141
0.0
142
1.0
143
1.0
 70
0
 72
1
 73
0
 74
0
  7

 75
0
147
1.0
148
0.0
149
0.0
100
AcDbLayout
  1
Layout1
 70
0
 71
1
 10
0.0
 20
0.0
 11
210.0
 21
297.0
 12
0.0
 22
0.0
 32
0.0
 14
0.0
 24
0.0
 34
0.0
 15
0.0
 25
0.0
 35
0.0
146
0.0
 13
0.0
 23
0.0
 33
0.0
 16
1.0
 26
0.0
 36
0.0
 17
0.0
 27
1.0
 37
0.0
 76
0
330
211
345
0
346
0
  0
ENDSEC
  0
EOF
