999
DXF file: C:\Users\sesa63760\Dev\_Creo\CAD\MCADID0002313_3D-CAD\drw0001_1.dxf
999
Pro/ENGINEER 2019471 by Parametric Technology Corporation
  0
SECTION
  2
HEADER
  9
$ACADVER
  1
AC1024
  9
$DWGCODEPAGE
  3
ANSI_1252
  9
$EXTMAX
 10
152.7718566162
 20
216.0630543572
 30
0.0
  9
$EXTMIN
 10
0.0
 20
0.0
 30
0.0
  9
$LIMMIN
 10
0.0
 20
0.0
  9
$LIMMAX
 10
152.7718566162
 20
216.0630543572
  9
$VIEWCTR
 10
76.3859283081
 20
108.0315271786
  9
$VIEWSIZE
 40
216.0630543572
  9
$CLAYER
  8
0
  9
$LTSCALE
 40
14.0841102099
  9
$CELTYPE
  6
BYLAYER
  9
$DIMSCALE
 40
1.0
  9
$DIMASZ
 40
1.8187125788
  9
$DIMEXO
 40
1.0
  9
$DIMDLI
 40
9.7308397814
  9
$DIMEXE
 40
1.0
  9
$DIMCEN
 40
2.3046725798
  9
$DIMLFAC
 40
1.0
  9
$DIMBLK
  1
_FILLED
  9
$DIMALT
 70
0
  9
$DIMALTF
 40
0.0393700787
  9
$DIMTXT
 40
2.5461976103
  9
$DIMTOL
 70
1
  9
$DIMLIM
 70
0
  9
$DIMTFAC
 40
1.0
  9
$DIMTP
 40
0.01
  9
$DIMTM
 40
0.01
  9
$DIMGAP
 40
0.625
  9
$DIMDSEP
 70
46
  9
$AUNITS
 70
0
  9
$PDMODE
 70
3
  9
$PDSIZE
 40
0.3125
  9
$HANDSEED
  5
24F
  9
$TILEMODE
 70
1
  9
$MEASUREMENT
 70
1
  9
$INSUNITS
 70
4
  0
ENDSEC
  0
SECTION
  2
CLASSES
  0
CLASS
  1
ACDBDICTIONARYWDFLT
  2
AcDbDictionaryWithDefault
  3
AutoCAD 2000
 90
0
 91
1
280
0
281
0
  0
CLASS
  1
ACDBPLACEHOLDER
  2
AcDbPlaceHolder
  3
AutoCAD 2000
 90
0
 91
1
280
0
281
0
  0
CLASS
  1
LAYOUT
  2
AcDbLayout
  3
AutoCAD 2000
 90
0
 91
0
280
0
281
0
  0
ENDSEC
  0
SECTION
  2
TABLES
  0
TABLE
  2
VPORT
  5
8
100
AcDbSymbolTable
 70
2
  0
VPORT
  5
1F4
100
AcDbSymbolTableRecord
100
AcDbViewportTableRecord
  2
*ACTIVE
 70
0
 10
0.0
 20
0.0
 11
1.0
 21
1.0
 12
76.3859283081
 22
108.0315271786
 13
0.0
 23
0.0
 14
1.0
 24
1.0
 15
0.0
 25
0.0
 16
0.0
 26
0.0
 36
1.0
 17
0.0
 27
0.0
 37
0.0
 40
216.0630543572
 41
0.7070707071
 42
50.0
 43
0.0
 44
0.0
 50
0.0
 51
0.0
 71
0
 72
100
 73
1
 74
1
 75
0
 76
0
 77
0
 78
0
  0
ENDTAB
  0
TABLE
  2
LTYPE
  5
5
100
AcDbSymbolTable
 70
6
  0
LTYPE
  5
14
100
AcDbSymbolTableRecord
100
AcDbLinetypeTableRecord
  2
BYBLOCK
 70
0
  3

 72
65
 73
0
 40
0.0
  0
LTYPE
  5
15
100
AcDbSymbolTableRecord
100
AcDbLinetypeTableRecord
  2
BYLAYER
 70
0
  3

 72
65
 73
0
 40
0.0
  0
LTYPE
  5
16
100
AcDbSymbolTableRecord
100
AcDbLinetypeTableRecord
  2
CONTINUOUS
 70
64
  3
Solid line
 72
65
 73
0
 40
0.0
  0
LTYPE
  5
1F5
100
AcDbSymbolTableRecord
100
AcDbLinetypeTableRecord
  2
CENTER
 70
64
  3
____ _ ____ _ ____ _ ____ _ ____ _ ____ _ ____
 72
65
 73
4
 40
0.6
 49
0.375
 74
0
 49
-0.075
 74
0
 49
0.075
 74
0
 49
-0.075
 74
0
  0
LTYPE
  5
1F6
100
AcDbSymbolTableRecord
100
AcDbLinetypeTableRecord
  2
HIDDEN
 70
64
  3
- - - - - - - - - - - - - - - - - - - -
 72
65
 73
2
 40
0.2
 49
0.1
 74
0
 49
-0.1
 74
0
  0
LTYPE
  5
1F7
100
AcDbSymbolTableRecord
100
AcDbLinetypeTableRecord
  2
PHANTOM
 70
64
  3
_____ _ _ _____ _ _ _____ _ _ _____
 72
65
 73
6
 40
0.8
 49
0.45
 74
0
 49
-0.05
 74
0
 49
0.1
 74
0
 49
-0.05
 74
0
 49
0.1
 74
0
 49
-0.05
 74
0
  0
LTYPE
  5
1F8
100
AcDbSymbolTableRecord
100
AcDbLinetypeTableRecord
  2
DOT
 70
64
  3
. . . . . . . . . . . . . . . . . . . .
 72
65
 73
2
 40
0.2
 49
0.1
 74
0
 49
-0.1
 74
0
  0
LTYPE
  5
1F9
100
AcDbSymbolTableRecord
100
AcDbLinetypeTableRecord
  2
DASHED
 70
64
  3
- - - - - - - - - - - - - - - - - - - -
 72
65
 73
2
 40
0.2
 49
0.1
 74
0
 49
-0.1
 74
0
  0
ENDTAB
  0
TABLE
  2
LAYER
  5
2
100
AcDbSymbolTable
 70
36
  0
LAYER
  5
10
100
AcDbSymbolTableRecord
100
AcDbLayerTableRecord
  2
0
 70
0
 62
7
  6
CONTINUOUS
370
-3
390
F
  0
LAYER
  5
1FA
100
AcDbSymbolTableRecord
100
AcDbLayerTableRecord
  2
DEFAULT_1
 70
0
 62
7
  6
CENTER
370
-3
390
F
  0
LAYER
  5
1FB
100
AcDbSymbolTableRecord
100
AcDbLayerTableRecord
  2
DEFAULT_2
 70
0
 62
8
  6
HIDDEN
370
-3
390
F
  0
LAYER
  5
1FC
100
AcDbSymbolTableRecord
100
AcDbLayerTableRecord
  2
DEFAULT_3
 70
0
 62
7
  6
PHANTOM
370
-3
390
F
  0
LAYER
  5
1FD
100
AcDbSymbolTableRecord
100
AcDbLayerTableRecord
  2
00_COMPONENTS
 70
0
 62
7
  6
CONTINUOUS
370
-3
390
F
  0
LAYER
  5
1FE
100
AcDbSymbolTableRecord
100
AcDbLayerTableRecord
  2
01_1_DEFAULT_DATUMS
 70
0
 62
7
  6
CONTINUOUS
370
-3
390
F
  0
LAYER
  5
1FF
100
AcDbSymbolTableRecord
100
AcDbLayerTableRecord
  2
01_PLANES
 70
0
 62
7
  6
CONTINUOUS
370
-3
390
F
  0
LAYER
  5
200
100
AcDbSymbolTableRecord
100
AcDbLayerTableRecord
  2
02_COORD_SYS
 70
0
 62
7
  6
CONTINUOUS
370
-3
390
F
  0
LAYER
  5
201
100
AcDbSymbolTableRecord
100
AcDbLayerTableRecord
  2
03_AXES
 70
0
 62
7
  6
CONTINUOUS
370
-3
390
F
  0
LAYER
  5
202
100
AcDbSymbolTableRecord
100
AcDbLayerTableRecord
  2
04_POINTS
 70
0
 62
7
  6
CONTINUOUS
370
-3
390
F
  0
LAYER
  5
203
100
AcDbSymbolTableRecord
100
AcDbLayerTableRecord
  2
05_CURVES
 70
0
 62
7
  6
CONTINUOUS
370
-3
390
F
  0
LAYER
  5
204
100
AcDbSymbolTableRecord
100
AcDbLayerTableRecord
  2
06_SURFS
 70
0
 62
7
  6
CONTINUOUS
370
-3
390
F
  0
LAYER
  5
205
100
AcDbSymbolTableRecord
100
AcDbLayerTableRecord
  2
07_COSMETICS
 70
0
 62
7
  6
CONTINUOUS
370
-3
390
F
  0
LAYER
  5
206
100
AcDbSymbolTableRecord
100
AcDbLayerTableRecord
  2
10_NOTES
 70
0
 62
7
  6
CONTINUOUS
370
-3
390
F
  0
LAYER
  5
207
100
AcDbSymbolTableRecord
100
AcDbLayerTableRecord
  2
11_NOTES_PUB
 70
0
 62
7
  6
CONTINUOUS
370
-3
390
F
  0
LAYER
  5
208
100
AcDbSymbolTableRecord
100
AcDbLayerTableRecord
  2
13_REF_GTOL
 70
0
 62
7
  6
CONTINUOUS
370
-3
390
F
  0
LAYER
  5
209
100
AcDbSymbolTableRecord
100
AcDbLayerTableRecord
  2
16_MISC
 70
0
 62
7
  6
CONTINUOUS
370
-3
390
F
  0
LAYER
  5
20A
100
AcDbSymbolTableRecord
100
AcDbLayerTableRecord
  2
17_NO_PRINT
 70
0
 62
7
  6
CONTINUOUS
370
-3
390
F
  0
LAYER
  5
20B
100
AcDbSymbolTableRecord
100
AcDbLayerTableRecord
  2
18_DATUM_CAMS_JOINTS
 70
0
 62
7
  6
CONTINUOUS
370
-3
390
F
  0
LAYER
  5
20C
100
AcDbSymbolTableRecord
100
AcDbLayerTableRecord
  2
19_DATUM_FUNCTIONAL
 70
0
 62
7
  6
CONTINUOUS
370
-3
390
F
  0
LAYER
  5
20D
100
AcDbSymbolTableRecord
100
AcDbLayerTableRecord
  2
20_DATUM_KINEMATIC_SCHEME
 70
0
 62
7
  6
CONTINUOUS
370
-3
390
F
  0
ENDTAB
  0
TABLE
  2
STYLE
  5
3
100
AcDbSymbolTable
 70
1
  0
STYLE
  5
11
100
AcDbSymbolTableRecord
100
AcDbTextStyleTableRecord
  2
STANDARD
 70
0
 40
0.0
 41
0.8
 50
0.0
 71
0
 42
0.2
  3
txt
  4

  0
STYLE
  5
20E
100
AcDbSymbolTableRecord
100
AcDbTextStyleTableRecord
  2
TEXTSTYLE_1
 70
0
 40
0.0
 41
0.8
 50
0.0
 71
0
 42
0.2
  3
gdt
  4

  0
ENDTAB
  0
TABLE
  2
VIEW
  5
6
100
AcDbSymbolTable
 70
0
  0
ENDTAB
  0
TABLE
  2
UCS
  5
7
100
AcDbSymbolTable
 70
0
  0
ENDTAB
  0
TABLE
  2
APPID
  5
9
100
AcDbSymbolTable
 70
1
  0
APPID
  5
20F
100
AcDbSymbolTableRecord
100
AcDbRegAppTableRecord
  2
ACAD
 70
0
  0
ENDTAB
  0
TABLE
  2
BLOCK_RECORD
  5
1
100
AcDbSymbolTable
 70
0
  0
BLOCK_RECORD
  5
210
100
AcDbSymbolTableRecord
100
AcDbBlockTableRecord
  2
*Model_Space
  0
BLOCK_RECORD
  5
211
100
AcDbSymbolTableRecord
100
AcDbBlockTableRecord
  2
*Paper_Space
  0
BLOCK_RECORD
  5
212
100
AcDbSymbolTableRecord
100
AcDbBlockTableRecord
  2
_FILLED
  0
ENDTAB
  0
TABLE
  2
DIMSTYLE
  5
A
100
AcDbSymbolTable
 70
1
100
AcDbDimStyleTable
 71
0
  0
DIMSTYLE
105
213
100
AcDbSymbolTableRecord
100
AcDbDimStyleTableRecord
  2
STANDARD
 70
0
  3

  4

 40
1.0
 41
1.8187125788
 42
1.0
 43
0.38
 44
1.0
 45
0.0
 46
0.0
 47
0.01
 48
0.01
140
2.5461976103
141
0.09
142
0.0
143
25.4
144
1.0
145
0.0
146
1.0
147
0.625
 71
1
 72
0
 73
0
 74
0
 75
0
 76
0
 77
1
 78
8
 79
2
170
0
171
1
172
0
173
0
174
0
175
0
176
0
177
0
178
0
270
2
179
2
271
2
272
2
273
2
274
2
275
0
280
0
281
0
282
0
283
1
284
8
285
0
286
0
287
3
288
0
340
11
278
46
341
212
342
212
343
212
344
212
  0
ENDTAB
  0
ENDSEC
  0
SECTION
  2
BLOCKS
  0
BLOCK
  5
20
100
AcDbEntity
  8
0
100
AcDbBlockBegin
  2
*Model_Space
 70
0
 10
0.0
 20
0.0
 30
0.0
  3
*Model_Space
  1

  0
ENDBLK
  5
21
100
AcDbEntity
  8
0
100
AcDbBlockEnd
  0
BLOCK
  5
1C
100
AcDbEntity
  8
0
100
AcDbBlockBegin
  2
*Paper_Space
 70
0
 10
0.0
 20
0.0
 30
0.0
  3
*Paper_Space
  1

  0
ENDBLK
  5
1D
100
AcDbEntity
  8
0
100
AcDbBlockEnd
  0
BLOCK
  5
214
100
AcDbEntity
  8
0
100
AcDbBlockBegin
  2
_FILLED
 70
64
 10
0.0
 20
0.0
  3
_FILLED
  1

  0
SOLID
  5
215
100
AcDbEntity
  8
0
  6
BYBLOCK
 62
0
100
AcDbTrace
 10
0.0
 20
0.0
 11
-1.0
 21
0.25
 12
-1.0
 22
-0.25
 13
-1.0
 23
-0.25
  0
ENDBLK
  5
216
100
AcDbEntity
  8
0
  6
BYBLOCK
 62
0
100
AcDbBlockEnd
  0
ENDSEC
  0
SECTION
  2
ENTITIES
  0
LINE
  5
217
100
AcDbEntity
  8
0
100
AcDbLine
 62
7
  6
CONTINUOUS
 10
18.5691938569
 20
106.8005728228
 11
17.5803634706
 21
66.4354896479
  0
LINE
  5
218
100
AcDbEntity
  8
0
100
AcDbLine
 62
7
  6
CONTINUOUS
 10
27.6648428256
 20
144.8383329262
 11
25.6262148956
 21
111.3669464207
  0
LWPOLYLINE
  5
219
100
AcDbEntity
  8
0
100
AcDbPolyline
 62
7
  6
CONTINUOUS
 90
10
 70
0
 10
25.8428952016
 20
111.3529050008
 10
25.5213875121
 20
106.3915559875
 10
29.562592455
 20
97.6842390124
 10
37.8696762539
 20
90.0514739181
 10
43.4054813102
 20
86.8554476826
 10
56.6260764262
 20
82.0594827365
 10
71.7078410813
 20
79.7263978342
 10
87.3106943006
 20
80.0634978081
 10
102.0482541036
 20
83.040829846
 10
114.6110236271
 20
88.3938449306
  0
LINE
  5
21A
100
AcDbEntity
  8
0
100
AcDbLine
 62
7
  6
CONTINUOUS
 10
26.2336032021
 20
123.1924700427
 11
26.3064503338
 21
123.2686262487
  0
LINE
  5
21B
100
AcDbEntity
  8
0
100
AcDbLine
 62
7
  6
CONTINUOUS
 10
26.2591443728
 20
123.1843512337
 11
26.3502523967
 21
123.254617872
  0
LINE
  5
21C
100
AcDbEntity
  8
0
100
AcDbLine
 62
7
  6
CONTINUOUS
 10
84.1311709609
 20
30.0669349708
 11
84.1311709611
 21
26.341253137
  0
LINE
  5
21D
100
AcDbEntity
  8
0
100
AcDbLine
 62
7
  6
CONTINUOUS
 10
89.1311709609
 20
30.2518685591
 11
89.1311709611
 21
26.3412531372
  0
LWPOLYLINE
  5
21E
100
AcDbEntity
  8
0
100
AcDbPolyline
 62
7
  6
CONTINUOUS
 90
3
 70
0
 10
114.6110236271
 20
88.3938449306
 10
123.8827456681
 20
95.6469041802
 10
129.0395870349
 20
104.1555414511
  0
LWPOLYLINE
  5
21F
100
AcDbEntity
  8
0
100
AcDbPolyline
 62
7
  6
CONTINUOUS
 90
3
 70
0
 10
128.8372449669
 20
122.552393174
 10
132.4832868204
 20
118.6973875699
 10
132.7383614248
 20
118.0204335442
  0
LWPOLYLINE
  5
220
100
AcDbEntity
  8
0
100
AcDbPolyline
 62
7
  6
CONTINUOUS
 90
3
 70
0
 10
128.8268044247
 20
122.7238121054
 10
133.8498218369
 20
116.6839787579
 10
136.5755333972
 20
106.8005728253
  0
LINE
  5
221
100
AcDbEntity
  8
0
100
AcDbLine
 62
7
  6
CONTINUOUS
 10
127.4798742122
 20
144.8385006389
 11
129.5185123583
 21
111.3669464229
  0
LWPOLYLINE
  5
222
100
AcDbEntity
  8
0
100
AcDbPolyline
 62
7
  6
CONTINUOUS
 90
3
 70
0
 10
129.0395870349
 20
104.1555414511
 10
129.6233397418
 20
113.1637269822
 10
129.376711175
 20
113.6951212413
  0
LINE
  5
223
100
AcDbEntity
  8
0
100
AcDbLine
 62
7
  6
CONTINUOUS
 10
136.5755333972
 20
106.8005728253
 11
137.5643637853
 21
66.4354896505
  0
LWPOLYLINE
  5
224
100
AcDbEntity
  8
0
100
AcDbPolyline
 62
7
  6
CONTINUOUS
 90
4
 70
0
 10
137.5723636279
 20
65.0474728817
 10
135.5271658061
 20
55.7944769095
 10
129.4039516746
 20
47.0795843379
 10
120.288562791
 20
40.1709054482
  0
LINE
  5
225
100
AcDbEntity
  8
0
100
AcDbLine
 62
7
  6
CONTINUOUS
 10
119.9989471368
 20
41.3695300275
 11
120.0379430221
 21
41.3996116046
  0
LINE
  5
226
100
AcDbEntity
  8
0
100
AcDbLine
 62
7
  6
CONTINUOUS
 10
119.9989471368
 20
41.3695300275
 11
120.0444791923
 21
41.3958461526
  0
LINE
  5
227
100
AcDbEntity
  8
0
100
AcDbLine
 62
7
  6
CONTINUOUS
 10
119.9975329173
 20
41.4519967507
 11
119.9723142215
 21
41.4374454958
  0
LINE
  5
228
100
AcDbEntity
  8
0
100
AcDbLine
 62
7
  6
CONTINUOUS
 10
119.9975329173
 20
41.4519967507
 11
119.968696819
 21
41.4395364489
  0
LWPOLYLINE
  5
229
100
AcDbEntity
  8
0
100
AcDbPolyline
 62
7
  6
CONTINUOUS
 90
9
 70
0
 10
119.5847232096
 20
39.6374557271
 10
105.3444495464
 20
33.5557411101
 10
88.7781426567
 20
30.1799299615
 10
71.2909946469
 20
29.7547153795
 10
54.3315908163
 20
32.3062193933
 10
39.3098478048
 20
37.6487922309
 10
27.5291467201
 20
45.3787616908
 10
20.0846808297
 20
54.814350264
 10
18.4001026412
 20
61.6759420828
  0
ARC
  5
22A
100
AcDbEntity
  8
0
100
AcDbCircle
 62
7
  6
CONTINUOUS
 10
91.4879433549
 20
89.9384620353
 40
57.0245426986
100
AcDbArc
 50
299.3024797899
 51
299.9985293882
  0
ARC
  5
22B
100
AcDbEntity
  8
0
100
AcDbCircle
 62
7
  6
CONTINUOUS
 10
91.5712562692
 20
90.6896446727
 40
56.8541926033
100
AcDbArc
 50
299.5129074816
 51
299.9697046002
  0
ARC
  5
22C
100
AcDbEntity
  8
0
100
AcDbCircle
 62
7
  6
CONTINUOUS
 10
92.0438482385
 20
88.9745838364
 40
55.9118472398
100
AcDbArc
 50
299.9990241267
 51
300.597795878
  0
ARC
  5
22D
100
AcDbEntity
  8
0
100
AcDbCircle
 62
7
  6
CONTINUOUS
 10
91.7490254586
 20
87.8565954051
 40
55.6768488743
100
AcDbArc
 50
299.9967599969
 51
300.9555318403
  0
ARC
  5
22E
100
AcDbEntity
  8
0
100
AcDbCircle
 62
7
  6
CONTINUOUS
 10
77.5723636279
 20
141.7987000918
 40
50.0
100
AcDbArc
 50
3.4879357179
 51
176.5119079039
  0
ARC
  5
22F
100
AcDbEntity
  8
0
100
AcDbCircle
 62
7
  6
CONTINUOUS
 10
50.6643126886
 20
99.887052127
 40
33.7639166899
100
AcDbArc
 50
136.350392722
 51
138.0717668474
  0
ARC
  5
230
100
AcDbEntity
  8
0
100
AcDbCircle
 62
7
  6
CONTINUOUS
 10
38.8698111317
 20
65.0475223104
 40
21.2974475038
100
AcDbArc
 50
180.0001329832
 51
181.0821723712
  0
ARC
  5
231
100
AcDbEntity
  8
0
100
AcDbCircle
 62
7
  6
CONTINUOUS
 10
37.6045804513
 20
65.9458868651
 40
20.0301341739
100
AcDbArc
 50
180.2292339433
 51
182.5619720693
  0
ARC
  5
232
100
AcDbEntity
  8
0
100
AcDbCircle
 62
7
  6
CONTINUOUS
 10
117.541949157
 20
65.9457573622
 40
20.0283315906
100
AcDbArc
 50
357.539796616
 51
359.8169459722
  0
ARC
  5
233
100
AcDbEntity
  8
0
100
AcDbCircle
 62
7
  6
CONTINUOUS
 10
37.6000654773
 20
65.8641342041
 40
20.0276191177
100
AcDbArc
 50
180.0004545964
 51
182.3293590475
  0
ARC
  5
234
100
AcDbEntity
  8
0
100
AcDbCircle
 62
7
  6
CONTINUOUS
 10
117.5524074816
 20
65.863928243
 40
20.019873414
100
AcDbArc
 50
357.7368505247
 51
1.3023831276
  0
ARC
  5
235
100
AcDbEntity
  8
0
100
AcDbCircle
 62
7
  6
CONTINUOUS
 10
117.552350209
 20
65.9455680778
 40
20.0179299876
100
AcDbArc
 50
359.8173926314
 51
1.4023014509
  0
ARC
  5
236
100
AcDbEntity
  8
0
100
AcDbCircle
 62
7
  6
CONTINUOUS
 10
37.5891810348
 20
65.8639977164
 40
20.0167346745
100
AcDbArc
 50
179.5588000043
 51
180.0000641619
  0
ARC
  5
237
100
AcDbEntity
  8
0
100
AcDbCircle
 62
7
  6
CONTINUOUS
 10
37.5901845223
 20
65.9456731169
 40
20.0157375055
100
AcDbArc
 50
178.5979245927
 51
180.2287869577
  0
SPLINE
  5
238
100
AcDbEntity
  8
0
100
AcDbSpline
 62
7
  6
CONTINUOUS
 70
0
 71
3
 72
25
 73
21
 74
0
 42
0.0000001
 43
0.0000001
 44
0.0000000001
 40
0.0
 40
0.0
 40
0.0
 40
0.0
 40
0.0624067065
 40
0.1286589299
 40
0.1980774574
 40
0.2698150525
 40
0.342921394
 40
0.4163848329
 40
0.4891791177
 40
0.5603065641
 40
0.6288430779
 40
0.6939862562
 40
0.7551102815
 40
0.8118307058
 40
0.8640817572
 40
0.9122038051
 40
0.9349877302
 40
0.9570912447
 40
0.9786943461
 40
1.0
 40
1.0
 40
1.0
 40
1.0
 10
119.5787470045
 20
41.2125825198
 30
0.0
 10
117.4366977035
 20
40.0000041745
 30
0.0
 10
112.8578841347
 20
37.7808942973
 30
0.0
 10
105.4888968041
 20
35.1483173475
 30
0.0
 10
97.5427084037
 20
33.1536071617
 30
0.0
 10
89.1839442776
 20
31.838358272
 30
0.0
 10
80.5848197601
 20
31.2292933925
 30
0.0
 10
71.9233404727
 20
31.3391104528
 30
0.0
 10
63.3788074099
 20
32.1654979412
 30
0.0
 10
55.1279228683
 20
33.6914138267
 30
0.0
 10
47.3408436775
 20
35.8855301466
 30
0.0
 10
40.1774028324
 20
38.7034222324
 30
0.0
 10
33.7838647182
 20
42.0888935143
 30
0.0
 10
28.2899767451
 20
45.9775949129
 30
0.0
 10
23.8096839996
 20
50.2958310889
 30
0.0
 10
20.9502875859
 20
54.2654722638
 30
0.0
 10
19.3076025274
 20
57.5530405323
 30
0.0
 10
18.4046616438
 20
60.0216989148
 30
0.0
 10
17.8147093807
 20
62.5232681525
 30
0.0
 10
17.632027317
 20
64.2110425285
 30
0.0
 10
17.5944672429
 20
65.0505408924
 30
0.0
  0
SPLINE
  5
239
100
AcDbEntity
  8
0
100
AcDbSpline
 62
7
  6
CONTINUOUS
 70
0
 71
3
 72
11
 73
7
 74
0
 42
0.0000001
 43
0.0000001
 44
0.0000000001
 40
0.0
 40
0.0
 40
0.0
 40
0.0
 40
0.2897836575
 40
0.5490338959
 40
0.7822251794
 40
1.0
 40
1.0
 40
1.0
 40
1.0
 10
84.8633661017
 20
25.320668887
 30
0.0
 10
84.7536445036
 20
25.3840185199
 30
0.0
 10
84.5546477969
 20
25.5210833874
 30
0.0
 10
84.3168721722
 20
25.7710843476
 30
0.0
 10
84.1662827105
 20
26.0475179693
 30
0.0
 10
84.1312569949
 20
26.2460396599
 30
0.0
 10
84.1312615305
 20
26.3412531355
 30
0.0
  0
SPLINE
  5
23A
100
AcDbEntity
  8
0
100
AcDbSpline
 62
7
  6
CONTINUOUS
 70
0
 71
3
 72
11
 73
7
 74
0
 42
0.0000001
 43
0.0000001
 44
0.0000000001
 40
0.0
 40
0.0
 40
0.0
 40
0.0
 40
0.2177416576
 40
0.4508857691
 40
0.7104589349
 40
1.0
 40
1.0
 40
1.0
 40
1.0
 10
89.1310803916
 20
26.3412531387
 30
0.0
 10
89.1310758566
 20
26.2460514854
 30
0.0
 10
89.0960774149
 20
26.0475678263
 30
0.0
 10
88.945514431
 20
25.7709685502
 30
0.0
 10
88.7075331685
 20
25.5211196411
 30
0.0
 10
88.5085790604
 20
25.3839479692
 30
0.0
 10
88.3989452739
 20
25.3206512509
 30
0.0
  0
SPLINE
  5
23B
100
AcDbEntity
  8
0
100
AcDbSpline
 62
7
  6
CONTINUOUS
 70
0
 71
3
 72
11
 73
7
 74
0
 42
0.0000001
 43
0.0000001
 44
0.0000000001
 40
0.0
 40
0.0
 40
0.0
 40
0.0
 40
0.2372711392
 40
0.5000222786
 40
0.7627989613
 40
1.0
 40
1.0
 40
1.0
 40
1.0
 10
88.0453904114
 20
25.1165204196
 30
0.0
 10
87.8445846929
 20
25.000585876
 30
0.0
 10
87.3776549964
 20
24.8314015143
 30
0.0
 10
86.6310738524
 20
24.7504777203
 30
0.0
 10
85.88457526
 20
24.8314804791
 30
0.0
 10
85.4176882802
 20
25.0006407626
 30
0.0
 10
85.2169436446
 20
25.1165440952
 30
0.0
  0
SPLINE
  5
23C
100
AcDbEntity
  8
0
100
AcDbSpline
 62
7
  6
CONTINUOUS
 70
0
 71
3
 72
15
 73
11
 74
0
 42
0.0000001
 43
0.0000001
 44
0.0000000001
 40
0.0
 40
0.0
 40
0.0
 40
0.0
 40
0.1078252089
 40
0.21802961
 40
0.332290589
 40
0.4519800707
 40
0.5781041503
 40
0.7113129892
 40
0.8519676949
 40
1.0
 40
1.0
 40
1.0
 40
1.0
 10
137.5518201904
 20
65.0860320956
 30
0.0
 10
137.504474719
 20
63.984001813
 30
0.0
 10
137.2227290876
 20
61.7595552564
 30
0.0
 10
136.2562450209
 20
58.4867399456
 30
0.0
 10
134.7554900673
 20
55.2879958982
 30
0.0
 10
132.7379493454
 20
52.1933570495
 30
0.0
 10
130.2245901188
 20
49.2289208405
 30
0.0
 10
127.2389555703
 20
46.4194781597
 30
0.0
 10
123.8089976832
 20
43.7893663715
 30
0.0
 10
121.3090121843
 20
42.2091751388
 30
0.0
 10
119.9975329173
 20
41.4519967507
 30
0.0
  0
SPLINE
  5
23D
100
AcDbEntity
  8
0
100
AcDbSpline
 62
7
  6
CONTINUOUS
 70
0
 71
3
 72
11
 73
7
 74
0
 42
0.0000001
 43
0.0000001
 44
0.0000000001
 40
0.0
 40
0.0
 40
0.0
 40
0.0
 40
0.2344341961
 40
0.4758632024
 40
0.7297000712
 40
1.0
 40
1.0
 40
1.0
 40
1.0
 10
18.5691938569
 20
106.8005728228
 30
0.0
 10
18.6049074344
 20
108.2584381387
 30
0.0
 10
19.0027370888
 20
111.2187689482
 30
0.0
 10
20.5419175008
 20
115.5200686039
 30
0.0
 10
22.9801205825
 20
119.6400164507
 30
0.0
 10
25.0964593715
 20
122.1403584405
 30
0.0
 10
26.2699931021
 20
123.3444952406
 30
0.0
  0
SPLINE
  5
23E
100
AcDbEntity
  8
0
100
AcDbSpline
 62
7
  6
CONTINUOUS
 70
0
 71
3
 72
25
 73
21
 74
0
 42
0.0000001
 43
0.0000001
 44
0.0000000001
 40
0.0
 40
0.0
 40
0.0
 40
0.0
 40
0.0627085818
 40
0.1294407888
 40
0.1994668086
 40
0.2718808862
 40
0.3456608028
 40
0.4197213888
 40
0.4929648191
 40
0.5643303649
 40
0.6328458935
 40
0.6976838976
 40
0.7582256392
 40
0.8141376979
 40
0.8654636214
 40
0.9127235064
 40
0.935179646
 40
0.9570665846
 40
0.9785962546
 40
1.0
 40
1.0
 40
1.0
 40
1.0
 10
114.3266929303
 20
89.0927138272
 30
0.0
 10
112.4304415849
 20
87.9979191376
 30
0.0
 10
108.3629713573
 20
85.99744697
 30
0.0
 10
101.7978744174
 20
83.6365970303
 30
0.0
 10
94.7012274343
 20
81.8620090474
 30
0.0
 10
87.2292531532
 20
80.7128116524
 30
0.0
 10
79.5451718689
 20
80.2138388888
 30
0.0
 10
71.8177841233
 20
80.3760955374
 30
0.0
 10
64.2167684582
 20
81.1960019239
 30
0.0
 10
56.9088411234
 20
82.6556264655
 30
0.0
 10
50.053753853
 20
84.723246584
 30
0.0
 10
43.8005367015
 20
87.3546580101
 30
0.0
 10
38.2843227978
 20
90.4946863752
 30
0.0
 10
33.6238817028
 20
94.0810904364
 30
0.0
 10
29.9227350611
 20
98.0432501072
 30
0.0
 10
27.6745792897
 20
101.6641932107
 30
0.0
 10
26.4819569558
 20
104.6392923254
 30
0.0
 10
25.888536663
 20
106.8678292689
 30
0.0
 10
25.586674907
 20
109.1169037303
 30
0.0
 10
25.5807844425
 20
110.6209727052
 30
0.0
 10
25.6262150341
 20
111.3669464179
 30
0.0
  0
SPLINE
  5
23F
100
AcDbEntity
  8
0
100
AcDbSpline
 62
7
  6
CONTINUOUS
 70
0
 71
3
 72
15
 73
11
 74
0
 42
0.0000001
 43
0.0000001
 44
0.0000000001
 40
0.0
 40
0.0
 40
0.0
 40
0.0
 40
0.1493190062
 40
0.2905871119
 40
0.4237711151
 40
0.549361673
 40
0.6682352636
 40
0.78172157
 40
0.8916015418
 40
1.0
 40
1.0
 40
1.0
 40
1.0
 10
112.8842655939
 20
123.4383185336
 30
0.0
 10
114.0596808584
 20
124.1169411118
 30
0.0
 10
116.2918379777
 20
125.5373940406
 30
0.0
 10
119.3279638302
 20
127.918769152
 30
0.0
 10
121.9298283692
 20
130.4709366729
 30
0.0
 10
124.068789759
 20
133.1684651214
 30
0.0
 10
125.7206768783
 20
135.985252005
 30
0.0
 10
126.8644634552
 20
138.8931290405
 30
0.0
 10
127.4836466995
 20
141.8593189612
 30
0.0
 10
127.5397703398
 20
143.8550235751
 30
0.0
 10
127.479874123
 20
144.8385005037
 30
0.0
  0
SPLINE
  5
240
100
AcDbEntity
  8
0
100
AcDbSpline
 62
7
  6
CONTINUOUS
 70
0
 71
3
 72
15
 73
11
 74
0
 42
0.0000001
 43
0.0000001
 44
0.0000000001
 40
0.0
 40
0.0
 40
0.0
 40
0.0
 40
0.1480461673
 40
0.2886963539
 40
0.4218897087
 40
0.5479928367
 40
0.6676624325
 40
0.7819144994
 40
0.8921312552
 40
1.0
 40
1.0
 40
1.0
 40
1.0
 10
120.0444791923
 20
41.3958461526
 30
0.0
 10
121.356110959
 20
42.1547460534
 30
0.0
 10
123.8559933988
 20
43.7384272051
 30
0.0
 10
127.2845717545
 20
46.3742785816
 30
0.0
 10
130.2673435405
 20
49.1895695656
 30
0.0
 10
132.7763349957
 20
52.1598782236
 30
0.0
 10
134.7879266397
 20
55.2603303024
 30
0.0
 10
136.281153435
 20
58.4646763968
 30
0.0
 10
137.238528079
 20
61.7427395657
 30
0.0
 10
137.5130620091
 20
63.9699785115
 30
0.0
 10
137.5566598962
 20
65.07323016
 30
0.0
  0
SPLINE
  5
241
100
AcDbEntity
  8
0
100
AcDbSpline
 62
7
  6
CONTINUOUS
 70
0
 71
3
 72
9
 73
5
 74
0
 42
0.0000001
 43
0.0000001
 44
0.0000000001
 40
0.0
 40
0.0
 40
0.0
 40
0.0
 40
0.2422434253
 40
1.0
 40
1.0
 40
1.0
 40
1.0
 10
88.3989452739
 20
25.3206512509
 30
0.0
 10
88.373699911
 20
25.3060759208
 30
0.0
 10
88.2683534798
 20
25.2478768201
 30
0.0
 10
88.1588635454
 20
25.1972839367
 30
0.0
 10
88.074441955
 20
25.1628183402
 30
0.0
  0
SPLINE
  5
242
100
AcDbEntity
  8
0
100
AcDbSpline
 62
7
  6
CONTINUOUS
 70
0
 71
3
 72
10
 73
6
 74
0
 42
0.0000001
 43
0.0000001
 44
0.0000000001
 40
0.0
 40
0.0
 40
0.0
 40
0.0
 40
0.2396716101
 40
0.4944480713
 40
1.0
 40
1.0
 40
1.0
 40
1.0
 10
88.074441955
 20
25.1628183402
 30
0.0
 10
87.8807604862
 20
25.0837467742
 30
0.0
 10
87.4634719366
 20
24.9618265023
 30
0.0
 10
86.5950198084
 20
24.8591192614
 30
0.0
 10
85.9195431413
 20
24.930673387
 30
0.0
 10
85.4962039858
 20
25.0552116528
 30
0.0
  0
SPLINE
  5
243
100
AcDbEntity
  8
0
100
AcDbSpline
 62
7
  6
CONTINUOUS
 70
0
 71
3
 72
9
 73
5
 74
0
 42
0.0000001
 43
0.0000001
 44
0.0000000001
 40
0.0
 40
0.0
 40
0.0
 40
0.0
 40
0.2619540676
 40
1.0
 40
1.0
 40
1.0
 40
1.0
 10
85.4962039858
 20
25.0552116528
 30
0.0
 10
85.4386445624
 20
25.072144532
 30
0.0
 10
85.2207087648
 20
25.1425175763
 30
0.0
 10
85.009760848
 20
25.2361453876
 30
0.0
 10
84.8633661017
 20
25.320668887
 30
0.0
  0
SPLINE
  5
244
100
AcDbEntity
  8
0
100
AcDbSpline
 62
7
  6
CONTINUOUS
 70
0
 71
3
 72
25
 73
21
 74
0
 42
0.0000001
 43
0.0000001
 44
0.0000000001
 40
0.0
 40
0.0
 40
0.0
 40
0.0
 40
0.0627669862
 40
0.1294035762
 40
0.1992097426
 40
0.2713119402
 40
0.3447332086
 40
0.4184372315
 40
0.4913757745
 40
0.5625338201
 40
0.6309767069
 40
0.695901048
 40
0.7566927012
 40
0.8129955131
 40
0.8647936241
 40
0.9125029335
 40
0.9351277754
 40
0.9571201314
 40
0.9786729564
 40
1.0
 40
1.0
 40
1.0
 40
1.0
 10
119.3969061556
 20
40.2103184406
 30
0.0
 10
117.2255231871
 20
38.9916059832
 30
0.0
 10
112.5845097857
 20
36.7650591444
 30
0.0
 10
105.1184836601
 20
34.1353920478
 30
0.0
 10
97.0724687839
 20
32.1576678603
 30
0.0
 10
88.6161545855
 20
30.8739578921
 30
0.0
 10
79.927027999
 20
30.3107997121
 30
0.0
 10
71.1882758053
 20
30.4801674113
 30
0.0
 10
62.5841036736
 20
31.3784507078
 30
0.0
 10
54.2956857728
 20
32.9867929866
 30
0.0
 10
46.497020126
 20
35.2716020964
 30
0.0
 10
39.3509962218
 20
38.1858695847
 30
0.0
 10
33.0060413524
 20
41.6706410383
 30
0.0
 10
27.5933072079
 20
45.6589566215
 30
0.0
 10
23.2275026536
 20
50.0744642605
 30
0.0
 10
20.4961662498
 20
54.1209862022
 30
0.0
 10
18.9740750285
 20
57.4601508372
 30
0.0
 10
18.167344287
 20
59.9648734957
 30
0.0
 10
17.6808359575
 20
62.4983843261
 30
0.0
 10
17.5724280082
 20
64.2014132532
 30
0.0
 10
17.5724278086
 20
65.047472879
 30
0.0
  0
SPLINE
  5
245
100
AcDbEntity
  8
0
100
AcDbSpline
 62
7
  6
CONTINUOUS
 70
0
 71
3
 72
18
 73
14
 74
0
 42
0.0000001
 43
0.0000001
 44
0.0000000001
 40
0.0
 40
0.0
 40
0.0
 40
0.0
 40
0.1188063628
 40
0.1759262676
 40
0.232087121
 40
0.2878123148
 40
0.3436462912
 40
0.4001287119
 40
0.4577671383
 40
0.5781142492
 40
0.7077000783
 40
0.8481541814
 40
1.0
 40
1.0
 40
1.0
 40
1.0
 10
132.8881404695
 20
118.050697817
 30
0.0
 10
133.7625244326
 20
116.6082858241
 30
0.0
 10
134.8560958179
 20
114.3345189553
 30
0.0
 10
135.7550344002
 20
111.1584862049
 30
0.0
 10
136.1335642932
 20
108.7829602095
 30
0.0
 10
136.2209804239
 20
106.3975433059
 30
0.0
 10
136.017623548
 20
104.0146020083
 30
0.0
 10
135.5239692399
 20
101.6468246318
 30
0.0
 10
134.4696138751
 20
98.4825413387
 30
0.0
 10
132.3957373004
 20
94.5996833842
 30
0.0
 10
128.8724556762
 20
90.284476285
 30
0.0
 10
124.3590806619
 20
86.3126903787
 30
0.0
 10
120.880331483
 20
84.0253477596
 30
0.0
 10
119.0133364626
 20
82.9474441162
 30
0.0
  0
SPLINE
  5
246
100
AcDbEntity
  8
0
100
AcDbSpline
 62
7
  6
CONTINUOUS
 70
0
 71
3
 72
25
 73
21
 74
0
 42
0.0000001
 43
0.0000001
 44
0.0000000001
 40
0.0
 40
0.0
 40
0.0
 40
0.0
 40
0.0213105322
 40
0.0429144073
 40
0.065017296
 40
0.0878017064
 40
0.1359352701
 40
0.1882210589
 40
0.2450022244
 40
0.3062095708
 40
0.3714509444
 40
0.4400900215
 40
0.5113121862
 40
0.5841803746
 40
0.6576842445
 40
0.730786195
 40
0.8024654044
 40
0.8717649294
 40
0.9378368174
 40
1.0
 40
1.0
 40
1.0
 40
1.0
 10
17.5889951829
 20
65.0501359289
 30
0.0
 10
17.6233189541
 20
64.2062780208
 30
0.0
 10
17.8005857047
 20
62.5094653239
 30
0.0
 10
18.3859642836
 20
59.9939001974
 30
0.0
 10
19.287751093
 20
57.5113150871
 30
0.0
 10
20.9335567033
 20
54.2050349671
 30
0.0
 10
23.8059050447
 20
50.2130536913
 30
0.0
 10
28.3127910205
 20
45.8729710849
 30
0.0
 10
33.843197946
 20
41.9674702159
 30
0.0
 10
40.2812702385
 20
38.5712744007
 30
0.0
 10
47.495027966
 20
35.74957685
 30
0.0
 10
55.3356656076
 20
33.5592330248
 30
0.0
 10
63.6405791593
 20
32.0450552586
 30
0.0
 10
72.2367107947
 20
31.2384559985
 30
0.0
 10
80.9444426859
 20
31.15624402
 30
0.0
 10
89.5816650332
 20
31.8001703771
 30
0.0
 10
97.9677358227
 20
33.1567047279
 30
0.0
 10
105.92818984
 20
35.1979625424
 30
0.0
 10
113.2961781961
 20
37.8810584375
 30
0.0
 10
117.8654183371
 20
40.1377439535
 30
0.0
 10
119.9989471368
 20
41.3695300275
 30
0.0
  0
SPLINE
  5
247
100
AcDbEntity
  8
0
100
AcDbSpline
 62
7
  6
CONTINUOUS
 70
0
 71
3
 72
15
 73
11
 74
0
 42
0.0000001
 43
0.0000001
 44
0.0000000001
 40
0.0
 40
0.0
 40
0.0
 40
0.0
 40
0.1488847455
 40
0.2899445623
 40
0.4231479861
 40
0.5489383943
 40
0.6681036021
 40
0.7818615549
 40
0.8918423038
 40
1.0
 40
1.0
 40
1.0
 40
1.0
 10
119.2982514045
 20
82.2288754465
 30
0.0
 10
120.652437471
 20
83.0107104696
 30
0.0
 10
123.2274207995
 20
84.6454222613
 30
0.0
 10
126.7405687954
 20
87.3791333529
 30
0.0
 10
129.7680742193
 20
90.3055519451
 30
0.0
 10
132.278633155
 20
93.3969022455
 30
0.0
 10
134.2454542583
 20
96.6250017994
 30
0.0
 10
135.6452503115
 20
99.9594098531
 30
0.0
 10
136.4592875733
 20
103.364876255
 30
0.0
 10
136.6032715906
 20
105.6649753858
 30
0.0
 10
136.5754750725
 20
106.8005723495
 30
0.0
  0
SPLINE
  5
248
100
AcDbEntity
  8
0
100
AcDbSpline
 62
7
  6
CONTINUOUS
 70
0
 71
3
 72
15
 73
11
 74
0
 42
0.0000001
 43
0.0000001
 44
0.0000000001
 40
0.0
 40
0.0
 40
0.0
 40
0.0
 40
0.1083633669
 40
0.2187094849
 40
0.3328463506
 40
0.4522793537
 40
0.5781382893
 40
0.7111620118
 40
0.8517789156
 40
1.0
 40
1.0
 40
1.0
 40
1.0
 10
137.5722994473
 20
65.0474728816
 30
0.0
 10
137.5722997113
 20
63.9289840156
 30
0.0
 10
137.3811798141
 20
61.6671320491
 30
0.0
 10
136.5277198321
 20
58.3246052511
 30
0.0
 10
135.1183717047
 20
55.0517424043
 30
0.0
 10
133.1705308686
 20
51.8807167476
 30
0.0
 10
130.705452848
 20
48.8395839593
 30
0.0
 10
127.74766958
 20
45.9544365257
 30
0.0
 10
124.3256886552
 20
43.2508601674
 30
0.0
 10
121.820298842
 20
41.6265562161
 30
0.0
 10
120.503442738
 20
40.8478122566
 30
0.0
  0
SPLINE
  5
249
100
AcDbEntity
  8
0
100
AcDbSpline
 62
7
  6
CONTINUOUS
 70
0
 71
3
 72
61
 73
57
 74
0
 42
0.0000001
 43
0.0000001
 44
0.0000000001
 40
0.0
 40
0.0
 40
0.0
 40
0.0
 40
0.0213993673
 40
0.0429270798
 40
0.0648110769
 40
0.0872629476
 40
0.1345177691
 40
0.1596377942
 40
0.172595677
 40
0.1858583104
 40
0.1994134759
 40
0.2062947142
 40
0.2132457507
 40
0.2202745228
 40
0.2273893166
 40
0.234562183
 40
0.2417649917
 40
0.2491291359
 40
0.2529019641
 40
0.2566194953
 40
0.260173635
 40
0.2635906586
 40
0.2670125715
 40
0.2705812997
 40
0.2744352349
 40
0.2785081702
 40
0.2826505319
 40
0.2867280742
 40
0.2945914514
 40
0.302211996
 40
0.306070756
 40
0.3100386435
 40
0.3182169145
 40
0.3223111609
 40
0.3263495905
 40
0.3343472888
 40
0.3383598984
 40
0.3424080798
 40
0.3505993288
 40
0.3588621487
 40
0.3671574504
 40
0.3755035092
 40
0.3839220293
 40
0.3924132974
 40
0.4009634401
 40
0.4182024859
 40
0.4356260494
 40
0.4709984486
 40
0.5069695038
 40
0.5801843995
 40
0.654231087
 40
0.7280144112
 40
0.80044849
 40
0.8705040262
 40
0.9372672606
 40
1.0
 40
1.0
 40
1.0
 40
1.0
 10
27.664855574
 20
144.8383505242
 30
0.0
 10
27.6212007908
 20
144.1214366983
 30
0.0
 10
27.6267736518
 20
142.6758672931
 30
0.0
 10
27.9171858929
 20
140.5143272875
 30
0.0
 10
28.4874737735
 20
138.3724021048
 30
0.0
 10
29.6340188641
 20
135.513395242
 30
0.0
 10
31.3275756831
 20
132.7850305454
 30
0.0
 10
33.1730653369
 20
130.5913281391
 30
0.0
 10
34.3712136391
 20
129.3520137715
 30
0.0
 10
35.3369817793
 20
128.4298308111
 30
0.0
 10
36.1864813401
 20
127.6825242572
 30
0.0
 10
36.8951421536
 20
127.0969761259
 30
0.0
 10
37.4437780714
 20
126.6618818914
 30
0.0
 10
38.0065514974
 20
126.2322112072
 30
0.0
 10
38.5816000899
 20
125.806515698
 30
0.0
 10
39.1694940145
 20
125.3883835201
 30
0.0
 10
39.7786020312
 20
124.9865505973
 30
0.0
 10
40.2922903292
 20
124.6472957216
 30
0.0
 10
40.7006895377
 20
124.3613173291
 30
0.0
 10
41.0117935447
 20
124.1593636695
 30
0.0
 10
41.3316278296
 20
123.9944938015
 30
0.0
 10
41.6606134844
 20
123.877214522
 30
0.0
 10
41.9912323103
 20
123.7646994906
 30
0.0
 10
42.3239456309
 20
123.6139945322
 30
0.0
 10
42.6473475243
 20
123.4017605005
 30
0.0
 10
42.9715241062
 20
123.1590329286
 30
0.0
 10
43.299389282
 20
122.9083993784
 30
0.0
 10
43.7425890581
 20
122.600080042
 30
0.0
 10
44.3127336589
 20
122.2697808986
 30
0.0
 10
44.9152518686
 20
122.0261121238
 30
0.0
 10
45.3911977933
 20
121.8203403943
 30
0.0
 10
45.8707690847
 20
121.5775768508
 30
0.0
 10
46.3421641572
 20
121.3036972624
 30
0.0
 10
46.8251997023
 20
121.0457113251
 30
0.0
 10
47.3162717016
 20
120.8171295301
 30
0.0
 10
47.8181421125
 20
120.6207217519
 30
0.0
 10
48.3221733421
 20
120.4299019618
 30
0.0
 10
48.8302016088
 20
120.2312109691
 30
0.0
 10
49.4684991694
 20
119.9741418421
 30
0.0
 10
50.2423611485
 20
119.6720093385
 30
0.0
 10
51.029333985
 20
119.3900313436
 30
0.0
 10
51.8256701902
 20
119.119270423
 30
0.0
 10
52.6297060809
 20
118.8507735183
 30
0.0
 10
53.441542316
 20
118.5840255908
 30
0.0
 10
54.5383434891
 20
118.2362762243
 30
0.0
 10
55.9310043104
 20
117.8303362299
 30
0.0
 10
58.2044468424
 20
117.2322310259
 30
0.0
 10
61.1116603431
 20
116.574955933
 30
0.0
 10
65.8905457394
 20
115.7281791131
 30
0.0
 10
72.0134841862
 20
115.0655265555
 30
0.0
 10
79.4397395191
 20
114.9071406921
 30
0.0
 10
86.8265245624
 20
115.3846436733
 30
0.0
 10
94.0109361432
 20
116.4876157736
 30
0.0
 10
100.8355322321
 20
118.1926233166
 30
0.0
 10
107.1491913181
 20
120.462024081
 30
0.0
 10
111.0608095648
 20
122.3855526212
 30
0.0
 10
112.8842655939
 20
123.4383185336
 30
0.0
  0
SPLINE
  5
24A
100
AcDbEntity
  8
0
100
AcDbSpline
 62
7
  6
CONTINUOUS
 70
0
 71
3
 72
28
 73
24
 74
0
 42
0.0000001
 43
0.0000001
 44
0.0000000001
 40
0.0
 40
0.0
 40
0.0
 40
0.0
 40
0.0658167785
 40
0.1364517801
 40
0.2107643202
 40
0.287337395
 40
0.3646079651
 40
0.44096772
 40
0.5148667414
 40
0.5849197744
 40
0.6500246586
 40
0.7095044528
 40
0.7371169463
 40
0.763357819
 40
0.7883458411
 40
0.8122599421
 40
0.8353395437
 40
0.8578785258
 40
0.880208997
 40
0.9026789634
 40
0.9256257415
 40
0.9493523047
 40
1.0
 40
1.0
 40
1.0
 40
1.0
 10
119.0133364626
 20
82.9474441162
 30
0.0
 10
116.4638575663
 20
81.4755105754
 30
0.0
 10
110.9318221208
 20
78.8404857017
 30
0.0
 10
101.9493314453
 20
75.9108353232
 30
0.0
 10
92.2202576981
 20
73.9302229051
 30
0.0
 10
82.0432973223
 20
72.9601826979
 30
0.0
 10
71.7291783159
 20
73.0298008287
 30
0.0
 10
61.5941181171
 20
74.1371036177
 30
0.0
 10
51.9482223284
 20
76.2481040916
 30
0.0
 10
43.083999157
 20
79.2999710086
 30
0.0
 10
35.2708648134
 20
83.2016669132
 30
0.0
 10
29.6925890501
 20
87.1697592419
 30
0.0
 10
26.0251989727
 20
90.6807330551
 30
0.0
 10
23.744176431
 20
93.3797294487
 30
0.0
 10
21.883510067
 20
96.1887674313
 30
0.0
 10
20.4594976415
 20
99.087114385
 30
0.0
 10
19.4859969592
 20
102.052255149
 30
0.0
 10
18.9728168274
 20
105.0596537311
 30
0.0
 10
18.9262402073
 20
108.0832900007
 30
0.0
 10
19.3465298999
 20
111.0959709858
 30
0.0
 10
20.2291265131
 20
114.0719114752
 30
0.0
 10
22.0467497881
 20
118.0395508212
 30
0.0
 10
24.0309091069
 20
120.7625855479
 30
0.0
 10
25.5445538033
 20
122.4480756807
 30
0.0
  0
SPLINE
  5
24B
100
AcDbEntity
  8
0
100
AcDbSpline
 62
7
  6
CONTINUOUS
 70
0
 71
3
 72
25
 73
21
 74
0
 42
0.0000001
 43
0.0000001
 44
0.0000000001
 40
0.0
 40
0.0
 40
0.0
 40
0.0
 40
0.0213549197
 40
0.0428978362
 40
0.0648511509
 40
0.0874169645
 40
0.1349812377
 40
0.1866503561
 40
0.2428780578
 40
0.303665107
 40
0.3686553821
 40
0.4372228163
 40
0.5085439265
 40
0.5816588316
 40
0.6555247673
 40
0.7290655882
 40
0.801219303
 40
0.8709875717
 40
0.9374845531
 40
1.0
 40
1.0
 40
1.0
 40
1.0
 10
18.5692519632
 20
106.8005723487
 30
0.0
 10
18.5486623505
 20
105.9593914755
 30
0.0
 10
18.6160632539
 20
104.2649487391
 30
0.0
 10
19.0441477094
 20
101.7392336459
 30
0.0
 10
19.7956130197
 20
99.2401487011
 30
0.0
 10
21.2469271258
 20
95.9067976039
 30
0.0
 10
23.8996990768
 20
91.8615543978
 30
0.0
 10
28.1870956849
 20
87.4456713195
 30
0.0
 10
33.5336057731
 20
83.4568158702
 30
0.0
 10
39.8230797342
 20
79.9727903944
 30
0.0
 10
46.9224387639
 20
77.0618825655
 30
0.0
 10
54.6807855017
 20
74.7842870655
 30
0.0
 10
62.9322487643
 20
73.1879466538
 30
0.0
 10
71.4994890698
 20
72.306991147
 30
0.0
 10
80.1978037779
 20
72.1603558952
 30
0.0
 10
88.8394682547
 20
72.7512406463
 30
0.0
 10
97.2379424343
 20
74.0668096703
 30
0.0
 10
105.2128748423
 20
76.079178789
 30
0.0
 10
112.5918056732
 20
78.7446596038
 30
0.0
 10
117.1650094068
 20
80.9972549567
 30
0.0
 10
119.2982514045
 20
82.2288754465
 30
0.0
  0
SPLINE
  5
24C
100
AcDbEntity
  8
0
100
AcDbSpline
 62
7
  6
CONTINUOUS
 70
0
 71
3
 72
15
 73
11
 74
0
 42
0.0000001
 43
0.0000001
 44
0.0000000001
 40
0.0
 40
0.0
 40
0.0
 40
0.0
 40
0.1084267997
 40
0.2183352835
 40
0.3318351488
 40
0.450705868
 40
0.576286014
 40
0.7094512592
 40
0.8506984587
 40
1.0
 40
1.0
 40
1.0
 40
1.0
 10
129.5184455226
 20
111.366945066
 30
0.0
 10
129.5808125715
 20
110.3430318551
 30
0.0
 10
129.5223024343
 20
108.2652698891
 30
0.0
 10
128.8775396299
 20
105.1773007518
 30
0.0
 10
127.6866183263
 20
102.1504132667
 30
0.0
 10
125.9670030543
 20
99.2187294098
 30
0.0
 10
123.7406606509
 20
96.4114301837
 30
0.0
 10
121.0327712669
 20
93.7554555702
 30
0.0
 10
117.8730003385
 20
91.2772331348
 30
0.0
 10
115.5499739075
 20
89.7989712129
 30
0.0
 10
114.3266929303
 20
89.0927138272
 30
0.0
  0
ENDSEC
  0
SECTION
  2
OBJECTS
  0
DICTIONARY
  5
C
100
AcDbDictionary
280
0
281
1
  3
ACAD_GROUP
350
D
  3
ACAD_MLINESTYLE
350
17
  3
ACAD_LAYOUT
350
1A
  3
ACAD_PLOTSETTINGS
350
19
  3
ACAD_PLOTSTYLENAME
350
E
  0
DICTIONARY
  5
D
102
{ACAD_REACTORS
330
C
102
}
100
AcDbDictionary
280
0
281
1
  0
ACDBDICTIONARYWDFLT
  5
E
102
{ACAD_REACTORS
330
C
102
}
100
AcDbDictionary
281
1
  3
Normal
350
F
100
AcDbDictionaryWithDefault
340
F
  0
DICTIONARY
  5
17
102
{ACAD_REACTORS
330
C
102
}
100
AcDbDictionary
280
0
281
1
  3
Standard
350
18
  0
DICTIONARY
  5
19
102
{ACAD_REACTORS
330
C
102
}
100
AcDbDictionary
281
1
  0
DICTIONARY
  5
1A
102
{ACAD_REACTORS
330
C
102
}
100
AcDbDictionary
281
1
  3
Model
350
24D
  3
Layout1
350
24E
  0
ACDBPLACEHOLDER
  5
F
102
{ACAD_REACTORS
330
E
102
}
  0
MLINESTYLE
  5
18
102
{ACAD_REACTORS
330
17
102
}
100
AcDbMlineStyle
  2
STANDARD
 70
0
  3

 62
256
 51
90.0
 52
90.0
 71
2
 49
0.5
 62
256
  6
BYLAYER
 49
-0.5
 62
256
  6
BYLAYER
  0
LAYOUT
  5
24D
102
{ACAD_REACTORS
330
1A
102
}
100
AcDbPlotSettings
  1

  2
none_device
  4

  6

 40
0.0
 41
0.0
 42
0.0
 43
0.0
 44
210.0
 45
297.0
 46
0.0
 47
0.0
 48
0.0
 49
0.0
140
0.0
141
0.0
142
1.0
143
1.0
 70
1024
 72
1
 73
0
 74
0
  7

 75
0
147
1.0
148
0.0
149
0.0
100
AcDbLayout
  1
Model
 70
0
 71
0
 10
0.0
 20
0.0
 11
210.0
 21
297.0
 12
0.0
 22
0.0
 32
0.0
 14
0.0
 24
0.0
 34
0.0
 15
0.0
 25
0.0
 35
0.0
146
0.0
 13
0.0
 23
0.0
 33
0.0
 16
1.0
 26
0.0
 36
0.0
 17
0.0
 27
1.0
 37
0.0
 76
0
330
210
345
0
346
0
  0
LAYOUT
  5
24E
102
{ACAD_REACTORS
330
1A
102
}
100
AcDbPlotSettings
  1

  2
none_device
  4

  6

 40
0.0
 41
0.0
 42
0.0
 43
0.0
 44
210.0
 45
297.0
 46
0.0
 47
0.0
 48
0.0
 49
0.0
140
0.0
141
0.0
142
1.0
143
1.0
 70
0
 72
1
 73
0
 74
0
  7

 75
0
147
1.0
148
0.0
149
0.0
100
AcDbLayout
  1
Layout1
 70
0
 71
1
 10
0.0
 20
0.0
 11
210.0
 21
297.0
 12
0.0
 22
0.0
 32
0.0
 14
0.0
 24
0.0
 34
0.0
 15
0.0
 25
0.0
 35
0.0
146
0.0
 13
0.0
 23
0.0
 33
0.0
 16
1.0
 26
0.0
 36
0.0
 17
0.0
 27
1.0
 37
0.0
 76
0
330
211
345
0
346
0
  0
ENDSEC
  0
EOF
