999
DXF file: C:\Users\sesa63760\Dev\_Creo\CAD\MCADID0002316_3D-CAD\drw0001_1.dxf
999
Pro/ENGINEER 2019471 by Parametric Technology Corporation
  0
SECTION
  2
HEADER
  9
$ACADVER
  1
AC1024
  9
$DWGCODEPAGE
  3
ANSI_1252
  9
$EXTMAX
 10
153.9679632795
 20
217.7546909238
 30
0.0
  9
$EXTMIN
 10
-0.0
 20
0.0
 30
0.0
  9
$LIMMIN
 10
-0.0
 20
0.0
  9
$LIMMAX
 10
153.9679632795
 20
217.7546909238
  9
$VIEWCTR
 10
76.9839816397
 20
108.8773454619
  9
$VIEWSIZE
 40
217.7546909238
  9
$CLAYER
  8
0
  9
$LTSCALE
 40
14.1943798528
  9
$CELTYPE
  6
BYLAYER
  9
$DIMSCALE
 40
1.0
  9
$DIMASZ
 40
1.8329519438
  9
$DIMEXO
 40
1.0
  9
$DIMDLI
 40
9.8070260801
  9
$DIMEXE
 40
1.0
  9
$DIMCEN
 40
2.3227167032
  9
$DIMLFAC
 40
1.0
  9
$DIMBLK
  1
_FILLED
  9
$DIMALT
 70
0
  9
$DIMALTF
 40
0.0393700787
  9
$DIMTXT
 40
2.5661327213
  9
$DIMTOL
 70
1
  9
$DIMLIM
 70
0
  9
$DIMTFAC
 40
1.0
  9
$DIMTP
 40
0.01
  9
$DIMTM
 40
0.01
  9
$DIMGAP
 40
0.625
  9
$DIMDSEP
 70
46
  9
$AUNITS
 70
0
  9
$PDMODE
 70
3
  9
$PDSIZE
 40
0.3125
  9
$HANDSEED
  5
2EF
  9
$TILEMODE
 70
1
  9
$MEASUREMENT
 70
1
  9
$INSUNITS
 70
4
  0
ENDSEC
  0
SECTION
  2
CLASSES
  0
CLASS
  1
ACDBDICTIONARYWDFLT
  2
AcDbDictionaryWithDefault
  3
AutoCAD 2000
 90
0
 91
1
280
0
281
0
  0
CLASS
  1
ACDBPLACEHOLDER
  2
AcDbPlaceHolder
  3
AutoCAD 2000
 90
0
 91
1
280
0
281
0
  0
CLASS
  1
LAYOUT
  2
AcDbLayout
  3
AutoCAD 2000
 90
0
 91
0
280
0
281
0
  0
ENDSEC
  0
SECTION
  2
TABLES
  0
TABLE
  2
VPORT
  5
8
100
AcDbSymbolTable
 70
2
  0
VPORT
  5
1F4
100
AcDbSymbolTableRecord
100
AcDbViewportTableRecord
  2
*ACTIVE
 70
0
 10
0.0
 20
0.0
 11
1.0
 21
1.0
 12
76.9839816397
 22
108.8773454619
 13
0.0
 23
0.0
 14
1.0
 24
1.0
 15
0.0
 25
0.0
 16
0.0
 26
0.0
 36
1.0
 17
0.0
 27
0.0
 37
0.0
 40
217.7546909238
 41
0.7070707071
 42
50.0
 43
0.0
 44
0.0
 50
0.0
 51
0.0
 71
0
 72
100
 73
1
 74
1
 75
0
 76
0
 77
0
 78
0
  0
ENDTAB
  0
TABLE
  2
LTYPE
  5
5
100
AcDbSymbolTable
 70
6
  0
LTYPE
  5
14
100
AcDbSymbolTableRecord
100
AcDbLinetypeTableRecord
  2
BYBLOCK
 70
0
  3

 72
65
 73
0
 40
0.0
  0
LTYPE
  5
15
100
AcDbSymbolTableRecord
100
AcDbLinetypeTableRecord
  2
BYLAYER
 70
0
  3

 72
65
 73
0
 40
0.0
  0
LTYPE
  5
16
100
AcDbSymbolTableRecord
100
AcDbLinetypeTableRecord
  2
CONTINUOUS
 70
64
  3
Solid line
 72
65
 73
0
 40
0.0
  0
LTYPE
  5
1F5
100
AcDbSymbolTableRecord
100
AcDbLinetypeTableRecord
  2
CENTER
 70
64
  3
____ _ ____ _ ____ _ ____ _ ____ _ ____ _ ____
 72
65
 73
4
 40
0.6
 49
0.375
 74
0
 49
-0.075
 74
0
 49
0.075
 74
0
 49
-0.075
 74
0
  0
LTYPE
  5
1F6
100
AcDbSymbolTableRecord
100
AcDbLinetypeTableRecord
  2
HIDDEN
 70
64
  3
- - - - - - - - - - - - - - - - - - - -
 72
65
 73
2
 40
0.2
 49
0.1
 74
0
 49
-0.1
 74
0
  0
LTYPE
  5
1F7
100
AcDbSymbolTableRecord
100
AcDbLinetypeTableRecord
  2
PHANTOM
 70
64
  3
_____ _ _ _____ _ _ _____ _ _ _____
 72
65
 73
6
 40
0.8
 49
0.45
 74
0
 49
-0.05
 74
0
 49
0.1
 74
0
 49
-0.05
 74
0
 49
0.1
 74
0
 49
-0.05
 74
0
  0
LTYPE
  5
1F8
100
AcDbSymbolTableRecord
100
AcDbLinetypeTableRecord
  2
DOT
 70
64
  3
. . . . . . . . . . . . . . . . . . . .
 72
65
 73
2
 40
0.2
 49
0.1
 74
0
 49
-0.1
 74
0
  0
LTYPE
  5
1F9
100
AcDbSymbolTableRecord
100
AcDbLinetypeTableRecord
  2
DASHED
 70
64
  3
- - - - - - - - - - - - - - - - - - - -
 72
65
 73
2
 40
0.2
 49
0.1
 74
0
 49
-0.1
 74
0
  0
ENDTAB
  0
TABLE
  2
LAYER
  5
2
100
AcDbSymbolTable
 70
36
  0
LAYER
  5
10
100
AcDbSymbolTableRecord
100
AcDbLayerTableRecord
  2
0
 70
0
 62
7
  6
CONTINUOUS
370
-3
390
F
  0
LAYER
  5
1FA
100
AcDbSymbolTableRecord
100
AcDbLayerTableRecord
  2
DEFAULT_1
 70
0
 62
7
  6
CENTER
370
-3
390
F
  0
LAYER
  5
1FB
100
AcDbSymbolTableRecord
100
AcDbLayerTableRecord
  2
DEFAULT_2
 70
0
 62
8
  6
HIDDEN
370
-3
390
F
  0
LAYER
  5
1FC
100
AcDbSymbolTableRecord
100
AcDbLayerTableRecord
  2
DEFAULT_3
 70
0
 62
7
  6
PHANTOM
370
-3
390
F
  0
LAYER
  5
1FD
100
AcDbSymbolTableRecord
100
AcDbLayerTableRecord
  2
00_COMPONENTS
 70
0
 62
7
  6
CONTINUOUS
370
-3
390
F
  0
LAYER
  5
1FE
100
AcDbSymbolTableRecord
100
AcDbLayerTableRecord
  2
01_1_DEFAULT_DATUMS
 70
0
 62
7
  6
CONTINUOUS
370
-3
390
F
  0
LAYER
  5
1FF
100
AcDbSymbolTableRecord
100
AcDbLayerTableRecord
  2
01_PLANES
 70
0
 62
7
  6
CONTINUOUS
370
-3
390
F
  0
LAYER
  5
200
100
AcDbSymbolTableRecord
100
AcDbLayerTableRecord
  2
02_COORD_SYS
 70
0
 62
7
  6
CONTINUOUS
370
-3
390
F
  0
LAYER
  5
201
100
AcDbSymbolTableRecord
100
AcDbLayerTableRecord
  2
03_AXES
 70
0
 62
7
  6
CONTINUOUS
370
-3
390
F
  0
LAYER
  5
202
100
AcDbSymbolTableRecord
100
AcDbLayerTableRecord
  2
04_POINTS
 70
0
 62
7
  6
CONTINUOUS
370
-3
390
F
  0
LAYER
  5
203
100
AcDbSymbolTableRecord
100
AcDbLayerTableRecord
  2
05_CURVES
 70
0
 62
7
  6
CONTINUOUS
370
-3
390
F
  0
LAYER
  5
204
100
AcDbSymbolTableRecord
100
AcDbLayerTableRecord
  2
06_SURFS
 70
0
 62
7
  6
CONTINUOUS
370
-3
390
F
  0
LAYER
  5
205
100
AcDbSymbolTableRecord
100
AcDbLayerTableRecord
  2
07_COSMETICS
 70
0
 62
7
  6
CONTINUOUS
370
-3
390
F
  0
LAYER
  5
206
100
AcDbSymbolTableRecord
100
AcDbLayerTableRecord
  2
10_NOTES
 70
0
 62
7
  6
CONTINUOUS
370
-3
390
F
  0
LAYER
  5
207
100
AcDbSymbolTableRecord
100
AcDbLayerTableRecord
  2
11_NOTES_PUB
 70
0
 62
7
  6
CONTINUOUS
370
-3
390
F
  0
LAYER
  5
208
100
AcDbSymbolTableRecord
100
AcDbLayerTableRecord
  2
13_REF_GTOL
 70
0
 62
7
  6
CONTINUOUS
370
-3
390
F
  0
LAYER
  5
209
100
AcDbSymbolTableRecord
100
AcDbLayerTableRecord
  2
16_MISC
 70
0
 62
7
  6
CONTINUOUS
370
-3
390
F
  0
LAYER
  5
20A
100
AcDbSymbolTableRecord
100
AcDbLayerTableRecord
  2
17_NO_PRINT
 70
0
 62
7
  6
CONTINUOUS
370
-3
390
F
  0
LAYER
  5
20B
100
AcDbSymbolTableRecord
100
AcDbLayerTableRecord
  2
18_DATUM_CAMS_JOINTS
 70
0
 62
7
  6
CONTINUOUS
370
-3
390
F
  0
LAYER
  5
20C
100
AcDbSymbolTableRecord
100
AcDbLayerTableRecord
  2
19_DATUM_FUNCTIONAL
 70
0
 62
7
  6
CONTINUOUS
370
-3
390
F
  0
LAYER
  5
20D
100
AcDbSymbolTableRecord
100
AcDbLayerTableRecord
  2
20_DATUM_KINEMATIC_SCHEME
 70
0
 62
7
  6
CONTINUOUS
370
-3
390
F
  0
ENDTAB
  0
TABLE
  2
STYLE
  5
3
100
AcDbSymbolTable
 70
1
  0
STYLE
  5
11
100
AcDbSymbolTableRecord
100
AcDbTextStyleTableRecord
  2
STANDARD
 70
0
 40
0.0
 41
0.8
 50
0.0
 71
0
 42
0.2
  3
txt
  4

  0
STYLE
  5
20E
100
AcDbSymbolTableRecord
100
AcDbTextStyleTableRecord
  2
TEXTSTYLE_1
 70
0
 40
0.0
 41
0.8
 50
0.0
 71
0
 42
0.2
  3
gdt
  4

  0
ENDTAB
  0
TABLE
  2
VIEW
  5
6
100
AcDbSymbolTable
 70
0
  0
ENDTAB
  0
TABLE
  2
UCS
  5
7
100
AcDbSymbolTable
 70
0
  0
ENDTAB
  0
TABLE
  2
APPID
  5
9
100
AcDbSymbolTable
 70
1
  0
APPID
  5
20F
100
AcDbSymbolTableRecord
100
AcDbRegAppTableRecord
  2
ACAD
 70
0
  0
ENDTAB
  0
TABLE
  2
BLOCK_RECORD
  5
1
100
AcDbSymbolTable
 70
0
  0
BLOCK_RECORD
  5
210
100
AcDbSymbolTableRecord
100
AcDbBlockTableRecord
  2
*Model_Space
  0
BLOCK_RECORD
  5
211
100
AcDbSymbolTableRecord
100
AcDbBlockTableRecord
  2
*Paper_Space
  0
BLOCK_RECORD
  5
212
100
AcDbSymbolTableRecord
100
AcDbBlockTableRecord
  2
_FILLED
  0
ENDTAB
  0
TABLE
  2
DIMSTYLE
  5
A
100
AcDbSymbolTable
 70
1
100
AcDbDimStyleTable
 71
0
  0
DIMSTYLE
105
213
100
AcDbSymbolTableRecord
100
AcDbDimStyleTableRecord
  2
STANDARD
 70
0
  3

  4

 40
1.0
 41
1.8329519438
 42
1.0
 43
0.38
 44
1.0
 45
0.0
 46
0.0
 47
0.01
 48
0.01
140
2.5661327213
141
0.09
142
0.0
143
25.4
144
1.0
145
0.0
146
1.0
147
0.625
 71
1
 72
0
 73
0
 74
0
 75
0
 76
0
 77
1
 78
8
 79
2
170
0
171
1
172
0
173
0
174
0
175
0
176
0
177
0
178
0
270
2
179
2
271
2
272
2
273
2
274
2
275
0
280
0
281
0
282
0
283
1
284
8
285
0
286
0
287
3
288
0
340
11
278
46
341
212
342
212
343
212
344
212
  0
ENDTAB
  0
ENDSEC
  0
SECTION
  2
BLOCKS
  0
BLOCK
  5
20
100
AcDbEntity
  8
0
100
AcDbBlockBegin
  2
*Model_Space
 70
0
 10
0.0
 20
0.0
 30
0.0
  3
*Model_Space
  1

  0
ENDBLK
  5
21
100
AcDbEntity
  8
0
100
AcDbBlockEnd
  0
BLOCK
  5
1C
100
AcDbEntity
  8
0
100
AcDbBlockBegin
  2
*Paper_Space
 70
0
 10
0.0
 20
0.0
 30
0.0
  3
*Paper_Space
  1

  0
ENDBLK
  5
1D
100
AcDbEntity
  8
0
100
AcDbBlockEnd
  0
BLOCK
  5
214
100
AcDbEntity
  8
0
100
AcDbBlockBegin
  2
_FILLED
 70
64
 10
0.0
 20
0.0
  3
_FILLED
  1

  0
SOLID
  5
215
100
AcDbEntity
  8
0
  6
BYBLOCK
 62
0
100
AcDbTrace
 10
0.0
 20
0.0
 11
-1.0
 21
0.25
 12
-1.0
 22
-0.25
 13
-1.0
 23
-0.25
  0
ENDBLK
  5
216
100
AcDbEntity
  8
0
  6
BYBLOCK
 62
0
100
AcDbBlockEnd
  0
ENDSEC
  0
SECTION
  2
ENTITIES
  0
LWPOLYLINE
  5
217
100
AcDbEntity
  8
0
100
AcDbPolyline
 62
7
  6
CONTINUOUS
 90
3
 70
0
 10
33.0806350114
 20
44.1906741732
 10
23.5652576774
 20
52.9216370861
 10
23.3052556404
 20
53.4797794144
  0
LWPOLYLINE
  5
218
100
AcDbEntity
  8
0
100
AcDbPolyline
 62
7
  6
CONTINUOUS
 90
8
 70
0
 10
23.5441240119
 20
52.8650385109
 10
33.0466408391
 20
44.1300569138
 10
39.3800741441
 20
40.4704949649
 10
54.5033450444
 20
34.9767576791
 10
71.7563274221
 20
32.2979111807
 10
89.6226239893
 20
32.672082955
 10
106.5167879563
 20
36.0725026924
 10
120.9652483749
 20
42.2219439186
  0
LWPOLYLINE
  5
219
100
AcDbEntity
  8
0
100
AcDbPolyline
 62
7
  6
CONTINUOUS
 90
3
 70
0
 10
22.8086167509
 20
53.4390263999
 10
21.0509820678
 20
55.6667641551
 10
19.6742709058
 20
61.2743578605
  0
LINE
  5
21A
100
AcDbEntity
  8
0
100
AcDbLine
 62
7
  6
CONTINUOUS
 10
17.8893424431
 20
48.6938692737
 11
17.8620609621
 21
48.7660476548
  0
LINE
  5
21B
100
AcDbEntity
  8
0
100
AcDbLine
 62
7
  6
CONTINUOUS
 10
23.2671878375
 20
53.4615064578
 11
23.5441240119
 21
52.8650385109
  0
LWPOLYLINE
  5
21C
100
AcDbEntity
  8
0
100
AcDbPolyline
 62
7
  6
CONTINUOUS
 90
3
 70
0
 10
23.0285300224
 20
53.1601536082
 10
18.9159602422
 20
62.0212356777
 10
18.5386648661
 20
65.8998867702
  0
LINE
  5
21D
100
AcDbEntity
  8
0
100
AcDbLine
 62
7
  6
CONTINUOUS
 10
22.5892954409
 20
46.8234300475
 11
22.5734027308
 21
46.9272362287
  0
LINE
  5
21E
100
AcDbEntity
  8
0
100
AcDbLine
 62
7
  6
CONTINUOUS
 10
21.758465646
 20
47.004145324
 11
21.7541084998
 21
47.1183993729
  0
LINE
  5
21F
100
AcDbEntity
  8
0
100
AcDbLine
 62
7
  6
CONTINUOUS
 10
20.8977131138
 20
47.3461465297
 11
20.89453741
 21
47.4422027964
  0
LINE
  5
220
100
AcDbEntity
  8
0
100
AcDbLine
 62
7
  6
CONTINUOUS
 10
20.1013908891
 20
47.818089267
 11
20.1035956016
 21
47.7382194906
  0
LINE
  5
221
100
AcDbEntity
  8
0
100
AcDbLine
 62
7
  6
CONTINUOUS
 10
21.758465646
 20
47.004145324
 11
21.7553346933
 21
47.118042773
  0
LINE
  5
222
100
AcDbEntity
  8
0
100
AcDbLine
 62
7
  6
CONTINUOUS
 10
20.8977131138
 20
47.3461465297
 11
20.8955185238
 21
47.441836683
  0
LINE
  5
223
100
AcDbEntity
  8
0
100
AcDbLine
 62
7
  6
CONTINUOUS
 10
20.1021530088
 20
47.8177320793
 11
20.1035956016
 21
47.7382194906
  0
LINE
  5
224
100
AcDbEntity
  8
0
100
AcDbLine
 62
7
  6
CONTINUOUS
 10
17.8620517993
 20
50.0059027623
 11
17.8620517993
 21
48.7660476642
  0
LINE
  5
225
100
AcDbEntity
  8
0
100
AcDbLine
 62
7
  6
CONTINUOUS
 10
18.4950900653
 20
49.0237152695
 11
18.4950900652
 21
52.7980074453
  0
LINE
  5
226
100
AcDbEntity
  8
0
100
AcDbLine
 62
7
  6
CONTINUOUS
 10
18.6755665095
 20
52.9446207829
 11
18.6755665095
 21
49.0219898339
  0
LINE
  5
227
100
AcDbEntity
  8
0
100
AcDbLine
 62
7
  6
CONTINUOUS
 10
18.738864313
 20
50.3588429036
 11
18.738864313
 21
48.7000589838
  0
LINE
  5
228
100
AcDbEntity
  8
0
100
AcDbLine
 62
7
  6
CONTINUOUS
 10
19.065278593
 20
48.5275290522
 11
19.0652785929
 21
52.3018212313
  0
LINE
  5
229
100
AcDbEntity
  8
0
100
AcDbLine
 62
7
  6
CONTINUOUS
 10
19.2450787605
 20
52.4593355328
 11
19.2450787606
 21
48.5367045828
  0
LINE
  5
22A
100
AcDbEntity
  8
0
100
AcDbLine
 62
7
  6
CONTINUOUS
 10
19.7221786771
 20
48.0684711164
 11
19.722178677
 21
51.8427632987
  0
LINE
  5
22B
100
AcDbEntity
  8
0
100
AcDbLine
 62
7
  6
CONTINUOUS
 10
19.8993326397
 20
52.011078035
 11
19.8993326397
 21
48.0884470841
  0
LINE
  5
22C
100
AcDbEntity
  8
0
100
AcDbLine
 62
7
  6
CONTINUOUS
 10
20.0706248551
 20
51.4168956671
 11
20.0706248552
 21
47.8171600656
  0
LINE
  5
22D
100
AcDbEntity
  8
0
100
AcDbLine
 62
7
  6
CONTINUOUS
 10
20.4585932201
 20
47.6515710015
 11
20.45859322
 21
51.4258632379
  0
LINE
  5
22E
100
AcDbEntity
  8
0
100
AcDbLine
 62
7
  6
CONTINUOUS
 10
20.6311600064
 20
51.6047594903
 11
20.6311600065
 21
47.6821285389
  0
LINE
  5
22F
100
AcDbEntity
  8
0
100
AcDbLine
 62
7
  6
CONTINUOUS
 10
21.2664538329
 20
47.2813963439
 11
21.2664538328
 21
51.0556885783
  0
LINE
  5
230
100
AcDbEntity
  8
0
100
AcDbLine
 62
7
  6
CONTINUOUS
 10
21.4325428016
 20
51.2448316113
 11
21.4325428017
 21
47.3222006605
  0
LINE
  5
231
100
AcDbEntity
  8
0
100
AcDbLine
 62
7
  6
CONTINUOUS
 10
21.6912728171
 20
50.8905739799
 11
21.6912728172
 21
47.1162817616
  0
LINE
  5
232
100
AcDbEntity
  8
0
100
AcDbLine
 62
7
  6
CONTINUOUS
 10
22.1369094657
 20
46.9620028581
 11
22.1369094657
 21
50.7362950906
  0
LINE
  5
233
100
AcDbEntity
  8
0
100
AcDbLine
 62
7
  6
CONTINUOUS
 10
22.2947009113
 20
50.9352378436
 11
22.2947009114
 21
47.0126068934
  0
LINE
  5
234
100
AcDbEntity
  8
0
100
AcDbLine
 62
7
  6
CONTINUOUS
 10
22.5734027308
 20
46.9272362287
 11
22.5734027308
 21
50.8498671785
  0
LINE
  5
235
100
AcDbEntity
  8
0
100
AcDbLine
 62
7
  6
CONTINUOUS
 10
22.58929544
 20
50.5977222695
 11
22.5892954401
 21
46.8234300531
  0
LINE
  5
236
100
AcDbEntity
  8
0
100
AcDbLine
 62
7
  6
CONTINUOUS
 10
23.7981750483
 20
45.7371134731
 11
23.7981750482
 21
50.3767235304
  0
LINE
  5
237
100
AcDbEntity
  8
0
100
AcDbLine
 62
7
  6
CONTINUOUS
 10
19.366502082
 20
51.8572977252
 11
19.3646723466
 21
48.2384618442
  0
LINE
  5
238
100
AcDbEntity
  8
0
100
AcDbLine
 62
7
  6
CONTINUOUS
 10
19.535495095
 20
107.6529867139
 11
18.5466647087
 21
67.2879035391
  0
LINE
  5
239
100
AcDbEntity
  8
0
100
AcDbLine
 62
7
  6
CONTINUOUS
 10
20.8489872715
 20
51.154289638
 11
20.8511908074
 21
51.2360158923
  0
LINE
  5
23A
100
AcDbEntity
  8
0
100
AcDbLine
 62
7
  6
CONTINUOUS
 10
19.8993326397
 20
48.0884470841
 11
19.7221786672
 21
48.0684711153
  0
LINE
  5
23B
100
AcDbEntity
  8
0
100
AcDbLine
 62
7
  6
CONTINUOUS
 10
19.2450787606
 20
48.5367045828
 11
19.065278583
 21
48.5275290517
  0
LINE
  5
23C
100
AcDbEntity
  8
0
100
AcDbLine
 62
7
  6
CONTINUOUS
 10
18.6755665095
 20
49.021989834
 11
18.4950900557
 21
49.0237152696
  0
LINE
  5
23D
100
AcDbEntity
  8
0
100
AcDbLine
 62
7
  6
CONTINUOUS
 10
24.6076087052
 20
51.0565176294
 11
24.6076087053
 21
47.8721582026
  0
LINE
  5
23E
100
AcDbEntity
  8
0
100
AcDbLine
 62
7
  6
CONTINUOUS
 10
24.688019475
 20
51.1745280594
 11
24.6880194751
 21
47.9901686326
  0
LINE
  5
23F
100
AcDbEntity
  8
0
100
AcDbLine
 62
7
  6
CONTINUOUS
 10
28.6309116436
 20
145.6869308085
 11
26.5925161337
 21
112.2193603118
  0
LWPOLYLINE
  5
240
100
AcDbEntity
  8
0
100
AcDbPolyline
 62
7
  6
CONTINUOUS
 90
10
 70
0
 10
26.8091964397
 20
112.205318892
 10
26.4876887503
 20
107.2439698786
 10
30.5288936931
 20
98.5366529036
 10
38.835977492
 20
90.9038878092
 10
44.3717825483
 20
87.7078615738
 10
57.5923776643
 20
82.9118966276
 10
72.6741423194
 20
80.5788117254
 10
88.2769955387
 20
80.9159116992
 10
103.0145553417
 20
83.8932437371
 10
115.5773248652
 20
89.2462588217
  0
LWPOLYLINE
  5
241
100
AcDbEntity
  8
0
100
AcDbPolyline
 62
7
  6
CONTINUOUS
 90
3
 70
0
 10
20.9541894234
 20
114.0156008799
 10
26.7239587131
 20
123.5355512779
 10
27.04249418
 20
123.7847343966
  0
LINE
  5
242
100
AcDbEntity
  8
0
100
AcDbLine
 62
7
  6
CONTINUOUS
 10
20.6312256076
 20
47.6821401553
 11
20.4585932045
 21
47.6515709988
  0
LINE
  5
243
100
AcDbEntity
  8
0
100
AcDbLine
 62
7
  6
CONTINUOUS
 10
21.4325428017
 20
47.3222006604
 11
21.2664538278
 21
47.2813963426
  0
LINE
  5
244
100
AcDbEntity
  8
0
100
AcDbLine
 62
7
  6
CONTINUOUS
 10
85.097472199
 20
30.9193488619
 11
85.0974721992
 21
27.1936670281
  0
LINE
  5
245
100
AcDbEntity
  8
0
100
AcDbLine
 62
7
  6
CONTINUOUS
 10
90.097472199
 20
31.1042824502
 11
90.0974721992
 21
27.1936670284
  0
LINE
  5
246
100
AcDbEntity
  8
0
100
AcDbLine
 62
7
  6
CONTINUOUS
 10
18.7518963163
 20
54.2034622761
 11
18.251707453
 21
53.8932271379
  0
LINE
  5
247
100
AcDbEntity
  8
0
100
AcDbLine
 62
7
  6
CONTINUOUS
 10
24.1074199127
 20
50.7462825439
 11
24.6076086804
 21
51.0565176228
  0
LINE
  5
248
100
AcDbEntity
  8
0
100
AcDbLine
 62
7
  6
CONTINUOUS
 10
24.6076086541
 20
47.8721581707
 11
26.3487288676
 21
48.9520636106
  0
LINE
  5
249
100
AcDbEntity
  8
0
100
AcDbLine
 62
7
  6
CONTINUOUS
 10
27.2138055699
 20
47.8556104913
 11
23.7981751001
 21
45.7371135052
  0
LWPOLYLINE
  5
24A
100
AcDbEntity
  8
0
100
AcDbPolyline
 62
7
  6
CONTINUOUS
 90
3
 70
0
 10
115.5773248652
 20
89.2462588217
 10
124.8490469062
 20
96.4993180714
 10
130.0058882731
 20
105.0079553423
  0
LWPOLYLINE
  5
24B
100
AcDbEntity
  8
0
100
AcDbPolyline
 62
7
  6
CONTINUOUS
 90
10
 70
0
 10
119.9796377008
 20
83.7998580074
 10
105.9236920872
 20
77.8105983336
 10
89.4344666277
 20
74.4793888324
 10
71.9771013661
 20
74.1022220866
 10
55.1027598164
 20
76.7126110169
 10
40.3108012771
 20
82.0786111112
 10
34.1170257205
 20
85.6545081984
 10
24.8225848835
 20
94.1944826719
 10
20.3010534819
 20
103.9367272951
 10
20.9541894234
 20
114.0156008799
  0
LINE
  5
24C
100
AcDbEntity
  8
0
100
AcDbLine
 62
7
  6
CONTINUOUS
 10
22.2947009114
 20
47.0126068934
 11
22.1369094611
 21
46.9620028566
  0
LINE
  5
24D
100
AcDbEntity
  8
0
100
AcDbLine
 62
7
  6
CONTINUOUS
 10
124.641495169
 20
128.2513166754
 11
132.2547448469
 21
121.2560644542
  0
LWPOLYLINE
  5
24E
100
AcDbEntity
  8
0
100
AcDbPolyline
 62
7
  6
CONTINUOUS
 90
3
 70
0
 10
129.7931056629
 20
123.5762259966
 10
134.816123075
 20
117.5363926491
 10
137.5418346353
 20
107.6529867165
  0
LINE
  5
24F
100
AcDbEntity
  8
0
100
AcDbLine
 62
7
  6
CONTINUOUS
 10
128.4457901583
 20
145.6972404801
 11
130.4848135964
 21
112.2193603141
  0
LWPOLYLINE
  5
250
100
AcDbEntity
  8
0
100
AcDbPolyline
 62
7
  6
CONTINUOUS
 90
3
 70
0
 10
130.0058882731
 20
105.0079553423
 10
130.5896409799
 20
114.0161408734
 10
130.3430124131
 20
114.5475351325
  0
LWPOLYLINE
  5
251
100
AcDbEntity
  8
0
100
AcDbPolyline
 62
7
  6
CONTINUOUS
 90
5
 70
0
 10
132.2547448469
 20
121.2560644542
 10
136.7762762484
 20
111.5138198311
 10
136.123140307
 20
101.4349462463
 10
130.3533710172
 20
91.9149958482
 10
119.9796377008
 20
83.7998580074
  0
LINE
  5
252
100
AcDbEntity
  8
0
100
AcDbLine
 62
7
  6
CONTINUOUS
 10
137.5418346353
 20
107.6529867165
 11
138.5306650234
 21
67.2879035417
  0
LWPOLYLINE
  5
253
100
AcDbEntity
  8
0
100
AcDbPolyline
 62
7
  6
CONTINUOUS
 90
4
 70
0
 10
138.538664866
 20
65.8998867728
 10
136.4934670442
 20
56.6468908006
 10
130.3702529127
 20
47.9319982291
 10
120.5510244477
 20
40.4898696183
  0
LINE
  5
254
100
AcDbEntity
  8
0
100
AcDbLine
 62
7
  6
CONTINUOUS
 10
120.9652483749
 20
42.2219439186
 11
121.0043956093
 21
42.2525791028
  0
LINE
  5
255
100
AcDbEntity
  8
0
100
AcDbLine
 62
7
  6
CONTINUOUS
 10
120.9652483749
 20
42.2219439186
 11
121.0113354662
 21
42.2485811971
  0
LWPOLYLINE
  5
256
100
AcDbEntity
  8
0
100
AcDbPolyline
 62
7
  6
CONTINUOUS
 90
8
 70
0
 10
120.5510244477
 20
40.4898696183
 10
106.3107507845
 20
34.4081550012
 10
89.7444438948
 20
31.0323438526
 10
72.2572958851
 20
30.6071292706
 10
55.2978920544
 20
33.1586332845
 10
40.2761490429
 20
38.5012061221
 10
28.4954479582
 20
46.2311755819
 10
24.688019475
 20
51.0569521008
  0
LWPOLYLINE
  5
257
100
AcDbEntity
  8
0
100
AcDbPolyline
 62
7
  6
CONTINUOUS
 90
8
 70
0
 10
120.2844968346
 20
41.1153722411
 10
106.5750034176
 20
35.2737363721
 10
89.6936067446
 20
31.8632991063
 10
71.8210445331
 20
31.4771620217
 10
54.5453723679
 20
34.1496350927
 10
39.401609534
 20
39.6432573591
 10
33.0605244217
 20
43.3042017338
 10
24.688019475
 20
50.9970774837
  0
LWPOLYLINE
  5
258
100
AcDbEntity
  8
0
100
AcDbPolyline
 62
7
  6
CONTINUOUS
 90
7
 70
0
 10
120.9638341554
 20
42.3044106419
 10
106.5555892625
 20
36.1672768543
 10
89.6959581439
 20
32.7628927565
 10
71.807598082
 20
32.3773679697
 10
54.5483383302
 20
35.0483229085
 10
39.4191148678
 20
40.5342692638
 10
33.0806350114
 20
44.1906741732
  0
ARC
  5
259
100
AcDbEntity
  8
0
100
AcDbCircle
 62
7
  6
CONTINUOUS
 10
-353.6236552428
 20
63.1735385183
 40
372.7866892301
100
AcDbArc
 50
358.1152665654
 51
358.3021130711
  0
ARC
  5
25A
100
AcDbEntity
  8
0
100
AcDbCircle
 62
7
  6
CONTINUOUS
 10
-306.6366837534
 20
61.3972976234
 40
326.4382648595
100
AcDbArc
 50
358.0777790788
 51
358.2915642383
  0
ARC
  5
25B
100
AcDbEntity
  8
0
100
AcDbCircle
 62
7
  6
CONTINUOUS
 10
-37.9547362518
 20
51.6256977337
 40
56.9042155494
100
AcDbArc
 50
356.9098970092
 51
357.0459121607
  0
ARC
  5
25C
100
AcDbEntity
  8
0
100
AcDbCircle
 62
7
  6
CONTINUOUS
 10
-30.3673245445
 20
50.9527014333
 40
49.9687414555
100
AcDbArc
 50
356.7122817027
 51
356.876422942
  0
ARC
  5
25D
100
AcDbEntity
  8
0
100
AcDbCircle
 62
7
  6
CONTINUOUS
 10
-24.757690899
 20
50.3692808359
 40
45.0926390062
100
AcDbArc
 50
356.5525723365
 51
356.7425055138
  0
ARC
  5
25E
100
AcDbEntity
  8
0
100
AcDbCircle
 62
7
  6
CONTINUOUS
 10
-20.4350136623
 20
49.8624956501
 40
41.576814141
100
AcDbArc
 50
356.4321438898
 51
356.6444248663
  0
ARC
  5
25F
100
AcDbEntity
  8
0
100
AcDbCircle
 62
7
  6
CONTINUOUS
 10
58.4027380728
 20
50.5824039767
 40
36.712758681
100
AcDbArc
 50
179.1249009732
 51
179.51904873
  0
ARC
  5
260
100
AcDbEntity
  8
0
100
AcDbCircle
 62
7
  6
CONTINUOUS
 10
25.7605438514
 20
58.3370205281
 40
12.0186837089
100
AcDbArc
 50
246.9831477986
 51
250.0639986985
  0
ARC
  5
261
100
AcDbEntity
  8
0
100
AcDbCircle
 62
7
  6
CONTINUOUS
 10
25.8537032009
 20
58.3167395067
 40
11.8501931869
100
AcDbArc
 50
248.5609473052
 51
249.4513902145
  0
ARC
  5
262
100
AcDbEntity
  8
0
100
AcDbCircle
 62
7
  6
CONTINUOUS
 10
25.8478467469
 20
58.2945221271
 40
11.8273727978
100
AcDbArc
 50
248.0799579174
 51
248.5480154655
  0
ARC
  5
263
100
AcDbEntity
  8
0
100
AcDbCircle
 62
7
  6
CONTINUOUS
 10
25.4457422747
 20
57.5992707961
 40
11.2165559095
100
AcDbArc
 50
245.6502428878
 51
246.0791249875
  0
ARC
  5
264
100
AcDbEntity
  8
0
100
AcDbCircle
 62
7
  6
CONTINUOUS
 10
25.4364489861
 20
57.2906309801
 40
10.7430567181
100
AcDbArc
 50
243.430283695
 51
243.8704334261
  0
ARC
  5
265
100
AcDbEntity
  8
0
100
AcDbCircle
 62
7
  6
CONTINUOUS
 10
25.1490256338
 20
56.9625837161
 40
10.5141699135
100
AcDbArc
 50
242.2492163976
 51
245.692817175
  0
ARC
  5
266
100
AcDbEntity
  8
0
100
AcDbCircle
 62
7
  6
CONTINUOUS
 10
25.1823186529
 20
56.7846286431
 40
10.1768493481
100
AcDbArc
 50
243.9003491508
 51
244.7980206894
  0
ARC
  5
267
100
AcDbEntity
  8
0
100
AcDbCircle
 62
7
  6
CONTINUOUS
 10
24.7761287939
 20
56.2561148056
 40
9.7153027246
100
AcDbArc
 50
240.8527569709
 51
241.2528137735
  0
ARC
  5
268
100
AcDbEntity
  8
0
100
AcDbCircle
 62
7
  6
CONTINUOUS
 10
24.4355192877
 20
55.6631689815
 40
9.0315494617
100
AcDbArc
 50
237.0195901156
 51
240.9078276554
  0
ARC
  5
269
100
AcDbEntity
  8
0
100
AcDbCircle
 62
7
  6
CONTINUOUS
 10
24.5920651692
 20
55.7034189924
 40
8.9448137425
100
AcDbArc
 50
238.8989777756
 51
239.6359755139
  0
ARC
  5
26A
100
AcDbEntity
  8
0
100
AcDbCircle
 62
7
  6
CONTINUOUS
 10
24.5029512608
 20
55.55552026
 40
8.7721426244
100
AcDbArc
 50
238.3452337001
 51
238.898374268
  0
ARC
  5
26B
100
AcDbEntity
  8
0
100
AcDbCircle
 62
7
  6
CONTINUOUS
 10
24.0233209187
 20
55.0293583378
 40
8.2754655755
100
AcDbArc
 50
235.5453221394
 51
235.9087069019
  0
ARC
  5
26C
100
AcDbEntity
  8
0
100
AcDbCircle
 62
7
  6
CONTINUOUS
 10
23.6571128568
 20
54.5120211748
 40
7.641704718
100
AcDbArc
 50
231.180263564
 51
235.6149013828
  0
ARC
  5
26D
100
AcDbEntity
  8
0
100
AcDbCircle
 62
7
  6
CONTINUOUS
 10
23.822298639
 20
58.4613391566
 40
7.5481778793
100
AcDbArc
 50
232.6703018088
 51
234.5045927334
  0
ARC
  5
26E
100
AcDbEntity
  8
0
100
AcDbCircle
 62
7
  6
CONTINUOUS
 10
23.8162928181
 20
54.5314101242
 40
7.5387396368
100
AcDbArc
 50
233.2814964576
 51
233.8070409165
  0
ARC
  5
26F
100
AcDbEntity
  8
0
100
AcDbCircle
 62
7
  6
CONTINUOUS
 10
23.7414914573
 20
54.4311787158
 40
7.4136733435
100
AcDbArc
 50
232.6629492401
 51
233.2817492469
  0
ARC
  5
270
100
AcDbEntity
  8
0
100
AcDbCircle
 62
7
  6
CONTINUOUS
 10
23.2832288461
 20
54.0420500507
 40
7.0412259581
100
AcDbArc
 50
229.6084292302
 51
229.9309298427
  0
ARC
  5
271
100
AcDbEntity
  8
0
100
AcDbCircle
 62
7
  6
CONTINUOUS
 10
23.3290389619
 20
57.6476039669
 40
7.0150563679
100
AcDbArc
 50
229.2057072817
 51
231.8882271795
  0
ARC
  5
272
100
AcDbEntity
  8
0
100
AcDbCircle
 62
7
  6
CONTINUOUS
 10
15.6818075044
 20
50.2889161905
 40
6.9143872307
100
AcDbArc
 50
2.5597600568
 51
4.6534109745
  0
ARC
  5
273
100
AcDbEntity
  8
0
100
AcDbCircle
 62
7
  6
CONTINUOUS
 10
23.0426669677
 20
57.512668173
 40
6.3197012071
100
AcDbArc
 50
226.2883357572
 51
228.3532268582
  0
ARC
  5
274
100
AcDbEntity
  8
0
100
AcDbCircle
 62
7
  6
CONTINUOUS
 10
23.0113836049
 20
53.5565898933
 40
6.2739068835
100
AcDbArc
 50
226.2837636256
 51
226.9980449181
  0
ARC
  5
275
100
AcDbEntity
  8
0
100
AcDbCircle
 62
7
  6
CONTINUOUS
 10
25.8809427963
 20
50.9266267018
 40
5.0392585495
100
AcDbArc
 50
173.6062627176
 51
176.4800674115
  0
ARC
  5
276
100
AcDbEntity
  8
0
100
AcDbCircle
 62
7
  6
CONTINUOUS
 10
22.7907411663
 20
51.3194682358
 40
2.7302349236
100
AcDbArc
 50
168.1491332522
 51
173.4635923226
  0
ARC
  5
277
100
AcDbEntity
  8
0
100
AcDbCircle
 62
7
  6
CONTINUOUS
 10
21.2495104232
 20
51.755819257
 40
1.8946437637
100
AcDbArc
 50
162.8057486314
 51
170.4855586306
  0
ARC
  5
278
100
AcDbEntity
  8
0
100
AcDbCircle
 62
7
  6
CONTINUOUS
 10
20.2002629854
 20
52.2313215981
 40
1.4678418189
100
AcDbArc
 50
157.6184972694
 51
167.564423137
  0
ARC
  5
279
100
AcDbEntity
  8
0
100
AcDbCircle
 62
7
  6
CONTINUOUS
 10
21.0459819372
 20
51.0150237126
 40
0.7210170051
100
AcDbArc
 50
125.1226695202
 51
129.8098453151
  0
ARC
  5
27A
100
AcDbEntity
  8
0
100
AcDbCircle
 62
7
  6
CONTINUOUS
 10
20.2549096436
 20
51.4416855832
 40
0.6712993147
100
AcDbArc
 50
121.9841565569
 51
128.5885853101
  0
ARC
  5
27B
100
AcDbEntity
  8
0
100
AcDbCircle
 62
7
  6
CONTINUOUS
 10
39.8543824914
 20
65.9001347862
 40
21.3157176267
100
AcDbArc
 50
180.0006666568
 51
182.165164495
  0
ARC
  5
27C
100
AcDbEntity
  8
0
100
AcDbCircle
 62
7
  6
CONTINUOUS
 10
38.5678229649
 20
66.7992722864
 40
20.0270941566
100
AcDbArc
 50
180.2234754449
 51
182.5472596153
  0
ARC
  5
27D
100
AcDbEntity
  8
0
100
AcDbCircle
 62
7
  6
CONTINUOUS
 10
38.5624230942
 20
66.7175108765
 40
20.0236928897
100
AcDbArc
 50
180.0032093846
 51
182.3205374433
  0
ARC
  5
27E
100
AcDbEntity
  8
0
100
AcDbCircle
 62
7
  6
CONTINUOUS
 10
38.5407235964
 20
66.7173180552
 40
20.001993382
100
AcDbArc
 50
178.4016931554
 51
180.0026605292
  0
ARC
  5
27F
100
AcDbEntity
  8
0
100
AcDbCircle
 62
7
  6
CONTINUOUS
 10
38.5406767167
 20
66.7989655641
 40
19.9999469211
100
AcDbArc
 50
178.59915355
 51
180.2228719755
  0
ARC
  5
280
100
AcDbEntity
  8
0
100
AcDbCircle
 62
7
  6
CONTINUOUS
 10
26.5726467914
 20
64.3637086385
 40
14.5308094939
100
AcDbArc
 50
254.1429810637
 51
258.6546585392
  0
ARC
  5
281
100
AcDbEntity
  8
0
100
AcDbCircle
 62
7
  6
CONTINUOUS
 10
26.288380716
 20
59.8332130105
 40
13.6054824793
100
AcDbArc
 50
251.3236826895
 51
254.6150491323
  0
ARC
  5
282
100
AcDbEntity
  8
0
100
AcDbCircle
 62
7
  6
CONTINUOUS
 10
26.3139917454
 20
59.6364074074
 40
13.2482088687
100
AcDbArc
 50
252.3390492258
 51
253.5996825219
  0
ARC
  5
283
100
AcDbEntity
  8
0
100
AcDbCircle
 62
7
  6
CONTINUOUS
 10
26.3139917232
 20
63.5590382876
 40
13.2482087938
100
AcDbArc
 50
252.3390492234
 51
253.5996825266
  0
ARC
  5
284
100
AcDbEntity
  8
0
100
AcDbCircle
 62
7
  6
CONTINUOUS
 10
26.1145929796
 20
62.826859691
 40
12.926862806
100
AcDbArc
 50
250.6081523678
 51
251.7954369494
  0
ARC
  5
285
100
AcDbEntity
  8
0
100
AcDbCircle
 62
7
  6
CONTINUOUS
 10
26.0008005593
 20
58.9785560284
 40
12.7036969909
100
AcDbArc
 50
250.0319109177
 51
250.4916089272
  0
ARC
  5
286
100
AcDbEntity
  8
0
100
AcDbCircle
 62
7
  6
CONTINUOUS
 10
26.0133752522
 20
62.5377771017
 40
12.6205728978
100
AcDbArc
 50
250.0026405812
 51
250.6058480854
  0
ARC
  5
287
100
AcDbEntity
  8
0
100
AcDbCircle
 62
7
  6
CONTINUOUS
 10
25.8535168849
 20
62.2318948378
 40
11.8431655469
100
AcDbArc
 50
248.0811338151
 51
249.4396019709
  0
ARC
  5
288
100
AcDbEntity
  8
0
100
AcDbCircle
 62
7
  6
CONTINUOUS
 10
25.6292091715
 20
61.5501736615
 40
11.5607555771
100
AcDbArc
 50
246.8509085482
 51
247.4904403219
  0
ARC
  5
289
100
AcDbEntity
  8
0
100
AcDbCircle
 62
7
  6
CONTINUOUS
 10
25.5026880867
 20
61.2558107009
 40
11.2403546543
100
AcDbArc
 50
245.5507714197
 51
246.8540320727
  0
ARC
  5
28A
100
AcDbEntity
  8
0
100
AcDbCircle
 62
7
  6
CONTINUOUS
 10
25.2678495997
 20
60.8847036335
 40
10.3738254122
100
AcDbArc
 50
243.4511643304
 51
244.9350590075
  0
ARC
  5
28B
100
AcDbEntity
  8
0
100
AcDbCircle
 62
7
  6
CONTINUOUS
 10
24.9900398275
 20
60.1888309289
 40
10.0564147596
100
AcDbArc
 50
242.1016670062
 51
242.8034847605
  0
ARC
  5
28C
100
AcDbEntity
  8
0
100
AcDbCircle
 62
7
  6
CONTINUOUS
 10
24.8407997819
 20
59.9083646634
 40
9.7387144888
100
AcDbArc
 50
240.671567261
 51
242.1055731571
  0
ARC
  5
28D
100
AcDbEntity
  8
0
100
AcDbCircle
 62
7
  6
CONTINUOUS
 10
24.5790642486
 20
59.6034016242
 40
8.9187031235
100
AcDbArc
 50
238.3512857054
 51
239.9924872662
  0
ARC
  5
28E
100
AcDbEntity
  8
0
100
AcDbCircle
 62
7
  6
CONTINUOUS
 10
24.1206398384
 20
58.7136018882
 40
8.3433046559
100
AcDbArc
 50
235.2626937909
 51
237.6520356963
  0
ARC
  5
28F
100
AcDbEntity
  8
0
100
AcDbCircle
 62
7
  6
CONTINUOUS
 10
118.5149997998
 20
66.715190141
 40
20.0236019578
100
AcDbArc
 50
1.0863681079
 51
1.6271261067
  0
ARC
  5
290
100
AcDbEntity
  8
0
100
AcDbCircle
 62
7
  6
CONTINUOUS
 10
118.5188932848
 20
66.7969411443
 40
20.0177077893
100
AcDbArc
 50
0.8525223185
 51
1.4053982408
  0
ARC
  5
291
100
AcDbEntity
  8
0
100
AcDbCircle
 62
7
  6
CONTINUOUS
 10
118.5329464805
 20
66.7155311379
 40
20.0056530341
100
AcDbArc
 50
357.7193835732
 51
1.0863929467
  0
ARC
  5
292
100
AcDbEntity
  8
0
100
AcDbCircle
 62
7
  6
CONTINUOUS
 10
118.5316433278
 20
66.7972105972
 40
20.0049568882
100
AcDbArc
 50
357.5111783262
 51
0.8525362465
  0
ARC
  5
293
100
AcDbEntity
  8
0
100
AcDbCircle
 62
7
  6
CONTINUOUS
 10
92.4650509947
 20
90.7721253759
 40
57.0029010442
100
AcDbArc
 50
299.3081244131
 51
299.9985455723
  0
ARC
  5
294
100
AcDbEntity
  8
0
100
AcDbCircle
 62
7
  6
CONTINUOUS
 10
93.0211980716
 20
89.8078925669
 40
55.8897773881
100
AcDbArc
 50
299.9990075607
 51
300.6050999325
  0
ARC
  5
295
100
AcDbEntity
  8
0
100
AcDbCircle
 62
7
  6
CONTINUOUS
 10
49.1290109377
 20
73.8104890194
 40
33.2835084746
100
AcDbArc
 50
218.0441069291
 51
222.6604844147
  0
ARC
  5
296
100
AcDbEntity
  8
0
100
AcDbCircle
 62
7
  6
CONTINUOUS
 10
47.0135179545
 20
70.6921409823
 40
29.4211904015
100
AcDbArc
 50
215.5607997342
 51
215.8805917848
  0
ARC
  5
297
100
AcDbEntity
  8
0
100
AcDbCircle
 62
7
  6
CONTINUOUS
 10
46.9380908326
 20
70.5573093554
 40
29.3306638641
100
AcDbArc
 50
215.4117751207
 51
215.7321222978
  0
ARC
  5
298
100
AcDbEntity
  8
0
100
AcDbCircle
 62
7
  6
CONTINUOUS
 10
359.134886358
 20
50.157155914
 40
340.3960791566
100
AcDbArc
 50
179.6331204295
 51
179.966020245
  0
ARC
  5
299
100
AcDbEntity
  8
0
100
AcDbCircle
 62
7
  6
CONTINUOUS
 10
41.5591037177
 20
142.1795007695
 40
90.7601867915
100
AcDbArc
 50
255.6684464346
 51
258.0373793348
  0
ARC
  5
29A
100
AcDbEntity
  8
0
100
AcDbCircle
 62
7
  6
CONTINUOUS
 10
78.5386648661
 20
142.6511139829
 40
50.0
100
AcDbArc
 50
3.5014142344
 51
176.515648071
  0
SPLINE
  5
29B
100
AcDbEntity
  8
0
100
AcDbSpline
 62
7
  6
CONTINUOUS
 70
0
 71
3
 72
11
 73
7
 74
0
 42
0.0000001
 43
0.0000001
 44
0.0000000001
 40
0.0
 40
0.0
 40
0.0
 40
0.0
 40
0.2826347145
 40
0.5457729066
 40
0.7853139604
 40
1.0
 40
1.0
 40
1.0
 40
1.0
 10
23.4733981332
 20
45.6929169429
 30
0.0
 10
22.8793960592
 20
45.8210028448
 30
0.0
 10
21.7456828755
 20
46.1378082372
 30
0.0
 10
20.1908098919
 20
46.8113425725
 30
0.0
 10
18.8857848009
 20
47.6469166621
 30
0.0
 10
18.1763652284
 20
48.33239652
 30
0.0
 10
17.8893424431
 20
48.6938692737
 30
0.0
  0
SPLINE
  5
29C
100
AcDbEntity
  8
0
100
AcDbSpline
 62
7
  6
CONTINUOUS
 70
0
 71
3
 72
9
 73
5
 74
0
 42
0.0000001
 43
0.0000001
 44
0.0000000001
 40
0.0
 40
0.0
 40
0.0
 40
0.0
 40
0.4773166808
 40
1.0
 40
1.0
 40
1.0
 40
1.0
 10
23.7981751001
 20
45.7371135052
 30
0.0
 10
23.7531296331
 20
45.7091746851
 30
0.0
 10
23.6430837046
 20
45.6768247598
 30
0.0
 10
23.5301322329
 20
45.6806537265
 30
0.0
 10
23.4733981332
 20
45.6929169429
 30
0.0
  0
SPLINE
  5
29D
100
AcDbEntity
  8
0
100
AcDbSpline
 62
7
  6
CONTINUOUS
 70
0
 71
3
 72
11
 73
7
 74
0
 42
0.0000001
 43
0.0000001
 44
0.0000000001
 40
0.0
 40
0.0
 40
0.0
 40
0.0
 40
0.2897836575
 40
0.5490338959
 40
0.7822251794
 40
1.0
 40
1.0
 40
1.0
 40
1.0
 10
85.8296673398
 20
26.1730827782
 30
0.0
 10
85.7199457417
 20
26.2364324111
 30
0.0
 10
85.5209490351
 20
26.3734972785
 30
0.0
 10
85.2831734103
 20
26.6234982388
 30
0.0
 10
85.1325839487
 20
26.8999318605
 30
0.0
 10
85.0975582331
 20
27.0984535511
 30
0.0
 10
85.0975627687
 20
27.1936670267
 30
0.0
  0
SPLINE
  5
29E
100
AcDbEntity
  8
0
100
AcDbSpline
 62
7
  6
CONTINUOUS
 70
0
 71
3
 72
11
 73
7
 74
0
 42
0.0000001
 43
0.0000001
 44
0.0000000001
 40
0.0
 40
0.0
 40
0.0
 40
0.0
 40
0.2177416576
 40
0.4508857691
 40
0.7104589349
 40
1.0
 40
1.0
 40
1.0
 40
1.0
 10
90.0973816297
 20
27.1936670298
 30
0.0
 10
90.0973770947
 20
27.0984653765
 30
0.0
 10
90.062378653
 20
26.8999817175
 30
0.0
 10
89.9118156691
 20
26.6233824413
 30
0.0
 10
89.6738344066
 20
26.3735335323
 30
0.0
 10
89.4748802985
 20
26.2363618603
 30
0.0
 10
89.365246512
 20
26.173065142
 30
0.0
  0
SPLINE
  5
29F
100
AcDbEntity
  8
0
100
AcDbSpline
 62
7
  6
CONTINUOUS
 70
0
 71
3
 72
11
 73
7
 74
0
 42
0.0000001
 43
0.0000001
 44
0.0000000001
 40
0.0
 40
0.0
 40
0.0
 40
0.0
 40
0.263944081
 40
0.5165766212
 40
0.7607730295
 40
1.0
 40
1.0
 40
1.0
 40
1.0
 10
23.0794135756
 20
53.5817613192
 30
0.0
 10
22.3986819657
 20
54.5339790862
 30
0.0
 10
21.1760640389
 20
56.4800315995
 30
0.0
 10
19.7781152561
 20
59.5625998045
 30
0.0
 10
18.8743700221
 20
62.7116044151
 30
0.0
 10
18.607660869
 20
64.849342388
 30
0.0
 10
18.5605175221
 20
65.9091996641
 30
0.0
  0
SPLINE
  5
2A0
100
AcDbEntity
  8
0
100
AcDbSpline
 62
7
  6
CONTINUOUS
 70
0
 71
3
 72
9
 73
5
 74
0
 42
0.0000001
 43
0.0000001
 44
0.0000000001
 40
0.0
 40
0.0
 40
0.0
 40
0.0
 40
0.5207960468
 40
1.0
 40
1.0
 40
1.0
 40
1.0
 10
19.0929964004
 20
54.2438110387
 30
0.0
 10
19.0341954579
 20
54.2588501686
 30
0.0
 10
18.9155255869
 20
54.2655127444
 30
0.0
 10
18.7993554372
 20
54.2328981312
 30
0.0
 10
18.7518963163
 20
54.2034622761
 30
0.0
  0
SPLINE
  5
2A1
100
AcDbEntity
  8
0
100
AcDbSpline
 62
7
  6
CONTINUOUS
 70
0
 71
3
 72
9
 73
5
 74
0
 42
0.0000001
 43
0.0000001
 44
0.0000000001
 40
0.0
 40
0.0
 40
0.0
 40
0.0
 40
0.2154085001
 40
1.0
 40
1.0
 40
1.0
 40
1.0
 10
22.9170305997
 20
53.2989307379
 30
0.0
 10
22.9083969893
 20
53.30998958
 30
0.0
 10
22.8612557265
 20
53.3558059781
 30
0.0
 10
22.7969121206
 20
53.379753833
 30
0.0
 10
22.7469211884
 20
53.390349997
 30
0.0
  0
SPLINE
  5
2A2
100
AcDbEntity
  8
0
100
AcDbSpline
 62
7
  6
CONTINUOUS
 70
0
 71
3
 72
9
 73
5
 74
0
 42
0.0000001
 43
0.0000001
 44
0.0000000001
 40
0.0
 40
0.0
 40
0.0
 40
0.0
 40
0.2619571736
 40
1.0
 40
1.0
 40
1.0
 40
1.0
 10
17.9424625802
 20
53.523668172
 30
0.0
 10
17.9323707264
 20
53.5012629724
 30
0.0
 10
17.8999617122
 20
53.4130392115
 30
0.0
 10
17.8861824098
 20
53.3185056387
 30
0.0
 10
17.8854004165
 20
53.2492772927
 30
0.0
  0
SPLINE
  5
2A3
100
AcDbEntity
  8
0
100
AcDbSpline
 62
7
  6
CONTINUOUS
 70
0
 71
3
 72
9
 73
5
 74
0
 42
0.0000001
 43
0.0000001
 44
0.0000000001
 40
0.0
 40
0.0
 40
0.0
 40
0.0
 40
0.2629528374
 40
1.0
 40
1.0
 40
1.0
 40
1.0
 10
20.0782535277
 20
51.6302632728
 30
0.0
 10
20.0761406143
 20
51.6117495021
 30
0.0
 10
20.0703952111
 20
51.5410713205
 30
0.0
 10
20.0706386782
 20
51.4701274109
 30
0.0
 10
20.07062987
 20
51.4178971318
 30
0.0
  0
SPLINE
  5
2A4
100
AcDbEntity
  8
0
100
AcDbSpline
 62
7
  6
CONTINUOUS
 70
0
 71
3
 72
9
 73
5
 74
0
 42
0.0000001
 43
0.0000001
 44
0.0000000001
 40
0.0
 40
0.0
 40
0.0
 40
0.0
 40
0.2628940805
 40
1.0
 40
1.0
 40
1.0
 40
1.0
 10
19.3809294351
 20
52.0689966591
 30
0.0
 10
19.3778679524
 20
52.0506420245
 30
0.0
 10
19.368757914
 20
51.9803948779
 30
0.0
 10
19.3666699101
 20
51.9094713874
 30
0.0
 10
19.366502082
 20
51.8572977252
 30
0.0
  0
SPLINE
  5
2A5
100
AcDbEntity
  8
0
100
AcDbSpline
 62
7
  6
CONTINUOUS
 70
0
 71
3
 72
9
 73
5
 74
0
 42
0.0000001
 43
0.0000001
 44
0.0000000001
 40
0.0
 40
0.0
 40
0.0
 40
0.0
 40
0.2628673052
 40
1.0
 40
1.0
 40
1.0
 40
1.0
 10
18.7668585642
 20
52.547409201
 30
0.0
 10
18.7628825998
 20
52.5292713568
 30
0.0
 10
18.7505063712
 20
52.4596713976
 30
0.0
 10
18.746110043
 20
52.3888532412
 30
0.0
 10
18.7457855854
 20
52.3367844131
 30
0.0
  0
SPLINE
  5
2A6
100
AcDbEntity
  8
0
100
AcDbSpline
 62
7
  6
CONTINUOUS
 70
0
 71
3
 72
9
 73
5
 74
0
 42
0.0000001
 43
0.0000001
 44
0.0000000001
 40
0.0
 40
0.0
 40
0.0
 40
0.0
 40
0.5278915029
 40
1.0
 40
1.0
 40
1.0
 40
1.0
 10
17.9424625915
 20
53.5236681659
 30
0.0
 10
17.9776386855
 20
53.6017635709
 30
0.0
 10
18.0652894954
 20
53.7407132225
 30
0.0
 10
18.1866109711
 20
53.8528519589
 30
0.0
 10
18.2517074505
 20
53.8932271392
 30
0.0
  0
SPLINE
  5
2A7
100
AcDbEntity
  8
0
100
AcDbSpline
 62
7
  6
CONTINUOUS
 70
0
 71
3
 72
9
 73
5
 74
0
 42
0.0000001
 43
0.0000001
 44
0.0000000001
 40
0.0
 40
0.0
 40
0.0
 40
0.0
 40
0.2365549847
 40
1.0
 40
1.0
 40
1.0
 40
1.0
 10
24.6880284059
 20
51.1745281557
 30
0.0
 10
24.6880245242
 20
51.1816092872
 30
0.0
 10
24.6847857544
 20
51.2115871976
 30
0.0
 10
24.6683938317
 20
51.2390194653
 30
0.0
 10
24.6529135317
 20
51.2558311379
 30
0.0
  0
SPLINE
  5
2A8
100
AcDbEntity
  8
0
100
AcDbSpline
 62
7
  6
CONTINUOUS
 70
0
 71
3
 72
9
 73
5
 74
0
 42
0.0000001
 43
0.0000001
 44
0.0000000001
 40
0.0
 40
0.0
 40
0.0
 40
0.0
 40
0.2513378017
 40
1.0
 40
1.0
 40
1.0
 40
1.0
 10
17.8620518001
 20
50.0059023054
 30
0.0
 10
17.862051765
 20
50.2776378111
 30
0.0
 10
17.8656874555
 20
51.358793454
 30
0.0
 10
17.8764459048
 20
52.4399058004
 30
0.0
 10
17.8854004165
 20
53.2492772927
 30
0.0
  0
SPLINE
  5
2A9
100
AcDbEntity
  8
0
100
AcDbSpline
 62
7
  6
CONTINUOUS
 70
0
 71
3
 72
15
 73
11
 74
0
 42
0.0000001
 43
0.0000001
 44
0.0000000001
 40
0.0
 40
0.0
 40
0.0
 40
0.0
 40
0.1078239271
 40
0.2180298781
 40
0.3322944195
 40
0.4519888661
 40
0.5781124782
 40
0.7113219707
 40
0.8519799669
 40
1.0
 40
1.0
 40
1.0
 40
1.0
 10
138.5177297932
 20
65.9285058744
 30
0.0
 10
138.4698468549
 20
64.8268691548
 30
0.0
 10
138.1870775238
 20
62.6032904462
 30
0.0
 10
137.2196596731
 20
59.3318875241
 30
0.0
 10
135.7184773478
 20
56.134500486
 30
0.0
 10
133.7007570376
 20
53.0413201001
 30
0.0
 10
131.1878028139
 20
50.0781406044
 30
0.0
 10
128.2028287358
 20
47.2698804062
 30
0.0
 10
124.7738737905
 20
44.640912464
 30
0.0
 10
122.2747804145
 20
43.0612812995
 30
0.0
 10
120.9638341554
 20
42.3044106419
 30
0.0
  0
SPLINE
  5
2AA
100
AcDbEntity
  8
0
100
AcDbSpline
 62
7
  6
CONTINUOUS
 70
0
 71
3
 72
11
 73
7
 74
0
 42
0.0000001
 43
0.0000001
 44
0.0000000001
 40
0.0
 40
0.0
 40
0.0
 40
0.0
 40
0.2344341961
 40
0.4758632024
 40
0.7297000712
 40
1.0
 40
1.0
 40
1.0
 40
1.0
 10
19.535495095
 20
107.6529867139
 30
0.0
 10
19.5712086725
 20
109.1108520299
 30
0.0
 10
19.9690383269
 20
112.0711828394
 30
0.0
 10
21.5082187389
 20
116.372482495
 30
0.0
 10
23.9464218206
 20
120.4924303418
 30
0.0
 10
26.0627606096
 20
122.9927723317
 30
0.0
 10
27.2362943402
 20
124.1969091318
 30
0.0
  0
SPLINE
  5
2AB
100
AcDbEntity
  8
0
100
AcDbSpline
 62
7
  6
CONTINUOUS
 70
0
 71
3
 72
11
 73
7
 74
0
 42
0.0000001
 43
0.0000001
 44
0.0000000001
 40
0.0
 40
0.0
 40
0.0
 40
0.0
 40
0.237265546
 40
0.5000149304
 40
0.7627849516
 40
1.0
 40
1.0
 40
1.0
 40
1.0
 10
89.0116916495
 20
25.9689343107
 30
0.0
 10
88.8108943767
 20
25.8530046432
 30
0.0
 10
88.3439836567
 20
25.6838189308
 30
0.0
 10
87.5974306487
 20
25.6028871633
 30
0.0
 10
86.8509370004
 20
25.6839002831
 30
0.0
 10
86.3840662763
 20
25.8530918985
 30
0.0
 10
86.1833115662
 20
25.9689965924
 30
0.0
  0
SPLINE
  5
2AC
100
AcDbEntity
  8
0
100
AcDbSpline
 62
7
  6
CONTINUOUS
 70
0
 71
3
 72
9
 73
5
 74
0
 42
0.0000001
 43
0.0000001
 44
0.0000000001
 40
0.0
 40
0.0
 40
0.0
 40
0.0
 40
0.2452422934
 40
1.0
 40
1.0
 40
1.0
 40
1.0
 10
22.1369094657
 20
50.7362950906
 30
0.0
 10
22.1465161423
 20
50.7547693319
 30
0.0
 10
22.1897613495
 20
50.8279647106
 30
0.0
 10
22.2469984484
 20
50.8924448975
 30
0.0
 10
22.2947009113
 20
50.9352378436
 30
0.0
  0
SPLINE
  5
2AD
100
AcDbEntity
  8
0
100
AcDbSpline
 62
7
  6
CONTINUOUS
 70
0
 71
3
 72
9
 73
5
 74
0
 42
0.0000001
 43
0.0000001
 44
0.0000000001
 40
0.0
 40
0.0
 40
0.0
 40
0.0
 40
0.2440952741
 40
1.0
 40
1.0
 40
1.0
 40
1.0
 10
21.2664538328
 20
51.0556885783
 30
0.0
 10
21.2765734415
 20
51.0735799137
 30
0.0
 10
21.3223230719
 20
51.144434477
 30
0.0
 10
21.3826740244
 20
51.2052726557
 30
0.0
 10
21.4325428016
 20
51.2448316113
 30
0.0
  0
SPLINE
  5
2AE
100
AcDbEntity
  8
0
100
AcDbSpline
 62
7
  6
CONTINUOUS
 70
0
 71
3
 72
9
 73
5
 74
0
 42
0.0000001
 43
0.0000001
 44
0.0000000001
 40
0.0
 40
0.0
 40
0.0
 40
0.0
 40
0.2439155438
 40
1.0
 40
1.0
 40
1.0
 40
1.0
 10
20.45859322
 20
51.4258632379
 30
0.0
 10
20.4666679188
 20
51.4391238432
 30
0.0
 10
20.5024021545
 20
51.4918795931
 30
0.0
 10
20.547403218
 20
51.5380590239
 30
0.0
 10
20.5843567793
 20
51.5688898836
 30
0.0
  0
SPLINE
  5
2AF
100
AcDbEntity
  8
0
100
AcDbSpline
 62
7
  6
CONTINUOUS
 70
0
 71
3
 72
9
 73
5
 74
0
 42
0.0000001
 43
0.0000001
 44
0.0000000001
 40
0.0
 40
0.0
 40
0.0
 40
0.0
 40
0.2417433738
 40
1.0
 40
1.0
 40
1.0
 40
1.0
 10
19.6564732487
 20
51.6650595396
 30
0.0
 10
19.6569297637
 20
51.6804465814
 30
0.0
 10
19.6653134738
 20
51.7440261507
 30
0.0
 10
19.6958825201
 20
51.8022675453
 30
0.0
 10
19.7221786773
 20
51.842763298
 30
0.0
  0
SPLINE
  5
2B0
100
AcDbEntity
  8
0
100
AcDbSpline
 62
7
  6
CONTINUOUS
 70
0
 71
3
 72
9
 73
5
 74
0
 42
0.0000001
 43
0.0000001
 44
0.0000000001
 40
0.0
 40
0.0
 40
0.0
 40
0.0
 40
0.2444329726
 40
1.0
 40
1.0
 40
1.0
 40
1.0
 10
18.9993633081
 20
52.1280999513
 30
0.0
 10
18.9998133677
 20
52.143369572
 30
0.0
 10
19.0079311771
 20
52.2057849654
 30
0.0
 10
19.0385606436
 20
52.2628864005
 30
0.0
 10
19.065278593
 20
52.3018212306
 30
0.0
  0
SPLINE
  5
2B1
100
AcDbEntity
  8
0
100
AcDbSpline
 62
7
  6
CONTINUOUS
 70
0
 71
3
 72
9
 73
5
 74
0
 42
0.0000001
 43
0.0000001
 44
0.0000000001
 40
0.0
 40
0.0
 40
0.0
 40
0.0
 40
0.2559990262
 40
1.0
 40
1.0
 40
1.0
 40
1.0
 10
18.6755665095
 20
52.9446207829
 30
0.0
 10
18.6631935265
 20
52.9385039495
 30
0.0
 10
18.615681937
 20
52.9130370843
 30
0.0
 10
18.5715987063
 20
52.8807792776
 30
0.0
 10
18.5427561969
 20
52.8529010088
 30
0.0
  0
SPLINE
  5
2B2
100
AcDbEntity
  8
0
100
AcDbSpline
 62
7
  6
CONTINUOUS
 70
0
 71
3
 72
8
 73
4
 74
0
 42
0.0000001
 43
0.0000001
 44
0.0000000001
 40
0.0
 40
0.0
 40
0.0
 40
0.0
 40
1.0
 40
1.0
 40
1.0
 40
1.0
 10
18.5427561969
 20
52.8529010088
 30
0.0
 10
18.5253317385
 20
52.8360590715
 30
0.0
 10
18.5092330214
 20
52.8176858445
 30
0.0
 10
18.4950900652
 20
52.7980074453
 30
0.0
  0
SPLINE
  5
2B3
100
AcDbEntity
  8
0
100
AcDbSpline
 62
7
  6
CONTINUOUS
 70
0
 71
3
 72
12
 73
8
 74
0
 42
0.0000001
 43
0.0000001
 44
0.0000000001
 40
0.0
 40
0.0
 40
0.0
 40
0.0
 40
0.1320853628
 40
0.2586193221
 40
0.5077432923
 40
0.7545189403
 40
1.0
 40
1.0
 40
1.0
 40
1.0
 10
17.8860663978
 20
48.6981466021
 30
0.0
 10
17.8779592406
 20
48.7551756753
 30
0.0
 10
17.8734796709
 20
48.868172417
 30
0.0
 10
17.867288629
 20
49.0893776493
 30
0.0
 10
17.8641887874
 20
49.3608815129
 30
0.0
 10
17.8623213686
 20
49.6841689961
 30
0.0
 10
17.862051814
 20
49.8988479892
 30
0.0
 10
17.8620518001
 20
50.0059023054
 30
0.0
  0
SPLINE
  5
2B4
100
AcDbEntity
  8
0
100
AcDbSpline
 62
7
  6
CONTINUOUS
 70
0
 71
3
 72
9
 73
5
 74
0
 42
0.0000001
 43
0.0000001
 44
0.0000000001
 40
0.0
 40
0.0
 40
0.0
 40
0.0
 40
0.4978341772
 40
1.0
 40
1.0
 40
1.0
 40
1.0
 10
18.3031925461
 20
49.0662000495
 30
0.0
 10
18.3326742084
 20
49.6569481918
 30
0.0
 10
18.3758524956
 20
50.8443448066
 30
0.0
 10
18.4124191431
 20
52.0318796131
 30
0.0
 10
18.4296871055
 20
52.6282594923
 30
0.0
  0
SPLINE
  5
2B5
100
AcDbEntity
  8
0
100
AcDbSpline
 62
7
  6
CONTINUOUS
 70
0
 71
3
 72
9
 73
5
 74
0
 42
0.0000001
 43
0.0000001
 44
0.0000000001
 40
0.0
 40
0.0
 40
0.0
 40
0.0
 40
0.2486875274
 40
1.0
 40
1.0
 40
1.0
 40
1.0
 10
18.8738622387
 20
48.6930980522
 30
0.0
 10
18.8809546844
 20
48.8304999254
 30
0.0
 10
18.907522567
 20
49.3831094879
 30
0.0
 10
18.9281485134
 20
49.9359847374
 30
0.0
 10
18.9425273253
 20
50.3513948337
 30
0.0
  0
SPLINE
  5
2B6
100
AcDbEntity
  8
0
100
AcDbSpline
 62
7
  6
CONTINUOUS
 70
0
 71
3
 72
8
 73
4
 74
0
 42
0.0000001
 43
0.0000001
 44
0.0000000001
 40
0.0
 40
0.0
 40
0.0
 40
0.0
 40
1.0
 40
1.0
 40
1.0
 40
1.0
 10
18.9425273253
 20
50.3513948337
 30
0.0
 10
18.9490068573
 20
50.5385913147
 30
0.0
 10
18.9552329714
 20
50.725796571
 30
0.0
 10
18.9613618762
 20
50.9130048597
 30
0.0
  0
SPLINE
  5
2B7
100
AcDbEntity
  8
0
100
AcDbSpline
 62
7
  6
CONTINUOUS
 70
0
 71
3
 72
9
 73
5
 74
0
 42
0.0000001
 43
0.0000001
 44
0.0000000001
 40
0.0
 40
0.0
 40
0.0
 40
0.0
 40
0.2486802602
 40
1.0
 40
1.0
 40
1.0
 40
1.0
 10
19.5271799759
 20
48.2299195257
 30
0.0
 10
19.5372089468
 20
48.4136371256
 30
0.0
 10
19.5735450544
 20
49.1526269744
 30
0.0
 10
19.5993303944
 20
49.89207789
 30
0.0
 10
19.6178885047
 20
50.4476471628
 30
0.0
  0
SPLINE
  5
2B8
100
AcDbEntity
  8
0
100
AcDbSpline
 62
7
  6
CONTINUOUS
 70
0
 71
3
 72
15
 73
11
 74
0
 42
0.0000001
 43
0.0000001
 44
0.0000000001
 40
0.0
 40
0.0
 40
0.0
 40
0.0
 40
0.148036225
 40
0.2886906198
 40
0.4218843489
 40
0.5479861022
 40
0.6676593109
 40
0.781913724
 40
0.8921315186
 40
1.0
 40
1.0
 40
1.0
 40
1.0
 10
121.0113354662
 20
42.2485811971
 30
0.0
 10
122.3225777647
 20
43.0072762485
 30
0.0
 10
124.8218227464
 20
44.5906145268
 30
0.0
 10
128.249688146
 20
47.2257104149
 30
0.0
 10
131.2319711202
 20
50.0402375954
 30
0.0
 10
133.7405949625
 20
53.0097411464
 30
0.0
 10
135.752269463
 20
56.1092032523
 30
0.0
 10
137.2457022594
 20
59.31266227
 30
0.0
 10
138.2036012568
 20
62.5897895114
 30
0.0
 10
138.4788258982
 20
64.8164416258
 30
0.0
 10
138.522753333
 20
65.9194310702
 30
0.0
  0
SPLINE
  5
2B9
100
AcDbEntity
  8
0
100
AcDbSpline
 62
7
  6
CONTINUOUS
 70
0
 71
3
 72
9
 73
5
 74
0
 42
0.0000001
 43
0.0000001
 44
0.0000000001
 40
0.0
 40
0.0
 40
0.0
 40
0.0
 40
0.4985026825
 40
1.0
 40
1.0
 40
1.0
 40
1.0
 10
20.0706249974
 20
51.3585824549
 30
0.0
 10
20.0706278271
 20
50.7702358291
 30
0.0
 10
20.0739711723
 20
49.5900356625
 30
0.0
 10
20.085559534
 20
48.4097584808
 30
0.0
 10
20.1013908891
 20
47.818089267
 30
0.0
  0
SPLINE
  5
2BA
100
AcDbEntity
  8
0
100
AcDbSpline
 62
7
  6
CONTINUOUS
 70
0
 71
3
 72
9
 73
5
 74
0
 42
0.0000001
 43
0.0000001
 44
0.0000000001
 40
0.0
 40
0.0
 40
0.0
 40
0.0
 40
0.4982850699
 40
1.0
 40
1.0
 40
1.0
 40
1.0
 10
19.3646767304
 20
50.7808597954
 30
0.0
 10
19.3646770134
 20
50.3481986582
 30
0.0
 10
19.3666476695
 20
49.4799078815
 30
0.0
 10
19.3750307632
 20
48.6115980073
 30
0.0
 10
19.3848136193
 20
48.1760685784
 30
0.0
  0
SPLINE
  5
2BB
100
AcDbEntity
  8
0
100
AcDbSpline
 62
7
  6
CONTINUOUS
 70
0
 71
3
 72
9
 73
5
 74
0
 42
0.0000001
 43
0.0000001
 44
0.0000000001
 40
0.0
 40
0.0
 40
0.0
 40
0.0
 40
0.4523635654
 40
1.0
 40
1.0
 40
1.0
 40
1.0
 10
24.6880284133
 20
47.9901687305
 30
0.0
 10
24.6880405773
 20
47.9679194778
 30
0.0
 10
24.6696881451
 20
47.9185394697
 30
0.0
 10
24.6304985338
 20
47.8863552981
 30
0.0
 10
24.6076086541
 20
47.8721581707
 30
0.0
  0
SPLINE
  5
2BC
100
AcDbEntity
  8
0
100
AcDbSpline
 62
7
  6
CONTINUOUS
 70
0
 71
3
 72
25
 73
21
 74
0
 42
0.0000001
 43
0.0000001
 44
0.0000000001
 40
0.0
 40
0.0
 40
0.0
 40
0.0
 40
0.0627085818
 40
0.1294407888
 40
0.1994668086
 40
0.2718808862
 40
0.3456608028
 40
0.4197213888
 40
0.4929648191
 40
0.5643303649
 40
0.6328458935
 40
0.6976838976
 40
0.7582256392
 40
0.8141376979
 40
0.8654636214
 40
0.9127235064
 40
0.935179646
 40
0.9570665846
 40
0.9785962546
 40
1.0
 40
1.0
 40
1.0
 40
1.0
 10
115.2929941684
 20
89.9451277184
 30
0.0
 10
113.3967428231
 20
88.8503330287
 30
0.0
 10
109.3292725955
 20
86.8498608612
 30
0.0
 10
102.7641756556
 20
84.4890109214
 30
0.0
 10
95.6675286724
 20
82.7144229385
 30
0.0
 10
88.1955543913
 20
81.5652255435
 30
0.0
 10
80.5114731071
 20
81.06625278
 30
0.0
 10
72.7840853614
 20
81.2285094285
 30
0.0
 10
65.1830696963
 20
82.048415815
 30
0.0
 10
57.8751423616
 20
83.5080403566
 30
0.0
 10
51.0200550911
 20
85.5756604752
 30
0.0
 10
44.7668379396
 20
88.2070719012
 30
0.0
 10
39.250624036
 20
91.3471002663
 30
0.0
 10
34.590182941
 20
94.9335043276
 30
0.0
 10
30.8890362992
 20
98.8956639983
 30
0.0
 10
28.6408805278
 20
102.5166071019
 30
0.0
 10
27.4482581939
 20
105.4917062166
 30
0.0
 10
26.8548379011
 20
107.72024316
 30
0.0
 10
26.5529761451
 20
109.9693176215
 30
0.0
 10
26.5470856806
 20
111.4733865963
 30
0.0
 10
26.5925162723
 20
112.219360309
 30
0.0
  0
SPLINE
  5
2BD
100
AcDbEntity
  8
0
100
AcDbSpline
 62
7
  6
CONTINUOUS
 70
0
 71
3
 72
9
 73
5
 74
0
 42
0.0000001
 43
0.0000001
 44
0.0000000001
 40
0.0
 40
0.0
 40
0.0
 40
0.0
 40
0.2489040513
 40
1.0
 40
1.0
 40
1.0
 40
1.0
 10
18.7388670632
 20
50.3590307254
 30
0.0
 10
18.73886825
 20
50.2176388717
 30
0.0
 10
18.7394322393
 20
49.6495846572
 30
0.0
 10
18.742314284
 20
49.0815061796
 30
0.0
 10
18.7492423041
 20
48.6548966212
 30
0.0
  0
SPLINE
  5
2BE
100
AcDbEntity
  8
0
100
AcDbSpline
 62
7
  6
CONTINUOUS
 70
0
 71
3
 72
9
 73
5
 74
0
 42
0.0000001
 43
0.0000001
 44
0.0000000001
 40
0.0
 40
0.0
 40
0.0
 40
0.0
 40
0.265021235
 40
1.0
 40
1.0
 40
1.0
 40
1.0
 10
18.4950900557
 20
49.0237152696
 30
0.0
 10
18.4775035788
 20
49.0238834051
 30
0.0
 10
18.4112750118
 20
49.0278046825
 30
0.0
 10
18.3454332524
 20
49.0456390544
 30
0.0
 10
18.3018444483
 20
49.0675243889
 30
0.0
  0
SPLINE
  5
2BF
100
AcDbEntity
  8
0
100
AcDbSpline
 62
7
  6
CONTINUOUS
 70
0
 71
3
 72
8
 73
4
 74
0
 42
0.0000001
 43
0.0000001
 44
0.0000000001
 40
0.0
 40
0.0
 40
0.0
 40
0.0
 40
1.0
 40
1.0
 40
1.0
 40
1.0
 10
18.7507169877
 20
48.6536180667
 30
0.0
 10
18.7439424331
 20
48.668099181
 30
0.0
 10
18.7388492746
 20
48.6840711277
 30
0.0
 10
18.7387295062
 20
48.7000580885
 30
0.0
  0
SPLINE
  5
2C0
100
AcDbEntity
  8
0
100
AcDbSpline
 62
7
  6
CONTINUOUS
 70
0
 71
3
 72
9
 73
5
 74
0
 42
0.0000001
 43
0.0000001
 44
0.0000000001
 40
0.0
 40
0.0
 40
0.0
 40
0.0
 40
0.2457791543
 40
1.0
 40
1.0
 40
1.0
 40
1.0
 10
18.3018444483
 20
49.0675243889
 30
0.0
 10
18.3346853738
 20
49.0342000507
 30
0.0
 10
18.4698542419
 20
48.9001456961
 30
0.0
 10
18.6111076847
 20
48.7722539881
 30
0.0
 10
18.7204590939
 20
48.6792154288
 30
0.0
  0
SPLINE
  5
2C1
100
AcDbEntity
  8
0
100
AcDbSpline
 62
7
  6
CONTINUOUS
 70
0
 71
3
 72
8
 73
4
 74
0
 42
0.0000001
 43
0.0000001
 44
0.0000000001
 40
0.0
 40
0.0
 40
0.0
 40
0.0
 40
1.0
 40
1.0
 40
1.0
 40
1.0
 10
19.2450787605
 20
52.4593355328
 30
0.0
 10
19.2200210998
 20
52.445381978
 30
0.0
 10
19.1957868692
 20
52.4297853313
 30
0.0
 10
19.1729019135
 20
52.4124975654
 30
0.0
  0
SPLINE
  5
2C2
100
AcDbEntity
  8
0
100
AcDbSpline
 62
7
  6
CONTINUOUS
 70
0
 71
3
 72
8
 73
4
 74
0
 42
0.0000001
 43
0.0000001
 44
0.0000000001
 40
0.0
 40
0.0
 40
0.0
 40
0.0
 40
1.0
 40
1.0
 40
1.0
 40
1.0
 10
19.1729019135
 20
52.4124975654
 30
0.0
 10
19.15405112
 20
52.3982572887
 30
0.0
 10
19.13603851
 20
52.3828058157
 30
0.0
 10
19.119266695
 20
52.3661671824
 30
0.0
  0
SPLINE
  5
2C3
100
AcDbEntity
  8
0
100
AcDbSpline
 62
7
  6
CONTINUOUS
 70
0
 71
3
 72
8
 73
4
 74
0
 42
0.0000001
 43
0.0000001
 44
0.0000000001
 40
0.0
 40
0.0
 40
0.0
 40
0.0
 40
1.0
 40
1.0
 40
1.0
 40
1.0
 10
19.119266695
 20
52.3661671824
 30
0.0
 10
19.0993901841
 20
52.346448507
 30
0.0
 10
19.0811203709
 20
52.3249067227
 30
0.0
 10
19.0652785929
 20
52.3018212313
 30
0.0
  0
SPLINE
  5
2C4
100
AcDbEntity
  8
0
100
AcDbSpline
 62
7
  6
CONTINUOUS
 70
0
 71
3
 72
9
 73
5
 74
0
 42
0.0000001
 43
0.0000001
 44
0.0000000001
 40
0.0
 40
0.0
 40
0.0
 40
0.0
 40
0.259579367
 40
1.0
 40
1.0
 40
1.0
 40
1.0
 10
19.065278583
 20
48.5275290517
 30
0.0
 10
19.0478466624
 20
48.5266394699
 30
0.0
 10
18.9806276737
 20
48.5266395059
 30
0.0
 10
18.912895739
 20
48.5395333657
 30
0.0
 10
18.8667403834
 20
48.5582003374
 30
0.0
  0
SPLINE
  5
2C5
100
AcDbEntity
  8
0
100
AcDbSpline
 62
7
  6
CONTINUOUS
 70
0
 71
3
 72
9
 73
5
 74
0
 42
0.0000001
 43
0.0000001
 44
0.0000000001
 40
0.0
 40
0.0
 40
0.0
 40
0.0
 40
0.2642041799
 40
1.0
 40
1.0
 40
1.0
 40
1.0
 10
19.3848136194
 20
48.1760685784
 30
0.0
 10
19.3815774641
 20
48.1809069231
 30
0.0
 10
19.3704478818
 20
48.199918181
 30
0.0
 10
19.364670021
 20
48.2222510671
 30
0.0
 10
19.3646702209
 20
48.2384618485
 30
0.0
  0
SPLINE
  5
2C6
100
AcDbEntity
  8
0
100
AcDbSpline
 62
7
  6
CONTINUOUS
 70
0
 71
3
 72
9
 73
5
 74
0
 42
0.0000001
 43
0.0000001
 44
0.0000000001
 40
0.0
 40
0.0
 40
0.0
 40
0.0
 40
0.256367429
 40
1.0
 40
1.0
 40
1.0
 40
1.0
 10
19.8362042259
 20
51.9664031673
 30
0.0
 10
19.8249553386
 20
51.9574032402
 30
0.0
 10
19.7823105741
 20
51.9208207564
 30
0.0
 10
19.7449362983
 20
51.8778097541
 30
0.0
 10
19.722178677
 20
51.8427632987
 30
0.0
  0
SPLINE
  5
2C7
100
AcDbEntity
  8
0
100
AcDbSpline
 62
7
  6
CONTINUOUS
 70
0
 71
3
 72
15
 73
11
 74
0
 42
0.0000001
 43
0.0000001
 44
0.0000000001
 40
0.0
 40
0.0
 40
0.0
 40
0.0
 40
0.1488794498
 40
0.2899456853
 40
0.4231492479
 40
0.5489374009
 40
0.6681037551
 40
0.7818620714
 40
0.8918422986
 40
1.0
 40
1.0
 40
1.0
 40
1.0
 10
120.2645526426
 20
83.0812893376
 30
0.0
 10
121.6186901284
 20
83.8630963128
 30
0.0
 10
124.1936589539
 20
85.4978496321
 30
0.0
 10
127.7068517085
 20
88.2315172728
 30
0.0
 10
130.7344156312
 20
91.1579476559
 30
0.0
 10
133.2448771125
 20
94.2493611084
 30
0.0
 10
135.2117535822
 20
97.4774039282
 30
0.0
 10
136.6116266242
 20
100.8118095754
 30
0.0
 10
137.4254536741
 20
104.2173075049
 30
0.0
 10
137.569630366
 20
106.5173910349
 30
0.0
 10
137.5417728728
 20
107.6529862114
 30
0.0
  0
SPLINE
  5
2C8
100
AcDbEntity
  8
0
100
AcDbSpline
 62
7
  6
CONTINUOUS
 70
0
 71
3
 72
9
 73
5
 74
0
 42
0.0000001
 43
0.0000001
 44
0.0000000001
 40
0.0
 40
0.0
 40
0.0
 40
0.0
 40
0.2549204627
 40
1.0
 40
1.0
 40
1.0
 40
1.0
 10
19.7221786672
 20
48.0684711153
 30
0.0
 10
19.7048980975
 20
48.0665225507
 30
0.0
 10
19.6367982997
 20
48.0624284812
 30
0.0
 10
19.5675818693
 20
48.0714938297
 30
0.0
 10
19.5191750025
 20
48.0869928651
 30
0.0
  0
SPLINE
  5
2C9
100
AcDbEntity
  8
0
100
AcDbSpline
 62
7
  6
CONTINUOUS
 70
0
 71
3
 72
9
 73
5
 74
0
 42
0.0000001
 43
0.0000001
 44
0.0000000001
 40
0.0
 40
0.0
 40
0.0
 40
0.0
 40
0.2719185413
 40
1.0
 40
1.0
 40
1.0
 40
1.0
 10
20.1035956016
 20
47.7382194906
 30
0.0
 10
20.0983879027
 20
47.7440912838
 30
0.0
 10
20.0807160102
 20
47.7668626433
 30
0.0
 10
20.0706168256
 20
47.7961452918
 30
0.0
 10
20.0706253231
 20
47.8171600656
 30
0.0
  0
SPLINE
  5
2CA
100
AcDbEntity
  8
0
100
AcDbSpline
 62
7
  6
CONTINUOUS
 70
0
 71
3
 72
9
 73
5
 74
0
 42
0.0000001
 43
0.0000001
 44
0.0000000001
 40
0.0
 40
0.0
 40
0.0
 40
0.0
 40
0.2647308476
 40
1.0
 40
1.0
 40
1.0
 40
1.0
 10
20.4585932202
 20
51.4258632376
 30
0.0
 10
20.4496957821
 20
51.4112514952
 30
0.0
 10
20.4176406324
 20
51.3554501835
 30
0.0
 10
20.3952203805
 20
51.2917055178
 30
0.0
 10
20.3938174953
 20
51.2442114239
 30
0.0
  0
SPLINE
  5
2CB
100
AcDbEntity
  8
0
100
AcDbSpline
 62
7
  6
CONTINUOUS
 70
0
 71
3
 72
9
 73
5
 74
0
 42
0.0000001
 43
0.0000001
 44
0.0000000001
 40
0.0
 40
0.0
 40
0.0
 40
0.0
 40
0.5014475538
 40
1.0
 40
1.0
 40
1.0
 40
1.0
 10
20.3938174953
 20
51.2442114239
 30
0.0
 10
20.3768415507
 20
50.6694978952
 30
0.0
 10
20.3397524193
 20
49.5235131412
 30
0.0
 10
20.2945850468
 20
48.3776849409
 30
0.0
 10
20.2620895135
 20
47.806964667
 30
0.0
  0
SPLINE
  5
2CC
100
AcDbEntity
  8
0
100
AcDbSpline
 62
7
  6
CONTINUOUS
 70
0
 71
3
 72
9
 73
5
 74
0
 42
0.0000001
 43
0.0000001
 44
0.0000000001
 40
0.0
 40
0.0
 40
0.0
 40
0.0
 40
0.234213632
 40
1.0
 40
1.0
 40
1.0
 40
1.0
 10
20.8504543717
 20
51.0233968011
 30
0.0
 10
20.8504249274
 20
51.0336162919
 30
0.0
 10
20.8500131808
 20
51.0772480858
 30
0.0
 10
20.8489837757
 20
51.1208747149
 30
0.0
 10
20.8489870456
 20
51.1542885652
 30
0.0
  0
SPLINE
  5
2CD
100
AcDbEntity
  8
0
100
AcDbSpline
 62
7
  6
CONTINUOUS
 70
0
 71
3
 72
9
 73
5
 74
0
 42
0.0000001
 43
0.0000001
 44
0.0000000001
 40
0.0
 40
0.0
 40
0.0
 40
0.0
 40
0.5013186316
 40
1.0
 40
1.0
 40
1.0
 40
1.0
 10
20.89453741
 20
47.4422027964
 30
0.0
 10
20.8754198631
 20
48.0403936185
 30
0.0
 10
20.8592962948
 20
49.2342561363
 30
0.0
 10
20.852169676
 20
50.4280515205
 30
0.0
 10
20.8504543717
 20
51.0233968011
 30
0.0
  0
SPLINE
  5
2CE
100
AcDbEntity
  8
0
100
AcDbSpline
 62
7
  6
CONTINUOUS
 70
0
 71
3
 72
9
 73
5
 74
0
 42
0.0000001
 43
0.0000001
 44
0.0000000001
 40
0.0
 40
0.0
 40
0.0
 40
0.0
 40
0.7542051645
 40
1.0
 40
1.0
 40
1.0
 40
1.0
 10
20.4585932045
 20
47.6515709988
 30
0.0
 10
20.4075616216
 20
47.6425344991
 30
0.0
 10
20.3373734369
 20
47.6411913996
 30
0.0
 10
20.2697521143
 20
47.6537178971
 30
0.0
 10
20.2533481953
 20
47.657740279
 30
0.0
  0
SPLINE
  5
2CF
100
AcDbEntity
  8
0
100
AcDbSpline
 62
7
  6
CONTINUOUS
 70
0
 71
3
 72
74
 73
70
 74
0
 42
0.0000001
 43
0.0000001
 44
0.0000000001
 40
0.0
 40
0.0
 40
0.0
 40
0.0
 40
0.0213035253
 40
0.0427923111
 40
0.0649820782
 40
0.0763016864
 40
0.0876786696
 40
0.0989735194
 40
0.1100506415
 40
0.1213160616
 40
0.1337285421
 40
0.1469107669
 40
0.1533828805
 40
0.1596356715
 40
0.1720459226
 40
0.1785575633
 40
0.1854336058
 40
0.1925622399
 40
0.1996835065
 40
0.2066027106
 40
0.2131647605
 40
0.2194592935
 40
0.225790399
 40
0.2324458686
 40
0.2395547349
 40
0.2469859445
 40
0.2546411038
 40
0.2624553157
 40
0.2663911715
 40
0.2702832892
 40
0.2740588083
 40
0.2777577332
 40
0.2851808884
 40
0.2927516868
 40
0.3005163703
 40
0.3085106099
 40
0.3126134168
 40
0.3167875469
 40
0.3337863375
 40
0.3380053139
 40
0.3421718257
 40
0.3503666399
 40
0.3584541357
 40
0.3665528092
 40
0.3748010835
 40
0.3832380349
 40
0.4004875755
 40
0.4091355948
 40
0.4177466244
 40
0.4349669442
 40
0.4525136355
 40
0.4614440747
 40
0.4704431496
 40
0.4885227522
 40
0.5066467299
 40
0.5248260166
 40
0.5430849403
 40
0.5614358971
 40
0.5798729258
 40
0.5983724318
 40
0.6169077402
 40
0.6540079129
 40
0.6910405083
 40
0.7278692311
 40
0.7643533766
 40
0.8003630253
 40
0.8704514517
 40
0.9372408325
 40
1.0
 40
1.0
 40
1.0
 40
1.0
 10
28.6308797935
 20
145.6863178346
 30
0.0
 10
28.5874151735
 20
144.9727077449
 30
0.0
 10
28.5930933701
 20
143.5316473322
 30
0.0
 10
28.8893761064
 20
141.3657172075
 30
0.0
 10
29.357396774
 20
139.5755006105
 30
0.0
 10
29.865390755
 20
138.1565863912
 30
0.0
 10
30.3161620838
 20
137.1078482036
 30
0.0
 10
30.8337518183
 20
136.0991294483
 30
0.0
 10
31.4351324114
 20
135.1420877257
 30
0.0
 10
32.1276627216
 20
134.2031727681
 30
0.0
 10
32.8311566256
 20
133.1858632306
 30
0.0
 10
33.4457768227
 20
132.3017588104
 30
0.0
 10
33.99490568
 20
131.626803655
 30
0.0
 10
34.5753304825
 20
131.0137405829
 30
0.0
 10
35.2033589079
 20
130.4479547561
 30
0.0
 10
35.8355734324
 20
129.8564046675
 30
0.0
 10
36.3198557746
 20
129.36680553
 30
0.0
 10
36.8105939949
 20
128.855122606
 30
0.0
 10
37.3201409521
 20
128.3597618971
 30
0.0
 10
37.8472651555
 20
127.9108107067
 30
0.0
 10
38.4010023137
 20
127.5415763907
 30
0.0
 10
38.97584429
 20
127.2499002941
 30
0.0
 10
39.561945451
 20
126.9760413747
 30
0.0
 10
40.1577375488
 20
126.658495675
 30
0.0
 10
40.7549020523
 20
126.2710685785
 30
0.0
 10
41.3663869537
 20
125.8457891027
 30
0.0
 10
41.9894906718
 20
125.3958669121
 30
0.0
 10
42.5150943267
 20
125.0113435355
 30
0.0
 10
42.9412125985
 20
124.7048357481
 30
0.0
 10
43.264517625
 20
124.4872637238
 30
0.0
 10
43.5989389183
 20
124.302800064
 30
0.0
 10
44.0511136882
 20
124.0893361723
 30
0.0
 10
44.6229169546
 20
123.8313583615
 30
0.0
 10
45.3166014781
 20
123.5116864511
 30
0.0
 10
46.0212081614
 20
123.1702455888
 30
0.0
 10
46.612694819
 20
122.8625077241
 30
0.0
 10
47.0867440316
 20
122.5913063595
 30
0.0
 10
47.8101388156
 20
122.1483046915
 30
0.0
 10
48.5180231719
 20
121.6720636333
 30
0.0
 10
49.2650650459
 20
121.2618281306
 30
0.0
 10
49.7666782154
 20
121.0204453135
 30
0.0
 10
50.4066969031
 20
120.7700476762
 30
0.0
 10
51.1887629992
 20
120.5283151762
 30
0.0
 10
51.9806341232
 20
120.3153579356
 30
0.0
 10
52.7782707631
 20
120.0789850642
 30
0.0
 10
53.8559781105
 20
119.7100557207
 30
0.0
 10
54.9288626197
 20
119.2887482827
 30
0.0
 10
56.0306096722
 20
118.9302281673
 30
0.0
 10
57.1501882051
 20
118.6352520032
 30
0.0
 10
58.5809524658
 20
118.3638169468
 30
0.0
 10
60.0156923071
 20
118.0586707671
 30
0.0
 10
61.1680057137
 20
117.7587385213
 30
0.0
 10
62.3357585651
 20
117.4481128922
 30
0.0
 10
63.8085518981
 20
117.0822914726
 30
0.0
 10
65.6041004524
 20
116.749598233
 30
0.0
 10
67.4188177641
 20
116.5020950169
 30
0.0
 10
69.2481617147
 20
116.3146749934
 30
0.0
 10
71.0895910275
 20
116.1661868573
 30
0.0
 10
72.9405743928
 20
116.037666346
 30
0.0
 10
74.7993341971
 20
115.9331323705
 30
0.0
 10
77.2857827246
 20
115.8433269565
 30
0.0
 10
80.3968354951
 20
115.8336046225
 30
0.0
 10
84.11835437
 20
115.9967574393
 30
0.0
 10
87.808291896
 20
116.3217726922
 30
0.0
 10
91.4471584882
 20
116.7991020221
 30
0.0
 10
96.1598977464
 20
117.6346809543
 30
0.0
 10
101.7982682383
 20
119.0442833575
 30
0.0
 10
108.1138125095
 20
121.313559144
 30
0.0
 10
112.0265939509
 20
123.2376319397
 30
0.0
 10
113.850566832
 20
124.2907324247
 30
0.0
  0
SPLINE
  5
2D0
100
AcDbEntity
  8
0
100
AcDbSpline
 62
7
  6
CONTINUOUS
 70
0
 71
3
 72
9
 73
5
 74
0
 42
0.0000001
 43
0.0000001
 44
0.0000000001
 40
0.0
 40
0.0
 40
0.0
 40
0.0
 40
0.2800413564
 40
1.0
 40
1.0
 40
1.0
 40
1.0
 10
20.8977131138
 20
47.3461465297
 30
0.0
 10
20.8901526259
 20
47.3528387049
 30
0.0
 10
20.8649154209
 20
47.3784087423
 30
0.0
 10
20.8489945023
 20
47.4148115316
 30
0.0
 10
20.8489932737
 20
47.4407695102
 30
0.0
  0
SPLINE
  5
2D1
100
AcDbEntity
  8
0
100
AcDbSpline
 62
7
  6
CONTINUOUS
 70
0
 71
3
 72
9
 73
5
 74
0
 42
0.0000001
 43
0.0000001
 44
0.0000000001
 40
0.0
 40
0.0
 40
0.0
 40
0.0
 40
0.2654121726
 40
1.0
 40
1.0
 40
1.0
 40
1.0
 10
21.266453833
 20
51.055688578
 30
0.0
 10
21.2578799579
 20
51.0405300785
 30
0.0
 10
21.2269689794
 20
50.9829636373
 30
0.0
 10
21.2047188835
 20
50.9183467887
 30
0.0
 10
21.2033175486
 20
50.8701665054
 30
0.0
  0
SPLINE
  5
2D2
100
AcDbEntity
  8
0
100
AcDbSpline
 62
7
  6
CONTINUOUS
 70
0
 71
3
 72
9
 73
5
 74
0
 42
0.0000001
 43
0.0000001
 44
0.0000000001
 40
0.0
 40
0.0
 40
0.0
 40
0.0
 40
0.5012528922
 40
1.0
 40
1.0
 40
1.0
 40
1.0
 10
21.2033175486
 20
50.8701665054
 30
0.0
 10
21.1865884114
 20
50.2949902467
 30
0.0
 10
21.1496871119
 20
49.1476488718
 30
0.0
 10
21.1040446401
 20
48.0004670384
 30
0.0
 10
21.0705175156
 20
47.4289065802
 30
0.0
  0
SPLINE
  5
2D3
100
AcDbEntity
  8
0
100
AcDbSpline
 62
7
  6
CONTINUOUS
 70
0
 71
3
 72
9
 73
5
 74
0
 42
0.0000001
 43
0.0000001
 44
0.0000000001
 40
0.0
 40
0.0
 40
0.0
 40
0.0
 40
0.2313108538
 40
1.0
 40
1.0
 40
1.0
 40
1.0
 10
21.6974316703
 20
50.6781189588
 30
0.0
 10
21.6973349656
 20
50.6945067032
 30
0.0
 10
21.6954502477
 20
50.7653337037
 30
0.0
 10
21.6908169673
 20
50.8361154057
 30
0.0
 10
21.6912728159
 20
50.8905739799
 30
0.0
  0
SPLINE
  5
2D4
100
AcDbEntity
  8
0
100
AcDbSpline
 62
7
  6
CONTINUOUS
 70
0
 71
3
 72
9
 73
5
 74
0
 42
0.0000001
 43
0.0000001
 44
0.0000000001
 40
0.0
 40
0.0
 40
0.0
 40
0.0
 40
0.5011266401
 40
1.0
 40
1.0
 40
1.0
 40
1.0
 10
21.7541084998
 20
47.1183993729
 30
0.0
 10
21.7322738825
 20
47.7127096872
 30
0.0
 10
21.7118291567
 20
48.8994238757
 30
0.0
 10
21.7009252453
 20
50.0860920687
 30
0.0
 10
21.6974316703
 20
50.6781189588
 30
0.0
  0
SPLINE
  5
2D5
100
AcDbEntity
  8
0
100
AcDbSpline
 62
7
  6
CONTINUOUS
 70
0
 71
3
 72
9
 73
5
 74
0
 42
0.0000001
 43
0.0000001
 44
0.0000000001
 40
0.0
 40
0.0
 40
0.0
 40
0.0
 40
0.2457651502
 40
1.0
 40
1.0
 40
1.0
 40
1.0
 10
21.2664538278
 20
47.2813963426
 30
0.0
 10
21.2500540519
 20
47.2773672868
 30
0.0
 10
21.1824393907
 20
47.2648127037
 30
0.0
 10
21.1122524156
 20
47.2661304113
 30
0.0
 10
21.0612162102
 20
47.2751455598
 30
0.0
  0
SPLINE
  5
2D6
100
AcDbEntity
  8
0
100
AcDbSpline
 62
7
  6
CONTINUOUS
 70
0
 71
3
 72
9
 73
5
 74
0
 42
0.0000001
 43
0.0000001
 44
0.0000000001
 40
0.0
 40
0.0
 40
0.0
 40
0.0
 40
0.5422584849
 40
1.0
 40
1.0
 40
1.0
 40
1.0
 10
21.758465646
 20
47.0041453239
 30
0.0
 10
21.7385921285
 20
47.0182565562
 30
0.0
 10
21.7047725587
 20
47.049992475
 30
0.0
 10
21.6906829269
 20
47.0957153143
 30
0.0
 10
21.691272817
 20
47.1162817558
 30
0.0
  0
SPLINE
  5
2D7
100
AcDbEntity
  8
0
100
AcDbSpline
 62
7
  6
CONTINUOUS
 70
0
 71
3
 72
9
 73
5
 74
0
 42
0.0000001
 43
0.0000001
 44
0.0000000001
 40
0.0
 40
0.0
 40
0.0
 40
0.0
 40
0.2658000569
 40
1.0
 40
1.0
 40
1.0
 40
1.0
 10
22.1369094659
 20
50.7362950904
 30
0.0
 10
22.128752953
 20
50.720609604
 30
0.0
 10
22.0992770205
 20
50.6612856846
 30
0.0
 10
22.0774866452
 20
50.5958379942
 30
0.0
 10
22.0761043562
 20
50.5470228988
 30
0.0
  0
SPLINE
  5
2D8
100
AcDbEntity
  8
0
100
AcDbSpline
 62
7
  6
CONTINUOUS
 70
0
 71
3
 72
9
 73
5
 74
0
 42
0.0000001
 43
0.0000001
 44
0.0000000001
 40
0.0
 40
0.0
 40
0.0
 40
0.0
 40
0.5011798986
 40
1.0
 40
1.0
 40
1.0
 40
1.0
 10
22.0761043562
 20
50.5470228988
 30
0.0
 10
22.0590501309
 20
49.944758335
 30
0.0
 10
22.0210519581
 20
48.743229209
 30
0.0
 10
21.9721012274
 20
47.5418533436
 30
0.0
 10
21.9339278717
 20
46.9434004979
 30
0.0
  0
SPLINE
  5
2D9
100
AcDbEntity
  8
0
100
AcDbSpline
 62
7
  6
CONTINUOUS
 70
0
 71
3
 72
9
 73
5
 74
0
 42
0.0000001
 43
0.0000001
 44
0.0000000001
 40
0.0
 40
0.0
 40
0.0
 40
0.0
 40
0.2312605657
 40
1.0
 40
1.0
 40
1.0
 40
1.0
 10
22.6022821053
 20
50.3858465413
 30
0.0
 10
22.6021371246
 20
50.4022111201
 30
0.0
 10
22.599326913
 20
50.47295026
 30
0.0
 10
22.5917171951
 20
50.5433761322
 30
0.0
 10
22.5892954388
 20
50.5977222694
 30
0.0
  0
SPLINE
  5
2DA
100
AcDbEntity
  8
0
100
AcDbSpline
 62
7
  6
CONTINUOUS
 70
0
 71
3
 72
9
 73
5
 74
0
 42
0.0000001
 43
0.0000001
 44
0.0000000001
 40
0.0
 40
0.0
 40
0.0
 40
0.0
 40
0.5010224782
 40
1.0
 40
1.0
 40
1.0
 40
1.0
 10
22.6764226134
 20
46.7159629102
 30
0.0
 10
22.6491428398
 20
47.328395807
 30
0.0
 10
22.6228604182
 20
48.5518938377
 30
0.0
 10
22.6076909096
 20
49.775332503
 30
0.0
 10
22.6022821053
 20
50.3858465413
 30
0.0
  0
SPLINE
  5
2DB
100
AcDbEntity
  8
0
100
AcDbSpline
 62
7
  6
CONTINUOUS
 70
0
 71
3
 72
9
 73
5
 74
0
 42
0.0000001
 43
0.0000001
 44
0.0000000001
 40
0.0
 40
0.0
 40
0.0
 40
0.0
 40
0.2414302843
 40
1.0
 40
1.0
 40
1.0
 40
1.0
 10
22.1369094611
 20
46.9620028566
 30
0.0
 10
22.1210499379
 20
46.956916675
 30
0.0
 10
22.0540820313
 20
46.9398797706
 30
0.0
 10
21.9836164865
 20
46.938315794
 30
0.0
 10
21.9316134912
 20
46.9441582413
 30
0.0
  0
SPLINE
  5
2DC
100
AcDbEntity
  8
0
100
AcDbSpline
 62
7
  6
CONTINUOUS
 70
0
 71
3
 72
9
 73
5
 74
0
 42
0.0000001
 43
0.0000001
 44
0.0000000001
 40
0.0
 40
0.0
 40
0.0
 40
0.0
 40
0.5491132305
 40
1.0
 40
1.0
 40
1.0
 40
1.0
 10
22.6788070031
 20
46.7152813479
 30
0.0
 10
22.6559313067
 20
46.7284357697
 30
0.0
 10
22.6155764009
 20
46.7565721466
 30
0.0
 10
22.5925745717
 20
46.8020117967
 30
0.0
 10
22.5892954409
 20
46.8234300475
 30
0.0
  0
SPLINE
  5
2DD
100
AcDbEntity
  8
0
100
AcDbSpline
 62
7
  6
CONTINUOUS
 70
0
 71
3
 72
9
 73
5
 74
0
 42
0.0000001
 43
0.0000001
 44
0.0000000001
 40
0.0
 40
0.0
 40
0.0
 40
0.0
 40
0.2676496
 40
1.0
 40
1.0
 40
1.0
 40
1.0
 10
23.7981750366
 20
50.3767235363
 30
0.0
 10
23.7881457078
 20
50.3544571477
 30
0.0
 10
23.7505133166
 20
50.2719279904
 30
0.0
 10
23.7158697473
 20
50.1836395838
 30
0.0
 10
23.7141154352
 20
50.116841508
 30
0.0
  0
SPLINE
  5
2DE
100
AcDbEntity
  8
0
100
AcDbSpline
 62
7
  6
CONTINUOUS
 70
0
 71
3
 72
14
 73
10
 74
0
 42
0.0000001
 43
0.0000001
 44
0.0000000001
 40
0.0
 40
0.0
 40
0.0
 40
0.0
 40
0.0600015143
 40
0.1214905145
 40
0.2455799316
 40
0.3705528696
 40
0.4959863971
 40
0.7476484641
 40
1.0
 40
1.0
 40
1.0
 40
1.0
 10
23.4733984552
 20
45.6929168734
 30
0.0
 10
23.4822519117
 20
45.7009886208
 30
0.0
 10
23.4964519445
 20
45.7220273866
 30
0.0
 10
23.504420493
 20
45.7708058551
 30
0.0
 10
23.5164592005
 20
45.8314666766
 30
0.0
 10
23.5257377896
 20
45.9057654673
 30
0.0
 10
23.5369741849
 20
46.0053536591
 30
0.0
 10
23.5486774081
 20
46.1305172338
 30
0.0
 10
23.5566342932
 20
46.2308369179
 30
0.0
 10
23.5604205789
 20
46.281082257
 30
0.0
  0
SPLINE
  5
2DF
100
AcDbEntity
  8
0
100
AcDbSpline
 62
7
  6
CONTINUOUS
 70
0
 71
3
 72
10
 73
6
 74
0
 42
0.0000001
 43
0.0000001
 44
0.0000000001
 40
0.0
 40
0.0
 40
0.0
 40
0.0
 40
0.249136892
 40
0.4990828345
 40
1.0
 40
1.0
 40
1.0
 40
1.0
 10
23.5604205789
 20
46.281082257
 30
0.0
 10
23.5843774941
 20
46.5989989234
 30
0.0
 10
23.6175841994
 20
47.2369200842
 30
0.0
 10
23.6689340796
 20
48.5155489614
 30
0.0
 10
23.69763622
 20
49.4760345827
 30
0.0
 10
23.7141154352
 20
50.116841508
 30
0.0
  0
SPLINE
  5
2E0
100
AcDbEntity
  8
0
100
AcDbSpline
 62
7
  6
CONTINUOUS
 70
0
 71
3
 72
15
 73
11
 74
0
 42
0.0000001
 43
0.0000001
 44
0.0000000001
 40
0.0
 40
0.0
 40
0.0
 40
0.0
 40
0.1492902558
 40
0.2904737303
 40
0.4236164846
 40
0.5491572968
 40
0.6680302816
 40
0.7815044786
 40
0.8911462137
 40
1.0
 40
1.0
 40
1.0
 40
1.0
 10
113.850566832
 20
124.2907324247
 30
0.0
 10
115.0260439624
 20
124.9693594138
 30
0.0
 10
117.2579631629
 20
126.3894269142
 30
0.0
 10
120.2935332661
 20
128.7707059544
 30
0.0
 10
122.8949083838
 20
131.3222457304
 30
0.0
 10
125.0345761692
 20
134.0191856294
 30
0.0
 10
126.6861063529
 20
136.8365225892
 30
0.0
 10
127.8289255237
 20
139.7428631958
 30
0.0
 10
128.4522608956
 20
142.7109330255
 30
0.0
 10
128.5059591695
 20
144.7093147163
 30
0.0
 10
128.4457928173
 20
145.6971532624
 30
0.0
  0
SPLINE
  5
2E1
100
AcDbEntity
  8
0
100
AcDbSpline
 62
7
  6
CONTINUOUS
 70
0
 71
3
 72
15
 73
11
 74
0
 42
0.0000001
 43
0.0000001
 44
0.0000000001
 40
0.0
 40
0.0
 40
0.0
 40
0.0
 40
0.1084267997
 40
0.2183352835
 40
0.3318351488
 40
0.450705868
 40
0.576286014
 40
0.7094512592
 40
0.8506984587
 40
1.0
 40
1.0
 40
1.0
 40
1.0
 10
130.4847467608
 20
112.2193589571
 30
0.0
 10
130.5471138097
 20
111.1954457462
 30
0.0
 10
130.4886036724
 20
109.1176837802
 30
0.0
 10
129.843840868
 20
106.0297146429
 30
0.0
 10
128.6529195644
 20
103.0028271579
 30
0.0
 10
126.9333042924
 20
100.071143301
 30
0.0
 10
124.706961889
 20
97.2638440749
 30
0.0
 10
121.999072505
 20
94.6078694614
 30
0.0
 10
118.8393015766
 20
92.129647026
 30
0.0
 10
116.5162751457
 20
90.6513851041
 30
0.0
 10
115.2929941684
 20
89.9451277184
 30
0.0
  0
SPLINE
  5
2E2
100
AcDbEntity
  8
0
100
AcDbSpline
 62
7
  6
CONTINUOUS
 70
0
 71
3
 72
25
 73
21
 74
0
 42
0.0000001
 43
0.0000001
 44
0.0000000001
 40
0.0
 40
0.0
 40
0.0
 40
0.0
 40
0.02135495
 40
0.0428977442
 40
0.0648512376
 40
0.0874167788
 40
0.1349810672
 40
0.1866502077
 40
0.2428779388
 40
0.3036650232
 40
0.3686553363
 40
0.437222807
 40
0.5085439501
 40
0.5816588745
 40
0.6555248376
 40
0.7290656116
 40
0.801219468
 40
0.8709873037
 40
0.9374851796
 40
1.0
 40
1.0
 40
1.0
 40
1.0
 10
19.5355154972
 20
107.6529865476
 30
0.0
 10
19.5149451777
 20
106.8118037725
 30
0.0
 10
19.5825073285
 20
105.1173807581
 30
0.0
 10
20.0103180479
 20
102.5916118234
 30
0.0
 10
20.7620522289
 20
100.0926113369
 30
0.0
 10
22.2130796666
 20
96.7591524475
 30
0.0
 10
24.8659959353
 20
92.7139725178
 30
0.0
 10
29.1533416942
 20
88.2980652507
 30
0.0
 10
34.4998725169
 20
84.3092131597
 30
0.0
 10
40.7893475541
 20
80.8251839586
 30
0.0
 10
47.888714807
 20
77.9142761206
 30
0.0
 10
55.6470680585
 20
75.636680795
 30
0.0
 10
63.898537784
 20
74.0403428435
 30
0.0
 10
72.46578393
 20
73.1593880746
 30
0.0
 10
81.164100788
 20
73.0127607535
 30
0.0
 10
89.8057737267
 20
73.6036386433
 30
0.0
 10
98.2042322615
 20
74.9192304512
 30
0.0
 10
106.1791988061
 20
76.9315736362
 30
0.0
 10
113.5581107596
 20
79.5970955424
 30
0.0
 10
118.1313314253
 20
81.8496808453
 30
0.0
 10
120.2645526426
 20
83.0812893376
 30
0.0
  0
SPLINE
  5
2E3
100
AcDbEntity
  8
0
100
AcDbSpline
 62
7
  6
CONTINUOUS
 70
0
 71
3
 72
15
 73
11
 74
0
 42
0.0000001
 43
0.0000001
 44
0.0000000001
 40
0.0
 40
0.0
 40
0.0
 40
0.0
 40
0.1083675465
 40
0.2187164794
 40
0.3328558649
 40
0.4522908111
 40
0.5781465748
 40
0.7111677095
 40
0.8517872646
 40
1.0
 40
1.0
 40
1.0
 40
1.0
 10
138.538621873
 20
65.8998867721
 30
0.0
 10
138.5386723174
 20
64.7816043216
 30
0.0
 10
138.3474194661
 20
62.5202010417
 30
0.0
 10
137.4944690635
 20
59.178259256
 30
0.0
 10
136.0855951245
 20
55.9059610865
 30
0.0
 10
134.1383937958
 20
52.7355152024
 30
0.0
 10
131.674304616
 20
49.6947606897
 30
0.0
 10
128.7175005328
 20
46.8099682197
 30
0.0
 10
125.2966417187
 20
44.1066854679
 30
0.0
 10
122.7920800297
 20
42.4824394133
 30
0.0
 10
121.4756913716
 20
41.7037448504
 30
0.0
  0
SPLINE
  5
2E4
100
AcDbEntity
  8
0
100
AcDbSpline
 62
7
  6
CONTINUOUS
 70
0
 71
3
 72
11
 73
7
 74
0
 42
0.0000001
 43
0.0000001
 44
0.0000000001
 40
0.0
 40
0.0
 40
0.0
 40
0.0
 40
0.2393275037
 40
0.4835430222
 40
0.7361343777
 40
1.0
 40
1.0
 40
1.0
 40
1.0
 10
18.5551507171
 20
65.9067526089
 30
0.0
 10
18.598130258
 20
64.8459912976
 30
0.0
 10
18.8566801318
 20
62.7061073744
 30
0.0
 10
19.7495399824
 20
59.5526763043
 30
0.0
 10
21.1378549485
 20
56.4652000309
 30
0.0
 10
22.3551135329
 20
54.5156485299
 30
0.0
 10
23.0333437922
 20
53.5616948726
 30
0.0
  0
SPLINE
  5
2E5
100
AcDbEntity
  8
0
100
AcDbSpline
 62
7
  6
CONTINUOUS
 70
0
 71
3
 72
11
 73
7
 74
0
 42
0.0000001
 43
0.0000001
 44
0.0000000001
 40
0.0
 40
0.0
 40
0.0
 40
0.0
 40
0.2106226907
 40
0.4490299112
 40
0.7139314022
 40
1.0
 40
1.0
 40
1.0
 40
1.0
 10
18.251707453
 20
53.8932271379
 30
0.0
 10
18.5241672001
 20
53.5015931261
 30
0.0
 10
19.2377289972
 20
52.7570624823
 30
0.0
 10
20.6005077981
 20
51.8685951059
 30
0.0
 10
22.2558120946
 20
51.1717622873
 30
0.0
 10
23.4702678636
 20
50.8642503154
 30
0.0
 10
24.1074199127
 20
50.7462825439
 30
0.0
  0
SPLINE
  5
2E6
100
AcDbEntity
  8
0
100
AcDbSpline
 62
7
  6
CONTINUOUS
 70
0
 71
3
 72
9
 73
5
 74
0
 42
0.0000001
 43
0.0000001
 44
0.0000000001
 40
0.0
 40
0.0
 40
0.0
 40
0.0
 40
0.2422434253
 40
1.0
 40
1.0
 40
1.0
 40
1.0
 10
89.365246512
 20
26.173065142
 30
0.0
 10
89.3400011492
 20
26.158489812
 30
0.0
 10
89.234654718
 20
26.1002907113
 30
0.0
 10
89.1251647836
 20
26.0496978279
 30
0.0
 10
89.0407431931
 20
26.0152322314
 30
0.0
  0
SPLINE
  5
2E7
100
AcDbEntity
  8
0
100
AcDbSpline
 62
7
  6
CONTINUOUS
 70
0
 71
3
 72
10
 73
6
 74
0
 42
0.0000001
 43
0.0000001
 44
0.0000000001
 40
0.0
 40
0.0
 40
0.0
 40
0.0
 40
0.2396716101
 40
0.4944480713
 40
1.0
 40
1.0
 40
1.0
 40
1.0
 10
89.0407431931
 20
26.0152322314
 30
0.0
 10
88.8470617243
 20
25.9361606654
 30
0.0
 10
88.4297731748
 20
25.8142403935
 30
0.0
 10
87.5613210465
 20
25.7115331525
 30
0.0
 10
86.8858443794
 20
25.7830872782
 30
0.0
 10
86.4625052239
 20
25.9076255439
 30
0.0
  0
SPLINE
  5
2E8
100
AcDbEntity
  8
0
100
AcDbSpline
 62
7
  6
CONTINUOUS
 70
0
 71
3
 72
9
 73
5
 74
0
 42
0.0000001
 43
0.0000001
 44
0.0000000001
 40
0.0
 40
0.0
 40
0.0
 40
0.0
 40
0.2619540676
 40
1.0
 40
1.0
 40
1.0
 40
1.0
 10
86.4625052239
 20
25.9076255439
 30
0.0
 10
86.4049458005
 20
25.9245584231
 30
0.0
 10
86.1870100029
 20
25.9949314674
 30
0.0
 10
85.9760620861
 20
26.0885592787
 30
0.0
 10
85.8296673398
 20
26.1730827782
 30
0.0
  0
SPLINE
  5
2E9
100
AcDbEntity
  8
0
100
AcDbSpline
 62
7
  6
CONTINUOUS
 70
0
 71
3
 72
9
 73
5
 74
0
 42
0.0000001
 43
0.0000001
 44
0.0000000001
 40
0.0
 40
0.0
 40
0.0
 40
0.0
 40
0.547636133
 40
1.0
 40
1.0
 40
1.0
 40
1.0
 10
24.6076086804
 20
51.0565176228
 30
0.0
 10
24.6304985455
 20
51.0707147411
 30
0.0
 10
24.6696882176
 20
51.1028988398
 30
0.0
 10
24.6880406025
 20
51.1522788901
 30
0.0
 10
24.6880284059
 20
51.1745281557
 30
0.0
  0
SPLINE
  5
2EA
100
AcDbEntity
  8
0
100
AcDbSpline
 62
7
  6
CONTINUOUS
 70
0
 71
3
 72
9
 73
5
 74
0
 42
0.0000001
 43
0.0000001
 44
0.0000000001
 40
0.0
 40
0.0
 40
0.0
 40
0.0
 40
0.7396655148
 40
1.0
 40
1.0
 40
1.0
 40
1.0
 10
18.4296871055
 20
52.6282594923
 30
0.0
 10
18.4309950167
 20
52.6734305385
 30
0.0
 10
18.4522022531
 20
52.7342879811
 30
0.0
 10
18.4858076177
 20
52.7850919206
 30
0.0
 10
18.4950900652
 20
52.7980074447
 30
0.0
  0
SPLINE
  5
2EB
100
AcDbEntity
  8
0
100
AcDbSpline
 62
7
  6
CONTINUOUS
 70
0
 71
3
 72
9
 73
5
 74
0
 42
0.0000001
 43
0.0000001
 44
0.0000000001
 40
0.0
 40
0.0
 40
0.0
 40
0.0
 40
0.2436212878
 40
1.0
 40
1.0
 40
1.0
 40
1.0
 10
17.8854004166
 20
53.2492772927
 30
0.0
 10
17.9255811436
 20
53.1955441156
 30
0.0
 10
18.0949651313
 20
52.9783302099
 30
0.0
 10
18.2814188051
 20
52.774582579
 30
0.0
 10
18.4296871055
 20
52.6282594923
 30
0.0
  0
SPLINE
  5
2EC
100
AcDbEntity
  8
0
100
AcDbSpline
 62
7
  6
CONTINUOUS
 70
0
 71
3
 72
9
 73
5
 74
0
 42
0.0000001
 43
0.0000001
 44
0.0000000001
 40
0.0
 40
0.0
 40
0.0
 40
0.0
 40
0.5278359077
 40
1.0
 40
1.0
 40
1.0
 40
1.0
 10
23.7981750482
 20
50.3767235304
 30
0.0
 10
23.8333478403
 20
50.4548116139
 30
0.0
 10
23.9209661783
 20
50.5937867406
 30
0.0
 10
24.0423150256
 20
50.7059021377
 30
0.0
 10
24.1074199225
 20
50.7462825387
 30
0.0
  0
ENDSEC
  0
SECTION
  2
OBJECTS
  0
DICTIONARY
  5
C
100
AcDbDictionary
280
0
281
1
  3
ACAD_GROUP
350
D
  3
ACAD_MLINESTYLE
350
17
  3
ACAD_LAYOUT
350
1A
  3
ACAD_PLOTSETTINGS
350
19
  3
ACAD_PLOTSTYLENAME
350
E
  0
DICTIONARY
  5
D
102
{ACAD_REACTORS
330
C
102
}
100
AcDbDictionary
280
0
281
1
  0
ACDBDICTIONARYWDFLT
  5
E
102
{ACAD_REACTORS
330
C
102
}
100
AcDbDictionary
281
1
  3
Normal
350
F
100
AcDbDictionaryWithDefault
340
F
  0
DICTIONARY
  5
17
102
{ACAD_REACTORS
330
C
102
}
100
AcDbDictionary
280
0
281
1
  3
Standard
350
18
  0
DICTIONARY
  5
19
102
{ACAD_REACTORS
330
C
102
}
100
AcDbDictionary
281
1
  0
DICTIONARY
  5
1A
102
{ACAD_REACTORS
330
C
102
}
100
AcDbDictionary
281
1
  3
Model
350
2ED
  3
Layout1
350
2EE
  0
ACDBPLACEHOLDER
  5
F
102
{ACAD_REACTORS
330
E
102
}
  0
MLINESTYLE
  5
18
102
{ACAD_REACTORS
330
17
102
}
100
AcDbMlineStyle
  2
STANDARD
 70
0
  3

 62
256
 51
90.0
 52
90.0
 71
2
 49
0.5
 62
256
  6
BYLAYER
 49
-0.5
 62
256
  6
BYLAYER
  0
LAYOUT
  5
2ED
102
{ACAD_REACTORS
330
1A
102
}
100
AcDbPlotSettings
  1

  2
none_device
  4

  6

 40
0.0
 41
0.0
 42
0.0
 43
0.0
 44
210.0
 45
297.0
 46
0.0
 47
0.0
 48
0.0
 49
0.0
140
0.0
141
0.0
142
1.0
143
1.0
 70
1024
 72
1
 73
0
 74
0
  7

 75
0
147
1.0
148
0.0
149
0.0
100
AcDbLayout
  1
Model
 70
0
 71
0
 10
0.0
 20
0.0
 11
210.0
 21
297.0
 12
0.0
 22
0.0
 32
0.0
 14
0.0
 24
0.0
 34
0.0
 15
0.0
 25
0.0
 35
0.0
146
0.0
 13
0.0
 23
0.0
 33
0.0
 16
1.0
 26
0.0
 36
0.0
 17
0.0
 27
1.0
 37
0.0
 76
0
330
210
345
0
346
0
  0
LAYOUT
  5
2EE
102
{ACAD_REACTORS
330
1A
102
}
100
AcDbPlotSettings
  1

  2
none_device
  4

  6

 40
0.0
 41
0.0
 42
0.0
 43
0.0
 44
210.0
 45
297.0
 46
0.0
 47
0.0
 48
0.0
 49
0.0
140
0.0
141
0.0
142
1.0
143
1.0
 70
0
 72
1
 73
0
 74
0
  7

 75
0
147
1.0
148
0.0
149
0.0
100
AcDbLayout
  1
Layout1
 70
0
 71
1
 10
0.0
 20
0.0
 11
210.0
 21
297.0
 12
0.0
 22
0.0
 32
0.0
 14
0.0
 24
0.0
 34
0.0
 15
0.0
 25
0.0
 35
0.0
146
0.0
 13
0.0
 23
0.0
 33
0.0
 16
1.0
 26
0.0
 36
0.0
 17
0.0
 27
1.0
 37
0.0
 76
0
330
211
345
0
346
0
  0
ENDSEC
  0
EOF
