999
DXF file: C:\Users\sesa63760\Dev\_Creo\CAD\MCADID0004009_3D-CAD\drw0001_1.dxf
999
Pro/ENGINEER 2019471 by Parametric Technology Corporation
  0
SECTION
  2
HEADER
  9
$ACADVER
  1
AC1024
  9
$DWGCODEPAGE
  3
ANSI_1252
  9
$EXTMAX
 10
80.428417216
 20
113.7487614912
 30
0.0
  9
$EXTMIN
 10
0.0
 20
0.0
 30
0.0
  9
$LIMMIN
 10
0.0
 20
0.0
  9
$LIMMAX
 10
80.428417216
 20
113.7487614912
  9
$VIEWCTR
 10
40.214208608
 20
56.8743807456
  9
$VIEWSIZE
 40
113.7487614912
  9
$CLAYER
  8
0
  9
$LTSCALE
 40
7.4147340824
  9
$CELTYPE
  6
BYLAYER
  9
$DIMSCALE
 40
1.0
  9
$DIMASZ
 40
0.9574811573
  9
$DIMEXO
 40
1.0
  9
$DIMDLI
 40
5.1229071842
  9
$DIMEXE
 40
1.0
  9
$DIMCEN
 40
1.2133201226
  9
$DIMLFAC
 40
1.0
  9
$DIMBLK
  1
_FILLED
  9
$DIMALT
 70
0
  9
$DIMALTF
 40
0.0393700787
  9
$DIMTXT
 40
1.3404736203
  9
$DIMTOL
 70
1
  9
$DIMLIM
 70
0
  9
$DIMTFAC
 40
1.0
  9
$DIMTP
 40
0.01
  9
$DIMTM
 40
0.01
  9
$DIMGAP
 40
0.625
  9
$DIMDSEP
 70
46
  9
$AUNITS
 70
0
  9
$PDMODE
 70
3
  9
$PDSIZE
 40
0.3125
  9
$HANDSEED
  5
283
  9
$TILEMODE
 70
1
  9
$MEASUREMENT
 70
1
  9
$INSUNITS
 70
4
  0
ENDSEC
  0
SECTION
  2
CLASSES
  0
CLASS
  1
ACDBDICTIONARYWDFLT
  2
AcDbDictionaryWithDefault
  3
AutoCAD 2000
 90
0
 91
1
280
0
281
0
  0
CLASS
  1
ACDBPLACEHOLDER
  2
AcDbPlaceHolder
  3
AutoCAD 2000
 90
0
 91
1
280
0
281
0
  0
CLASS
  1
LAYOUT
  2
AcDbLayout
  3
AutoCAD 2000
 90
0
 91
0
280
0
281
0
  0
ENDSEC
  0
SECTION
  2
TABLES
  0
TABLE
  2
VPORT
  5
8
100
AcDbSymbolTable
 70
2
  0
VPORT
  5
1F4
100
AcDbSymbolTableRecord
100
AcDbViewportTableRecord
  2
*ACTIVE
 70
0
 10
0.0
 20
0.0
 11
1.0
 21
1.0
 12
40.214208608
 22
56.8743807456
 13
0.0
 23
0.0
 14
1.0
 24
1.0
 15
0.0
 25
0.0
 16
0.0
 26
0.0
 36
1.0
 17
0.0
 27
0.0
 37
0.0
 40
113.7487614912
 41
0.7070707071
 42
50.0
 43
0.0
 44
0.0
 50
0.0
 51
0.0
 71
0
 72
100
 73
1
 74
1
 75
0
 76
0
 77
0
 78
0
  0
ENDTAB
  0
TABLE
  2
LTYPE
  5
5
100
AcDbSymbolTable
 70
6
  0
LTYPE
  5
14
100
AcDbSymbolTableRecord
100
AcDbLinetypeTableRecord
  2
BYBLOCK
 70
0
  3

 72
65
 73
0
 40
0.0
  0
LTYPE
  5
15
100
AcDbSymbolTableRecord
100
AcDbLinetypeTableRecord
  2
BYLAYER
 70
0
  3

 72
65
 73
0
 40
0.0
  0
LTYPE
  5
16
100
AcDbSymbolTableRecord
100
AcDbLinetypeTableRecord
  2
CONTINUOUS
 70
64
  3
Solid line
 72
65
 73
0
 40
0.0
  0
LTYPE
  5
1F5
100
AcDbSymbolTableRecord
100
AcDbLinetypeTableRecord
  2
CENTER
 70
64
  3
____ _ ____ _ ____ _ ____ _ ____ _ ____ _ ____
 72
65
 73
4
 40
0.6
 49
0.375
 74
0
 49
-0.075
 74
0
 49
0.075
 74
0
 49
-0.075
 74
0
  0
LTYPE
  5
1F6
100
AcDbSymbolTableRecord
100
AcDbLinetypeTableRecord
  2
HIDDEN
 70
64
  3
- - - - - - - - - - - - - - - - - - - -
 72
65
 73
2
 40
0.2
 49
0.1
 74
0
 49
-0.1
 74
0
  0
LTYPE
  5
1F7
100
AcDbSymbolTableRecord
100
AcDbLinetypeTableRecord
  2
PHANTOM
 70
64
  3
_____ _ _ _____ _ _ _____ _ _ _____
 72
65
 73
6
 40
0.8
 49
0.45
 74
0
 49
-0.05
 74
0
 49
0.1
 74
0
 49
-0.05
 74
0
 49
0.1
 74
0
 49
-0.05
 74
0
  0
LTYPE
  5
1F8
100
AcDbSymbolTableRecord
100
AcDbLinetypeTableRecord
  2
DOT
 70
64
  3
. . . . . . . . . . . . . . . . . . . .
 72
65
 73
2
 40
0.2
 49
0.1
 74
0
 49
-0.1
 74
0
  0
LTYPE
  5
1F9
100
AcDbSymbolTableRecord
100
AcDbLinetypeTableRecord
  2
DASHED
 70
64
  3
- - - - - - - - - - - - - - - - - - - -
 72
65
 73
2
 40
0.2
 49
0.1
 74
0
 49
-0.1
 74
0
  0
ENDTAB
  0
TABLE
  2
LAYER
  5
2
100
AcDbSymbolTable
 70
36
  0
LAYER
  5
10
100
AcDbSymbolTableRecord
100
AcDbLayerTableRecord
  2
0
 70
0
 62
7
  6
CONTINUOUS
370
-3
390
F
  0
LAYER
  5
1FA
100
AcDbSymbolTableRecord
100
AcDbLayerTableRecord
  2
DEFAULT_1
 70
0
 62
7
  6
CENTER
370
-3
390
F
  0
LAYER
  5
1FB
100
AcDbSymbolTableRecord
100
AcDbLayerTableRecord
  2
DEFAULT_2
 70
0
 62
7
  6
HIDDEN
370
-3
390
F
  0
LAYER
  5
1FC
100
AcDbSymbolTableRecord
100
AcDbLayerTableRecord
  2
DEFAULT_3
 70
0
 62
7
  6
PHANTOM
370
-3
390
F
  0
LAYER
  5
1FD
100
AcDbSymbolTableRecord
100
AcDbLayerTableRecord
  2
00_COMPONENTS
 70
0
 62
7
  6
CONTINUOUS
370
-3
390
F
  0
LAYER
  5
1FE
100
AcDbSymbolTableRecord
100
AcDbLayerTableRecord
  2
01_1_DEFAULT_DATUMS
 70
0
 62
7
  6
CONTINUOUS
370
-3
390
F
  0
LAYER
  5
1FF
100
AcDbSymbolTableRecord
100
AcDbLayerTableRecord
  2
01_PLANES
 70
0
 62
7
  6
CONTINUOUS
370
-3
390
F
  0
LAYER
  5
200
100
AcDbSymbolTableRecord
100
AcDbLayerTableRecord
  2
02_COORD_SYS
 70
0
 62
7
  6
CONTINUOUS
370
-3
390
F
  0
LAYER
  5
201
100
AcDbSymbolTableRecord
100
AcDbLayerTableRecord
  2
03_AXES
 70
0
 62
7
  6
CONTINUOUS
370
-3
390
F
  0
LAYER
  5
202
100
AcDbSymbolTableRecord
100
AcDbLayerTableRecord
  2
04_POINTS
 70
0
 62
7
  6
CONTINUOUS
370
-3
390
F
  0
LAYER
  5
203
100
AcDbSymbolTableRecord
100
AcDbLayerTableRecord
  2
05_CURVES
 70
0
 62
7
  6
CONTINUOUS
370
-3
390
F
  0
LAYER
  5
204
100
AcDbSymbolTableRecord
100
AcDbLayerTableRecord
  2
06_SURFS
 70
0
 62
7
  6
CONTINUOUS
370
-3
390
F
  0
LAYER
  5
205
100
AcDbSymbolTableRecord
100
AcDbLayerTableRecord
  2
07_COSMETICS
 70
0
 62
7
  6
CONTINUOUS
370
-3
390
F
  0
LAYER
  5
206
100
AcDbSymbolTableRecord
100
AcDbLayerTableRecord
  2
10_NOTES
 70
0
 62
7
  6
CONTINUOUS
370
-3
390
F
  0
LAYER
  5
207
100
AcDbSymbolTableRecord
100
AcDbLayerTableRecord
  2
11_NOTES_PUB
 70
0
 62
7
  6
CONTINUOUS
370
-3
390
F
  0
LAYER
  5
208
100
AcDbSymbolTableRecord
100
AcDbLayerTableRecord
  2
13_REF_GTOL
 70
0
 62
7
  6
CONTINUOUS
370
-3
390
F
  0
LAYER
  5
209
100
AcDbSymbolTableRecord
100
AcDbLayerTableRecord
  2
16_MISC
 70
0
 62
7
  6
CONTINUOUS
370
-3
390
F
  0
LAYER
  5
20A
100
AcDbSymbolTableRecord
100
AcDbLayerTableRecord
  2
17_NO_PRINT
 70
0
 62
7
  6
CONTINUOUS
370
-3
390
F
  0
LAYER
  5
20B
100
AcDbSymbolTableRecord
100
AcDbLayerTableRecord
  2
18_DATUM_CAMS_JOINTS
 70
0
 62
7
  6
CONTINUOUS
370
-3
390
F
  0
LAYER
  5
20C
100
AcDbSymbolTableRecord
100
AcDbLayerTableRecord
  2
19_DATUM_FUNCTIONAL
 70
0
 62
7
  6
CONTINUOUS
370
-3
390
F
  0
LAYER
  5
20D
100
AcDbSymbolTableRecord
100
AcDbLayerTableRecord
  2
20_DATUM_KINEMATIC_SCHEME
 70
0
 62
7
  6
CONTINUOUS
370
-3
390
F
  0
ENDTAB
  0
TABLE
  2
STYLE
  5
3
100
AcDbSymbolTable
 70
1
  0
STYLE
  5
11
100
AcDbSymbolTableRecord
100
AcDbTextStyleTableRecord
  2
STANDARD
 70
0
 40
0.0
 41
1.0
 50
0.0
 71
0
 42
0.2
  3
ARIAL.TTF
  4

  0
STYLE
  5
20E
100
AcDbSymbolTableRecord
100
AcDbTextStyleTableRecord
  2
TEXTSTYLE_1
 70
0
 40
0.0
 41
0.8
 50
0.0
 71
0
 42
0.2
  3
gdt
  4

  0
ENDTAB
  0
TABLE
  2
VIEW
  5
6
100
AcDbSymbolTable
 70
0
  0
ENDTAB
  0
TABLE
  2
UCS
  5
7
100
AcDbSymbolTable
 70
0
  0
ENDTAB
  0
TABLE
  2
APPID
  5
9
100
AcDbSymbolTable
 70
1
  0
APPID
  5
20F
100
AcDbSymbolTableRecord
100
AcDbRegAppTableRecord
  2
ACAD
 70
0
  0
ENDTAB
  0
TABLE
  2
BLOCK_RECORD
  5
1
100
AcDbSymbolTable
 70
0
  0
BLOCK_RECORD
  5
210
100
AcDbSymbolTableRecord
100
AcDbBlockTableRecord
  2
*Model_Space
  0
BLOCK_RECORD
  5
211
100
AcDbSymbolTableRecord
100
AcDbBlockTableRecord
  2
*Paper_Space
  0
BLOCK_RECORD
  5
212
100
AcDbSymbolTableRecord
100
AcDbBlockTableRecord
  2
_FILLED
  0
ENDTAB
  0
TABLE
  2
DIMSTYLE
  5
A
100
AcDbSymbolTable
 70
1
100
AcDbDimStyleTable
 71
0
  0
DIMSTYLE
105
213
100
AcDbSymbolTableRecord
100
AcDbDimStyleTableRecord
  2
STANDARD
 70
0
  3

  4

 40
1.0
 41
0.9574811573
 42
1.0
 43
0.38
 44
1.0
 45
0.0
 46
0.0
 47
0.01
 48
0.01
140
1.3404736203
141
0.09
142
0.0
143
25.4
144
1.0
145
0.0
146
1.0
147
0.625
 71
1
 72
0
 73
0
 74
0
 75
0
 76
0
 77
1
 78
8
 79
2
170
0
171
1
172
0
173
0
174
0
175
0
176
0
177
0
178
0
270
2
179
2
271
2
272
2
273
2
274
2
275
0
280
0
281
0
282
0
283
1
284
8
285
0
286
0
287
3
288
0
340
11
278
46
341
212
342
212
343
212
344
212
  0
ENDTAB
  0
ENDSEC
  0
SECTION
  2
BLOCKS
  0
BLOCK
  5
20
100
AcDbEntity
  8
0
100
AcDbBlockBegin
  2
*Model_Space
 70
0
 10
0.0
 20
0.0
 30
0.0
  3
*Model_Space
  1

  0
ENDBLK
  5
21
100
AcDbEntity
  8
0
100
AcDbBlockEnd
  0
BLOCK
  5
1C
100
AcDbEntity
  8
0
100
AcDbBlockBegin
  2
*Paper_Space
 70
0
 10
0.0
 20
0.0
 30
0.0
  3
*Paper_Space
  1

  0
ENDBLK
  5
1D
100
AcDbEntity
  8
0
100
AcDbBlockEnd
  0
BLOCK
  5
214
100
AcDbEntity
  8
0
100
AcDbBlockBegin
  2
_FILLED
 70
64
 10
0.0
 20
0.0
  3
_FILLED
  1

  0
SOLID
  5
215
100
AcDbEntity
  8
0
  6
BYBLOCK
 62
0
100
AcDbTrace
 10
0.0
 20
0.0
 11
-1.0
 21
0.25
 12
-1.0
 22
-0.25
 13
-1.0
 23
-0.25
  0
ENDBLK
  5
216
100
AcDbEntity
  8
0
  6
BYBLOCK
 62
0
100
AcDbBlockEnd
  0
ENDSEC
  0
SECTION
  2
ENTITIES
  0
LINE
  5
217
100
AcDbEntity
  8
0
100
AcDbLine
 62
7
  6
BYLAYER
 10
24.7586327381
 20
60.4294204718
 11
24.7586406868
 21
59.3271566669
  0
LINE
  5
218
100
AcDbEntity
  8
0
100
AcDbLine
 62
7
  6
BYLAYER
 10
31.1225752215
 20
70.3499369965
 11
30.1679770926
 21
69.798783752
  0
LINE
  5
219
100
AcDbEntity
  8
0
100
AcDbLine
 62
7
  6
BYLAYER
 10
36.6872738135
 20
44.1780897977
 11
37.5974089924
 21
43.6526348945
  0
LINE
  5
21A
100
AcDbEntity
  8
0
100
AcDbLine
 62
7
  6
BYLAYER
 10
41.0006431369
 20
41.6878211951
 11
41.9107783158
 21
41.162366292
  0
LINE
  5
21B
100
AcDbEntity
  8
0
100
AcDbLine
 62
7
  6
BYLAYER
 10
41.4913934613
 20
41.7590149752
 11
40.5812582825
 21
42.2844698783
  0
LINE
  5
21C
100
AcDbEntity
  8
0
100
AcDbLine
 62
7
  6
BYLAYER
 10
37.1780241379
 20
44.2492835777
 11
36.2678889591
 21
44.7747384809
  0
LINE
  5
21D
100
AcDbEntity
  8
0
100
AcDbLine
 62
7
  6
BYLAYER
 10
26.6226515731
 20
55.2071425271
 11
35.6374185539
 21
50.002582127
  0
LINE
  5
21E
100
AcDbEntity
  8
0
100
AcDbLine
 62
7
  6
BYLAYER
 10
10.8616267657
 20
66.0386095977
 11
24.9283962899
 21
57.9173401539
  0
LINE
  5
21F
100
AcDbEntity
  8
0
100
AcDbLine
 62
7
  6
BYLAYER
 10
36.2678889591
 20
55.2341440052
 11
37.1780241379
 21
54.7086891021
  0
LINE
  5
220
100
AcDbEntity
  8
0
100
AcDbLine
 62
7
  6
BYLAYER
 10
40.5812582825
 20
52.7438754026
 11
41.4913934613
 21
52.2184204995
  0
LINE
  5
221
100
AcDbEntity
  8
0
100
AcDbLine
 62
7
  6
BYLAYER
 10
41.9107783158
 20
53.2993302093
 11
41.0006431369
 21
53.8247851124
  0
LINE
  5
222
100
AcDbEntity
  8
0
100
AcDbLine
 62
7
  6
BYLAYER
 10
37.5974089924
 20
55.7895988119
 11
36.6872738135
 21
56.315053715
  0
LINE
  5
223
100
AcDbEntity
  8
0
100
AcDbLine
 62
7
  6
BYLAYER
 10
18.361499513
 20
79.029064123
 11
32.5017311536
 21
70.8653822661
  0
LINE
  5
224
100
AcDbEntity
  8
0
100
AcDbLine
 62
7
  6
BYLAYER
 10
35.6224988699
 20
70.7956879575
 11
44.2412993354
 21
65.8197337598
  0
LINE
  5
225
100
AcDbEntity
  8
0
100
AcDbLine
 62
7
  6
BYLAYER
 10
44.5317392256
 20
66.0737336601
 11
45.4418744044
 21
65.548278757
  0
LINE
  5
226
100
AcDbEntity
  8
0
100
AcDbLine
 62
7
  6
BYLAYER
 10
48.845108549
 20
63.5834650576
 11
49.7552437278
 21
63.0580101544
  0
LINE
  5
227
100
AcDbEntity
  8
0
100
AcDbLine
 62
7
  6
BYLAYER
 10
50.5940134368
 20
63.542271181
 11
49.6838782579
 21
64.0677260842
  0
LINE
  5
228
100
AcDbEntity
  8
0
100
AcDbLine
 62
7
  6
BYLAYER
 10
46.2806441134
 20
66.0325397836
 11
45.3705089345
 21
66.5579946867
  0
LINE
  5
229
100
AcDbEntity
  8
0
100
AcDbLine
 62
7
  6
BYLAYER
 10
53.2149743466
 20
65.8572691075
 11
54.1251095254
 21
65.3318142044
  0
LINE
  5
22A
100
AcDbEntity
  8
0
100
AcDbLine
 62
7
  6
BYLAYER
 10
57.52834367
 20
63.3670005049
 11
58.4384788488
 21
62.8415456018
  0
LINE
  5
22B
100
AcDbEntity
  8
0
100
AcDbLine
 62
7
  6
BYLAYER
 10
65.9830846712
 20
35.5266242903
 11
66.9376828002
 21
36.0777775348
  0
LINE
  5
22C
100
AcDbEntity
  8
0
100
AcDbLine
 62
7
  6
BYLAYER
 10
72.3470271547
 20
45.447140815
 11
72.347019206
 21
46.5494046199
  0
ARC
  5
22D
100
AcDbEntity
  8
0
100
AcDbCircle
 62
7
  6
BYLAYER
 10
24.2572228562
 20
73.2708580642
 40
41.6956753092
100
AcDbArc
 50
309.1714605886
 51
309.7050329518
  0
ARC
  5
22E
100
AcDbEntity
  8
0
100
AcDbCircle
 62
7
  6
BYLAYER
 10
14.4344091184
 20
56.5359053886
 40
40.9395506375
100
AcDbArc
 50
10.3210394892
 51
11.5531716283
  0
ARC
  5
22F
100
AcDbEntity
  8
0
100
AcDbCircle
 62
7
  6
BYLAYER
 10
58.3343539934
 20
47.1220058532
 40
22.4754990084
100
AcDbArc
 50
157.3161309901
 51
160.2721103029
  0
ARC
  5
230
100
AcDbEntity
  8
0
100
AcDbCircle
 62
7
  6
BYLAYER
 10
62.6477233169
 20
44.6317372506
 40
22.4754990084
100
AcDbArc
 50
157.3161309901
 51
160.2721103029
  0
ARC
  5
231
100
AcDbEntity
  8
0
100
AcDbCircle
 62
7
  6
BYLAYER
 10
57.2681744678
 20
47.7080047916
 40
22.3081770414
100
AcDbArc
 50
157.3050428755
 51
160.2831984174
  0
ARC
  5
232
100
AcDbEntity
  8
0
100
AcDbCircle
 62
7
  6
BYLAYER
 10
61.5815437912
 20
45.217736189
 40
22.3081770414
100
AcDbArc
 50
157.3050428755
 51
160.2831984174
  0
ARC
  5
233
100
AcDbEntity
  8
0
100
AcDbCircle
 62
7
  6
BYLAYER
 10
56.0423521532
 20
52.1040792481
 40
13.5490447656
100
AcDbArc
 50
120.0162926898
 51
122.0865251028
  0
ARC
  5
234
100
AcDbEntity
  8
0
100
AcDbCircle
 62
7
  6
BYLAYER
 10
51.7289828297
 20
54.5943478508
 40
13.5490447655
100
AcDbArc
 50
120.0162926898
 51
122.0865251028
  0
ARC
  5
235
100
AcDbEntity
  8
0
100
AcDbCircle
 62
7
  6
BYLAYER
 10
52.5662892877
 20
54.1898543182
 40
13.4078742969
100
AcDbArc
 50
120.0053928269
 51
122.0974249657
  0
ARC
  5
236
100
AcDbEntity
  8
0
100
AcDbCircle
 62
7
  6
BYLAYER
 10
43.4695985535
 20
52.3043261782
 40
13.4078742969
100
AcDbArc
 50
300.0053928269
 51
302.0974249657
  0
ARC
  5
237
100
AcDbEntity
  8
0
100
AcDbCircle
 62
7
  6
BYLAYER
 10
56.879658611
 20
51.6995857157
 40
13.4078742968
100
AcDbArc
 50
120.0053928268
 51
122.0974249657
  0
ARC
  5
238
100
AcDbEntity
  8
0
100
AcDbCircle
 62
7
  6
BYLAYER
 10
51.3066899904
 20
55.3206012735
 40
12.7089439471
100
AcDbArc
 50
117.8453655653
 51
120.0056949146
  0
ARC
  5
239
100
AcDbEntity
  8
0
100
AcDbCircle
 62
7
  6
BYLAYER
 10
55.6200593138
 20
52.8303326709
 40
12.7089439471
100
AcDbArc
 50
117.8453655653
 51
120.0056949146
  0
ARC
  5
23A
100
AcDbEntity
  8
0
100
AcDbCircle
 62
7
  6
BYLAYER
 10
52.1499807108
 20
54.9161074756
 40
12.5707668562
100
AcDbArc
 50
117.833491032
 51
120.0175694479
  0
ARC
  5
23B
100
AcDbEntity
  8
0
100
AcDbCircle
 62
7
  6
BYLAYER
 10
43.8859071303
 20
51.5780730209
 40
12.5707668563
100
AcDbArc
 50
297.833491032
 51
300.0175694479
  0
ARC
  5
23C
100
AcDbEntity
  8
0
100
AcDbCircle
 62
7
  6
BYLAYER
 10
56.4633500343
 20
52.4258388729
 40
12.5707668563
100
AcDbArc
 50
117.833491032
 51
120.0175694479
  0
SPLINE
  5
23D
100
AcDbEntity
  8
0
100
AcDbSpline
 62
7
  6
BYLAYER
 70
0
 71
3
 72
19
 73
15
 74
0
 42
0.0000001
 43
0.0000001
 44
0.0000000001
 40
0.0
 40
0.0
 40
0.0
 40
0.0
 40
0.056239426
 40
0.1148636484
 40
0.1756351982
 40
0.2382652536
 40
0.3677046629
 40
0.5002933835
 40
0.6328410488
 40
0.7621601017
 40
0.8247031919
 40
0.8853677951
 40
0.9438859596
 40
1.0
 40
1.0
 40
1.0
 40
1.0
 10
40.1400101649
 20
50.6199188391
 30
0.0
 10
40.1448284799
 20
50.8620261
 30
0.0
 10
40.1750923262
 20
51.3562683689
 30
0.0
 10
40.2768910315
 20
52.1062257418
 30
0.0
 10
40.4351947756
 20
52.8744478178
 30
0.0
 10
40.7227566239
 20
53.9250912411
 30
0.0
 10
41.2145832508
 20
55.2373370169
 30
0.0
 10
41.9860881543
 20
56.7547631464
 30
0.0
 10
42.9181422153
 20
58.1786060884
 30
0.0
 10
43.8111756567
 20
59.2572187164
 30
0.0
 10
44.5787507556
 20
60.0282131027
 30
0.0
 10
45.1656876906
 20
60.5465864297
 30
0.0
 10
45.7647926491
 20
61.0066678032
 30
0.0
 10
46.1779321357
 20
61.277821763
 30
0.0
 10
46.385240856
 20
61.401922756
 30
0.0
  0
SPLINE
  5
23E
100
AcDbEntity
  8
0
100
AcDbSpline
 62
7
  6
BYLAYER
 70
0
 71
3
 72
11
 73
7
 74
0
 42
0.0000001
 43
0.0000001
 44
0.0000000001
 40
0.0
 40
0.0
 40
0.0
 40
0.0
 40
0.2642263448
 40
0.5183038317
 40
0.763120426
 40
1.0
 40
1.0
 40
1.0
 40
1.0
 10
35.6269364745
 20
50.374486961
 30
0.0
 10
35.6269364745
 20
50.8073980312
 30
0.0
 10
35.6544859185
 20
51.6569227678
 30
0.0
 10
35.7818866446
 20
52.9016914555
 30
0.0
 10
35.9856553993
 20
54.0907069136
 30
0.0
 10
36.167824256
 20
54.859159732
 30
0.0
 10
36.2678889591
 20
55.2341440052
 30
0.0
  0
SPLINE
  5
23F
100
AcDbEntity
  8
0
100
AcDbSpline
 62
7
  6
BYLAYER
 70
0
 71
3
 72
9
 73
5
 74
0
 42
0.0000001
 43
0.0000001
 44
0.0000000001
 40
0.0
 40
0.0
 40
0.0
 40
0.0
 40
0.2466052439
 40
1.0
 40
1.0
 40
1.0
 40
1.0
 10
36.6872738135
 20
44.1780897977
 30
0.0
 10
36.6495953709
 20
44.2247500946
 30
0.0
 10
36.5000322424
 20
44.4165497892
 30
0.0
 10
36.3634238945
 20
44.6183928571
 30
0.0
 10
36.2678889591
 20
44.7747384809
 30
0.0
  0
SPLINE
  5
240
100
AcDbEntity
  8
0
100
AcDbSpline
 62
7
  6
BYLAYER
 70
0
 71
3
 72
11
 73
7
 74
0
 42
0.0000001
 43
0.0000001
 44
0.0000000001
 40
0.0
 40
0.0
 40
0.0
 40
0.0
 40
0.2389313824
 40
0.4860655695
 40
0.7402090592
 40
1.0
 40
1.0
 40
1.0
 40
1.0
 10
35.6269364745
 20
50.374486961
 30
0.0
 10
35.6269364745
 20
49.9248771383
 30
0.0
 10
35.6578122481
 20
49.010014674
 30
0.0
 10
35.7874035254
 20
47.6225052846
 30
0.0
 10
35.9923753807
 20
46.2046028245
 30
0.0
 10
36.1701760947
 20
45.2537359761
 30
0.0
 10
36.2678889591
 20
44.7747384809
 30
0.0
  0
SPLINE
  5
241
100
AcDbEntity
  8
0
100
AcDbSpline
 62
7
  6
BYLAYER
 70
0
 71
3
 72
11
 73
7
 74
0
 42
0.0000001
 43
0.0000001
 44
0.0000000001
 40
0.0
 40
0.0
 40
0.0
 40
0.0
 40
0.2542110404
 40
0.5056148335
 40
0.7541517963
 40
1.0
 40
1.0
 40
1.0
 40
1.0
 10
39.968554035
 20
61.5644394055
 30
0.0
 10
39.6392370366
 20
61.1547621338
 30
0.0
 10
39.0097166192
 20
60.3190592842
 30
0.0
 10
38.1505286475
 20
59.0166714283
 30
0.0
 10
37.3768124578
 20
57.681895336
 30
0.0
 10
36.9096280706
 20
56.7721802978
 30
0.0
 10
36.6872738135
 20
56.315053715
 30
0.0
  0
SPLINE
  5
242
100
AcDbEntity
  8
0
100
AcDbSpline
 62
7
  6
BYLAYER
 70
0
 71
3
 72
11
 73
7
 74
0
 42
0.0000001
 43
0.0000001
 44
0.0000000001
 40
0.0
 40
0.0
 40
0.0
 40
0.0
 40
0.2477598621
 40
0.4973837094
 40
0.7482957076
 40
1.0
 40
1.0
 40
1.0
 40
1.0
 10
39.968554035
 20
61.5644394055
 30
0.0
 10
40.3010804174
 20
61.9781092183
 30
0.0
 10
40.9951413237
 20
62.7876109084
 30
0.0
 10
42.1104195638
 20
63.9401786122
 30
0.0
 10
43.2917040679
 20
65.0371956505
 30
0.0
 10
44.1137315917
 20
65.7331357236
 30
0.0
 10
44.5317392256
 20
66.0737336601
 30
0.0
  0
SPLINE
  5
243
100
AcDbEntity
  8
0
100
AcDbSpline
 62
7
  6
BYLAYER
 70
0
 71
3
 72
11
 73
7
 74
0
 42
0.0000001
 43
0.0000001
 44
0.0000000001
 40
0.0
 40
0.0
 40
0.0
 40
0.0
 40
0.2892659366
 40
0.5507874441
 40
0.7865751505
 40
1.0
 40
1.0
 40
1.0
 40
1.0
 10
48.651789156
 20
66.5776776151
 30
0.0
 10
48.3360668919
 20
66.6058802592
 30
0.0
 10
47.7336932372
 20
66.6474347745
 30
0.0
 10
46.8715138037
 20
66.6637907963
 30
0.0
 10
46.0928003245
 20
66.6350477385
 30
0.0
 10
45.6024829483
 20
66.5877317562
 30
0.0
 10
45.3705089345
 20
66.5579946867
 30
0.0
  0
SPLINE
  5
244
100
AcDbEntity
  8
0
100
AcDbSpline
 62
7
  6
BYLAYER
 70
0
 71
3
 72
9
 73
5
 74
0
 42
0.0000001
 43
0.0000001
 44
0.0000000001
 40
0.0
 40
0.0
 40
0.0
 40
0.0
 40
0.2536796095
 40
1.0
 40
1.0
 40
1.0
 40
1.0
 10
54.5444943799
 20
64.7351655212
 30
0.0
 10
54.5123265403
 20
64.7878091004
 30
0.0
 10
54.3822905674
 20
64.9933311341
 30
0.0
 10
54.239137827
 20
65.1906036328
 30
0.0
 10
54.1251095254
 20
65.3318142044
 30
0.0
  0
SPLINE
  5
245
100
AcDbEntity
  8
0
100
AcDbSpline
 62
7
  6
BYLAYER
 70
0
 71
3
 72
11
 73
7
 74
0
 42
0.0000001
 43
0.0000001
 44
0.0000000001
 40
0.0
 40
0.0
 40
0.0
 40
0.0
 40
0.2254337502
 40
0.4690240968
 40
0.7281673259
 40
1.0
 40
1.0
 40
1.0
 40
1.0
 10
48.651789156
 20
66.5776776151
 30
0.0
 10
48.9977229654
 20
66.5467762526
 30
0.0
 10
49.7160734539
 20
66.4665812629
 30
0.0
 10
50.8261824761
 20
66.3036818689
 30
0.0
 10
52.0018679536
 20
66.0986003512
 30
0.0
 10
52.8046570835
 20
65.9411085381
 30
0.0
 10
53.2149743466
 20
65.8572691075
 30
0.0
  0
SPLINE
  5
246
100
AcDbEntity
  8
0
100
AcDbSpline
 62
7
  6
BYLAYER
 70
0
 71
3
 72
9
 73
5
 74
0
 42
0.0000001
 43
0.0000001
 44
0.0000000001
 40
0.0
 40
0.0
 40
0.0
 40
0.0
 40
0.485168482
 40
1.0
 40
1.0
 40
1.0
 40
1.0
 10
40.4232533491
 20
43.1436860024
 30
0.0
 10
39.9639589552
 20
43.2123370147
 30
0.0
 10
39.0198340325
 20
43.3710089211
 30
0.0
 10
38.0802230561
 20
43.5539823156
 30
0.0
 10
37.5974089924
 20
43.6526348945
 30
0.0
  0
SPLINE
  5
247
100
AcDbEntity
  8
0
100
AcDbSpline
 62
7
  6
BYLAYER
 70
0
 71
3
 72
11
 73
7
 74
0
 42
0.0000001
 43
0.0000001
 44
0.0000000001
 40
0.0
 40
0.0
 40
0.0
 40
0.0
 40
0.2892659366
 40
0.5507874441
 40
0.7865751505
 40
1.0
 40
1.0
 40
1.0
 40
1.0
 10
50.8438293039
 20
65.3121312761
 30
0.0
 10
51.1595515681
 20
65.2839286319
 30
0.0
 10
51.7619252227
 20
65.2423741166
 30
0.0
 10
52.6241046562
 20
65.2260180948
 30
0.0
 10
53.4028181355
 20
65.2547611526
 30
0.0
 10
53.8931355117
 20
65.302077135
 30
0.0
 10
54.1251095254
 20
65.3318142044
 30
0.0
  0
SPLINE
  5
248
100
AcDbEntity
  8
0
100
AcDbSpline
 62
7
  6
BYLAYER
 70
0
 71
3
 72
11
 73
7
 74
0
 42
0.0000001
 43
0.0000001
 44
0.0000000001
 40
0.0
 40
0.0
 40
0.0
 40
0.0
 40
0.2254337502
 40
0.4690240968
 40
0.7281673259
 40
1.0
 40
1.0
 40
1.0
 40
1.0
 10
50.8438293039
 20
65.3121312761
 30
0.0
 10
50.4978954945
 20
65.3430326385
 30
0.0
 10
49.7795450061
 20
65.4232276282
 30
0.0
 10
48.6694359838
 20
65.5861270222
 30
0.0
 10
47.4937505063
 20
65.7912085399
 30
0.0
 10
46.6909613764
 20
65.948700353
 30
0.0
 10
46.2806441134
 20
66.0325397836
 30
0.0
  0
SPLINE
  5
249
100
AcDbEntity
  8
0
100
AcDbSpline
 62
7
  6
BYLAYER
 70
0
 71
3
 72
9
 73
5
 74
0
 42
0.0000001
 43
0.0000001
 44
0.0000000001
 40
0.0
 40
0.0
 40
0.0
 40
0.0
 40
0.2536796095
 40
1.0
 40
1.0
 40
1.0
 40
1.0
 10
37.1780241379
 20
44.2492835777
 30
0.0
 10
37.2101919775
 20
44.1966399985
 30
0.0
 10
37.3402279504
 20
43.9911179648
 30
0.0
 10
37.4833806907
 20
43.7938454661
 30
0.0
 10
37.5974089924
 20
43.6526348945
 30
0.0
  0
SPLINE
  5
24A
100
AcDbEntity
  8
0
100
AcDbSpline
 62
7
  6
BYLAYER
 70
0
 71
3
 72
11
 73
7
 74
0
 42
0.0000001
 43
0.0000001
 44
0.0000000001
 40
0.0
 40
0.0
 40
0.0
 40
0.0
 40
0.2642263448
 40
0.5183038317
 40
0.763120426
 40
1.0
 40
1.0
 40
1.0
 40
1.0
 10
37.8189766225
 20
49.108940622
 30
0.0
 10
37.8189766225
 20
48.6760295518
 30
0.0
 10
37.7914271785
 20
47.8265048152
 30
0.0
 10
37.6640264524
 20
46.5817361274
 30
0.0
 10
37.4602576976
 20
45.3927206694
 30
0.0
 10
37.278088841
 20
44.624267851
 30
0.0
 10
37.1780241379
 20
44.2492835777
 30
0.0
  0
SPLINE
  5
24B
100
AcDbEntity
  8
0
100
AcDbSpline
 62
7
  6
BYLAYER
 70
0
 71
3
 72
11
 73
7
 74
0
 42
0.0000001
 43
0.0000001
 44
0.0000000001
 40
0.0
 40
0.0
 40
0.0
 40
0.0
 40
0.2389313824
 40
0.4860655695
 40
0.7402090592
 40
1.0
 40
1.0
 40
1.0
 40
1.0
 10
37.8189766225
 20
49.108940622
 30
0.0
 10
37.8189766225
 20
49.5585504446
 30
0.0
 10
37.7881008489
 20
50.4734129089
 30
0.0
 10
37.6585095716
 20
51.8609222984
 30
0.0
 10
37.4535377163
 20
53.2788247585
 30
0.0
 10
37.2757370023
 20
54.2296916069
 30
0.0
 10
37.1780241379
 20
54.7086891021
 30
0.0
  0
SPLINE
  5
24C
100
AcDbEntity
  8
0
100
AcDbSpline
 62
7
  6
BYLAYER
 70
0
 71
3
 72
9
 73
5
 74
0
 42
0.0000001
 43
0.0000001
 44
0.0000000001
 40
0.0
 40
0.0
 40
0.0
 40
0.0
 40
0.5128351475
 40
1.0
 40
1.0
 40
1.0
 40
1.0
 10
46.5022117434
 20
46.7736570774
 30
0.0
 10
46.3044223878
 20
46.6594640213
 30
0.0
 10
45.9095522061
 20
46.4522338708
 30
0.0
 10
45.4972993806
 20
46.2816786249
 30
0.0
 10
45.292768834
 20
46.2093131812
 30
0.0
  0
SPLINE
  5
24D
100
AcDbEntity
  8
0
100
AcDbSpline
 62
7
  6
BYLAYER
 70
0
 71
3
 72
23
 73
19
 74
0
 42
0.0000001
 43
0.0000001
 44
0.0000000001
 40
0.0
 40
0.0
 40
0.0
 40
0.0
 40
0.051667713
 40
0.1064784407
 40
0.1642946806
 40
0.2248650166
 40
0.2878464154
 40
0.3528227801
 40
0.4193225181
 40
0.4868348111
 40
0.5548233912
 40
0.6227400178
 40
0.6900378702
 40
0.756186829
 40
0.8206848897
 40
0.8830687202
 40
0.9429572273
 40
1.0
 40
1.0
 40
1.0
 40
1.0
 10
52.7498805476
 20
59.1274529945
 30
0.0
 10
52.7957070522
 20
58.8808393663
 30
0.0
 10
52.859585101
 20
58.3666083706
 30
0.0
 10
52.8757311322
 20
57.5679890094
 30
0.0
 10
52.8151827779
 20
56.7282353674
 30
0.0
 10
52.6787148659
 20
55.8574352412
 30
0.0
 10
52.4679975277
 20
54.9659022604
 30
0.0
 10
52.1855631964
 20
54.0642984102
 30
0.0
 10
51.8348235032
 20
53.1634142578
 30
0.0
 10
51.419989963
 20
52.2740595473
 30
0.0
 10
50.9460322117
 20
51.4069241808
 30
0.0
 10
50.4186483307
 20
50.5724344007
 30
0.0
 10
49.8441940955
 20
49.7806071882
 30
0.0
 10
49.229556231
 20
49.0409539254
 30
0.0
 10
48.5821065041
 20
48.3623896293
 30
0.0
 10
47.9095573294
 20
47.752944667
 30
0.0
 10
47.2200101923
 20
47.2200997072
 30
0.0
 10
46.7420405418
 20
46.9121214721
 30
0.0
 10
46.5022117434
 20
46.7736570774
 30
0.0
  0
SPLINE
  5
24E
100
AcDbEntity
  8
0
100
AcDbSpline
 62
7
  6
BYLAYER
 70
0
 71
3
 72
11
 73
7
 74
0
 42
0.0000001
 43
0.0000001
 44
0.0000000001
 40
0.0
 40
0.0
 40
0.0
 40
0.0
 40
0.2234035249
 40
0.4632869182
 40
0.7219272534
 40
1.0
 40
1.0
 40
1.0
 40
1.0
 10
50.8438293039
 20
65.3121312761
 30
0.0
 10
50.5056028474
 20
65.3423441608
 30
0.0
 10
49.7965019843
 20
65.3323901757
 30
0.0
 10
48.7144195453
 20
65.1247678726
 30
0.0
 10
47.597919245
 20
64.7300966517
 30
0.0
 10
46.8682555687
 20
64.3601627534
 30
0.0
 10
46.5022117434
 20
64.1488285139
 30
0.0
  0
SPLINE
  5
24F
100
AcDbEntity
  8
0
100
AcDbSpline
 62
7
  6
BYLAYER
 70
0
 71
3
 72
11
 73
7
 74
0
 42
0.0000001
 43
0.0000001
 44
0.0000000001
 40
0.0
 40
0.0
 40
0.0
 40
0.0
 40
0.232065918
 40
0.4774810713
 40
0.7342754496
 40
1.0
 40
1.0
 40
1.0
 40
1.0
 10
46.5022117434
 20
64.1488285139
 30
0.0
 10
46.1114450315
 20
63.9232205942
 30
0.0
 10
45.3340034553
 20
63.4119595187
 30
0.0
 10
44.2236216096
 20
62.5113905793
 30
0.0
 10
43.1519636022
 20
61.4690594004
 30
0.0
 10
42.4842936421
 20
60.7015820013
 30
0.0
 10
42.160594183
 20
60.2988930665
 30
0.0
  0
SPLINE
  5
250
100
AcDbEntity
  8
0
100
AcDbSpline
 62
7
  6
BYLAYER
 70
0
 71
3
 72
15
 73
11
 74
0
 42
0.0000001
 43
0.0000001
 44
0.0000000001
 40
0.0
 40
0.0
 40
0.0
 40
0.0
 40
0.129847411
 40
0.2611866596
 40
0.3925260486
 40
0.5223738886
 40
0.6492905064
 40
0.7719421396
 40
0.8891589506
 40
1.0
 40
1.0
 40
1.0
 40
1.0
 10
42.160594183
 20
60.2988930665
 30
0.0
 10
41.8294178095
 20
59.8869026932
 30
0.0
 10
41.1960092287
 20
59.0313249887
 30
0.0
 10
40.3448229085
 20
57.6772701113
 30
0.0
 10
39.5977329512
 20
56.2629933982
 30
0.0
 10
38.9674574262
 20
54.8125127593
 30
0.0
 10
38.4646266553
 20
53.3503226555
 30
0.0
 10
38.0977410084
 20
51.9009914871
 30
0.0
 10
37.873022987
 20
50.4890919608
 30
0.0
 10
37.8189766225
 20
49.5601637012
 30
0.0
 10
37.8189766225
 20
49.108940622
 30
0.0
  0
SPLINE
  5
251
100
AcDbEntity
  8
0
100
AcDbSpline
 62
7
  6
BYLAYER
 70
0
 71
3
 72
15
 73
11
 74
0
 42
0.0000001
 43
0.0000001
 44
0.0000000001
 40
0.0
 40
0.0
 40
0.0
 40
0.0
 40
0.1485641532
 40
0.2894628336
 40
0.4226790137
 40
0.5486126955
 40
0.6679890778
 40
0.7819432656
 40
0.8920003234
 40
1.0
 40
1.0
 40
1.0
 40
1.0
 10
37.8189766225
 20
49.108940622
 30
0.0
 10
37.8189766225
 20
48.7896455524
 30
0.0
 10
37.8446695011
 20
48.1671023721
 30
0.0
 10
37.9670065857
 20
47.2655148552
 30
0.0
 10
38.1713673448
 20
46.4285529778
 30
0.0
 10
38.4561080108
 20
45.6642587276
 30
0.0
 10
38.8191299768
 20
44.9800127862
 30
0.0
 10
39.2575717019
 20
44.3827679779
 30
0.0
 10
39.7673871571
 20
43.8791946981
 30
0.0
 10
40.1533059477
 20
43.6086445725
 30
0.0
 10
40.354048828
 20
43.4921154724
 30
0.0
  0
SPLINE
  5
252
100
AcDbEntity
  8
0
100
AcDbSpline
 62
7
  6
BYLAYER
 70
0
 71
3
 72
11
 73
7
 74
0
 42
0.0000001
 43
0.0000001
 44
0.0000000001
 40
0.0
 40
0.0
 40
0.0
 40
0.0
 40
0.2483865266
 40
0.4944649452
 40
0.7434143824
 40
1.0
 40
1.0
 40
1.0
 40
1.0
 10
53.4822377105
 20
64.1162288711
 30
0.0
 10
53.3079010892
 20
64.2876319488
 30
0.0
 10
52.9310497998
 20
64.6002066283
 30
0.0
 10
52.2905811634
 20
64.9618596315
 30
0.0
 10
51.5886995711
 20
65.2070568824
 30
0.0
 10
51.0953816283
 20
65.2896607648
 30
0.0
 10
50.8438293039
 20
65.3121312761
 30
0.0
  0
SPLINE
  5
253
100
AcDbEntity
  8
0
100
AcDbSpline
 62
7
  6
BYLAYER
 70
0
 71
3
 72
11
 73
7
 74
0
 42
0.0000001
 43
0.0000001
 44
0.0000000001
 40
0.0
 40
0.0
 40
0.0
 40
0.0
 40
0.2477598621
 40
0.4973837094
 40
0.7482957076
 40
1.0
 40
1.0
 40
1.0
 40
1.0
 10
42.160594183
 20
60.2988930665
 30
0.0
 10
41.8280678006
 20
59.8852232537
 30
0.0
 10
41.1340068943
 20
59.0757215636
 30
0.0
 10
40.0187286542
 20
57.9231538599
 30
0.0
 10
38.8374441501
 20
56.8261368215
 30
0.0
 10
38.0154166263
 20
56.1301967484
 30
0.0
 10
37.5974089924
 20
55.7895988119
 30
0.0
  0
SPLINE
  5
254
100
AcDbEntity
  8
0
100
AcDbSpline
 62
7
  6
BYLAYER
 70
0
 71
3
 72
11
 73
7
 74
0
 42
0.0000001
 43
0.0000001
 44
0.0000000001
 40
0.0
 40
0.0
 40
0.0
 40
0.0
 40
0.2542110404
 40
0.5056148335
 40
0.7541517963
 40
1.0
 40
1.0
 40
1.0
 40
1.0
 10
42.160594183
 20
60.2988930665
 30
0.0
 10
42.4899111814
 20
60.7085703382
 30
0.0
 10
43.1194315987
 20
61.5442731879
 30
0.0
 10
43.9786195704
 20
62.8466610437
 30
0.0
 10
44.7523357602
 20
64.1814371361
 30
0.0
 10
45.2195201474
 20
65.0911521742
 30
0.0
 10
45.4418744044
 20
65.548278757
 30
0.0
  0
SPLINE
  5
255
100
AcDbEntity
  8
0
100
AcDbSpline
 62
7
  6
BYLAYER
 70
0
 71
3
 72
20
 73
16
 74
0
 42
0.0000001
 43
0.0000001
 44
0.0000000001
 40
0.0
 40
0.0
 40
0.0
 40
0.0
 40
0.0558474265
 40
0.1141981434
 40
0.1748120937
 40
0.237392576
 40
0.3015987171
 40
0.3670534281
 40
0.5000288814
 40
0.6330044359
 40
0.7626069936
 40
0.8251872954
 40
0.8857980469
 40
0.9441611932
 40
1.0
 40
1.0
 40
1.0
 40
1.0
 10
44.451659104
 20
47.9576589122
 30
0.0
 10
44.4516572457
 20
48.2038603566
 30
0.0
 10
44.4735045898
 20
48.7074838357
 30
0.0
 10
44.5662598122
 20
49.4731945753
 30
0.0
 10
44.7188292723
 20
50.2595061765
 30
0.0
 10
44.9297126487
 20
51.0588662938
 30
0.0
 10
45.1969327181
 20
51.8637053814
 30
0.0
 10
45.6271056562
 20
52.9392498636
 30
0.0
 10
46.2871271223
 20
54.2465654411
 30
0.0
 10
47.2441702393
 20
55.7083887691
 30
0.0
 10
48.1642138064
 20
56.8126005296
 30
0.0
 10
48.955683971
 20
57.5980993848
 30
0.0
 10
49.5604083492
 20
58.1234254846
 30
0.0
 10
50.1771758513
 20
58.5865771289
 30
0.0
 10
50.6023969519
 20
58.8573508116
 30
0.0
 10
50.8155810668
 20
58.9804319831
 30
0.0
  0
SPLINE
  5
256
100
AcDbEntity
  8
0
100
AcDbSpline
 62
7
  6
BYLAYER
 70
0
 71
3
 72
11
 73
7
 74
0
 42
0.0000001
 43
0.0000001
 44
0.0000000001
 40
0.0
 40
0.0
 40
0.0
 40
0.0
 40
0.2642263448
 40
0.5183038317
 40
0.763120426
 40
1.0
 40
1.0
 40
1.0
 40
1.0
 10
39.9403057979
 20
47.8842183584
 30
0.0
 10
39.9403057979
 20
48.3171294286
 30
0.0
 10
39.9678552419
 20
49.1666541652
 30
0.0
 10
40.095255968
 20
50.4114228529
 30
0.0
 10
40.2990247227
 20
51.600438311
 30
0.0
 10
40.4811935794
 20
52.3688911294
 30
0.0
 10
40.5812582825
 20
52.7438754026
 30
0.0
  0
SPLINE
  5
257
100
AcDbEntity
  8
0
100
AcDbSpline
 62
7
  6
BYLAYER
 70
0
 71
3
 72
9
 73
5
 74
0
 42
0.0000001
 43
0.0000001
 44
0.0000000001
 40
0.0
 40
0.0
 40
0.0
 40
0.0
 40
0.2466052439
 40
1.0
 40
1.0
 40
1.0
 40
1.0
 10
41.0006431369
 20
41.6878211951
 30
0.0
 10
40.9629646943
 20
41.7344814921
 30
0.0
 10
40.8134015658
 20
41.9262811866
 30
0.0
 10
40.6767932179
 20
42.1281242546
 30
0.0
 10
40.5812582825
 20
42.2844698783
 30
0.0
  0
SPLINE
  5
258
100
AcDbEntity
  8
0
100
AcDbSpline
 62
7
  6
BYLAYER
 70
0
 71
3
 72
11
 73
7
 74
0
 42
0.0000001
 43
0.0000001
 44
0.0000000001
 40
0.0
 40
0.0
 40
0.0
 40
0.0
 40
0.2389313824
 40
0.4860655695
 40
0.7402090592
 40
1.0
 40
1.0
 40
1.0
 40
1.0
 10
39.9403057979
 20
47.8842183584
 30
0.0
 10
39.9403057979
 20
47.4346085358
 30
0.0
 10
39.9711815715
 20
46.5197460714
 30
0.0
 10
40.1007728488
 20
45.132236682
 30
0.0
 10
40.3057447041
 20
43.7143342219
 30
0.0
 10
40.4835454181
 20
42.7634673735
 30
0.0
 10
40.5812582825
 20
42.2844698783
 30
0.0
  0
SPLINE
  5
259
100
AcDbEntity
  8
0
100
AcDbSpline
 62
7
  6
BYLAYER
 70
0
 71
3
 72
11
 73
7
 74
0
 42
0.0000001
 43
0.0000001
 44
0.0000000001
 40
0.0
 40
0.0
 40
0.0
 40
0.0
 40
0.2542110404
 40
0.5056148335
 40
0.7541517963
 40
1.0
 40
1.0
 40
1.0
 40
1.0
 10
44.2819233584
 20
59.0741708029
 30
0.0
 10
43.95260636
 20
58.6644935312
 30
0.0
 10
43.3230859426
 20
57.8287906816
 30
0.0
 10
42.4638979709
 20
56.5264028257
 30
0.0
 10
41.6901817812
 20
55.1916267334
 30
0.0
 10
41.222997394
 20
54.2819116952
 30
0.0
 10
41.0006431369
 20
53.8247851124
 30
0.0
  0
SPLINE
  5
25A
100
AcDbEntity
  8
0
100
AcDbSpline
 62
7
  6
BYLAYER
 70
0
 71
3
 72
11
 73
7
 74
0
 42
0.0000001
 43
0.0000001
 44
0.0000000001
 40
0.0
 40
0.0
 40
0.0
 40
0.0
 40
0.2477598621
 40
0.4973837094
 40
0.7482957076
 40
1.0
 40
1.0
 40
1.0
 40
1.0
 10
44.2819233584
 20
59.0741708029
 30
0.0
 10
44.6144497407
 20
59.4878406158
 30
0.0
 10
45.3085106471
 20
60.2973423058
 30
0.0
 10
46.4237888872
 20
61.4499100096
 30
0.0
 10
47.6050733913
 20
62.5469270479
 30
0.0
 10
48.4271009151
 20
63.242867121
 30
0.0
 10
48.845108549
 20
63.5834650576
 30
0.0
  0
SPLINE
  5
25B
100
AcDbEntity
  8
0
100
AcDbSpline
 62
7
  6
BYLAYER
 70
0
 71
3
 72
11
 73
7
 74
0
 42
0.0000001
 43
0.0000001
 44
0.0000000001
 40
0.0
 40
0.0
 40
0.0
 40
0.0
 40
0.2892659366
 40
0.5507874441
 40
0.7865751505
 40
1.0
 40
1.0
 40
1.0
 40
1.0
 10
52.9651584794
 20
64.0874090125
 30
0.0
 10
52.6494362152
 20
64.1156116566
 30
0.0
 10
52.0470625606
 20
64.1571661719
 30
0.0
 10
51.1848831271
 20
64.1735221938
 30
0.0
 10
50.4061696479
 20
64.1447791359
 30
0.0
 10
49.9158522717
 20
64.0974631536
 30
0.0
 10
49.6838782579
 20
64.0677260842
 30
0.0
  0
SPLINE
  5
25C
100
AcDbEntity
  8
0
100
AcDbSpline
 62
7
  6
BYLAYER
 70
0
 71
3
 72
9
 73
5
 74
0
 42
0.0000001
 43
0.0000001
 44
0.0000000001
 40
0.0
 40
0.0
 40
0.0
 40
0.0
 40
0.2536796095
 40
1.0
 40
1.0
 40
1.0
 40
1.0
 10
58.8578637033
 20
62.2448969186
 30
0.0
 10
58.8256958637
 20
62.2975404978
 30
0.0
 10
58.6956598908
 20
62.5030625315
 30
0.0
 10
58.5525071504
 20
62.7003350303
 30
0.0
 10
58.4384788488
 20
62.8415456018
 30
0.0
  0
SPLINE
  5
25D
100
AcDbEntity
  8
0
100
AcDbSpline
 62
7
  6
BYLAYER
 70
0
 71
3
 72
11
 73
7
 74
0
 42
0.0000001
 43
0.0000001
 44
0.0000000001
 40
0.0
 40
0.0
 40
0.0
 40
0.0
 40
0.2400022658
 40
0.4874084224
 40
0.7411278743
 40
1.0
 40
1.0
 40
1.0
 40
1.0
 10
59.4954774896
 20
57.0133005668
 30
0.0
 10
59.4878678324
 20
57.4354141957
 30
0.0
 10
59.4461866167
 20
58.2923510822
 30
0.0
 10
59.3128932311
 20
59.5897234897
 30
0.0
 10
59.115715751
 20
60.9123869463
 30
0.0
 10
58.9488833256
 20
61.7987103148
 30
0.0
 10
58.8578637033
 20
62.2448969186
 30
0.0
  0
SPLINE
  5
25E
100
AcDbEntity
  8
0
100
AcDbSpline
 62
7
  6
BYLAYER
 70
0
 71
3
 72
11
 73
7
 74
0
 42
0.0000001
 43
0.0000001
 44
0.0000000001
 40
0.0
 40
0.0
 40
0.0
 40
0.0
 40
0.2254337502
 40
0.4690240968
 40
0.7281673259
 40
1.0
 40
1.0
 40
1.0
 40
1.0
 10
52.9651584794
 20
64.0874090125
 30
0.0
 10
53.3110922888
 20
64.05650765
 30
0.0
 10
54.0294427773
 20
63.9763126603
 30
0.0
 10
55.1395517995
 20
63.8134132663
 30
0.0
 10
56.315237277
 20
63.6083317486
 30
0.0
 10
57.1180264069
 20
63.4508399355
 30
0.0
 10
57.52834367
 20
63.3670005049
 30
0.0
  0
SPLINE
  5
25F
100
AcDbEntity
  8
0
100
AcDbSpline
 62
7
  6
BYLAYER
 70
0
 71
3
 72
11
 73
7
 74
0
 42
0.0000001
 43
0.0000001
 44
0.0000000001
 40
0.0
 40
0.0
 40
0.0
 40
0.0
 40
0.2254374116
 40
0.4690168635
 40
0.7281705112
 40
1.0
 40
1.0
 40
1.0
 40
1.0
 10
46.4739635064
 20
40.4419577844
 30
0.0
 10
46.1280241505
 20
40.4728596423
 30
0.0
 10
45.4096893077
 20
40.5530902344
 30
0.0
 10
44.2995676587
 20
40.7159342853
 30
0.0
 10
43.1238967043
 20
40.9210671004
 30
0.0
 10
42.3210906852
 20
41.0785278613
 30
0.0
 10
41.9107783158
 20
41.162366292
 30
0.0
  0
SPLINE
  5
260
100
AcDbEntity
  8
0
100
AcDbSpline
 62
7
  6
BYLAYER
 70
0
 71
3
 72
11
 73
7
 74
0
 42
0.0000001
 43
0.0000001
 44
0.0000000001
 40
0.0
 40
0.0
 40
0.0
 40
0.0
 40
0.2892857855
 40
0.550793194
 40
0.7865929402
 40
1.0
 40
1.0
 40
1.0
 40
1.0
 10
46.4739635064
 20
40.4419577844
 30
0.0
 10
46.7897076871
 20
40.4137531825
 30
0.0
 10
47.3920862262
 20
40.3721516129
 30
0.0
 10
48.2542861412
 20
40.3558727118
 30
0.0
 10
49.032981844
 20
40.3845363507
 30
0.0
 10
49.5232888645
 20
40.4319060982
 30
0.0
 10
49.7552437278
 20
40.4616407127
 30
0.0
  0
SPLINE
  5
261
100
AcDbEntity
  8
0
100
AcDbSpline
 62
7
  6
BYLAYER
 70
0
 71
3
 72
11
 73
7
 74
0
 42
0.0000001
 43
0.0000001
 44
0.0000000001
 40
0.0
 40
0.0
 40
0.0
 40
0.0
 40
0.2892659366
 40
0.5507874441
 40
0.7865751505
 40
1.0
 40
1.0
 40
1.0
 40
1.0
 10
55.1571986273
 20
62.8218626735
 30
0.0
 10
55.4729208915
 20
62.7936600293
 30
0.0
 10
56.0752945461
 20
62.7521055141
 30
0.0
 10
56.9374739796
 20
62.7357494922
 30
0.0
 10
57.7161874588
 20
62.7644925501
 30
0.0
 10
58.2065048351
 20
62.8118085324
 30
0.0
 10
58.4384788488
 20
62.8415456018
 30
0.0
  0
SPLINE
  5
262
100
AcDbEntity
  8
0
100
AcDbSpline
 62
7
  6
BYLAYER
 70
0
 71
3
 72
11
 73
7
 74
0
 42
0.0000001
 43
0.0000001
 44
0.0000000001
 40
0.0
 40
0.0
 40
0.0
 40
0.0
 40
0.2254337502
 40
0.4690240968
 40
0.7281673259
 40
1.0
 40
1.0
 40
1.0
 40
1.0
 10
55.1571986273
 20
62.8218626735
 30
0.0
 10
54.8112648179
 20
62.8527640359
 30
0.0
 10
54.0929143295
 20
62.9329590257
 30
0.0
 10
52.9828053072
 20
63.0958584197
 30
0.0
 10
51.8071198297
 20
63.3009399373
 30
0.0
 10
51.0043306998
 20
63.4584317504
 30
0.0
 10
50.5940134368
 20
63.542271181
 30
0.0
  0
SPLINE
  5
263
100
AcDbEntity
  8
0
100
AcDbSpline
 62
7
  6
BYLAYER
 70
0
 71
3
 72
9
 73
5
 74
0
 42
0.0000001
 43
0.0000001
 44
0.0000000001
 40
0.0
 40
0.0
 40
0.0
 40
0.0
 40
0.2536796095
 40
1.0
 40
1.0
 40
1.0
 40
1.0
 10
41.4913934613
 20
41.7590149752
 30
0.0
 10
41.5235613009
 20
41.706371396
 30
0.0
 10
41.6535972738
 20
41.5008493622
 30
0.0
 10
41.7967500141
 20
41.3035768635
 30
0.0
 10
41.9107783158
 20
41.162366292
 30
0.0
  0
SPLINE
  5
264
100
AcDbEntity
  8
0
100
AcDbSpline
 62
7
  6
BYLAYER
 70
0
 71
3
 72
11
 73
7
 74
0
 42
0.0000001
 43
0.0000001
 44
0.0000000001
 40
0.0
 40
0.0
 40
0.0
 40
0.0
 40
0.2642263448
 40
0.5183038317
 40
0.763120426
 40
1.0
 40
1.0
 40
1.0
 40
1.0
 10
42.1323459459
 20
46.6186720194
 30
0.0
 10
42.1323459459
 20
46.1857609492
 30
0.0
 10
42.1047965019
 20
45.3362362126
 30
0.0
 10
41.9773957758
 20
44.0914675249
 30
0.0
 10
41.773627021
 20
42.9024520668
 30
0.0
 10
41.5914581644
 20
42.1339992484
 30
0.0
 10
41.4913934613
 20
41.7590149752
 30
0.0
  0
SPLINE
  5
265
100
AcDbEntity
  8
0
100
AcDbSpline
 62
7
  6
BYLAYER
 70
0
 71
3
 72
11
 73
7
 74
0
 42
0.0000001
 43
0.0000001
 44
0.0000000001
 40
0.0
 40
0.0
 40
0.0
 40
0.0
 40
0.2389313824
 40
0.4860655695
 40
0.7402090592
 40
1.0
 40
1.0
 40
1.0
 40
1.0
 10
42.1323459459
 20
46.6186720194
 30
0.0
 10
42.1323459459
 20
47.068281842
 30
0.0
 10
42.1014701723
 20
47.9831443064
 30
0.0
 10
41.971878895
 20
49.3706536958
 30
0.0
 10
41.7669070397
 20
50.7885561559
 30
0.0
 10
41.5891063257
 20
51.7394230043
 30
0.0
 10
41.4913934613
 20
52.2184204995
 30
0.0
  0
SPLINE
  5
266
100
AcDbEntity
  8
0
100
AcDbSpline
 62
7
  6
BYLAYER
 70
0
 71
3
 72
25
 73
21
 74
0
 42
0.0000001
 43
0.0000001
 44
0.0000000001
 40
0.0
 40
0.0
 40
0.0
 40
0.0
 40
0.0742848115
 40
0.1447446559
 40
0.2113478235
 40
0.2432763931
 40
0.2743325806
 40
0.3340087879
 40
0.3909737915
 40
0.4459946789
 40
0.4999979722
 40
0.5540013114
 40
0.6090228863
 40
0.6659883049
 40
0.7256638802
 40
0.7567201274
 40
0.7886510489
 40
0.8552582516
 40
0.9257013237
 40
1.0
 40
1.0
 40
1.0
 40
1.0
 10
50.8155810668
 20
44.2833884748
 30
0.0
 10
50.6126072898
 20
44.1662022095
 30
0.0
 10
50.2073747399
 20
43.9540783815
 30
0.0
 10
49.58932746
 20
43.7010912541
 30
0.0
 10
49.0762756536
 20
43.5515256694
 30
0.0
 10
48.6748702214
 20
43.4725666098
 30
0.0
 10
48.2910384159
 20
43.4215777536
 30
0.0
 10
47.8237361179
 20
43.4053148133
 30
0.0
 10
47.2834070673
 20
43.4655654456
 30
0.0
 10
46.7763865686
 20
43.6058226698
 30
0.0
 10
46.3082934284
 20
43.824975718
 30
0.0
 10
45.8844423865
 20
44.1207719659
 30
0.0
 10
45.5094982827
 20
44.4897737493
 30
0.0
 10
45.1871407329
 20
44.9275750871
 30
0.0
 10
44.96756738
 20
45.340399624
 30
0.0
 10
44.8198094024
 20
45.6983087544
 30
0.0
 10
44.6875138595
 20
46.0854463085
 30
0.0
 10
44.5605130317
 20
46.6045076275
 30
0.0
 10
44.4705356654
 20
47.2662449413
 30
0.0
 10
44.4516608733
 20
47.723241588
 30
0.0
 10
44.451659104
 20
47.9576589122
 30
0.0
  0
SPLINE
  5
267
100
AcDbEntity
  8
0
100
AcDbSpline
 62
7
  6
BYLAYER
 70
0
 71
3
 72
38
 73
34
 74
0
 42
0.0000001
 43
0.0000001
 44
0.0000000001
 40
0.0
 40
0.0
 40
0.0
 40
0.0
 40
0.0309874602
 40
0.0603793503
 40
0.0881624437
 40
0.1014812436
 40
0.1144361335
 40
0.1393296786
 40
0.1630922626
 40
0.1860438766
 40
0.208571019
 40
0.231098197
 40
0.2540501455
 40
0.2778129776
 40
0.3027063553
 40
0.3156613241
 40
0.328981162
 40
0.3567660586
 40
0.3861510752
 40
0.4171444402
 40
0.4496955153
 40
0.4837056307
 40
0.5190348668
 40
0.5555102892
 40
0.5929332188
 40
0.6310838685
 40
0.7085893259
 40
0.7860948045
 40
0.8616342962
 40
0.8981095333
 40
0.9334368107
 40
0.9674540644
 40
1.0
 40
1.0
 40
1.0
 40
1.0
 10
50.8155810668
 20
58.9804319831
 30
0.0
 10
51.018555785
 20
59.0976187918
 30
0.0
 10
51.4237902061
 20
59.3097435016
 30
0.0
 10
52.0418403695
 20
59.5627313172
 30
0.0
 10
52.5548945186
 20
59.7122968677
 30
0.0
 10
52.9563016923
 20
59.7912554916
 30
0.0
 10
53.3401350578
 20
59.8422436681
 30
0.0
 10
53.8074391522
 20
59.8585052949
 30
0.0
 10
54.3477700178
 20
59.7982522911
 30
0.0
 10
54.8547918619
 20
59.6579919339
 30
0.0
 10
55.3228857909
 20
59.438835036
 30
0.0
 10
55.7467370028
 20
59.1430343133
 30
0.0
 10
56.1216806158
 20
58.7740275049
 30
0.0
 10
56.4440370016
 20
58.3362207496
 30
0.0
 10
56.6636088239
 20
57.9233913907
 30
0.0
 10
56.8113652762
 20
57.5654786168
 30
0.0
 10
56.9436590631
 20
57.1783357936
 30
0.0
 10
57.0706572608
 20
56.6592783467
 30
0.0
 10
57.1606307611
 20
55.9974940611
 30
0.0
 10
57.1896772938
 20
55.2942797411
 30
0.0
 10
57.1576530844
 20
54.5563205596
 30
0.0
 10
57.064894038
 20
53.7905634991
 30
0.0
 10
56.9123215391
 20
53.0042682524
 30
0.0
 10
56.7014357441
 20
52.2049075223
 30
0.0
 10
56.434213935
 20
51.4000732288
 30
0.0
 10
56.0040396087
 20
50.3245340766
 30
0.0
 10
55.3440180306
 20
49.0172262664
 30
0.0
 10
54.3869768399
 20
47.5554118334
 30
0.0
 10
53.4669364127
 20
46.4512070685
 30
0.0
 10
52.6754695226
 20
45.6657131574
 30
0.0
 10
52.0707478312
 20
45.1403902692
 30
0.0
 10
51.4539831866
 20
44.6772412943
 30
0.0
 10
51.0287641437
 20
44.4064690469
 30
0.0
 10
50.8155810668
 20
44.2833884748
 30
0.0
  0
SPLINE
  5
268
100
AcDbEntity
  8
0
100
AcDbSpline
 62
7
  6
BYLAYER
 70
0
 71
3
 72
11
 73
7
 74
0
 42
0.0000001
 43
0.0000001
 44
0.0000000001
 40
0.0
 40
0.0
 40
0.0
 40
0.0
 40
0.2234035249
 40
0.4632869182
 40
0.7219272534
 40
1.0
 40
1.0
 40
1.0
 40
1.0
 10
55.1571986273
 20
62.8218626735
 30
0.0
 10
54.8189721708
 20
62.8520755583
 30
0.0
 10
54.1098713077
 20
62.8421215731
 30
0.0
 10
53.0277888687
 20
62.6344992701
 30
0.0
 10
51.9112885684
 20
62.2398280492
 30
0.0
 10
51.1816248921
 20
61.8698941508
 30
0.0
 10
50.8155810668
 20
61.6585599113
 30
0.0
  0
SPLINE
  5
269
100
AcDbEntity
  8
0
100
AcDbSpline
 62
7
  6
BYLAYER
 70
0
 71
3
 72
11
 73
7
 74
0
 42
0.0000001
 43
0.0000001
 44
0.0000000001
 40
0.0
 40
0.0
 40
0.0
 40
0.0
 40
0.232065918
 40
0.4774810713
 40
0.7342754496
 40
1.0
 40
1.0
 40
1.0
 40
1.0
 10
50.8155810668
 20
61.6585599113
 30
0.0
 10
50.4248143549
 20
61.4329519916
 30
0.0
 10
49.6473727787
 20
60.9216909161
 30
0.0
 10
48.536990933
 20
60.0211219768
 30
0.0
 10
47.4653329256
 20
58.9787907978
 30
0.0
 10
46.7976629655
 20
58.2113133987
 30
0.0
 10
46.4739635064
 20
57.8086244639
 30
0.0
  0
SPLINE
  5
26A
100
AcDbEntity
  8
0
100
AcDbSpline
 62
7
  6
BYLAYER
 70
0
 71
3
 72
15
 73
11
 74
0
 42
0.0000001
 43
0.0000001
 44
0.0000000001
 40
0.0
 40
0.0
 40
0.0
 40
0.0
 40
0.129847411
 40
0.2611866596
 40
0.3925260486
 40
0.5223738886
 40
0.6492905064
 40
0.7719421396
 40
0.8891589506
 40
1.0
 40
1.0
 40
1.0
 40
1.0
 10
46.4739635064
 20
57.8086244639
 30
0.0
 10
46.1427871329
 20
57.3966340906
 30
0.0
 10
45.5093785521
 20
56.5410563861
 30
0.0
 10
44.6581922319
 20
55.1870015087
 30
0.0
 10
43.9111022746
 20
53.7727247956
 30
0.0
 10
43.2808267496
 20
52.3222441567
 30
0.0
 10
42.7779959787
 20
50.8600540529
 30
0.0
 10
42.4111103318
 20
49.4107228846
 30
0.0
 10
42.1863923104
 20
47.9988233582
 30
0.0
 10
42.1323459459
 20
47.0698950987
 30
0.0
 10
42.1323459459
 20
46.6186720194
 30
0.0
  0
SPLINE
  5
26B
100
AcDbEntity
  8
0
100
AcDbSpline
 62
7
  6
BYLAYER
 70
0
 71
3
 72
19
 73
15
 74
0
 42
0.0000001
 43
0.0000001
 44
0.0000000001
 40
0.0
 40
0.0
 40
0.0
 40
0.0
 40
0.151814537
 40
0.2930199882
 40
0.4239849096
 40
0.5459524373
 40
0.6042922699
 40
0.661293991
 40
0.7173721011
 40
0.7729769439
 40
0.8285792166
 40
0.8846596827
 40
0.9416738691
 40
1.0
 40
1.0
 40
1.0
 40
1.0
 10
42.1323459459
 20
46.6186720194
 30
0.0
 10
42.1323459459
 20
46.1959957753
 30
0.0
 10
42.1768074989
 20
45.3791007562
 30
0.0
 10
42.39323379
 20
44.2148673458
 30
0.0
 10
42.754536729
 20
43.1738039805
 30
0.0
 10
43.1800430828
 20
42.4122721232
 30
0.0
 10
43.5868777142
 20
41.890342981
 30
0.0
 10
43.9189145013
 20
41.5461998118
 30
0.0
 10
44.2809133486
 20
41.2454757063
 30
0.0
 10
44.6711884298
 20
40.9894642712
 30
0.0
 10
45.088024873
 20
40.7794487317
 30
0.0
 10
45.5295105115
 20
40.616303634
 30
0.0
 10
45.9935107083
 20
40.5008383393
 30
0.0
 10
46.3122181488
 20
40.4564060742
 30
0.0
 10
46.4739635064
 20
40.4419577844
 30
0.0
  0
SPLINE
  5
26C
100
AcDbEntity
  8
0
100
AcDbSpline
 62
7
  6
BYLAYER
 70
0
 71
3
 72
11
 73
7
 74
0
 42
0.0000001
 43
0.0000001
 44
0.0000000001
 40
0.0
 40
0.0
 40
0.0
 40
0.0
 40
0.2255266199
 40
0.466170893
 40
0.7240231415
 40
1.0
 40
1.0
 40
1.0
 40
1.0
 10
46.4739635064
 20
40.4419577844
 30
0.0
 10
46.7841250286
 20
40.4142518668
 30
0.0
 10
47.4316629624
 20
40.4178038431
 30
0.0
 10
48.4207116317
 20
40.58631152
 30
0.0
 10
49.4418805192
 20
40.9139245512
 30
0.0
 10
50.1123614328
 20
41.2246368857
 30
0.0
 10
50.4492538355
 20
41.4027016132
 30
0.0
  0
SPLINE
  5
26D
100
AcDbEntity
  8
0
100
AcDbSpline
 62
7
  6
BYLAYER
 70
0
 71
3
 72
19
 73
15
 74
0
 42
0.0000001
 43
0.0000001
 44
0.0000000001
 40
0.0
 40
0.0
 40
0.0
 40
0.0
 40
0.1501706093
 40
0.2900449499
 40
0.4202041764
 40
0.5419907986
 40
0.6004797877
 40
0.6577804083
 40
0.7142887314
 40
0.7704287541
 40
0.826641387
 40
0.8833734972
 40
0.9410439726
 40
1.0
 40
1.0
 40
1.0
 40
1.0
 10
59.4910642371
 20
57.0639588594
 30
0.0
 10
59.4762158877
 20
57.4608376582
 30
0.0
 10
59.4056678393
 20
58.2268407079
 30
0.0
 10
59.1607602064
 20
59.3144313287
 30
0.0
 10
58.7833391941
 20
60.2841453498
 30
0.0
 10
58.3552533875
 20
60.9908201981
 30
0.0
 10
57.9529598767
 20
61.4746910709
 30
0.0
 10
57.6267236497
 20
61.7940468725
 30
0.0
 10
57.2732805027
 20
62.0731022475
 30
0.0
 10
56.8941362476
 20
62.3107623385
 30
0.0
 10
56.4908209031
 20
62.5059367212
 30
0.0
 10
56.0650278948
 20
62.6578871915
 30
0.0
 10
55.6186527908
 20
62.7659217188
 30
0.0
 10
55.3125013525
 20
62.8079898872
 30
0.0
 10
55.1571986273
 20
62.8218626735
 30
0.0
  0
SPLINE
  5
26E
100
AcDbEntity
  8
0
100
AcDbSpline
 62
7
  6
BYLAYER
 70
0
 71
3
 72
11
 73
7
 74
0
 42
0.0000001
 43
0.0000001
 44
0.0000000001
 40
0.0
 40
0.0
 40
0.0
 40
0.0
 40
0.2477598621
 40
0.4973837094
 40
0.7482957076
 40
1.0
 40
1.0
 40
1.0
 40
1.0
 10
46.4739635064
 20
57.8086244639
 30
0.0
 10
46.141437124
 20
57.3949546511
 30
0.0
 10
45.4473762177
 20
56.585452961
 30
0.0
 10
44.3320979776
 20
55.4328852573
 30
0.0
 10
43.1508134735
 20
54.3358682189
 30
0.0
 10
42.3287859497
 20
53.6399281459
 30
0.0
 10
41.9107783158
 20
53.2993302093
 30
0.0
  0
SPLINE
  5
26F
100
AcDbEntity
  8
0
100
AcDbSpline
 62
7
  6
BYLAYER
 70
0
 71
3
 72
11
 73
7
 74
0
 42
0.0000001
 43
0.0000001
 44
0.0000000001
 40
0.0
 40
0.0
 40
0.0
 40
0.0
 40
0.2542110404
 40
0.5056148335
 40
0.7541517963
 40
1.0
 40
1.0
 40
1.0
 40
1.0
 10
46.4739635064
 20
57.8086244639
 30
0.0
 10
46.8032805048
 20
58.2183017356
 30
0.0
 10
47.4328009221
 20
59.0540045853
 30
0.0
 10
48.2919888938
 20
60.3563924411
 30
0.0
 10
49.0657050836
 20
61.6911685335
 30
0.0
 10
49.5328894708
 20
62.6008835716
 30
0.0
 10
49.7552437278
 20
63.0580101544
 30
0.0
  0
SPLINE
  5
270
100
AcDbEntity
  8
0
100
AcDbSpline
 62
7
  6
BYLAYER
 70
0
 71
3
 72
24
 73
20
 74
0
 42
0.0000001
 43
0.0000001
 44
0.0000000001
 40
0.0
 40
0.0
 40
0.0
 40
0.0
 40
0.0213339494
 40
0.042896151
 40
0.0874749523
 40
0.1352545276
 40
0.1871596583
 40
0.2436012989
 40
0.3045534533
 40
0.3696461525
 40
0.4382484978
 40
0.5095398666
 40
0.5825694383
 40
0.656306294
 40
0.7296873238
 40
0.801670187
 40
0.8712632023
 40
0.9376185934
 40
1.0
 40
1.0
 40
1.0
 40
1.0
 10
10.8616374882
 20
66.0386279612
 30
0.0
 10
10.7694976522
 20
66.0918351801
 30
0.0
 10
10.5908725448
 20
66.2108408026
 30
0.0
 10
10.2604610243
 20
66.4971931381
 30
0.0
 10
9.9041845456
 20
66.9471580432
 30
0.0
 10
9.589275997
 20
67.5993263017
 30
0.0
 10
9.385107289
 20
68.3546702286
 30
0.0
 10
9.2942575645
 20
69.19702111
 30
0.0
 10
9.3174560293
 20
70.1091463974
 30
0.0
 10
9.4537868801
 20
71.07220259
 30
0.0
 10
9.7001688071
 20
72.0660694607
 30
0.0
 10
10.0513151317
 20
73.0697790515
 30
0.0
 10
10.4997499484
 20
74.0620212692
 30
0.0
 10
11.0359147851
 20
75.0216487055
 30
0.0
 10
11.6483868578
 20
75.9282019836
 30
0.0
 10
12.324104437
 20
76.7622897189
 30
0.0
 10
13.0487255026
 20
77.5063576059
 30
0.0
 10
13.8068224004
 20
78.1442746121
 30
0.0
 10
14.3421288118
 20
78.5020479359
 30
0.0
 10
14.6115631393
 20
78.6576049889
 30
0.0
  0
SPLINE
  5
271
100
AcDbEntity
  8
0
100
AcDbSpline
 62
7
  6
BYLAYER
 70
0
 71
3
 72
15
 73
11
 74
0
 42
0.0000001
 43
0.0000001
 44
0.0000000001
 40
0.0
 40
0.0
 40
0.0
 40
0.0
 40
0.1485537913
 40
0.2895072603
 40
0.4227299923
 40
0.5486372184
 40
0.6679981872
 40
0.7819376114
 40
0.8919872626
 40
1.0
 40
1.0
 40
1.0
 40
1.0
 10
31.1225752215
 20
70.3499369965
 30
0.0
 10
31.3255120125
 20
70.467101908
 30
0.0
 10
31.7307428976
 20
70.6791901556
 30
0.0
 10
32.3488146859
 20
70.9322439811
 30
0.0
 10
32.9559472971
 20
71.1092231773
 30
0.0
 10
33.5462712136
 20
71.2082286054
 30
0.0
 10
34.1143525432
 20
71.2280167518
 30
0.0
 10
34.6547345395
 20
71.1677263976
 30
0.0
 10
35.1616615711
 20
71.027596444
 30
0.0
 10
35.4749322709
 20
70.8808567795
 30
0.0
 10
35.6224873397
 20
70.7956679861
 30
0.0
  0
SPLINE
  5
272
100
AcDbEntity
  8
0
100
AcDbSpline
 62
7
  6
BYLAYER
 70
0
 71
3
 72
15
 73
11
 74
0
 42
0.0000001
 43
0.0000001
 44
0.0000000001
 40
0.0
 40
0.0
 40
0.0
 40
0.0
 40
0.1141539545
 40
0.2373247699
 40
0.3669740516
 40
0.4999987384
 40
0.6330208144
 40
0.7626722602
 40
0.8858423961
 40
1.0
 40
1.0
 40
1.0
 40
1.0
 10
24.7586574481
 20
60.4294347278
 30
0.0
 10
24.7586546504
 20
60.8570346
 30
0.0
 10
24.8369657236
 20
61.7468408875
 30
0.0
 10
25.1491779713
 20
63.0892169519
 30
0.0
 10
25.6493316355
 20
64.4489495714
 30
0.0
 10
26.3187445658
 20
65.7748926218
 30
0.0
 10
27.132317039
 20
67.0176173498
 30
0.0
 10
28.0597901862
 20
68.1306342336
 30
0.0
 10
29.066204376
 20
69.0722465228
 30
0.0
 10
29.7976523493
 20
69.584977938
 30
0.0
 10
30.1679770926
 20
69.798783752
 30
0.0
  0
SPLINE
  5
273
100
AcDbEntity
  8
0
100
AcDbSpline
 62
7
  6
BYLAYER
 70
0
 71
3
 72
15
 73
11
 74
0
 42
0.0000001
 43
0.0000001
 44
0.0000000001
 40
0.0
 40
0.0
 40
0.0
 40
0.0
 40
0.1080127374
 40
0.2180623886
 40
0.3320018128
 40
0.4513627816
 40
0.5772700077
 40
0.7104927397
 40
0.8514462087
 40
1.0
 40
1.0
 40
1.0
 40
1.0
 10
61.4831725531
 20
35.0808933007
 30
0.0
 10
61.6307276219
 20
34.9957045074
 30
0.0
 10
61.9439983217
 20
34.8489648428
 30
0.0
 10
62.4509253532
 20
34.7088348892
 30
0.0
 10
62.9913073495
 20
34.648544535
 30
0.0
 10
63.5593886792
 20
34.6683326814
 30
0.0
 10
64.1497125956
 20
34.7673381095
 30
0.0
 10
64.7568452068
 20
34.9443173057
 30
0.0
 10
65.3749169951
 20
35.1973711312
 30
0.0
 10
65.7801478803
 20
35.4094593788
 30
0.0
 10
65.9830846712
 20
35.5266242903
 30
0.0
  0
SPLINE
  5
274
100
AcDbEntity
  8
0
100
AcDbSpline
 62
7
  6
BYLAYER
 70
0
 71
3
 72
15
 73
11
 74
0
 42
0.0000001
 43
0.0000001
 44
0.0000000001
 40
0.0
 40
0.0
 40
0.0
 40
0.0
 40
0.1485414819
 40
0.289505075
 40
0.422735057
 40
0.5486406284
 40
0.667998334
 40
0.7819398885
 40
0.891987896
 40
1.0
 40
1.0
 40
1.0
 40
1.0
 10
14.6115631393
 20
78.6576049889
 30
0.0
 10
14.7806628872
 20
78.755234191
 30
0.0
 10
15.1183580475
 20
78.9319603159
 30
0.0
 10
15.6334153411
 20
79.1428617602
 30
0.0
 10
16.1393810118
 20
79.2903369351
 30
0.0
 10
16.6313184271
 20
79.3728675446
 30
0.0
 10
17.1047143393
 20
79.3892993352
 30
0.0
 10
17.5550370557
 20
79.3391195173
 30
0.0
 10
17.9774576637
 20
79.2222846145
 30
0.0
 10
18.2385338328
 20
79.1000475285
 30
0.0
 10
18.3614887904
 20
79.0290457595
 30
0.0
  0
SPLINE
  5
275
100
AcDbEntity
  8
0
100
AcDbSpline
 62
7
  6
BYLAYER
 70
0
 71
3
 72
15
 73
11
 74
0
 42
0.0000001
 43
0.0000001
 44
0.0000000001
 40
0.0
 40
0.0
 40
0.0
 40
0.0
 40
0.1141556577
 40
0.2373238342
 40
0.366974349
 40
0.4999966278
 40
0.633022703
 40
0.7626737699
 40
0.8858458034
 40
1.0
 40
1.0
 40
1.0
 40
1.0
 10
66.9376828002
 20
36.0777775348
 30
0.0
 10
67.3080012275
 20
36.2915797023
 30
0.0
 10
68.0394381541
 20
36.8043010739
 30
0.0
 10
69.0458413574
 20
37.7458984117
 30
0.0
 10
69.9733130377
 20
38.8589032988
 30
0.0
 10
70.7868914563
 20
40.1016271524
 30
0.0
 10
71.4563145673
 20
41.4275792754
 30
0.0
 10
71.9564769773
 20
42.7873263679
 30
0.0
 10
72.2686930744
 20
44.1297140143
 30
0.0
 10
72.3470058051
 20
45.0195257616
 30
0.0
 10
72.3470024446
 20
45.4471265379
 30
0.0
  0
SPLINE
  5
276
100
AcDbEntity
  8
0
100
AcDbSpline
 62
7
  6
BYLAYER
 70
0
 71
3
 72
15
 73
11
 74
0
 42
0.0000001
 43
0.0000001
 44
0.0000000001
 40
0.0
 40
0.0
 40
0.0
 40
0.0
 40
0.1486038014
 40
0.2894995094
 40
0.4227218091
 40
0.5486417594
 40
0.6680005986
 40
0.7819375654
 40
0.8919874544
 40
1.0
 40
1.0
 40
1.0
 40
1.0
 10
72.347019206
 20
46.5494046199
 30
0.0
 10
72.3470175112
 20
46.7838206828
 30
0.0
 10
72.3281082248
 20
47.2408080177
 30
0.0
 10
72.2381523763
 20
47.902597103
 30
0.0
 10
72.0878644629
 20
48.5168216828
 30
0.0
 10
71.8784634839
 20
49.0776027343
 30
0.0
 10
71.6115305587
 20
49.5794877164
 30
0.0
 10
71.2891098547
 20
50.0173231224
 30
0.0
 10
70.9142829626
 20
50.3862770194
 30
0.0
 10
70.6305555644
 20
50.5842078552
 30
0.0
 10
70.4829967894
 20
50.6693987883
 30
0.0
  0
SPLINE
  5
277
100
AcDbEntity
  8
0
100
AcDbSpline
 62
7
  6
BYLAYER
 70
0
 71
3
 72
15
 73
11
 74
0
 42
0.0000001
 43
0.0000001
 44
0.0000000001
 40
0.0
 40
0.0
 40
0.0
 40
0.0
 40
0.1080125456
 40
0.2180624346
 40
0.3319994014
 40
0.4513582406
 40
0.5772781909
 40
0.7105004906
 40
0.8513961986
 40
1.0
 40
1.0
 40
1.0
 40
1.0
 10
26.6226631033
 20
55.2071624985
 30
0.0
 10
26.4751043283
 20
55.2923534316
 30
0.0
 10
26.1913769301
 20
55.4902842674
 30
0.0
 10
25.816550038
 20
55.8592381644
 30
0.0
 10
25.494129334
 20
56.2970735704
 30
0.0
 10
25.2271964089
 20
56.7989585525
 30
0.0
 10
25.0177954299
 20
57.359739604
 30
0.0
 10
24.8675075164
 20
57.9739641838
 30
0.0
 10
24.777551668
 20
58.6357532691
 30
0.0
 10
24.7586423816
 20
59.0927406041
 30
0.0
 10
24.7586406868
 20
59.3271566669
 30
0.0
  0
SPLINE
  5
278
100
AcDbEntity
  8
0
100
AcDbSpline
 62
7
  6
BYLAYER
 70
0
 71
3
 72
30
 73
26
 74
0
 42
0.0000001
 43
0.0000001
 44
0.0000000001
 40
0.0
 40
0.0
 40
0.0
 40
0.0
 40
0.0662125365
 40
0.1374211157
 40
0.2123578987
 40
0.2894646826
 40
0.3670322355
 40
0.4433151662
 40
0.5166585381
 40
0.5856248893
 40
0.6491394274
 40
0.6786888328
 40
0.7067348037
 40
0.7333299814
 40
0.7585937518
 40
0.7827097338
 40
0.8059337304
 40
0.8285807079
 40
0.8510114303
 40
0.8736035709
 40
0.8967223185
 40
0.9206930735
 40
0.945776076
 40
0.9721669277
 40
1.0
 40
1.0
 40
1.0
 40
1.0
 10
66.9376828002
 20
48.5702645169
 30
0.0
 10
66.5910159502
 20
48.3701175125
 30
0.0
 10
65.9051930104
 20
47.8949510605
 30
0.0
 10
64.9544007837
 20
47.0277451179
 30
0.0
 10
64.069296151
 20
46.004878734
 30
0.0
 10
63.2793079414
 20
44.8602664555
 30
0.0
 10
62.6104183104
 20
43.6316584692
 30
0.0
 10
62.0847963327
 20
42.3597526712
 30
0.0
 10
61.7197945383
 20
41.0863789569
 30
0.0
 10
61.5275433704
 20
39.8535188906
 30
0.0
 10
61.5165795086
 20
38.8693653425
 30
0.0
 10
61.6057583283
 20
38.1416813994
 30
0.0
 10
61.7162294274
 20
37.6439149179
 30
0.0
 10
61.8712623304
 20
37.1853098863
 30
0.0
 10
62.0695918681
 20
36.7696770578
 30
0.0
 10
62.3100257644
 20
36.4007823983
 30
0.0
 10
62.5905496624
 20
36.0819258131
 30
0.0
 10
62.9090361227
 20
35.8164306963
 30
0.0
 10
63.2624028937
 20
35.6068017437
 30
0.0
 10
63.6473486094
 20
35.4553148198
 30
0.0
 10
64.0600222875
 20
35.3630224141
 30
0.0
 10
64.4965800632
 20
35.3307086061
 30
0.0
 10
64.9531157818
 20
35.3580134875
 30
0.0
 10
65.425728973
 20
35.4446057215
 30
0.0
 10
65.7404913785
 20
35.5386069152
 30
0.0
 10
65.8992369496
 20
35.5944103085
 30
0.0
  0
SPLINE
  5
279
100
AcDbEntity
  8
0
100
AcDbSpline
 62
7
  6
BYLAYER
 70
0
 71
3
 72
9
 73
5
 74
0
 42
0.0000001
 43
0.0000001
 44
0.0000000001
 40
0.0
 40
0.0
 40
0.0
 40
0.0
 40
0.2404202348
 40
1.0
 40
1.0
 40
1.0
 40
1.0
 10
65.8992369496
 20
35.5944103085
 30
0.0
 10
65.9859084096
 20
35.6248776881
 30
0.0
 10
66.3430610844
 20
35.7610608058
 30
0.0
 10
66.6863147359
 20
35.9326509816
 30
0.0
 10
66.9376828002
 20
36.0777775348
 30
0.0
  0
SPLINE
  5
27A
100
AcDbEntity
  8
0
100
AcDbSpline
 62
7
  6
BYLAYER
 70
0
 71
3
 72
9
 73
5
 74
0
 42
0.0000001
 43
0.0000001
 44
0.0000000001
 40
0.0
 40
0.0
 40
0.0
 40
0.0
 40
0.2437789818
 40
1.0
 40
1.0
 40
1.0
 40
1.0
 10
24.7586406868
 20
59.3271566669
 30
0.0
 10
24.7586400446
 20
59.4159887308
 30
0.0
 10
24.7643761363
 20
59.7803730914
 30
0.0
 10
24.7923165488
 20
60.1443174182
 30
0.0
 10
24.824306804
 20
60.4180180881
 30
0.0
  0
SPLINE
  5
27B
100
AcDbEntity
  8
0
100
AcDbSpline
 62
7
  6
BYLAYER
 70
0
 71
3
 72
15
 73
11
 74
0
 42
0.0000001
 43
0.0000001
 44
0.0000000001
 40
0.0
 40
0.0
 40
0.0
 40
0.0
 40
0.1177212434
 40
0.2416416096
 40
0.3698813416
 40
0.5003178569
 40
0.6307105087
 40
0.7588243541
 40
0.8825349454
 40
1.0
 40
1.0
 40
1.0
 40
1.0
 10
24.824306804
 20
60.4180180881
 30
0.0
 10
24.8748110853
 20
60.8501201627
 30
0.0
 10
25.0341938717
 20
61.7311582988
 30
0.0
 10
25.421083376
 20
63.0444903062
 30
0.0
 10
25.9532451763
 20
64.3568174074
 30
0.0
 10
26.6170983707
 20
65.634526052
 30
0.0
 10
27.3957231168
 20
66.84516748
 30
0.0
 10
28.2693772253
 20
67.9579001278
 30
0.0
 10
29.2156504094
 20
68.9443749061
 30
0.0
 10
29.9001673372
 20
69.5188512578
 30
0.0
 10
30.2495876793
 20
69.7764273556
 30
0.0
  0
SPLINE
  5
27C
100
AcDbEntity
  8
0
100
AcDbSpline
 62
7
  6
BYLAYER
 70
0
 71
3
 72
9
 73
5
 74
0
 42
0.0000001
 43
0.0000001
 44
0.0000000001
 40
0.0
 40
0.0
 40
0.0
 40
0.0
 40
0.2561000868
 40
1.0
 40
1.0
 40
1.0
 40
1.0
 10
30.2495876793
 20
69.7764273556
 30
0.0
 10
30.3213821306
 20
69.8293508189
 30
0.0
 10
30.6043903299
 20
70.0323365294
 30
0.0
 10
30.8982049407
 20
70.2203975278
 30
0.0
 10
31.1225752215
 20
70.3499369965
 30
0.0
  0
SPLINE
  5
27D
100
AcDbEntity
  8
0
100
AcDbSpline
 62
7
  6
BYLAYER
 70
0
 71
3
 72
9
 73
5
 74
0
 42
0.0000001
 43
0.0000001
 44
0.0000000001
 40
0.0
 40
0.0
 40
0.0
 40
0.0
 40
0.2596167578
 40
1.0
 40
1.0
 40
1.0
 40
1.0
 10
72.3470024446
 20
45.4471265379
 30
0.0
 10
72.3470016862
 20
45.5436210214
 30
0.0
 10
72.3395627383
 20
45.9152198394
 30
0.0
 10
72.3012612031
 20
46.2865424946
 30
0.0
 10
72.2520783349
 20
46.5572977036
 30
0.0
  0
SPLINE
  5
27E
100
AcDbEntity
  8
0
100
AcDbSpline
 62
7
  6
BYLAYER
 70
0
 71
3
 72
20
 73
16
 74
0
 42
0.0000001
 43
0.0000001
 44
0.0000000001
 40
0.0
 40
0.0
 40
0.0
 40
0.0
 40
0.1338938931
 40
0.1961738173
 40
0.2557568249
 40
0.3131775487
 40
0.369093564
 40
0.4242665565
 40
0.4795078488
 40
0.5356271969
 40
0.5933722962
 40
0.7159337167
 40
0.7818453627
 40
0.851145439
 40
1.0
 40
1.0
 40
1.0
 40
1.0
 10
72.2520783349
 20
46.5572977036
 30
0.0
 10
72.1968216183
 20
46.8614898823
 30
0.0
 10
72.0766135074
 20
47.3025898334
 30
0.0
 10
71.8262538012
 20
47.8386927153
 30
0.0
 10
71.6057917143
 20
48.1904716093
 30
0.0
 10
71.3498579719
 20
48.4985880478
 30
0.0
 10
71.0601323852
 20
48.7603912292
 30
0.0
 10
70.7389818369
 20
48.9736592186
 30
0.0
 10
70.3890364384
 20
49.1364850155
 30
0.0
 10
70.0132406687
 20
49.2475971873
 30
0.0
 10
69.4716478536
 20
49.3274247788
 30
0.0
 10
68.8973466046
 20
49.2956603262
 30
0.0
 10
68.3154265982
 20
49.1677311226
 30
0.0
 10
67.6909799865
 20
48.9639096338
 30
0.0
 10
67.2353494803
 20
48.7421214289
 30
0.0
 10
66.9376828002
 20
48.5702645169
 30
0.0
  0
SPLINE
  5
27F
100
AcDbEntity
  8
0
100
AcDbSpline
 62
7
  6
BYLAYER
 70
0
 71
3
 72
25
 73
21
 74
0
 42
0.0000001
 43
0.0000001
 44
0.0000000001
 40
0.0
 40
0.0
 40
0.0
 40
0.0
 40
0.0623787446
 40
0.1287240373
 40
0.1983128824
 40
0.270290269
 40
0.3436669005
 40
0.4173986337
 40
0.4904231847
 40
0.5617097966
 40
0.6303070788
 40
0.6953948417
 40
0.75634292
 40
0.812780939
 40
0.8646821354
 40
0.9124572753
 40
0.9351019417
 40
0.9571073388
 40
0.9786679162
 40
1.0
 40
1.0
 40
1.0
 40
1.0
 10
65.9830846712
 20
50.2236677986
 30
0.0
 10
65.6597524839
 20
50.0369929875
 30
0.0
 10
65.0173888452
 20
49.6076890815
 30
0.0
 10
64.107695692
 20
48.842177204
 30
0.0
 10
63.2381509039
 20
47.9493277001
 30
0.0
 10
62.4272920948
 20
46.9484006895
 30
0.0
 10
61.6923186611
 20
45.8605296361
 30
0.0
 10
61.0488951677
 20
44.7089749753
 30
0.0
 10
60.5107628619
 20
43.5182766172
 30
0.0
 10
60.0893909944
 20
42.3138136833
 30
0.0
 10
59.793747241
 20
41.121164804
 30
0.0
 10
59.6301682453
 20
39.9654857419
 30
0.0
 10
59.6022940206
 20
38.8709474468
 30
0.0
 10
59.7113696683
 20
37.8600527906
 30
0.0
 10
59.9561374462
 20
36.9538483018
 30
0.0
 10
60.277261923
 20
36.2896513515
 30
0.0
 10
60.5980298429
 20
35.8376401005
 30
0.0
 10
60.864074101
 20
35.5426157
 30
0.0
 10
61.1582321645
 20
35.2874792892
 30
0.0
 10
61.3725999071
 20
35.1447308249
 30
0.0
 10
61.4831725531
 20
35.0808933007
 30
0.0
  0
SPLINE
  5
280
100
AcDbEntity
  8
0
100
AcDbSpline
 62
7
  6
BYLAYER
 70
0
 71
3
 72
15
 73
11
 74
0
 42
0.0000001
 43
0.0000001
 44
0.0000000001
 40
0.0
 40
0.0
 40
0.0
 40
0.0
 40
0.1080127374
 40
0.2180623886
 40
0.3320018128
 40
0.4513627816
 40
0.5772700077
 40
0.7104927397
 40
0.8514462087
 40
1.0
 40
1.0
 40
1.0
 40
1.0
 10
70.4829967894
 20
50.6693987883
 30
0.0
 10
70.3354417206
 20
50.7545875816
 30
0.0
 10
70.0221710208
 20
50.9013272462
 30
0.0
 10
69.5152439893
 20
51.0414571997
 30
0.0
 10
68.9748619929
 20
51.101747554
 30
0.0
 10
68.4067806633
 20
51.0819594076
 30
0.0
 10
67.8164567469
 20
50.9829539795
 30
0.0
 10
67.2093241357
 20
50.8059747833
 30
0.0
 10
66.5912523474
 20
50.5529209578
 30
0.0
 10
66.1860214622
 20
50.3408327102
 30
0.0
 10
65.9830846712
 20
50.2236677986
 30
0.0
  0
ENDSEC
  0
SECTION
  2
OBJECTS
  0
DICTIONARY
  5
C
100
AcDbDictionary
280
0
281
1
  3
ACAD_GROUP
350
D
  3
ACAD_MLINESTYLE
350
17
  3
ACAD_LAYOUT
350
1A
  3
ACAD_PLOTSETTINGS
350
19
  3
ACAD_PLOTSTYLENAME
350
E
  0
DICTIONARY
  5
D
102
{ACAD_REACTORS
330
C
102
}
100
AcDbDictionary
280
0
281
1
  0
ACDBDICTIONARYWDFLT
  5
E
102
{ACAD_REACTORS
330
C
102
}
100
AcDbDictionary
281
1
  3
Normal
350
F
100
AcDbDictionaryWithDefault
340
F
  0
DICTIONARY
  5
17
102
{ACAD_REACTORS
330
C
102
}
100
AcDbDictionary
280
0
281
1
  3
Standard
350
18
  0
DICTIONARY
  5
19
102
{ACAD_REACTORS
330
C
102
}
100
AcDbDictionary
281
1
  0
DICTIONARY
  5
1A
102
{ACAD_REACTORS
330
C
102
}
100
AcDbDictionary
281
1
  3
Model
350
281
  3
Layout1
350
282
  0
ACDBPLACEHOLDER
  5
F
102
{ACAD_REACTORS
330
E
102
}
  0
MLINESTYLE
  5
18
102
{ACAD_REACTORS
330
17
102
}
100
AcDbMlineStyle
  2
STANDARD
 70
0
  3

 62
256
 51
90.0
 52
90.0
 71
2
 49
0.5
 62
256
  6
BYLAYER
 49
-0.5
 62
256
  6
BYLAYER
  0
LAYOUT
  5
281
102
{ACAD_REACTORS
330
1A
102
}
100
AcDbPlotSettings
  1

  2
none_device
  4

  6

 40
0.0
 41
0.0
 42
0.0
 43
0.0
 44
210.0
 45
297.0
 46
0.0
 47
0.0
 48
0.0
 49
0.0
140
0.0
141
0.0
142
1.0
143
1.0
 70
1024
 72
1
 73
0
 74
0
  7

 75
0
147
1.0
148
0.0
149
0.0
100
AcDbLayout
  1
Model
 70
0
 71
0
 10
0.0
 20
0.0
 11
210.0
 21
297.0
 12
0.0
 22
0.0
 32
0.0
 14
0.0
 24
0.0
 34
0.0
 15
0.0
 25
0.0
 35
0.0
146
0.0
 13
0.0
 23
0.0
 33
0.0
 16
1.0
 26
0.0
 36
0.0
 17
0.0
 27
1.0
 37
0.0
 76
0
330
210
345
0
346
0
  0
LAYOUT
  5
282
102
{ACAD_REACTORS
330
1A
102
}
100
AcDbPlotSettings
  1

  2
none_device
  4

  6

 40
0.0
 41
0.0
 42
0.0
 43
0.0
 44
210.0
 45
297.0
 46
0.0
 47
0.0
 48
0.0
 49
0.0
140
0.0
141
0.0
142
1.0
143
1.0
 70
0
 72
1
 73
0
 74
0
  7

 75
0
147
1.0
148
0.0
149
0.0
100
AcDbLayout
  1
Layout1
 70
0
 71
1
 10
0.0
 20
0.0
 11
210.0
 21
297.0
 12
0.0
 22
0.0
 32
0.0
 14
0.0
 24
0.0
 34
0.0
 15
0.0
 25
0.0
 35
0.0
146
0.0
 13
0.0
 23
0.0
 33
0.0
 16
1.0
 26
0.0
 36
0.0
 17
0.0
 27
1.0
 37
0.0
 76
0
330
211
345
0
346
0
  0
ENDSEC
  0
EOF
