999
DXF file: C:\Users\sesa63760\Dev\_Creo\CAD\MCADID0003618_3D-CAD\drw0001_1.dxf
999
Pro/ENGINEER 2019471 by Parametric Technology Corporation
  0
SECTION
  2
HEADER
  9
$ACADVER
  1
AC1024
  9
$DWGCODEPAGE
  3
ANSI_1252
  9
$EXTMAX
 10
222.2367911859
 20
314.3063189629
 30
0.0
  9
$EXTMIN
 10
0.0
 20
0.0
 30
0.0
  9
$LIMMIN
 10
0.0
 20
0.0
  9
$LIMMAX
 10
222.2367911859
 20
314.3063189629
  9
$VIEWCTR
 10
111.1183955929
 20
157.1531594814
  9
$VIEWSIZE
 40
314.3063189629
  9
$CLAYER
  8
0
  9
$LTSCALE
 40
20.4881156065
  9
$CELTYPE
  6
BYLAYER
  9
$DIMSCALE
 40
1.0
  9
$DIMASZ
 40
2.6456760855
  9
$DIMEXO
 40
1.0
  9
$DIMDLI
 40
14.1554253281
  9
$DIMEXE
 40
1.0
  9
$DIMCEN
 40
3.3526007356
  9
$DIMLFAC
 40
1.0
  9
$DIMBLK
  1
_FILLED
  9
$DIMALT
 70
0
  9
$DIMALTF
 40
0.0393700787
  9
$DIMTXT
 40
3.7039465198
  9
$DIMTOL
 70
1
  9
$DIMLIM
 70
0
  9
$DIMTFAC
 40
1.0
  9
$DIMTP
 40
0.01
  9
$DIMTM
 40
0.01
  9
$DIMGAP
 40
0.625
  9
$DIMDSEP
 70
46
  9
$AUNITS
 70
0
  9
$PDMODE
 70
3
  9
$PDSIZE
 40
0.3125
  9
$HANDSEED
  5
2AA
  9
$TILEMODE
 70
1
  9
$MEASUREMENT
 70
1
  9
$INSUNITS
 70
4
  0
ENDSEC
  0
SECTION
  2
CLASSES
  0
CLASS
  1
ACDBDICTIONARYWDFLT
  2
AcDbDictionaryWithDefault
  3
AutoCAD 2000
 90
0
 91
1
280
0
281
0
  0
CLASS
  1
ACDBPLACEHOLDER
  2
AcDbPlaceHolder
  3
AutoCAD 2000
 90
0
 91
1
280
0
281
0
  0
CLASS
  1
LAYOUT
  2
AcDbLayout
  3
AutoCAD 2000
 90
0
 91
0
280
0
281
0
  0
ENDSEC
  0
SECTION
  2
TABLES
  0
TABLE
  2
VPORT
  5
8
100
AcDbSymbolTable
 70
2
  0
VPORT
  5
1F4
100
AcDbSymbolTableRecord
100
AcDbViewportTableRecord
  2
*ACTIVE
 70
0
 10
0.0
 20
0.0
 11
1.0
 21
1.0
 12
111.1183955929
 22
157.1531594814
 13
0.0
 23
0.0
 14
1.0
 24
1.0
 15
0.0
 25
0.0
 16
0.0
 26
0.0
 36
1.0
 17
0.0
 27
0.0
 37
0.0
 40
314.3063189629
 41
0.7070707071
 42
50.0
 43
0.0
 44
0.0
 50
0.0
 51
0.0
 71
0
 72
100
 73
1
 74
1
 75
0
 76
0
 77
0
 78
0
  0
ENDTAB
  0
TABLE
  2
LTYPE
  5
5
100
AcDbSymbolTable
 70
6
  0
LTYPE
  5
14
100
AcDbSymbolTableRecord
100
AcDbLinetypeTableRecord
  2
BYBLOCK
 70
0
  3

 72
65
 73
0
 40
0.0
  0
LTYPE
  5
15
100
AcDbSymbolTableRecord
100
AcDbLinetypeTableRecord
  2
BYLAYER
 70
0
  3

 72
65
 73
0
 40
0.0
  0
LTYPE
  5
16
100
AcDbSymbolTableRecord
100
AcDbLinetypeTableRecord
  2
CONTINUOUS
 70
64
  3
Solid line
 72
65
 73
0
 40
0.0
  0
LTYPE
  5
1F5
100
AcDbSymbolTableRecord
100
AcDbLinetypeTableRecord
  2
CENTER
 70
64
  3
____ _ ____ _ ____ _ ____ _ ____ _ ____ _ ____
 72
65
 73
4
 40
0.6
 49
0.375
 74
0
 49
-0.075
 74
0
 49
0.075
 74
0
 49
-0.075
 74
0
  0
LTYPE
  5
1F6
100
AcDbSymbolTableRecord
100
AcDbLinetypeTableRecord
  2
HIDDEN
 70
64
  3
- - - - - - - - - - - - - - - - - - - -
 72
65
 73
2
 40
0.2
 49
0.1
 74
0
 49
-0.1
 74
0
  0
LTYPE
  5
1F7
100
AcDbSymbolTableRecord
100
AcDbLinetypeTableRecord
  2
PHANTOM
 70
64
  3
_____ _ _ _____ _ _ _____ _ _ _____
 72
65
 73
6
 40
0.8
 49
0.45
 74
0
 49
-0.05
 74
0
 49
0.1
 74
0
 49
-0.05
 74
0
 49
0.1
 74
0
 49
-0.05
 74
0
  0
LTYPE
  5
1F8
100
AcDbSymbolTableRecord
100
AcDbLinetypeTableRecord
  2
DOT
 70
64
  3
. . . . . . . . . . . . . . . . . . . .
 72
65
 73
2
 40
0.2
 49
0.1
 74
0
 49
-0.1
 74
0
  0
LTYPE
  5
1F9
100
AcDbSymbolTableRecord
100
AcDbLinetypeTableRecord
  2
DASHED
 70
64
  3
- - - - - - - - - - - - - - - - - - - -
 72
65
 73
2
 40
0.2
 49
0.1
 74
0
 49
-0.1
 74
0
  0
ENDTAB
  0
TABLE
  2
LAYER
  5
2
100
AcDbSymbolTable
 70
36
  0
LAYER
  5
10
100
AcDbSymbolTableRecord
100
AcDbLayerTableRecord
  2
0
 70
0
 62
7
  6
CONTINUOUS
370
-3
390
F
  0
LAYER
  5
1FA
100
AcDbSymbolTableRecord
100
AcDbLayerTableRecord
  2
DEFAULT_1
 70
0
 62
7
  6
CENTER
370
-3
390
F
  0
LAYER
  5
1FB
100
AcDbSymbolTableRecord
100
AcDbLayerTableRecord
  2
DEFAULT_2
 70
0
 62
7
  6
HIDDEN
370
-3
390
F
  0
LAYER
  5
1FC
100
AcDbSymbolTableRecord
100
AcDbLayerTableRecord
  2
DEFAULT_3
 70
0
 62
7
  6
PHANTOM
370
-3
390
F
  0
LAYER
  5
1FD
100
AcDbSymbolTableRecord
100
AcDbLayerTableRecord
  2
00_COMPONENTS
 70
0
 62
7
  6
CONTINUOUS
370
-3
390
F
  0
LAYER
  5
1FE
100
AcDbSymbolTableRecord
100
AcDbLayerTableRecord
  2
01_1_DEFAULT_DATUMS
 70
0
 62
7
  6
CONTINUOUS
370
-3
390
F
  0
LAYER
  5
1FF
100
AcDbSymbolTableRecord
100
AcDbLayerTableRecord
  2
01_PLANES
 70
0
 62
7
  6
CONTINUOUS
370
-3
390
F
  0
LAYER
  5
200
100
AcDbSymbolTableRecord
100
AcDbLayerTableRecord
  2
02_COORD_SYS
 70
0
 62
7
  6
CONTINUOUS
370
-3
390
F
  0
LAYER
  5
201
100
AcDbSymbolTableRecord
100
AcDbLayerTableRecord
  2
03_AXES
 70
0
 62
7
  6
CONTINUOUS
370
-3
390
F
  0
LAYER
  5
202
100
AcDbSymbolTableRecord
100
AcDbLayerTableRecord
  2
04_POINTS
 70
0
 62
7
  6
CONTINUOUS
370
-3
390
F
  0
LAYER
  5
203
100
AcDbSymbolTableRecord
100
AcDbLayerTableRecord
  2
05_CURVES
 70
0
 62
7
  6
CONTINUOUS
370
-3
390
F
  0
LAYER
  5
204
100
AcDbSymbolTableRecord
100
AcDbLayerTableRecord
  2
06_SURFS
 70
0
 62
7
  6
CONTINUOUS
370
-3
390
F
  0
LAYER
  5
205
100
AcDbSymbolTableRecord
100
AcDbLayerTableRecord
  2
07_COSMETICS
 70
0
 62
7
  6
CONTINUOUS
370
-3
390
F
  0
LAYER
  5
206
100
AcDbSymbolTableRecord
100
AcDbLayerTableRecord
  2
1
 70
0
 62
7
  6
CONTINUOUS
370
-3
390
F
  0
LAYER
  5
207
100
AcDbSymbolTableRecord
100
AcDbLayerTableRecord
  2
10_NOTES
 70
0
 62
7
  6
CONTINUOUS
370
-3
390
F
  0
LAYER
  5
208
100
AcDbSymbolTableRecord
100
AcDbLayerTableRecord
  2
11_NOTES_PUB
 70
0
 62
7
  6
CONTINUOUS
370
-3
390
F
  0
LAYER
  5
209
100
AcDbSymbolTableRecord
100
AcDbLayerTableRecord
  2
13_REF_GTOL
 70
0
 62
7
  6
CONTINUOUS
370
-3
390
F
  0
LAYER
  5
20A
100
AcDbSymbolTableRecord
100
AcDbLayerTableRecord
  2
16_MISC
 70
0
 62
7
  6
CONTINUOUS
370
-3
390
F
  0
LAYER
  5
20B
100
AcDbSymbolTableRecord
100
AcDbLayerTableRecord
  2
17_NO_PRINT
 70
0
 62
7
  6
CONTINUOUS
370
-3
390
F
  0
LAYER
  5
20C
100
AcDbSymbolTableRecord
100
AcDbLayerTableRecord
  2
18_DATUM_CAMS_JOINTS
 70
0
 62
7
  6
CONTINUOUS
370
-3
390
F
  0
LAYER
  5
20D
100
AcDbSymbolTableRecord
100
AcDbLayerTableRecord
  2
19_DATUM_FUNCTIONAL
 70
0
 62
7
  6
CONTINUOUS
370
-3
390
F
  0
LAYER
  5
20E
100
AcDbSymbolTableRecord
100
AcDbLayerTableRecord
  2
20_DATUM_KINEMATIC_SCHEME
 70
0
 62
7
  6
CONTINUOUS
370
-3
390
F
  0
ENDTAB
  0
TABLE
  2
STYLE
  5
3
100
AcDbSymbolTable
 70
1
  0
STYLE
  5
11
100
AcDbSymbolTableRecord
100
AcDbTextStyleTableRecord
  2
STANDARD
 70
0
 40
0.0
 41
1.0
 50
0.0
 71
0
 42
0.2
  3
ARIAL.TTF
  4

  0
STYLE
  5
20F
100
AcDbSymbolTableRecord
100
AcDbTextStyleTableRecord
  2
TEXTSTYLE_1
 70
0
 40
0.0
 41
0.8
 50
0.0
 71
0
 42
0.2
  3
gdt
  4

  0
ENDTAB
  0
TABLE
  2
VIEW
  5
6
100
AcDbSymbolTable
 70
0
  0
ENDTAB
  0
TABLE
  2
UCS
  5
7
100
AcDbSymbolTable
 70
0
  0
ENDTAB
  0
TABLE
  2
APPID
  5
9
100
AcDbSymbolTable
 70
1
  0
APPID
  5
210
100
AcDbSymbolTableRecord
100
AcDbRegAppTableRecord
  2
ACAD
 70
0
  0
ENDTAB
  0
TABLE
  2
BLOCK_RECORD
  5
1
100
AcDbSymbolTable
 70
0
  0
BLOCK_RECORD
  5
211
100
AcDbSymbolTableRecord
100
AcDbBlockTableRecord
  2
*Model_Space
  0
BLOCK_RECORD
  5
212
100
AcDbSymbolTableRecord
100
AcDbBlockTableRecord
  2
*Paper_Space
  0
BLOCK_RECORD
  5
213
100
AcDbSymbolTableRecord
100
AcDbBlockTableRecord
  2
_FILLED
  0
ENDTAB
  0
TABLE
  2
DIMSTYLE
  5
A
100
AcDbSymbolTable
 70
1
100
AcDbDimStyleTable
 71
0
  0
DIMSTYLE
105
214
100
AcDbSymbolTableRecord
100
AcDbDimStyleTableRecord
  2
STANDARD
 70
0
  3

  4

 40
1.0
 41
2.6456760855
 42
1.0
 43
0.38
 44
1.0
 45
0.0
 46
0.0
 47
0.01
 48
0.01
140
3.7039465198
141
0.09
142
0.0
143
25.4
144
1.0
145
0.0
146
1.0
147
0.625
 71
1
 72
0
 73
0
 74
0
 75
0
 76
0
 77
1
 78
8
 79
2
170
0
171
1
172
0
173
0
174
0
175
0
176
0
177
0
178
0
270
2
179
2
271
2
272
2
273
2
274
2
275
0
280
0
281
0
282
0
283
1
284
8
285
0
286
0
287
3
288
0
340
11
278
46
341
213
342
213
343
213
344
213
  0
ENDTAB
  0
ENDSEC
  0
SECTION
  2
BLOCKS
  0
BLOCK
  5
20
100
AcDbEntity
  8
0
100
AcDbBlockBegin
  2
*Model_Space
 70
0
 10
0.0
 20
0.0
 30
0.0
  3
*Model_Space
  1

  0
ENDBLK
  5
21
100
AcDbEntity
  8
0
100
AcDbBlockEnd
  0
BLOCK
  5
1C
100
AcDbEntity
  8
0
100
AcDbBlockBegin
  2
*Paper_Space
 70
0
 10
0.0
 20
0.0
 30
0.0
  3
*Paper_Space
  1

  0
ENDBLK
  5
1D
100
AcDbEntity
  8
0
100
AcDbBlockEnd
  0
BLOCK
  5
215
100
AcDbEntity
  8
0
100
AcDbBlockBegin
  2
_FILLED
 70
64
 10
0.0
 20
0.0
  3
_FILLED
  1

  0
SOLID
  5
216
100
AcDbEntity
  8
0
  6
BYBLOCK
 62
0
100
AcDbTrace
 10
0.0
 20
0.0
 11
-1.0
 21
0.25
 12
-1.0
 22
-0.25
 13
-1.0
 23
-0.25
  0
ENDBLK
  5
217
100
AcDbEntity
  8
0
  6
BYBLOCK
 62
0
100
AcDbBlockEnd
  0
ENDSEC
  0
SECTION
  2
ENTITIES
  0
LINE
  5
218
100
AcDbEntity
  8
1
100
AcDbLine
 62
7
  6
BYLAYER
 10
25.7820246726
 20
108.9341452194
 11
25.7820246726
 21
141.2676409378
  0
LINE
  5
219
100
AcDbEntity
  8
1
100
AcDbLine
 62
7
  6
BYLAYER
 10
32.6454330769
 20
145.2302079742
 11
32.6454330769
 21
153.571943723
  0
LINE
  5
21A
100
AcDbEntity
  8
1
100
AcDbLine
 62
7
  6
BYLAYER
 10
33.4940218975
 20
145.15695374
 11
33.4940218975
 21
136.8152179912
  0
LINE
  5
21B
100
AcDbEntity
  8
1
100
AcDbLine
 62
7
  6
BYLAYER
 10
56.5412977165
 20
91.1756723978
 11
25.7820246726
 21
108.9341452194
  0
LINE
  5
21C
100
AcDbEntity
  8
1
100
AcDbLine
 62
7
  6
BYLAYER
 10
37.5289914012
 20
150.7524837945
 11
37.5289914012
 21
147.4865441609
  0
LINE
  5
21D
100
AcDbEntity
  8
1
100
AcDbLine
 62
7
  6
BYLAYER
 10
48.8293004915
 20
136.3033268114
 11
48.8293004915
 21
127.9615910627
  0
LINE
  5
21E
100
AcDbEntity
  8
1
100
AcDbLine
 62
7
  6
BYLAYER
 10
52.864293547
 20
138.6329172324
 11
52.864293547
 21
130.2911814836
  0
LINE
  5
21F
100
AcDbEntity
  8
1
100
AcDbLine
 62
7
  6
BYLAYER
 10
55.2200828882
 20
130.2544557228
 11
55.2200828882
 21
126.2759234034
  0
LINE
  5
220
100
AcDbEntity
  8
1
100
AcDbLine
 62
7
  6
BYLAYER
 10
33.4940218975
 20
136.8152179912
 11
25.7820246726
 21
141.2676409378
  0
LINE
  5
221
100
AcDbEntity
  8
1
100
AcDbLine
 62
7
  6
BYLAYER
 10
48.8293004915
 20
127.9615910627
 11
56.5412977165
 21
123.5091681161
  0
LINE
  5
222
100
AcDbEntity
  8
1
100
AcDbLine
 62
7
  6
BYLAYER
 10
56.5412977165
 20
123.5091681161
 11
56.5412977165
 21
91.1756723978
  0
LINE
  5
223
100
AcDbEntity
  8
1
100
AcDbLine
 62
7
  6
BYLAYER
 10
58.5211477964
 20
130.291195081
 11
58.5211477964
 21
138.6329308298
  0
LINE
  5
224
100
AcDbEntity
  8
1
100
AcDbLine
 62
7
  6
BYLAYER
 10
33.4940218975
 20
144.7402860737
 11
32.6454330769
 21
145.2302079742
  0
LINE
  5
225
100
AcDbEntity
  8
1
100
AcDbLine
 62
7
  6
BYLAYER
 10
58.5211477964
 20
130.291195081
 11
63.4047061208
 21
127.4717351526
  0
LINE
  5
226
100
AcDbEntity
  8
1
100
AcDbLine
 62
7
  6
BYLAYER
 10
33.4940218975
 20
145.15695374
 11
48.8293004915
 21
136.3033268114
  0
LINE
  5
227
100
AcDbEntity
  8
1
100
AcDbLine
 62
7
  6
BYLAYER
 10
63.4047061208
 20
127.4717351526
 11
63.4047061208
 21
135.8134709013
  0
LINE
  5
228
100
AcDbEntity
  8
1
100
AcDbLine
 62
7
  6
BYLAYER
 10
63.4047061208
 20
135.8134709013
 11
58.5211477964
 21
138.6329308298
  0
LINE
  5
229
100
AcDbEntity
  8
1
100
AcDbLine
 62
7
  6
BYLAYER
 10
32.6454330769
 20
153.571943723
 11
37.5289914012
 21
150.7524837945
  0
LINE
  5
22A
100
AcDbEntity
  8
1
100
AcDbLine
 62
7
  6
BYLAYER
 10
32.6454330769
 20
153.571943723
 11
134.4992396442
 21
212.3769153442
  0
LINE
  5
22B
100
AcDbEntity
  8
1
100
AcDbLine
 62
7
  6
BYLAYER
 10
25.7820246726
 20
141.2676409378
 11
32.6454330769
 21
145.2302079742
  0
LINE
  5
22C
100
AcDbEntity
  8
1
100
AcDbLine
 62
7
  6
BYLAYER
 10
143.8691450958
 20
209.4448647388
 11
145.706835464
 21
210.5058494344
  0
LINE
  5
22D
100
AcDbEntity
  8
1
100
AcDbLine
 62
7
  6
BYLAYER
 10
37.529014953
 20
147.4865441609
 11
33.4940218975
 21
145.15695374
  0
LINE
  5
22E
100
AcDbEntity
  8
1
100
AcDbLine
 62
7
  6
BYLAYER
 10
172.4328620047
 20
223.8977150677
 11
147.4720983618
 21
209.4866974815
  0
LINE
  5
22F
100
AcDbEntity
  8
1
100
AcDbLine
 62
7
  6
BYLAYER
 10
162.558593286
 20
216.4473429502
 11
171.6744251699
 21
221.7103395264
  0
LINE
  5
230
100
AcDbEntity
  8
1
100
AcDbLine
 62
7
  6
BYLAYER
 10
141.393628942
 20
204.2192011694
 11
142.9492573839
 21
205.1173383079
  0
LINE
  5
231
100
AcDbEntity
  8
1
100
AcDbLine
 62
7
  6
BYLAYER
 10
143.2321012739
 20
204.9540420061
 11
141.6764728321
 21
204.0559048676
  0
LINE
  5
232
100
AcDbEntity
  8
1
100
AcDbLine
 62
7
  6
BYLAYER
 10
143.2321012739
 20
204.7907415227
 11
141.8178972209
 21
203.9742553058
  0
LINE
  5
233
100
AcDbEntity
  8
1
100
AcDbLine
 62
7
  6
BYLAYER
 10
166.7441918726
 20
214.1153351818
 11
172.3627633177
 21
217.3591995548
  0
LINE
  5
234
100
AcDbEntity
  8
1
100
AcDbLine
 62
7
  6
BYLAYER
 10
171.7464480454
 20
213.7612845463
 11
169.6251370393
 21
212.5365523765
  0
LINE
  5
235
100
AcDbEntity
  8
1
100
AcDbLine
 62
7
  6
BYLAYER
 10
52.864293547
 20
138.6329172324
 11
48.8293004915
 21
136.3033268114
  0
LINE
  5
236
100
AcDbEntity
  8
1
100
AcDbLine
 62
7
  6
BYLAYER
 10
48.8293004915
 20
127.9615910627
 11
52.864293547
 21
130.2911814836
  0
LINE
  5
237
100
AcDbEntity
  8
1
100
AcDbLine
 62
7
  6
BYLAYER
 10
192.2255775272
 20
205.8916578546
 11
196.0143402219
 21
207.6580009255
  0
LINE
  5
238
100
AcDbEntity
  8
1
100
AcDbLine
 62
7
  6
BYLAYER
 10
63.4047061208
 20
135.8134709013
 11
165.2585126881
 21
194.6184425226
  0
LINE
  5
239
100
AcDbEntity
  8
1
100
AcDbLine
 62
7
  6
BYLAYER
 10
55.2200828882
 20
130.2544557228
 11
51.78755645
 21
128.2726974892
  0
LINE
  5
23A
100
AcDbEntity
  8
1
100
AcDbLine
 62
7
  6
BYLAYER
 10
186.6070060822
 20
202.6477934816
 11
192.2255775272
 21
205.8916578546
  0
LINE
  5
23B
100
AcDbEntity
  8
1
100
AcDbLine
 62
7
  6
BYLAYER
 10
186.898508338
 20
202.3950043492
 11
196.0143402219
 21
207.6580009255
  0
LINE
  5
23C
100
AcDbEntity
  8
1
100
AcDbLine
 62
7
  6
BYLAYER
 10
55.2461488599
 20
126.2759234034
 11
58.6786752981
 21
128.257681637
  0
LINE
  5
23D
100
AcDbEntity
  8
1
100
AcDbLine
 62
7
  6
BYLAYER
 10
199.9065747752
 20
208.0361184413
 11
174.9458111323
 21
193.625100855
  0
LINE
  5
23E
100
AcDbEntity
  8
1
100
AcDbLine
 62
7
  6
BYLAYER
 10
141.0404913028
 20
206.1989237687
 11
139.8973753378
 21
203.7358453762
  0
LINE
  5
23F
100
AcDbEntity
  8
1
100
AcDbLine
 62
7
  6
BYLAYER
 10
141.0451508988
 20
204.4203905099
 11
140.6865262824
 21
203.6476600338
  0
LINE
  5
240
100
AcDbEntity
  8
1
100
AcDbLine
 62
7
  6
BYLAYER
 10
176.4661085079
 20
192.7473766127
 11
165.2585126881
 21
186.2767067739
  0
LINE
  5
241
100
AcDbEntity
  8
1
100
AcDbLine
 62
7
  6
BYLAYER
 10
56.5412977165
 20
123.5091681161
 11
63.4047061208
 21
127.4717351526
  0
LINE
  5
242
100
AcDbEntity
  8
1
100
AcDbLine
 62
7
  6
BYLAYER
 10
134.3333053096
 20
204.714957507
 11
134.2506923568
 21
199.3834400476
  0
LINE
  5
243
100
AcDbEntity
  8
1
100
AcDbLine
 62
7
  6
BYLAYER
 10
139.8973753378
 20
203.7358453762
 11
139.8634153445
 21
203.5864204401
  0
LINE
  5
244
100
AcDbEntity
  8
1
100
AcDbLine
 62
7
  6
BYLAYER
 10
139.8633022417
 20
201.9534157546
 11
139.8633022417
 21
203.5864205889
  0
LINE
  5
245
100
AcDbEntity
  8
1
100
AcDbLine
 62
7
  6
BYLAYER
 10
140.6865262824
 20
203.6476600338
 11
140.6865262824
 21
203.4843595504
  0
LINE
  5
246
100
AcDbEntity
  8
1
100
AcDbLine
 62
7
  6
BYLAYER
 10
141.1221253083
 20
201.736014251
 11
141.1221253083
 21
203.0287516477
  0
LINE
  5
247
100
AcDbEntity
  8
1
100
AcDbLine
 62
7
  6
BYLAYER
 10
142.0249508752
 20
203.8547155271
 11
142.0249508752
 21
203.6914150436
  0
LINE
  5
248
100
AcDbEntity
  8
1
100
AcDbLine
 62
7
  6
BYLAYER
 10
158.6661547091
 20
199.243943568
 11
162.3658292065
 21
207.1484477936
  0
LINE
  5
249
100
AcDbEntity
  8
1
100
AcDbLine
 62
7
  6
BYLAYER
 10
162.3658292065
 20
198.8067120449
 11
161.4379260245
 21
196.8242093602
  0
LINE
  5
24A
100
AcDbEntity
  8
1
100
AcDbLine
 62
7
  6
BYLAYER
 10
199.9065747752
 20
176.3120981838
 11
176.4661085079
 21
162.7788194572
  0
LINE
  5
24B
100
AcDbEntity
  8
1
100
AcDbLine
 62
7
  6
BYLAYER
 10
56.5412977165
 20
91.1756723978
 11
176.4661085079
 21
160.4138808944
  0
LINE
  5
24C
100
AcDbEntity
  8
1
100
AcDbLine
 62
7
  6
BYLAYER
 10
143.2321012739
 20
204.9540420061
 11
143.2321012739
 21
204.7907415227
  0
LINE
  5
24D
100
AcDbEntity
  8
1
100
AcDbLine
 62
7
  6
BYLAYER
 10
145.388353698
 20
203.6887410323
 11
145.388353698
 21
202.0557361981
  0
LINE
  5
24E
100
AcDbEntity
  8
1
100
AcDbLine
 62
7
  6
BYLAYER
 10
146.1295306314
 20
202.6134051393
 11
146.1295306314
 21
204.2464099735
  0
LINE
  5
24F
100
AcDbEntity
  8
1
100
AcDbLine
 62
7
  6
BYLAYER
 10
158.5969084775
 20
198.9427253595
 11
158.6661547091
 21
199.243943568
  0
LINE
  5
250
100
AcDbEntity
  8
1
100
AcDbLine
 62
7
  6
BYLAYER
 10
162.3658292065
 20
207.1484477936
 11
162.5389510347
 21
207.9014933103
  0
LINE
  5
251
100
AcDbEntity
  8
1
100
AcDbLine
 62
7
  6
BYLAYER
 10
151.1424361656
 20
204.4544965884
 11
151.0624899911
 21
199.2950825934
  0
LINE
  5
252
100
AcDbEntity
  8
1
100
AcDbLine
 62
7
  6
BYLAYER
 10
162.5389510196
 20
199.5597575615
 11
162.3658292065
 21
198.8067120449
  0
LINE
  5
253
100
AcDbEntity
  8
1
100
AcDbLine
 62
7
  6
BYLAYER
 10
145.388353698
 20
202.0557361981
 11
142.3763892944
 21
201.5897825848
  0
LINE
  5
254
100
AcDbEntity
  8
1
100
AcDbLine
 62
7
  6
BYLAYER
 10
141.1221253083
 20
203.0287516477
 11
145.388353698
 21
203.6887410323
  0
LINE
  5
255
100
AcDbEntity
  8
1
100
AcDbLine
 62
7
  6
BYLAYER
 10
142.0249508752
 20
203.6914150436
 11
140.6865262824
 21
203.4843595504
  0
LINE
  5
256
100
AcDbEntity
  8
1
100
AcDbLine
 62
7
  6
BYLAYER
 10
140.6865262824
 20
203.6476600338
 11
142.0249508752
 21
203.8547155271
  0
LINE
  5
257
100
AcDbEntity
  8
1
100
AcDbLine
 62
7
  6
BYLAYER
 10
158.6661547091
 20
198.6434105915
 11
158.6661547091
 21
199.243943568
  0
LINE
  5
258
100
AcDbEntity
  8
1
100
AcDbLine
 62
7
  6
BYLAYER
 10
162.3658292065
 20
207.1484477936
 11
162.3658292065
 21
198.8067120449
  0
LINE
  5
259
100
AcDbEntity
  8
1
100
AcDbLine
 62
7
  6
BYLAYER
 10
162.5389545749
 20
199.559757561
 11
162.5389545749
 21
207.9014933097
  0
LINE
  5
25A
100
AcDbEntity
  8
1
100
AcDbLine
 62
7
  6
BYLAYER
 10
171.7464480454
 20
213.7612845463
 11
172.3627633177
 21
217.3591995548
  0
LINE
  5
25B
100
AcDbEntity
  8
1
100
AcDbLine
 62
7
  6
BYLAYER
 10
156.2126460631
 20
210.6847911881
 11
145.7838298587
 21
209.028311138
  0
LINE
  5
25C
100
AcDbEntity
  8
1
100
AcDbLine
 62
7
  6
BYLAYER
 10
165.2585126881
 20
194.6184425226
 11
165.2585126881
 21
186.2767067739
  0
LINE
  5
25D
100
AcDbEntity
  8
1
100
AcDbLine
 62
7
  6
BYLAYER
 10
171.7464480454
 20
213.7612845463
 11
171.7464480454
 21
211.3118406028
  0
LINE
  5
25E
100
AcDbEntity
  8
1
100
AcDbLine
 62
7
  6
BYLAYER
 10
141.0451508988
 20
204.4203905099
 11
141.393628942
 21
204.2192011694
  0
LINE
  5
25F
100
AcDbEntity
  8
1
100
AcDbLine
 62
7
  6
BYLAYER
 10
141.6764728321
 20
204.0559048676
 11
142.0249508752
 21
203.8547155271
  0
LINE
  5
260
100
AcDbEntity
  8
1
100
AcDbLine
 62
7
  6
BYLAYER
 10
142.9492573839
 20
205.1173383079
 11
143.2321012739
 21
204.9540420061
  0
LINE
  5
261
100
AcDbEntity
  8
1
100
AcDbLine
 62
7
  6
BYLAYER
 10
142.7135220439
 20
206.4577431352
 11
145.8366344686
 21
204.6546541274
  0
LINE
  5
262
100
AcDbEntity
  8
1
100
AcDbLine
 62
7
  6
BYLAYER
 10
134.4992396442
 20
212.3769153442
 11
139.9109463456
 21
209.2525357063
  0
LINE
  5
263
100
AcDbEntity
  8
1
100
AcDbLine
 62
7
  6
BYLAYER
 10
159.1826968873
 20
198.1262370538
 11
165.2585126881
 21
194.6184425226
  0
LINE
  5
264
100
AcDbEntity
  8
1
100
AcDbLine
 62
7
  6
BYLAYER
 10
176.4661085079
 20
192.7473766127
 11
176.4661085079
 21
160.4138808944
  0
LINE
  5
265
100
AcDbEntity
  8
1
100
AcDbLine
 62
7
  6
BYLAYER
 10
176.4661085079
 20
192.7473766127
 11
162.5389545749
 21
200.7880407809
  0
LINE
  5
266
100
AcDbEntity
  8
1
100
AcDbLine
 62
7
  6
BYLAYER
 10
147.7304980431
 20
209.3375137309
 11
145.706835464
 21
210.5058494344
  0
LINE
  5
267
100
AcDbEntity
  8
1
100
AcDbLine
 62
7
  6
BYLAYER
 10
172.3627633177
 20
217.3591995548
 11
171.6744251699
 21
221.7103395264
  0
LINE
  5
268
100
AcDbEntity
  8
1
100
AcDbLine
 62
7
  6
BYLAYER
 10
166.7441918726
 20
214.1153351818
 11
169.6251370393
 21
212.5365523765
  0
LINE
  5
269
100
AcDbEntity
  8
1
100
AcDbLine
 62
7
  6
BYLAYER
 10
162.558593286
 20
216.4473429502
 11
166.7441918726
 21
214.1153351818
  0
LINE
  5
26A
100
AcDbEntity
  8
1
100
AcDbLine
 62
7
  6
BYLAYER
 10
162.558593286
 20
216.4473429502
 11
186.898508338
 21
202.3950043492
  0
LINE
  5
26B
100
AcDbEntity
  8
1
100
AcDbLine
 62
7
  6
BYLAYER
 10
169.6251370393
 20
212.5365523765
 11
186.680181108
 21
202.6900408503
  0
LINE
  5
26C
100
AcDbEntity
  8
1
100
AcDbLine
 62
7
  6
BYLAYER
 10
188.8014921141
 20
203.91477302
 11
171.7464480454
 21
213.7612845463
  0
LINE
  5
26D
100
AcDbEntity
  8
1
100
AcDbLine
 62
7
  6
BYLAYER
 10
199.9065747752
 20
176.3120981838
 11
199.9065747752
 21
208.0361184413
  0
LINE
  5
26E
100
AcDbEntity
  8
1
100
AcDbLine
 62
7
  6
BYLAYER
 10
196.0143402219
 20
207.6580009255
 11
171.6744251699
 21
221.7103395264
  0
LINE
  5
26F
100
AcDbEntity
  8
1
100
AcDbLine
 62
7
  6
BYLAYER
 10
199.9065747752
 20
208.0361184413
 11
172.4328620047
 21
223.8977150677
  0
LINE
  5
270
100
AcDbEntity
  8
1
100
AcDbLine
 62
7
  6
BYLAYER
 10
186.898508338
 20
202.3950043492
 11
186.6070060822
 21
202.6477934816
  0
ARC
  5
271
100
AcDbEntity
  8
1
100
AcDbCircle
 62
7
  6
BYLAYER
 10
164.182014414
 20
189.803367634
 40
2.3598966662
100
AcDbArc
 50
60.015328935
 51
62.2440198433
  0
ARC
  5
272
100
AcDbEntity
  8
1
100
AcDbCircle
 62
7
  6
BYLAYER
 10
52.0325265348
 20
154.0335962307
 40
0.9713533585
100
AcDbArc
 50
38.6796244767
 51
43.3181839109
  0
ARC
  5
273
100
AcDbEntity
  8
1
100
AcDbCircle
 62
7
  6
BYLAYER
 10
55.9236864914
 20
156.2806675895
 40
0.9686452021
100
AcDbArc
 50
38.7213236419
 51
43.0707553608
  0
SPLINE
  5
274
100
AcDbEntity
  8
1
100
AcDbSpline
 62
7
  6
BYLAYER
 70
0
 71
3
 72
11
 73
7
 74
0
 42
0.0000001
 43
0.0000001
 44
0.0000000001
 40
0.0
 40
0.0
 40
0.0
 40
0.0
 40
0.2280214929
 40
0.4776922089
 40
0.738944184
 40
1.0
 40
1.0
 40
1.0
 40
1.0
 10
161.0744737609
 20
209.9427140791
 30
0.0
 10
160.7453091046
 20
210.1327530828
 30
0.0
 10
160.00760773
 20
210.4493206622
 30
0.0
 10
158.8026622079
 20
210.7280021238
 30
0.0
 10
157.5144239768
 20
210.8208053845
 30
0.0
 10
156.6424072869
 20
210.7530530962
 30
0.0
 10
156.2126460631
 20
210.6847911881
 30
0.0
  0
SPLINE
  5
275
100
AcDbEntity
  8
1
100
AcDbSpline
 62
7
  6
BYLAYER
 70
0
 71
3
 72
11
 73
7
 74
0
 42
0.0000001
 43
0.0000001
 44
0.0000000001
 40
0.0
 40
0.0
 40
0.0
 40
0.0
 40
0.2897056855
 40
0.5490975889
 40
0.7822028946
 40
1.0
 40
1.0
 40
1.0
 40
1.0
 10
159.1826968873
 20
198.1262370538
 30
0.0
 10
159.0949376844
 20
198.176903707
 30
0.0
 10
158.9357136471
 20
198.2865624589
 30
0.0
 10
158.7454515674
 20
198.4865570659
 30
0.0
 10
158.6250528149
 20
198.707761561
 30
0.0
 10
158.5968896011
 20
198.866542959
 30
0.0
 10
158.5969094572
 20
198.9427253594
 30
0.0
  0
SPLINE
  5
276
100
AcDbEntity
  8
1
100
AcDbSpline
 62
7
  6
BYLAYER
 70
0
 71
3
 72
10
 73
6
 74
0
 42
0.0000001
 43
0.0000001
 44
0.0000000001
 40
0.0
 40
0.0
 40
0.0
 40
0.0
 40
0.2183495699
 40
0.4522357668
 40
1.0
 40
1.0
 40
1.0
 40
1.0
 10
146.1294842007
 20
204.2464102151
 30
0.0
 10
146.1295107976
 20
204.2844817618
 30
0.0
 10
146.115458668
 20
204.3638971993
 30
0.0
 10
146.0310220412
 20
204.5189767576
 30
0.0
 10
145.9193477107
 20
204.6069006951
 30
0.0
 10
145.8366344686
 20
204.6546541274
 30
0.0
  0
SPLINE
  5
277
100
AcDbEntity
  8
1
100
AcDbSpline
 62
7
  6
BYLAYER
 70
0
 71
3
 72
17
 73
13
 74
0
 42
0.0000001
 43
0.0000001
 44
0.0000000001
 40
0.0
 40
0.0
 40
0.0
 40
0.0
 40
0.1286909364
 40
0.2702756355
 40
0.4174300302
 40
0.561776862
 40
0.6954478469
 40
0.8127135898
 40
0.8646768255
 40
0.9125110523
 40
0.9571410551
 40
1.0
 40
1.0
 40
1.0
 40
1.0
 10
64.1426639665
 20
115.4053057882
 30
0.0
 10
64.1426639665
 20
116.1959629335
 30
0.0
 10
64.3638484858
 20
117.8583912144
 30
0.0
 10
65.1894164292
 20
120.2993038633
 30
0.0
 10
66.4614880347
 20
122.6507297146
 30
0.0
 10
68.0779498365
 20
124.7198091073
 30
0.0
 10
69.9066780185
 20
126.3393564675
 30
0.0
 10
71.5618318682
 20
127.2445055559
 30
0.0
 10
72.8566286126
 20
127.5889011726
 30
0.0
 10
73.7477419319
 20
127.6544873651
 30
0.0
 10
74.5775470519
 20
127.5329189299
 30
0.0
 10
75.0802169187
 20
127.3239373613
 30
0.0
 10
75.3082618746
 20
127.1922853964
 30
0.0
  0
SPLINE
  5
278
100
AcDbEntity
  8
1
100
AcDbSpline
 62
7
  6
BYLAYER
 70
0
 71
3
 72
11
 73
7
 74
0
 42
0.0000001
 43
0.0000001
 44
0.0000000001
 40
0.0
 40
0.0
 40
0.0
 40
0.0
 40
0.2897734309
 40
0.5490670645
 40
0.782226176
 40
1.0
 40
1.0
 40
1.0
 40
1.0
 10
47.7024261521
 20
116.1196905656
 30
0.0
 10
47.7024261521
 20
115.650892709
 30
0.0
 10
47.6315502188
 20
114.7595570901
 30
0.0
 10
47.2703159626
 20
113.5349749333
 30
0.0
 10
46.6627128355
 20
112.5412649156
 30
0.0
 10
46.0917251349
 20
112.06138109
 30
0.0
 10
45.7866083451
 20
111.8852262798
 30
0.0
  0
SPLINE
  5
279
100
AcDbEntity
  8
1
100
AcDbSpline
 62
7
  6
BYLAYER
 70
0
 71
3
 72
11
 73
7
 74
0
 42
0.0000001
 43
0.0000001
 44
0.0000000001
 40
0.0
 40
0.0
 40
0.0
 40
0.0
 40
0.289828702
 40
0.5491487435
 40
0.7822716308
 40
1.0
 40
1.0
 40
1.0
 40
1.0
 10
52.7967302313
 20
126.8585500529
 30
0.0
 10
52.6448548292
 20
126.9462333735
 30
0.0
 10
52.3694881092
 20
127.1360964349
 30
0.0
 10
52.0406798686
 20
127.48251522
 30
0.0
 10
51.83390731
 20
127.866008879
 30
0.0
 10
51.7866952329
 20
128.1409571732
 30
0.0
 10
51.78755645
 20
128.2726974892
 30
0.0
  0
SPLINE
  5
27A
100
AcDbEntity
  8
1
100
AcDbSpline
 62
7
  6
BYLAYER
 70
0
 71
3
 72
9
 73
5
 74
0
 42
0.0000001
 43
0.0000001
 44
0.0000000001
 40
0.0
 40
0.0
 40
0.0
 40
0.0
 40
0.525566351
 40
1.0
 40
1.0
 40
1.0
 40
1.0
 10
55.2461488599
 20
126.2759234034
 30
0.0
 10
54.8014710396
 20
126.2749523059
 30
0.0
 10
53.9528948588
 20
126.3655230448
 30
0.0
 10
53.1443684558
 20
126.6578455709
 30
0.0
 10
52.7967302313
 20
126.8585500529
 30
0.0
  0
SPLINE
  5
27B
100
AcDbEntity
  8
1
100
AcDbSpline
 62
7
  6
BYLAYER
 70
0
 71
3
 72
17
 73
13
 74
0
 42
0.0000001
 43
0.0000001
 44
0.0000000001
 40
0.0
 40
0.0
 40
0.0
 40
0.0
 40
0.0434405189
 40
0.0885997869
 40
0.1368736653
 40
0.1891693506
 40
0.3067666346
 40
0.4403784019
 40
0.5843595326
 40
0.7309440321
 40
0.8718771475
 40
1.0
 40
1.0
 40
1.0
 40
1.0
 10
151.1423791224
 20
204.4544974716
 30
0.0
 10
151.1461561302
 20
204.6988202209
 30
0.0
 10
151.0896496034
 20
205.200212404
 30
0.0
 10
150.8177383078
 20
205.9275514822
 30
0.0
 10
150.3687581757
 20
206.6201441144
 30
0.0
 10
149.5181157799
 20
207.512603597
 30
0.0
 10
148.0589204517
 20
208.4437400851
 30
0.0
 10
145.9509224068
 20
209.1907844611
 30
0.0
 10
143.5807808175
 20
209.5600698765
 30
0.0
 10
141.1418799121
 20
209.5204236891
 30
0.0
 10
138.8345475761
 20
209.0769442231
 30
0.0
 10
137.419276942
 20
208.4977185729
 30
0.0
 10
136.795141752
 20
208.1373761039
 30
0.0
  0
SPLINE
  5
27C
100
AcDbEntity
  8
1
100
AcDbSpline
 62
7
  6
BYLAYER
 70
0
 71
3
 72
11
 73
7
 74
0
 42
0.0000001
 43
0.0000001
 44
0.0000000001
 40
0.0
 40
0.0
 40
0.0
 40
0.0
 40
0.2177725924
 40
0.4509311147
 40
0.7102280556
 40
1.0
 40
1.0
 40
1.0
 40
1.0
 10
66.0584870469
 20
111.1708430265
 30
0.0
 10
65.7533680703
 20
111.3469903684
 30
0.0
 10
65.1823873036
 20
111.826880174
 30
0.0
 10
64.5747719568
 20
112.8205840123
 30
0.0
 10
64.2135429189
 20
114.0451722434
 30
0.0
 10
64.1426639665
 20
114.9365101338
 30
0.0
 10
64.1426639665
 20
115.4053057882
 30
0.0
  0
SPLINE
  5
27D
100
AcDbEntity
  8
1
100
AcDbSpline
 62
7
  6
BYLAYER
 70
0
 71
3
 72
17
 73
13
 74
0
 42
0.0000001
 43
0.0000001
 44
0.0000000001
 40
0.0
 40
0.0
 40
0.0
 40
0.0
 40
0.0428586047
 40
0.0874886509
 40
0.1353233628
 40
0.1872869024
 40
0.3045520313
 40
0.4382203252
 40
0.5825647785
 40
0.729720272
 40
0.8713074858
 40
1.0
 40
1.0
 40
1.0
 40
1.0
 10
36.5367140439
 20
127.9066088099
 30
0.0
 10
36.7647551637
 20
128.0382650855
 30
0.0
 10
37.2674286031
 20
128.2472373214
 30
0.0
 10
38.0972320699
 20
128.3688361979
 30
0.0
 10
38.9883553214
 20
128.3032474188
 30
0.0
 10
40.2831610388
 20
127.9588689424
 30
0.0
 10
41.9383154347
 20
127.0537439701
 30
0.0
 10
43.767046995
 20
125.434241275
 30
0.0
 10
45.3835213
 20
123.365190392
 30
0.0
 10
46.6556267902
 20
121.0137637969
 30
0.0
 10
47.4812324799
 20
118.5728197451
 30
0.0
 10
47.7024261521
 20
116.9103601777
 30
0.0
 10
47.7024261521
 20
116.1196905656
 30
0.0
  0
SPLINE
  5
27E
100
AcDbEntity
  8
1
100
AcDbSpline
 62
7
  6
BYLAYER
 70
0
 71
3
 72
11
 73
7
 74
0
 42
0.0000001
 43
0.0000001
 44
0.0000000001
 40
0.0
 40
0.0
 40
0.0
 40
0.0
 40
0.289545996
 40
0.5491267785
 40
0.7822701519
 40
1.0
 40
1.0
 40
1.0
 40
1.0
 10
32.2905423141
 20
139.5140168424
 30
0.0
 10
32.1832922631
 20
139.5759362874
 30
0.0
 10
31.9886670875
 20
139.710130895
 30
0.0
 10
31.7558654486
 20
139.9545508924
 30
0.0
 10
31.6085924471
 20
140.2251329009
 30
0.0
 10
31.5743423261
 20
140.4192874954
 30
0.0
 10
31.5743337122
 20
140.512412182
 30
0.0
  0
SPLINE
  5
27F
100
AcDbEntity
  8
1
100
AcDbSpline
 62
7
  6
BYLAYER
 70
0
 71
3
 72
9
 73
5
 74
0
 42
0.0000001
 43
0.0000001
 44
0.0000000001
 40
0.0
 40
0.0
 40
0.0
 40
0.0
 40
0.5235361008
 40
1.0
 40
1.0
 40
1.0
 40
1.0
 10
33.4832887568
 20
139.1348834236
 30
0.0
 10
33.2656782745
 20
139.1631463441
 30
0.0
 10
32.853536485
 20
139.2506842716
 30
0.0
 10
32.4634955318
 20
139.4141645146
 30
0.0
 10
32.2905423141
 20
139.5140168424
 30
0.0
  0
SPLINE
  5
280
100
AcDbEntity
  8
1
100
AcDbSpline
 62
7
  6
BYLAYER
 70
0
 71
3
 72
11
 73
7
 74
0
 42
0.0000001
 43
0.0000001
 44
0.0000000001
 40
0.0
 40
0.0
 40
0.0
 40
0.0
 40
0.2177821605
 40
0.4509085882
 40
0.7102951949
 40
1.0
 40
1.0
 40
1.0
 40
1.0
 10
38.7005560929
 20
149.1195071791
 30
0.0
 10
38.7005560502
 20
148.967155165
 30
0.0
 10
38.6442551519
 20
148.6496055838
 30
0.0
 10
38.4035220818
 20
148.2071565979
 30
0.0
 10
38.022956861
 20
147.8071999589
 30
0.0
 10
37.7045294025
 20
147.5878768708
 30
0.0
 10
37.529014953
 20
147.4865441609
 30
0.0
  0
SPLINE
  5
281
100
AcDbEntity
  8
1
100
AcDbSpline
 62
7
  6
BYLAYER
 70
0
 71
3
 72
11
 73
7
 74
0
 42
0.0000001
 43
0.0000001
 44
0.0000000001
 40
0.0
 40
0.0
 40
0.0
 40
0.0
 40
0.217797839
 40
0.4509070745
 40
0.7102979079
 40
1.0
 40
1.0
 40
1.0
 40
1.0
 10
162.5389501818
 20
207.9014933103
 30
0.0
 10
162.5389991789
 20
208.0919505306
 30
0.0
 10
162.4685959118
 20
208.4889104145
 30
0.0
 10
162.1675891929
 20
209.0419233251
 30
0.0
 10
161.6919320314
 20
209.5419095234
 30
0.0
 10
161.2938697123
 20
209.8160486331
 30
0.0
 10
161.0744737609
 20
209.9427140791
 30
0.0
  0
SPLINE
  5
282
100
AcDbEntity
  8
1
100
AcDbSpline
 62
7
  6
BYLAYER
 70
0
 71
3
 72
11
 73
7
 74
0
 42
0.0000001
 43
0.0000001
 44
0.0000000001
 40
0.0
 40
0.0
 40
0.0
 40
0.0
 40
0.2877619003
 40
0.546465981
 40
0.7804526355
 40
1.0
 40
1.0
 40
1.0
 40
1.0
 10
136.795141752
 20
208.1373761039
 30
0.0
 10
136.429848222
 20
207.9264750449
 30
0.0
 10
135.7660109764
 20
207.4687481922
 30
0.0
 10
134.9712032739
 20
206.6319784321
 30
0.0
 10
134.463524461
 20
205.7039725327
 30
0.0
 10
134.3383367188
 20
205.0367326968
 30
0.0
 10
134.3333623529
 20
204.7149566238
 30
0.0
  0
SPLINE
  5
283
100
AcDbEntity
  8
1
100
AcDbSpline
 62
7
  6
BYLAYER
 70
0
 71
3
 72
11
 73
7
 74
0
 42
0.0000001
 43
0.0000001
 44
0.0000000001
 40
0.0
 40
0.0
 40
0.0
 40
0.0
 40
0.2171360739
 40
0.4500622062
 40
0.7095643115
 40
1.0
 40
1.0
 40
1.0
 40
1.0
 10
166.0776245264
 20
190.8490183684
 30
0.0
 10
166.0776332683
 20
190.7545108293
 30
0.0
 10
166.0422712871
 20
190.557252746
 30
0.0
 10
165.8906025831
 20
190.2832545993
 30
0.0
 10
165.651480015
 20
190.0362611228
 30
0.0
 10
165.4517490842
 20
189.9014813203
 30
0.0
 10
165.3416547772
 20
189.8393608384
 30
0.0
  0
SPLINE
  5
284
100
AcDbEntity
  8
1
100
AcDbSpline
 62
7
  6
BYLAYER
 70
0
 71
3
 72
12
 73
8
 74
0
 42
0.0000001
 43
0.0000001
 44
0.0000000001
 40
0.0
 40
0.0
 40
0.0
 40
0.0
 40
0.2581631177
 40
0.5408736076
 40
0.6763280911
 40
0.8000264023
 40
1.0
 40
1.0
 40
1.0
 40
1.0
 10
142.7135220439
 20
206.4577431352
 30
0.0
 10
142.5770891668
 20
206.5365109115
 30
0.0
 10
142.2526314821
 20
206.6336721028
 30
0.0
 10
141.8348200103
 20
206.6339307025
 30
0.0
 10
141.5107049632
 20
206.5580809721
 30
0.0
 10
141.2539607865
 20
206.4486107499
 30
0.0
 10
141.0918623909
 20
206.3096133409
 30
0.0
 10
141.0404913028
 20
206.1989237687
 30
0.0
  0
SPLINE
  5
285
100
AcDbEntity
  8
1
100
AcDbSpline
 62
7
  6
BYLAYER
 70
0
 71
3
 72
11
 73
7
 74
0
 42
0.0000001
 43
0.0000001
 44
0.0000000001
 40
0.0
 40
0.0
 40
0.0
 40
0.0
 40
0.4309142708
 40
0.5631267519
 40
0.7031732514
 40
1.0
 40
1.0
 40
1.0
 40
1.0
 10
147.8134623446
 20
203.7241375358
 30
0.0
 10
147.5301680749
 20
204.3898678898
 30
0.0
 10
146.7182000226
 20
205.0517331034
 30
0.0
 10
145.6504766794
 20
205.5359454104
 30
0.0
 10
144.7407820881
 20
205.8392955813
 30
0.0
 10
144.0140650656
 20
205.9679838756
 30
0.0
 10
143.5178804708
 20
206.0145915518
 30
0.0
  0
SPLINE
  5
286
100
AcDbEntity
  8
1
100
AcDbSpline
 62
7
  6
BYLAYER
 70
0
 71
3
 72
9
 73
5
 74
0
 42
0.0000001
 43
0.0000001
 44
0.0000000001
 40
0.0
 40
0.0
 40
0.0
 40
0.0
 40
0.2648471444
 40
1.0
 40
1.0
 40
1.0
 40
1.0
 10
140.8513190645
 20
205.8693105082
 30
0.0
 10
140.6730249407
 20
205.8317861345
 30
0.0
 10
140.0052165352
 20
205.6675737567
 30
0.0
 10
139.3567234949
 20
205.410985333
 30
0.0
 10
138.9187354833
 20
205.158114346
 30
0.0
  0
SPLINE
  5
287
100
AcDbEntity
  8
1
100
AcDbSpline
 62
7
  6
BYLAYER
 70
0
 71
3
 72
11
 73
7
 74
0
 42
0.0000001
 43
0.0000001
 44
0.0000000001
 40
0.0
 40
0.0
 40
0.0
 40
0.0
 40
0.2897052857
 40
0.5490919933
 40
0.7822182543
 40
1.0
 40
1.0
 40
1.0
 40
1.0
 10
37.5289914012
 20
150.7524837945
 30
0.0
 10
37.7045091341
 20
150.6511508766
 30
0.0
 10
38.022942633
 20
150.4318270333
 30
0.0
 10
38.4035155387
 20
150.0318674114
 30
0.0
 10
38.6442537765
 20
149.5894141596
 30
0.0
 10
38.7005561356
 20
149.2718608659
 30
0.0
 10
38.7005560929
 20
149.1195071791
 30
0.0
  0
SPLINE
  5
288
100
AcDbEntity
  8
1
100
AcDbSpline
 62
7
  6
BYLAYER
 70
0
 71
3
 72
11
 73
7
 74
0
 42
0.0000001
 43
0.0000001
 44
0.0000000001
 40
0.0
 40
0.0
 40
0.0
 40
0.0
 40
0.2178874439
 40
0.4509982207
 40
0.7106576862
 40
1.0
 40
1.0
 40
1.0
 40
1.0
 10
139.8633805169
 20
203.586420454
 30
0.0
 10
139.8633350501
 20
203.5483145058
 30
0.0
 10
139.8773332147
 20
203.4688876151
 30
0.0
 10
139.9376028537
 20
203.3582298164
 30
0.0
 10
140.0328514649
 20
203.2583854981
 30
0.0
 10
140.1123750199
 20
203.2034773055
 30
0.0
 10
140.1561984045
 20
203.178176435
 30
0.0
  0
SPLINE
  5
289
100
AcDbEntity
  8
1
100
AcDbSpline
 62
7
  6
BYLAYER
 70
0
 71
3
 72
17
 73
13
 74
0
 42
0.0000001
 43
0.0000001
 44
0.0000000001
 40
0.0
 40
0.0
 40
0.0
 40
0.0
 40
0.0434405189
 40
0.0885997869
 40
0.1368736653
 40
0.1891693506
 40
0.3067666346
 40
0.4403784019
 40
0.5843595326
 40
0.7309440321
 40
0.8718771475
 40
1.0
 40
1.0
 40
1.0
 40
1.0
 10
134.3333623529
 20
204.7149566238
 30
0.0
 10
134.329585345
 20
204.4706338744
 30
0.0
 10
134.3860918718
 20
203.9692416913
 30
0.0
 10
134.6580031674
 20
203.2419026131
 30
0.0
 10
135.1069832995
 20
202.5493099809
 30
0.0
 10
135.9576256953
 20
201.6568504983
 30
0.0
 10
137.4168210235
 20
200.7257140102
 30
0.0
 10
139.5248190685
 20
199.9786696342
 30
0.0
 10
141.8949606577
 20
199.6093842188
 30
0.0
 10
144.3338615631
 20
199.6490304062
 30
0.0
 10
146.6411938991
 20
200.0925098722
 30
0.0
 10
148.0564645332
 20
200.6717355225
 30
0.0
 10
148.6805997232
 20
201.0320779915
 30
0.0
  0
SPLINE
  5
28A
100
AcDbEntity
  8
1
100
AcDbSpline
 62
7
  6
BYLAYER
 70
0
 71
3
 72
11
 73
7
 74
0
 42
0.0000001
 43
0.0000001
 44
0.0000000001
 40
0.0
 40
0.0
 40
0.0
 40
0.0
 40
0.2177725924
 40
0.4509311147
 40
0.7102280556
 40
1.0
 40
1.0
 40
1.0
 40
1.0
 10
75.3082618746
 20
127.1922853964
 30
0.0
 10
75.6133808512
 20
127.0161380546
 30
0.0
 10
76.1843616179
 20
126.536248249
 30
0.0
 10
76.7919769646
 20
125.5425444107
 30
0.0
 10
77.1532060026
 20
124.3179561796
 30
0.0
 10
77.224084955
 20
123.4266182892
 30
0.0
 10
77.224084955
 20
122.9578226348
 30
0.0
  0
SPLINE
  5
28B
100
AcDbEntity
  8
1
100
AcDbSpline
 62
7
  6
BYLAYER
 70
0
 71
3
 72
11
 73
7
 74
0
 42
0.0000001
 43
0.0000001
 44
0.0000000001
 40
0.0
 40
0.0
 40
0.0
 40
0.0
 40
0.289545996
 40
0.5491267785
 40
0.7822701519
 40
1.0
 40
1.0
 40
1.0
 40
1.0
 10
165.3614159245
 20
191.8474137079
 30
0.0
 10
165.4686659755
 20
191.7854942629
 30
0.0
 10
165.6632911511
 20
191.6512996554
 30
0.0
 10
165.89609279
 20
191.4068796579
 30
0.0
 10
166.0433657915
 20
191.1362976494
 30
0.0
 10
166.0776159125
 20
190.9421430549
 30
0.0
 10
166.0776245264
 20
190.8490183684
 30
0.0
  0
SPLINE
  5
28C
100
AcDbEntity
  8
1
100
AcDbSpline
 62
7
  6
BYLAYER
 70
0
 71
3
 72
11
 73
7
 74
0
 42
0.0000001
 43
0.0000001
 44
0.0000000001
 40
0.0
 40
0.0
 40
0.0
 40
0.0
 40
0.1937682414
 40
0.4206732687
 40
0.6920884042
 40
1.0
 40
1.0
 40
1.0
 40
1.0
 10
146.1294841905
 20
202.6134053814
 30
0.0
 10
146.1294392702
 20
202.5490678273
 30
0.0
 10
146.0850535406
 20
202.4082457281
 30
0.0
 10
145.918035709
 20
202.2423969763
 30
0.0
 10
145.6775712253
 20
202.1186087579
 30
0.0
 10
145.4893888415
 20
202.071366426
 30
0.0
 10
145.388353698
 20
202.0557361981
 30
0.0
  0
SPLINE
  5
28D
100
AcDbEntity
  8
1
100
AcDbSpline
 62
7
  6
BYLAYER
 70
0
 71
3
 72
9
 73
5
 74
0
 42
0.0000001
 43
0.0000001
 44
0.0000000001
 40
0.0
 40
0.0
 40
0.0
 40
0.0
 40
0.2415220584
 40
1.0
 40
1.0
 40
1.0
 40
1.0
 10
56.7927753903
 20
156.6987667523
 30
0.0
 10
56.7859269392
 20
156.715081809
 30
0.0
 10
56.7549841253
 20
156.7815387732
 30
0.0
 10
56.7141522392
 20
156.8432117858
 30
0.0
 10
56.6794212096
 20
156.8865871907
 30
0.0
  0
SPLINE
  5
28E
100
AcDbEntity
  8
1
100
AcDbSpline
 62
7
  6
BYLAYER
 70
0
 71
3
 72
12
 73
8
 74
0
 42
0.0000001
 43
0.0000001
 44
0.0000000001
 40
0.0
 40
0.0
 40
0.0
 40
0.0
 40
0.2104367267
 40
0.336520778
 40
0.4716795362
 40
0.7484809193
 40
1.0
 40
1.0
 40
1.0
 40
1.0
 10
56.6312924035
 20
156.9421563654
 30
0.0
 10
56.4692446827
 20
157.1157153574
 30
0.0
 10
56.1210283822
 20
157.3067431689
 30
0.0
 10
55.6089816
 20
157.4483467783
 30
0.0
 10
55.004010645
 20
157.5246576563
 30
0.0
 10
54.2502210618
 20
157.4736937279
 30
0.0
 10
53.673709257
 20
157.2806352158
 30
0.0
 10
53.4279263708
 20
157.1387332474
 30
0.0
  0
SPLINE
  5
28F
100
AcDbEntity
  8
1
100
AcDbSpline
 62
7
  6
BYLAYER
 70
0
 71
3
 72
9
 73
5
 74
0
 42
0.0000001
 43
0.0000001
 44
0.0000000001
 40
0.0
 40
0.0
 40
0.0
 40
0.0
 40
0.2415391456
 40
1.0
 40
1.0
 40
1.0
 40
1.0
 10
52.9038912847
 20
154.4529780978
 30
0.0
 10
52.8970620041
 20
154.4692794035
 30
0.0
 10
52.8662036957
 20
154.5356781238
 30
0.0
 10
52.8254689982
 20
154.5973076428
 30
0.0
 10
52.7908161633
 20
154.6406581603
 30
0.0
  0
SPLINE
  5
290
100
AcDbEntity
  8
1
100
AcDbSpline
 62
7
  6
BYLAYER
 70
0
 71
3
 72
12
 73
8
 74
0
 42
0.0000001
 43
0.0000001
 44
0.0000000001
 40
0.0
 40
0.0
 40
0.0
 40
0.0
 40
0.2107034457
 40
0.3368331554
 40
0.4719707509
 40
0.7486102577
 40
1.0
 40
1.0
 40
1.0
 40
1.0
 10
52.7392395892
 20
154.6999925136
 30
0.0
 10
52.5764574771
 20
154.8728654112
 30
0.0
 10
52.2280762036
 20
155.0629403154
 30
0.0
 10
51.7161305432
 20
155.2037143571
 30
0.0
 10
51.1120140069
 20
155.2792665193
 30
0.0
 10
50.359581166
 20
155.227919849
 30
0.0
 10
49.7842026862
 20
155.0350409546
 30
0.0
 10
49.5388552661
 20
154.8933904011
 30
0.0
  0
SPLINE
  5
291
100
AcDbEntity
  8
1
100
AcDbSpline
 62
7
  6
BYLAYER
 70
0
 71
3
 72
11
 73
7
 74
0
 42
0.0000001
 43
0.0000001
 44
0.0000000001
 40
0.0
 40
0.0
 40
0.0
 40
0.0
 40
0.2392865612
 40
0.4995787659
 40
0.760084365
 40
1.0
 40
1.0
 40
1.0
 40
1.0
 10
64.2712770125
 20
115.9082928003
 30
0.0
 10
65.0945661377
 20
116.4539633534
 30
0.0
 10
66.6463782866
 20
117.8498669694
 30
0.0
 10
68.4906717883
 20
120.4119871489
 30
0.0
 10
69.7995054859
 20
123.2876457752
 30
0.0
 10
70.2420774547
 20
125.3307928657
 30
0.0
 10
70.3085236935
 20
126.3188628992
 30
0.0
  0
SPLINE
  5
292
100
AcDbEntity
  8
1
100
AcDbSpline
 62
7
  6
BYLAYER
 70
0
 71
3
 72
17
 73
13
 74
0
 42
0.0000001
 43
0.0000001
 44
0.0000000001
 40
0.0
 40
0.0
 40
0.0
 40
0.0
 40
0.0428586047
 40
0.0874886509
 40
0.1353233628
 40
0.1872869024
 40
0.3045520313
 40
0.4382203252
 40
0.5825647785
 40
0.729720272
 40
0.8713074858
 40
1.0
 40
1.0
 40
1.0
 40
1.0
 10
45.7866083451
 20
111.8852262798
 30
0.0
 10
45.5585672253
 20
111.7535700043
 30
0.0
 10
45.0558937859
 20
111.5445977683
 30
0.0
 10
44.2260903191
 20
111.4229988918
 30
0.0
 10
43.3349670677
 20
111.4885876709
 30
0.0
 10
42.0401613503
 20
111.8329661473
 30
0.0
 10
40.3850069544
 20
112.7380911196
 30
0.0
 10
38.556275394
 20
114.3575938147
 30
0.0
 10
36.939801089
 20
116.4266446978
 30
0.0
 10
35.6676955988
 20
118.7780712928
 30
0.0
 10
34.8420899092
 20
121.2190153447
 30
0.0
 10
34.6208962369
 20
122.8814749121
 30
0.0
 10
34.6208962369
 20
123.6721445242
 30
0.0
  0
SPLINE
  5
293
100
AcDbEntity
  8
1
100
AcDbSpline
 62
7
  6
BYLAYER
 70
0
 71
3
 72
17
 73
13
 74
0
 42
0.0000001
 43
0.0000001
 44
0.0000000001
 40
0.0
 40
0.0
 40
0.0
 40
0.0
 40
0.1286909364
 40
0.2702756355
 40
0.4174300302
 40
0.561776862
 40
0.6954478469
 40
0.8127135898
 40
0.8646768255
 40
0.9125110523
 40
0.9571410551
 40
1.0
 40
1.0
 40
1.0
 40
1.0
 10
77.224084955
 20
122.9578226348
 30
0.0
 10
77.224084955
 20
122.1671654894
 30
0.0
 10
77.0029004357
 20
120.5047372086
 30
0.0
 10
76.1773324922
 20
118.0638245596
 30
0.0
 10
74.9052608868
 20
115.7123987083
 30
0.0
 10
73.288799085
 20
113.6433193157
 30
0.0
 10
71.460070903
 20
112.0237719555
 30
0.0
 10
69.8049170533
 20
111.1186228671
 30
0.0
 10
68.5101203089
 20
110.7742272504
 30
0.0
 10
67.6190069896
 20
110.7086410579
 30
0.0
 10
66.7892018696
 20
110.8302094931
 30
0.0
 10
66.2865320028
 20
111.0391910617
 30
0.0
 10
66.0584870469
 20
111.1708430265
 30
0.0
  0
SPLINE
  5
294
100
AcDbEntity
  8
1
100
AcDbSpline
 62
7
  6
BYLAYER
 70
0
 71
3
 72
9
 73
5
 74
0
 42
0.0000001
 43
0.0000001
 44
0.0000000001
 40
0.0
 40
0.0
 40
0.0
 40
0.0
 40
0.2447059938
 40
1.0
 40
1.0
 40
1.0
 40
1.0
 10
40.3190518321
 20
127.7608624934
 30
0.0
 10
40.3121276871
 20
127.6940067132
 30
0.0
 10
40.2875881612
 20
127.4204167394
 30
0.0
 10
40.2777269346
 20
127.1455543281
 30
0.0
 10
40.2777269346
 20
126.9380977551
 30
0.0
  0
SPLINE
  5
295
100
AcDbEntity
  8
1
100
AcDbSpline
 62
7
  6
BYLAYER
 70
0
 71
3
 72
11
 73
7
 74
0
 42
0.0000001
 43
0.0000001
 44
0.0000000001
 40
0.0
 40
0.0
 40
0.0
 40
0.0
 40
0.2897734309
 40
0.5490670645
 40
0.782226176
 40
1.0
 40
1.0
 40
1.0
 40
1.0
 10
34.6208962369
 20
123.6721445242
 30
0.0
 10
34.6208962369
 20
124.1409423808
 30
0.0
 10
34.6917721702
 20
125.0322779997
 30
0.0
 10
35.0530064264
 20
126.2568601564
 30
0.0
 10
35.6606095536
 20
127.2505701741
 30
0.0
 10
36.2315972541
 20
127.7304539998
 30
0.0
 10
36.5367140439
 20
127.9066088099
 30
0.0
  0
SPLINE
  5
296
100
AcDbEntity
  8
1
100
AcDbSpline
 62
7
  6
BYLAYER
 70
0
 71
3
 72
13
 73
9
 74
0
 42
0.0000001
 43
0.0000001
 44
0.0000000001
 40
0.0
 40
0.0
 40
0.0
 40
0.0
 40
0.0944382379
 40
0.1938828579
 40
0.3021227835
 40
0.421312424
 40
0.692691801
 40
1.0
 40
1.0
 40
1.0
 40
1.0
 10
31.5743337122
 20
140.512412182
 30
0.0
 10
31.5743263603
 20
140.5918934021
 30
0.0
 10
31.5987506503
 20
140.7559680081
 30
0.0
 10
31.7058828572
 20
140.9896006132
 30
0.0
 10
31.8776348736
 20
141.2073083869
 30
0.0
 10
32.1991325811
 20
141.4806137636
 30
0.0
 10
32.7337580494
 20
141.7433079077
 30
0.0
 10
33.211837735
 20
141.8536457586
 30
0.0
 10
33.4681897888
 20
141.8879497979
 30
0.0
  0
SPLINE
  5
297
100
AcDbEntity
  8
1
100
AcDbSpline
 62
7
  6
BYLAYER
 70
0
 71
3
 72
15
 73
11
 74
0
 42
0.0000001
 43
0.0000001
 44
0.0000000001
 40
0.0
 40
0.0
 40
0.0
 40
0.0
 40
0.1156738314
 40
0.2409447015
 40
0.372761911
 40
0.5074623505
 40
0.6411070038
 40
0.7698537308
 40
0.8903185275
 40
1.0
 40
1.0
 40
1.0
 40
1.0
 10
40.2777269346
 20
126.9380977551
 30
0.0
 10
40.2777269346
 20
126.382528514
 30
0.0
 10
40.3871576324
 20
125.2241494136
 30
0.0
 10
40.8192468759
 20
123.4813944479
 30
0.0
 10
41.5082681218
 20
121.7248949664
 30
0.0
 10
42.4245845312
 20
120.0302082213
 30
0.0
 10
43.5290762071
 20
118.4696117965
 30
0.0
 10
44.7748390561
 20
117.1096603117
 30
0.0
 10
46.1084555056
 20
116.0084992619
 30
0.0
 10
47.070326698
 20
115.4488466129
 30
0.0
 10
47.551225439
 20
115.2338056856
 30
0.0
  0
SPLINE
  5
298
100
AcDbEntity
  8
1
100
AcDbSpline
 62
7
  6
BYLAYER
 70
0
 71
3
 72
11
 73
7
 74
0
 42
0.0000001
 43
0.0000001
 44
0.0000000001
 40
0.0
 40
0.0
 40
0.0
 40
0.0
 40
0.2877619003
 40
0.546465981
 40
0.7804526355
 40
1.0
 40
1.0
 40
1.0
 40
1.0
 10
148.6805997232
 20
201.0320779915
 30
0.0
 10
149.0458932532
 20
201.2429790504
 30
0.0
 10
149.7097304988
 20
201.7007059031
 30
0.0
 10
150.5045382014
 20
202.5374756632
 30
0.0
 10
151.0122170142
 20
203.4654815627
 30
0.0
 10
151.1374047565
 20
204.1327213985
 30
0.0
 10
151.1423791224
 20
204.4544974716
 30
0.0
  0
SPLINE
  5
299
100
AcDbEntity
  8
1
100
AcDbSpline
 62
7
  6
BYLAYER
 70
0
 71
3
 72
9
 73
5
 74
0
 42
0.0000001
 43
0.0000001
 44
0.0000000001
 40
0.0
 40
0.0
 40
0.0
 40
0.0
 40
0.2770735594
 40
1.0
 40
1.0
 40
1.0
 40
1.0
 10
138.9187354833
 20
205.158114346
 30
0.0
 10
138.7727441242
 20
205.0738266986
 30
0.0
 10
138.2628961877
 20
204.7445493661
 30
0.0
 10
137.8161463291
 20
204.2929261252
 30
0.0
 10
137.6070484614
 20
203.9059668732
 30
0.0
  0
SPLINE
  5
29A
100
AcDbEntity
  8
1
100
AcDbSpline
 62
7
  6
BYLAYER
 70
0
 71
3
 72
9
 73
5
 74
0
 42
0.0000001
 43
0.0000001
 44
0.0000000001
 40
0.0
 40
0.0
 40
0.0
 40
0.0
 40
0.2758289506
 40
1.0
 40
1.0
 40
1.0
 40
1.0
 10
53.4279263708
 20
157.1387332474
 30
0.0
 10
53.3776784356
 20
157.1097227616
 30
0.0
 10
53.200675888
 20
156.9967974165
 30
0.0
 10
53.0420734459
 20
156.848330977
 30
0.0
 10
52.9596528257
 20
156.7202233248
 30
0.0
  0
SPLINE
  5
29B
100
AcDbEntity
  8
1
100
AcDbSpline
 62
7
  6
BYLAYER
 70
0
 71
3
 72
8
 73
4
 74
0
 42
0.0000001
 43
0.0000001
 44
0.0000000001
 40
0.0
 40
0.0
 40
0.0
 40
0.0
 40
1.0
 40
1.0
 40
1.0
 40
1.0
 10
52.9596528257
 20
156.7202233248
 30
0.0
 10
52.9376886457
 20
156.6860840582
 30
0.0
 10
52.9179852647
 20
156.6503365174
 30
0.0
 10
52.9013050074
 20
156.6133272788
 30
0.0
  0
SPLINE
  5
29C
100
AcDbEntity
  8
1
100
AcDbSpline
 62
7
  6
BYLAYER
 70
0
 71
3
 72
9
 73
5
 74
0
 42
0.0000001
 43
0.0000001
 44
0.0000000001
 40
0.0
 40
0.0
 40
0.0
 40
0.0
 40
0.2758286258
 40
1.0
 40
1.0
 40
1.0
 40
1.0
 10
49.5388552661
 20
154.8933904011
 30
0.0
 10
49.4886017091
 20
154.8643766696
 30
0.0
 10
49.3115801498
 20
154.7514374782
 30
0.0
 10
49.1529617867
 20
154.6029481131
 30
0.0
 10
49.0705429301
 20
154.4748187665
 30
0.0
  0
SPLINE
  5
29D
100
AcDbEntity
  8
1
100
AcDbSpline
 62
7
  6
BYLAYER
 70
0
 71
3
 72
8
 73
4
 74
0
 42
0.0000001
 43
0.0000001
 44
0.0000000001
 40
0.0
 40
0.0
 40
0.0
 40
0.0
 40
1.0
 40
1.0
 40
1.0
 40
1.0
 10
49.0705429301
 20
154.4748187665
 30
0.0
 10
49.0484569833
 20
154.4404836879
 30
0.0
 10
49.0286576104
 20
154.4045211357
 30
0.0
 10
49.0119202733
 20
154.3672847528
 30
0.0
  0
SPLINE
  5
29E
100
AcDbEntity
  8
1
100
AcDbSpline
 62
7
  6
BYLAYER
 70
0
 71
3
 72
11
 73
7
 74
0
 42
0.0000001
 43
0.0000001
 44
0.0000000001
 40
0.0
 40
0.0
 40
0.0
 40
0.0
 40
0.3079114558
 40
0.579326455
 40
0.8062316153
 40
1.0
 40
1.0
 40
1.0
 40
1.0
 10
145.388353698
 20
203.6887410323
 30
0.0
 10
145.4893887985
 20
203.7043712536
 30
0.0
 10
145.6775711208
 20
203.7516135035
 30
0.0
 10
145.9180355394
 20
203.8754017154
 30
0.0
 10
146.0850535458
 20
204.0412503987
 30
0.0
 10
146.1294392542
 20
204.1820726116
 30
0.0
 10
146.1294842007
 20
204.2464102151
 30
0.0
  0
SPLINE
  5
29F
100
AcDbEntity
  8
1
100
AcDbSpline
 62
7
  6
BYLAYER
 70
0
 71
3
 72
9
 73
5
 74
0
 42
0.0000001
 43
0.0000001
 44
0.0000000001
 40
0.0
 40
0.0
 40
0.0
 40
0.0
 40
0.4772221758
 40
1.0
 40
1.0
 40
1.0
 40
1.0
 10
140.1561984045
 20
203.178176435
 30
0.0
 10
140.2926083704
 20
203.0994218861
 30
0.0
 10
140.6168665817
 20
203.0020577432
 30
0.0
 10
140.9516058608
 20
203.0023721352
 30
0.0
 10
141.1221253083
 20
203.0287516477
 30
0.0
  0
SPLINE
  5
2A0
100
AcDbEntity
  8
1
100
AcDbSpline
 62
7
  6
BYLAYER
 70
0
 71
3
 72
11
 73
7
 74
0
 42
0.0000001
 43
0.0000001
 44
0.0000000001
 40
0.0
 40
0.0
 40
0.0
 40
0.0
 40
0.2372405738
 40
0.5000004574
 40
0.7627600882
 40
1.0
 40
1.0
 40
1.0
 40
1.0
 10
58.5211477964
 20
130.291195081
 30
0.0
 10
58.1195884941
 20
130.5230302075
 30
0.0
 10
57.1857707362
 20
130.8613309679
 30
0.0
 10
55.6927165681
 20
131.0234100749
 30
0.0
 10
54.1996644364
 20
130.8613242822
 30
0.0
 10
53.2658500571
 20
130.5230188589
 30
0.0
 10
52.864293547
 20
130.2911814836
 30
0.0
  0
SPLINE
  5
2A1
100
AcDbEntity
  8
1
100
AcDbSpline
 62
7
  6
BYLAYER
 70
0
 71
3
 72
9
 73
5
 74
0
 42
0.0000001
 43
0.0000001
 44
0.0000000001
 40
0.0
 40
0.0
 40
0.0
 40
0.0
 40
0.525566351
 40
1.0
 40
1.0
 40
1.0
 40
1.0
 10
55.2200828882
 20
130.2544557228
 30
0.0
 10
55.6647607085
 20
130.2554268203
 30
0.0
 10
56.5133368893
 20
130.1648560814
 30
0.0
 10
57.3218632923
 20
129.8725335553
 30
0.0
 10
57.6695015168
 20
129.6718290733
 30
0.0
  0
SPLINE
  5
2A2
100
AcDbEntity
  8
1
100
AcDbSpline
 62
7
  6
BYLAYER
 70
0
 71
3
 72
11
 73
7
 74
0
 42
0.0000001
 43
0.0000001
 44
0.0000000001
 40
0.0
 40
0.0
 40
0.0
 40
0.0
 40
0.289828702
 40
0.5491487435
 40
0.7822716308
 40
1.0
 40
1.0
 40
1.0
 40
1.0
 10
57.6695015168
 20
129.6718290733
 30
0.0
 10
57.8213769189
 20
129.5841457527
 30
0.0
 10
58.096743639
 20
129.3942826913
 30
0.0
 10
58.4255518795
 20
129.0478639062
 30
0.0
 10
58.6323244381
 20
128.6643702472
 30
0.0
 10
58.6795365152
 20
128.389421953
 30
0.0
 10
58.6786752981
 20
128.257681637
 30
0.0
  0
SPLINE
  5
2A3
100
AcDbEntity
  8
1
100
AcDbSpline
 62
7
  6
BYLAYER
 70
0
 71
3
 72
11
 73
7
 74
0
 42
0.0000001
 43
0.0000001
 44
0.0000000001
 40
0.0
 40
0.0
 40
0.0
 40
0.0
 40
0.2372398078
 40
0.4999994051
 40
0.7627593222
 40
1.0
 40
1.0
 40
1.0
 40
1.0
 10
52.864293547
 20
138.6329172324
 30
0.0
 10
53.265849881
 20
138.864754506
 30
0.0
 10
54.1996639663
 20
139.2030599031
 30
0.0
 10
55.6927158814
 20
139.3651458237
 30
0.0
 10
57.1857702661
 20
139.2030668444
 30
0.0
 10
58.1195883181
 20
138.8647660579
 30
0.0
 10
58.5211477964
 20
138.6329308298
 30
0.0
  0
ELLIPSE
  5
2A4
100
AcDbEntity
  8
1
100
AcDbEllipse
 62
7
  6
BYLAYER
 10
142.6565911739
 20
199.3392613205
 30
0.0
 11
8.4062351518
 21
-0.0011445153
 31
0.0
 40
0.5773420004
 41
3.1327254763
 42
6.2743181299
  0
ELLIPSE
  5
2A5
100
AcDbEntity
  8
1
100
AcDbEllipse
 62
7
  6
BYLAYER
 10
54.8207140928
 20
156.9304653279
 30
0.0
 11
2.0031196786
 21
-0.0019420293
 31
0.0
 40
0.5773412865
 41
0.0
 42
6.2831853072
  0
ELLIPSE
  5
2A6
100
AcDbEntity
  8
1
100
AcDbEllipse
 62
7
  6
BYLAYER
 10
50.9316429921
 20
154.6851224794
 30
0.0
 11
2.0031196841
 21
-0.0019420293
 31
0.0
 40
0.5773412865
 41
0.0
 42
6.2831853072
  0
ELLIPSE
  5
2A7
100
AcDbEntity
  8
1
100
AcDbEllipse
 62
7
  6
BYLAYER
 10
142.6664170266
 20
204.6274431813
 30
0.0
 11
5.2997763958
 21
-0.0828686744
 31
0.0
 40
0.5874865657
 41
0.0
 42
6.2831853072
  0
ENDSEC
  0
SECTION
  2
OBJECTS
  0
DICTIONARY
  5
C
100
AcDbDictionary
280
0
281
1
  3
ACAD_GROUP
350
D
  3
ACAD_MLINESTYLE
350
17
  3
ACAD_LAYOUT
350
1A
  3
ACAD_PLOTSETTINGS
350
19
  3
ACAD_PLOTSTYLENAME
350
E
  0
DICTIONARY
  5
D
102
{ACAD_REACTORS
330
C
102
}
100
AcDbDictionary
280
0
281
1
  0
ACDBDICTIONARYWDFLT
  5
E
102
{ACAD_REACTORS
330
C
102
}
100
AcDbDictionary
281
1
  3
Normal
350
F
100
AcDbDictionaryWithDefault
340
F
  0
DICTIONARY
  5
17
102
{ACAD_REACTORS
330
C
102
}
100
AcDbDictionary
280
0
281
1
  3
Standard
350
18
  0
DICTIONARY
  5
19
102
{ACAD_REACTORS
330
C
102
}
100
AcDbDictionary
281
1
  0
DICTIONARY
  5
1A
102
{ACAD_REACTORS
330
C
102
}
100
AcDbDictionary
281
1
  3
Model
350
2A8
  3
Layout1
350
2A9
  0
ACDBPLACEHOLDER
  5
F
102
{ACAD_REACTORS
330
E
102
}
  0
MLINESTYLE
  5
18
102
{ACAD_REACTORS
330
17
102
}
100
AcDbMlineStyle
  2
STANDARD
 70
0
  3

 62
256
 51
90.0
 52
90.0
 71
2
 49
0.5
 62
256
  6
BYLAYER
 49
-0.5
 62
256
  6
BYLAYER
  0
LAYOUT
  5
2A8
102
{ACAD_REACTORS
330
1A
102
}
100
AcDbPlotSettings
  1

  2
none_device
  4

  6

 40
0.0
 41
0.0
 42
0.0
 43
0.0
 44
210.0
 45
297.0
 46
0.0
 47
0.0
 48
0.0
 49
0.0
140
0.0
141
0.0
142
1.0
143
1.0
 70
1024
 72
1
 73
0
 74
0
  7

 75
0
147
1.0
148
0.0
149
0.0
100
AcDbLayout
  1
Model
 70
0
 71
0
 10
0.0
 20
0.0
 11
210.0
 21
297.0
 12
0.0
 22
0.0
 32
0.0
 14
0.0
 24
0.0
 34
0.0
 15
0.0
 25
0.0
 35
0.0
146
0.0
 13
0.0
 23
0.0
 33
0.0
 16
1.0
 26
0.0
 36
0.0
 17
0.0
 27
1.0
 37
0.0
 76
0
330
211
345
0
346
0
  0
LAYOUT
  5
2A9
102
{ACAD_REACTORS
330
1A
102
}
100
AcDbPlotSettings
  1

  2
none_device
  4

  6

 40
0.0
 41
0.0
 42
0.0
 43
0.0
 44
210.0
 45
297.0
 46
0.0
 47
0.0
 48
0.0
 49
0.0
140
0.0
141
0.0
142
1.0
143
1.0
 70
0
 72
1
 73
0
 74
0
  7

 75
0
147
1.0
148
0.0
149
0.0
100
AcDbLayout
  1
Layout1
 70
0
 71
1
 10
0.0
 20
0.0
 11
210.0
 21
297.0
 12
0.0
 22
0.0
 32
0.0
 14
0.0
 24
0.0
 34
0.0
 15
0.0
 25
0.0
 35
0.0
146
0.0
 13
0.0
 23
0.0
 33
0.0
 16
1.0
 26
0.0
 36
0.0
 17
0.0
 27
1.0
 37
0.0
 76
0
330
212
345
0
346
0
  0
ENDSEC
  0
EOF
