  0
SECTION
  2
HEADER
  9
$ACADVER
  1
AC1006
  9
$EXTMIN
 10
-2.323000
 20
-4.261295
  9
$EXTMAX
 10
2.319000
 20
4.262000
  9
$LTSCALE
 40
0.000394
  9
$PDMODE
 70
    35
  9
$PDSIZE
 40
0.000315
  0
ENDSEC
  0
SECTION
  2
TABLES
  0
TABLE
  2
LTYPE
 70
     9
  0
LTYPE
  2
CONTINUOUS
 70
    64
  3
Solid line
 72
    65
 73
     0
 40
0.000000
  0
LTYPE
  2
DASHED
 70
    64
  3
__ __ __ __ __ __ __ __ __ __ __ __ __ __ __
 72
    65
 73
     2
 40
0.000003
 49
0.000002
 49
-0.000001
  0
LTYPE
  2
HIDDEN
 70
    64
  3
 _ _ _ _ _ _ _ _ _ _ _ _ _ _ _ _ _ _ _ _ _ _
 72
    65
 73
     2
 40
0.000001
 49
0.000001
 49
-0.000000
  0
LTYPE
  2
CENTER
 70
    64
  3
____ _ ____ _ ____ _ ____ _ ____ _ ____ _ ____
 72
    65
 73
     4
 40
0.000008
 49
0.000005
 49
-0.000001
 49
0.000001
 49
-0.000001
  0
LTYPE
  2
PHANTOM
 70
    64
  3
_____ _ _ _____ _ _ _____ _ _ _____ _ _ ____
 72
    65
 73
     6
 40
0.000010
 49
0.000005
 49
-0.000001
 49
0.000001
 49
-0.000001
 49
0.000001
 49
-0.000001
  0
LTYPE
  2
DOT
 70
    64
  3
...............................................
 72
    65
 73
     2
 40
0.000001
 49
0.000000
 49
-0.000001
  0
LTYPE
  2
DASHDOT
 70
    64
  3
__ . __ . __ . __ . __ . __ . __ . __ . __ . __
 72
    65
 73
     4
 40
0.000004
 49
0.000002
 49
-0.000001
 49
0.000000
 49
-0.000001
  0
LTYPE
  2
BORDER
 70
    64
  3
__ __ . __ __ . __ __ . __ __ . __ __ . __ __
 72
    65
 73
     6
 40
0.000007
 49
0.000002
 49
-0.000001
 49
0.000002
 49
-0.000001
 49
0.000000
 49
-0.000001
  0
LTYPE
  2
DIVIDE
 70
    64
  3
__ . . __ . . __ . . __ . . __ . . __ . . __
 72
    65
 73
     6
 40
0.000005
 49
0.000002
 49
-0.000001
 49
0.000000
 49
-0.000001
 49
0.000000
 49
-0.000001
  0
LTYPE
  2
DOTDOT
 70
    64
  3
 . .  . .  . .  . .  . .  . . 
 72
    65
 73
     5
 40
0.000002
 49
-0.000001
 49
0.000000
 49
-0.000001
 49
0.000000
 49
-0.000001
  0
ENDTAB
  0
TABLE
  2
STYLE
 70
     0
  0
ENDTAB
  0
TABLE
  2
LAYER
 70
     3
  0
LAYER
  2
FOREGROUND
 70
    64
 62
     7
  6
CONTINUOUS
  0
LAYER
  2
BACKGROUND
 70
    65
 62
    -7
  6
CONTINUOUS
  0
LAYER
  2
PLAN_1
 70
    64
 62
     7
  6
CONTINUOUS
  0
ENDTAB
  0
ENDSEC
  0
SECTION
  2
ENTITIES
  0
POLYLINE
  8
PLAN_1
  6
CONTINUOUS
 66
     1
 40
0.003000
 41
0.003000
  0
VERTEX
  8
PLAN_1
  6
CONTINUOUS
 10
0.347457
 20
-4.255969
  0
VERTEX
  8
PLAN_1
  6
CONTINUOUS
 10
0.313894
 20
-4.255969
  0
VERTEX
  8
PLAN_1
  6
CONTINUOUS
 10
0.260091
 20
-4.173933
  0
VERTEX
  8
PLAN_1
  6
CONTINUOUS
 10
0.205224
 20
-4.255969
  0
VERTEX
  8
PLAN_1
  6
CONTINUOUS
 10
0.172728
 20
-4.255969
  0
VERTEX
  8
PLAN_1
  6
CONTINUOUS
 10
0.244110
 20
-4.153689
  0
VERTEX
  8
PLAN_1
  6
CONTINUOUS
 10
0.176988
 20
-4.056736
  0
VERTEX
  8
PLAN_1
  6
CONTINUOUS
 10
0.211083
 20
-4.056736
  0
VERTEX
  8
PLAN_1
  6
CONTINUOUS
 10
0.261689
 20
-4.132913
  0
VERTEX
  8
PLAN_1
  6
CONTINUOUS
 10
0.311764
 20
-4.056736
  0
VERTEX
  8
PLAN_1
  6
CONTINUOUS
 10
0.344260
 20
-4.056736
  0
VERTEX
  8
PLAN_1
  6
CONTINUOUS
 10
0.277138
 20
-4.153689
  0
VERTEX
  8
PLAN_1
  6
CONTINUOUS
 10
0.347457
 20
-4.255969
  0
SEQEND
  8
0
  0
POLYLINE
  8
PLAN_1
  6
CONTINUOUS
 66
     1
 40
0.003000
 41
0.003000
  0
VERTEX
  8
PLAN_1
  6
CONTINUOUS
 10
0.513657
 20
-4.116402
  0
VERTEX
  8
PLAN_1
  6
CONTINUOUS
 10
0.512063
 20
-4.110539
  0
VERTEX
  8
PLAN_1
  6
CONTINUOUS
 10
0.509929
 20
-4.104681
  0
VERTEX
  8
PLAN_1
  6
CONTINUOUS
 10
0.507268
 20
-4.099886
  0
VERTEX
  8
PLAN_1
  6
CONTINUOUS
 10
0.504602
 20
-4.095626
  0
VERTEX
  8
PLAN_1
  6
CONTINUOUS
 10
0.501406
 20
-4.091362
  0
VERTEX
  8
PLAN_1
  6
CONTINUOUS
 10
0.497677
 20
-4.088165
  0
VERTEX
  8
PLAN_1
  6
CONTINUOUS
 10
0.493949
 20
-4.085504
  0
VERTEX
  8
PLAN_1
  6
CONTINUOUS
 10
0.490220
 20
-4.082839
  0
VERTEX
  8
PLAN_1
  6
CONTINUOUS
 10
0.485961
 20
-4.080709
  0
VERTEX
  8
PLAN_1
  6
CONTINUOUS
 10
0.481697
 20
-4.079110
  0
VERTEX
  8
PLAN_1
  6
CONTINUOUS
 10
0.477969
 20
-4.078043
  0
VERTEX
  8
PLAN_1
  6
CONTINUOUS
 10
0.473705
 20
-4.076980
  0
VERTEX
  8
PLAN_1
  6
CONTINUOUS
 10
0.465185
 20
-4.075913
  0
VERTEX
  8
PLAN_1
  6
CONTINUOUS
 10
0.457724
 20
-4.075382
  0
VERTEX
  8
PLAN_1
  6
CONTINUOUS
 10
0.451335
 20
-4.075382
  0
VERTEX
  8
PLAN_1
  6
CONTINUOUS
 10
0.444409
 20
-4.076449
  0
VERTEX
  8
PLAN_1
  6
CONTINUOUS
 10
0.438547
 20
-4.078043
  0
VERTEX
  8
PLAN_1
  6
CONTINUOUS
 10
0.432154
 20
-4.080177
  0
VERTEX
  8
PLAN_1
  6
CONTINUOUS
 10
0.426827
 20
-4.082839
  0
VERTEX
  8
PLAN_1
  6
CONTINUOUS
 10
0.421500
 20
-4.086567
  0
VERTEX
  8
PLAN_1
  6
CONTINUOUS
 10
0.416173
 20
-4.090295
  0
VERTEX
  8
PLAN_1
  6
CONTINUOUS
 10
0.411913
 20
-4.095091
  0
VERTEX
  8
PLAN_1
  6
CONTINUOUS
 10
0.407650
 20
-4.100417
  0
VERTEX
  8
PLAN_1
  6
CONTINUOUS
 10
0.403921
 20
-4.106280
  0
VERTEX
  8
PLAN_1
  6
CONTINUOUS
 10
0.400193
 20
-4.112669
  0
VERTEX
  8
PLAN_1
  6
CONTINUOUS
 10
0.397528
 20
-4.120130
  0
VERTEX
  8
PLAN_1
  6
CONTINUOUS
 10
0.395398
 20
-4.127587
  0
VERTEX
  8
PLAN_1
  6
CONTINUOUS
 10
0.393799
 20
-4.136110
  0
VERTEX
  8
PLAN_1
  6
CONTINUOUS
 10
0.392736
 20
-4.144634
  0
VERTEX
  8
PLAN_1
  6
CONTINUOUS
 10
0.392736
 20
-4.154220
  0
VERTEX
  8
PLAN_1
  6
CONTINUOUS
 10
0.392736
 20
-4.163280
  0
VERTEX
  8
PLAN_1
  6
CONTINUOUS
 10
0.393268
 20
-4.171268
  0
VERTEX
  8
PLAN_1
  6
CONTINUOUS
 10
0.394335
 20
-4.179260
  0
VERTEX
  8
PLAN_1
  6
CONTINUOUS
 10
0.395933
 20
-4.187248
  0
VERTEX
  8
PLAN_1
  6
CONTINUOUS
 10
0.398063
 20
-4.194709
  0
VERTEX
  8
PLAN_1
  6
CONTINUOUS
 10
0.400193
 20
-4.201098
  0
VERTEX
  8
PLAN_1
  6
CONTINUOUS
 10
0.403390
 20
-4.207492
  0
VERTEX
  8
PLAN_1
  6
CONTINUOUS
 10
0.407118
 20
-4.213350
  0
VERTEX
  8
PLAN_1
  6
CONTINUOUS
 10
0.411378
 20
-4.218681
  0
VERTEX
  8
PLAN_1
  6
CONTINUOUS
 10
0.416173
 20
-4.223472
  0
VERTEX
  8
PLAN_1
  6
CONTINUOUS
 10
0.421500
 20
-4.227736
  0
VERTEX
  8
PLAN_1
  6
CONTINUOUS
 10
0.427362
 20
-4.230933
  0
VERTEX
  8
PLAN_1
  6
CONTINUOUS
 10
0.434287
 20
-4.233594
  0
VERTEX
  8
PLAN_1
  6
CONTINUOUS
 10
0.441744
 20
-4.235724
  0
VERTEX
  8
PLAN_1
  6
CONTINUOUS
 10
0.449736
 20
-4.236791
  0
VERTEX
  8
PLAN_1
  6
CONTINUOUS
 10
0.458791
 20
-4.237323
  0
VERTEX
  8
PLAN_1
  6
CONTINUOUS
 10
0.465717
 20
-4.236791
  0
VERTEX
  8
PLAN_1
  6
CONTINUOUS
 10
0.473705
 20
-4.235193
  0
VERTEX
  8
PLAN_1
  6
CONTINUOUS
 10
0.477969
 20
-4.234126
  0
VERTEX
  8
PLAN_1
  6
CONTINUOUS
 10
0.481697
 20
-4.232531
  0
VERTEX
  8
PLAN_1
  6
CONTINUOUS
 10
0.485961
 20
-4.230398
  0
VERTEX
  8
PLAN_1
  6
CONTINUOUS
 10
0.490220
 20
-4.227201
  0
VERTEX
  8
PLAN_1
  6
CONTINUOUS
 10
0.494480
 20
-4.224008
  0
VERTEX
  8
PLAN_1
  6
CONTINUOUS
 10
0.498213
 20
-4.220276
  0
VERTEX
  8
PLAN_1
  6
CONTINUOUS
 10
0.501941
 20
-4.216016
  0
VERTEX
  8
PLAN_1
  6
CONTINUOUS
 10
0.505138
 20
-4.210689
  0
VERTEX
  8
PLAN_1
  6
CONTINUOUS
 10
0.508331
 20
-4.204831
  0
VERTEX
  8
PLAN_1
  6
CONTINUOUS
 10
0.510996
 20
-4.198437
  0
VERTEX
  8
PLAN_1
  6
CONTINUOUS
 10
0.513657
 20
-4.190980
  0
VERTEX
  8
PLAN_1
  6
CONTINUOUS
 10
0.515791
 20
-4.182988
  0
VERTEX
  8
PLAN_1
  6
CONTINUOUS
 10
0.541358
 20
-4.182988
  0
VERTEX
  8
PLAN_1
  6
CONTINUOUS
 10
0.540295
 20
-4.189382
  0
VERTEX
  8
PLAN_1
  6
CONTINUOUS
 10
0.539228
 20
-4.195772
  0
VERTEX
  8
PLAN_1
  6
CONTINUOUS
 10
0.537098
 20
-4.202165
  0
VERTEX
  8
PLAN_1
  6
CONTINUOUS
 10
0.535500
 20
-4.207492
  0
VERTEX
  8
PLAN_1
  6
CONTINUOUS
 10
0.533370
 20
-4.212819
  0
VERTEX
  8
PLAN_1
  6
CONTINUOUS
 10
0.530705
 20
-4.218146
  0
VERTEX
  8
PLAN_1
  6
CONTINUOUS
 10
0.528043
 20
-4.222409
  0
VERTEX
  8
PLAN_1
  6
CONTINUOUS
 10
0.525378
 20
-4.226669
  0
VERTEX
  8
PLAN_1
  6
CONTINUOUS
 10
0.522717
 20
-4.230933
  0
VERTEX
  8
PLAN_1
  6
CONTINUOUS
 10
0.519520
 20
-4.234126
  0
VERTEX
  8
PLAN_1
  6
CONTINUOUS
 10
0.516323
 20
-4.237858
  0
VERTEX
  8
PLAN_1
  6
CONTINUOUS
 10
0.513126
 20
-4.240520
  0
VERTEX
  8
PLAN_1
  6
CONTINUOUS
 10
0.506201
 20
-4.245846
  0
VERTEX
  8
PLAN_1
  6
CONTINUOUS
 10
0.499276
 20
-4.250110
  0
VERTEX
  8
PLAN_1
  6
CONTINUOUS
 10
0.492350
 20
-4.253839
  0
VERTEX
  8
PLAN_1
  6
CONTINUOUS
 10
0.485961
 20
-4.256500
  0
VERTEX
  8
PLAN_1
  6
CONTINUOUS
 10
0.479035
 20
-4.258098
  0
VERTEX
  8
PLAN_1
  6
CONTINUOUS
 10
0.472642
 20
-4.259697
  0
VERTEX
  8
PLAN_1
  6
CONTINUOUS
 10
0.461988
 20
-4.260764
  0
VERTEX
  8
PLAN_1
  6
CONTINUOUS
 10
0.454528
 20
-4.261295
  0
VERTEX
  8
PLAN_1
  6
CONTINUOUS
 10
0.446004
 20
-4.260764
  0
VERTEX
  8
PLAN_1
  6
CONTINUOUS
 10
0.437484
 20
-4.259697
  0
VERTEX
  8
PLAN_1
  6
CONTINUOUS
 10
0.429492
 20
-4.258098
  0
VERTEX
  8
PLAN_1
  6
CONTINUOUS
 10
0.421500
 20
-4.255437
  0
VERTEX
  8
PLAN_1
  6
CONTINUOUS
 10
0.413512
 20
-4.252240
  0
VERTEX
  8
PLAN_1
  6
CONTINUOUS
 10
0.406051
 20
-4.247976
  0
VERTEX
  8
PLAN_1
  6
CONTINUOUS
 10
0.399126
 20
-4.243185
  0
VERTEX
  8
PLAN_1
  6
CONTINUOUS
 10
0.392736
 20
-4.236791
  0
VERTEX
  8
PLAN_1
  6
CONTINUOUS
 10
0.386874
 20
-4.230398
  0
VERTEX
  8
PLAN_1
  6
CONTINUOUS
 10
0.381016
 20
-4.222409
  0
VERTEX
  8
PLAN_1
  6
CONTINUOUS
 10
0.378886
 20
-4.218146
  0
VERTEX
  8
PLAN_1
  6
CONTINUOUS
 10
0.376220
 20
-4.213886
  0
VERTEX
  8
PLAN_1
  6
CONTINUOUS
 10
0.374622
 20
-4.209091
  0
VERTEX
  8
PLAN_1
  6
CONTINUOUS
 10
0.372492
 20
-4.204295
  0
VERTEX
  8
PLAN_1
  6
CONTINUOUS
 10
0.370894
 20
-4.198969
  0
VERTEX
  8
PLAN_1
  6
CONTINUOUS
 10
0.369295
 20
-4.193642
  0
VERTEX
  8
PLAN_1
  6
CONTINUOUS
 10
0.367697
 20
-4.187783
  0
VERTEX
  8
PLAN_1
  6
CONTINUOUS
 10
0.366634
 20
-4.181921
  0
VERTEX
  8
PLAN_1
  6
CONTINUOUS
 10
0.365567
 20
-4.169138
  0
VERTEX
  8
PLAN_1
  6
CONTINUOUS
 10
0.365035
 20
-4.155287
  0
VERTEX
  8
PLAN_1
  6
CONTINUOUS
 10
0.365035
 20
-4.144102
  0
VERTEX
  8
PLAN_1
  6
CONTINUOUS
 10
0.366634
 20
-4.133445
  0
VERTEX
  8
PLAN_1
  6
CONTINUOUS
 10
0.368232
 20
-4.122791
  0
VERTEX
  8
PLAN_1
  6
CONTINUOUS
 10
0.371425
 20
-4.113205
  0
VERTEX
  8
PLAN_1
  6
CONTINUOUS
 10
0.374622
 20
-4.104146
  0
VERTEX
  8
PLAN_1
  6
CONTINUOUS
 10
0.378886
 20
-4.095626
  0
VERTEX
  8
PLAN_1
  6
CONTINUOUS
 10
0.383681
 20
-4.087634
  0
VERTEX
  8
PLAN_1
  6
CONTINUOUS
 10
0.389539
 20
-4.080177
  0
VERTEX
  8
PLAN_1
  6
CONTINUOUS
 10
0.395933
 20
-4.073783
  0
VERTEX
  8
PLAN_1
  6
CONTINUOUS
 10
0.402858
 20
-4.067925
  0
VERTEX
  8
PLAN_1
  6
CONTINUOUS
 10
0.410315
 20
-4.063130
  0
VERTEX
  8
PLAN_1
  6
CONTINUOUS
 10
0.418839
 20
-4.058866
  0
VERTEX
  8
PLAN_1
  6
CONTINUOUS
 10
0.427894
 20
-4.055673
  0
VERTEX
  8
PLAN_1
  6
CONTINUOUS
 10
0.436949
 20
-4.053539
  0
VERTEX
  8
PLAN_1
  6
CONTINUOUS
 10
0.447071
 20
-4.051941
  0
VERTEX
  8
PLAN_1
  6
CONTINUOUS
 10
0.457724
 20
-4.051409
  0
VERTEX
  8
PLAN_1
  6
CONTINUOUS
 10
0.467315
 20
-4.051941
  0
VERTEX
  8
PLAN_1
  6
CONTINUOUS
 10
0.475839
 20
-4.053008
  0
VERTEX
  8
PLAN_1
  6
CONTINUOUS
 10
0.483827
 20
-4.054606
  0
VERTEX
  8
PLAN_1
  6
CONTINUOUS
 10
0.491819
 20
-4.056736
  0
VERTEX
  8
PLAN_1
  6
CONTINUOUS
 10
0.498744
 20
-4.059933
  0
VERTEX
  8
PLAN_1
  6
CONTINUOUS
 10
0.505138
 20
-4.063130
  0
VERTEX
  8
PLAN_1
  6
CONTINUOUS
 10
0.510996
 20
-4.067390
  0
VERTEX
  8
PLAN_1
  6
CONTINUOUS
 10
0.516323
 20
-4.071654
  0
VERTEX
  8
PLAN_1
  6
CONTINUOUS
 10
0.521118
 20
-4.076449
  0
VERTEX
  8
PLAN_1
  6
CONTINUOUS
 10
0.525378
 20
-4.081240
  0
VERTEX
  8
PLAN_1
  6
CONTINUOUS
 10
0.529106
 20
-4.086567
  0
VERTEX
  8
PLAN_1
  6
CONTINUOUS
 10
0.532303
 20
-4.092429
  0
VERTEX
  8
PLAN_1
  6
CONTINUOUS
 10
0.534969
 20
-4.098287
  0
VERTEX
  8
PLAN_1
  6
CONTINUOUS
 10
0.537098
 20
-4.104146
  0
VERTEX
  8
PLAN_1
  6
CONTINUOUS
 10
0.538697
 20
-4.110539
  0
VERTEX
  8
PLAN_1
  6
CONTINUOUS
 10
0.539764
 20
-4.116402
  0
VERTEX
  8
PLAN_1
  6
CONTINUOUS
 10
0.513657
 20
-4.116402
  0
SEQEND
  8
0
  0
POLYLINE
  8
PLAN_1
  6
CONTINUOUS
 66
     1
 40
0.003000
 41
0.003000
  0
VERTEX
  8
PLAN_1
  6
CONTINUOUS
 10
0.601024
 20
-4.255969
  0
VERTEX
  8
PLAN_1
  6
CONTINUOUS
 10
0.574390
 20
-4.255969
  0
VERTEX
  8
PLAN_1
  6
CONTINUOUS
 10
0.574390
 20
-4.056736
  0
VERTEX
  8
PLAN_1
  6
CONTINUOUS
 10
0.601024
 20
-4.056736
  0
VERTEX
  8
PLAN_1
  6
CONTINUOUS
 10
0.601024
 20
-4.153157
  0
VERTEX
  8
PLAN_1
  6
CONTINUOUS
 10
0.697976
 20
-4.056736
  0
VERTEX
  8
PLAN_1
  6
CONTINUOUS
 10
0.734732
 20
-4.056736
  0
VERTEX
  8
PLAN_1
  6
CONTINUOUS
 10
0.652161
 20
-4.137177
  0
VERTEX
  8
PLAN_1
  6
CONTINUOUS
 10
0.737398
 20
-4.255969
  0
VERTEX
  8
PLAN_1
  6
CONTINUOUS
 10
0.702236
 20
-4.255969
  0
VERTEX
  8
PLAN_1
  6
CONTINUOUS
 10
0.632453
 20
-4.156354
  0
VERTEX
  8
PLAN_1
  6
CONTINUOUS
 10
0.601024
 20
-4.186185
  0
VERTEX
  8
PLAN_1
  6
CONTINUOUS
 10
0.601024
 20
-4.255969
  0
SEQEND
  8
0
  0
POLYLINE
  8
PLAN_1
  6
CONTINUOUS
 66
     1
 40
0.003000
 41
0.003000
  0
VERTEX
  8
PLAN_1
  6
CONTINUOUS
 10
0.768291
 20
-4.192043
  0
VERTEX
  8
PLAN_1
  6
CONTINUOUS
 10
0.768291
 20
-4.205894
  0
VERTEX
  8
PLAN_1
  6
CONTINUOUS
 10
0.768291
 20
-4.210157
  0
VERTEX
  8
PLAN_1
  6
CONTINUOUS
 10
0.768827
 20
-4.213886
  0
VERTEX
  8
PLAN_1
  6
CONTINUOUS
 10
0.769358
 20
-4.217614
  0
VERTEX
  8
PLAN_1
  6
CONTINUOUS
 10
0.770425
 20
-4.220811
  0
VERTEX
  8
PLAN_1
  6
CONTINUOUS
 10
0.771488
 20
-4.224008
  0
VERTEX
  8
PLAN_1
  6
CONTINUOUS
 10
0.773087
 20
-4.226669
  0
VERTEX
  8
PLAN_1
  6
CONTINUOUS
 10
0.774685
 20
-4.228799
  0
VERTEX
  8
PLAN_1
  6
CONTINUOUS
 10
0.776283
 20
-4.230933
  0
VERTEX
  8
PLAN_1
  6
CONTINUOUS
 10
0.778413
 20
-4.232531
  0
VERTEX
  8
PLAN_1
  6
CONTINUOUS
 10
0.780543
 20
-4.234126
  0
VERTEX
  8
PLAN_1
  6
CONTINUOUS
 10
0.783209
 20
-4.235724
  0
VERTEX
  8
PLAN_1
  6
CONTINUOUS
 10
0.785874
 20
-4.236791
  0
VERTEX
  8
PLAN_1
  6
CONTINUOUS
 10
0.791732
 20
-4.237858
  0
VERTEX
  8
PLAN_1
  6
CONTINUOUS
 10
0.798126
 20
-4.238390
  0
VERTEX
  8
PLAN_1
  6
CONTINUOUS
 10
0.802917
 20
-4.237858
  0
VERTEX
  8
PLAN_1
  6
CONTINUOUS
 10
0.806650
 20
-4.237323
  0
VERTEX
  8
PLAN_1
  6
CONTINUOUS
 10
0.810378
 20
-4.236791
  0
VERTEX
  8
PLAN_1
  6
CONTINUOUS
 10
0.813575
 20
-4.235724
  0
VERTEX
  8
PLAN_1
  6
CONTINUOUS
 10
0.816768
 20
-4.234126
  0
VERTEX
  8
PLAN_1
  6
CONTINUOUS
 10
0.819433
 20
-4.232531
  0
VERTEX
  8
PLAN_1
  6
CONTINUOUS
 10
0.821563
 20
-4.230398
  0
VERTEX
  8
PLAN_1
  6
CONTINUOUS
 10
0.823693
 20
-4.228268
  0
VERTEX
  8
PLAN_1
  6
CONTINUOUS
 10
0.825291
 20
-4.226138
  0
VERTEX
  8
PLAN_1
  6
CONTINUOUS
 10
0.826890
 20
-4.223472
  0
VERTEX
  8
PLAN_1
  6
CONTINUOUS
 10
0.827957
 20
-4.220276
  0
VERTEX
  8
PLAN_1
  6
CONTINUOUS
 10
0.828488
 20
-4.217614
  0
VERTEX
  8
PLAN_1
  6
CONTINUOUS
 10
0.830087
 20
-4.210689
  0
VERTEX
  8
PLAN_1
  6
CONTINUOUS
 10
0.830087
 20
-4.203764
  0
VERTEX
  8
PLAN_1
  6
CONTINUOUS
 10
0.830087
 20
-4.056736
  0
VERTEX
  8
PLAN_1
  6
CONTINUOUS
 10
0.857256
 20
-4.056736
  0
VERTEX
  8
PLAN_1
  6
CONTINUOUS
 10
0.857256
 20
-4.202165
  0
VERTEX
  8
PLAN_1
  6
CONTINUOUS
 10
0.856720
 20
-4.210689
  0
VERTEX
  8
PLAN_1
  6
CONTINUOUS
 10
0.855657
 20
-4.218146
  0
VERTEX
  8
PLAN_1
  6
CONTINUOUS
 10
0.854059
 20
-4.225071
  0
VERTEX
  8
PLAN_1
  6
CONTINUOUS
 10
0.851929
 20
-4.230933
  0
VERTEX
  8
PLAN_1
  6
CONTINUOUS
 10
0.849264
 20
-4.236791
  0
VERTEX
  8
PLAN_1
  6
CONTINUOUS
 10
0.846067
 20
-4.241587
  0
VERTEX
  8
PLAN_1
  6
CONTINUOUS
 10
0.842339
 20
-4.245846
  0
VERTEX
  8
PLAN_1
  6
CONTINUOUS
 10
0.838610
 20
-4.249043
  0
VERTEX
  8
PLAN_1
  6
CONTINUOUS
 10
0.834346
 20
-4.252240
  0
VERTEX
  8
PLAN_1
  6
CONTINUOUS
 10
0.829555
 20
-4.254902
  0
VERTEX
  8
PLAN_1
  6
CONTINUOUS
 10
0.824760
 20
-4.257035
  0
VERTEX
  8
PLAN_1
  6
CONTINUOUS
 10
0.819965
 20
-4.258634
  0
VERTEX
  8
PLAN_1
  6
CONTINUOUS
 10
0.815169
 20
-4.259697
  0
VERTEX
  8
PLAN_1
  6
CONTINUOUS
 10
0.809843
 20
-4.260764
  0
VERTEX
  8
PLAN_1
  6
CONTINUOUS
 10
0.804516
 20
-4.261295
  0
VERTEX
  8
PLAN_1
  6
CONTINUOUS
 10
0.799724
 20
-4.261295
  0
VERTEX
  8
PLAN_1
  6
CONTINUOUS
 10
0.791201
 20
-4.260764
  0
VERTEX
  8
PLAN_1
  6
CONTINUOUS
 10
0.783740
 20
-4.259697
  0
VERTEX
  8
PLAN_1
  6
CONTINUOUS
 10
0.777350
 20
-4.258098
  0
VERTEX
  8
PLAN_1
  6
CONTINUOUS
 10
0.771488
 20
-4.255969
  0
VERTEX
  8
PLAN_1
  6
CONTINUOUS
 10
0.766161
 20
-4.253307
  0
VERTEX
  8
PLAN_1
  6
CONTINUOUS
 10
0.761366
 20
-4.250642
  0
VERTEX
  8
PLAN_1
  6
CONTINUOUS
 10
0.757638
 20
-4.246913
  0
VERTEX
  8
PLAN_1
  6
CONTINUOUS
 10
0.753909
 20
-4.243185
  0
VERTEX
  8
PLAN_1
  6
CONTINUOUS
 10
0.751248
 20
-4.239457
  0
VERTEX
  8
PLAN_1
  6
CONTINUOUS
 10
0.748583
 20
-4.235724
  0
VERTEX
  8
PLAN_1
  6
CONTINUOUS
 10
0.746984
 20
-4.231465
  0
VERTEX
  8
PLAN_1
  6
CONTINUOUS
 10
0.745386
 20
-4.227201
  0
VERTEX
  8
PLAN_1
  6
CONTINUOUS
 10
0.744323
 20
-4.222941
  0
VERTEX
  8
PLAN_1
  6
CONTINUOUS
 10
0.743787
 20
-4.219213
  0
VERTEX
  8
PLAN_1
  6
CONTINUOUS
 10
0.743256
 20
-4.215484
  0
VERTEX
  8
PLAN_1
  6
CONTINUOUS
 10
0.743256
 20
-4.211756
  0
VERTEX
  8
PLAN_1
  6
CONTINUOUS
 10
0.743256
 20
-4.192043
  0
VERTEX
  8
PLAN_1
  6
CONTINUOUS
 10
0.768291
 20
-4.192043
  0
SEQEND
  8
0
  0
POLYLINE
  8
PLAN_1
  6
CONTINUOUS
 66
     1
 40
0.003000
 41
0.003000
  0
VERTEX
  8
PLAN_1
  6
CONTINUOUS
 10
1.060748
 20
-4.101484
  0
VERTEX
  8
PLAN_1
  6
CONTINUOUS
 10
1.079925
 20
-4.101484
  0
VERTEX
  8
PLAN_1
  6
CONTINUOUS
 10
1.075665
 20
-4.116402
  0
VERTEX
  8
PLAN_1
  6
CONTINUOUS
 10
1.071402
 20
-4.131315
  0
VERTEX
  8
PLAN_1
  6
CONTINUOUS
 10
1.067142
 20
-4.145165
  0
VERTEX
  8
PLAN_1
  6
CONTINUOUS
 10
1.063413
 20
-4.158484
  0
VERTEX
  8
PLAN_1
  6
CONTINUOUS
 10
1.060217
 20
-4.170736
  0
VERTEX
  8
PLAN_1
  6
CONTINUOUS
 10
1.057020
 20
-4.180323
  0
VERTEX
  8
PLAN_1
  6
CONTINUOUS
 10
1.055421
 20
-4.187783
  0
VERTEX
  8
PLAN_1
  6
CONTINUOUS
 10
1.054890
 20
-4.192043
  0
VERTEX
  8
PLAN_1
  6
CONTINUOUS
 10
1.054890
 20
-4.194173
  0
VERTEX
  8
PLAN_1
  6
CONTINUOUS
 10
1.054890
 20
-4.195772
  0
VERTEX
  8
PLAN_1
  6
CONTINUOUS
 10
1.055421
 20
-4.196839
  0
VERTEX
  8
PLAN_1
  6
CONTINUOUS
 10
1.055953
 20
-4.198437
  0
VERTEX
  8
PLAN_1
  6
CONTINUOUS
 10
1.057020
 20
-4.198969
  0
VERTEX
  8
PLAN_1
  6
CONTINUOUS
 10
1.058087
 20
-4.199500
  0
VERTEX
  8
PLAN_1
  6
CONTINUOUS
 10
1.059150
 20
-4.200035
  0
VERTEX
  8
PLAN_1
  6
CONTINUOUS
 10
1.060748
 20
-4.200035
  0
VERTEX
  8
PLAN_1
  6
CONTINUOUS
 10
1.064476
 20
-4.200035
  0
VERTEX
  8
PLAN_1
  6
CONTINUOUS
 10
1.067673
 20
-4.198969
  0
VERTEX
  8
PLAN_1
  6
CONTINUOUS
 10
1.071402
 20
-4.197370
  0
VERTEX
  8
PLAN_1
  6
CONTINUOUS
 10
1.074598
 20
-4.195240
  0
VERTEX
  8
PLAN_1
  6
CONTINUOUS
 10
1.078327
 20
-4.192043
  0
VERTEX
  8
PLAN_1
  6
CONTINUOUS
 10
1.081524
 20
-4.188846
  0
VERTEX
  8
PLAN_1
  6
CONTINUOUS
 10
1.084720
 20
-4.185654
  0
VERTEX
  8
PLAN_1
  6
CONTINUOUS
 10
1.087382
 20
-4.181390
  0
VERTEX
  8
PLAN_1
  6
CONTINUOUS
 10
1.090047
 20
-4.177130
  0
VERTEX
  8
PLAN_1
  6
CONTINUOUS
 10
1.092713
 20
-4.172335
  0
VERTEX
  8
PLAN_1
  6
CONTINUOUS
 10
1.094843
 20
-4.167539
  0
VERTEX
  8
PLAN_1
  6
CONTINUOUS
 10
1.096441
 20
-4.162213
  0
VERTEX
  8
PLAN_1
  6
CONTINUOUS
 10
1.098039
 20
-4.156886
  0
VERTEX
  8
PLAN_1
  6
CONTINUOUS
 10
1.099102
 20
-4.151559
  0
VERTEX
  8
PLAN_1
  6
CONTINUOUS
 10
1.099638
 20
-4.145697
  0
VERTEX
  8
PLAN_1
  6
CONTINUOUS
 10
1.100169
 20
-4.140370
  0
VERTEX
  8
PLAN_1
  6
CONTINUOUS
 10
1.099638
 20
-4.132382
  0
VERTEX
  8
PLAN_1
  6
CONTINUOUS
 10
1.098571
 20
-4.124390
  0
VERTEX
  8
PLAN_1
  6
CONTINUOUS
 10
1.096441
 20
-4.116933
  0
VERTEX
  8
PLAN_1
  6
CONTINUOUS
 10
1.093776
 20
-4.110539
  0
VERTEX
  8
PLAN_1
  6
CONTINUOUS
 10
1.090579
 20
-4.104146
  0
VERTEX
  8
PLAN_1
  6
CONTINUOUS
 10
1.086850
 20
-4.098287
  0
VERTEX
  8
PLAN_1
  6
CONTINUOUS
 10
1.082055
 20
-4.092961
  0
VERTEX
  8
PLAN_1
  6
CONTINUOUS
 10
1.077264
 20
-4.087634
  0
VERTEX
  8
PLAN_1
  6
CONTINUOUS
 10
1.071402
 20
-4.083370
  0
VERTEX
  8
PLAN_1
  6
CONTINUOUS
 10
1.065543
 20
-4.079642
  0
VERTEX
  8
PLAN_1
  6
CONTINUOUS
 10
1.059150
 20
-4.076449
  0
VERTEX
  8
PLAN_1
  6
CONTINUOUS
 10
1.052224
 20
-4.073783
  0
VERTEX
  8
PLAN_1
  6
CONTINUOUS
 10
1.045299
 20
-4.071654
  0
VERTEX
  8
PLAN_1
  6
CONTINUOUS
 10
1.037843
 20
-4.070055
  0
VERTEX
  8
PLAN_1
  6
CONTINUOUS
 10
1.030386
 20
-4.068988
  0
VERTEX
  8
PLAN_1
  6
CONTINUOUS
 10
1.022925
 20
-4.068457
  0
VERTEX
  8
PLAN_1
  6
CONTINUOUS
 10
1.013339
 20
-4.068988
  0
VERTEX
  8
PLAN_1
  6
CONTINUOUS
 10
1.004815
 20
-4.070587
  0
VERTEX
  8
PLAN_1
  6
CONTINUOUS
 10
0.996291
 20
-4.072717
  0
VERTEX
  8
PLAN_1
  6
CONTINUOUS
 10
0.988835
 20
-4.075382
  0
VERTEX
  8
PLAN_1
  6
CONTINUOUS
 10
0.981374
 20
-4.079110
  0
VERTEX
  8
PLAN_1
  6
CONTINUOUS
 10
0.974449
 20
-4.083906
  0
VERTEX
  8
PLAN_1
  6
CONTINUOUS
 10
0.968059
 20
-4.088701
  0
VERTEX
  8
PLAN_1
  6
CONTINUOUS
 10
0.962197
 20
-4.094559
  0
VERTEX
  8
PLAN_1
  6
CONTINUOUS
 10
0.956870
 20
-4.100953
  0
VERTEX
  8
PLAN_1
  6
CONTINUOUS
 10
0.952075
 20
-4.107878
  0
VERTEX
  8
PLAN_1
  6
CONTINUOUS
 10
0.947815
 20
-4.115335
  0
VERTEX
  8
PLAN_1
  6
CONTINUOUS
 10
0.944618
 20
-4.122791
  0
VERTEX
  8
PLAN_1
  6
CONTINUOUS
 10
0.941957
 20
-4.130783
  0
VERTEX
  8
PLAN_1
  6
CONTINUOUS
 10
0.939823
 20
-4.139307
  0
VERTEX
  8
PLAN_1
  6
CONTINUOUS
 10
0.938760
 20
-4.148362
  0
VERTEX
  8
PLAN_1
  6
CONTINUOUS
 10
0.938224
 20
-4.157417
  0
VERTEX
  8
PLAN_1
  6
CONTINUOUS
 10
0.938760
 20
-4.166472
  0
VERTEX
  8
PLAN_1
  6
CONTINUOUS
 10
0.939823
 20
-4.175531
  0
VERTEX
  8
PLAN_1
  6
CONTINUOUS
 10
0.941957
 20
-4.183520
  0
VERTEX
  8
PLAN_1
  6
CONTINUOUS
 10
0.945150
 20
-4.191512
  0
VERTEX
  8
PLAN_1
  6
CONTINUOUS
 10
0.948346
 20
-4.199500
  0
VERTEX
  8
PLAN_1
  6
CONTINUOUS
 10
0.952610
 20
-4.206425
  0
VERTEX
  8
PLAN_1
  6
CONTINUOUS
 10
0.957937
 20
-4.213350
  0
VERTEX
  8
PLAN_1
  6
CONTINUOUS
 10
0.963264
 20
-4.219213
  0
VERTEX
  8
PLAN_1
  6
CONTINUOUS
 10
0.969122
 20
-4.224539
  0
VERTEX
  8
PLAN_1
  6
CONTINUOUS
 10
0.976047
 20
-4.229866
  0
VERTEX
  8
PLAN_1
  6
CONTINUOUS
 10
0.982972
 20
-4.234126
  0
VERTEX
  8
PLAN_1
  6
CONTINUOUS
 10
0.990433
 20
-4.237323
  0
VERTEX
  8
PLAN_1
  6
CONTINUOUS
 10
0.998421
 20
-4.240520
  0
VERTEX
  8
PLAN_1
  6
CONTINUOUS
 10
1.006945
 20
-4.242650
  0
VERTEX
  8
PLAN_1
  6
CONTINUOUS
 10
1.015469
 20
-4.243717
  0
VERTEX
  8
PLAN_1
  6
CONTINUOUS
 10
1.024524
 20
-4.244248
  0
VERTEX
  8
PLAN_1
  6
CONTINUOUS
 10
1.029319
 20
-4.243717
  0
VERTEX
  8
PLAN_1
  6
CONTINUOUS
 10
1.034114
 20
-4.243717
  0
VERTEX
  8
PLAN_1
  6
CONTINUOUS
 10
1.038909
 20
-4.242650
  0
VERTEX
  8
PLAN_1
  6
CONTINUOUS
 10
1.043701
 20
-4.242118
  0
VERTEX
  8
PLAN_1
  6
CONTINUOUS
 10
1.053291
 20
-4.239457
  0
VERTEX
  8
PLAN_1
  6
CONTINUOUS
 10
1.062346
 20
-4.235724
  0
VERTEX
  8
PLAN_1
  6
CONTINUOUS
 10
1.070339
 20
-4.230933
  0
VERTEX
  8
PLAN_1
  6
CONTINUOUS
 10
1.078327
 20
-4.225606
  0
VERTEX
  8
PLAN_1
  6
CONTINUOUS
 10
1.082055
 20
-4.222409
  0
VERTEX
  8
PLAN_1
  6
CONTINUOUS
 10
1.085787
 20
-4.219213
  0
VERTEX
  8
PLAN_1
  6
CONTINUOUS
 10
1.088980
 20
-4.216016
  0
VERTEX
  8
PLAN_1
  6
CONTINUOUS
 10
1.092177
 20
-4.212287
  0
VERTEX
  8
PLAN_1
  6
CONTINUOUS
 10
1.110823
 20
-4.212287
  0
VERTEX
  8
PLAN_1
  6
CONTINUOUS
 10
1.107094
 20
-4.218146
  0
VERTEX
  8
PLAN_1
  6
CONTINUOUS
 10
1.103366
 20
-4.223472
  0
VERTEX
  8
PLAN_1
  6
CONTINUOUS
 10
1.099102
 20
-4.228268
  0
VERTEX
  8
PLAN_1
  6
CONTINUOUS
 10
1.094307
 20
-4.233063
  0
VERTEX
  8
PLAN_1
  6
CONTINUOUS
 10
1.089516
 20
-4.237323
  0
VERTEX
  8
PLAN_1
  6
CONTINUOUS
 10
1.084720
 20
-4.241051
  0
VERTEX
  8
PLAN_1
  6
CONTINUOUS
 10
1.079394
 20
-4.244783
  0
VERTEX
  8
PLAN_1
  6
CONTINUOUS
 10
1.074067
 20
-4.247976
  0
VERTEX
  8
PLAN_1
  6
CONTINUOUS
 10
1.068205
 20
-4.251173
  0
VERTEX
  8
PLAN_1
  6
CONTINUOUS
 10
1.062346
 20
-4.253839
  0
VERTEX
  8
PLAN_1
  6
CONTINUOUS
 10
1.056488
 20
-4.255969
  0
VERTEX
  8
PLAN_1
  6
CONTINUOUS
 10
1.050094
 20
-4.258098
  0
VERTEX
  8
PLAN_1
  6
CONTINUOUS
 10
1.043701
 20
-4.259165
  0
VERTEX
  8
PLAN_1
  6
CONTINUOUS
 10
1.037311
 20
-4.260232
  0
VERTEX
  8
PLAN_1
  6
CONTINUOUS
 10
1.030917
 20
-4.261295
  0
VERTEX
  8
PLAN_1
  6
CONTINUOUS
 10
1.023992
 20
-4.261295
  0
VERTEX
  8
PLAN_1
  6
CONTINUOUS
 10
1.018665
 20
-4.261295
  0
VERTEX
  8
PLAN_1
  6
CONTINUOUS
 10
1.012803
 20
-4.260764
  0
VERTEX
  8
PLAN_1
  6
CONTINUOUS
 10
1.007476
 20
-4.260232
  0
VERTEX
  8
PLAN_1
  6
CONTINUOUS
 10
1.002685
 20
-4.259165
  0
VERTEX
  8
PLAN_1
  6
CONTINUOUS
 10
0.992028
 20
-4.256500
  0
VERTEX
  8
PLAN_1
  6
CONTINUOUS
 10
0.982441
 20
-4.253307
  0
VERTEX
  8
PLAN_1
  6
CONTINUOUS
 10
0.973386
 20
-4.248512
  0
VERTEX
  8
PLAN_1
  6
CONTINUOUS
 10
0.964327
 20
-4.243717
  0
VERTEX
  8
PLAN_1
  6
CONTINUOUS
 10
0.956339
 20
-4.237323
  0
VERTEX
  8
PLAN_1
  6
CONTINUOUS
 10
0.948882
 20
-4.230933
  0
VERTEX
  8
PLAN_1
  6
CONTINUOUS
 10
0.941957
 20
-4.223472
  0
VERTEX
  8
PLAN_1
  6
CONTINUOUS
 10
0.936094
 20
-4.214949
  0
VERTEX
  8
PLAN_1
  6
CONTINUOUS
 10
0.930768
 20
-4.206425
  0
VERTEX
  8
PLAN_1
  6
CONTINUOUS
 10
0.925972
 20
-4.197370
  0
VERTEX
  8
PLAN_1
  6
CONTINUOUS
 10
0.922780
 20
-4.187248
  0
VERTEX
  8
PLAN_1
  6
CONTINUOUS
 10
0.920114
 20
-4.177130
  0
VERTEX
  8
PLAN_1
  6
CONTINUOUS
 10
0.919047
 20
-4.172335
  0
VERTEX
  8
PLAN_1
  6
CONTINUOUS
 10
0.918516
 20
-4.167008
  0
VERTEX
  8
PLAN_1
  6
CONTINUOUS
 10
0.917984
 20
-4.161146
  0
VERTEX
  8
PLAN_1
  6
CONTINUOUS
 10
0.917984
 20
-4.155819
  0
VERTEX
  8
PLAN_1
  6
CONTINUOUS
 10
0.917984
 20
-4.150492
  0
VERTEX
  8
PLAN_1
  6
CONTINUOUS
 10
0.918516
 20
-4.145165
  0
VERTEX
  8
PLAN_1
  6
CONTINUOUS
 10
0.919047
 20
-4.139839
  0
VERTEX
  8
PLAN_1
  6
CONTINUOUS
 10
0.920114
 20
-4.134512
  0
VERTEX
  8
PLAN_1
  6
CONTINUOUS
 10
0.922780
 20
-4.124390
  0
VERTEX
  8
PLAN_1
  6
CONTINUOUS
 10
0.926508
 20
-4.114803
  0
VERTEX
  8
PLAN_1
  6
CONTINUOUS
 10
0.930768
 20
-4.105744
  0
VERTEX
  8
PLAN_1
  6
CONTINUOUS
 10
0.936094
 20
-4.097220
  0
VERTEX
  8
PLAN_1
  6
CONTINUOUS
 10
0.941957
 20
-4.089232
  0
VERTEX
  8
PLAN_1
  6
CONTINUOUS
 10
0.948882
 20
-4.081776
  0
VERTEX
  8
PLAN_1
  6
CONTINUOUS
 10
0.956339
 20
-4.075382
  0
VERTEX
  8
PLAN_1
  6
CONTINUOUS
 10
0.964327
 20
-4.068988
  0
VERTEX
  8
PLAN_1
  6
CONTINUOUS
 10
0.972850
 20
-4.064193
  0
VERTEX
  8
PLAN_1
  6
CONTINUOUS
 10
0.982441
 20
-4.059402
  0
VERTEX
  8
PLAN_1
  6
CONTINUOUS
 10
0.992028
 20
-4.056205
  0
VERTEX
  8
PLAN_1
  6
CONTINUOUS
 10
1.001618
 20
-4.053539
  0
VERTEX
  8
PLAN_1
  6
CONTINUOUS
 10
1.012272
 20
-4.051941
  0
VERTEX
  8
PLAN_1
  6
CONTINUOUS
 10
1.022925
 20
-4.051409
  0
VERTEX
  8
PLAN_1
  6
CONTINUOUS
 10
1.031984
 20
-4.051941
  0
VERTEX
  8
PLAN_1
  6
CONTINUOUS
 10
1.041571
 20
-4.053008
  0
VERTEX
  8
PLAN_1
  6
CONTINUOUS
 10
1.050626
 20
-4.055138
  0
VERTEX
  8
PLAN_1
  6
CONTINUOUS
 10
1.059150
 20
-4.057803
  0
VERTEX
  8
PLAN_1
  6
CONTINUOUS
 10
1.067673
 20
-4.061531
  0
VERTEX
  8
PLAN_1
  6
CONTINUOUS
 10
1.075665
 20
-4.065791
  0
VERTEX
  8
PLAN_1
  6
CONTINUOUS
 10
1.082591
 20
-4.070587
  0
VERTEX
  8
PLAN_1
  6
CONTINUOUS
 10
1.089516
 20
-4.075913
  0
VERTEX
  8
PLAN_1
  6
CONTINUOUS
 10
1.095906
 20
-4.081776
  0
VERTEX
  8
PLAN_1
  6
CONTINUOUS
 10
1.101232
 20
-4.088701
  0
VERTEX
  8
PLAN_1
  6
CONTINUOUS
 10
1.106563
 20
-4.095626
  0
VERTEX
  8
PLAN_1
  6
CONTINUOUS
 10
1.110291
 20
-4.103083
  0
VERTEX
  8
PLAN_1
  6
CONTINUOUS
 10
1.113488
 20
-4.111071
  0
VERTEX
  8
PLAN_1
  6
CONTINUOUS
 10
1.116150
 20
-4.119594
  0
VERTEX
  8
PLAN_1
  6
CONTINUOUS
 10
1.117748
 20
-4.128654
  0
VERTEX
  8
PLAN_1
  6
CONTINUOUS
 10
1.118280
 20
-4.138240
  0
VERTEX
  8
PLAN_1
  6
CONTINUOUS
 10
1.117748
 20
-4.147295
  0
VERTEX
  8
PLAN_1
  6
CONTINUOUS
 10
1.116150
 20
-4.155819
  0
VERTEX
  8
PLAN_1
  6
CONTINUOUS
 10
1.114020
 20
-4.164343
  0
VERTEX
  8
PLAN_1
  6
CONTINUOUS
 10
1.111354
 20
-4.171803
  0
VERTEX
  8
PLAN_1
  6
CONTINUOUS
 10
1.107626
 20
-4.178728
  0
VERTEX
  8
PLAN_1
  6
CONTINUOUS
 10
1.103898
 20
-4.185654
  0
VERTEX
  8
PLAN_1
  6
CONTINUOUS
 10
1.099102
 20
-4.191512
  0
VERTEX
  8
PLAN_1
  6
CONTINUOUS
 10
1.094307
 20
-4.196839
  0
VERTEX
  8
PLAN_1
  6
CONTINUOUS
 10
1.088980
 20
-4.201634
  0
VERTEX
  8
PLAN_1
  6
CONTINUOUS
 10
1.083654
 20
-4.205894
  0
VERTEX
  8
PLAN_1
  6
CONTINUOUS
 10
1.078327
 20
-4.209622
  0
VERTEX
  8
PLAN_1
  6
CONTINUOUS
 10
1.072469
 20
-4.212819
  0
VERTEX
  8
PLAN_1
  6
CONTINUOUS
 10
1.067142
 20
-4.214949
  0
VERTEX
  8
PLAN_1
  6
CONTINUOUS
 10
1.061815
 20
-4.217083
  0
VERTEX
  8
PLAN_1
  6
CONTINUOUS
 10
1.056488
 20
-4.218146
  0
VERTEX
  8
PLAN_1
  6
CONTINUOUS
 10
1.051693
 20
-4.218146
  0
VERTEX
  8
PLAN_1
  6
CONTINUOUS
 10
1.048496
 20
-4.218146
  0
VERTEX
  8
PLAN_1
  6
CONTINUOUS
 10
1.045299
 20
-4.217083
  0
VERTEX
  8
PLAN_1
  6
CONTINUOUS
 10
1.042102
 20
-4.216016
  0
VERTEX
  8
PLAN_1
  6
CONTINUOUS
 10
1.039441
 20
-4.213886
  0
VERTEX
  8
PLAN_1
  6
CONTINUOUS
 10
1.037311
 20
-4.211756
  0
VERTEX
  8
PLAN_1
  6
CONTINUOUS
 10
1.035713
 20
-4.208559
  0
VERTEX
  8
PLAN_1
  6
CONTINUOUS
 10
1.034646
 20
-4.204831
  0
VERTEX
  8
PLAN_1
  6
CONTINUOUS
 10
1.034114
 20
-4.200567
  0
VERTEX
  8
PLAN_1
  6
CONTINUOUS
 10
1.033579
 20
-4.201098
  0
VERTEX
  8
PLAN_1
  6
CONTINUOUS
 10
1.030386
 20
-4.204295
  0
VERTEX
  8
PLAN_1
  6
CONTINUOUS
 10
1.026654
 20
-4.207492
  0
VERTEX
  8
PLAN_1
  6
CONTINUOUS
 10
1.022925
 20
-4.210157
  0
VERTEX
  8
PLAN_1
  6
CONTINUOUS
 10
1.018665
 20
-4.212819
  0
VERTEX
  8
PLAN_1
  6
CONTINUOUS
 10
1.014402
 20
-4.214949
  0
VERTEX
  8
PLAN_1
  6
CONTINUOUS
 10
1.009610
 20
-4.216547
  0
VERTEX
  8
PLAN_1
  6
CONTINUOUS
 10
1.004815
 20
-4.218146
  0
VERTEX
  8
PLAN_1
  6
CONTINUOUS
 10
1.000020
 20
-4.218146
  0
VERTEX
  8
PLAN_1
  6
CONTINUOUS
 10
0.995760
 20
-4.218146
  0
VERTEX
  8
PLAN_1
  6
CONTINUOUS
 10
0.991496
 20
-4.217614
  0
VERTEX
  8
PLAN_1
  6
CONTINUOUS
 10
0.987768
 20
-4.216016
  0
VERTEX
  8
PLAN_1
  6
CONTINUOUS
 10
0.983508
 20
-4.214949
  0
VERTEX
  8
PLAN_1
  6
CONTINUOUS
 10
0.980311
 20
-4.212819
  0
VERTEX
  8
PLAN_1
  6
CONTINUOUS
 10
0.976583
 20
-4.210689
  0
VERTEX
  8
PLAN_1
  6
CONTINUOUS
 10
0.973917
 20
-4.208024
  0
VERTEX
  8
PLAN_1
  6
CONTINUOUS
 10
0.970720
 20
-4.205362
  0
VERTEX
  8
PLAN_1
  6
CONTINUOUS
 10
0.968059
 20
-4.202165
  0
VERTEX
  8
PLAN_1
  6
CONTINUOUS
 10
0.965925
 20
-4.198437
  0
VERTEX
  8
PLAN_1
  6
CONTINUOUS
 10
0.963795
 20
-4.194709
  0
VERTEX
  8
PLAN_1
  6
CONTINUOUS
 10
0.962197
 20
-4.190980
  0
VERTEX
  8
PLAN_1
  6
CONTINUOUS
 10
0.961134
 20
-4.186717
  0
VERTEX
  8
PLAN_1
  6
CONTINUOUS
 10
0.960067
 20
-4.182457
  0
VERTEX
  8
PLAN_1
  6
CONTINUOUS
 10
0.959535
 20
-4.178193
  0
VERTEX
  8
PLAN_1
  6
CONTINUOUS
 10
0.959535
 20
-4.173933
  0
VERTEX
  8
PLAN_1
  6
CONTINUOUS
 10
0.959535
 20
-4.167008
  0
VERTEX
  8
PLAN_1
  6
CONTINUOUS
 10
0.960598
 20
-4.159547
  0
VERTEX
  8
PLAN_1
  6
CONTINUOUS
 10
0.962197
 20
-4.152622
  0
VERTEX
  8
PLAN_1
  6
CONTINUOUS
 10
0.963795
 20
-4.146232
  0
VERTEX
  8
PLAN_1
  6
CONTINUOUS
 10
0.966461
 20
-4.139307
  0
VERTEX
  8
PLAN_1
  6
CONTINUOUS
 10
0.969657
 20
-4.132913
  0
VERTEX
  8
PLAN_1
  6
CONTINUOUS
 10
0.972850
 20
-4.127055
  0
VERTEX
  8
PLAN_1
  6
CONTINUOUS
 10
0.977114
 20
-4.121728
  0
VERTEX
  8
PLAN_1
  6
CONTINUOUS
 10
0.981374
 20
-4.116402
  0
VERTEX
  8
PLAN_1
  6
CONTINUOUS
 10
0.986169
 20
-4.111606
  0
VERTEX
  8
PLAN_1
  6
CONTINUOUS
 10
0.991496
 20
-4.107343
  0
VERTEX
  8
PLAN_1
  6
CONTINUOUS
 10
0.997358
 20
-4.104146
  0
VERTEX
  8
PLAN_1
  6
CONTINUOUS
 10
1.003217
 20
-4.100953
  0
VERTEX
  8
PLAN_1
  6
CONTINUOUS
 10
1.009610
 20
-4.098819
  0
VERTEX
  8
PLAN_1
  6
CONTINUOUS
 10
1.016535
 20
-4.097756
  0
VERTEX
  8
PLAN_1
  6
CONTINUOUS
 10
1.023461
 20
-4.097220
  0
VERTEX
  8
PLAN_1
  6
CONTINUOUS
 10
1.028252
 20
-4.097756
  0
VERTEX
  8
PLAN_1
  6
CONTINUOUS
 10
1.033047
 20
-4.098287
  0
VERTEX
  8
PLAN_1
  6
CONTINUOUS
 10
1.037311
 20
-4.099886
  0
VERTEX
  8
PLAN_1
  6
CONTINUOUS
 10
1.041571
 20
-4.102016
  0
VERTEX
  8
PLAN_1
  6
CONTINUOUS
 10
1.045835
 20
-4.105213
  0
VERTEX
  8
PLAN_1
  6
CONTINUOUS
 10
1.049028
 20
-4.108941
  0
VERTEX
  8
PLAN_1
  6
CONTINUOUS
 10
1.052756
 20
-4.113736
  0
VERTEX
  8
PLAN_1
  6
CONTINUOUS
 10
1.055421
 20
-4.119063
  0
VERTEX
  8
PLAN_1
  6
CONTINUOUS
 10
1.060748
 20
-4.101484
  0
SEQEND
  8
0
  0
POLYLINE
  8
PLAN_1
  6
CONTINUOUS
 66
     1
 40
0.003000
 41
0.003000
  0
VERTEX
  8
PLAN_1
  6
CONTINUOUS
 10
1.023992
 20
-4.117465
  0
VERTEX
  8
PLAN_1
  6
CONTINUOUS
 10
1.019728
 20
-4.117465
  0
VERTEX
  8
PLAN_1
  6
CONTINUOUS
 10
1.014937
 20
-4.118531
  0
VERTEX
  8
PLAN_1
  6
CONTINUOUS
 10
1.011209
 20
-4.120130
  0
VERTEX
  8
PLAN_1
  6
CONTINUOUS
 10
1.006945
 20
-4.122260
  0
VERTEX
  8
PLAN_1
  6
CONTINUOUS
 10
1.003217
 20
-4.124921
  0
VERTEX
  8
PLAN_1
  6
CONTINUOUS
 10
1.000020
 20
-4.128118
  0
VERTEX
  8
PLAN_1
  6
CONTINUOUS
 10
0.996823
 20
-4.131846
  0
VERTEX
  8
PLAN_1
  6
CONTINUOUS
 10
0.993626
 20
-4.135579
  0
VERTEX
  8
PLAN_1
  6
CONTINUOUS
 10
0.990965
 20
-4.139839
  0
VERTEX
  8
PLAN_1
  6
CONTINUOUS
 10
0.988835
 20
-4.144102
  0
VERTEX
  8
PLAN_1
  6
CONTINUOUS
 10
0.986701
 20
-4.148362
  0
VERTEX
  8
PLAN_1
  6
CONTINUOUS
 10
0.985102
 20
-4.153157
  0
VERTEX
  8
PLAN_1
  6
CONTINUOUS
 10
0.984039
 20
-4.157953
  0
VERTEX
  8
PLAN_1
  6
CONTINUOUS
 10
0.982972
 20
-4.162213
  0
VERTEX
  8
PLAN_1
  6
CONTINUOUS
 10
0.982441
 20
-4.167008
  0
VERTEX
  8
PLAN_1
  6
CONTINUOUS
 10
0.981909
 20
-4.171268
  0
VERTEX
  8
PLAN_1
  6
CONTINUOUS
 10
0.982441
 20
-4.177130
  0
VERTEX
  8
PLAN_1
  6
CONTINUOUS
 10
0.984039
 20
-4.182457
  0
VERTEX
  8
PLAN_1
  6
CONTINUOUS
 10
0.985638
 20
-4.186717
  0
VERTEX
  8
PLAN_1
  6
CONTINUOUS
 10
0.988835
 20
-4.190980
  0
VERTEX
  8
PLAN_1
  6
CONTINUOUS
 10
0.992028
 20
-4.194173
  0
VERTEX
  8
PLAN_1
  6
CONTINUOUS
 10
0.995760
 20
-4.196307
  0
VERTEX
  8
PLAN_1
  6
CONTINUOUS
 10
1.000551
 20
-4.197906
  0
VERTEX
  8
PLAN_1
  6
CONTINUOUS
 10
1.005346
 20
-4.198437
  0
VERTEX
  8
PLAN_1
  6
CONTINUOUS
 10
1.009610
 20
-4.197906
  0
VERTEX
  8
PLAN_1
  6
CONTINUOUS
 10
1.013870
 20
-4.196839
  0
VERTEX
  8
PLAN_1
  6
CONTINUOUS
 10
1.018134
 20
-4.195240
  0
VERTEX
  8
PLAN_1
  6
CONTINUOUS
 10
1.021862
 20
-4.192579
  0
VERTEX
  8
PLAN_1
  6
CONTINUOUS
 10
1.025591
 20
-4.189913
  0
VERTEX
  8
PLAN_1
  6
CONTINUOUS
 10
1.028787
 20
-4.186717
  0
VERTEX
  8
PLAN_1
  6
CONTINUOUS
 10
1.031984
 20
-4.182988
  0
VERTEX
  8
PLAN_1
  6
CONTINUOUS
 10
1.035177
 20
-4.178728
  0
VERTEX
  8
PLAN_1
  6
CONTINUOUS
 10
1.037843
 20
-4.174465
  0
VERTEX
  8
PLAN_1
  6
CONTINUOUS
 10
1.039972
 20
-4.170205
  0
VERTEX
  8
PLAN_1
  6
CONTINUOUS
 10
1.042102
 20
-4.165409
  0
VERTEX
  8
PLAN_1
  6
CONTINUOUS
 10
1.043701
 20
-4.160614
  0
VERTEX
  8
PLAN_1
  6
CONTINUOUS
 10
1.044768
 20
-4.156354
  0
VERTEX
  8
PLAN_1
  6
CONTINUOUS
 10
1.045835
 20
-4.151559
  0
VERTEX
  8
PLAN_1
  6
CONTINUOUS
 10
1.046366
 20
-4.147295
  0
VERTEX
  8
PLAN_1
  6
CONTINUOUS
 10
1.046898
 20
-4.142504
  0
VERTEX
  8
PLAN_1
  6
CONTINUOUS
 10
1.046366
 20
-4.137709
  0
VERTEX
  8
PLAN_1
  6
CONTINUOUS
 10
1.044768
 20
-4.132913
  0
VERTEX
  8
PLAN_1
  6
CONTINUOUS
 10
1.042638
 20
-4.128654
  0
VERTEX
  8
PLAN_1
  6
CONTINUOUS
 10
1.039972
 20
-4.124921
  0
VERTEX
  8
PLAN_1
  6
CONTINUOUS
 10
1.036776
 20
-4.121728
  0
VERTEX
  8
PLAN_1
  6
CONTINUOUS
 10
1.032516
 20
-4.119063
  0
VERTEX
  8
PLAN_1
  6
CONTINUOUS
 10
1.028787
 20
-4.117996
  0
VERTEX
  8
PLAN_1
  6
CONTINUOUS
 10
1.023992
 20
-4.117465
  0
SEQEND
  8
0
  0
POLYLINE
  8
PLAN_1
  6
CONTINUOUS
 66
     1
 40
0.003000
 41
0.003000
  0
VERTEX
  8
PLAN_1
  6
CONTINUOUS
 10
1.179543
 20
-4.056736
  0
VERTEX
  8
PLAN_1
  6
CONTINUOUS
 10
1.267437
 20
-4.056736
  0
VERTEX
  8
PLAN_1
  6
CONTINUOUS
 10
1.274362
 20
-4.056736
  0
VERTEX
  8
PLAN_1
  6
CONTINUOUS
 10
1.280224
 20
-4.057803
  0
VERTEX
  8
PLAN_1
  6
CONTINUOUS
 10
1.286083
 20
-4.058866
  0
VERTEX
  8
PLAN_1
  6
CONTINUOUS
 10
1.291941
 20
-4.061000
  0
VERTEX
  8
PLAN_1
  6
CONTINUOUS
 10
1.296736
 20
-4.063130
  0
VERTEX
  8
PLAN_1
  6
CONTINUOUS
 10
1.301531
 20
-4.065260
  0
VERTEX
  8
PLAN_1
  6
CONTINUOUS
 10
1.305791
 20
-4.068457
  0
VERTEX
  8
PLAN_1
  6
CONTINUOUS
 10
1.309524
 20
-4.071654
  0
VERTEX
  8
PLAN_1
  6
CONTINUOUS
 10
1.312717
 20
-4.075382
  0
VERTEX
  8
PLAN_1
  6
CONTINUOUS
 10
1.315913
 20
-4.079110
  0
VERTEX
  8
PLAN_1
  6
CONTINUOUS
 10
1.318047
 20
-4.083370
  0
VERTEX
  8
PLAN_1
  6
CONTINUOUS
 10
1.320177
 20
-4.087634
  0
VERTEX
  8
PLAN_1
  6
CONTINUOUS
 10
1.321776
 20
-4.092429
  0
VERTEX
  8
PLAN_1
  6
CONTINUOUS
 10
1.322839
 20
-4.097220
  0
VERTEX
  8
PLAN_1
  6
CONTINUOUS
 10
1.323374
 20
-4.102016
  0
VERTEX
  8
PLAN_1
  6
CONTINUOUS
 10
1.323906
 20
-4.106811
  0
VERTEX
  8
PLAN_1
  6
CONTINUOUS
 10
1.323374
 20
-4.112138
  0
VERTEX
  8
PLAN_1
  6
CONTINUOUS
 10
1.322839
 20
-4.117465
  0
VERTEX
  8
PLAN_1
  6
CONTINUOUS
 10
1.321240
 20
-4.123327
  0
VERTEX
  8
PLAN_1
  6
CONTINUOUS
 10
1.318579
 20
-4.128654
  0
VERTEX
  8
PLAN_1
  6
CONTINUOUS
 10
1.316980
 20
-4.131846
  0
VERTEX
  8
PLAN_1
  6
CONTINUOUS
 10
1.314850
 20
-4.134512
  0
VERTEX
  8
PLAN_1
  6
CONTINUOUS
 10
1.312717
 20
-4.137177
  0
VERTEX
  8
PLAN_1
  6
CONTINUOUS
 10
1.310587
 20
-4.139839
  0
VERTEX
  8
PLAN_1
  6
CONTINUOUS
 10
1.307390
 20
-4.141969
  0
VERTEX
  8
PLAN_1
  6
CONTINUOUS
 10
1.304728
 20
-4.144634
  0
VERTEX
  8
PLAN_1
  6
CONTINUOUS
 10
1.301000
 20
-4.146764
  0
VERTEX
  8
PLAN_1
  6
CONTINUOUS
 10
1.297272
 20
-4.148362
  0
VERTEX
  8
PLAN_1
  6
CONTINUOUS
 10
1.302598
 20
-4.151028
  0
VERTEX
  8
PLAN_1
  6
CONTINUOUS
 10
1.307925
 20
-4.153689
  0
VERTEX
  8
PLAN_1
  6
CONTINUOUS
 10
1.314315
 20
-4.157417
  0
VERTEX
  8
PLAN_1
  6
CONTINUOUS
 10
1.320177
 20
-4.162213
  0
VERTEX
  8
PLAN_1
  6
CONTINUOUS
 10
1.322839
 20
-4.164878
  0
VERTEX
  8
PLAN_1
  6
CONTINUOUS
 10
1.324972
 20
-4.168071
  0
VERTEX
  8
PLAN_1
  6
CONTINUOUS
 10
1.327634
 20
-4.171803
  0
VERTEX
  8
PLAN_1
  6
CONTINUOUS
 10
1.329232
 20
-4.176063
  0
VERTEX
  8
PLAN_1
  6
CONTINUOUS
 10
1.330831
 20
-4.180323
  0
VERTEX
  8
PLAN_1
  6
CONTINUOUS
 10
1.331898
 20
-4.185654
  0
VERTEX
  8
PLAN_1
  6
CONTINUOUS
 10
1.332961
 20
-4.190980
  0
VERTEX
  8
PLAN_1
  6
CONTINUOUS
 10
1.332961
 20
-4.197370
  0
VERTEX
  8
PLAN_1
  6
CONTINUOUS
 10
1.332961
 20
-4.203232
  0
VERTEX
  8
PLAN_1
  6
CONTINUOUS
 10
1.331898
 20
-4.209091
  0
VERTEX
  8
PLAN_1
  6
CONTINUOUS
 10
1.330831
 20
-4.214417
  0
VERTEX
  8
PLAN_1
  6
CONTINUOUS
 10
1.328701
 20
-4.219744
  0
VERTEX
  8
PLAN_1
  6
CONTINUOUS
 10
1.326567
 20
-4.225071
  0
VERTEX
  8
PLAN_1
  6
CONTINUOUS
 10
1.323374
 20
-4.229866
  0
VERTEX
  8
PLAN_1
  6
CONTINUOUS
 10
1.319642
 20
-4.234126
  0
VERTEX
  8
PLAN_1
  6
CONTINUOUS
 10
1.315913
 20
-4.238390
  0
VERTEX
  8
PLAN_1
  6
CONTINUOUS
 10
1.311122
 20
-4.242650
  0
VERTEX
  8
PLAN_1
  6
CONTINUOUS
 10
1.306327
 20
-4.245846
  0
VERTEX
  8
PLAN_1
  6
CONTINUOUS
 10
1.300465
 20
-4.249043
  0
VERTEX
  8
PLAN_1
  6
CONTINUOUS
 10
1.294606
 20
-4.251173
  0
VERTEX
  8
PLAN_1
  6
CONTINUOUS
 10
1.288213
 20
-4.253307
  0
VERTEX
  8
PLAN_1
  6
CONTINUOUS
 10
1.280756
 20
-4.254902
  0
VERTEX
  8
PLAN_1
  6
CONTINUOUS
 10
1.273299
 20
-4.255969
  0
VERTEX
  8
PLAN_1
  6
CONTINUOUS
 10
1.265307
 20
-4.255969
  0
VERTEX
  8
PLAN_1
  6
CONTINUOUS
 10
1.179543
 20
-4.255969
  0
VERTEX
  8
PLAN_1
  6
CONTINUOUS
 10
1.179543
 20
-4.056736
  0
SEQEND
  8
0
  0
POLYLINE
  8
PLAN_1
  6
CONTINUOUS
 66
     1
 40
0.003000
 41
0.003000
  0
VERTEX
  8
PLAN_1
  6
CONTINUOUS
 10
1.206709
 20
-4.140906
  0
VERTEX
  8
PLAN_1
  6
CONTINUOUS
 10
1.255185
 20
-4.140906
  0
VERTEX
  8
PLAN_1
  6
CONTINUOUS
 10
1.264244
 20
-4.140906
  0
VERTEX
  8
PLAN_1
  6
CONTINUOUS
 10
1.272764
 20
-4.139307
  0
VERTEX
  8
PLAN_1
  6
CONTINUOUS
 10
1.275961
 20
-4.138772
  0
VERTEX
  8
PLAN_1
  6
CONTINUOUS
 10
1.279689
 20
-4.137177
  0
VERTEX
  8
PLAN_1
  6
CONTINUOUS
 10
1.282886
 20
-4.136110
  0
VERTEX
  8
PLAN_1
  6
CONTINUOUS
 10
1.285551
 20
-4.133980
  0
VERTEX
  8
PLAN_1
  6
CONTINUOUS
 10
1.288213
 20
-4.132382
  0
VERTEX
  8
PLAN_1
  6
CONTINUOUS
 10
1.290346
 20
-4.129717
  0
VERTEX
  8
PLAN_1
  6
CONTINUOUS
 10
1.292476
 20
-4.127055
  0
VERTEX
  8
PLAN_1
  6
CONTINUOUS
 10
1.294075
 20
-4.124390
  0
VERTEX
  8
PLAN_1
  6
CONTINUOUS
 10
1.295138
 20
-4.121193
  0
VERTEX
  8
PLAN_1
  6
CONTINUOUS
 10
1.296205
 20
-4.117465
  0
VERTEX
  8
PLAN_1
  6
CONTINUOUS
 10
1.296736
 20
-4.113205
  0
VERTEX
  8
PLAN_1
  6
CONTINUOUS
 10
1.296736
 20
-4.108941
  0
VERTEX
  8
PLAN_1
  6
CONTINUOUS
 10
1.296736
 20
-4.105744
  0
VERTEX
  8
PLAN_1
  6
CONTINUOUS
 10
1.296205
 20
-4.102551
  0
VERTEX
  8
PLAN_1
  6
CONTINUOUS
 10
1.295673
 20
-4.099354
  0
VERTEX
  8
PLAN_1
  6
CONTINUOUS
 10
1.294606
 20
-4.096689
  0
VERTEX
  8
PLAN_1
  6
CONTINUOUS
 10
1.293008
 20
-4.094028
  0
VERTEX
  8
PLAN_1
  6
CONTINUOUS
 10
1.291409
 20
-4.091362
  0
VERTEX
  8
PLAN_1
  6
CONTINUOUS
 10
1.289811
 20
-4.089232
  0
VERTEX
  8
PLAN_1
  6
CONTINUOUS
 10
1.287150
 20
-4.087102
  0
VERTEX
  8
PLAN_1
  6
CONTINUOUS
 10
1.284484
 20
-4.085504
  0
VERTEX
  8
PLAN_1
  6
CONTINUOUS
 10
1.281823
 20
-4.083906
  0
VERTEX
  8
PLAN_1
  6
CONTINUOUS
 10
1.278091
 20
-4.082839
  0
VERTEX
  8
PLAN_1
  6
CONTINUOUS
 10
1.274362
 20
-4.081776
  0
VERTEX
  8
PLAN_1
  6
CONTINUOUS
 10
1.270102
 20
-4.080709
  0
VERTEX
  8
PLAN_1
  6
CONTINUOUS
 10
1.265839
 20
-4.080177
  0
VERTEX
  8
PLAN_1
  6
CONTINUOUS
 10
1.261047
 20
-4.079642
  0
VERTEX
  8
PLAN_1
  6
CONTINUOUS
 10
1.255185
 20
-4.079642
  0
VERTEX
  8
PLAN_1
  6
CONTINUOUS
 10
1.206709
 20
-4.079642
  0
VERTEX
  8
PLAN_1
  6
CONTINUOUS
 10
1.206709
 20
-4.140906
  0
SEQEND
  8
0
  0
POLYLINE
  8
PLAN_1
  6
CONTINUOUS
 66
     1
 40
0.003000
 41
0.003000
  0
VERTEX
  8
PLAN_1
  6
CONTINUOUS
 10
1.206709
 20
-4.233063
  0
VERTEX
  8
PLAN_1
  6
CONTINUOUS
 10
1.264244
 20
-4.233063
  0
VERTEX
  8
PLAN_1
  6
CONTINUOUS
 10
1.269035
 20
-4.233063
  0
VERTEX
  8
PLAN_1
  6
CONTINUOUS
 10
1.273831
 20
-4.232531
  0
VERTEX
  8
PLAN_1
  6
CONTINUOUS
 10
1.278091
 20
-4.231465
  0
VERTEX
  8
PLAN_1
  6
CONTINUOUS
 10
1.282354
 20
-4.230398
  0
VERTEX
  8
PLAN_1
  6
CONTINUOUS
 10
1.286083
 20
-4.228799
  0
VERTEX
  8
PLAN_1
  6
CONTINUOUS
 10
1.289811
 20
-4.227201
  0
VERTEX
  8
PLAN_1
  6
CONTINUOUS
 10
1.293008
 20
-4.225606
  0
VERTEX
  8
PLAN_1
  6
CONTINUOUS
 10
1.295673
 20
-4.222941
  0
VERTEX
  8
PLAN_1
  6
CONTINUOUS
 10
1.298335
 20
-4.220811
  0
VERTEX
  8
PLAN_1
  6
CONTINUOUS
 10
1.300465
 20
-4.218146
  0
VERTEX
  8
PLAN_1
  6
CONTINUOUS
 10
1.302063
 20
-4.214949
  0
VERTEX
  8
PLAN_1
  6
CONTINUOUS
 10
1.303661
 20
-4.211756
  0
VERTEX
  8
PLAN_1
  6
CONTINUOUS
 10
1.304728
 20
-4.208024
  0
VERTEX
  8
PLAN_1
  6
CONTINUOUS
 10
1.305791
 20
-4.204295
  0
VERTEX
  8
PLAN_1
  6
CONTINUOUS
 10
1.305791
 20
-4.200567
  0
VERTEX
  8
PLAN_1
  6
CONTINUOUS
 10
1.306327
 20
-4.196839
  0
VERTEX
  8
PLAN_1
  6
CONTINUOUS
 10
1.305791
 20
-4.191512
  0
VERTEX
  8
PLAN_1
  6
CONTINUOUS
 10
1.305260
 20
-4.187248
  0
VERTEX
  8
PLAN_1
  6
CONTINUOUS
 10
1.303661
 20
-4.182988
  0
VERTEX
  8
PLAN_1
  6
CONTINUOUS
 10
1.302063
 20
-4.179791
  0
VERTEX
  8
PLAN_1
  6
CONTINUOUS
 10
1.299933
 20
-4.176594
  0
VERTEX
  8
PLAN_1
  6
CONTINUOUS
 10
1.297272
 20
-4.173933
  0
VERTEX
  8
PLAN_1
  6
CONTINUOUS
 10
1.294075
 20
-4.171268
  0
VERTEX
  8
PLAN_1
  6
CONTINUOUS
 10
1.290878
 20
-4.169138
  0
VERTEX
  8
PLAN_1
  6
CONTINUOUS
 10
1.287681
 20
-4.167539
  0
VERTEX
  8
PLAN_1
  6
CONTINUOUS
 10
1.283953
 20
-4.166472
  0
VERTEX
  8
PLAN_1
  6
CONTINUOUS
 10
1.280224
 20
-4.165409
  0
VERTEX
  8
PLAN_1
  6
CONTINUOUS
 10
1.275961
 20
-4.164343
  0
VERTEX
  8
PLAN_1
  6
CONTINUOUS
 10
1.267972
 20
-4.163280
  0
VERTEX
  8
PLAN_1
  6
CONTINUOUS
 10
1.259449
 20
-4.163280
  0
VERTEX
  8
PLAN_1
  6
CONTINUOUS
 10
1.206709
 20
-4.163280
  0
VERTEX
  8
PLAN_1
  6
CONTINUOUS
 10
1.206709
 20
-4.233063
  0
SEQEND
  8
0
  0
POLYLINE
  8
PLAN_1
  6
CONTINUOUS
 66
     1
 40
0.003000
 41
0.003000
  0
VERTEX
  8
PLAN_1
  6
CONTINUOUS
 10
1.354803
 20
-4.065260
  0
VERTEX
  8
PLAN_1
  6
CONTINUOUS
 10
1.489579
 20
-4.065260
  0
VERTEX
  8
PLAN_1
  6
CONTINUOUS
 10
1.489579
 20
-4.086567
  0
VERTEX
  8
PLAN_1
  6
CONTINUOUS
 10
1.481055
 20
-4.096157
  0
VERTEX
  8
PLAN_1
  6
CONTINUOUS
 10
1.470933
 20
-4.109476
  0
VERTEX
  8
PLAN_1
  6
CONTINUOUS
 10
1.465071
 20
-4.116933
  0
VERTEX
  8
PLAN_1
  6
CONTINUOUS
 10
1.459213
 20
-4.125988
  0
VERTEX
  8
PLAN_1
  6
CONTINUOUS
 10
1.453354
 20
-4.135579
  0
VERTEX
  8
PLAN_1
  6
CONTINUOUS
 10
1.447492
 20
-4.146232
  0
VERTEX
  8
PLAN_1
  6
CONTINUOUS
 10
1.441634
 20
-4.157417
  0
VERTEX
  8
PLAN_1
  6
CONTINUOUS
 10
1.435772
 20
-4.169138
  0
VERTEX
  8
PLAN_1
  6
CONTINUOUS
 10
1.430445
 20
-4.181921
  0
VERTEX
  8
PLAN_1
  6
CONTINUOUS
 10
1.425118
 20
-4.195772
  0
VERTEX
  8
PLAN_1
  6
CONTINUOUS
 10
1.420327
 20
-4.209622
  0
VERTEX
  8
PLAN_1
  6
CONTINUOUS
 10
1.416063
 20
-4.224539
  0
VERTEX
  8
PLAN_1
  6
CONTINUOUS
 10
1.412335
 20
-4.239988
  0
VERTEX
  8
PLAN_1
  6
CONTINUOUS
 10
1.409138
 20
-4.255969
  0
VERTEX
  8
PLAN_1
  6
CONTINUOUS
 10
1.382504
 20
-4.255969
  0
VERTEX
  8
PLAN_1
  6
CONTINUOUS
 10
1.384102
 20
-4.245846
  0
VERTEX
  8
PLAN_1
  6
CONTINUOUS
 10
1.386232
 20
-4.235193
  0
VERTEX
  8
PLAN_1
  6
CONTINUOUS
 10
1.388894
 20
-4.224539
  0
VERTEX
  8
PLAN_1
  6
CONTINUOUS
 10
1.392091
 20
-4.213350
  0
VERTEX
  8
PLAN_1
  6
CONTINUOUS
 10
1.396354
 20
-4.202165
  0
VERTEX
  8
PLAN_1
  6
CONTINUOUS
 10
1.400614
 20
-4.190980
  0
VERTEX
  8
PLAN_1
  6
CONTINUOUS
 10
1.405409
 20
-4.179791
  0
VERTEX
  8
PLAN_1
  6
CONTINUOUS
 10
1.410736
 20
-4.168606
  0
VERTEX
  8
PLAN_1
  6
CONTINUOUS
 10
1.416063
 20
-4.157417
  0
VERTEX
  8
PLAN_1
  6
CONTINUOUS
 10
1.421921
 20
-4.146764
  0
VERTEX
  8
PLAN_1
  6
CONTINUOUS
 10
1.428315
 20
-4.136110
  0
VERTEX
  8
PLAN_1
  6
CONTINUOUS
 10
1.434709
 20
-4.125988
  0
VERTEX
  8
PLAN_1
  6
CONTINUOUS
 10
1.441102
 20
-4.115866
  0
VERTEX
  8
PLAN_1
  6
CONTINUOUS
 10
1.448028
 20
-4.106280
  0
VERTEX
  8
PLAN_1
  6
CONTINUOUS
 10
1.454953
 20
-4.097220
  0
VERTEX
  8
PLAN_1
  6
CONTINUOUS
 10
1.461878
 20
-4.088701
  0
VERTEX
  8
PLAN_1
  6
CONTINUOUS
 10
1.354803
 20
-4.088701
  0
VERTEX
  8
PLAN_1
  6
CONTINUOUS
 10
1.354803
 20
-4.065260
  0
SEQEND
  8
0
  0
POLYLINE
  8
PLAN_1
  6
CONTINUOUS
 66
     1
 40
0.003000
 41
0.003000
  0
VERTEX
  8
PLAN_1
  6
CONTINUOUS
 10
1.550307
 20
-4.255969
  0
VERTEX
  8
PLAN_1
  6
CONTINUOUS
 10
1.523138
 20
-4.255969
  0
VERTEX
  8
PLAN_1
  6
CONTINUOUS
 10
1.523138
 20
-4.056736
  0
VERTEX
  8
PLAN_1
  6
CONTINUOUS
 10
1.615295
 20
-4.056736
  0
VERTEX
  8
PLAN_1
  6
CONTINUOUS
 10
1.621689
 20
-4.056736
  0
VERTEX
  8
PLAN_1
  6
CONTINUOUS
 10
1.627547
 20
-4.057268
  0
VERTEX
  8
PLAN_1
  6
CONTINUOUS
 10
1.633406
 20
-4.057803
  0
VERTEX
  8
PLAN_1
  6
CONTINUOUS
 10
1.639268
 20
-4.059402
  0
VERTEX
  8
PLAN_1
  6
CONTINUOUS
 10
1.645126
 20
-4.060465
  0
VERTEX
  8
PLAN_1
  6
CONTINUOUS
 10
1.650453
 20
-4.062598
  0
VERTEX
  8
PLAN_1
  6
CONTINUOUS
 10
1.655780
 20
-4.064728
  0
VERTEX
  8
PLAN_1
  6
CONTINUOUS
 10
1.660575
 20
-4.067925
  0
VERTEX
  8
PLAN_1
  6
CONTINUOUS
 10
1.664839
 20
-4.071118
  0
VERTEX
  8
PLAN_1
  6
CONTINUOUS
 10
1.668567
 20
-4.074850
  0
VERTEX
  8
PLAN_1
  6
CONTINUOUS
 10
1.672295
 20
-4.079110
  0
VERTEX
  8
PLAN_1
  6
CONTINUOUS
 10
1.674957
 20
-4.083906
  0
VERTEX
  8
PLAN_1
  6
CONTINUOUS
 10
1.677622
 20
-4.089764
  0
VERTEX
  8
PLAN_1
  6
CONTINUOUS
 10
1.679220
 20
-4.095626
  0
VERTEX
  8
PLAN_1
  6
CONTINUOUS
 10
1.680287
 20
-4.102551
  0
VERTEX
  8
PLAN_1
  6
CONTINUOUS
 10
1.680819
 20
-4.110539
  0
VERTEX
  8
PLAN_1
  6
CONTINUOUS
 10
1.680819
 20
-4.115335
  0
VERTEX
  8
PLAN_1
  6
CONTINUOUS
 10
1.680287
 20
-4.120661
  0
VERTEX
  8
PLAN_1
  6
CONTINUOUS
 10
1.679220
 20
-4.124921
  0
VERTEX
  8
PLAN_1
  6
CONTINUOUS
 10
1.678154
 20
-4.129185
  0
VERTEX
  8
PLAN_1
  6
CONTINUOUS
 10
1.677091
 20
-4.132913
  0
VERTEX
  8
PLAN_1
  6
CONTINUOUS
 10
1.675492
 20
-4.136110
  0
VERTEX
  8
PLAN_1
  6
CONTINUOUS
 10
1.673894
 20
-4.139307
  0
VERTEX
  8
PLAN_1
  6
CONTINUOUS
 10
1.671764
 20
-4.142504
  0
VERTEX
  8
PLAN_1
  6
CONTINUOUS
 10
1.667500
 20
-4.147295
  0
VERTEX
  8
PLAN_1
  6
CONTINUOUS
 10
1.662705
 20
-4.151559
  0
VERTEX
  8
PLAN_1
  6
CONTINUOUS
 10
1.657913
 20
-4.155287
  0
VERTEX
  8
PLAN_1
  6
CONTINUOUS
 10
1.653118
 20
-4.157953
  0
VERTEX
  8
PLAN_1
  6
CONTINUOUS
 10
1.657378
 20
-4.160083
  0
VERTEX
  8
PLAN_1
  6
CONTINUOUS
 10
1.661642
 20
-4.162213
  0
VERTEX
  8
PLAN_1
  6
CONTINUOUS
 10
1.665370
 20
-4.164878
  0
VERTEX
  8
PLAN_1
  6
CONTINUOUS
 10
1.669098
 20
-4.168071
  0
VERTEX
  8
PLAN_1
  6
CONTINUOUS
 10
1.670697
 20
-4.170205
  0
VERTEX
  8
PLAN_1
  6
CONTINUOUS
 10
1.671764
 20
-4.172866
  0
VERTEX
  8
PLAN_1
  6
CONTINUOUS
 10
1.673362
 20
-4.175531
  0
VERTEX
  8
PLAN_1
  6
CONTINUOUS
 10
1.674425
 20
-4.178728
  0
VERTEX
  8
PLAN_1
  6
CONTINUOUS
 10
1.675492
 20
-4.181921
  0
VERTEX
  8
PLAN_1
  6
CONTINUOUS
 10
1.676024
 20
-4.186185
  0
VERTEX
  8
PLAN_1
  6
CONTINUOUS
 10
1.676555
 20
-4.190445
  0
VERTEX
  8
PLAN_1
  6
CONTINUOUS
 10
1.677091
 20
-4.195240
  0
VERTEX
  8
PLAN_1
  6
CONTINUOUS
 10
1.678689
 20
-4.231465
  0
VERTEX
  8
PLAN_1
  6
CONTINUOUS
 10
1.678689
 20
-4.235193
  0
VERTEX
  8
PLAN_1
  6
CONTINUOUS
 10
1.679220
 20
-4.238921
  0
VERTEX
  8
PLAN_1
  6
CONTINUOUS
 10
1.679752
 20
-4.241587
  0
VERTEX
  8
PLAN_1
  6
CONTINUOUS
 10
1.680819
 20
-4.243717
  0
VERTEX
  8
PLAN_1
  6
CONTINUOUS
 10
1.681882
 20
-4.245846
  0
VERTEX
  8
PLAN_1
  6
CONTINUOUS
 10
1.683480
 20
-4.247976
  0
VERTEX
  8
PLAN_1
  6
CONTINUOUS
 10
1.685614
 20
-4.249575
  0
VERTEX
  8
PLAN_1
  6
CONTINUOUS
 10
1.688807
 20
-4.251709
  0
VERTEX
  8
PLAN_1
  6
CONTINUOUS
 10
1.688807
 20
-4.255969
  0
VERTEX
  8
PLAN_1
  6
CONTINUOUS
 10
1.655780
 20
-4.255969
  0
VERTEX
  8
PLAN_1
  6
CONTINUOUS
 10
1.654181
 20
-4.250642
  0
VERTEX
  8
PLAN_1
  6
CONTINUOUS
 10
1.653118
 20
-4.244248
  0
VERTEX
  8
PLAN_1
  6
CONTINUOUS
 10
1.652587
 20
-4.236791
  0
VERTEX
  8
PLAN_1
  6
CONTINUOUS
 10
1.651520
 20
-4.229335
  0
VERTEX
  8
PLAN_1
  6
CONTINUOUS
 10
1.651520
 20
-4.221874
  0
VERTEX
  8
PLAN_1
  6
CONTINUOUS
 10
1.650988
 20
-4.215484
  0
VERTEX
  8
PLAN_1
  6
CONTINUOUS
 10
1.650988
 20
-4.209622
  0
VERTEX
  8
PLAN_1
  6
CONTINUOUS
 10
1.650988
 20
-4.205894
  0
VERTEX
  8
PLAN_1
  6
CONTINUOUS
 10
1.650453
 20
-4.200035
  0
VERTEX
  8
PLAN_1
  6
CONTINUOUS
 10
1.649921
 20
-4.193642
  0
VERTEX
  8
PLAN_1
  6
CONTINUOUS
 10
1.648854
 20
-4.190445
  0
VERTEX
  8
PLAN_1
  6
CONTINUOUS
 10
1.648323
 20
-4.187783
  0
VERTEX
  8
PLAN_1
  6
CONTINUOUS
 10
1.646724
 20
-4.184587
  0
VERTEX
  8
PLAN_1
  6
CONTINUOUS
 10
1.645126
 20
-4.181921
  0
VERTEX
  8
PLAN_1
  6
CONTINUOUS
 10
1.642996
 20
-4.179791
  0
VERTEX
  8
PLAN_1
  6
CONTINUOUS
 10
1.640866
 20
-4.177661
  0
VERTEX
  8
PLAN_1
  6
CONTINUOUS
 10
1.637669
 20
-4.175531
  0
VERTEX
  8
PLAN_1
  6
CONTINUOUS
 10
1.634472
 20
-4.173933
  0
VERTEX
  8
PLAN_1
  6
CONTINUOUS
 10
1.630744
 20
-4.172335
  0
VERTEX
  8
PLAN_1
  6
CONTINUOUS
 10
1.625949
 20
-4.171268
  0
VERTEX
  8
PLAN_1
  6
CONTINUOUS
 10
1.621154
 20
-4.170736
  0
VERTEX
  8
PLAN_1
  6
CONTINUOUS
 10
1.615295
 20
-4.170736
  0
VERTEX
  8
PLAN_1
  6
CONTINUOUS
 10
1.550307
 20
-4.170736
  0
VERTEX
  8
PLAN_1
  6
CONTINUOUS
 10
1.550307
 20
-4.255969
  0
SEQEND
  8
0
  0
POLYLINE
  8
PLAN_1
  6
CONTINUOUS
 66
     1
 40
0.003000
 41
0.003000
  0
VERTEX
  8
PLAN_1
  6
CONTINUOUS
 10
1.550307
 20
-4.147295
  0
VERTEX
  8
PLAN_1
  6
CONTINUOUS
 10
1.612630
 20
-4.147295
  0
VERTEX
  8
PLAN_1
  6
CONTINUOUS
 10
1.620091
 20
-4.147295
  0
VERTEX
  8
PLAN_1
  6
CONTINUOUS
 10
1.627016
 20
-4.146232
  0
VERTEX
  8
PLAN_1
  6
CONTINUOUS
 10
1.630744
 20
-4.145697
  0
VERTEX
  8
PLAN_1
  6
CONTINUOUS
 10
1.633941
 20
-4.144102
  0
VERTEX
  8
PLAN_1
  6
CONTINUOUS
 10
1.637138
 20
-4.143035
  0
VERTEX
  8
PLAN_1
  6
CONTINUOUS
 10
1.640331
 20
-4.141437
  0
VERTEX
  8
PLAN_1
  6
CONTINUOUS
 10
1.642996
 20
-4.139307
  0
VERTEX
  8
PLAN_1
  6
CONTINUOUS
 10
1.645661
 20
-4.136642
  0
VERTEX
  8
PLAN_1
  6
CONTINUOUS
 10
1.647791
 20
-4.133980
  0
VERTEX
  8
PLAN_1
  6
CONTINUOUS
 10
1.649390
 20
-4.130783
  0
VERTEX
  8
PLAN_1
  6
CONTINUOUS
 10
1.650988
 20
-4.127055
  0
VERTEX
  8
PLAN_1
  6
CONTINUOUS
 10
1.652051
 20
-4.122791
  0
VERTEX
  8
PLAN_1
  6
CONTINUOUS
 10
1.652587
 20
-4.118531
  0
VERTEX
  8
PLAN_1
  6
CONTINUOUS
 10
1.653118
 20
-4.113205
  0
VERTEX
  8
PLAN_1
  6
CONTINUOUS
 10
1.652587
 20
-4.107878
  0
VERTEX
  8
PLAN_1
  6
CONTINUOUS
 10
1.652051
 20
-4.102551
  0
VERTEX
  8
PLAN_1
  6
CONTINUOUS
 10
1.650988
 20
-4.098287
  0
VERTEX
  8
PLAN_1
  6
CONTINUOUS
 10
1.649390
 20
-4.095091
  0
VERTEX
  8
PLAN_1
  6
CONTINUOUS
 10
1.647256
 20
-4.091894
  0
VERTEX
  8
PLAN_1
  6
CONTINUOUS
 10
1.645126
 20
-4.089232
  0
VERTEX
  8
PLAN_1
  6
CONTINUOUS
 10
1.642996
 20
-4.086567
  0
VERTEX
  8
PLAN_1
  6
CONTINUOUS
 10
1.640331
 20
-4.084969
  0
VERTEX
  8
PLAN_1
  6
CONTINUOUS
 10
1.637138
 20
-4.083370
  0
VERTEX
  8
PLAN_1
  6
CONTINUOUS
 10
1.634472
 20
-4.082307
  0
VERTEX
  8
PLAN_1
  6
CONTINUOUS
 10
1.631276
 20
-4.081240
  0
VERTEX
  8
PLAN_1
  6
CONTINUOUS
 10
1.628614
 20
-4.080709
  0
VERTEX
  8
PLAN_1
  6
CONTINUOUS
 10
1.622752
 20
-4.080177
  0
VERTEX
  8
PLAN_1
  6
CONTINUOUS
 10
1.617425
 20
-4.079642
  0
VERTEX
  8
PLAN_1
  6
CONTINUOUS
 10
1.550307
 20
-4.079642
  0
VERTEX
  8
PLAN_1
  6
CONTINUOUS
 10
1.550307
 20
-4.147295
  0
SEQEND
  8
0
  0
SOLID
  8
PLAN_1
 10
1.752201
 20
-4.255969
 11
1.723433
 21
-4.255969
 12
1.752201
 22
-4.226669
 13
1.723433
 23
-4.226669
  0
POLYLINE
  8
PLAN_1
  6
CONTINUOUS
 66
     1
 40
0.003000
 41
0.003000
  0
VERTEX
  8
PLAN_1
  6
CONTINUOUS
 10
1.752201
 20
-4.255969
  0
VERTEX
  8
PLAN_1
  6
CONTINUOUS
 10
1.723433
 20
-4.255969
  0
VERTEX
  8
PLAN_1
  6
CONTINUOUS
 10
1.723433
 20
-4.226669
  0
VERTEX
  8
PLAN_1
  6
CONTINUOUS
 10
1.752201
 20
-4.226669
  0
VERTEX
  8
PLAN_1
  6
CONTINUOUS
 10
1.752201
 20
-4.255969
  0
SEQEND
  8
0
  0
POLYLINE
  8
PLAN_1
  6
CONTINUOUS
 66
     1
 40
0.003000
 41
0.003000
  0
VERTEX
  8
PLAN_1
  6
CONTINUOUS
 10
1.947169
 20
-4.255969
  0
VERTEX
  8
PLAN_1
  6
CONTINUOUS
 10
1.800146
 20
-4.255969
  0
VERTEX
  8
PLAN_1
  6
CONTINUOUS
 10
1.800146
 20
-4.056736
  0
VERTEX
  8
PLAN_1
  6
CONTINUOUS
 10
1.945575
 20
-4.056736
  0
VERTEX
  8
PLAN_1
  6
CONTINUOUS
 10
1.945575
 20
-4.080709
  0
VERTEX
  8
PLAN_1
  6
CONTINUOUS
 10
1.827311
 20
-4.080709
  0
VERTEX
  8
PLAN_1
  6
CONTINUOUS
 10
1.827311
 20
-4.141437
  0
VERTEX
  8
PLAN_1
  6
CONTINUOUS
 10
1.936516
 20
-4.141437
  0
VERTEX
  8
PLAN_1
  6
CONTINUOUS
 10
1.936516
 20
-4.165409
  0
VERTEX
  8
PLAN_1
  6
CONTINUOUS
 10
1.827311
 20
-4.165409
  0
VERTEX
  8
PLAN_1
  6
CONTINUOUS
 10
1.827311
 20
-4.231996
  0
VERTEX
  8
PLAN_1
  6
CONTINUOUS
 10
1.947169
 20
-4.231996
  0
VERTEX
  8
PLAN_1
  6
CONTINUOUS
 10
1.947169
 20
-4.255969
  0
SEQEND
  8
0
  0
POLYLINE
  8
PLAN_1
  6
CONTINUOUS
 66
     1
 40
0.003000
 41
0.003000
  0
VERTEX
  8
PLAN_1
  6
CONTINUOUS
 10
2.012693
 20
-4.255969
  0
VERTEX
  8
PLAN_1
  6
CONTINUOUS
 10
1.985528
 20
-4.255969
  0
VERTEX
  8
PLAN_1
  6
CONTINUOUS
 10
1.985528
 20
-4.056736
  0
VERTEX
  8
PLAN_1
  6
CONTINUOUS
 10
2.075020
 20
-4.056736
  0
VERTEX
  8
PLAN_1
  6
CONTINUOUS
 10
2.081945
 20
-4.056736
  0
VERTEX
  8
PLAN_1
  6
CONTINUOUS
 10
2.088339
 20
-4.057803
  0
VERTEX
  8
PLAN_1
  6
CONTINUOUS
 10
2.094197
 20
-4.058866
  0
VERTEX
  8
PLAN_1
  6
CONTINUOUS
 10
2.100059
 20
-4.061000
  0
VERTEX
  8
PLAN_1
  6
CONTINUOUS
 10
2.105386
 20
-4.063130
  0
VERTEX
  8
PLAN_1
  6
CONTINUOUS
 10
2.110181
 20
-4.065791
  0
VERTEX
  8
PLAN_1
  6
CONTINUOUS
 10
2.114441
 20
-4.068988
  0
VERTEX
  8
PLAN_1
  6
CONTINUOUS
 10
2.118701
 20
-4.072717
  0
VERTEX
  8
PLAN_1
  6
CONTINUOUS
 10
2.122433
 20
-4.076449
  0
VERTEX
  8
PLAN_1
  6
CONTINUOUS
 10
2.125094
 20
-4.080709
  0
VERTEX
  8
PLAN_1
  6
CONTINUOUS
 10
2.127760
 20
-4.085504
  0
VERTEX
  8
PLAN_1
  6
CONTINUOUS
 10
2.130421
 20
-4.090295
  0
VERTEX
  8
PLAN_1
  6
CONTINUOUS
 10
2.132020
 20
-4.095626
  0
VERTEX
  8
PLAN_1
  6
CONTINUOUS
 10
2.133087
 20
-4.100953
  0
VERTEX
  8
PLAN_1
  6
CONTINUOUS
 10
2.134150
 20
-4.106811
  0
VERTEX
  8
PLAN_1
  6
CONTINUOUS
 10
2.134150
 20
-4.112669
  0
VERTEX
  8
PLAN_1
  6
CONTINUOUS
 10
2.134150
 20
-4.117996
  0
VERTEX
  8
PLAN_1
  6
CONTINUOUS
 10
2.133618
 20
-4.123327
  0
VERTEX
  8
PLAN_1
  6
CONTINUOUS
 10
2.132551
 20
-4.128654
  0
VERTEX
  8
PLAN_1
  6
CONTINUOUS
 10
2.130957
 20
-4.133980
  0
VERTEX
  8
PLAN_1
  6
CONTINUOUS
 10
2.129358
 20
-4.138772
  0
VERTEX
  8
PLAN_1
  6
CONTINUOUS
 10
2.127224
 20
-4.143567
  0
VERTEX
  8
PLAN_1
  6
CONTINUOUS
 10
2.124031
 20
-4.148362
  0
VERTEX
  8
PLAN_1
  6
CONTINUOUS
 10
2.120835
 20
-4.152622
  0
VERTEX
  8
PLAN_1
  6
CONTINUOUS
 10
2.117106
 20
-4.156886
  0
VERTEX
  8
PLAN_1
  6
CONTINUOUS
 10
2.112843
 20
-4.160614
  0
VERTEX
  8
PLAN_1
  6
CONTINUOUS
 10
2.108047
 20
-4.163811
  0
VERTEX
  8
PLAN_1
  6
CONTINUOUS
 10
2.102720
 20
-4.166472
  0
VERTEX
  8
PLAN_1
  6
CONTINUOUS
 10
2.096862
 20
-4.168606
  0
VERTEX
  8
PLAN_1
  6
CONTINUOUS
 10
2.089937
 20
-4.170736
  0
VERTEX
  8
PLAN_1
  6
CONTINUOUS
 10
2.083012
 20
-4.171803
  0
VERTEX
  8
PLAN_1
  6
CONTINUOUS
 10
2.075020
 20
-4.171803
  0
VERTEX
  8
PLAN_1
  6
CONTINUOUS
 10
2.012693
 20
-4.171803
  0
VERTEX
  8
PLAN_1
  6
CONTINUOUS
 10
2.012693
 20
-4.255969
  0
SEQEND
  8
0
  0
POLYLINE
  8
PLAN_1
  6
CONTINUOUS
 66
     1
 40
0.003000
 41
0.003000
  0
VERTEX
  8
PLAN_1
  6
CONTINUOUS
 10
2.012693
 20
-4.148894
  0
VERTEX
  8
PLAN_1
  6
CONTINUOUS
 10
2.065965
 20
-4.148894
  0
VERTEX
  8
PLAN_1
  6
CONTINUOUS
 10
2.074488
 20
-4.148362
  0
VERTEX
  8
PLAN_1
  6
CONTINUOUS
 10
2.082480
 20
-4.147295
  0
VERTEX
  8
PLAN_1
  6
CONTINUOUS
 10
2.086209
 20
-4.146232
  0
VERTEX
  8
PLAN_1
  6
CONTINUOUS
 10
2.089406
 20
-4.144634
  0
VERTEX
  8
PLAN_1
  6
CONTINUOUS
 10
2.092598
 20
-4.143035
  0
VERTEX
  8
PLAN_1
  6
CONTINUOUS
 10
2.095264
 20
-4.140906
  0
VERTEX
  8
PLAN_1
  6
CONTINUOUS
 10
2.097925
 20
-4.138772
  0
VERTEX
  8
PLAN_1
  6
CONTINUOUS
 10
2.100059
 20
-4.136110
  0
VERTEX
  8
PLAN_1
  6
CONTINUOUS
 10
2.102189
 20
-4.133445
  0
VERTEX
  8
PLAN_1
  6
CONTINUOUS
 10
2.103787
 20
-4.130252
  0
VERTEX
  8
PLAN_1
  6
CONTINUOUS
 10
2.104850
 20
-4.126520
  0
VERTEX
  8
PLAN_1
  6
CONTINUOUS
 10
2.105917
 20
-4.122260
  0
VERTEX
  8
PLAN_1
  6
CONTINUOUS
 10
2.106449
 20
-4.117996
  0
VERTEX
  8
PLAN_1
  6
CONTINUOUS
 10
2.106449
 20
-4.113205
  0
VERTEX
  8
PLAN_1
  6
CONTINUOUS
 10
2.106449
 20
-4.108409
  0
VERTEX
  8
PLAN_1
  6
CONTINUOUS
 10
2.105917
 20
-4.104146
  0
VERTEX
  8
PLAN_1
  6
CONTINUOUS
 10
2.104850
 20
-4.100417
  0
VERTEX
  8
PLAN_1
  6
CONTINUOUS
 10
2.103256
 20
-4.097220
  0
VERTEX
  8
PLAN_1
  6
CONTINUOUS
 10
2.101657
 20
-4.094028
  0
VERTEX
  8
PLAN_1
  6
CONTINUOUS
 10
2.100059
 20
-4.091362
  0
VERTEX
  8
PLAN_1
  6
CONTINUOUS
 10
2.097925
 20
-4.089232
  0
VERTEX
  8
PLAN_1
  6
CONTINUOUS
 10
2.095264
 20
-4.087102
  0
VERTEX
  8
PLAN_1
  6
CONTINUOUS
 10
2.092598
 20
-4.084969
  0
VERTEX
  8
PLAN_1
  6
CONTINUOUS
 10
2.089406
 20
-4.083370
  0
VERTEX
  8
PLAN_1
  6
CONTINUOUS
 10
2.086209
 20
-4.082307
  0
VERTEX
  8
PLAN_1
  6
CONTINUOUS
 10
2.082480
 20
-4.081240
  0
VERTEX
  8
PLAN_1
  6
CONTINUOUS
 10
2.075020
 20
-4.080177
  0
VERTEX
  8
PLAN_1
  6
CONTINUOUS
 10
2.067031
 20
-4.079642
  0
VERTEX
  8
PLAN_1
  6
CONTINUOUS
 10
2.012693
 20
-4.079642
  0
VERTEX
  8
PLAN_1
  6
CONTINUOUS
 10
2.012693
 20
-4.148894
  0
SEQEND
  8
0
  0
POLYLINE
  8
PLAN_1
  6
CONTINUOUS
 66
     1
 40
0.003000
 41
0.003000
  0
VERTEX
  8
PLAN_1
  6
CONTINUOUS
 10
2.288102
 20
-4.114803
  0
VERTEX
  8
PLAN_1
  6
CONTINUOUS
 10
2.287571
 20
-4.109476
  0
VERTEX
  8
PLAN_1
  6
CONTINUOUS
 10
2.286504
 20
-4.104681
  0
VERTEX
  8
PLAN_1
  6
CONTINUOUS
 10
2.284906
 20
-4.099886
  0
VERTEX
  8
PLAN_1
  6
CONTINUOUS
 10
2.282776
 20
-4.095626
  0
VERTEX
  8
PLAN_1
  6
CONTINUOUS
 10
2.280646
 20
-4.091894
  0
VERTEX
  8
PLAN_1
  6
CONTINUOUS
 10
2.277980
 20
-4.088701
  0
VERTEX
  8
PLAN_1
  6
CONTINUOUS
 10
2.274783
 20
-4.085504
  0
VERTEX
  8
PLAN_1
  6
CONTINUOUS
 10
2.271591
 20
-4.083370
  0
VERTEX
  8
PLAN_1
  6
CONTINUOUS
 10
2.267858
 20
-4.081240
  0
VERTEX
  8
PLAN_1
  6
CONTINUOUS
 10
2.264130
 20
-4.079110
  0
VERTEX
  8
PLAN_1
  6
CONTINUOUS
 10
2.259870
 20
-4.077512
  0
VERTEX
  8
PLAN_1
  6
CONTINUOUS
 10
2.255606
 20
-4.076449
  0
VERTEX
  8
PLAN_1
  6
CONTINUOUS
 10
2.247087
 20
-4.074850
  0
VERTEX
  8
PLAN_1
  6
CONTINUOUS
 10
2.238563
 20
-4.074315
  0
VERTEX
  8
PLAN_1
  6
CONTINUOUS
 10
2.232169
 20
-4.074850
  0
VERTEX
  8
PLAN_1
  6
CONTINUOUS
 10
2.224713
 20
-4.075913
  0
VERTEX
  8
PLAN_1
  6
CONTINUOUS
 10
2.220449
 20
-4.076449
  0
VERTEX
  8
PLAN_1
  6
CONTINUOUS
 10
2.216720
 20
-4.077512
  0
VERTEX
  8
PLAN_1
  6
CONTINUOUS
 10
2.212992
 20
-4.079110
  0
VERTEX
  8
PLAN_1
  6
CONTINUOUS
 10
2.209795
 20
-4.080709
  0
VERTEX
  8
PLAN_1
  6
CONTINUOUS
 10
2.206067
 20
-4.082839
  0
VERTEX
  8
PLAN_1
  6
CONTINUOUS
 10
2.203402
 20
-4.084969
  0
VERTEX
  8
PLAN_1
  6
CONTINUOUS
 10
2.200205
 20
-4.088165
  0
VERTEX
  8
PLAN_1
  6
CONTINUOUS
 10
2.198075
 20
-4.091362
  0
VERTEX
  8
PLAN_1
  6
CONTINUOUS
 10
2.195945
 20
-4.095091
  0
VERTEX
  8
PLAN_1
  6
CONTINUOUS
 10
2.194346
 20
-4.099354
  0
VERTEX
  8
PLAN_1
  6
CONTINUOUS
 10
2.193815
 20
-4.104146
  0
VERTEX
  8
PLAN_1
  6
CONTINUOUS
 10
2.193280
 20
-4.109476
  0
VERTEX
  8
PLAN_1
  6
CONTINUOUS
 10
2.193280
 20
-4.112669
  0
VERTEX
  8
PLAN_1
  6
CONTINUOUS
 10
2.193815
 20
-4.115335
  0
VERTEX
  8
PLAN_1
  6
CONTINUOUS
 10
2.194346
 20
-4.117996
  0
VERTEX
  8
PLAN_1
  6
CONTINUOUS
 10
2.195413
 20
-4.120130
  0
VERTEX
  8
PLAN_1
  6
CONTINUOUS
 10
2.197543
 20
-4.124390
  0
VERTEX
  8
PLAN_1
  6
CONTINUOUS
 10
2.200740
 20
-4.127587
  0
VERTEX
  8
PLAN_1
  6
CONTINUOUS
 10
2.204469
 20
-4.129717
  0
VERTEX
  8
PLAN_1
  6
CONTINUOUS
 10
2.208197
 20
-4.131846
  0
VERTEX
  8
PLAN_1
  6
CONTINUOUS
 10
2.212461
 20
-4.133445
  0
VERTEX
  8
PLAN_1
  6
CONTINUOUS
 10
2.216720
 20
-4.134512
  0
VERTEX
  8
PLAN_1
  6
CONTINUOUS
 10
2.273720
 20
-4.147831
  0
VERTEX
  8
PLAN_1
  6
CONTINUOUS
 10
2.278516
 20
-4.148894
  0
VERTEX
  8
PLAN_1
  6
CONTINUOUS
 10
2.283307
 20
-4.150492
  0
VERTEX
  8
PLAN_1
  6
CONTINUOUS
 10
2.287571
 20
-4.152091
  0
VERTEX
  8
PLAN_1
  6
CONTINUOUS
 10
2.291831
 20
-4.154220
  0
VERTEX
  8
PLAN_1
  6
CONTINUOUS
 10
2.295559
 20
-4.156354
  0
VERTEX
  8
PLAN_1
  6
CONTINUOUS
 10
2.299291
 20
-4.159016
  0
VERTEX
  8
PLAN_1
  6
CONTINUOUS
 10
2.303020
 20
-4.161681
  0
VERTEX
  8
PLAN_1
  6
CONTINUOUS
 10
2.306217
 20
-4.164878
  0
VERTEX
  8
PLAN_1
  6
CONTINUOUS
 10
2.308878
 20
-4.168071
  0
VERTEX
  8
PLAN_1
  6
CONTINUOUS
 10
2.311543
 20
-4.171803
  0
VERTEX
  8
PLAN_1
  6
CONTINUOUS
 10
2.313673
 20
-4.176063
  0
VERTEX
  8
PLAN_1
  6
CONTINUOUS
 10
2.315803
 20
-4.180323
  0
VERTEX
  8
PLAN_1
  6
CONTINUOUS
 10
2.316870
 20
-4.185118
  0
VERTEX
  8
PLAN_1
  6
CONTINUOUS
 10
2.317933
 20
-4.189913
  0
VERTEX
  8
PLAN_1
  6
CONTINUOUS
 10
2.319000
 20
-4.195240
  0
VERTEX
  8
PLAN_1
  6
CONTINUOUS
 10
2.319000
 20
-4.201098
  0
VERTEX
  8
PLAN_1
  6
CONTINUOUS
 10
2.318469
 20
-4.209622
  0
VERTEX
  8
PLAN_1
  6
CONTINUOUS
 10
2.316870
 20
-4.217083
  0
VERTEX
  8
PLAN_1
  6
CONTINUOUS
 10
2.314740
 20
-4.224008
  0
VERTEX
  8
PLAN_1
  6
CONTINUOUS
 10
2.311543
 20
-4.230398
  0
VERTEX
  8
PLAN_1
  6
CONTINUOUS
 10
2.307815
 20
-4.235724
  0
VERTEX
  8
PLAN_1
  6
CONTINUOUS
 10
2.303551
 20
-4.241051
  0
VERTEX
  8
PLAN_1
  6
CONTINUOUS
 10
2.298224
 20
-4.245315
  0
VERTEX
  8
PLAN_1
  6
CONTINUOUS
 10
2.292898
 20
-4.249043
  0
VERTEX
  8
PLAN_1
  6
CONTINUOUS
 10
2.287039
 20
-4.252240
  0
VERTEX
  8
PLAN_1
  6
CONTINUOUS
 10
2.280646
 20
-4.254902
  0
VERTEX
  8
PLAN_1
  6
CONTINUOUS
 10
2.274252
 20
-4.257035
  0
VERTEX
  8
PLAN_1
  6
CONTINUOUS
 10
2.267327
 20
-4.258634
  0
VERTEX
  8
PLAN_1
  6
CONTINUOUS
 10
2.260937
 20
-4.259697
  0
VERTEX
  8
PLAN_1
  6
CONTINUOUS
 10
2.254012
 20
-4.260764
  0
VERTEX
  8
PLAN_1
  6
CONTINUOUS
 10
2.247618
 20
-4.261295
  0
VERTEX
  8
PLAN_1
  6
CONTINUOUS
 10
2.241224
 20
-4.261295
  0
VERTEX
  8
PLAN_1
  6
CONTINUOUS
 10
2.227906
 20
-4.260764
  0
VERTEX
  8
PLAN_1
  6
CONTINUOUS
 10
2.217252
 20
-4.259697
  0
VERTEX
  8
PLAN_1
  6
CONTINUOUS
 10
2.208197
 20
-4.257567
  0
VERTEX
  8
PLAN_1
  6
CONTINUOUS
 10
2.200205
 20
-4.254902
  0
VERTEX
  8
PLAN_1
  6
CONTINUOUS
 10
2.193815
 20
-4.251709
  0
VERTEX
  8
PLAN_1
  6
CONTINUOUS
 10
2.188488
 20
-4.248512
  0
VERTEX
  8
PLAN_1
  6
CONTINUOUS
 10
2.184224
 20
-4.245315
  0
VERTEX
  8
PLAN_1
  6
CONTINUOUS
 10
2.180496
 20
-4.242118
  0
VERTEX
  8
PLAN_1
  6
CONTINUOUS
 10
2.175169
 20
-4.236260
  0
VERTEX
  8
PLAN_1
  6
CONTINUOUS
 10
2.170374
 20
-4.230398
  0
VERTEX
  8
PLAN_1
  6
CONTINUOUS
 10
2.166646
 20
-4.224539
  0
VERTEX
  8
PLAN_1
  6
CONTINUOUS
 10
2.164516
 20
-4.218146
  0
VERTEX
  8
PLAN_1
  6
CONTINUOUS
 10
2.162386
 20
-4.211756
  0
VERTEX
  8
PLAN_1
  6
CONTINUOUS
 10
2.161319
 20
-4.205362
  0
VERTEX
  8
PLAN_1
  6
CONTINUOUS
 10
2.160787
 20
-4.198437
  0
VERTEX
  8
PLAN_1
  6
CONTINUOUS
 10
2.160252
 20
-4.191512
  0
VERTEX
  8
PLAN_1
  6
CONTINUOUS
 10
2.185823
 20
-4.191512
  0
VERTEX
  8
PLAN_1
  6
CONTINUOUS
 10
2.186354
 20
-4.197906
  0
VERTEX
  8
PLAN_1
  6
CONTINUOUS
 10
2.186890
 20
-4.203764
  0
VERTEX
  8
PLAN_1
  6
CONTINUOUS
 10
2.188488
 20
-4.209091
  0
VERTEX
  8
PLAN_1
  6
CONTINUOUS
 10
2.190618
 20
-4.213886
  0
VERTEX
  8
PLAN_1
  6
CONTINUOUS
 10
2.193280
 20
-4.218681
  0
VERTEX
  8
PLAN_1
  6
CONTINUOUS
 10
2.196476
 20
-4.222409
  0
VERTEX
  8
PLAN_1
  6
CONTINUOUS
 10
2.199673
 20
-4.225606
  0
VERTEX
  8
PLAN_1
  6
CONTINUOUS
 10
2.203402
 20
-4.228268
  0
VERTEX
  8
PLAN_1
  6
CONTINUOUS
 10
2.207665
 20
-4.230933
  0
VERTEX
  8
PLAN_1
  6
CONTINUOUS
 10
2.211925
 20
-4.233063
  0
VERTEX
  8
PLAN_1
  6
CONTINUOUS
 10
2.216720
 20
-4.234661
  0
VERTEX
  8
PLAN_1
  6
CONTINUOUS
 10
2.221516
 20
-4.236260
  0
VERTEX
  8
PLAN_1
  6
CONTINUOUS
 10
2.226311
 20
-4.236791
  0
VERTEX
  8
PLAN_1
  6
CONTINUOUS
 10
2.231102
 20
-4.237858
  0
VERTEX
  8
PLAN_1
  6
CONTINUOUS
 10
2.235898
 20
-4.238390
  0
VERTEX
  8
PLAN_1
  6
CONTINUOUS
 10
2.240693
 20
-4.238390
  0
VERTEX
  8
PLAN_1
  6
CONTINUOUS
 10
2.248681
 20
-4.237858
  0
VERTEX
  8
PLAN_1
  6
CONTINUOUS
 10
2.257205
 20
-4.236791
  0
VERTEX
  8
PLAN_1
  6
CONTINUOUS
 10
2.261469
 20
-4.236260
  0
VERTEX
  8
PLAN_1
  6
CONTINUOUS
 10
2.265728
 20
-4.235193
  0
VERTEX
  8
PLAN_1
  6
CONTINUOUS
 10
2.269992
 20
-4.233594
  0
VERTEX
  8
PLAN_1
  6
CONTINUOUS
 10
2.274252
 20
-4.231996
  0
VERTEX
  8
PLAN_1
  6
CONTINUOUS
 10
2.277980
 20
-4.230398
  0
VERTEX
  8
PLAN_1
  6
CONTINUOUS
 10
2.281709
 20
-4.227736
  0
VERTEX
  8
PLAN_1
  6
CONTINUOUS
 10
2.284906
 20
-4.225071
  0
VERTEX
  8
PLAN_1
  6
CONTINUOUS
 10
2.287571
 20
-4.221874
  0
VERTEX
  8
PLAN_1
  6
CONTINUOUS
 10
2.289701
 20
-4.218146
  0
VERTEX
  8
PLAN_1
  6
CONTINUOUS
 10
2.291299
 20
-4.214417
  0
VERTEX
  8
PLAN_1
  6
CONTINUOUS
 10
2.292366
 20
-4.209622
  0
VERTEX
  8
PLAN_1
  6
CONTINUOUS
 10
2.292898
 20
-4.204831
  0
VERTEX
  8
PLAN_1
  6
CONTINUOUS
 10
2.292898
 20
-4.201098
  0
VERTEX
  8
PLAN_1
  6
CONTINUOUS
 10
2.292366
 20
-4.197370
  0
VERTEX
  8
PLAN_1
  6
CONTINUOUS
 10
2.291831
 20
-4.194173
  0
VERTEX
  8
PLAN_1
  6
CONTINUOUS
 10
2.290768
 20
-4.191512
  0
VERTEX
  8
PLAN_1
  6
CONTINUOUS
 10
2.289701
 20
-4.188846
  0
VERTEX
  8
PLAN_1
  6
CONTINUOUS
 10
2.288102
 20
-4.186185
  0
VERTEX
  8
PLAN_1
  6
CONTINUOUS
 10
2.285972
 20
-4.184055
  0
VERTEX
  8
PLAN_1
  6
CONTINUOUS
 10
2.283843
 20
-4.181921
  0
VERTEX
  8
PLAN_1
  6
CONTINUOUS
 10
2.281177
 20
-4.180323
  0
VERTEX
  8
PLAN_1
  6
CONTINUOUS
 10
2.278516
 20
-4.178728
  0
VERTEX
  8
PLAN_1
  6
CONTINUOUS
 10
2.274783
 20
-4.176594
  0
VERTEX
  8
PLAN_1
  6
CONTINUOUS
 10
2.271055
 20
-4.175531
  0
VERTEX
  8
PLAN_1
  6
CONTINUOUS
 10
2.261469
 20
-4.172335
  0
VERTEX
  8
PLAN_1
  6
CONTINUOUS
 10
2.250280
 20
-4.169669
  0
VERTEX
  8
PLAN_1
  6
CONTINUOUS
 10
2.209795
 20
-4.160083
  0
VERTEX
  8
PLAN_1
  6
CONTINUOUS
 10
2.203937
 20
-4.158484
  0
VERTEX
  8
PLAN_1
  6
CONTINUOUS
 10
2.197543
 20
-4.156354
  0
VERTEX
  8
PLAN_1
  6
CONTINUOUS
 10
2.193815
 20
-4.154756
  0
VERTEX
  8
PLAN_1
  6
CONTINUOUS
 10
2.190618
 20
-4.153157
  0
VERTEX
  8
PLAN_1
  6
CONTINUOUS
 10
2.186890
 20
-4.151028
  0
VERTEX
  8
PLAN_1
  6
CONTINUOUS
 10
2.183693
 20
-4.148362
  0
VERTEX
  8
PLAN_1
  6
CONTINUOUS
 10
2.179965
 20
-4.145697
  0
VERTEX
  8
PLAN_1
  6
CONTINUOUS
 10
2.177299
 20
-4.142504
  0
VERTEX
  8
PLAN_1
  6
CONTINUOUS
 10
2.174638
 20
-4.138772
  0
VERTEX
  8
PLAN_1
  6
CONTINUOUS
 10
2.171972
 20
-4.134512
  0
VERTEX
  8
PLAN_1
  6
CONTINUOUS
 10
2.169843
 20
-4.130252
  0
VERTEX
  8
PLAN_1
  6
CONTINUOUS
 10
2.168244
 20
-4.124921
  0
VERTEX
  8
PLAN_1
  6
CONTINUOUS
 10
2.167713
 20
-4.119063
  0
VERTEX
  8
PLAN_1
  6
CONTINUOUS
 10
2.167177
 20
-4.113205
  0
VERTEX
  8
PLAN_1
  6
CONTINUOUS
 10
2.167177
 20
-4.107343
  0
VERTEX
  8
PLAN_1
  6
CONTINUOUS
 10
2.168244
 20
-4.101484
  0
VERTEX
  8
PLAN_1
  6
CONTINUOUS
 10
2.169311
 20
-4.095626
  0
VERTEX
  8
PLAN_1
  6
CONTINUOUS
 10
2.170909
 20
-4.090295
  0
VERTEX
  8
PLAN_1
  6
CONTINUOUS
 10
2.173571
 20
-4.084969
  0
VERTEX
  8
PLAN_1
  6
CONTINUOUS
 10
2.176236
 20
-4.079642
  0
VERTEX
  8
PLAN_1
  6
CONTINUOUS
 10
2.179429
 20
-4.074850
  0
VERTEX
  8
PLAN_1
  6
CONTINUOUS
 10
2.183161
 20
-4.070587
  0
VERTEX
  8
PLAN_1
  6
CONTINUOUS
 10
2.187953
 20
-4.066327
  0
VERTEX
  8
PLAN_1
  6
CONTINUOUS
 10
2.192748
 20
-4.062598
  0
VERTEX
  8
PLAN_1
  6
CONTINUOUS
 10
2.198610
 20
-4.059402
  0
VERTEX
  8
PLAN_1
  6
CONTINUOUS
 10
2.204469
 20
-4.056736
  0
VERTEX
  8
PLAN_1
  6
CONTINUOUS
 10
2.211394
 20
-4.054606
  0
VERTEX
  8
PLAN_1
  6
CONTINUOUS
 10
2.218850
 20
-4.053008
  0
VERTEX
  8
PLAN_1
  6
CONTINUOUS
 10
2.226843
 20
-4.051941
  0
VERTEX
  8
PLAN_1
  6
CONTINUOUS
 10
2.235898
 20
-4.051409
  0
VERTEX
  8
PLAN_1
  6
CONTINUOUS
 10
2.248150
 20
-4.051941
  0
VERTEX
  8
PLAN_1
  6
CONTINUOUS
 10
2.258803
 20
-4.053539
  0
VERTEX
  8
PLAN_1
  6
CONTINUOUS
 10
2.268925
 20
-4.055673
  0
VERTEX
  8
PLAN_1
  6
CONTINUOUS
 10
2.276917
 20
-4.058335
  0
VERTEX
  8
PLAN_1
  6
CONTINUOUS
 10
2.284374
 20
-4.061531
  0
VERTEX
  8
PLAN_1
  6
CONTINUOUS
 10
2.290768
 20
-4.065791
  0
VERTEX
  8
PLAN_1
  6
CONTINUOUS
 10
2.296094
 20
-4.070055
  0
VERTEX
  8
PLAN_1
  6
CONTINUOUS
 10
2.300354
 20
-4.074850
  0
VERTEX
  8
PLAN_1
  6
CONTINUOUS
 10
2.304083
 20
-4.080177
  0
VERTEX
  8
PLAN_1
  6
CONTINUOUS
 10
2.306748
 20
-4.085504
  0
VERTEX
  8
PLAN_1
  6
CONTINUOUS
 10
2.308878
 20
-4.090295
  0
VERTEX
  8
PLAN_1
  6
CONTINUOUS
 10
2.310476
 20
-4.095626
  0
VERTEX
  8
PLAN_1
  6
CONTINUOUS
 10
2.312606
 20
-4.105744
  0
VERTEX
  8
PLAN_1
  6
CONTINUOUS
 10
2.313673
 20
-4.114803
  0
VERTEX
  8
PLAN_1
  6
CONTINUOUS
 10
2.288102
 20
-4.114803
  0
SEQEND
  8
0
  0
POLYLINE
  8
PLAN_1
  6
CONTINUOUS
 66
     1
 40
0.008520
 41
0.008520
  0
VERTEX
  8
PLAN_1
  6
CONTINUOUS
 10
-0.602894
 20
-1.014984
  0
VERTEX
  8
PLAN_1
  6
CONTINUOUS
 10
-0.602894
 20
2.907862
  0
VERTEX
  8
PLAN_1
  6
CONTINUOUS
 10
-1.901098
 20
2.907862
  0
VERTEX
  8
PLAN_1
  6
CONTINUOUS
 10
-1.901098
 20
2.072579
  0
VERTEX
  8
PLAN_1
  6
CONTINUOUS
 10
-2.221252
 20
2.072579
  0
VERTEX
  8
PLAN_1
  6
CONTINUOUS
 10
-2.221252
 20
-1.014984
  0
VERTEX
  8
PLAN_1
  6
CONTINUOUS
 10
-0.602894
 20
-1.014984
  0
SEQEND
  8
0
  0
POLYLINE
  8
PLAN_1
  6
CONTINUOUS
 66
     1
 40
0.008520
 41
0.008520
  0
VERTEX
  8
PLAN_1
  6
CONTINUOUS
 10
-1.588933
 20
2.072579
  0
VERTEX
  8
PLAN_1
  6
CONTINUOUS
 10
-1.588933
 20
2.272343
  0
VERTEX
  8
PLAN_1
  6
CONTINUOUS
 10
-1.902697
 20
2.272343
  0
SEQEND
  8
0
  0
POLYLINE
  8
PLAN_1
  6
CONTINUOUS
 66
     1
 40
0.008520
 41
0.008520
  0
VERTEX
  8
PLAN_1
  6
CONTINUOUS
 10
-0.602894
 20
2.272343
  0
VERTEX
  8
PLAN_1
  6
CONTINUOUS
 10
-0.920917
 20
2.272343
  0
VERTEX
  8
PLAN_1
  6
CONTINUOUS
 10
-0.920917
 20
2.072579
  0
SEQEND
  8
0
  0
POLYLINE
  8
PLAN_1
  6
CONTINUOUS
 66
     1
 40
0.008520
 41
0.008520
  0
VERTEX
  8
PLAN_1
  6
CONTINUOUS
 10
-0.581051
 20
1.738039
  0
VERTEX
  8
PLAN_1
  6
CONTINUOUS
 10
-0.581051
 20
2.039020
  0
VERTEX
  8
PLAN_1
  6
CONTINUOUS
 10
-0.599697
 20
2.039020
  0
VERTEX
  8
PLAN_1
  6
CONTINUOUS
 10
-0.599697
 20
1.738039
  0
VERTEX
  8
PLAN_1
  6
CONTINUOUS
 10
-0.581051
 20
1.738039
  0
SEQEND
  8
0
  0
POLYLINE
  8
PLAN_1
  6
CONTINUOUS
 66
     1
 40
0.008520
 41
0.008520
  0
VERTEX
  8
PLAN_1
  6
CONTINUOUS
 10
-0.581051
 20
-0.986220
  0
VERTEX
  8
PLAN_1
  6
CONTINUOUS
 10
-0.581051
 20
-0.685240
  0
VERTEX
  8
PLAN_1
  6
CONTINUOUS
 10
-0.599697
 20
-0.685240
  0
VERTEX
  8
PLAN_1
  6
CONTINUOUS
 10
-0.599697
 20
-0.986220
  0
VERTEX
  8
PLAN_1
  6
CONTINUOUS
 10
-0.581051
 20
-0.986220
  0
SEQEND
  8
0
  0
POLYLINE
  8
PLAN_1
  6
CONTINUOUS
 66
     1
 40
0.008520
 41
0.008520
  0
VERTEX
  8
PLAN_1
  6
CONTINUOUS
 10
-2.145610
 20
2.072579
  0
VERTEX
  8
PLAN_1
  6
CONTINUOUS
 10
-2.145610
 20
-1.014984
  0
SEQEND
  8
0
  0
POLYLINE
  8
PLAN_1
  6
CONTINUOUS
 66
     1
 40
0.008520
 41
0.008520
  0
VERTEX
  8
PLAN_1
  6
CONTINUOUS
 10
-2.063039
 20
2.072579
  0
VERTEX
  8
PLAN_1
  6
CONTINUOUS
 10
-2.063039
 20
-1.014984
  0
SEQEND
  8
0
  0
POLYLINE
  8
PLAN_1
  6
CONTINUOUS
 66
     1
 40
0.008520
 41
0.008520
  0
VERTEX
  8
PLAN_1
  6
CONTINUOUS
 10
-2.063039
 20
1.489799
  0
VERTEX
  8
PLAN_1
  6
CONTINUOUS
 10
-1.902697
 20
1.489799
  0
VERTEX
  8
PLAN_1
  6
CONTINUOUS
 10
-1.902697
 20
2.072579
  0
SEQEND
  8
0
  0
POLYLINE
  8
PLAN_1
  6
CONTINUOUS
 66
     1
 40
0.008520
 41
0.008520
  0
VERTEX
  8
PLAN_1
  6
CONTINUOUS
 10
-2.059311
 20
-0.467362
  0
VERTEX
  8
PLAN_1
  6
CONTINUOUS
 10
-1.901098
 20
-0.467362
  0
VERTEX
  8
PLAN_1
  6
CONTINUOUS
 10
-1.901098
 20
-1.016583
  0
SEQEND
  8
0
  0
POLYLINE
  8
PLAN_1
  6
CONTINUOUS
 66
     1
 40
0.008520
 41
0.008520
  0
VERTEX
  8
PLAN_1
  6
CONTINUOUS
 10
-2.221252
 20
-0.928689
  0
VERTEX
  8
PLAN_1
  6
CONTINUOUS
 10
-2.221252
 20
-0.672988
  0
VERTEX
  8
PLAN_1
  6
CONTINUOUS
 10
-2.318740
 20
-0.672988
  0
VERTEX
  8
PLAN_1
  6
CONTINUOUS
 10
-2.318740
 20
-0.928689
  0
VERTEX
  8
PLAN_1
  6
CONTINUOUS
 10
-2.221252
 20
-0.928689
  0
SEQEND
  8
0
  0
POLYLINE
  8
PLAN_1
  6
CONTINUOUS
 66
     1
 40
0.008520
 41
0.008520
  0
VERTEX
  8
PLAN_1
  6
CONTINUOUS
 10
-2.266000
 20
-0.906315
  0
VERTEX
  8
PLAN_1
  6
CONTINUOUS
 10
-2.266000
 20
-0.883406
  0
VERTEX
  8
PLAN_1
  6
CONTINUOUS
 10
-2.318740
 20
-0.883406
  0
VERTEX
  8
PLAN_1
  6
CONTINUOUS
 10
-2.318740
 20
-0.906315
  0
VERTEX
  8
PLAN_1
  6
CONTINUOUS
 10
-2.266000
 20
-0.906315
  0
SEQEND
  8
0
  0
POLYLINE
  8
PLAN_1
  6
CONTINUOUS
 66
     1
 40
0.008520
 41
0.008520
  0
VERTEX
  8
PLAN_1
  6
CONTINUOUS
 10
-2.221252
 20
1.988409
  0
VERTEX
  8
PLAN_1
  6
CONTINUOUS
 10
-2.221252
 20
1.732713
  0
VERTEX
  8
PLAN_1
  6
CONTINUOUS
 10
-2.318740
 20
1.732713
  0
VERTEX
  8
PLAN_1
  6
CONTINUOUS
 10
-2.318740
 20
1.988409
  0
VERTEX
  8
PLAN_1
  6
CONTINUOUS
 10
-2.221252
 20
1.988409
  0
SEQEND
  8
0
  0
POLYLINE
  8
PLAN_1
  6
CONTINUOUS
 66
     1
 40
0.008520
 41
0.008520
  0
VERTEX
  8
PLAN_1
  6
CONTINUOUS
 10
-2.266000
 20
1.966035
  0
VERTEX
  8
PLAN_1
  6
CONTINUOUS
 10
-2.266000
 20
1.943665
  0
VERTEX
  8
PLAN_1
  6
CONTINUOUS
 10
-2.318740
 20
1.943665
  0
VERTEX
  8
PLAN_1
  6
CONTINUOUS
 10
-2.318740
 20
1.966035
  0
VERTEX
  8
PLAN_1
  6
CONTINUOUS
 10
-2.266000
 20
1.966035
  0
SEQEND
  8
0
  0
POLYLINE
  8
PLAN_1
  6
CONTINUOUS
 66
     1
 40
0.008520
 41
0.008520
  0
VERTEX
  8
PLAN_1
  6
CONTINUOUS
 10
-0.602894
 20
2.070980
  0
VERTEX
  8
PLAN_1
  6
CONTINUOUS
 10
-1.899500
 20
2.070980
  0
SEQEND
  8
0
  0
POLYLINE
  8
PLAN_1
  6
CONTINUOUS
 66
     1
 40
0.008520
 41
0.008520
  0
VERTEX
  8
PLAN_1
  6
CONTINUOUS
 10
-0.888421
 20
2.907862
  0
VERTEX
  8
PLAN_1
  6
CONTINUOUS
 10
-0.888421
 20
2.928102
  0
VERTEX
  8
PLAN_1
  6
CONTINUOUS
 10
-1.625154
 20
2.928102
  0
VERTEX
  8
PLAN_1
  6
CONTINUOUS
 10
-1.625154
 20
2.907862
  0
VERTEX
  8
PLAN_1
  6
CONTINUOUS
 10
-0.888421
 20
2.907862
  0
SEQEND
  8
0
  0
POLYLINE
  8
PLAN_1
  6
CONTINUOUS
 66
     1
 40
0.008520
 41
0.008520
  0
VERTEX
  8
PLAN_1
  6
CONTINUOUS
 10
-1.142524
 20
3.352138
  0
VERTEX
  8
PLAN_1
  6
CONTINUOUS
 10
-1.142524
 20
3.153437
  0
VERTEX
  8
PLAN_1
  6
CONTINUOUS
 10
-1.354008
 20
3.153437
  0
VERTEX
  8
PLAN_1
  6
CONTINUOUS
 10
-1.354008
 20
3.351606
  0
SEQEND
  8
0
  0
POLYLINE
  8
PLAN_1
  6
CONTINUOUS
 66
     1
 40
0.008520
 41
0.008520
  0
VERTEX
  8
PLAN_1
  6
CONTINUOUS
 10
-1.447232
 20
3.554035
  0
VERTEX
  8
PLAN_1
  6
CONTINUOUS
 10
-1.354008
 20
3.554035
  0
SEQEND
  8
0
  0
POLYLINE
  8
PLAN_1
  6
CONTINUOUS
 66
     1
 40
0.008520
 41
0.008520
  0
VERTEX
  8
PLAN_1
  6
CONTINUOUS
 10
-1.142524
 20
3.554035
  0
VERTEX
  8
PLAN_1
  6
CONTINUOUS
 10
-1.055161
 20
3.554035
  0
SEQEND
  8
0
  0
POLYLINE
  8
PLAN_1
  6
CONTINUOUS
 66
     1
 40
0.008520
 41
0.008520
  0
VERTEX
  8
PLAN_1
  6
CONTINUOUS
 10
-1.142524
 20
3.272764
  0
VERTEX
  8
PLAN_1
  6
CONTINUOUS
 10
-1.354008
 20
3.272764
  0
SEQEND
  8
0
  0
POLYLINE
  8
PLAN_1
  6
CONTINUOUS
 66
     1
 40
0.008520
 41
0.008520
  0
VERTEX
  8
PLAN_1
  6
CONTINUOUS
 10
-1.527138
 20
3.509819
  0
VERTEX
  8
PLAN_1
  6
CONTINUOUS
 10
-1.354008
 20
3.509819
  0
SEQEND
  8
0
  0
POLYLINE
  8
PLAN_1
  6
CONTINUOUS
 66
     1
 40
0.008520
 41
0.008520
  0
VERTEX
  8
PLAN_1
  6
CONTINUOUS
 10
-1.142524
 20
3.509819
  0
VERTEX
  8
PLAN_1
  6
CONTINUOUS
 10
-0.960339
 20
3.509819
  0
SEQEND
  8
0
  0
POLYLINE
  8
PLAN_1
  6
CONTINUOUS
 66
     1
 40
0.008520
 41
0.008520
  0
VERTEX
  8
PLAN_1
  6
CONTINUOUS
 10
-1.142524
 20
3.353736
  0
VERTEX
  8
PLAN_1
  6
CONTINUOUS
 10
-1.354008
 20
3.353736
  0
VERTEX
  8
PLAN_1
  6
CONTINUOUS
 10
-1.354008
 20
3.274362
  0
VERTEX
  8
PLAN_1
  6
CONTINUOUS
 10
-1.142524
 20
3.274362
  0
VERTEX
  8
PLAN_1
  6
CONTINUOUS
 10
-1.142524
 20
3.353736
  0
SEQEND
  8
0
  0
POLYLINE
  8
PLAN_1
  6
CONTINUOUS
 66
     1
 40
0.008520
 41
0.008520
  0
VERTEX
  8
PLAN_1
  6
CONTINUOUS
 10
-1.447764
 20
3.742610
  0
VERTEX
  8
PLAN_1
  6
CONTINUOUS
 10
-1.447764
 20
3.743677
  0
SEQEND
  8
0
  0
POLYLINE
  8
PLAN_1
  6
CONTINUOUS
 66
     1
 40
0.008520
 41
0.008520
  0
VERTEX
  8
PLAN_1
  6
CONTINUOUS
 10
-1.447764
 20
3.743677
  0
VERTEX
  8
PLAN_1
  6
CONTINUOUS
 10
-1.436043
 20
3.752732
  0
VERTEX
  8
PLAN_1
  6
CONTINUOUS
 10
-1.424858
 20
3.761787
  0
VERTEX
  8
PLAN_1
  6
CONTINUOUS
 10
-1.413669
 20
3.769780
  0
VERTEX
  8
PLAN_1
  6
CONTINUOUS
 10
-1.402484
 20
3.777236
  0
VERTEX
  8
PLAN_1
  6
CONTINUOUS
 10
-1.390764
 20
3.784161
  0
VERTEX
  8
PLAN_1
  6
CONTINUOUS
 10
-1.379043
 20
3.790555
  0
VERTEX
  8
PLAN_1
  6
CONTINUOUS
 10
-1.366791
 20
3.796413
  0
VERTEX
  8
PLAN_1
  6
CONTINUOUS
 10
-1.354008
 20
3.801209
  0
SEQEND
  8
0
  0
POLYLINE
  8
PLAN_1
  6
CONTINUOUS
 66
     1
 40
0.008520
 41
0.008520
  0
VERTEX
  8
PLAN_1
  6
CONTINUOUS
 10
-1.447764
 20
3.742610
  0
VERTEX
  8
PLAN_1
  6
CONTINUOUS
 10
-1.447764
 20
3.553500
  0
VERTEX
  8
PLAN_1
  6
CONTINUOUS
 10
-1.537791
 20
3.510350
  0
VERTEX
  8
PLAN_1
  6
CONTINUOUS
 10
-1.537791
 20
2.928102
  0
VERTEX
  8
PLAN_1
  6
CONTINUOUS
 10
-0.959272
 20
2.928102
  0
VERTEX
  8
PLAN_1
  6
CONTINUOUS
 10
-0.959272
 20
3.510350
  0
VERTEX
  8
PLAN_1
  6
CONTINUOUS
 10
-1.051965
 20
3.553500
  0
VERTEX
  8
PLAN_1
  6
CONTINUOUS
 10
-1.051965
 20
3.744209
  0
SEQEND
  8
0
  0
POLYLINE
  8
PLAN_1
  6
CONTINUOUS
 66
     1
 40
0.008520
 41
0.008520
  0
VERTEX
  8
PLAN_1
  6
CONTINUOUS
 10
-1.051965
 20
3.744209
  0
VERTEX
  8
PLAN_1
  6
CONTINUOUS
 10
-1.062618
 20
3.752201
  0
VERTEX
  8
PLAN_1
  6
CONTINUOUS
 10
-1.072740
 20
3.759657
  0
VERTEX
  8
PLAN_1
  6
CONTINUOUS
 10
-1.083394
 20
3.767114
  0
VERTEX
  8
PLAN_1
  6
CONTINUOUS
 10
-1.094579
 20
3.774039
  0
VERTEX
  8
PLAN_1
  6
CONTINUOUS
 10
-1.106299
 20
3.780433
  0
VERTEX
  8
PLAN_1
  6
CONTINUOUS
 10
-1.118020
 20
3.786295
  0
VERTEX
  8
PLAN_1
  6
CONTINUOUS
 10
-1.129740
 20
3.791622
  0
VERTEX
  8
PLAN_1
  6
CONTINUOUS
 10
-1.142524
 20
3.796413
  0
SEQEND
  8
0
  0
POLYLINE
  8
PLAN_1
  6
CONTINUOUS
 66
     1
 40
0.008520
 41
0.008520
  0
VERTEX
  8
PLAN_1
  6
CONTINUOUS
 10
-1.448295
 20
3.742610
  0
VERTEX
  8
PLAN_1
  6
CONTINUOUS
 10
-1.447764
 20
3.742610
  0
SEQEND
  8
0
  0
POLYLINE
  8
PLAN_1
  6
CONTINUOUS
 66
     1
 40
0.008520
 41
0.008520
  0
VERTEX
  8
PLAN_1
  6
CONTINUOUS
 10
-1.055693
 20
3.742610
  0
VERTEX
  8
PLAN_1
  6
CONTINUOUS
 10
-1.142524
 20
3.742610
  0
SEQEND
  8
0
  0
POLYLINE
  8
PLAN_1
  6
CONTINUOUS
 66
     1
 40
0.008520
 41
0.008520
  0
VERTEX
  8
PLAN_1
  6
CONTINUOUS
 10
-1.447764
 20
3.742610
  0
VERTEX
  8
PLAN_1
  6
CONTINUOUS
 10
-1.354008
 20
3.742610
  0
SEQEND
  8
0
  0
POLYLINE
  8
PLAN_1
  6
CONTINUOUS
 66
     1
 40
0.008520
 41
0.008520
  0
VERTEX
  8
PLAN_1
  6
CONTINUOUS
 10
-1.142524
 20
3.796413
  0
VERTEX
  8
PLAN_1
  6
CONTINUOUS
 10
-1.142524
 20
3.849685
  0
VERTEX
  8
PLAN_1
  6
CONTINUOUS
 10
-1.354008
 20
3.849685
  0
VERTEX
  8
PLAN_1
  6
CONTINUOUS
 10
-1.354008
 20
3.801209
  0
SEQEND
  8
0
  0
POLYLINE
  8
PLAN_1
  6
CONTINUOUS
 66
     1
 40
0.008520
 41
0.008520
  0
VERTEX
  8
PLAN_1
  6
CONTINUOUS
 10
-1.142524
 20
3.742610
  0
VERTEX
  8
PLAN_1
  6
CONTINUOUS
 10
-1.142524
 20
3.353736
  0
VERTEX
  8
PLAN_1
  6
CONTINUOUS
 10
-1.354008
 20
3.353736
  0
VERTEX
  8
PLAN_1
  6
CONTINUOUS
 10
-1.354008
 20
3.742610
  0
SEQEND
  8
0
  0
POLYLINE
  8
PLAN_1
  6
CONTINUOUS
 66
     1
 40
0.008520
 41
0.008520
  0
VERTEX
  8
PLAN_1
  6
CONTINUOUS
 10
-1.142524
 20
3.796413
  0
VERTEX
  8
PLAN_1
  6
CONTINUOUS
 10
-1.142524
 20
3.742610
  0
SEQEND
  8
0
  0
POLYLINE
  8
PLAN_1
  6
CONTINUOUS
 66
     1
 40
0.008520
 41
0.008520
  0
VERTEX
  8
PLAN_1
  6
CONTINUOUS
 10
-1.354008
 20
3.801209
  0
VERTEX
  8
PLAN_1
  6
CONTINUOUS
 10
-1.354008
 20
3.742610
  0
SEQEND
  8
0
  0
POLYLINE
  8
PLAN_1
 62
     2
  6
CONTINUOUS
 66
     1
 40
0.004260
 41
0.004260
  0
VERTEX
  8
PLAN_1
 62
     2
  6
CONTINUOUS
 10
-0.581051
 20
-1.038957
  0
VERTEX
  8
PLAN_1
 62
     2
  6
CONTINUOUS
 10
-0.581051
 20
-1.124189
  0
SEQEND
  8
0
  0
POLYLINE
  8
PLAN_1
 62
     2
  6
CONTINUOUS
 66
     1
 40
0.004260
 41
0.004260
  0
VERTEX
  8
PLAN_1
 62
     2
  6
CONTINUOUS
 10
-0.581051
 20
-1.193976
  0
VERTEX
  8
PLAN_1
 62
     2
  6
CONTINUOUS
 10
-0.581051
 20
-1.466720
  0
SEQEND
  8
0
  0
POLYLINE
  8
PLAN_1
 62
     2
  6
CONTINUOUS
 66
     1
 40
0.004260
 41
0.004260
  0
VERTEX
  8
PLAN_1
 62
     2
  6
CONTINUOUS
 10
-1.901098
 20
-1.038957
  0
VERTEX
  8
PLAN_1
 62
     2
  6
CONTINUOUS
 10
-1.901098
 20
-1.309571
  0
SEQEND
  8
0
  0
POLYLINE
  8
PLAN_1
 62
     2
  6
CONTINUOUS
 66
     1
 40
0.004260
 41
0.004260
  0
VERTEX
  8
PLAN_1
 62
     2
  6
CONTINUOUS
 10
-1.871799
 20
-1.285598
  0
VERTEX
  8
PLAN_1
 62
     2
  6
CONTINUOUS
 10
-0.610882
 20
-1.285598
  0
SEQEND
  8
0
  0
SOLID
  8
PLAN_1
 62
     2
 10
-0.581051
 20
-1.285598
 11
-0.640181
 21
-1.270154
 12
-0.581051
 22
-1.285598
 13
-0.640181
 23
-1.301583
  0
POLYLINE
  8
PLAN_1
 62
     2
  6
CONTINUOUS
 66
     1
 40
0.003000
 41
0.003000
  0
VERTEX
  8
PLAN_1
 62
     2
  6
CONTINUOUS
 10
-0.581051
 20
-1.285598
  0
VERTEX
  8
PLAN_1
 62
     2
  6
CONTINUOUS
 10
-0.640181
 20
-1.270154
  0
VERTEX
  8
PLAN_1
 62
     2
  6
CONTINUOUS
 10
-0.640181
 20
-1.301583
  0
VERTEX
  8
PLAN_1
 62
     2
  6
CONTINUOUS
 10
-0.581051
 20
-1.285598
  0
SEQEND
  8
0
  0
SOLID
  8
PLAN_1
 62
     2
 10
-1.901098
 20
-1.285598
 11
-1.841965
 21
-1.270154
 12
-1.901098
 22
-1.285598
 13
-1.841965
 23
-1.301583
  0
POLYLINE
  8
PLAN_1
 62
     2
  6
CONTINUOUS
 66
     1
 40
0.003000
 41
0.003000
  0
VERTEX
  8
PLAN_1
 62
     2
  6
CONTINUOUS
 10
-1.901098
 20
-1.285598
  0
VERTEX
  8
PLAN_1
 62
     2
  6
CONTINUOUS
 10
-1.841965
 20
-1.270154
  0
VERTEX
  8
PLAN_1
 62
     2
  6
CONTINUOUS
 10
-1.841965
 20
-1.301583
  0
VERTEX
  8
PLAN_1
 62
     2
  6
CONTINUOUS
 10
-1.901098
 20
-1.285598
  0
SEQEND
  8
0
  0
POLYLINE
  8
PLAN_1
 62
     2
  6
CONTINUOUS
 66
     1
 40
0.003000
 41
0.003000
  0
VERTEX
  8
PLAN_1
 62
     2
  6
CONTINUOUS
 10
-1.319382
 20
-1.220610
  0
VERTEX
  8
PLAN_1
 62
     2
  6
CONTINUOUS
 10
-1.318850
 20
-1.220610
  0
VERTEX
  8
PLAN_1
 62
     2
  6
CONTINUOUS
 10
-1.317783
 20
-1.220610
  0
VERTEX
  8
PLAN_1
 62
     2
  6
CONTINUOUS
 10
-1.317252
 20
-1.220610
  0
VERTEX
  8
PLAN_1
 62
     2
  6
CONTINUOUS
 10
-1.316717
 20
-1.220610
  0
VERTEX
  8
PLAN_1
 62
     2
  6
CONTINUOUS
 10
-1.316185
 20
-1.220610
  0
VERTEX
  8
PLAN_1
 62
     2
  6
CONTINUOUS
 10
-1.315654
 20
-1.220610
  0
VERTEX
  8
PLAN_1
 62
     2
  6
CONTINUOUS
 10
-1.315122
 20
-1.220610
  0
VERTEX
  8
PLAN_1
 62
     2
  6
CONTINUOUS
 10
-1.314587
 20
-1.220610
  0
VERTEX
  8
PLAN_1
 62
     2
  6
CONTINUOUS
 10
-1.311925
 20
-1.220610
  0
VERTEX
  8
PLAN_1
 62
     2
  6
CONTINUOUS
 10
-1.309260
 20
-1.220079
  0
VERTEX
  8
PLAN_1
 62
     2
  6
CONTINUOUS
 10
-1.307130
 20
-1.219543
  0
VERTEX
  8
PLAN_1
 62
     2
  6
CONTINUOUS
 10
-1.305000
 20
-1.218480
  0
VERTEX
  8
PLAN_1
 62
     2
  6
CONTINUOUS
 10
-1.302866
 20
-1.216882
  0
VERTEX
  8
PLAN_1
 62
     2
  6
CONTINUOUS
 10
-1.301803
 20
-1.214752
  0
VERTEX
  8
PLAN_1
 62
     2
  6
CONTINUOUS
 10
-1.300736
 20
-1.212087
  0
VERTEX
  8
PLAN_1
 62
     2
  6
CONTINUOUS
 10
-1.300736
 20
-1.208890
  0
VERTEX
  8
PLAN_1
 62
     2
  6
CONTINUOUS
 10
-1.300736
 20
-1.207291
  0
VERTEX
  8
PLAN_1
 62
     2
  6
CONTINUOUS
 10
-1.301272
 20
-1.205161
  0
VERTEX
  8
PLAN_1
 62
     2
  6
CONTINUOUS
 10
-1.301803
 20
-1.203031
  0
VERTEX
  8
PLAN_1
 62
     2
  6
CONTINUOUS
 10
-1.303402
 20
-1.201433
  0
VERTEX
  8
PLAN_1
 62
     2
  6
CONTINUOUS
 10
-1.305000
 20
-1.199835
  0
VERTEX
  8
PLAN_1
 62
     2
  6
CONTINUOUS
 10
-1.307130
 20
-1.198236
  0
VERTEX
  8
PLAN_1
 62
     2
  6
CONTINUOUS
 10
-1.310327
 20
-1.197705
  0
VERTEX
  8
PLAN_1
 62
     2
  6
CONTINUOUS
 10
-1.314055
 20
-1.197169
  0
VERTEX
  8
PLAN_1
 62
     2
  6
CONTINUOUS
 10
-1.318315
 20
-1.197705
  0
VERTEX
  8
PLAN_1
 62
     2
  6
CONTINUOUS
 10
-1.321512
 20
-1.198768
  0
VERTEX
  8
PLAN_1
 62
     2
  6
CONTINUOUS
 10
-1.324177
 20
-1.200902
  0
VERTEX
  8
PLAN_1
 62
     2
  6
CONTINUOUS
 10
-1.325776
 20
-1.203031
  0
VERTEX
  8
PLAN_1
 62
     2
  6
CONTINUOUS
 10
-1.326839
 20
-1.205693
  0
VERTEX
  8
PLAN_1
 62
     2
  6
CONTINUOUS
 10
-1.327906
 20
-1.208358
  0
VERTEX
  8
PLAN_1
 62
     2
  6
CONTINUOUS
 10
-1.327906
 20
-1.211020
  0
VERTEX
  8
PLAN_1
 62
     2
  6
CONTINUOUS
 10
-1.328437
 20
-1.213154
  0
VERTEX
  8
PLAN_1
 62
     2
  6
CONTINUOUS
 10
-1.336961
 20
-1.213154
  0
VERTEX
  8
PLAN_1
 62
     2
  6
CONTINUOUS
 10
-1.336961
 20
-1.208890
  0
VERTEX
  8
PLAN_1
 62
     2
  6
CONTINUOUS
 10
-1.336429
 20
-1.204630
  0
VERTEX
  8
PLAN_1
 62
     2
  6
CONTINUOUS
 10
-1.334831
 20
-1.200902
  0
VERTEX
  8
PLAN_1
 62
     2
  6
CONTINUOUS
 10
-1.332701
 20
-1.197169
  0
VERTEX
  8
PLAN_1
 62
     2
  6
CONTINUOUS
 10
-1.331102
 20
-1.195575
  0
VERTEX
  8
PLAN_1
 62
     2
  6
CONTINUOUS
 10
-1.329504
 20
-1.193976
  0
VERTEX
  8
PLAN_1
 62
     2
  6
CONTINUOUS
 10
-1.327374
 20
-1.192378
  0
VERTEX
  8
PLAN_1
 62
     2
  6
CONTINUOUS
 10
-1.325240
 20
-1.191311
  0
VERTEX
  8
PLAN_1
 62
     2
  6
CONTINUOUS
 10
-1.323110
 20
-1.190244
  0
VERTEX
  8
PLAN_1
 62
     2
  6
CONTINUOUS
 10
-1.319913
 20
-1.189713
  0
VERTEX
  8
PLAN_1
 62
     2
  6
CONTINUOUS
 10
-1.317252
 20
-1.189181
  0
VERTEX
  8
PLAN_1
 62
     2
  6
CONTINUOUS
 10
-1.313524
 20
-1.189181
  0
VERTEX
  8
PLAN_1
 62
     2
  6
CONTINUOUS
 10
-1.308728
 20
-1.189181
  0
VERTEX
  8
PLAN_1
 62
     2
  6
CONTINUOUS
 10
-1.303933
 20
-1.190244
  0
VERTEX
  8
PLAN_1
 62
     2
  6
CONTINUOUS
 10
-1.300205
 20
-1.192378
  0
VERTEX
  8
PLAN_1
 62
     2
  6
CONTINUOUS
 10
-1.297008
 20
-1.194508
  0
VERTEX
  8
PLAN_1
 62
     2
  6
CONTINUOUS
 10
-1.294346
 20
-1.197169
  0
VERTEX
  8
PLAN_1
 62
     2
  6
CONTINUOUS
 10
-1.292748
 20
-1.200366
  0
VERTEX
  8
PLAN_1
 62
     2
  6
CONTINUOUS
 10
-1.291150
 20
-1.204094
  0
VERTEX
  8
PLAN_1
 62
     2
  6
CONTINUOUS
 10
-1.291150
 20
-1.208358
  0
VERTEX
  8
PLAN_1
 62
     2
  6
CONTINUOUS
 10
-1.291150
 20
-1.211555
  0
VERTEX
  8
PLAN_1
 62
     2
  6
CONTINUOUS
 10
-1.291681
 20
-1.214217
  0
VERTEX
  8
PLAN_1
 62
     2
  6
CONTINUOUS
 10
-1.292748
 20
-1.216882
  0
VERTEX
  8
PLAN_1
 62
     2
  6
CONTINUOUS
 10
-1.294346
 20
-1.219012
  0
VERTEX
  8
PLAN_1
 62
     2
  6
CONTINUOUS
 10
-1.295941
 20
-1.220610
  0
VERTEX
  8
PLAN_1
 62
     2
  6
CONTINUOUS
 10
-1.297008
 20
-1.221677
  0
VERTEX
  8
PLAN_1
 62
     2
  6
CONTINUOUS
 10
-1.298606
 20
-1.222740
  0
VERTEX
  8
PLAN_1
 62
     2
  6
CONTINUOUS
 10
-1.300205
 20
-1.223272
  0
VERTEX
  8
PLAN_1
 62
     2
  6
CONTINUOUS
 10
-1.300205
 20
-1.223807
  0
VERTEX
  8
PLAN_1
 62
     2
  6
CONTINUOUS
 10
-1.298075
 20
-1.224339
  0
VERTEX
  8
PLAN_1
 62
     2
  6
CONTINUOUS
 10
-1.295409
 20
-1.225937
  0
VERTEX
  8
PLAN_1
 62
     2
  6
CONTINUOUS
 10
-1.293280
 20
-1.227535
  0
VERTEX
  8
PLAN_1
 62
     2
  6
CONTINUOUS
 10
-1.291681
 20
-1.229134
  0
VERTEX
  8
PLAN_1
 62
     2
  6
CONTINUOUS
 10
-1.290083
 20
-1.231795
  0
VERTEX
  8
PLAN_1
 62
     2
  6
CONTINUOUS
 10
-1.289016
 20
-1.234461
  0
VERTEX
  8
PLAN_1
 62
     2
  6
CONTINUOUS
 10
-1.288484
 20
-1.237122
  0
VERTEX
  8
PLAN_1
 62
     2
  6
CONTINUOUS
 10
-1.287953
 20
-1.240854
  0
VERTEX
  8
PLAN_1
 62
     2
  6
CONTINUOUS
 10
-1.288484
 20
-1.245114
  0
VERTEX
  8
PLAN_1
 62
     2
  6
CONTINUOUS
 10
-1.289551
 20
-1.249378
  0
VERTEX
  8
PLAN_1
 62
     2
  6
CONTINUOUS
 10
-1.291681
 20
-1.253638
  0
VERTEX
  8
PLAN_1
 62
     2
  6
CONTINUOUS
 10
-1.294346
 20
-1.256835
  0
VERTEX
  8
PLAN_1
 62
     2
  6
CONTINUOUS
 10
-1.295941
 20
-1.258433
  0
VERTEX
  8
PLAN_1
 62
     2
  6
CONTINUOUS
 10
-1.298075
 20
-1.260031
  0
VERTEX
  8
PLAN_1
 62
     2
  6
CONTINUOUS
 10
-1.300205
 20
-1.261094
  0
VERTEX
  8
PLAN_1
 62
     2
  6
CONTINUOUS
 10
-1.302335
 20
-1.262161
  0
VERTEX
  8
PLAN_1
 62
     2
  6
CONTINUOUS
 10
-1.305000
 20
-1.263228
  0
VERTEX
  8
PLAN_1
 62
     2
  6
CONTINUOUS
 10
-1.308197
 20
-1.263760
  0
VERTEX
  8
PLAN_1
 62
     2
  6
CONTINUOUS
 10
-1.311390
 20
-1.264291
  0
VERTEX
  8
PLAN_1
 62
     2
  6
CONTINUOUS
 10
-1.314587
 20
-1.264291
  0
VERTEX
  8
PLAN_1
 62
     2
  6
CONTINUOUS
 10
-1.316717
 20
-1.264291
  0
VERTEX
  8
PLAN_1
 62
     2
  6
CONTINUOUS
 10
-1.318315
 20
-1.263760
  0
VERTEX
  8
PLAN_1
 62
     2
  6
CONTINUOUS
 10
-1.320449
 20
-1.263760
  0
VERTEX
  8
PLAN_1
 62
     2
  6
CONTINUOUS
 10
-1.322047
 20
-1.263228
  0
VERTEX
  8
PLAN_1
 62
     2
  6
CONTINUOUS
 10
-1.323642
 20
-1.262693
  0
VERTEX
  8
PLAN_1
 62
     2
  6
CONTINUOUS
 10
-1.325240
 20
-1.262161
  0
VERTEX
  8
PLAN_1
 62
     2
  6
CONTINUOUS
 10
-1.326839
 20
-1.261630
  0
VERTEX
  8
PLAN_1
 62
     2
  6
CONTINUOUS
 10
-1.327906
 20
-1.261094
  0
VERTEX
  8
PLAN_1
 62
     2
  6
CONTINUOUS
 10
-1.331102
 20
-1.258965
  0
VERTEX
  8
PLAN_1
 62
     2
  6
CONTINUOUS
 10
-1.333232
 20
-1.256835
  0
VERTEX
  8
PLAN_1
 62
     2
  6
CONTINUOUS
 10
-1.334831
 20
-1.254705
  0
VERTEX
  8
PLAN_1
 62
     2
  6
CONTINUOUS
 10
-1.336429
 20
-1.252039
  0
VERTEX
  8
PLAN_1
 62
     2
  6
CONTINUOUS
 10
-1.337492
 20
-1.248843
  0
VERTEX
  8
PLAN_1
 62
     2
  6
CONTINUOUS
 10
-1.338028
 20
-1.246181
  0
VERTEX
  8
PLAN_1
 62
     2
  6
CONTINUOUS
 10
-1.338559
 20
-1.242984
  0
VERTEX
  8
PLAN_1
 62
     2
  6
CONTINUOUS
 10
-1.339091
 20
-1.239787
  0
VERTEX
  8
PLAN_1
 62
     2
  6
CONTINUOUS
 10
-1.329504
 20
-1.239787
  0
VERTEX
  8
PLAN_1
 62
     2
  6
CONTINUOUS
 10
-1.329504
 20
-1.242453
  0
VERTEX
  8
PLAN_1
 62
     2
  6
CONTINUOUS
 10
-1.328972
 20
-1.245114
  0
VERTEX
  8
PLAN_1
 62
     2
  6
CONTINUOUS
 10
-1.327906
 20
-1.247780
  0
VERTEX
  8
PLAN_1
 62
     2
  6
CONTINUOUS
 10
-1.326839
 20
-1.250441
  0
VERTEX
  8
PLAN_1
 62
     2
  6
CONTINUOUS
 10
-1.324709
 20
-1.252571
  0
VERTEX
  8
PLAN_1
 62
     2
  6
CONTINUOUS
 10
-1.322047
 20
-1.254169
  0
VERTEX
  8
PLAN_1
 62
     2
  6
CONTINUOUS
 10
-1.318315
 20
-1.255768
  0
VERTEX
  8
PLAN_1
 62
     2
  6
CONTINUOUS
 10
-1.314055
 20
-1.255768
  0
VERTEX
  8
PLAN_1
 62
     2
  6
CONTINUOUS
 10
-1.310327
 20
-1.255768
  0
VERTEX
  8
PLAN_1
 62
     2
  6
CONTINUOUS
 10
-1.307661
 20
-1.254705
  0
VERTEX
  8
PLAN_1
 62
     2
  6
CONTINUOUS
 10
-1.305000
 20
-1.253638
  0
VERTEX
  8
PLAN_1
 62
     2
  6
CONTINUOUS
 10
-1.302335
 20
-1.252039
  0
VERTEX
  8
PLAN_1
 62
     2
  6
CONTINUOUS
 10
-1.300736
 20
-1.249909
  0
VERTEX
  8
PLAN_1
 62
     2
  6
CONTINUOUS
 10
-1.299138
 20
-1.247780
  0
VERTEX
  8
PLAN_1
 62
     2
  6
CONTINUOUS
 10
-1.298075
 20
-1.244583
  0
VERTEX
  8
PLAN_1
 62
     2
  6
CONTINUOUS
 10
-1.298075
 20
-1.241917
  0
VERTEX
  8
PLAN_1
 62
     2
  6
CONTINUOUS
 10
-1.298606
 20
-1.237657
  0
VERTEX
  8
PLAN_1
 62
     2
  6
CONTINUOUS
 10
-1.299673
 20
-1.234461
  0
VERTEX
  8
PLAN_1
 62
     2
  6
CONTINUOUS
 10
-1.301803
 20
-1.232331
  0
VERTEX
  8
PLAN_1
 62
     2
  6
CONTINUOUS
 10
-1.303933
 20
-1.230732
  0
VERTEX
  8
PLAN_1
 62
     2
  6
CONTINUOUS
 10
-1.307130
 20
-1.229665
  0
VERTEX
  8
PLAN_1
 62
     2
  6
CONTINUOUS
 10
-1.309791
 20
-1.228602
  0
VERTEX
  8
PLAN_1
 62
     2
  6
CONTINUOUS
 10
-1.312457
 20
-1.228602
  0
VERTEX
  8
PLAN_1
 62
     2
  6
CONTINUOUS
 10
-1.315122
 20
-1.228602
  0
VERTEX
  8
PLAN_1
 62
     2
  6
CONTINUOUS
 10
-1.315654
 20
-1.228602
  0
VERTEX
  8
PLAN_1
 62
     2
  6
CONTINUOUS
 10
-1.316185
 20
-1.228602
  0
VERTEX
  8
PLAN_1
 62
     2
  6
CONTINUOUS
 10
-1.316717
 20
-1.228602
  0
VERTEX
  8
PLAN_1
 62
     2
  6
CONTINUOUS
 10
-1.317252
 20
-1.228602
  0
VERTEX
  8
PLAN_1
 62
     2
  6
CONTINUOUS
 10
-1.317783
 20
-1.228602
  0
VERTEX
  8
PLAN_1
 62
     2
  6
CONTINUOUS
 10
-1.318315
 20
-1.228602
  0
VERTEX
  8
PLAN_1
 62
     2
  6
CONTINUOUS
 10
-1.318850
 20
-1.228602
  0
VERTEX
  8
PLAN_1
 62
     2
  6
CONTINUOUS
 10
-1.319382
 20
-1.228602
  0
VERTEX
  8
PLAN_1
 62
     2
  6
CONTINUOUS
 10
-1.319382
 20
-1.220610
  0
SEQEND
  8
0
  0
POLYLINE
  8
PLAN_1
 62
     2
  6
CONTINUOUS
 66
     1
 40
0.003000
 41
0.003000
  0
VERTEX
  8
PLAN_1
 62
     2
  6
CONTINUOUS
 10
-1.261319
 20
-1.220610
  0
VERTEX
  8
PLAN_1
 62
     2
  6
CONTINUOUS
 10
-1.260783
 20
-1.220610
  0
VERTEX
  8
PLAN_1
 62
     2
  6
CONTINUOUS
 10
-1.260252
 20
-1.220610
  0
VERTEX
  8
PLAN_1
 62
     2
  6
CONTINUOUS
 10
-1.259720
 20
-1.220610
  0
VERTEX
  8
PLAN_1
 62
     2
  6
CONTINUOUS
 10
-1.259185
 20
-1.220610
  0
VERTEX
  8
PLAN_1
 62
     2
  6
CONTINUOUS
 10
-1.258122
 20
-1.220610
  0
VERTEX
  8
PLAN_1
 62
     2
  6
CONTINUOUS
 10
-1.257587
 20
-1.220610
  0
VERTEX
  8
PLAN_1
 62
     2
  6
CONTINUOUS
 10
-1.257055
 20
-1.220610
  0
VERTEX
  8
PLAN_1
 62
     2
  6
CONTINUOUS
 10
-1.256524
 20
-1.220610
  0
VERTEX
  8
PLAN_1
 62
     2
  6
CONTINUOUS
 10
-1.253858
 20
-1.220610
  0
VERTEX
  8
PLAN_1
 62
     2
  6
CONTINUOUS
 10
-1.251197
 20
-1.220079
  0
VERTEX
  8
PLAN_1
 62
     2
  6
CONTINUOUS
 10
-1.249063
 20
-1.219543
  0
VERTEX
  8
PLAN_1
 62
     2
  6
CONTINUOUS
 10
-1.246933
 20
-1.218480
  0
VERTEX
  8
PLAN_1
 62
     2
  6
CONTINUOUS
 10
-1.245335
 20
-1.216882
  0
VERTEX
  8
PLAN_1
 62
     2
  6
CONTINUOUS
 10
-1.243736
 20
-1.214752
  0
VERTEX
  8
PLAN_1
 62
     2
  6
CONTINUOUS
 10
-1.242673
 20
-1.212087
  0
VERTEX
  8
PLAN_1
 62
     2
  6
CONTINUOUS
 10
-1.242673
 20
-1.208890
  0
VERTEX
  8
PLAN_1
 62
     2
  6
CONTINUOUS
 10
-1.242673
 20
-1.207291
  0
VERTEX
  8
PLAN_1
 62
     2
  6
CONTINUOUS
 10
-1.243205
 20
-1.205161
  0
VERTEX
  8
PLAN_1
 62
     2
  6
CONTINUOUS
 10
-1.243736
 20
-1.203031
  0
VERTEX
  8
PLAN_1
 62
     2
  6
CONTINUOUS
 10
-1.245335
 20
-1.201433
  0
VERTEX
  8
PLAN_1
 62
     2
  6
CONTINUOUS
 10
-1.246933
 20
-1.199835
  0
VERTEX
  8
PLAN_1
 62
     2
  6
CONTINUOUS
 10
-1.249598
 20
-1.198236
  0
VERTEX
  8
PLAN_1
 62
     2
  6
CONTINUOUS
 10
-1.252260
 20
-1.197705
  0
VERTEX
  8
PLAN_1
 62
     2
  6
CONTINUOUS
 10
-1.255988
 20
-1.197169
  0
VERTEX
  8
PLAN_1
 62
     2
  6
CONTINUOUS
 10
-1.260252
 20
-1.197705
  0
VERTEX
  8
PLAN_1
 62
     2
  6
CONTINUOUS
 10
-1.263980
 20
-1.198768
  0
VERTEX
  8
PLAN_1
 62
     2
  6
CONTINUOUS
 10
-1.266110
 20
-1.200902
  0
VERTEX
  8
PLAN_1
 62
     2
  6
CONTINUOUS
 10
-1.267709
 20
-1.203031
  0
VERTEX
  8
PLAN_1
 62
     2
  6
CONTINUOUS
 10
-1.269307
 20
-1.205693
  0
VERTEX
  8
PLAN_1
 62
     2
  6
CONTINUOUS
 10
-1.269839
 20
-1.208358
  0
VERTEX
  8
PLAN_1
 62
     2
  6
CONTINUOUS
 10
-1.270374
 20
-1.211020
  0
VERTEX
  8
PLAN_1
 62
     2
  6
CONTINUOUS
 10
-1.270374
 20
-1.213154
  0
VERTEX
  8
PLAN_1
 62
     2
  6
CONTINUOUS
 10
-1.279429
 20
-1.213154
  0
VERTEX
  8
PLAN_1
 62
     2
  6
CONTINUOUS
 10
-1.278898
 20
-1.208890
  0
VERTEX
  8
PLAN_1
 62
     2
  6
CONTINUOUS
 10
-1.278362
 20
-1.204630
  0
VERTEX
  8
PLAN_1
 62
     2
  6
CONTINUOUS
 10
-1.276764
 20
-1.200902
  0
VERTEX
  8
PLAN_1
 62
     2
  6
CONTINUOUS
 10
-1.274634
 20
-1.197169
  0
VERTEX
  8
PLAN_1
 62
     2
  6
CONTINUOUS
 10
-1.273571
 20
-1.195575
  0
VERTEX
  8
PLAN_1
 62
     2
  6
CONTINUOUS
 10
-1.271437
 20
-1.193976
  0
VERTEX
  8
PLAN_1
 62
     2
  6
CONTINUOUS
 10
-1.269839
 20
-1.192378
  0
VERTEX
  8
PLAN_1
 62
     2
  6
CONTINUOUS
 10
-1.267709
 20
-1.191311
  0
VERTEX
  8
PLAN_1
 62
     2
  6
CONTINUOUS
 10
-1.265047
 20
-1.190244
  0
VERTEX
  8
PLAN_1
 62
     2
  6
CONTINUOUS
 10
-1.262382
 20
-1.189713
  0
VERTEX
  8
PLAN_1
 62
     2
  6
CONTINUOUS
 10
-1.259185
 20
-1.189181
  0
VERTEX
  8
PLAN_1
 62
     2
  6
CONTINUOUS
 10
-1.255457
 20
-1.189181
  0
VERTEX
  8
PLAN_1
 62
     2
  6
CONTINUOUS
 10
-1.250661
 20
-1.189181
  0
VERTEX
  8
PLAN_1
 62
     2
  6
CONTINUOUS
 10
-1.246402
 20
-1.190244
  0
VERTEX
  8
PLAN_1
 62
     2
  6
CONTINUOUS
 10
-1.242138
 20
-1.192378
  0
VERTEX
  8
PLAN_1
 62
     2
  6
CONTINUOUS
 10
-1.238945
 20
-1.194508
  0
VERTEX
  8
PLAN_1
 62
     2
  6
CONTINUOUS
 10
-1.236280
 20
-1.197169
  0
VERTEX
  8
PLAN_1
 62
     2
  6
CONTINUOUS
 10
-1.234681
 20
-1.200366
  0
VERTEX
  8
PLAN_1
 62
     2
  6
CONTINUOUS
 10
-1.233618
 20
-1.204094
  0
VERTEX
  8
PLAN_1
 62
     2
  6
CONTINUOUS
 10
-1.233083
 20
-1.208358
  0
VERTEX
  8
PLAN_1
 62
     2
  6
CONTINUOUS
 10
-1.233618
 20
-1.211555
  0
VERTEX
  8
PLAN_1
 62
     2
  6
CONTINUOUS
 10
-1.234150
 20
-1.214217
  0
VERTEX
  8
PLAN_1
 62
     2
  6
CONTINUOUS
 10
-1.235213
 20
-1.216882
  0
VERTEX
  8
PLAN_1
 62
     2
  6
CONTINUOUS
 10
-1.236280
 20
-1.219012
  0
VERTEX
  8
PLAN_1
 62
     2
  6
CONTINUOUS
 10
-1.237878
 20
-1.220610
  0
VERTEX
  8
PLAN_1
 62
     2
  6
CONTINUOUS
 10
-1.239476
 20
-1.221677
  0
VERTEX
  8
PLAN_1
 62
     2
  6
CONTINUOUS
 10
-1.241075
 20
-1.222740
  0
VERTEX
  8
PLAN_1
 62
     2
  6
CONTINUOUS
 10
-1.242673
 20
-1.223272
  0
VERTEX
  8
PLAN_1
 62
     2
  6
CONTINUOUS
 10
-1.242673
 20
-1.223807
  0
VERTEX
  8
PLAN_1
 62
     2
  6
CONTINUOUS
 10
-1.240008
 20
-1.224339
  0
VERTEX
  8
PLAN_1
 62
     2
  6
CONTINUOUS
 10
-1.237346
 20
-1.225937
  0
VERTEX
  8
PLAN_1
 62
     2
  6
CONTINUOUS
 10
-1.235748
 20
-1.227535
  0
VERTEX
  8
PLAN_1
 62
     2
  6
CONTINUOUS
 10
-1.233618
 20
-1.229134
  0
VERTEX
  8
PLAN_1
 62
     2
  6
CONTINUOUS
 10
-1.232551
 20
-1.231795
  0
VERTEX
  8
PLAN_1
 62
     2
  6
CONTINUOUS
 10
-1.231484
 20
-1.234461
  0
VERTEX
  8
PLAN_1
 62
     2
  6
CONTINUOUS
 10
-1.230421
 20
-1.237122
  0
VERTEX
  8
PLAN_1
 62
     2
  6
CONTINUOUS
 10
-1.230421
 20
-1.240854
  0
VERTEX
  8
PLAN_1
 62
     2
  6
CONTINUOUS
 10
-1.230421
 20
-1.245114
  0
VERTEX
  8
PLAN_1
 62
     2
  6
CONTINUOUS
 10
-1.232020
 20
-1.249378
  0
VERTEX
  8
PLAN_1
 62
     2
  6
CONTINUOUS
 10
-1.233618
 20
-1.253638
  0
VERTEX
  8
PLAN_1
 62
     2
  6
CONTINUOUS
 10
-1.236280
 20
-1.256835
  0
VERTEX
  8
PLAN_1
 62
     2
  6
CONTINUOUS
 10
-1.238409
 20
-1.258433
  0
VERTEX
  8
PLAN_1
 62
     2
  6
CONTINUOUS
 10
-1.240008
 20
-1.260031
  0
VERTEX
  8
PLAN_1
 62
     2
  6
CONTINUOUS
 10
-1.242138
 20
-1.261094
  0
VERTEX
  8
PLAN_1
 62
     2
  6
CONTINUOUS
 10
-1.244803
 20
-1.262161
  0
VERTEX
  8
PLAN_1
 62
     2
  6
CONTINUOUS
 10
-1.247469
 20
-1.263228
  0
VERTEX
  8
PLAN_1
 62
     2
  6
CONTINUOUS
 10
-1.250130
 20
-1.263760
  0
VERTEX
  8
PLAN_1
 62
     2
  6
CONTINUOUS
 10
-1.253327
 20
-1.264291
  0
VERTEX
  8
PLAN_1
 62
     2
  6
CONTINUOUS
 10
-1.256524
 20
-1.264291
  0
VERTEX
  8
PLAN_1
 62
     2
  6
CONTINUOUS
 10
-1.258654
 20
-1.264291
  0
VERTEX
  8
PLAN_1
 62
     2
  6
CONTINUOUS
 10
-1.260783
 20
-1.263760
  0
VERTEX
  8
PLAN_1
 62
     2
  6
CONTINUOUS
 10
-1.262382
 20
-1.263760
  0
VERTEX
  8
PLAN_1
 62
     2
  6
CONTINUOUS
 10
-1.263980
 20
-1.263228
  0
VERTEX
  8
PLAN_1
 62
     2
  6
CONTINUOUS
 10
-1.265579
 20
-1.262693
  0
VERTEX
  8
PLAN_1
 62
     2
  6
CONTINUOUS
 10
-1.267177
 20
-1.262161
  0
VERTEX
  8
PLAN_1
 62
     2
  6
CONTINUOUS
 10
-1.268776
 20
-1.261630
  0
VERTEX
  8
PLAN_1
 62
     2
  6
CONTINUOUS
 10
-1.270374
 20
-1.261094
  0
VERTEX
  8
PLAN_1
 62
     2
  6
CONTINUOUS
 10
-1.273035
 20
-1.258965
  0
VERTEX
  8
PLAN_1
 62
     2
  6
CONTINUOUS
 10
-1.275165
 20
-1.256835
  0
VERTEX
  8
PLAN_1
 62
     2
  6
CONTINUOUS
 10
-1.276764
 20
-1.254705
  0
VERTEX
  8
PLAN_1
 62
     2
  6
CONTINUOUS
 10
-1.278362
 20
-1.252039
  0
VERTEX
  8
PLAN_1
 62
     2
  6
CONTINUOUS
 10
-1.279429
 20
-1.248843
  0
VERTEX
  8
PLAN_1
 62
     2
  6
CONTINUOUS
 10
-1.280496
 20
-1.246181
  0
VERTEX
  8
PLAN_1
 62
     2
  6
CONTINUOUS
 10
-1.281028
 20
-1.242984
  0
VERTEX
  8
PLAN_1
 62
     2
  6
CONTINUOUS
 10
-1.281028
 20
-1.239787
  0
VERTEX
  8
PLAN_1
 62
     2
  6
CONTINUOUS
 10
-1.271437
 20
-1.239787
  0
VERTEX
  8
PLAN_1
 62
     2
  6
CONTINUOUS
 10
-1.271437
 20
-1.242453
  0
VERTEX
  8
PLAN_1
 62
     2
  6
CONTINUOUS
 10
-1.270906
 20
-1.245114
  0
VERTEX
  8
PLAN_1
 62
     2
  6
CONTINUOUS
 10
-1.270374
 20
-1.247780
  0
VERTEX
  8
PLAN_1
 62
     2
  6
CONTINUOUS
 10
-1.268776
 20
-1.250441
  0
VERTEX
  8
PLAN_1
 62
     2
  6
CONTINUOUS
 10
-1.266646
 20
-1.252571
  0
VERTEX
  8
PLAN_1
 62
     2
  6
CONTINUOUS
 10
-1.263980
 20
-1.254169
  0
VERTEX
  8
PLAN_1
 62
     2
  6
CONTINUOUS
 10
-1.260783
 20
-1.255768
  0
VERTEX
  8
PLAN_1
 62
     2
  6
CONTINUOUS
 10
-1.255988
 20
-1.255768
  0
VERTEX
  8
PLAN_1
 62
     2
  6
CONTINUOUS
 10
-1.252795
 20
-1.255768
  0
VERTEX
  8
PLAN_1
 62
     2
  6
CONTINUOUS
 10
-1.249598
 20
-1.254705
  0
VERTEX
  8
PLAN_1
 62
     2
  6
CONTINUOUS
 10
-1.246933
 20
-1.253638
  0
VERTEX
  8
PLAN_1
 62
     2
  6
CONTINUOUS
 10
-1.244803
 20
-1.252039
  0
VERTEX
  8
PLAN_1
 62
     2
  6
CONTINUOUS
 10
-1.242673
 20
-1.249909
  0
VERTEX
  8
PLAN_1
 62
     2
  6
CONTINUOUS
 10
-1.241075
 20
-1.247780
  0
VERTEX
  8
PLAN_1
 62
     2
  6
CONTINUOUS
 10
-1.240543
 20
-1.244583
  0
VERTEX
  8
PLAN_1
 62
     2
  6
CONTINUOUS
 10
-1.240008
 20
-1.241917
  0
VERTEX
  8
PLAN_1
 62
     2
  6
CONTINUOUS
 10
-1.240543
 20
-1.237657
  0
VERTEX
  8
PLAN_1
 62
     2
  6
CONTINUOUS
 10
-1.242138
 20
-1.234461
  0
VERTEX
  8
PLAN_1
 62
     2
  6
CONTINUOUS
 10
-1.243736
 20
-1.232331
  0
VERTEX
  8
PLAN_1
 62
     2
  6
CONTINUOUS
 10
-1.246402
 20
-1.230732
  0
VERTEX
  8
PLAN_1
 62
     2
  6
CONTINUOUS
 10
-1.249063
 20
-1.229665
  0
VERTEX
  8
PLAN_1
 62
     2
  6
CONTINUOUS
 10
-1.251728
 20
-1.228602
  0
VERTEX
  8
PLAN_1
 62
     2
  6
CONTINUOUS
 10
-1.254394
 20
-1.228602
  0
VERTEX
  8
PLAN_1
 62
     2
  6
CONTINUOUS
 10
-1.257055
 20
-1.228602
  0
VERTEX
  8
PLAN_1
 62
     2
  6
CONTINUOUS
 10
-1.257587
 20
-1.228602
  0
VERTEX
  8
PLAN_1
 62
     2
  6
CONTINUOUS
 10
-1.258122
 20
-1.228602
  0
VERTEX
  8
PLAN_1
 62
     2
  6
CONTINUOUS
 10
-1.258654
 20
-1.228602
  0
VERTEX
  8
PLAN_1
 62
     2
  6
CONTINUOUS
 10
-1.259185
 20
-1.228602
  0
VERTEX
  8
PLAN_1
 62
     2
  6
CONTINUOUS
 10
-1.259720
 20
-1.228602
  0
VERTEX
  8
PLAN_1
 62
     2
  6
CONTINUOUS
 10
-1.260252
 20
-1.228602
  0
VERTEX
  8
PLAN_1
 62
     2
  6
CONTINUOUS
 10
-1.260783
 20
-1.228602
  0
VERTEX
  8
PLAN_1
 62
     2
  6
CONTINUOUS
 10
-1.261319
 20
-1.228602
  0
VERTEX
  8
PLAN_1
 62
     2
  6
CONTINUOUS
 10
-1.261319
 20
-1.220610
  0
SEQEND
  8
0
  0
POLYLINE
  8
PLAN_1
 62
     2
  6
CONTINUOUS
 66
     1
 40
0.003000
 41
0.003000
  0
VERTEX
  8
PLAN_1
 62
     2
  6
CONTINUOUS
 10
-1.217634
 20
-1.250972
  0
VERTEX
  8
PLAN_1
 62
     2
  6
CONTINUOUS
 10
-1.206980
 20
-1.250972
  0
VERTEX
  8
PLAN_1
 62
     2
  6
CONTINUOUS
 10
-1.206980
 20
-1.261630
  0
VERTEX
  8
PLAN_1
 62
     2
  6
CONTINUOUS
 10
-1.206980
 20
-1.265890
  0
VERTEX
  8
PLAN_1
 62
     2
  6
CONTINUOUS
 10
-1.208047
 20
-1.269618
  0
VERTEX
  8
PLAN_1
 62
     2
  6
CONTINUOUS
 10
-1.209646
 20
-1.272815
  0
VERTEX
  8
PLAN_1
 62
     2
  6
CONTINUOUS
 10
-1.211244
 20
-1.274413
  0
VERTEX
  8
PLAN_1
 62
     2
  6
CONTINUOUS
 10
-1.213374
 20
-1.276012
  0
VERTEX
  8
PLAN_1
 62
     2
  6
CONTINUOUS
 10
-1.214972
 20
-1.277079
  0
VERTEX
  8
PLAN_1
 62
     2
  6
CONTINUOUS
 10
-1.216571
 20
-1.277079
  0
VERTEX
  8
PLAN_1
 62
     2
  6
CONTINUOUS
 10
-1.217634
 20
-1.277610
  0
VERTEX
  8
PLAN_1
 62
     2
  6
CONTINUOUS
 10
-1.217634
 20
-1.272815
  0
VERTEX
  8
PLAN_1
 62
     2
  6
CONTINUOUS
 10
-1.216035
 20
-1.272283
  0
VERTEX
  8
PLAN_1
 62
     2
  6
CONTINUOUS
 10
-1.214972
 20
-1.271748
  0
VERTEX
  8
PLAN_1
 62
     2
  6
CONTINUOUS
 10
-1.213906
 20
-1.270685
  0
VERTEX
  8
PLAN_1
 62
     2
  6
CONTINUOUS
 10
-1.213374
 20
-1.269087
  0
VERTEX
  8
PLAN_1
 62
     2
  6
CONTINUOUS
 10
-1.212843
 20
-1.267488
  0
VERTEX
  8
PLAN_1
 62
     2
  6
CONTINUOUS
 10
-1.212307
 20
-1.265890
  0
VERTEX
  8
PLAN_1
 62
     2
  6
CONTINUOUS
 10
-1.212307
 20
-1.264291
  0
VERTEX
  8
PLAN_1
 62
     2
  6
CONTINUOUS
 10
-1.212307
 20
-1.262161
  0
VERTEX
  8
PLAN_1
 62
     2
  6
CONTINUOUS
 10
-1.217634
 20
-1.262161
  0
VERTEX
  8
PLAN_1
 62
     2
  6
CONTINUOUS
 10
-1.217634
 20
-1.250972
  0
SEQEND
  8
0
  0
POLYLINE
  8
PLAN_1
 62
     2
  6
CONTINUOUS
 66
     1
 40
0.003000
 41
0.003000
  0
VERTEX
  8
PLAN_1
 62
     2
  6
CONTINUOUS
 10
-1.182476
 20
-1.219543
  0
VERTEX
  8
PLAN_1
 62
     2
  6
CONTINUOUS
 10
-1.181409
 20
-1.219012
  0
VERTEX
  8
PLAN_1
 62
     2
  6
CONTINUOUS
 10
-1.179811
 20
-1.217945
  0
VERTEX
  8
PLAN_1
 62
     2
  6
CONTINUOUS
 10
-1.178217
 20
-1.217413
  0
VERTEX
  8
PLAN_1
 62
     2
  6
CONTINUOUS
 10
-1.176618
 20
-1.216346
  0
VERTEX
  8
PLAN_1
 62
     2
  6
CONTINUOUS
 10
-1.175020
 20
-1.215815
  0
VERTEX
  8
PLAN_1
 62
     2
  6
CONTINUOUS
 10
-1.172886
 20
-1.215283
  0
VERTEX
  8
PLAN_1
 62
     2
  6
CONTINUOUS
 10
-1.170756
 20
-1.215283
  0
VERTEX
  8
PLAN_1
 62
     2
  6
CONTINUOUS
 10
-1.168094
 20
-1.215283
  0
VERTEX
  8
PLAN_1
 62
     2
  6
CONTINUOUS
 10
-1.163831
 20
-1.215283
  0
VERTEX
  8
PLAN_1
 62
     2
  6
CONTINUOUS
 10
-1.159571
 20
-1.216346
  0
VERTEX
  8
PLAN_1
 62
     2
  6
CONTINUOUS
 10
-1.155307
 20
-1.218480
  0
VERTEX
  8
PLAN_1
 62
     2
  6
CONTINUOUS
 10
-1.152114
 20
-1.221142
  0
VERTEX
  8
PLAN_1
 62
     2
  6
CONTINUOUS
 10
-1.148917
 20
-1.224339
  0
VERTEX
  8
PLAN_1
 62
     2
  6
CONTINUOUS
 10
-1.146252
 20
-1.228602
  0
VERTEX
  8
PLAN_1
 62
     2
  6
CONTINUOUS
 10
-1.145720
 20
-1.230732
  0
VERTEX
  8
PLAN_1
 62
     2
  6
CONTINUOUS
 10
-1.144654
 20
-1.233394
  0
VERTEX
  8
PLAN_1
 62
     2
  6
CONTINUOUS
 10
-1.144654
 20
-1.235528
  0
VERTEX
  8
PLAN_1
 62
     2
  6
CONTINUOUS
 10
-1.144122
 20
-1.238720
  0
VERTEX
  8
PLAN_1
 62
     2
  6
CONTINUOUS
 10
-1.144654
 20
-1.241917
  0
VERTEX
  8
PLAN_1
 62
     2
  6
CONTINUOUS
 10
-1.145189
 20
-1.246181
  0
VERTEX
  8
PLAN_1
 62
     2
  6
CONTINUOUS
 10
-1.146783
 20
-1.250441
  0
VERTEX
  8
PLAN_1
 62
     2
  6
CONTINUOUS
 10
-1.148917
 20
-1.254169
  0
VERTEX
  8
PLAN_1
 62
     2
  6
CONTINUOUS
 10
-1.150516
 20
-1.256303
  0
VERTEX
  8
PLAN_1
 62
     2
  6
CONTINUOUS
 10
-1.152646
 20
-1.258433
  0
VERTEX
  8
PLAN_1
 62
     2
  6
CONTINUOUS
 10
-1.154776
 20
-1.260031
  0
VERTEX
  8
PLAN_1
 62
     2
  6
CONTINUOUS
 10
-1.156906
 20
-1.261094
  0
VERTEX
  8
PLAN_1
 62
     2
  6
CONTINUOUS
 10
-1.160102
 20
-1.262693
  0
VERTEX
  8
PLAN_1
 62
     2
  6
CONTINUOUS
 10
-1.163299
 20
-1.263228
  0
VERTEX
  8
PLAN_1
 62
     2
  6
CONTINUOUS
 10
-1.167028
 20
-1.263760
  0
VERTEX
  8
PLAN_1
 62
     2
  6
CONTINUOUS
 10
-1.170756
 20
-1.264291
  0
VERTEX
  8
PLAN_1
 62
     2
  6
CONTINUOUS
 10
-1.174484
 20
-1.263760
  0
VERTEX
  8
PLAN_1
 62
     2
  6
CONTINUOUS
 10
-1.178217
 20
-1.263228
  0
VERTEX
  8
PLAN_1
 62
     2
  6
CONTINUOUS
 10
-1.181945
 20
-1.262161
  0
VERTEX
  8
PLAN_1
 62
     2
  6
CONTINUOUS
 10
-1.185673
 20
-1.260031
  0
VERTEX
  8
PLAN_1
 62
     2
  6
CONTINUOUS
 10
-1.188870
 20
-1.257366
  0
VERTEX
  8
PLAN_1
 62
     2
  6
CONTINUOUS
 10
-1.191531
 20
-1.254169
  0
VERTEX
  8
PLAN_1
 62
     2
  6
CONTINUOUS
 10
-1.192598
 20
-1.252039
  0
VERTEX
  8
PLAN_1
 62
     2
  6
CONTINUOUS
 10
-1.193130
 20
-1.249378
  0
VERTEX
  8
PLAN_1
 62
     2
  6
CONTINUOUS
 10
-1.194197
 20
-1.246713
  0
VERTEX
  8
PLAN_1
 62
     2
  6
CONTINUOUS
 10
-1.194197
 20
-1.244047
  0
VERTEX
  8
PLAN_1
 62
     2
  6
CONTINUOUS
 10
-1.185142
 20
-1.244047
  0
VERTEX
  8
PLAN_1
 62
     2
  6
CONTINUOUS
 10
-1.184606
 20
-1.246713
  0
VERTEX
  8
PLAN_1
 62
     2
  6
CONTINUOUS
 10
-1.183543
 20
-1.249378
  0
VERTEX
  8
PLAN_1
 62
     2
  6
CONTINUOUS
 10
-1.181945
 20
-1.251508
  0
VERTEX
  8
PLAN_1
 62
     2
  6
CONTINUOUS
 10
-1.179811
 20
-1.253106
  0
VERTEX
  8
PLAN_1
 62
     2
  6
CONTINUOUS
 10
-1.177681
 20
-1.254705
  0
VERTEX
  8
PLAN_1
 62
     2
  6
CONTINUOUS
 10
-1.175020
 20
-1.255768
  0
VERTEX
  8
PLAN_1
 62
     2
  6
CONTINUOUS
 10
-1.172354
 20
-1.256303
  0
VERTEX
  8
PLAN_1
 62
     2
  6
CONTINUOUS
 10
-1.169693
 20
-1.256303
  0
VERTEX
  8
PLAN_1
 62
     2
  6
CONTINUOUS
 10
-1.165961
 20
-1.255768
  0
VERTEX
  8
PLAN_1
 62
     2
  6
CONTINUOUS
 10
-1.163299
 20
-1.254705
  0
VERTEX
  8
PLAN_1
 62
     2
  6
CONTINUOUS
 10
-1.160634
 20
-1.253638
  0
VERTEX
  8
PLAN_1
 62
     2
  6
CONTINUOUS
 10
-1.158504
 20
-1.251508
  0
VERTEX
  8
PLAN_1
 62
     2
  6
CONTINUOUS
 10
-1.156374
 20
-1.248843
  0
VERTEX
  8
PLAN_1
 62
     2
  6
CONTINUOUS
 10
-1.155307
 20
-1.246181
  0
VERTEX
  8
PLAN_1
 62
     2
  6
CONTINUOUS
 10
-1.154244
 20
-1.242984
  0
VERTEX
  8
PLAN_1
 62
     2
  6
CONTINUOUS
 10
-1.154244
 20
-1.239787
  0
VERTEX
  8
PLAN_1
 62
     2
  6
CONTINUOUS
 10
-1.154244
 20
-1.236059
  0
VERTEX
  8
PLAN_1
 62
     2
  6
CONTINUOUS
 10
-1.155307
 20
-1.232331
  0
VERTEX
  8
PLAN_1
 62
     2
  6
CONTINUOUS
 10
-1.156906
 20
-1.229665
  0
VERTEX
  8
PLAN_1
 62
     2
  6
CONTINUOUS
 10
-1.159039
 20
-1.227535
  0
VERTEX
  8
PLAN_1
 62
     2
  6
CONTINUOUS
 10
-1.161169
 20
-1.225406
  0
VERTEX
  8
PLAN_1
 62
     2
  6
CONTINUOUS
 10
-1.163831
 20
-1.224339
  0
VERTEX
  8
PLAN_1
 62
     2
  6
CONTINUOUS
 10
-1.167028
 20
-1.223807
  0
VERTEX
  8
PLAN_1
 62
     2
  6
CONTINUOUS
 10
-1.170224
 20
-1.223272
  0
VERTEX
  8
PLAN_1
 62
     2
  6
CONTINUOUS
 10
-1.172354
 20
-1.223272
  0
VERTEX
  8
PLAN_1
 62
     2
  6
CONTINUOUS
 10
-1.173953
 20
-1.223807
  0
VERTEX
  8
PLAN_1
 62
     2
  6
CONTINUOUS
 10
-1.176083
 20
-1.224339
  0
VERTEX
  8
PLAN_1
 62
     2
  6
CONTINUOUS
 10
-1.177681
 20
-1.224870
  0
VERTEX
  8
PLAN_1
 62
     2
  6
CONTINUOUS
 10
-1.179280
 20
-1.225937
  0
VERTEX
  8
PLAN_1
 62
     2
  6
CONTINUOUS
 10
-1.180878
 20
-1.227535
  0
VERTEX
  8
PLAN_1
 62
     2
  6
CONTINUOUS
 10
-1.182476
 20
-1.228602
  0
VERTEX
  8
PLAN_1
 62
     2
  6
CONTINUOUS
 10
-1.184075
 20
-1.230197
  0
VERTEX
  8
PLAN_1
 62
     2
  6
CONTINUOUS
 10
-1.191531
 20
-1.229665
  0
VERTEX
  8
PLAN_1
 62
     2
  6
CONTINUOUS
 10
-1.186205
 20
-1.190780
  0
VERTEX
  8
PLAN_1
 62
     2
  6
CONTINUOUS
 10
-1.148382
 20
-1.190780
  0
VERTEX
  8
PLAN_1
 62
     2
  6
CONTINUOUS
 10
-1.148382
 20
-1.199303
  0
VERTEX
  8
PLAN_1
 62
     2
  6
CONTINUOUS
 10
-1.179280
 20
-1.199303
  0
VERTEX
  8
PLAN_1
 62
     2
  6
CONTINUOUS
 10
-1.182476
 20
-1.219543
  0
SEQEND
  8
0
  0
POLYLINE
  8
PLAN_1
 62
     2
  6
CONTINUOUS
 66
     1
 40
0.004260
 41
0.004260
  0
VERTEX
  8
PLAN_1
 62
     2
  6
CONTINUOUS
 10
-2.318740
 20
-0.952657
  0
VERTEX
  8
PLAN_1
 62
     2
  6
CONTINUOUS
 10
-2.318740
 20
-1.475776
  0
SEQEND
  8
0
  0
POLYLINE
  8
PLAN_1
 62
     2
  6
CONTINUOUS
 66
     1
 40
0.004260
 41
0.004260
  0
VERTEX
  8
PLAN_1
 62
     2
  6
CONTINUOUS
 10
-2.289441
 20
-1.443280
  0
VERTEX
  8
PLAN_1
 62
     2
  6
CONTINUOUS
 10
-0.610882
 20
-1.443280
  0
SEQEND
  8
0
  0
SOLID
  8
PLAN_1
 62
     2
 10
-0.581051
 20
-1.443280
 11
-0.640181
 21
-1.427299
 12
-0.581051
 22
-1.443280
 13
-0.640181
 23
-1.459264
  0
POLYLINE
  8
PLAN_1
 62
     2
  6
CONTINUOUS
 66
     1
 40
0.003000
 41
0.003000
  0
VERTEX
  8
PLAN_1
 62
     2
  6
CONTINUOUS
 10
-0.581051
 20
-1.443280
  0
VERTEX
  8
PLAN_1
 62
     2
  6
CONTINUOUS
 10
-0.640181
 20
-1.427299
  0
VERTEX
  8
PLAN_1
 62
     2
  6
CONTINUOUS
 10
-0.640181
 20
-1.459264
  0
VERTEX
  8
PLAN_1
 62
     2
  6
CONTINUOUS
 10
-0.581051
 20
-1.443280
  0
SEQEND
  8
0
  0
SOLID
  8
PLAN_1
 62
     2
 10
-2.318740
 20
-1.443280
 11
-2.259606
 21
-1.427299
 12
-2.318740
 22
-1.443280
 13
-2.259606
 23
-1.459264
  0
POLYLINE
  8
PLAN_1
 62
     2
  6
CONTINUOUS
 66
     1
 40
0.003000
 41
0.003000
  0
VERTEX
  8
PLAN_1
 62
     2
  6
CONTINUOUS
 10
-2.318740
 20
-1.443280
  0
VERTEX
  8
PLAN_1
 62
     2
  6
CONTINUOUS
 10
-2.259606
 20
-1.427299
  0
VERTEX
  8
PLAN_1
 62
     2
  6
CONTINUOUS
 10
-2.259606
 20
-1.459264
  0
VERTEX
  8
PLAN_1
 62
     2
  6
CONTINUOUS
 10
-2.318740
 20
-1.443280
  0
SEQEND
  8
0
  0
POLYLINE
  8
PLAN_1
 62
     2
  6
CONTINUOUS
 66
     1
 40
0.003000
 41
0.003000
  0
VERTEX
  8
PLAN_1
 62
     2
  6
CONTINUOUS
 10
-1.464280
 20
-1.401728
  0
VERTEX
  8
PLAN_1
 62
     2
  6
CONTINUOUS
 10
-1.464280
 20
-1.419843
  0
VERTEX
  8
PLAN_1
 62
     2
  6
CONTINUOUS
 10
-1.473335
 20
-1.419843
  0
VERTEX
  8
PLAN_1
 62
     2
  6
CONTINUOUS
 10
-1.473335
 20
-1.401728
  0
VERTEX
  8
PLAN_1
 62
     2
  6
CONTINUOUS
 10
-1.505295
 20
-1.401728
  0
VERTEX
  8
PLAN_1
 62
     2
  6
CONTINUOUS
 10
-1.505295
 20
-1.392673
  0
VERTEX
  8
PLAN_1
 62
     2
  6
CONTINUOUS
 10
-1.471736
 20
-1.346327
  0
VERTEX
  8
PLAN_1
 62
     2
  6
CONTINUOUS
 10
-1.464280
 20
-1.346327
  0
VERTEX
  8
PLAN_1
 62
     2
  6
CONTINUOUS
 10
-1.464280
 20
-1.393740
  0
VERTEX
  8
PLAN_1
 62
     2
  6
CONTINUOUS
 10
-1.453622
 20
-1.393740
  0
VERTEX
  8
PLAN_1
 62
     2
  6
CONTINUOUS
 10
-1.453622
 20
-1.401728
  0
VERTEX
  8
PLAN_1
 62
     2
  6
CONTINUOUS
 10
-1.464280
 20
-1.401728
  0
SEQEND
  8
0
  0
SOLID
  8
PLAN_1
 62
     2
 10
-1.496772
 20
-1.393740
 11
-1.473335
 21
-1.393740
 12
-1.496772
 22
-1.393740
 13
-1.473335
 23
-1.360713
  0
POLYLINE
  8
PLAN_1
 62
     2
  6
CONTINUOUS
 66
     1
 40
0.003000
 41
0.003000
  0
VERTEX
  8
PLAN_1
 62
     2
  6
CONTINUOUS
 10
-1.496772
 20
-1.393740
  0
VERTEX
  8
PLAN_1
 62
     2
  6
CONTINUOUS
 10
-1.473335
 20
-1.393740
  0
VERTEX
  8
PLAN_1
 62
     2
  6
CONTINUOUS
 10
-1.473335
 20
-1.360713
  0
VERTEX
  8
PLAN_1
 62
     2
  6
CONTINUOUS
 10
-1.496772
 20
-1.393740
  0
SEQEND
  8
0
  0
POLYLINE
  8
PLAN_1
 62
     2
  6
CONTINUOUS
 66
     1
 40
0.003000
 41
0.003000
  0
VERTEX
  8
PLAN_1
 62
     2
  6
CONTINUOUS
 10
-1.406213
 20
-1.401728
  0
VERTEX
  8
PLAN_1
 62
     2
  6
CONTINUOUS
 10
-1.406213
 20
-1.419843
  0
VERTEX
  8
PLAN_1
 62
     2
  6
CONTINUOUS
 10
-1.415268
 20
-1.419843
  0
VERTEX
  8
PLAN_1
 62
     2
  6
CONTINUOUS
 10
-1.415268
 20
-1.401728
  0
VERTEX
  8
PLAN_1
 62
     2
  6
CONTINUOUS
 10
-1.447232
 20
-1.401728
  0
VERTEX
  8
PLAN_1
 62
     2
  6
CONTINUOUS
 10
-1.447232
 20
-1.392673
  0
VERTEX
  8
PLAN_1
 62
     2
  6
CONTINUOUS
 10
-1.413669
 20
-1.346327
  0
VERTEX
  8
PLAN_1
 62
     2
  6
CONTINUOUS
 10
-1.406213
 20
-1.346327
  0
VERTEX
  8
PLAN_1
 62
     2
  6
CONTINUOUS
 10
-1.406213
 20
-1.393740
  0
VERTEX
  8
PLAN_1
 62
     2
  6
CONTINUOUS
 10
-1.395559
 20
-1.393740
  0
VERTEX
  8
PLAN_1
 62
     2
  6
CONTINUOUS
 10
-1.395559
 20
-1.401728
  0
VERTEX
  8
PLAN_1
 62
     2
  6
CONTINUOUS
 10
-1.406213
 20
-1.401728
  0
SEQEND
  8
0
  0
SOLID
  8
PLAN_1
 62
     2
 10
-1.438709
 20
-1.393740
 11
-1.415268
 21
-1.393740
 12
-1.415803
 22
-1.360713
 13
-1.415268
 23
-1.360713
  0
POLYLINE
  8
PLAN_1
 62
     2
  6
CONTINUOUS
 66
     1
 40
0.003000
 41
0.003000
  0
VERTEX
  8
PLAN_1
 62
     2
  6
CONTINUOUS
 10
-1.438709
 20
-1.393740
  0
VERTEX
  8
PLAN_1
 62
     2
  6
CONTINUOUS
 10
-1.415268
 20
-1.393740
  0
VERTEX
  8
PLAN_1
 62
     2
  6
CONTINUOUS
 10
-1.415268
 20
-1.360713
  0
VERTEX
  8
PLAN_1
 62
     2
  6
CONTINUOUS
 10
-1.415803
 20
-1.360713
  0
VERTEX
  8
PLAN_1
 62
     2
  6
CONTINUOUS
 10
-1.438709
 20
-1.393740
  0
SEQEND
  8
0
  0
SOLID
  8
PLAN_1
 62
     2
 10
-0.811713
 20
-1.028303
 11
-0.768563
 21
-1.071984
 12
-0.811713
 22
-1.028303
 13
-0.753114
 23
-1.044819
  0
POLYLINE
  8
PLAN_1
 62
     2
  6
CONTINUOUS
 66
     1
 40
0.003000
 41
0.003000
  0
VERTEX
  8
PLAN_1
 62
     2
  6
CONTINUOUS
 10
-0.811713
 20
-1.028303
  0
VERTEX
  8
PLAN_1
 62
     2
  6
CONTINUOUS
 10
-0.768563
 20
-1.071984
  0
VERTEX
  8
PLAN_1
 62
     2
  6
CONTINUOUS
 10
-0.753114
 20
-1.044819
  0
VERTEX
  8
PLAN_1
 62
     2
  6
CONTINUOUS
 10
-0.811713
 20
-1.028303
  0
SEQEND
  8
0
  0
POLYLINE
  8
PLAN_1
 62
     2
  6
CONTINUOUS
 66
     1
 40
0.004260
 41
0.004260
  0
VERTEX
  8
PLAN_1
 62
     2
  6
CONTINUOUS
 10
-0.779752
 20
-1.047480
  0
VERTEX
  8
PLAN_1
 62
     2
  6
CONTINUOUS
 10
-0.527248
 20
-1.199835
  0
VERTEX
  8
PLAN_1
 62
     2
  6
CONTINUOUS
 10
0.431091
 20
-1.199835
  0
SEQEND
  8
0
  0
POLYLINE
  8
PLAN_1
 62
     2
  6
CONTINUOUS
 66
     1
 40
0.004260
 41
0.004260
  0
VERTEX
  8
PLAN_1
 62
     2
  6
CONTINUOUS
 10
-0.398335
 20
-1.014984
  0
VERTEX
  8
PLAN_1
 62
     2
  6
CONTINUOUS
 10
-0.556016
 20
-1.014984
  0
SEQEND
  8
0
  0
POLYLINE
  8
PLAN_1
 62
     2
  6
CONTINUOUS
 66
     1
 40
0.004260
 41
0.004260
  0
VERTEX
  8
PLAN_1
 62
     2
  6
CONTINUOUS
 10
-0.398335
 20
3.849685
  0
VERTEX
  8
PLAN_1
 62
     2
  6
CONTINUOUS
 10
-1.119083
 20
3.849685
  0
SEQEND
  8
0
  0
POLYLINE
  8
PLAN_1
 62
     2
  6
CONTINUOUS
 66
     1
 40
0.004260
 41
0.004260
  0
VERTEX
  8
PLAN_1
 62
     2
  6
CONTINUOUS
 10
-0.422303
 20
-0.985685
  0
VERTEX
  8
PLAN_1
 62
     2
  6
CONTINUOUS
 10
-0.422303
 20
3.820386
  0
SEQEND
  8
0
  0
SOLID
  8
PLAN_1
 62
     2
 10
-0.422303
 20
3.849685
 11
-0.437752
 21
3.790555
 12
-0.422303
 22
3.849685
 13
-0.406323
 23
3.790555
  0
POLYLINE
  8
PLAN_1
 62
     2
  6
CONTINUOUS
 66
     1
 40
0.003000
 41
0.003000
  0
VERTEX
  8
PLAN_1
 62
     2
  6
CONTINUOUS
 10
-0.422303
 20
3.849685
  0
VERTEX
  8
PLAN_1
 62
     2
  6
CONTINUOUS
 10
-0.437752
 20
3.790555
  0
VERTEX
  8
PLAN_1
 62
     2
  6
CONTINUOUS
 10
-0.406323
 20
3.790555
  0
VERTEX
  8
PLAN_1
 62
     2
  6
CONTINUOUS
 10
-0.422303
 20
3.849685
  0
SEQEND
  8
0
  0
SOLID
  8
PLAN_1
 62
     2
 10
-0.422303
 20
-1.014984
 11
-0.437752
 21
-0.956390
 12
-0.422303
 22
-1.014984
 13
-0.406323
 23
-0.956390
  0
POLYLINE
  8
PLAN_1
 62
     2
  6
CONTINUOUS
 66
     1
 40
0.003000
 41
0.003000
  0
VERTEX
  8
PLAN_1
 62
     2
  6
CONTINUOUS
 10
-0.422303
 20
-1.014984
  0
VERTEX
  8
PLAN_1
 62
     2
  6
CONTINUOUS
 10
-0.437752
 20
-0.956390
  0
VERTEX
  8
PLAN_1
 62
     2
  6
CONTINUOUS
 10
-0.406323
 20
-0.956390
  0
VERTEX
  8
PLAN_1
 62
     2
  6
CONTINUOUS
 10
-0.422303
 20
-1.014984
  0
SEQEND
  8
0
  0
POLYLINE
  8
PLAN_1
 62
     2
  6
CONTINUOUS
 66
     1
 40
0.003000
 41
0.003000
  0
VERTEX
  8
PLAN_1
 62
     2
  6
CONTINUOUS
 10
-0.445744
 20
1.373134
  0
VERTEX
  8
PLAN_1
 62
     2
  6
CONTINUOUS
 10
-0.445744
 20
1.363016
  0
VERTEX
  8
PLAN_1
 62
     2
  6
CONTINUOUS
 10
-0.497417
 20
1.363016
  0
VERTEX
  8
PLAN_1
 62
     2
  6
CONTINUOUS
 10
-0.497417
 20
1.345969
  0
VERTEX
  8
PLAN_1
 62
     2
  6
CONTINUOUS
 10
-0.504874
 20
1.345969
  0
VERTEX
  8
PLAN_1
 62
     2
  6
CONTINUOUS
 10
-0.505406
 20
1.350228
  0
VERTEX
  8
PLAN_1
 62
     2
  6
CONTINUOUS
 10
-0.505941
 20
1.353957
  0
VERTEX
  8
PLAN_1
 62
     2
  6
CONTINUOUS
 10
-0.506472
 20
1.356622
  0
VERTEX
  8
PLAN_1
 62
     2
  6
CONTINUOUS
 10
-0.507539
 20
1.359283
  0
VERTEX
  8
PLAN_1
 62
     2
  6
CONTINUOUS
 10
-0.509138
 20
1.361417
  0
VERTEX
  8
PLAN_1
 62
     2
  6
CONTINUOUS
 10
-0.511799
 20
1.363016
  0
VERTEX
  8
PLAN_1
 62
     2
  6
CONTINUOUS
 10
-0.514996
 20
1.364610
  0
VERTEX
  8
PLAN_1
 62
     2
  6
CONTINUOUS
 10
-0.518724
 20
1.365677
  0
VERTEX
  8
PLAN_1
 62
     2
  6
CONTINUOUS
 10
-0.518724
 20
1.373134
  0
VERTEX
  8
PLAN_1
 62
     2
  6
CONTINUOUS
 10
-0.445744
 20
1.373134
  0
SEQEND
  8
0
  0
POLYLINE
  8
PLAN_1
 62
     2
  6
CONTINUOUS
 66
     1
 40
0.003000
 41
0.003000
  0
VERTEX
  8
PLAN_1
 62
     2
  6
CONTINUOUS
 10
-0.492622
 20
1.398173
  0
VERTEX
  8
PLAN_1
 62
     2
  6
CONTINUOUS
 10
-0.496886
 20
1.398173
  0
VERTEX
  8
PLAN_1
 62
     2
  6
CONTINUOUS
 10
-0.500614
 20
1.398705
  0
VERTEX
  8
PLAN_1
 62
     2
  6
CONTINUOUS
 10
-0.503807
 20
1.399772
  0
VERTEX
  8
PLAN_1
 62
     2
  6
CONTINUOUS
 10
-0.506472
 20
1.400835
  0
VERTEX
  8
PLAN_1
 62
     2
  6
CONTINUOUS
 10
-0.509138
 20
1.402433
  0
VERTEX
  8
PLAN_1
 62
     2
  6
CONTINUOUS
 10
-0.511268
 20
1.404031
  0
VERTEX
  8
PLAN_1
 62
     2
  6
CONTINUOUS
 10
-0.513398
 20
1.405630
  0
VERTEX
  8
PLAN_1
 62
     2
  6
CONTINUOUS
 10
-0.514465
 20
1.407760
  0
VERTEX
  8
PLAN_1
 62
     2
  6
CONTINUOUS
 10
-0.516594
 20
1.412024
  0
VERTEX
  8
PLAN_1
 62
     2
  6
CONTINUOUS
 10
-0.518193
 20
1.416283
  0
VERTEX
  8
PLAN_1
 62
     2
  6
CONTINUOUS
 10
-0.518724
 20
1.420012
  0
VERTEX
  8
PLAN_1
 62
     2
  6
CONTINUOUS
 10
-0.518724
 20
1.423209
  0
VERTEX
  8
PLAN_1
 62
     2
  6
CONTINUOUS
 10
-0.518193
 20
1.428004
  0
VERTEX
  8
PLAN_1
 62
     2
  6
CONTINUOUS
 10
-0.517126
 20
1.432268
  0
VERTEX
  8
PLAN_1
 62
     2
  6
CONTINUOUS
 10
-0.515528
 20
1.435996
  0
VERTEX
  8
PLAN_1
 62
     2
  6
CONTINUOUS
 10
-0.512866
 20
1.439724
  0
VERTEX
  8
PLAN_1
 62
     2
  6
CONTINUOUS
 10
-0.509669
 20
1.442386
  0
VERTEX
  8
PLAN_1
 62
     2
  6
CONTINUOUS
 10
-0.505941
 20
1.444520
  0
VERTEX
  8
PLAN_1
 62
     2
  6
CONTINUOUS
 10
-0.501677
 20
1.445583
  0
VERTEX
  8
PLAN_1
 62
     2
  6
CONTINUOUS
 10
-0.496886
 20
1.446114
  0
VERTEX
  8
PLAN_1
 62
     2
  6
CONTINUOUS
 10
-0.492622
 20
1.445583
  0
VERTEX
  8
PLAN_1
 62
     2
  6
CONTINUOUS
 10
-0.488362
 20
1.444520
  0
VERTEX
  8
PLAN_1
 62
     2
  6
CONTINUOUS
 10
-0.485165
 20
1.442921
  0
VERTEX
  8
PLAN_1
 62
     2
  6
CONTINUOUS
 10
-0.481969
 20
1.440256
  0
VERTEX
  8
PLAN_1
 62
     2
  6
CONTINUOUS
 10
-0.479303
 20
1.437594
  0
VERTEX
  8
PLAN_1
 62
     2
  6
CONTINUOUS
 10
-0.477173
 20
1.434398
  0
VERTEX
  8
PLAN_1
 62
     2
  6
CONTINUOUS
 10
-0.474512
 20
1.430669
  0
VERTEX
  8
PLAN_1
 62
     2
  6
CONTINUOUS
 10
-0.472378
 20
1.426406
  0
VERTEX
  8
PLAN_1
 62
     2
  6
CONTINUOUS
 10
-0.468118
 20
1.418949
  0
VERTEX
  8
PLAN_1
 62
     2
  6
CONTINUOUS
 10
-0.466520
 20
1.415752
  0
VERTEX
  8
PLAN_1
 62
     2
  6
CONTINUOUS
 10
-0.464390
 20
1.413087
  0
VERTEX
  8
PLAN_1
 62
     2
  6
CONTINUOUS
 10
-0.462260
 20
1.410957
  0
VERTEX
  8
PLAN_1
 62
     2
  6
CONTINUOUS
 10
-0.460126
 20
1.409358
  0
VERTEX
  8
PLAN_1
 62
     2
  6
CONTINUOUS
 10
-0.458528
 20
1.407760
  0
VERTEX
  8
PLAN_1
 62
     2
  6
CONTINUOUS
 10
-0.456929
 20
1.407228
  0
VERTEX
  8
PLAN_1
 62
     2
  6
CONTINUOUS
 10
-0.455335
 20
1.406697
  0
VERTEX
  8
PLAN_1
 62
     2
  6
CONTINUOUS
 10
-0.454268
 20
1.406697
  0
VERTEX
  8
PLAN_1
 62
     2
  6
CONTINUOUS
 10
-0.454268
 20
1.446114
  0
VERTEX
  8
PLAN_1
 62
     2
  6
CONTINUOUS
 10
-0.445744
 20
1.446114
  0
VERTEX
  8
PLAN_1
 62
     2
  6
CONTINUOUS
 10
-0.445744
 20
1.396043
  0
VERTEX
  8
PLAN_1
 62
     2
  6
CONTINUOUS
 10
-0.451071
 20
1.396575
  0
VERTEX
  8
PLAN_1
 62
     2
  6
CONTINUOUS
 10
-0.455866
 20
1.397642
  0
VERTEX
  8
PLAN_1
 62
     2
  6
CONTINUOUS
 10
-0.460126
 20
1.399236
  0
VERTEX
  8
PLAN_1
 62
     2
  6
CONTINUOUS
 10
-0.463854
 20
1.401370
  0
VERTEX
  8
PLAN_1
 62
     2
  6
CONTINUOUS
 10
-0.467051
 20
1.403500
  0
VERTEX
  8
PLAN_1
 62
     2
  6
CONTINUOUS
 10
-0.469717
 20
1.406697
  0
VERTEX
  8
PLAN_1
 62
     2
  6
CONTINUOUS
 10
-0.472378
 20
1.409894
  0
VERTEX
  8
PLAN_1
 62
     2
  6
CONTINUOUS
 10
-0.474512
 20
1.413087
  0
VERTEX
  8
PLAN_1
 62
     2
  6
CONTINUOUS
 10
-0.480370
 20
1.423209
  0
VERTEX
  8
PLAN_1
 62
     2
  6
CONTINUOUS
 10
-0.481969
 20
1.425874
  0
VERTEX
  8
PLAN_1
 62
     2
  6
CONTINUOUS
 10
-0.483567
 20
1.428535
  0
VERTEX
  8
PLAN_1
 62
     2
  6
CONTINUOUS
 10
-0.485165
 20
1.430669
  0
VERTEX
  8
PLAN_1
 62
     2
  6
CONTINUOUS
 10
-0.486764
 20
1.432799
  0
VERTEX
  8
PLAN_1
 62
     2
  6
CONTINUOUS
 10
-0.488894
 20
1.434398
  0
VERTEX
  8
PLAN_1
 62
     2
  6
CONTINUOUS
 10
-0.491555
 20
1.435461
  0
VERTEX
  8
PLAN_1
 62
     2
  6
CONTINUOUS
 10
-0.494220
 20
1.435996
  0
VERTEX
  8
PLAN_1
 62
     2
  6
CONTINUOUS
 10
-0.497417
 20
1.436528
  0
VERTEX
  8
PLAN_1
 62
     2
  6
CONTINUOUS
 10
-0.499547
 20
1.435996
  0
VERTEX
  8
PLAN_1
 62
     2
  6
CONTINUOUS
 10
-0.501677
 20
1.435461
  0
VERTEX
  8
PLAN_1
 62
     2
  6
CONTINUOUS
 10
-0.504343
 20
1.434929
  0
VERTEX
  8
PLAN_1
 62
     2
  6
CONTINUOUS
 10
-0.505941
 20
1.433331
  0
VERTEX
  8
PLAN_1
 62
     2
  6
CONTINUOUS
 10
-0.508071
 20
1.431201
  0
VERTEX
  8
PLAN_1
 62
     2
  6
CONTINUOUS
 10
-0.509138
 20
1.428535
  0
VERTEX
  8
PLAN_1
 62
     2
  6
CONTINUOUS
 10
-0.510201
 20
1.425874
  0
VERTEX
  8
PLAN_1
 62
     2
  6
CONTINUOUS
 10
-0.510732
 20
1.422146
  0
VERTEX
  8
PLAN_1
 62
     2
  6
CONTINUOUS
 10
-0.510201
 20
1.419480
  0
VERTEX
  8
PLAN_1
 62
     2
  6
CONTINUOUS
 10
-0.510201
 20
1.417350
  0
VERTEX
  8
PLAN_1
 62
     2
  6
CONTINUOUS
 10
-0.509138
 20
1.415220
  0
VERTEX
  8
PLAN_1
 62
     2
  6
CONTINUOUS
 10
-0.508602
 20
1.413622
  0
VERTEX
  8
PLAN_1
 62
     2
  6
CONTINUOUS
 10
-0.506472
 20
1.411492
  0
VERTEX
  8
PLAN_1
 62
     2
  6
CONTINUOUS
 10
-0.503276
 20
1.409358
  0
VERTEX
  8
PLAN_1
 62
     2
  6
CONTINUOUS
 10
-0.500614
 20
1.408295
  0
VERTEX
  8
PLAN_1
 62
     2
  6
CONTINUOUS
 10
-0.497417
 20
1.407760
  0
VERTEX
  8
PLAN_1
 62
     2
  6
CONTINUOUS
 10
-0.494752
 20
1.407228
  0
VERTEX
  8
PLAN_1
 62
     2
  6
CONTINUOUS
 10
-0.492622
 20
1.407228
  0
VERTEX
  8
PLAN_1
 62
     2
  6
CONTINUOUS
 10
-0.492622
 20
1.398173
  0
SEQEND
  8
0
  0
POLYLINE
  8
PLAN_1
 62
     2
  6
CONTINUOUS
 66
     1
 40
0.003000
 41
0.003000
  0
VERTEX
  8
PLAN_1
 62
     2
  6
CONTINUOUS
 10
-0.443614
 20
1.480209
  0
VERTEX
  8
PLAN_1
 62
     2
  6
CONTINUOUS
 10
-0.444146
 20
1.476480
  0
VERTEX
  8
PLAN_1
 62
     2
  6
CONTINUOUS
 10
-0.444677
 20
1.473283
  0
VERTEX
  8
PLAN_1
 62
     2
  6
CONTINUOUS
 10
-0.445744
 20
1.470087
  0
VERTEX
  8
PLAN_1
 62
     2
  6
CONTINUOUS
 10
-0.447343
 20
1.467425
  0
VERTEX
  8
PLAN_1
 62
     2
  6
CONTINUOUS
 10
-0.449472
 20
1.465295
  0
VERTEX
  8
PLAN_1
 62
     2
  6
CONTINUOUS
 10
-0.451602
 20
1.463161
  0
VERTEX
  8
PLAN_1
 62
     2
  6
CONTINUOUS
 10
-0.454268
 20
1.461563
  0
VERTEX
  8
PLAN_1
 62
     2
  6
CONTINUOUS
 10
-0.456929
 20
1.459965
  0
VERTEX
  8
PLAN_1
 62
     2
  6
CONTINUOUS
 10
-0.462791
 20
1.457835
  0
VERTEX
  8
PLAN_1
 62
     2
  6
CONTINUOUS
 10
-0.469185
 20
1.456236
  0
VERTEX
  8
PLAN_1
 62
     2
  6
CONTINUOUS
 10
-0.475043
 20
1.455173
  0
VERTEX
  8
PLAN_1
 62
     2
  6
CONTINUOUS
 10
-0.481437
 20
1.455173
  0
VERTEX
  8
PLAN_1
 62
     2
  6
CONTINUOUS
 10
-0.487295
 20
1.455173
  0
VERTEX
  8
PLAN_1
 62
     2
  6
CONTINUOUS
 10
-0.493689
 20
1.456236
  0
VERTEX
  8
PLAN_1
 62
     2
  6
CONTINUOUS
 10
-0.499547
 20
1.457835
  0
VERTEX
  8
PLAN_1
 62
     2
  6
CONTINUOUS
 10
-0.505941
 20
1.459965
  0
VERTEX
  8
PLAN_1
 62
     2
  6
CONTINUOUS
 10
-0.508602
 20
1.461563
  0
VERTEX
  8
PLAN_1
 62
     2
  6
CONTINUOUS
 10
-0.510732
 20
1.463161
  0
VERTEX
  8
PLAN_1
 62
     2
  6
CONTINUOUS
 10
-0.513398
 20
1.465295
  0
VERTEX
  8
PLAN_1
 62
     2
  6
CONTINUOUS
 10
-0.514996
 20
1.467425
  0
VERTEX
  8
PLAN_1
 62
     2
  6
CONTINUOUS
 10
-0.516594
 20
1.470087
  0
VERTEX
  8
PLAN_1
 62
     2
  6
CONTINUOUS
 10
-0.517657
 20
1.473283
  0
VERTEX
  8
PLAN_1
 62
     2
  6
CONTINUOUS
 10
-0.518724
 20
1.476480
  0
VERTEX
  8
PLAN_1
 62
     2
  6
CONTINUOUS
 10
-0.518724
 20
1.480209
  0
VERTEX
  8
PLAN_1
 62
     2
  6
CONTINUOUS
 10
-0.518724
 20
1.483937
  0
VERTEX
  8
PLAN_1
 62
     2
  6
CONTINUOUS
 10
-0.517657
 20
1.487134
  0
VERTEX
  8
PLAN_1
 62
     2
  6
CONTINUOUS
 10
-0.516594
 20
1.490331
  0
VERTEX
  8
PLAN_1
 62
     2
  6
CONTINUOUS
 10
-0.514996
 20
1.492996
  0
VERTEX
  8
PLAN_1
 62
     2
  6
CONTINUOUS
 10
-0.513398
 20
1.495657
  0
VERTEX
  8
PLAN_1
 62
     2
  6
CONTINUOUS
 10
-0.510732
 20
1.497256
  0
VERTEX
  8
PLAN_1
 62
     2
  6
CONTINUOUS
 10
-0.508602
 20
1.499386
  0
VERTEX
  8
PLAN_1
 62
     2
  6
CONTINUOUS
 10
-0.505941
 20
1.500453
  0
VERTEX
  8
PLAN_1
 62
     2
  6
CONTINUOUS
 10
-0.499547
 20
1.503114
  0
VERTEX
  8
PLAN_1
 62
     2
  6
CONTINUOUS
 10
-0.493689
 20
1.504181
  0
VERTEX
  8
PLAN_1
 62
     2
  6
CONTINUOUS
 10
-0.487295
 20
1.505248
  0
VERTEX
  8
PLAN_1
 62
     2
  6
CONTINUOUS
 10
-0.481437
 20
1.505248
  0
VERTEX
  8
PLAN_1
 62
     2
  6
CONTINUOUS
 10
-0.475043
 20
1.505248
  0
VERTEX
  8
PLAN_1
 62
     2
  6
CONTINUOUS
 10
-0.469185
 20
1.504181
  0
VERTEX
  8
PLAN_1
 62
     2
  6
CONTINUOUS
 10
-0.462791
 20
1.503114
  0
VERTEX
  8
PLAN_1
 62
     2
  6
CONTINUOUS
 10
-0.456929
 20
1.500453
  0
VERTEX
  8
PLAN_1
 62
     2
  6
CONTINUOUS
 10
-0.454268
 20
1.499386
  0
VERTEX
  8
PLAN_1
 62
     2
  6
CONTINUOUS
 10
-0.451602
 20
1.497256
  0
VERTEX
  8
PLAN_1
 62
     2
  6
CONTINUOUS
 10
-0.449472
 20
1.495657
  0
VERTEX
  8
PLAN_1
 62
     2
  6
CONTINUOUS
 10
-0.447343
 20
1.492996
  0
VERTEX
  8
PLAN_1
 62
     2
  6
CONTINUOUS
 10
-0.445744
 20
1.490331
  0
VERTEX
  8
PLAN_1
 62
     2
  6
CONTINUOUS
 10
-0.444677
 20
1.487134
  0
VERTEX
  8
PLAN_1
 62
     2
  6
CONTINUOUS
 10
-0.444146
 20
1.483937
  0
VERTEX
  8
PLAN_1
 62
     2
  6
CONTINUOUS
 10
-0.443614
 20
1.480209
  0
SEQEND
  8
0
  0
POLYLINE
  8
PLAN_1
 62
     2
  6
CONTINUOUS
 66
     1
 40
0.003000
 41
0.003000
  0
VERTEX
  8
PLAN_1
 62
     2
  6
CONTINUOUS
 10
-0.510732
 20
1.480209
  0
VERTEX
  8
PLAN_1
 62
     2
  6
CONTINUOUS
 10
-0.510201
 20
1.478610
  0
VERTEX
  8
PLAN_1
 62
     2
  6
CONTINUOUS
 10
-0.510201
 20
1.476480
  0
VERTEX
  8
PLAN_1
 62
     2
  6
CONTINUOUS
 10
-0.509669
 20
1.474882
  0
VERTEX
  8
PLAN_1
 62
     2
  6
CONTINUOUS
 10
-0.508602
 20
1.473283
  0
VERTEX
  8
PLAN_1
 62
     2
  6
CONTINUOUS
 10
-0.505941
 20
1.470622
  0
VERTEX
  8
PLAN_1
 62
     2
  6
CONTINUOUS
 10
-0.502744
 20
1.468488
  0
VERTEX
  8
PLAN_1
 62
     2
  6
CONTINUOUS
 10
-0.498480
 20
1.466890
  0
VERTEX
  8
PLAN_1
 62
     2
  6
CONTINUOUS
 10
-0.493689
 20
1.465827
  0
VERTEX
  8
PLAN_1
 62
     2
  6
CONTINUOUS
 10
-0.487827
 20
1.465295
  0
VERTEX
  8
PLAN_1
 62
     2
  6
CONTINUOUS
 10
-0.481437
 20
1.464760
  0
VERTEX
  8
PLAN_1
 62
     2
  6
CONTINUOUS
 10
-0.474512
 20
1.465295
  0
VERTEX
  8
PLAN_1
 62
     2
  6
CONTINUOUS
 10
-0.469185
 20
1.465827
  0
VERTEX
  8
PLAN_1
 62
     2
  6
CONTINUOUS
 10
-0.463854
 20
1.466890
  0
VERTEX
  8
PLAN_1
 62
     2
  6
CONTINUOUS
 10
-0.459594
 20
1.468488
  0
VERTEX
  8
PLAN_1
 62
     2
  6
CONTINUOUS
 10
-0.456398
 20
1.470622
  0
VERTEX
  8
PLAN_1
 62
     2
  6
CONTINUOUS
 10
-0.453736
 20
1.473283
  0
VERTEX
  8
PLAN_1
 62
     2
  6
CONTINUOUS
 10
-0.453201
 20
1.474882
  0
VERTEX
  8
PLAN_1
 62
     2
  6
CONTINUOUS
 10
-0.452669
 20
1.476480
  0
VERTEX
  8
PLAN_1
 62
     2
  6
CONTINUOUS
 10
-0.452138
 20
1.478610
  0
VERTEX
  8
PLAN_1
 62
     2
  6
CONTINUOUS
 10
-0.452138
 20
1.480209
  0
VERTEX
  8
PLAN_1
 62
     2
  6
CONTINUOUS
 10
-0.452138
 20
1.482339
  0
VERTEX
  8
PLAN_1
 62
     2
  6
CONTINUOUS
 10
-0.452669
 20
1.483937
  0
VERTEX
  8
PLAN_1
 62
     2
  6
CONTINUOUS
 10
-0.453201
 20
1.485535
  0
VERTEX
  8
PLAN_1
 62
     2
  6
CONTINUOUS
 10
-0.453736
 20
1.487134
  0
VERTEX
  8
PLAN_1
 62
     2
  6
CONTINUOUS
 10
-0.456398
 20
1.489799
  0
VERTEX
  8
PLAN_1
 62
     2
  6
CONTINUOUS
 10
-0.459594
 20
1.491929
  0
VERTEX
  8
PLAN_1
 62
     2
  6
CONTINUOUS
 10
-0.463854
 20
1.493528
  0
VERTEX
  8
PLAN_1
 62
     2
  6
CONTINUOUS
 10
-0.469185
 20
1.494591
  0
VERTEX
  8
PLAN_1
 62
     2
  6
CONTINUOUS
 10
-0.474512
 20
1.495126
  0
VERTEX
  8
PLAN_1
 62
     2
  6
CONTINUOUS
 10
-0.481437
 20
1.495657
  0
VERTEX
  8
PLAN_1
 62
     2
  6
CONTINUOUS
 10
-0.487827
 20
1.495126
  0
VERTEX
  8
PLAN_1
 62
     2
  6
CONTINUOUS
 10
-0.493689
 20
1.494591
  0
VERTEX
  8
PLAN_1
 62
     2
  6
CONTINUOUS
 10
-0.498480
 20
1.493528
  0
VERTEX
  8
PLAN_1
 62
     2
  6
CONTINUOUS
 10
-0.502744
 20
1.491929
  0
VERTEX
  8
PLAN_1
 62
     2
  6
CONTINUOUS
 10
-0.505941
 20
1.489799
  0
VERTEX
  8
PLAN_1
 62
     2
  6
CONTINUOUS
 10
-0.508602
 20
1.487134
  0
VERTEX
  8
PLAN_1
 62
     2
  6
CONTINUOUS
 10
-0.509669
 20
1.485535
  0
VERTEX
  8
PLAN_1
 62
     2
  6
CONTINUOUS
 10
-0.510201
 20
1.483937
  0
VERTEX
  8
PLAN_1
 62
     2
  6
CONTINUOUS
 10
-0.510201
 20
1.482339
  0
VERTEX
  8
PLAN_1
 62
     2
  6
CONTINUOUS
 10
-0.510732
 20
1.480209
  0
SEQEND
  8
0
  0
POLYLINE
  8
PLAN_1
 62
     2
  6
CONTINUOUS
 66
     1
 40
0.004260
 41
0.004260
  0
VERTEX
  8
PLAN_1
 62
     2
  6
CONTINUOUS
 10
-0.581051
 20
4.189020
  0
VERTEX
  8
PLAN_1
 62
     2
  6
CONTINUOUS
 10
-0.581051
 20
3.873657
  0
SEQEND
  8
0
  0
POLYLINE
  8
PLAN_1
 62
     2
  6
CONTINUOUS
 66
     1
 40
0.004260
 41
0.004260
  0
VERTEX
  8
PLAN_1
 62
     2
  6
CONTINUOUS
 10
-0.581051
 20
3.825713
  0
VERTEX
  8
PLAN_1
 62
     2
  6
CONTINUOUS
 10
-0.581051
 20
2.062988
  0
SEQEND
  8
0
  0
POLYLINE
  8
PLAN_1
 62
     2
  6
CONTINUOUS
 66
     1
 40
0.004260
 41
0.004260
  0
VERTEX
  8
PLAN_1
 62
     2
  6
CONTINUOUS
 10
-1.251197
 20
4.189020
  0
VERTEX
  8
PLAN_1
 62
     2
  6
CONTINUOUS
 10
-1.251197
 20
4.132020
  0
SEQEND
  8
0
  0
POLYLINE
  8
PLAN_1
 62
     2
  6
CONTINUOUS
 66
     1
 40
0.004260
 41
0.004260
  0
VERTEX
  8
PLAN_1
 62
     2
  6
CONTINUOUS
 10
-1.220299
 20
4.165047
  0
VERTEX
  8
PLAN_1
 62
     2
  6
CONTINUOUS
 10
-0.610882
 20
4.165047
  0
SEQEND
  8
0
  0
SOLID
  8
PLAN_1
 62
     2
 10
-0.581051
 20
4.165047
 11
-0.640181
 21
4.181028
 12
-0.581051
 22
4.165047
 13
-0.640181
 23
4.149598
  0
POLYLINE
  8
PLAN_1
 62
     2
  6
CONTINUOUS
 66
     1
 40
0.003000
 41
0.003000
  0
VERTEX
  8
PLAN_1
 62
     2
  6
CONTINUOUS
 10
-0.581051
 20
4.165047
  0
VERTEX
  8
PLAN_1
 62
     2
  6
CONTINUOUS
 10
-0.640181
 20
4.181028
  0
VERTEX
  8
PLAN_1
 62
     2
  6
CONTINUOUS
 10
-0.640181
 20
4.149598
  0
VERTEX
  8
PLAN_1
 62
     2
  6
CONTINUOUS
 10
-0.581051
 20
4.165047
  0
SEQEND
  8
0
  0
SOLID
  8
PLAN_1
 62
     2
 10
-1.249598
 20
4.165047
 11
-1.190469
 21
4.181028
 12
-1.249598
 22
4.165047
 13
-1.190469
 23
4.149598
  0
POLYLINE
  8
PLAN_1
 62
     2
  6
CONTINUOUS
 66
     1
 40
0.003000
 41
0.003000
  0
VERTEX
  8
PLAN_1
 62
     2
  6
CONTINUOUS
 10
-1.249598
 20
4.165047
  0
VERTEX
  8
PLAN_1
 62
     2
  6
CONTINUOUS
 10
-1.190469
 20
4.181028
  0
VERTEX
  8
PLAN_1
 62
     2
  6
CONTINUOUS
 10
-1.190469
 20
4.149598
  0
VERTEX
  8
PLAN_1
 62
     2
  6
CONTINUOUS
 10
-1.249598
 20
4.165047
  0
SEQEND
  8
0
  0
POLYLINE
  8
PLAN_1
 62
     2
  6
CONTINUOUS
 66
     1
 40
0.003000
 41
0.003000
  0
VERTEX
  8
PLAN_1
 62
     2
  6
CONTINUOUS
 10
-0.945421
 20
4.189020
  0
VERTEX
  8
PLAN_1
 62
     2
  6
CONTINUOUS
 10
-0.955012
 20
4.189020
  0
VERTEX
  8
PLAN_1
 62
     2
  6
CONTINUOUS
 10
-0.955012
 20
4.240693
  0
VERTEX
  8
PLAN_1
 62
     2
  6
CONTINUOUS
 10
-0.972059
 20
4.240693
  0
VERTEX
  8
PLAN_1
 62
     2
  6
CONTINUOUS
 10
-0.972059
 20
4.248150
  0
VERTEX
  8
PLAN_1
 62
     2
  6
CONTINUOUS
 10
-0.967795
 20
4.248150
  0
VERTEX
  8
PLAN_1
 62
     2
  6
CONTINUOUS
 10
-0.964598
 20
4.248681
  0
VERTEX
  8
PLAN_1
 62
     2
  6
CONTINUOUS
 10
-0.961402
 20
4.249748
  0
VERTEX
  8
PLAN_1
 62
     2
  6
CONTINUOUS
 10
-0.958740
 20
4.250815
  0
VERTEX
  8
PLAN_1
 62
     2
  6
CONTINUOUS
 10
-0.956610
 20
4.252409
  0
VERTEX
  8
PLAN_1
 62
     2
  6
CONTINUOUS
 10
-0.955012
 20
4.255075
  0
VERTEX
  8
PLAN_1
 62
     2
  6
CONTINUOUS
 10
-0.953413
 20
4.257740
  0
VERTEX
  8
PLAN_1
 62
     2
  6
CONTINUOUS
 10
-0.952346
 20
4.262000
  0
VERTEX
  8
PLAN_1
 62
     2
  6
CONTINUOUS
 10
-0.945421
 20
4.262000
  0
VERTEX
  8
PLAN_1
 62
     2
  6
CONTINUOUS
 10
-0.945421
 20
4.189020
  0
SEQEND
  8
0
  0
POLYLINE
  8
PLAN_1
 62
     2
  6
CONTINUOUS
 66
     1
 40
0.003000
 41
0.003000
  0
VERTEX
  8
PLAN_1
 62
     2
  6
CONTINUOUS
 10
-0.920917
 20
4.260402
  0
VERTEX
  8
PLAN_1
 62
     2
  6
CONTINUOUS
 10
-0.870311
 20
4.260402
  0
VERTEX
  8
PLAN_1
 62
     2
  6
CONTINUOUS
 10
-0.870311
 20
4.252409
  0
VERTEX
  8
PLAN_1
 62
     2
  6
CONTINUOUS
 10
-0.873508
 20
4.248681
  0
VERTEX
  8
PLAN_1
 62
     2
  6
CONTINUOUS
 10
-0.877236
 20
4.243890
  0
VERTEX
  8
PLAN_1
 62
     2
  6
CONTINUOUS
 10
-0.881496
 20
4.237496
  0
VERTEX
  8
PLAN_1
 62
     2
  6
CONTINUOUS
 10
-0.885760
 20
4.230039
  0
VERTEX
  8
PLAN_1
 62
     2
  6
CONTINUOUS
 10
-0.890555
 20
4.221516
  0
VERTEX
  8
PLAN_1
 62
     2
  6
CONTINUOUS
 10
-0.894283
 20
4.211394
  0
VERTEX
  8
PLAN_1
 62
     2
  6
CONTINUOUS
 10
-0.896413
 20
4.206067
  0
VERTEX
  8
PLAN_1
 62
     2
  6
CONTINUOUS
 10
-0.898012
 20
4.200740
  0
VERTEX
  8
PLAN_1
 62
     2
  6
CONTINUOUS
 10
-0.899079
 20
4.194878
  0
VERTEX
  8
PLAN_1
 62
     2
  6
CONTINUOUS
 10
-0.900142
 20
4.189020
  0
VERTEX
  8
PLAN_1
 62
     2
  6
CONTINUOUS
 10
-0.910264
 20
4.189020
  0
VERTEX
  8
PLAN_1
 62
     2
  6
CONTINUOUS
 10
-0.909197
 20
4.196476
  0
VERTEX
  8
PLAN_1
 62
     2
  6
CONTINUOUS
 10
-0.906535
 20
4.205000
  0
VERTEX
  8
PLAN_1
 62
     2
  6
CONTINUOUS
 10
-0.903339
 20
4.212992
  0
VERTEX
  8
PLAN_1
 62
     2
  6
CONTINUOUS
 10
-0.899610
 20
4.221516
  0
VERTEX
  8
PLAN_1
 62
     2
  6
CONTINUOUS
 10
-0.895346
 20
4.230039
  0
VERTEX
  8
PLAN_1
 62
     2
  6
CONTINUOUS
 10
-0.890555
 20
4.237496
  0
VERTEX
  8
PLAN_1
 62
     2
  6
CONTINUOUS
 10
-0.885760
 20
4.244953
  0
VERTEX
  8
PLAN_1
 62
     2
  6
CONTINUOUS
 10
-0.880433
 20
4.251346
  0
VERTEX
  8
PLAN_1
 62
     2
  6
CONTINUOUS
 10
-0.920917
 20
4.251346
  0
VERTEX
  8
PLAN_1
 62
     2
  6
CONTINUOUS
 10
-0.920917
 20
4.260402
  0
SEQEND
  8
0
  0
POLYLINE
  8
PLAN_1
 62
     2
  6
CONTINUOUS
 66
     1
 40
0.004260
 41
0.004260
  0
VERTEX
  8
PLAN_1
 62
     2
  6
CONTINUOUS
 10
-1.321512
 20
4.007898
  0
VERTEX
  8
PLAN_1
 62
     2
  6
CONTINUOUS
 10
-1.170756
 20
4.007898
  0
SEQEND
  8
0
  0
SOLID
  8
PLAN_1
 62
     2
 10
-1.140925
 20
4.007898
 11
-1.200055
 21
4.023346
 12
-1.140925
 22
4.007898
 13
-1.200055
 23
3.991917
  0
POLYLINE
  8
PLAN_1
 62
     2
  6
CONTINUOUS
 66
     1
 40
0.003000
 41
0.003000
  0
VERTEX
  8
PLAN_1
 62
     2
  6
CONTINUOUS
 10
-1.140925
 20
4.007898
  0
VERTEX
  8
PLAN_1
 62
     2
  6
CONTINUOUS
 10
-1.200055
 20
4.023346
  0
VERTEX
  8
PLAN_1
 62
     2
  6
CONTINUOUS
 10
-1.200055
 20
3.991917
  0
VERTEX
  8
PLAN_1
 62
     2
  6
CONTINUOUS
 10
-1.140925
 20
4.007898
  0
SEQEND
  8
0
  0
SOLID
  8
PLAN_1
 62
     2
 10
-1.351343
 20
4.007898
 11
-1.292213
 21
4.023346
 12
-1.351343
 22
4.007898
 13
-1.292213
 23
3.991917
  0
POLYLINE
  8
PLAN_1
 62
     2
  6
CONTINUOUS
 66
     1
 40
0.003000
 41
0.003000
  0
VERTEX
  8
PLAN_1
 62
     2
  6
CONTINUOUS
 10
-1.351343
 20
4.007898
  0
VERTEX
  8
PLAN_1
 62
     2
  6
CONTINUOUS
 10
-1.292213
 20
4.023346
  0
VERTEX
  8
PLAN_1
 62
     2
  6
CONTINUOUS
 10
-1.292213
 20
3.991917
  0
VERTEX
  8
PLAN_1
 62
     2
  6
CONTINUOUS
 10
-1.351343
 20
4.007898
  0
SEQEND
  8
0
  0
POLYLINE
  8
PLAN_1
 62
     2
  6
CONTINUOUS
 66
     1
 40
0.003000
 41
0.003000
  0
VERTEX
  8
PLAN_1
 62
     2
  6
CONTINUOUS
 10
-1.265579
 20
4.073957
  0
VERTEX
  8
PLAN_1
 62
     2
  6
CONTINUOUS
 10
-1.263980
 20
4.075020
  0
VERTEX
  8
PLAN_1
 62
     2
  6
CONTINUOUS
 10
-1.262913
 20
4.075551
  0
VERTEX
  8
PLAN_1
 62
     2
  6
CONTINUOUS
 10
-1.261319
 20
4.076618
  0
VERTEX
  8
PLAN_1
 62
     2
  6
CONTINUOUS
 10
-1.259720
 20
4.077150
  0
VERTEX
  8
PLAN_1
 62
     2
  6
CONTINUOUS
 10
-1.257587
 20
4.077685
  0
VERTEX
  8
PLAN_1
 62
     2
  6
CONTINUOUS
 10
-1.255988
 20
4.078217
  0
VERTEX
  8
PLAN_1
 62
     2
  6
CONTINUOUS
 10
-1.253858
 20
4.078748
  0
VERTEX
  8
PLAN_1
 62
     2
  6
CONTINUOUS
 10
-1.251197
 20
4.078748
  0
VERTEX
  8
PLAN_1
 62
     2
  6
CONTINUOUS
 10
-1.246933
 20
4.078217
  0
VERTEX
  8
PLAN_1
 62
     2
  6
CONTINUOUS
 10
-1.242673
 20
4.077150
  0
VERTEX
  8
PLAN_1
 62
     2
  6
CONTINUOUS
 10
-1.238409
 20
4.075020
  0
VERTEX
  8
PLAN_1
 62
     2
  6
CONTINUOUS
 10
-1.234681
 20
4.072358
  0
VERTEX
  8
PLAN_1
 62
     2
  6
CONTINUOUS
 10
-1.231484
 20
4.069161
  0
VERTEX
  8
PLAN_1
 62
     2
  6
CONTINUOUS
 10
-1.229354
 20
4.065433
  0
VERTEX
  8
PLAN_1
 62
     2
  6
CONTINUOUS
 10
-1.228287
 20
4.062768
  0
VERTEX
  8
PLAN_1
 62
     2
  6
CONTINUOUS
 10
-1.227756
 20
4.060638
  0
VERTEX
  8
PLAN_1
 62
     2
  6
CONTINUOUS
 10
-1.227224
 20
4.057972
  0
VERTEX
  8
PLAN_1
 62
     2
  6
CONTINUOUS
 10
-1.227224
 20
4.055311
  0
VERTEX
  8
PLAN_1
 62
     2
  6
CONTINUOUS
 10
-1.227224
 20
4.051583
  0
VERTEX
  8
PLAN_1
 62
     2
  6
CONTINUOUS
 10
-1.228287
 20
4.047850
  0
VERTEX
  8
PLAN_1
 62
     2
  6
CONTINUOUS
 10
-1.229354
 20
4.043591
  0
VERTEX
  8
PLAN_1
 62
     2
  6
CONTINUOUS
 10
-1.232020
 20
4.039331
  0
VERTEX
  8
PLAN_1
 62
     2
  6
CONTINUOUS
 10
-1.233618
 20
4.037197
  0
VERTEX
  8
PLAN_1
 62
     2
  6
CONTINUOUS
 10
-1.235213
 20
4.035598
  0
VERTEX
  8
PLAN_1
 62
     2
  6
CONTINUOUS
 10
-1.237346
 20
4.034000
  0
VERTEX
  8
PLAN_1
 62
     2
  6
CONTINUOUS
 10
-1.240008
 20
4.032406
  0
VERTEX
  8
PLAN_1
 62
     2
  6
CONTINUOUS
 10
-1.242673
 20
4.031339
  0
VERTEX
  8
PLAN_1
 62
     2
  6
CONTINUOUS
 10
-1.245870
 20
4.030272
  0
VERTEX
  8
PLAN_1
 62
     2
  6
CONTINUOUS
 10
-1.249598
 20
4.029740
  0
VERTEX
  8
PLAN_1
 62
     2
  6
CONTINUOUS
 10
-1.253858
 20
4.029740
  0
VERTEX
  8
PLAN_1
 62
     2
  6
CONTINUOUS
 10
-1.257587
 20
4.029740
  0
VERTEX
  8
PLAN_1
 62
     2
  6
CONTINUOUS
 10
-1.261319
 20
4.030272
  0
VERTEX
  8
PLAN_1
 62
     2
  6
CONTINUOUS
 10
-1.265047
 20
4.031339
  0
VERTEX
  8
PLAN_1
 62
     2
  6
CONTINUOUS
 10
-1.268244
 20
4.033469
  0
VERTEX
  8
PLAN_1
 62
     2
  6
CONTINUOUS
 10
-1.271437
 20
4.036134
  0
VERTEX
  8
PLAN_1
 62
     2
  6
CONTINUOUS
 10
-1.274102
 20
4.039862
  0
VERTEX
  8
PLAN_1
 62
     2
  6
CONTINUOUS
 10
-1.275165
 20
4.041992
  0
VERTEX
  8
PLAN_1
 62
     2
  6
CONTINUOUS
 10
-1.276232
 20
4.044122
  0
VERTEX
  8
PLAN_1
 62
     2
  6
CONTINUOUS
 10
-1.276764
 20
4.046787
  0
VERTEX
  8
PLAN_1
 62
     2
  6
CONTINUOUS
 10
-1.277299
 20
4.049449
  0
VERTEX
  8
PLAN_1
 62
     2
  6
CONTINUOUS
 10
-1.267709
 20
4.049449
  0
VERTEX
  8
PLAN_1
 62
     2
  6
CONTINUOUS
 10
-1.267177
 20
4.046787
  0
VERTEX
  8
PLAN_1
 62
     2
  6
CONTINUOUS
 10
-1.266110
 20
4.044122
  0
VERTEX
  8
PLAN_1
 62
     2
  6
CONTINUOUS
 10
-1.264512
 20
4.041992
  0
VERTEX
  8
PLAN_1
 62
     2
  6
CONTINUOUS
 10
-1.262913
 20
4.040394
  0
VERTEX
  8
PLAN_1
 62
     2
  6
CONTINUOUS
 10
-1.260783
 20
4.038795
  0
VERTEX
  8
PLAN_1
 62
     2
  6
CONTINUOUS
 10
-1.258122
 20
4.038264
  0
VERTEX
  8
PLAN_1
 62
     2
  6
CONTINUOUS
 10
-1.255457
 20
4.037732
  0
VERTEX
  8
PLAN_1
 62
     2
  6
CONTINUOUS
 10
-1.252260
 20
4.037197
  0
VERTEX
  8
PLAN_1
 62
     2
  6
CONTINUOUS
 10
-1.249063
 20
4.037732
  0
VERTEX
  8
PLAN_1
 62
     2
  6
CONTINUOUS
 10
-1.245870
 20
4.038795
  0
VERTEX
  8
PLAN_1
 62
     2
  6
CONTINUOUS
 10
-1.243205
 20
4.040394
  0
VERTEX
  8
PLAN_1
 62
     2
  6
CONTINUOUS
 10
-1.241075
 20
4.042524
  0
VERTEX
  8
PLAN_1
 62
     2
  6
CONTINUOUS
 10
-1.239476
 20
4.044657
  0
VERTEX
  8
PLAN_1
 62
     2
  6
CONTINUOUS
 10
-1.237878
 20
4.047850
  0
VERTEX
  8
PLAN_1
 62
     2
  6
CONTINUOUS
 10
-1.237346
 20
4.051047
  0
VERTEX
  8
PLAN_1
 62
     2
  6
CONTINUOUS
 10
-1.236811
 20
4.054244
  0
VERTEX
  8
PLAN_1
 62
     2
  6
CONTINUOUS
 10
-1.237346
 20
4.057972
  0
VERTEX
  8
PLAN_1
 62
     2
  6
CONTINUOUS
 10
-1.238409
 20
4.061169
  0
VERTEX
  8
PLAN_1
 62
     2
  6
CONTINUOUS
 10
-1.239476
 20
4.063835
  0
VERTEX
  8
PLAN_1
 62
     2
  6
CONTINUOUS
 10
-1.241606
 20
4.065965
  0
VERTEX
  8
PLAN_1
 62
     2
  6
CONTINUOUS
 10
-1.244272
 20
4.068094
  0
VERTEX
  8
PLAN_1
 62
     2
  6
CONTINUOUS
 10
-1.246933
 20
4.069161
  0
VERTEX
  8
PLAN_1
 62
     2
  6
CONTINUOUS
 10
-1.250130
 20
4.070224
  0
VERTEX
  8
PLAN_1
 62
     2
  6
CONTINUOUS
 10
-1.253327
 20
4.070224
  0
VERTEX
  8
PLAN_1
 62
     2
  6
CONTINUOUS
 10
-1.254925
 20
4.070224
  0
VERTEX
  8
PLAN_1
 62
     2
  6
CONTINUOUS
 10
-1.257055
 20
4.069693
  0
VERTEX
  8
PLAN_1
 62
     2
  6
CONTINUOUS
 10
-1.259185
 20
4.069161
  0
VERTEX
  8
PLAN_1
 62
     2
  6
CONTINUOUS
 10
-1.260783
 20
4.068626
  0
VERTEX
  8
PLAN_1
 62
     2
  6
CONTINUOUS
 10
-1.262382
 20
4.067563
  0
VERTEX
  8
PLAN_1
 62
     2
  6
CONTINUOUS
 10
-1.263980
 20
4.066496
  0
VERTEX
  8
PLAN_1
 62
     2
  6
CONTINUOUS
 10
-1.265579
 20
4.064898
  0
VERTEX
  8
PLAN_1
 62
     2
  6
CONTINUOUS
 10
-1.266646
 20
4.063299
  0
VERTEX
  8
PLAN_1
 62
     2
  6
CONTINUOUS
 10
-1.274634
 20
4.063835
  0
VERTEX
  8
PLAN_1
 62
     2
  6
CONTINUOUS
 10
-1.269307
 20
4.103252
  0
VERTEX
  8
PLAN_1
 62
     2
  6
CONTINUOUS
 10
-1.231484
 20
4.103252
  0
VERTEX
  8
PLAN_1
 62
     2
  6
CONTINUOUS
 10
-1.231484
 20
4.094197
  0
VERTEX
  8
PLAN_1
 62
     2
  6
CONTINUOUS
 10
-1.262382
 20
4.094197
  0
VERTEX
  8
PLAN_1
 62
     2
  6
CONTINUOUS
 10
-1.265579
 20
4.073957
  0
SEQEND
  8
0
  0
POLYLINE
  8
PLAN_1
 62
     2
  6
CONTINUOUS
 66
     1
 40
0.004260
 41
0.004260
  0
VERTEX
  8
PLAN_1
 62
     2
  6
CONTINUOUS
 10
-1.249598
 20
3.906154
  0
VERTEX
  8
PLAN_1
 62
     2
  6
CONTINUOUS
 10
-1.249598
 20
3.677091
  0
SEQEND
  8
0
  0
POLYLINE
  8
PLAN_1
 62
     2
  6
CONTINUOUS
 66
     1
 40
0.004260
 41
0.004260
  0
VERTEX
  8
PLAN_1
 62
     2
  6
CONTINUOUS
 10
-1.351343
 20
4.032406
  0
VERTEX
  8
PLAN_1
 62
     2
  6
CONTINUOUS
 10
-1.351343
 20
3.872059
  0
SEQEND
  8
0
  0
POLYLINE
  8
PLAN_1
 62
     2
  6
CONTINUOUS
 66
     1
 40
0.004260
 41
0.004260
  0
VERTEX
  8
PLAN_1
 62
     2
  6
CONTINUOUS
 10
-1.140925
 20
4.031339
  0
VERTEX
  8
PLAN_1
 62
     2
  6
CONTINUOUS
 10
-1.140925
 20
3.873657
  0
SEQEND
  8
0
  0
POLYLINE
  8
PLAN_1
 62
     2
  6
CONTINUOUS
 66
     1
 40
0.003000
 41
0.003000
  0
VERTEX
  8
PLAN_1
 62
     2
  6
CONTINUOUS
 10
-0.438819
 20
-1.175862
  0
VERTEX
  8
PLAN_1
 62
     2
  6
CONTINUOUS
 10
-0.448409
 20
-1.175862
  0
VERTEX
  8
PLAN_1
 62
     2
  6
CONTINUOUS
 10
-0.448409
 20
-1.124189
  0
VERTEX
  8
PLAN_1
 62
     2
  6
CONTINUOUS
 10
-0.465453
 20
-1.124189
  0
VERTEX
  8
PLAN_1
 62
     2
  6
CONTINUOUS
 10
-0.465453
 20
-1.116732
  0
VERTEX
  8
PLAN_1
 62
     2
  6
CONTINUOUS
 10
-0.461193
 20
-1.116732
  0
VERTEX
  8
PLAN_1
 62
     2
  6
CONTINUOUS
 10
-0.457996
 20
-1.116201
  0
VERTEX
  8
PLAN_1
 62
     2
  6
CONTINUOUS
 10
-0.454799
 20
-1.115134
  0
VERTEX
  8
PLAN_1
 62
     2
  6
CONTINUOUS
 10
-0.452138
 20
-1.114067
  0
VERTEX
  8
PLAN_1
 62
     2
  6
CONTINUOUS
 10
-0.450004
 20
-1.112472
  0
VERTEX
  8
PLAN_1
 62
     2
  6
CONTINUOUS
 10
-0.448409
 20
-1.109807
  0
VERTEX
  8
PLAN_1
 62
     2
  6
CONTINUOUS
 10
-0.446811
 20
-1.107142
  0
VERTEX
  8
PLAN_1
 62
     2
  6
CONTINUOUS
 10
-0.445744
 20
-1.102882
  0
VERTEX
  8
PLAN_1
 62
     2
  6
CONTINUOUS
 10
-0.438819
 20
-1.102882
  0
VERTEX
  8
PLAN_1
 62
     2
  6
CONTINUOUS
 10
-0.438819
 20
-1.175862
  0
SEQEND
  8
0
  0
POLYLINE
  8
PLAN_1
 62
     2
  6
CONTINUOUS
 66
     1
 40
0.003000
 41
0.003000
  0
VERTEX
  8
PLAN_1
 62
     2
  6
CONTINUOUS
 10
-0.371165
 20
-1.128984
  0
VERTEX
  8
PLAN_1
 62
     2
  6
CONTINUOUS
 10
-0.371165
 20
-1.164677
  0
VERTEX
  8
PLAN_1
 62
     2
  6
CONTINUOUS
 10
-0.371165
 20
-1.166276
  0
VERTEX
  8
PLAN_1
 62
     2
  6
CONTINUOUS
 10
-0.370634
 20
-1.166807
  0
VERTEX
  8
PLAN_1
 62
     2
  6
CONTINUOUS
 10
-0.370098
 20
-1.167874
  0
VERTEX
  8
PLAN_1
 62
     2
  6
CONTINUOUS
 10
-0.369035
 20
-1.168406
  0
VERTEX
  8
PLAN_1
 62
     2
  6
CONTINUOUS
 10
-0.368500
 20
-1.168406
  0
VERTEX
  8
PLAN_1
 62
     2
  6
CONTINUOUS
 10
-0.367437
 20
-1.168937
  0
VERTEX
  8
PLAN_1
 62
     2
  6
CONTINUOUS
 10
-0.366370
 20
-1.168937
  0
VERTEX
  8
PLAN_1
 62
     2
  6
CONTINUOUS
 10
-0.365839
 20
-1.168937
  0
VERTEX
  8
PLAN_1
 62
     2
  6
CONTINUOUS
 10
-0.362642
 20
-1.168937
  0
VERTEX
  8
PLAN_1
 62
     2
  6
CONTINUOUS
 10
-0.362642
 20
-1.175862
  0
VERTEX
  8
PLAN_1
 62
     2
  6
CONTINUOUS
 10
-0.363709
 20
-1.176394
  0
VERTEX
  8
PLAN_1
 62
     2
  6
CONTINUOUS
 10
-0.364772
 20
-1.176394
  0
VERTEX
  8
PLAN_1
 62
     2
  6
CONTINUOUS
 10
-0.365839
 20
-1.176394
  0
VERTEX
  8
PLAN_1
 62
     2
  6
CONTINUOUS
 10
-0.366906
 20
-1.176394
  0
VERTEX
  8
PLAN_1
 62
     2
  6
CONTINUOUS
 10
-0.367437
 20
-1.176394
  0
VERTEX
  8
PLAN_1
 62
     2
  6
CONTINUOUS
 10
-0.368500
 20
-1.176929
  0
VERTEX
  8
PLAN_1
 62
     2
  6
CONTINUOUS
 10
-0.369035
 20
-1.176929
  0
VERTEX
  8
PLAN_1
 62
     2
  6
CONTINUOUS
 10
-0.369567
 20
-1.176929
  0
VERTEX
  8
PLAN_1
 62
     2
  6
CONTINUOUS
 10
-0.372232
 20
-1.176394
  0
VERTEX
  8
PLAN_1
 62
     2
  6
CONTINUOUS
 10
-0.374894
 20
-1.175862
  0
VERTEX
  8
PLAN_1
 62
     2
  6
CONTINUOUS
 10
-0.377024
 20
-1.174799
  0
VERTEX
  8
PLAN_1
 62
     2
  6
CONTINUOUS
 10
-0.378091
 20
-1.173201
  0
VERTEX
  8
PLAN_1
 62
     2
  6
CONTINUOUS
 10
-0.379157
 20
-1.171602
  0
VERTEX
  8
PLAN_1
 62
     2
  6
CONTINUOUS
 10
-0.379689
 20
-1.169469
  0
VERTEX
  8
PLAN_1
 62
     2
  6
CONTINUOUS
 10
-0.380220
 20
-1.167339
  0
VERTEX
  8
PLAN_1
 62
     2
  6
CONTINUOUS
 10
-0.380220
 20
-1.165209
  0
VERTEX
  8
PLAN_1
 62
     2
  6
CONTINUOUS
 10
-0.380220
 20
-1.128984
  0
VERTEX
  8
PLAN_1
 62
     2
  6
CONTINUOUS
 10
-0.387681
 20
-1.128984
  0
VERTEX
  8
PLAN_1
 62
     2
  6
CONTINUOUS
 10
-0.387681
 20
-1.121528
  0
VERTEX
  8
PLAN_1
 62
     2
  6
CONTINUOUS
 10
-0.380220
 20
-1.121528
  0
VERTEX
  8
PLAN_1
 62
     2
  6
CONTINUOUS
 10
-0.380220
 20
-1.106610
  0
VERTEX
  8
PLAN_1
 62
     2
  6
CONTINUOUS
 10
-0.371165
 20
-1.106610
  0
VERTEX
  8
PLAN_1
 62
     2
  6
CONTINUOUS
 10
-0.371165
 20
-1.121528
  0
VERTEX
  8
PLAN_1
 62
     2
  6
CONTINUOUS
 10
-0.362642
 20
-1.121528
  0
VERTEX
  8
PLAN_1
 62
     2
  6
CONTINUOUS
 10
-0.362642
 20
-1.128984
  0
VERTEX
  8
PLAN_1
 62
     2
  6
CONTINUOUS
 10
-0.371165
 20
-1.128984
  0
SEQEND
  8
0
  0
POLYLINE
  8
PLAN_1
 62
     2
  6
CONTINUOUS
 66
     1
 40
0.003000
 41
0.003000
  0
VERTEX
  8
PLAN_1
 62
     2
  6
CONTINUOUS
 10
-0.342933
 20
-1.175862
  0
VERTEX
  8
PLAN_1
 62
     2
  6
CONTINUOUS
 10
-0.352520
 20
-1.175862
  0
VERTEX
  8
PLAN_1
 62
     2
  6
CONTINUOUS
 10
-0.352520
 20
-1.121528
  0
VERTEX
  8
PLAN_1
 62
     2
  6
CONTINUOUS
 10
-0.343465
 20
-1.121528
  0
VERTEX
  8
PLAN_1
 62
     2
  6
CONTINUOUS
 10
-0.343465
 20
-1.130583
  0
VERTEX
  8
PLAN_1
 62
     2
  6
CONTINUOUS
 10
-0.341866
 20
-1.128453
  0
VERTEX
  8
PLAN_1
 62
     2
  6
CONTINUOUS
 10
-0.340268
 20
-1.126323
  0
VERTEX
  8
PLAN_1
 62
     2
  6
CONTINUOUS
 10
-0.338669
 20
-1.124724
  0
VERTEX
  8
PLAN_1
 62
     2
  6
CONTINUOUS
 10
-0.337071
 20
-1.123126
  0
VERTEX
  8
PLAN_1
 62
     2
  6
CONTINUOUS
 10
-0.334941
 20
-1.121528
  0
VERTEX
  8
PLAN_1
 62
     2
  6
CONTINUOUS
 10
-0.332811
 20
-1.120992
  0
VERTEX
  8
PLAN_1
 62
     2
  6
CONTINUOUS
 10
-0.330681
 20
-1.120461
  0
VERTEX
  8
PLAN_1
 62
     2
  6
CONTINUOUS
 10
-0.328016
 20
-1.119929
  0
VERTEX
  8
PLAN_1
 62
     2
  6
CONTINUOUS
 10
-0.327484
 20
-1.119929
  0
VERTEX
  8
PLAN_1
 62
     2
  6
CONTINUOUS
 10
-0.326949
 20
-1.119929
  0
VERTEX
  8
PLAN_1
 62
     2
  6
CONTINUOUS
 10
-0.326417
 20
-1.120461
  0
VERTEX
  8
PLAN_1
 62
     2
  6
CONTINUOUS
 10
-0.325886
 20
-1.120461
  0
VERTEX
  8
PLAN_1
 62
     2
  6
CONTINUOUS
 10
-0.325886
 20
-1.130051
  0
VERTEX
  8
PLAN_1
 62
     2
  6
CONTINUOUS
 10
-0.329083
 20
-1.130051
  0
VERTEX
  8
PLAN_1
 62
     2
  6
CONTINUOUS
 10
-0.332280
 20
-1.130051
  0
VERTEX
  8
PLAN_1
 62
     2
  6
CONTINUOUS
 10
-0.334941
 20
-1.131114
  0
VERTEX
  8
PLAN_1
 62
     2
  6
CONTINUOUS
 10
-0.337071
 20
-1.132181
  0
VERTEX
  8
PLAN_1
 62
     2
  6
CONTINUOUS
 10
-0.339205
 20
-1.134311
  0
VERTEX
  8
PLAN_1
 62
     2
  6
CONTINUOUS
 10
-0.340799
 20
-1.136441
  0
VERTEX
  8
PLAN_1
 62
     2
  6
CONTINUOUS
 10
-0.341866
 20
-1.138575
  0
VERTEX
  8
PLAN_1
 62
     2
  6
CONTINUOUS
 10
-0.342933
 20
-1.141768
  0
VERTEX
  8
PLAN_1
 62
     2
  6
CONTINUOUS
 10
-0.342933
 20
-1.144433
  0
VERTEX
  8
PLAN_1
 62
     2
  6
CONTINUOUS
 10
-0.342933
 20
-1.175862
  0
SEQEND
  8
0
  0
POLYLINE
  8
PLAN_1
 62
     2
  6
CONTINUOUS
 66
     1
 40
0.003000
 41
0.003000
  0
VERTEX
  8
PLAN_1
 62
     2
  6
CONTINUOUS
 10
-0.296587
 20
-1.119929
  0
VERTEX
  8
PLAN_1
 62
     2
  6
CONTINUOUS
 10
-0.293390
 20
-1.120461
  0
VERTEX
  8
PLAN_1
 62
     2
  6
CONTINUOUS
 10
-0.290728
 20
-1.120992
  0
VERTEX
  8
PLAN_1
 62
     2
  6
CONTINUOUS
 10
-0.288063
 20
-1.121528
  0
VERTEX
  8
PLAN_1
 62
     2
  6
CONTINUOUS
 10
-0.285398
 20
-1.122591
  0
VERTEX
  8
PLAN_1
 62
     2
  6
CONTINUOUS
 10
-0.283268
 20
-1.123657
  0
VERTEX
  8
PLAN_1
 62
     2
  6
CONTINUOUS
 10
-0.281138
 20
-1.125256
  0
VERTEX
  8
PLAN_1
 62
     2
  6
CONTINUOUS
 10
-0.279008
 20
-1.127386
  0
VERTEX
  8
PLAN_1
 62
     2
  6
CONTINUOUS
 10
-0.277409
 20
-1.128984
  0
VERTEX
  8
PLAN_1
 62
     2
  6
CONTINUOUS
 10
-0.274744
 20
-1.133780
  0
VERTEX
  8
PLAN_1
 62
     2
  6
CONTINUOUS
 10
-0.273146
 20
-1.138575
  0
VERTEX
  8
PLAN_1
 62
     2
  6
CONTINUOUS
 10
-0.271551
 20
-1.143366
  0
VERTEX
  8
PLAN_1
 62
     2
  6
CONTINUOUS
 10
-0.271551
 20
-1.148693
  0
VERTEX
  8
PLAN_1
 62
     2
  6
CONTINUOUS
 10
-0.271551
 20
-1.154024
  0
VERTEX
  8
PLAN_1
 62
     2
  6
CONTINUOUS
 10
-0.273146
 20
-1.159350
  0
VERTEX
  8
PLAN_1
 62
     2
  6
CONTINUOUS
 10
-0.274744
 20
-1.164142
  0
VERTEX
  8
PLAN_1
 62
     2
  6
CONTINUOUS
 10
-0.277409
 20
-1.168406
  0
VERTEX
  8
PLAN_1
 62
     2
  6
CONTINUOUS
 10
-0.279008
 20
-1.170535
  0
VERTEX
  8
PLAN_1
 62
     2
  6
CONTINUOUS
 10
-0.281138
 20
-1.172134
  0
VERTEX
  8
PLAN_1
 62
     2
  6
CONTINUOUS
 10
-0.283268
 20
-1.173732
  0
VERTEX
  8
PLAN_1
 62
     2
  6
CONTINUOUS
 10
-0.285398
 20
-1.174799
  0
VERTEX
  8
PLAN_1
 62
     2
  6
CONTINUOUS
 10
-0.288063
 20
-1.175862
  0
VERTEX
  8
PLAN_1
 62
     2
  6
CONTINUOUS
 10
-0.290728
 20
-1.176929
  0
VERTEX
  8
PLAN_1
 62
     2
  6
CONTINUOUS
 10
-0.293390
 20
-1.177461
  0
VERTEX
  8
PLAN_1
 62
     2
  6
CONTINUOUS
 10
-0.296587
 20
-1.177461
  0
VERTEX
  8
PLAN_1
 62
     2
  6
CONTINUOUS
 10
-0.299783
 20
-1.177461
  0
VERTEX
  8
PLAN_1
 62
     2
  6
CONTINUOUS
 10
-0.302980
 20
-1.176929
  0
VERTEX
  8
PLAN_1
 62
     2
  6
CONTINUOUS
 10
-0.305642
 20
-1.175862
  0
VERTEX
  8
PLAN_1
 62
     2
  6
CONTINUOUS
 10
-0.307772
 20
-1.174799
  0
VERTEX
  8
PLAN_1
 62
     2
  6
CONTINUOUS
 10
-0.310437
 20
-1.173732
  0
VERTEX
  8
PLAN_1
 62
     2
  6
CONTINUOUS
 10
-0.312567
 20
-1.172134
  0
VERTEX
  8
PLAN_1
 62
     2
  6
CONTINUOUS
 10
-0.314165
 20
-1.170535
  0
VERTEX
  8
PLAN_1
 62
     2
  6
CONTINUOUS
 10
-0.315764
 20
-1.168406
  0
VERTEX
  8
PLAN_1
 62
     2
  6
CONTINUOUS
 10
-0.318429
 20
-1.164142
  0
VERTEX
  8
PLAN_1
 62
     2
  6
CONTINUOUS
 10
-0.320559
 20
-1.159350
  0
VERTEX
  8
PLAN_1
 62
     2
  6
CONTINUOUS
 10
-0.321622
 20
-1.154024
  0
VERTEX
  8
PLAN_1
 62
     2
  6
CONTINUOUS
 10
-0.322157
 20
-1.148693
  0
VERTEX
  8
PLAN_1
 62
     2
  6
CONTINUOUS
 10
-0.321622
 20
-1.143366
  0
VERTEX
  8
PLAN_1
 62
     2
  6
CONTINUOUS
 10
-0.320559
 20
-1.138575
  0
VERTEX
  8
PLAN_1
 62
     2
  6
CONTINUOUS
 10
-0.318429
 20
-1.133780
  0
VERTEX
  8
PLAN_1
 62
     2
  6
CONTINUOUS
 10
-0.315764
 20
-1.128984
  0
VERTEX
  8
PLAN_1
 62
     2
  6
CONTINUOUS
 10
-0.314165
 20
-1.127386
  0
VERTEX
  8
PLAN_1
 62
     2
  6
CONTINUOUS
 10
-0.312567
 20
-1.125256
  0
VERTEX
  8
PLAN_1
 62
     2
  6
CONTINUOUS
 10
-0.310437
 20
-1.123657
  0
VERTEX
  8
PLAN_1
 62
     2
  6
CONTINUOUS
 10
-0.307772
 20
-1.122591
  0
VERTEX
  8
PLAN_1
 62
     2
  6
CONTINUOUS
 10
-0.305642
 20
-1.121528
  0
VERTEX
  8
PLAN_1
 62
     2
  6
CONTINUOUS
 10
-0.302980
 20
-1.120992
  0
VERTEX
  8
PLAN_1
 62
     2
  6
CONTINUOUS
 10
-0.299783
 20
-1.120461
  0
VERTEX
  8
PLAN_1
 62
     2
  6
CONTINUOUS
 10
-0.296587
 20
-1.119929
  0
SEQEND
  8
0
  0
POLYLINE
  8
PLAN_1
 62
     2
  6
CONTINUOUS
 66
     1
 40
0.003000
 41
0.003000
  0
VERTEX
  8
PLAN_1
 62
     2
  6
CONTINUOUS
 10
-0.296587
 20
-1.169469
  0
VERTEX
  8
PLAN_1
 62
     2
  6
CONTINUOUS
 10
-0.294457
 20
-1.169469
  0
VERTEX
  8
PLAN_1
 62
     2
  6
CONTINUOUS
 10
-0.292323
 20
-1.168937
  0
VERTEX
  8
PLAN_1
 62
     2
  6
CONTINUOUS
 10
-0.290193
 20
-1.168406
  0
VERTEX
  8
PLAN_1
 62
     2
  6
CONTINUOUS
 10
-0.288594
 20
-1.167339
  0
VERTEX
  8
PLAN_1
 62
     2
  6
CONTINUOUS
 10
-0.285933
 20
-1.164677
  0
VERTEX
  8
PLAN_1
 62
     2
  6
CONTINUOUS
 10
-0.283803
 20
-1.162012
  0
VERTEX
  8
PLAN_1
 62
     2
  6
CONTINUOUS
 10
-0.282205
 20
-1.158815
  0
VERTEX
  8
PLAN_1
 62
     2
  6
CONTINUOUS
 10
-0.281669
 20
-1.155087
  0
VERTEX
  8
PLAN_1
 62
     2
  6
CONTINUOUS
 10
-0.281138
 20
-1.151890
  0
VERTEX
  8
PLAN_1
 62
     2
  6
CONTINUOUS
 10
-0.281138
 20
-1.148693
  0
VERTEX
  8
PLAN_1
 62
     2
  6
CONTINUOUS
 10
-0.281138
 20
-1.146031
  0
VERTEX
  8
PLAN_1
 62
     2
  6
CONTINUOUS
 10
-0.281669
 20
-1.142303
  0
VERTEX
  8
PLAN_1
 62
     2
  6
CONTINUOUS
 10
-0.282205
 20
-1.139106
  0
VERTEX
  8
PLAN_1
 62
     2
  6
CONTINUOUS
 10
-0.283803
 20
-1.135909
  0
VERTEX
  8
PLAN_1
 62
     2
  6
CONTINUOUS
 10
-0.285933
 20
-1.132713
  0
VERTEX
  8
PLAN_1
 62
     2
  6
CONTINUOUS
 10
-0.288594
 20
-1.130051
  0
VERTEX
  8
PLAN_1
 62
     2
  6
CONTINUOUS
 10
-0.290193
 20
-1.129516
  0
VERTEX
  8
PLAN_1
 62
     2
  6
CONTINUOUS
 10
-0.292323
 20
-1.128453
  0
VERTEX
  8
PLAN_1
 62
     2
  6
CONTINUOUS
 10
-0.294457
 20
-1.127917
  0
VERTEX
  8
PLAN_1
 62
     2
  6
CONTINUOUS
 10
-0.296587
 20
-1.127917
  0
VERTEX
  8
PLAN_1
 62
     2
  6
CONTINUOUS
 10
-0.299248
 20
-1.127917
  0
VERTEX
  8
PLAN_1
 62
     2
  6
CONTINUOUS
 10
-0.301382
 20
-1.128453
  0
VERTEX
  8
PLAN_1
 62
     2
  6
CONTINUOUS
 10
-0.302980
 20
-1.129516
  0
VERTEX
  8
PLAN_1
 62
     2
  6
CONTINUOUS
 10
-0.304579
 20
-1.130051
  0
VERTEX
  8
PLAN_1
 62
     2
  6
CONTINUOUS
 10
-0.307240
 20
-1.132713
  0
VERTEX
  8
PLAN_1
 62
     2
  6
CONTINUOUS
 10
-0.309370
 20
-1.135909
  0
VERTEX
  8
PLAN_1
 62
     2
  6
CONTINUOUS
 10
-0.310969
 20
-1.139106
  0
VERTEX
  8
PLAN_1
 62
     2
  6
CONTINUOUS
 10
-0.312035
 20
-1.142303
  0
VERTEX
  8
PLAN_1
 62
     2
  6
CONTINUOUS
 10
-0.312567
 20
-1.146031
  0
VERTEX
  8
PLAN_1
 62
     2
  6
CONTINUOUS
 10
-0.312567
 20
-1.148693
  0
VERTEX
  8
PLAN_1
 62
     2
  6
CONTINUOUS
 10
-0.312567
 20
-1.151890
  0
VERTEX
  8
PLAN_1
 62
     2
  6
CONTINUOUS
 10
-0.312035
 20
-1.155087
  0
VERTEX
  8
PLAN_1
 62
     2
  6
CONTINUOUS
 10
-0.310969
 20
-1.158815
  0
VERTEX
  8
PLAN_1
 62
     2
  6
CONTINUOUS
 10
-0.309370
 20
-1.162012
  0
VERTEX
  8
PLAN_1
 62
     2
  6
CONTINUOUS
 10
-0.307240
 20
-1.164677
  0
VERTEX
  8
PLAN_1
 62
     2
  6
CONTINUOUS
 10
-0.304579
 20
-1.167339
  0
VERTEX
  8
PLAN_1
 62
     2
  6
CONTINUOUS
 10
-0.302980
 20
-1.168406
  0
VERTEX
  8
PLAN_1
 62
     2
  6
CONTINUOUS
 10
-0.301382
 20
-1.168937
  0
VERTEX
  8
PLAN_1
 62
     2
  6
CONTINUOUS
 10
-0.299248
 20
-1.169469
  0
VERTEX
  8
PLAN_1
 62
     2
  6
CONTINUOUS
 10
-0.296587
 20
-1.169469
  0
SEQEND
  8
0
  0
POLYLINE
  8
PLAN_1
 62
     2
  6
CONTINUOUS
 66
     1
 40
0.003000
 41
0.003000
  0
VERTEX
  8
PLAN_1
 62
     2
  6
CONTINUOUS
 10
-0.225205
 20
-1.175862
  0
VERTEX
  8
PLAN_1
 62
     2
  6
CONTINUOUS
 10
-0.225205
 20
-1.168406
  0
VERTEX
  8
PLAN_1
 62
     2
  6
CONTINUOUS
 10
-0.225736
 20
-1.167874
  0
VERTEX
  8
PLAN_1
 62
     2
  6
CONTINUOUS
 10
-0.227335
 20
-1.170004
  0
VERTEX
  8
PLAN_1
 62
     2
  6
CONTINUOUS
 10
-0.228933
 20
-1.172134
  0
VERTEX
  8
PLAN_1
 62
     2
  6
CONTINUOUS
 10
-0.230531
 20
-1.173732
  0
VERTEX
  8
PLAN_1
 62
     2
  6
CONTINUOUS
 10
-0.232661
 20
-1.175331
  0
VERTEX
  8
PLAN_1
 62
     2
  6
CONTINUOUS
 10
-0.234791
 20
-1.176394
  0
VERTEX
  8
PLAN_1
 62
     2
  6
CONTINUOUS
 10
-0.236925
 20
-1.176929
  0
VERTEX
  8
PLAN_1
 62
     2
  6
CONTINUOUS
 10
-0.240118
 20
-1.177461
  0
VERTEX
  8
PLAN_1
 62
     2
  6
CONTINUOUS
 10
-0.242783
 20
-1.177461
  0
VERTEX
  8
PLAN_1
 62
     2
  6
CONTINUOUS
 10
-0.245980
 20
-1.177461
  0
VERTEX
  8
PLAN_1
 62
     2
  6
CONTINUOUS
 10
-0.249177
 20
-1.176929
  0
VERTEX
  8
PLAN_1
 62
     2
  6
CONTINUOUS
 10
-0.251839
 20
-1.175862
  0
VERTEX
  8
PLAN_1
 62
     2
  6
CONTINUOUS
 10
-0.255035
 20
-1.174264
  0
VERTEX
  8
PLAN_1
 62
     2
  6
CONTINUOUS
 10
-0.257165
 20
-1.171602
  0
VERTEX
  8
PLAN_1
 62
     2
  6
CONTINUOUS
 10
-0.258764
 20
-1.168937
  0
VERTEX
  8
PLAN_1
 62
     2
  6
CONTINUOUS
 10
-0.260362
 20
-1.165209
  0
VERTEX
  8
PLAN_1
 62
     2
  6
CONTINUOUS
 10
-0.260894
 20
-1.160949
  0
VERTEX
  8
PLAN_1
 62
     2
  6
CONTINUOUS
 10
-0.260894
 20
-1.121528
  0
VERTEX
  8
PLAN_1
 62
     2
  6
CONTINUOUS
 10
-0.251307
 20
-1.121528
  0
VERTEX
  8
PLAN_1
 62
     2
  6
CONTINUOUS
 10
-0.251307
 20
-1.157752
  0
VERTEX
  8
PLAN_1
 62
     2
  6
CONTINUOUS
 10
-0.251307
 20
-1.160949
  0
VERTEX
  8
PLAN_1
 62
     2
  6
CONTINUOUS
 10
-0.250776
 20
-1.163610
  0
VERTEX
  8
PLAN_1
 62
     2
  6
CONTINUOUS
 10
-0.249709
 20
-1.165209
  0
VERTEX
  8
PLAN_1
 62
     2
  6
CONTINUOUS
 10
-0.248642
 20
-1.167339
  0
VERTEX
  8
PLAN_1
 62
     2
  6
CONTINUOUS
 10
-0.247043
 20
-1.168406
  0
VERTEX
  8
PLAN_1
 62
     2
  6
CONTINUOUS
 10
-0.244913
 20
-1.168937
  0
VERTEX
  8
PLAN_1
 62
     2
  6
CONTINUOUS
 10
-0.243315
 20
-1.169469
  0
VERTEX
  8
PLAN_1
 62
     2
  6
CONTINUOUS
 10
-0.241185
 20
-1.169469
  0
VERTEX
  8
PLAN_1
 62
     2
  6
CONTINUOUS
 10
-0.236925
 20
-1.169469
  0
VERTEX
  8
PLAN_1
 62
     2
  6
CONTINUOUS
 10
-0.233728
 20
-1.167874
  0
VERTEX
  8
PLAN_1
 62
     2
  6
CONTINUOUS
 10
-0.231063
 20
-1.166276
  0
VERTEX
  8
PLAN_1
 62
     2
  6
CONTINUOUS
 10
-0.228933
 20
-1.163610
  0
VERTEX
  8
PLAN_1
 62
     2
  6
CONTINUOUS
 10
-0.227866
 20
-1.160949
  0
VERTEX
  8
PLAN_1
 62
     2
  6
CONTINUOUS
 10
-0.226803
 20
-1.157752
  0
VERTEX
  8
PLAN_1
 62
     2
  6
CONTINUOUS
 10
-0.226268
 20
-1.154555
  0
VERTEX
  8
PLAN_1
 62
     2
  6
CONTINUOUS
 10
-0.225736
 20
-1.151358
  0
VERTEX
  8
PLAN_1
 62
     2
  6
CONTINUOUS
 10
-0.225736
 20
-1.121528
  0
VERTEX
  8
PLAN_1
 62
     2
  6
CONTINUOUS
 10
-0.216681
 20
-1.121528
  0
VERTEX
  8
PLAN_1
 62
     2
  6
CONTINUOUS
 10
-0.216681
 20
-1.175862
  0
VERTEX
  8
PLAN_1
 62
     2
  6
CONTINUOUS
 10
-0.225205
 20
-1.175862
  0
SEQEND
  8
0
  0
POLYLINE
  8
PLAN_1
 62
     2
  6
CONTINUOUS
 66
     1
 40
0.003000
 41
0.003000
  0
VERTEX
  8
PLAN_1
 62
     2
  6
CONTINUOUS
 10
-0.162878
 20
-1.128984
  0
VERTEX
  8
PLAN_1
 62
     2
  6
CONTINUOUS
 10
-0.162878
 20
-1.164677
  0
VERTEX
  8
PLAN_1
 62
     2
  6
CONTINUOUS
 10
-0.162878
 20
-1.166276
  0
VERTEX
  8
PLAN_1
 62
     2
  6
CONTINUOUS
 10
-0.162346
 20
-1.166807
  0
VERTEX
  8
PLAN_1
 62
     2
  6
CONTINUOUS
 10
-0.161811
 20
-1.167874
  0
VERTEX
  8
PLAN_1
 62
     2
  6
CONTINUOUS
 10
-0.160748
 20
-1.168406
  0
VERTEX
  8
PLAN_1
 62
     2
  6
CONTINUOUS
 10
-0.159681
 20
-1.168406
  0
VERTEX
  8
PLAN_1
 62
     2
  6
CONTINUOUS
 10
-0.159150
 20
-1.168937
  0
VERTEX
  8
PLAN_1
 62
     2
  6
CONTINUOUS
 10
-0.158083
 20
-1.168937
  0
VERTEX
  8
PLAN_1
 62
     2
  6
CONTINUOUS
 10
-0.157551
 20
-1.168937
  0
VERTEX
  8
PLAN_1
 62
     2
  6
CONTINUOUS
 10
-0.154354
 20
-1.168937
  0
VERTEX
  8
PLAN_1
 62
     2
  6
CONTINUOUS
 10
-0.154354
 20
-1.175862
  0
VERTEX
  8
PLAN_1
 62
     2
  6
CONTINUOUS
 10
-0.155421
 20
-1.176394
  0
VERTEX
  8
PLAN_1
 62
     2
  6
CONTINUOUS
 10
-0.156484
 20
-1.176394
  0
VERTEX
  8
PLAN_1
 62
     2
  6
CONTINUOUS
 10
-0.157551
 20
-1.176394
  0
VERTEX
  8
PLAN_1
 62
     2
  6
CONTINUOUS
 10
-0.158614
 20
-1.176394
  0
VERTEX
  8
PLAN_1
 62
     2
  6
CONTINUOUS
 10
-0.159150
 20
-1.176394
  0
VERTEX
  8
PLAN_1
 62
     2
  6
CONTINUOUS
 10
-0.160213
 20
-1.176929
  0
VERTEX
  8
PLAN_1
 62
     2
  6
CONTINUOUS
 10
-0.160748
 20
-1.176929
  0
VERTEX
  8
PLAN_1
 62
     2
  6
CONTINUOUS
 10
-0.163941
 20
-1.176394
  0
VERTEX
  8
PLAN_1
 62
     2
  6
CONTINUOUS
 10
-0.166606
 20
-1.175862
  0
VERTEX
  8
PLAN_1
 62
     2
  6
CONTINUOUS
 10
-0.168736
 20
-1.174799
  0
VERTEX
  8
PLAN_1
 62
     2
  6
CONTINUOUS
 10
-0.169803
 20
-1.173201
  0
VERTEX
  8
PLAN_1
 62
     2
  6
CONTINUOUS
 10
-0.170866
 20
-1.171602
  0
VERTEX
  8
PLAN_1
 62
     2
  6
CONTINUOUS
 10
-0.171402
 20
-1.169469
  0
VERTEX
  8
PLAN_1
 62
     2
  6
CONTINUOUS
 10
-0.171933
 20
-1.167339
  0
VERTEX
  8
PLAN_1
 62
     2
  6
CONTINUOUS
 10
-0.171933
 20
-1.165209
  0
VERTEX
  8
PLAN_1
 62
     2
  6
CONTINUOUS
 10
-0.171933
 20
-1.128984
  0
VERTEX
  8
PLAN_1
 62
     2
  6
CONTINUOUS
 10
-0.179390
 20
-1.128984
  0
VERTEX
  8
PLAN_1
 62
     2
  6
CONTINUOUS
 10
-0.179390
 20
-1.121528
  0
VERTEX
  8
PLAN_1
 62
     2
  6
CONTINUOUS
 10
-0.171933
 20
-1.121528
  0
VERTEX
  8
PLAN_1
 62
     2
  6
CONTINUOUS
 10
-0.171933
 20
-1.106610
  0
VERTEX
  8
PLAN_1
 62
     2
  6
CONTINUOUS
 10
-0.162878
 20
-1.106610
  0
VERTEX
  8
PLAN_1
 62
     2
  6
CONTINUOUS
 10
-0.162878
 20
-1.121528
  0
VERTEX
  8
PLAN_1
 62
     2
  6
CONTINUOUS
 10
-0.154354
 20
-1.121528
  0
VERTEX
  8
PLAN_1
 62
     2
  6
CONTINUOUS
 10
-0.154354
 20
-1.128984
  0
VERTEX
  8
PLAN_1
 62
     2
  6
CONTINUOUS
 10
-0.162878
 20
-1.128984
  0
SEQEND
  8
0
  0
POLYLINE
  8
PLAN_1
 62
     2
  6
CONTINUOUS
 66
     1
 40
0.003000
 41
0.003000
  0
VERTEX
  8
PLAN_1
 62
     2
  6
CONTINUOUS
 10
-0.145299
 20
-1.138039
  0
VERTEX
  8
PLAN_1
 62
     2
  6
CONTINUOUS
 10
-0.144764
 20
-1.133780
  0
VERTEX
  8
PLAN_1
 62
     2
  6
CONTINUOUS
 10
-0.143701
 20
-1.130051
  0
VERTEX
  8
PLAN_1
 62
     2
  6
CONTINUOUS
 10
-0.141571
 20
-1.126854
  0
VERTEX
  8
PLAN_1
 62
     2
  6
CONTINUOUS
 10
-0.138906
 20
-1.124189
  0
VERTEX
  8
PLAN_1
 62
     2
  6
CONTINUOUS
 10
-0.135709
 20
-1.122591
  0
VERTEX
  8
PLAN_1
 62
     2
  6
CONTINUOUS
 10
-0.131980
 20
-1.120992
  0
VERTEX
  8
PLAN_1
 62
     2
  6
CONTINUOUS
 10
-0.127720
 20
-1.120461
  0
VERTEX
  8
PLAN_1
 62
     2
  6
CONTINUOUS
 10
-0.122925
 20
-1.119929
  0
VERTEX
  8
PLAN_1
 62
     2
  6
CONTINUOUS
 10
-0.120795
 20
-1.119929
  0
VERTEX
  8
PLAN_1
 62
     2
  6
CONTINUOUS
 10
-0.118130
 20
-1.120461
  0
VERTEX
  8
PLAN_1
 62
     2
  6
CONTINUOUS
 10
-0.114933
 20
-1.120992
  0
VERTEX
  8
PLAN_1
 62
     2
  6
CONTINUOUS
 10
-0.111205
 20
-1.122591
  0
VERTEX
  8
PLAN_1
 62
     2
  6
CONTINUOUS
 10
-0.108008
 20
-1.124189
  0
VERTEX
  8
PLAN_1
 62
     2
  6
CONTINUOUS
 10
-0.105346
 20
-1.126854
  0
VERTEX
  8
PLAN_1
 62
     2
  6
CONTINUOUS
 10
-0.104280
 20
-1.128453
  0
VERTEX
  8
PLAN_1
 62
     2
  6
CONTINUOUS
 10
-0.103748
 20
-1.130583
  0
VERTEX
  8
PLAN_1
 62
     2
  6
CONTINUOUS
 10
-0.103213
 20
-1.132713
  0
VERTEX
  8
PLAN_1
 62
     2
  6
CONTINUOUS
 10
-0.102681
 20
-1.135378
  0
VERTEX
  8
PLAN_1
 62
     2
  6
CONTINUOUS
 10
-0.102681
 20
-1.166807
  0
VERTEX
  8
PLAN_1
 62
     2
  6
CONTINUOUS
 10
-0.102681
 20
-1.167339
  0
VERTEX
  8
PLAN_1
 62
     2
  6
CONTINUOUS
 10
-0.102681
 20
-1.167874
  0
VERTEX
  8
PLAN_1
 62
     2
  6
CONTINUOUS
 10
-0.102150
 20
-1.168406
  0
VERTEX
  8
PLAN_1
 62
     2
  6
CONTINUOUS
 10
-0.102150
 20
-1.168937
  0
VERTEX
  8
PLAN_1
 62
     2
  6
CONTINUOUS
 10
-0.101614
 20
-1.169469
  0
VERTEX
  8
PLAN_1
 62
     2
  6
CONTINUOUS
 10
-0.101083
 20
-1.169469
  0
VERTEX
  8
PLAN_1
 62
     2
  6
CONTINUOUS
 10
-0.100551
 20
-1.170004
  0
VERTEX
  8
PLAN_1
 62
     2
  6
CONTINUOUS
 10
-0.100020
 20
-1.170004
  0
VERTEX
  8
PLAN_1
 62
     2
  6
CONTINUOUS
 10
-0.099484
 20
-1.170004
  0
VERTEX
  8
PLAN_1
 62
     2
  6
CONTINUOUS
 10
-0.098953
 20
-1.170004
  0
VERTEX
  8
PLAN_1
 62
     2
  6
CONTINUOUS
 10
-0.098953
 20
-1.169469
  0
VERTEX
  8
PLAN_1
 62
     2
  6
CONTINUOUS
 10
-0.098421
 20
-1.169469
  0
VERTEX
  8
PLAN_1
 62
     2
  6
CONTINUOUS
 10
-0.097886
 20
-1.169469
  0
VERTEX
  8
PLAN_1
 62
     2
  6
CONTINUOUS
 10
-0.097354
 20
-1.169469
  0
VERTEX
  8
PLAN_1
 62
     2
  6
CONTINUOUS
 10
-0.096823
 20
-1.169469
  0
VERTEX
  8
PLAN_1
 62
     2
  6
CONTINUOUS
 10
-0.096823
 20
-1.175862
  0
VERTEX
  8
PLAN_1
 62
     2
  6
CONTINUOUS
 10
-0.097354
 20
-1.176394
  0
VERTEX
  8
PLAN_1
 62
     2
  6
CONTINUOUS
 10
-0.097886
 20
-1.176394
  0
VERTEX
  8
PLAN_1
 62
     2
  6
CONTINUOUS
 10
-0.098421
 20
-1.176394
  0
VERTEX
  8
PLAN_1
 62
     2
  6
CONTINUOUS
 10
-0.098953
 20
-1.176929
  0
VERTEX
  8
PLAN_1
 62
     2
  6
CONTINUOUS
 10
-0.099484
 20
-1.176929
  0
VERTEX
  8
PLAN_1
 62
     2
  6
CONTINUOUS
 10
-0.100551
 20
-1.176929
  0
VERTEX
  8
PLAN_1
 62
     2
  6
CONTINUOUS
 10
-0.101083
 20
-1.176929
  0
VERTEX
  8
PLAN_1
 62
     2
  6
CONTINUOUS
 10
-0.101614
 20
-1.176929
  0
VERTEX
  8
PLAN_1
 62
     2
  6
CONTINUOUS
 10
-0.104280
 20
-1.176929
  0
VERTEX
  8
PLAN_1
 62
     2
  6
CONTINUOUS
 10
-0.106945
 20
-1.176394
  0
VERTEX
  8
PLAN_1
 62
     2
  6
CONTINUOUS
 10
-0.108539
 20
-1.175331
  0
VERTEX
  8
PLAN_1
 62
     2
  6
CONTINUOUS
 10
-0.109606
 20
-1.174264
  0
VERTEX
  8
PLAN_1
 62
     2
  6
CONTINUOUS
 10
-0.110673
 20
-1.173201
  0
VERTEX
  8
PLAN_1
 62
     2
  6
CONTINUOUS
 10
-0.111205
 20
-1.171602
  0
VERTEX
  8
PLAN_1
 62
     2
  6
CONTINUOUS
 10
-0.111205
 20
-1.170535
  0
VERTEX
  8
PLAN_1
 62
     2
  6
CONTINUOUS
 10
-0.111205
 20
-1.168937
  0
VERTEX
  8
PLAN_1
 62
     2
  6
CONTINUOUS
 10
-0.112803
 20
-1.170004
  0
VERTEX
  8
PLAN_1
 62
     2
  6
CONTINUOUS
 10
-0.114402
 20
-1.171602
  0
VERTEX
  8
PLAN_1
 62
     2
  6
CONTINUOUS
 10
-0.116531
 20
-1.173201
  0
VERTEX
  8
PLAN_1
 62
     2
  6
CONTINUOUS
 10
-0.118661
 20
-1.174799
  0
VERTEX
  8
PLAN_1
 62
     2
  6
CONTINUOUS
 10
-0.121327
 20
-1.175862
  0
VERTEX
  8
PLAN_1
 62
     2
  6
CONTINUOUS
 10
-0.123988
 20
-1.176929
  0
VERTEX
  8
PLAN_1
 62
     2
  6
CONTINUOUS
 10
-0.127185
 20
-1.177461
  0
VERTEX
  8
PLAN_1
 62
     2
  6
CONTINUOUS
 10
-0.130913
 20
-1.177461
  0
VERTEX
  8
PLAN_1
 62
     2
  6
CONTINUOUS
 10
-0.134646
 20
-1.177461
  0
VERTEX
  8
PLAN_1
 62
     2
  6
CONTINUOUS
 10
-0.137839
 20
-1.176394
  0
VERTEX
  8
PLAN_1
 62
     2
  6
CONTINUOUS
 10
-0.141035
 20
-1.175331
  0
VERTEX
  8
PLAN_1
 62
     2
  6
CONTINUOUS
 10
-0.143165
 20
-1.173201
  0
VERTEX
  8
PLAN_1
 62
     2
  6
CONTINUOUS
 10
-0.145299
 20
-1.171067
  0
VERTEX
  8
PLAN_1
 62
     2
  6
CONTINUOUS
 10
-0.146898
 20
-1.168406
  0
VERTEX
  8
PLAN_1
 62
     2
  6
CONTINUOUS
 10
-0.147961
 20
-1.165209
  0
VERTEX
  8
PLAN_1
 62
     2
  6
CONTINUOUS
 10
-0.147961
 20
-1.162012
  0
VERTEX
  8
PLAN_1
 62
     2
  6
CONTINUOUS
 10
-0.147961
 20
-1.159882
  0
VERTEX
  8
PLAN_1
 62
     2
  6
CONTINUOUS
 10
-0.147961
 20
-1.157752
  0
VERTEX
  8
PLAN_1
 62
     2
  6
CONTINUOUS
 10
-0.146898
 20
-1.155087
  0
VERTEX
  8
PLAN_1
 62
     2
  6
CONTINUOUS
 10
-0.145831
 20
-1.152425
  0
VERTEX
  8
PLAN_1
 62
     2
  6
CONTINUOUS
 10
-0.143701
 20
-1.149760
  0
VERTEX
  8
PLAN_1
 62
     2
  6
CONTINUOUS
 10
-0.140504
 20
-1.147630
  0
VERTEX
  8
PLAN_1
 62
     2
  6
CONTINUOUS
 10
-0.136776
 20
-1.146031
  0
VERTEX
  8
PLAN_1
 62
     2
  6
CONTINUOUS
 10
-0.131449
 20
-1.144965
  0
VERTEX
  8
PLAN_1
 62
     2
  6
CONTINUOUS
 10
-0.116531
 20
-1.142835
  0
VERTEX
  8
PLAN_1
 62
     2
  6
CONTINUOUS
 10
-0.116000
 20
-1.142835
  0
VERTEX
  8
PLAN_1
 62
     2
  6
CONTINUOUS
 10
-0.114933
 20
-1.142835
  0
VERTEX
  8
PLAN_1
 62
     2
  6
CONTINUOUS
 10
-0.113870
 20
-1.142303
  0
VERTEX
  8
PLAN_1
 62
     2
  6
CONTINUOUS
 10
-0.113335
 20
-1.141768
  0
VERTEX
  8
PLAN_1
 62
     2
  6
CONTINUOUS
 10
-0.112803
 20
-1.140705
  0
VERTEX
  8
PLAN_1
 62
     2
  6
CONTINUOUS
 10
-0.112272
 20
-1.139638
  0
VERTEX
  8
PLAN_1
 62
     2
  6
CONTINUOUS
 10
-0.111736
 20
-1.138575
  0
VERTEX
  8
PLAN_1
 62
     2
  6
CONTINUOUS
 10
-0.111736
 20
-1.136441
  0
VERTEX
  8
PLAN_1
 62
     2
  6
CONTINUOUS
 10
-0.111736
 20
-1.134311
  0
VERTEX
  8
PLAN_1
 62
     2
  6
CONTINUOUS
 10
-0.112803
 20
-1.132713
  0
VERTEX
  8
PLAN_1
 62
     2
  6
CONTINUOUS
 10
-0.113335
 20
-1.131114
  0
VERTEX
  8
PLAN_1
 62
     2
  6
CONTINUOUS
 10
-0.114933
 20
-1.130051
  0
VERTEX
  8
PLAN_1
 62
     2
  6
CONTINUOUS
 10
-0.116531
 20
-1.128984
  0
VERTEX
  8
PLAN_1
 62
     2
  6
CONTINUOUS
 10
-0.119197
 20
-1.128453
  0
VERTEX
  8
PLAN_1
 62
     2
  6
CONTINUOUS
 10
-0.121327
 20
-1.127917
  0
VERTEX
  8
PLAN_1
 62
     2
  6
CONTINUOUS
 10
-0.124524
 20
-1.127917
  0
VERTEX
  8
PLAN_1
 62
     2
  6
CONTINUOUS
 10
-0.128252
 20
-1.127917
  0
VERTEX
  8
PLAN_1
 62
     2
  6
CONTINUOUS
 10
-0.130913
 20
-1.128984
  0
VERTEX
  8
PLAN_1
 62
     2
  6
CONTINUOUS
 10
-0.133047
 20
-1.130051
  0
VERTEX
  8
PLAN_1
 62
     2
  6
CONTINUOUS
 10
-0.134646
 20
-1.131114
  0
VERTEX
  8
PLAN_1
 62
     2
  6
CONTINUOUS
 10
-0.135709
 20
-1.133248
  0
VERTEX
  8
PLAN_1
 62
     2
  6
CONTINUOUS
 10
-0.136240
 20
-1.134843
  0
VERTEX
  8
PLAN_1
 62
     2
  6
CONTINUOUS
 10
-0.136776
 20
-1.136441
  0
VERTEX
  8
PLAN_1
 62
     2
  6
CONTINUOUS
 10
-0.137307
 20
-1.138039
  0
VERTEX
  8
PLAN_1
 62
     2
  6
CONTINUOUS
 10
-0.145299
 20
-1.138039
  0
SEQEND
  8
0
  0
POLYLINE
  8
PLAN_1
 62
     2
  6
CONTINUOUS
 66
     1
 40
0.003000
 41
0.003000
  0
VERTEX
  8
PLAN_1
 62
     2
  6
CONTINUOUS
 10
-0.111736
 20
-1.148161
  0
VERTEX
  8
PLAN_1
 62
     2
  6
CONTINUOUS
 10
-0.112803
 20
-1.148693
  0
VERTEX
  8
PLAN_1
 62
     2
  6
CONTINUOUS
 10
-0.113335
 20
-1.149228
  0
VERTEX
  8
PLAN_1
 62
     2
  6
CONTINUOUS
 10
-0.114402
 20
-1.149228
  0
VERTEX
  8
PLAN_1
 62
     2
  6
CONTINUOUS
 10
-0.116000
 20
-1.149760
  0
VERTEX
  8
PLAN_1
 62
     2
  6
CONTINUOUS
 10
-0.117598
 20
-1.150291
  0
VERTEX
  8
PLAN_1
 62
     2
  6
CONTINUOUS
 10
-0.120260
 20
-1.150827
  0
VERTEX
  8
PLAN_1
 62
     2
  6
CONTINUOUS
 10
-0.123457
 20
-1.151358
  0
VERTEX
  8
PLAN_1
 62
     2
  6
CONTINUOUS
 10
-0.127185
 20
-1.151890
  0
VERTEX
  8
PLAN_1
 62
     2
  6
CONTINUOUS
 10
-0.128783
 20
-1.151890
  0
VERTEX
  8
PLAN_1
 62
     2
  6
CONTINUOUS
 10
-0.130913
 20
-1.152425
  0
VERTEX
  8
PLAN_1
 62
     2
  6
CONTINUOUS
 10
-0.132512
 20
-1.152957
  0
VERTEX
  8
PLAN_1
 62
     2
  6
CONTINUOUS
 10
-0.134646
 20
-1.154024
  0
VERTEX
  8
PLAN_1
 62
     2
  6
CONTINUOUS
 10
-0.136240
 20
-1.155087
  0
VERTEX
  8
PLAN_1
 62
     2
  6
CONTINUOUS
 10
-0.137307
 20
-1.156154
  0
VERTEX
  8
PLAN_1
 62
     2
  6
CONTINUOUS
 10
-0.138374
 20
-1.158283
  0
VERTEX
  8
PLAN_1
 62
     2
  6
CONTINUOUS
 10
-0.138906
 20
-1.160413
  0
VERTEX
  8
PLAN_1
 62
     2
  6
CONTINUOUS
 10
-0.138374
 20
-1.162543
  0
VERTEX
  8
PLAN_1
 62
     2
  6
CONTINUOUS
 10
-0.138374
 20
-1.164677
  0
VERTEX
  8
PLAN_1
 62
     2
  6
CONTINUOUS
 10
-0.137307
 20
-1.166276
  0
VERTEX
  8
PLAN_1
 62
     2
  6
CONTINUOUS
 10
-0.136240
 20
-1.167339
  0
VERTEX
  8
PLAN_1
 62
     2
  6
CONTINUOUS
 10
-0.135177
 20
-1.168406
  0
VERTEX
  8
PLAN_1
 62
     2
  6
CONTINUOUS
 10
-0.133047
 20
-1.169469
  0
VERTEX
  8
PLAN_1
 62
     2
  6
CONTINUOUS
 10
-0.131449
 20
-1.170004
  0
VERTEX
  8
PLAN_1
 62
     2
  6
CONTINUOUS
 10
-0.128783
 20
-1.170004
  0
VERTEX
  8
PLAN_1
 62
     2
  6
CONTINUOUS
 10
-0.125587
 20
-1.170004
  0
VERTEX
  8
PLAN_1
 62
     2
  6
CONTINUOUS
 10
-0.122390
 20
-1.168937
  0
VERTEX
  8
PLAN_1
 62
     2
  6
CONTINUOUS
 10
-0.119728
 20
-1.167874
  0
VERTEX
  8
PLAN_1
 62
     2
  6
CONTINUOUS
 10
-0.117063
 20
-1.166276
  0
VERTEX
  8
PLAN_1
 62
     2
  6
CONTINUOUS
 10
-0.114933
 20
-1.164677
  0
VERTEX
  8
PLAN_1
 62
     2
  6
CONTINUOUS
 10
-0.113335
 20
-1.162543
  0
VERTEX
  8
PLAN_1
 62
     2
  6
CONTINUOUS
 10
-0.112272
 20
-1.159882
  0
VERTEX
  8
PLAN_1
 62
     2
  6
CONTINUOUS
 10
-0.111736
 20
-1.157217
  0
VERTEX
  8
PLAN_1
 62
     2
  6
CONTINUOUS
 10
-0.111736
 20
-1.148161
  0
SEQEND
  8
0
  0
POLYLINE
  8
PLAN_1
 62
     2
  6
CONTINUOUS
 66
     1
 40
0.003000
 41
0.003000
  0
VERTEX
  8
PLAN_1
 62
     2
  6
CONTINUOUS
 10
-0.077110
 20
-1.175862
  0
VERTEX
  8
PLAN_1
 62
     2
  6
CONTINUOUS
 10
-0.086169
 20
-1.175862
  0
VERTEX
  8
PLAN_1
 62
     2
  6
CONTINUOUS
 10
-0.086169
 20
-1.121528
  0
VERTEX
  8
PLAN_1
 62
     2
  6
CONTINUOUS
 10
-0.077646
 20
-1.121528
  0
VERTEX
  8
PLAN_1
 62
     2
  6
CONTINUOUS
 10
-0.077646
 20
-1.130583
  0
VERTEX
  8
PLAN_1
 62
     2
  6
CONTINUOUS
 10
-0.077110
 20
-1.130583
  0
VERTEX
  8
PLAN_1
 62
     2
  6
CONTINUOUS
 10
-0.075512
 20
-1.128453
  0
VERTEX
  8
PLAN_1
 62
     2
  6
CONTINUOUS
 10
-0.074449
 20
-1.126323
  0
VERTEX
  8
PLAN_1
 62
     2
  6
CONTINUOUS
 10
-0.072319
 20
-1.124724
  0
VERTEX
  8
PLAN_1
 62
     2
  6
CONTINUOUS
 10
-0.070720
 20
-1.123126
  0
VERTEX
  8
PLAN_1
 62
     2
  6
CONTINUOUS
 10
-0.068587
 20
-1.121528
  0
VERTEX
  8
PLAN_1
 62
     2
  6
CONTINUOUS
 10
-0.066457
 20
-1.120992
  0
VERTEX
  8
PLAN_1
 62
     2
  6
CONTINUOUS
 10
-0.064327
 20
-1.120461
  0
VERTEX
  8
PLAN_1
 62
     2
  6
CONTINUOUS
 10
-0.061661
 20
-1.119929
  0
VERTEX
  8
PLAN_1
 62
     2
  6
CONTINUOUS
 10
-0.061130
 20
-1.119929
  0
VERTEX
  8
PLAN_1
 62
     2
  6
CONTINUOUS
 10
-0.060598
 20
-1.119929
  0
VERTEX
  8
PLAN_1
 62
     2
  6
CONTINUOUS
 10
-0.060063
 20
-1.120461
  0
VERTEX
  8
PLAN_1
 62
     2
  6
CONTINUOUS
 10
-0.059531
 20
-1.120461
  0
VERTEX
  8
PLAN_1
 62
     2
  6
CONTINUOUS
 10
-0.059531
 20
-1.130051
  0
VERTEX
  8
PLAN_1
 62
     2
  6
CONTINUOUS
 10
-0.062728
 20
-1.130051
  0
VERTEX
  8
PLAN_1
 62
     2
  6
CONTINUOUS
 10
-0.065925
 20
-1.130051
  0
VERTEX
  8
PLAN_1
 62
     2
  6
CONTINUOUS
 10
-0.068587
 20
-1.131114
  0
VERTEX
  8
PLAN_1
 62
     2
  6
CONTINUOUS
 10
-0.071252
 20
-1.132181
  0
VERTEX
  8
PLAN_1
 62
     2
  6
CONTINUOUS
 10
-0.072850
 20
-1.134311
  0
VERTEX
  8
PLAN_1
 62
     2
  6
CONTINUOUS
 10
-0.074980
 20
-1.136441
  0
VERTEX
  8
PLAN_1
 62
     2
  6
CONTINUOUS
 10
-0.076047
 20
-1.138575
  0
VERTEX
  8
PLAN_1
 62
     2
  6
CONTINUOUS
 10
-0.076579
 20
-1.141768
  0
VERTEX
  8
PLAN_1
 62
     2
  6
CONTINUOUS
 10
-0.077110
 20
-1.144433
  0
VERTEX
  8
PLAN_1
 62
     2
  6
CONTINUOUS
 10
-0.077110
 20
-1.175862
  0
SEQEND
  8
0
  0
POLYLINE
  8
PLAN_1
 62
     2
  6
CONTINUOUS
 66
     1
 40
0.003000
 41
0.003000
  0
VERTEX
  8
PLAN_1
 62
     2
  6
CONTINUOUS
 10
-0.054205
 20
-1.138039
  0
VERTEX
  8
PLAN_1
 62
     2
  6
CONTINUOUS
 10
-0.053673
 20
-1.133780
  0
VERTEX
  8
PLAN_1
 62
     2
  6
CONTINUOUS
 10
-0.052075
 20
-1.130051
  0
VERTEX
  8
PLAN_1
 62
     2
  6
CONTINUOUS
 10
-0.049945
 20
-1.126854
  0
VERTEX
  8
PLAN_1
 62
     2
  6
CONTINUOUS
 10
-0.047811
 20
-1.124189
  0
VERTEX
  8
PLAN_1
 62
     2
  6
CONTINUOUS
 10
-0.044618
 20
-1.122591
  0
VERTEX
  8
PLAN_1
 62
     2
  6
CONTINUOUS
 10
-0.040354
 20
-1.120992
  0
VERTEX
  8
PLAN_1
 62
     2
  6
CONTINUOUS
 10
-0.036094
 20
-1.120461
  0
VERTEX
  8
PLAN_1
 62
     2
  6
CONTINUOUS
 10
-0.031299
 20
-1.119929
  0
VERTEX
  8
PLAN_1
 62
     2
  6
CONTINUOUS
 10
-0.029169
 20
-1.119929
  0
VERTEX
  8
PLAN_1
 62
     2
  6
CONTINUOUS
 10
-0.026504
 20
-1.120461
  0
VERTEX
  8
PLAN_1
 62
     2
  6
CONTINUOUS
 10
-0.023307
 20
-1.120992
  0
VERTEX
  8
PLAN_1
 62
     2
  6
CONTINUOUS
 10
-0.019579
 20
-1.122591
  0
VERTEX
  8
PLAN_1
 62
     2
  6
CONTINUOUS
 10
-0.016382
 20
-1.124189
  0
VERTEX
  8
PLAN_1
 62
     2
  6
CONTINUOUS
 10
-0.013720
 20
-1.126854
  0
VERTEX
  8
PLAN_1
 62
     2
  6
CONTINUOUS
 10
-0.012654
 20
-1.128453
  0
VERTEX
  8
PLAN_1
 62
     2
  6
CONTINUOUS
 10
-0.012122
 20
-1.130583
  0
VERTEX
  8
PLAN_1
 62
     2
  6
CONTINUOUS
 10
-0.011591
 20
-1.132713
  0
VERTEX
  8
PLAN_1
 62
     2
  6
CONTINUOUS
 10
-0.011055
 20
-1.135378
  0
VERTEX
  8
PLAN_1
 62
     2
  6
CONTINUOUS
 10
-0.011055
 20
-1.166807
  0
VERTEX
  8
PLAN_1
 62
     2
  6
CONTINUOUS
 10
-0.011055
 20
-1.167339
  0
VERTEX
  8
PLAN_1
 62
     2
  6
CONTINUOUS
 10
-0.011055
 20
-1.167874
  0
VERTEX
  8
PLAN_1
 62
     2
  6
CONTINUOUS
 10
-0.011055
 20
-1.168406
  0
VERTEX
  8
PLAN_1
 62
     2
  6
CONTINUOUS
 10
-0.010524
 20
-1.168937
  0
VERTEX
  8
PLAN_1
 62
     2
  6
CONTINUOUS
 10
-0.009992
 20
-1.169469
  0
VERTEX
  8
PLAN_1
 62
     2
  6
CONTINUOUS
 10
-0.009457
 20
-1.169469
  0
VERTEX
  8
PLAN_1
 62
     2
  6
CONTINUOUS
 10
-0.008925
 20
-1.170004
  0
VERTEX
  8
PLAN_1
 62
     2
  6
CONTINUOUS
 10
-0.008394
 20
-1.170004
  0
VERTEX
  8
PLAN_1
 62
     2
  6
CONTINUOUS
 10
-0.007858
 20
-1.170004
  0
VERTEX
  8
PLAN_1
 62
     2
  6
CONTINUOUS
 10
-0.007327
 20
-1.169469
  0
VERTEX
  8
PLAN_1
 62
     2
  6
CONTINUOUS
 10
-0.006795
 20
-1.169469
  0
VERTEX
  8
PLAN_1
 62
     2
  6
CONTINUOUS
 10
-0.006260
 20
-1.169469
  0
VERTEX
  8
PLAN_1
 62
     2
  6
CONTINUOUS
 10
-0.005728
 20
-1.169469
  0
VERTEX
  8
PLAN_1
 62
     2
  6
CONTINUOUS
 10
-0.005197
 20
-1.169469
  0
VERTEX
  8
PLAN_1
 62
     2
  6
CONTINUOUS
 10
-0.005197
 20
-1.175862
  0
VERTEX
  8
PLAN_1
 62
     2
  6
CONTINUOUS
 10
-0.005728
 20
-1.176394
  0
VERTEX
  8
PLAN_1
 62
     2
  6
CONTINUOUS
 10
-0.006260
 20
-1.176394
  0
VERTEX
  8
PLAN_1
 62
     2
  6
CONTINUOUS
 10
-0.006795
 20
-1.176394
  0
VERTEX
  8
PLAN_1
 62
     2
  6
CONTINUOUS
 10
-0.007327
 20
-1.176929
  0
VERTEX
  8
PLAN_1
 62
     2
  6
CONTINUOUS
 10
-0.008394
 20
-1.176929
  0
VERTEX
  8
PLAN_1
 62
     2
  6
CONTINUOUS
 10
-0.008925
 20
-1.176929
  0
VERTEX
  8
PLAN_1
 62
     2
  6
CONTINUOUS
 10
-0.009457
 20
-1.176929
  0
VERTEX
  8
PLAN_1
 62
     2
  6
CONTINUOUS
 10
-0.009992
 20
-1.176929
  0
VERTEX
  8
PLAN_1
 62
     2
  6
CONTINUOUS
 10
-0.013185
 20
-1.176929
  0
VERTEX
  8
PLAN_1
 62
     2
  6
CONTINUOUS
 10
-0.015319
 20
-1.176394
  0
VERTEX
  8
PLAN_1
 62
     2
  6
CONTINUOUS
 10
-0.016917
 20
-1.175331
  0
VERTEX
  8
PLAN_1
 62
     2
  6
CONTINUOUS
 10
-0.017980
 20
-1.174264
  0
VERTEX
  8
PLAN_1
 62
     2
  6
CONTINUOUS
 10
-0.019047
 20
-1.173201
  0
VERTEX
  8
PLAN_1
 62
     2
  6
CONTINUOUS
 10
-0.019579
 20
-1.171602
  0
VERTEX
  8
PLAN_1
 62
     2
  6
CONTINUOUS
 10
-0.019579
 20
-1.170535
  0
VERTEX
  8
PLAN_1
 62
     2
  6
CONTINUOUS
 10
-0.020110
 20
-1.168937
  0
VERTEX
  8
PLAN_1
 62
     2
  6
CONTINUOUS
 10
-0.021177
 20
-1.170004
  0
VERTEX
  8
PLAN_1
 62
     2
  6
CONTINUOUS
 10
-0.022776
 20
-1.171602
  0
VERTEX
  8
PLAN_1
 62
     2
  6
CONTINUOUS
 10
-0.024906
 20
-1.173201
  0
VERTEX
  8
PLAN_1
 62
     2
  6
CONTINUOUS
 10
-0.027035
 20
-1.174799
  0
VERTEX
  8
PLAN_1
 62
     2
  6
CONTINUOUS
 10
-0.029701
 20
-1.175862
  0
VERTEX
  8
PLAN_1
 62
     2
  6
CONTINUOUS
 10
-0.032366
 20
-1.176929
  0
VERTEX
  8
PLAN_1
 62
     2
  6
CONTINUOUS
 10
-0.036094
 20
-1.177461
  0
VERTEX
  8
PLAN_1
 62
     2
  6
CONTINUOUS
 10
-0.039823
 20
-1.177461
  0
VERTEX
  8
PLAN_1
 62
     2
  6
CONTINUOUS
 10
-0.043020
 20
-1.177461
  0
VERTEX
  8
PLAN_1
 62
     2
  6
CONTINUOUS
 10
-0.046217
 20
-1.176394
  0
VERTEX
  8
PLAN_1
 62
     2
  6
CONTINUOUS
 10
-0.049409
 20
-1.175331
  0
VERTEX
  8
PLAN_1
 62
     2
  6
CONTINUOUS
 10
-0.052075
 20
-1.173201
  0
VERTEX
  8
PLAN_1
 62
     2
  6
CONTINUOUS
 10
-0.053673
 20
-1.171067
  0
VERTEX
  8
PLAN_1
 62
     2
  6
CONTINUOUS
 10
-0.055272
 20
-1.168406
  0
VERTEX
  8
PLAN_1
 62
     2
  6
CONTINUOUS
 10
-0.056335
 20
-1.165209
  0
VERTEX
  8
PLAN_1
 62
     2
  6
CONTINUOUS
 10
-0.056870
 20
-1.162012
  0
VERTEX
  8
PLAN_1
 62
     2
  6
CONTINUOUS
 10
-0.056335
 20
-1.159882
  0
VERTEX
  8
PLAN_1
 62
     2
  6
CONTINUOUS
 10
-0.056335
 20
-1.157752
  0
VERTEX
  8
PLAN_1
 62
     2
  6
CONTINUOUS
 10
-0.055272
 20
-1.155087
  0
VERTEX
  8
PLAN_1
 62
     2
  6
CONTINUOUS
 10
-0.054205
 20
-1.152425
  0
VERTEX
  8
PLAN_1
 62
     2
  6
CONTINUOUS
 10
-0.052075
 20
-1.149760
  0
VERTEX
  8
PLAN_1
 62
     2
  6
CONTINUOUS
 10
-0.048878
 20
-1.147630
  0
VERTEX
  8
PLAN_1
 62
     2
  6
CONTINUOUS
 10
-0.045150
 20
-1.146031
  0
VERTEX
  8
PLAN_1
 62
     2
  6
CONTINUOUS
 10
-0.040354
 20
-1.144965
  0
VERTEX
  8
PLAN_1
 62
     2
  6
CONTINUOUS
 10
-0.024906
 20
-1.142835
  0
VERTEX
  8
PLAN_1
 62
     2
  6
CONTINUOUS
 10
-0.024374
 20
-1.142835
  0
VERTEX
  8
PLAN_1
 62
     2
  6
CONTINUOUS
 10
-0.023307
 20
-1.142835
  0
VERTEX
  8
PLAN_1
 62
     2
  6
CONTINUOUS
 10
-0.022776
 20
-1.142303
  0
VERTEX
  8
PLAN_1
 62
     2
  6
CONTINUOUS
 10
-0.021709
 20
-1.141768
  0
VERTEX
  8
PLAN_1
 62
     2
  6
CONTINUOUS
 10
-0.021177
 20
-1.140705
  0
VERTEX
  8
PLAN_1
 62
     2
  6
CONTINUOUS
 10
-0.020646
 20
-1.139638
  0
VERTEX
  8
PLAN_1
 62
     2
  6
CONTINUOUS
 10
-0.020110
 20
-1.138575
  0
VERTEX
  8
PLAN_1
 62
     2
  6
CONTINUOUS
 10
-0.020110
 20
-1.136441
  0
VERTEX
  8
PLAN_1
 62
     2
  6
CONTINUOUS
 10
-0.020646
 20
-1.134311
  0
VERTEX
  8
PLAN_1
 62
     2
  6
CONTINUOUS
 10
-0.021177
 20
-1.132713
  0
VERTEX
  8
PLAN_1
 62
     2
  6
CONTINUOUS
 10
-0.022244
 20
-1.131114
  0
VERTEX
  8
PLAN_1
 62
     2
  6
CONTINUOUS
 10
-0.023307
 20
-1.130051
  0
VERTEX
  8
PLAN_1
 62
     2
  6
CONTINUOUS
 10
-0.025441
 20
-1.128984
  0
VERTEX
  8
PLAN_1
 62
     2
  6
CONTINUOUS
 10
-0.027571
 20
-1.128453
  0
VERTEX
  8
PLAN_1
 62
     2
  6
CONTINUOUS
 10
-0.030232
 20
-1.127917
  0
VERTEX
  8
PLAN_1
 62
     2
  6
CONTINUOUS
 10
-0.032898
 20
-1.127917
  0
VERTEX
  8
PLAN_1
 62
     2
  6
CONTINUOUS
 10
-0.036626
 20
-1.127917
  0
VERTEX
  8
PLAN_1
 62
     2
  6
CONTINUOUS
 10
-0.039291
 20
-1.128984
  0
VERTEX
  8
PLAN_1
 62
     2
  6
CONTINUOUS
 10
-0.041421
 20
-1.130051
  0
VERTEX
  8
PLAN_1
 62
     2
  6
CONTINUOUS
 10
-0.043020
 20
-1.131114
  0
VERTEX
  8
PLAN_1
 62
     2
  6
CONTINUOUS
 10
-0.044083
 20
-1.133248
  0
VERTEX
  8
PLAN_1
 62
     2
  6
CONTINUOUS
 10
-0.044618
 20
-1.134843
  0
VERTEX
  8
PLAN_1
 62
     2
  6
CONTINUOUS
 10
-0.045150
 20
-1.136441
  0
VERTEX
  8
PLAN_1
 62
     2
  6
CONTINUOUS
 10
-0.045681
 20
-1.138039
  0
VERTEX
  8
PLAN_1
 62
     2
  6
CONTINUOUS
 10
-0.054205
 20
-1.138039
  0
SEQEND
  8
0
  0
POLYLINE
  8
PLAN_1
 62
     2
  6
CONTINUOUS
 66
     1
 40
0.003000
 41
0.003000
  0
VERTEX
  8
PLAN_1
 62
     2
  6
CONTINUOUS
 10
-0.020646
 20
-1.148161
  0
VERTEX
  8
PLAN_1
 62
     2
  6
CONTINUOUS
 10
-0.021177
 20
-1.148693
  0
VERTEX
  8
PLAN_1
 62
     2
  6
CONTINUOUS
 10
-0.021709
 20
-1.149228
  0
VERTEX
  8
PLAN_1
 62
     2
  6
CONTINUOUS
 10
-0.022776
 20
-1.149228
  0
VERTEX
  8
PLAN_1
 62
     2
  6
CONTINUOUS
 10
-0.024374
 20
-1.149760
  0
VERTEX
  8
PLAN_1
 62
     2
  6
CONTINUOUS
 10
-0.025972
 20
-1.150291
  0
VERTEX
  8
PLAN_1
 62
     2
  6
CONTINUOUS
 10
-0.028634
 20
-1.150827
  0
VERTEX
  8
PLAN_1
 62
     2
  6
CONTINUOUS
 10
-0.031831
 20
-1.151358
  0
VERTEX
  8
PLAN_1
 62
     2
  6
CONTINUOUS
 10
-0.035559
 20
-1.151890
  0
VERTEX
  8
PLAN_1
 62
     2
  6
CONTINUOUS
 10
-0.037157
 20
-1.151890
  0
VERTEX
  8
PLAN_1
 62
     2
  6
CONTINUOUS
 10
-0.039291
 20
-1.152425
  0
VERTEX
  8
PLAN_1
 62
     2
  6
CONTINUOUS
 10
-0.041421
 20
-1.152957
  0
VERTEX
  8
PLAN_1
 62
     2
  6
CONTINUOUS
 10
-0.043020
 20
-1.154024
  0
VERTEX
  8
PLAN_1
 62
     2
  6
CONTINUOUS
 10
-0.044618
 20
-1.155087
  0
VERTEX
  8
PLAN_1
 62
     2
  6
CONTINUOUS
 10
-0.046217
 20
-1.156154
  0
VERTEX
  8
PLAN_1
 62
     2
  6
CONTINUOUS
 10
-0.046748
 20
-1.158283
  0
VERTEX
  8
PLAN_1
 62
     2
  6
CONTINUOUS
 10
-0.047280
 20
-1.160413
  0
VERTEX
  8
PLAN_1
 62
     2
  6
CONTINUOUS
 10
-0.047280
 20
-1.162543
  0
VERTEX
  8
PLAN_1
 62
     2
  6
CONTINUOUS
 10
-0.046748
 20
-1.164677
  0
VERTEX
  8
PLAN_1
 62
     2
  6
CONTINUOUS
 10
-0.045681
 20
-1.166276
  0
VERTEX
  8
PLAN_1
 62
     2
  6
CONTINUOUS
 10
-0.044618
 20
-1.167339
  0
VERTEX
  8
PLAN_1
 62
     2
  6
CONTINUOUS
 10
-0.043551
 20
-1.168406
  0
VERTEX
  8
PLAN_1
 62
     2
  6
CONTINUOUS
 10
-0.041953
 20
-1.169469
  0
VERTEX
  8
PLAN_1
 62
     2
  6
CONTINUOUS
 10
-0.039823
 20
-1.170004
  0
VERTEX
  8
PLAN_1
 62
     2
  6
CONTINUOUS
 10
-0.037157
 20
-1.170004
  0
VERTEX
  8
PLAN_1
 62
     2
  6
CONTINUOUS
 10
-0.033961
 20
-1.170004
  0
VERTEX
  8
PLAN_1
 62
     2
  6
CONTINUOUS
 10
-0.031299
 20
-1.168937
  0
VERTEX
  8
PLAN_1
 62
     2
  6
CONTINUOUS
 10
-0.028102
 20
-1.167874
  0
VERTEX
  8
PLAN_1
 62
     2
  6
CONTINUOUS
 10
-0.025441
 20
-1.166276
  0
VERTEX
  8
PLAN_1
 62
     2
  6
CONTINUOUS
 10
-0.023307
 20
-1.164677
  0
VERTEX
  8
PLAN_1
 62
     2
  6
CONTINUOUS
 10
-0.021709
 20
-1.162543
  0
VERTEX
  8
PLAN_1
 62
     2
  6
CONTINUOUS
 10
-0.020646
 20
-1.159882
  0
VERTEX
  8
PLAN_1
 62
     2
  6
CONTINUOUS
 10
-0.020646
 20
-1.157217
  0
VERTEX
  8
PLAN_1
 62
     2
  6
CONTINUOUS
 10
-0.020646
 20
-1.148161
  0
SEQEND
  8
0
  0
POLYLINE
  8
PLAN_1
 62
     2
  6
CONTINUOUS
 66
     1
 40
0.003000
 41
0.003000
  0
VERTEX
  8
PLAN_1
 62
     2
  6
CONTINUOUS
 10
0.039551
 20
-1.175862
  0
VERTEX
  8
PLAN_1
 62
     2
  6
CONTINUOUS
 10
0.039551
 20
-1.168406
  0
VERTEX
  8
PLAN_1
 62
     2
  6
CONTINUOUS
 10
0.039551
 20
-1.167874
  0
VERTEX
  8
PLAN_1
 62
     2
  6
CONTINUOUS
 10
0.037953
 20
-1.170004
  0
VERTEX
  8
PLAN_1
 62
     2
  6
CONTINUOUS
 10
0.036354
 20
-1.172134
  0
VERTEX
  8
PLAN_1
 62
     2
  6
CONTINUOUS
 10
0.034756
 20
-1.173732
  0
VERTEX
  8
PLAN_1
 62
     2
  6
CONTINUOUS
 10
0.032626
 20
-1.175331
  0
VERTEX
  8
PLAN_1
 62
     2
  6
CONTINUOUS
 10
0.030496
 20
-1.176394
  0
VERTEX
  8
PLAN_1
 62
     2
  6
CONTINUOUS
 10
0.027831
 20
-1.176929
  0
VERTEX
  8
PLAN_1
 62
     2
  6
CONTINUOUS
 10
0.025169
 20
-1.177461
  0
VERTEX
  8
PLAN_1
 62
     2
  6
CONTINUOUS
 10
0.022504
 20
-1.177461
  0
VERTEX
  8
PLAN_1
 62
     2
  6
CONTINUOUS
 10
0.019307
 20
-1.177461
  0
VERTEX
  8
PLAN_1
 62
     2
  6
CONTINUOUS
 10
0.016110
 20
-1.176929
  0
VERTEX
  8
PLAN_1
 62
     2
  6
CONTINUOUS
 10
0.012917
 20
-1.175862
  0
VERTEX
  8
PLAN_1
 62
     2
  6
CONTINUOUS
 10
0.010252
 20
-1.174264
  0
VERTEX
  8
PLAN_1
 62
     2
  6
CONTINUOUS
 10
0.008122
 20
-1.171602
  0
VERTEX
  8
PLAN_1
 62
     2
  6
CONTINUOUS
 10
0.005992
 20
-1.168937
  0
VERTEX
  8
PLAN_1
 62
     2
  6
CONTINUOUS
 10
0.004925
 20
-1.165209
  0
VERTEX
  8
PLAN_1
 62
     2
  6
CONTINUOUS
 10
0.004394
 20
-1.160949
  0
VERTEX
  8
PLAN_1
 62
     2
  6
CONTINUOUS
 10
0.004394
 20
-1.121528
  0
VERTEX
  8
PLAN_1
 62
     2
  6
CONTINUOUS
 10
0.013980
 20
-1.121528
  0
VERTEX
  8
PLAN_1
 62
     2
  6
CONTINUOUS
 10
0.013980
 20
-1.157752
  0
VERTEX
  8
PLAN_1
 62
     2
  6
CONTINUOUS
 10
0.013980
 20
-1.160949
  0
VERTEX
  8
PLAN_1
 62
     2
  6
CONTINUOUS
 10
0.014516
 20
-1.163610
  0
VERTEX
  8
PLAN_1
 62
     2
  6
CONTINUOUS
 10
0.015579
 20
-1.165209
  0
VERTEX
  8
PLAN_1
 62
     2
  6
CONTINUOUS
 10
0.016646
 20
-1.167339
  0
VERTEX
  8
PLAN_1
 62
     2
  6
CONTINUOUS
 10
0.018244
 20
-1.168406
  0
VERTEX
  8
PLAN_1
 62
     2
  6
CONTINUOUS
 10
0.019843
 20
-1.168937
  0
VERTEX
  8
PLAN_1
 62
     2
  6
CONTINUOUS
 10
0.021972
 20
-1.169469
  0
VERTEX
  8
PLAN_1
 62
     2
  6
CONTINUOUS
 10
0.024102
 20
-1.169469
  0
VERTEX
  8
PLAN_1
 62
     2
  6
CONTINUOUS
 10
0.028366
 20
-1.169469
  0
VERTEX
  8
PLAN_1
 62
     2
  6
CONTINUOUS
 10
0.031559
 20
-1.167874
  0
VERTEX
  8
PLAN_1
 62
     2
  6
CONTINUOUS
 10
0.034224
 20
-1.166276
  0
VERTEX
  8
PLAN_1
 62
     2
  6
CONTINUOUS
 10
0.035823
 20
-1.163610
  0
VERTEX
  8
PLAN_1
 62
     2
  6
CONTINUOUS
 10
0.037421
 20
-1.160949
  0
VERTEX
  8
PLAN_1
 62
     2
  6
CONTINUOUS
 10
0.038484
 20
-1.157752
  0
VERTEX
  8
PLAN_1
 62
     2
  6
CONTINUOUS
 10
0.039020
 20
-1.154555
  0
VERTEX
  8
PLAN_1
 62
     2
  6
CONTINUOUS
 10
0.039020
 20
-1.151358
  0
VERTEX
  8
PLAN_1
 62
     2
  6
CONTINUOUS
 10
0.039020
 20
-1.121528
  0
VERTEX
  8
PLAN_1
 62
     2
  6
CONTINUOUS
 10
0.048606
 20
-1.121528
  0
VERTEX
  8
PLAN_1
 62
     2
  6
CONTINUOUS
 10
0.048606
 20
-1.175862
  0
VERTEX
  8
PLAN_1
 62
     2
  6
CONTINUOUS
 10
0.039551
 20
-1.175862
  0
SEQEND
  8
0
  0
POLYLINE
  8
PLAN_1
 62
     2
  6
CONTINUOUS
 66
     1
 40
0.003000
 41
0.003000
  0
VERTEX
  8
PLAN_1
 62
     2
  6
CONTINUOUS
 10
0.107205
 20
-1.175862
  0
VERTEX
  8
PLAN_1
 62
     2
  6
CONTINUOUS
 10
0.098681
 20
-1.175862
  0
VERTEX
  8
PLAN_1
 62
     2
  6
CONTINUOUS
 10
0.098681
 20
-1.168406
  0
VERTEX
  8
PLAN_1
 62
     2
  6
CONTINUOUS
 10
0.097083
 20
-1.171067
  0
VERTEX
  8
PLAN_1
 62
     2
  6
CONTINUOUS
 10
0.094953
 20
-1.173201
  0
VERTEX
  8
PLAN_1
 62
     2
  6
CONTINUOUS
 10
0.093354
 20
-1.174799
  0
VERTEX
  8
PLAN_1
 62
     2
  6
CONTINUOUS
 10
0.091224
 20
-1.175862
  0
VERTEX
  8
PLAN_1
 62
     2
  6
CONTINUOUS
 10
0.089094
 20
-1.176929
  0
VERTEX
  8
PLAN_1
 62
     2
  6
CONTINUOUS
 10
0.086961
 20
-1.177461
  0
VERTEX
  8
PLAN_1
 62
     2
  6
CONTINUOUS
 10
0.084831
 20
-1.177461
  0
VERTEX
  8
PLAN_1
 62
     2
  6
CONTINUOUS
 10
0.083232
 20
-1.177461
  0
VERTEX
  8
PLAN_1
 62
     2
  6
CONTINUOUS
 10
0.079504
 20
-1.177461
  0
VERTEX
  8
PLAN_1
 62
     2
  6
CONTINUOUS
 10
0.076839
 20
-1.176929
  0
VERTEX
  8
PLAN_1
 62
     2
  6
CONTINUOUS
 10
0.073646
 20
-1.175862
  0
VERTEX
  8
PLAN_1
 62
     2
  6
CONTINUOUS
 10
0.071512
 20
-1.174799
  0
VERTEX
  8
PLAN_1
 62
     2
  6
CONTINUOUS
 10
0.069382
 20
-1.173201
  0
VERTEX
  8
PLAN_1
 62
     2
  6
CONTINUOUS
 10
0.067252
 20
-1.171602
  0
VERTEX
  8
PLAN_1
 62
     2
  6
CONTINUOUS
 10
0.065654
 20
-1.169469
  0
VERTEX
  8
PLAN_1
 62
     2
  6
CONTINUOUS
 10
0.064055
 20
-1.167339
  0
VERTEX
  8
PLAN_1
 62
     2
  6
CONTINUOUS
 10
0.061925
 20
-1.162543
  0
VERTEX
  8
PLAN_1
 62
     2
  6
CONTINUOUS
 10
0.060327
 20
-1.157217
  0
VERTEX
  8
PLAN_1
 62
     2
  6
CONTINUOUS
 10
0.059260
 20
-1.152425
  0
VERTEX
  8
PLAN_1
 62
     2
  6
CONTINUOUS
 10
0.059260
 20
-1.147098
  0
VERTEX
  8
PLAN_1
 62
     2
  6
CONTINUOUS
 10
0.059260
 20
-1.141768
  0
VERTEX
  8
PLAN_1
 62
     2
  6
CONTINUOUS
 10
0.060327
 20
-1.136441
  0
VERTEX
  8
PLAN_1
 62
     2
  6
CONTINUOUS
 10
0.062457
 20
-1.132181
  0
VERTEX
  8
PLAN_1
 62
     2
  6
CONTINUOUS
 10
0.065122
 20
-1.127917
  0
VERTEX
  8
PLAN_1
 62
     2
  6
CONTINUOUS
 10
0.068319
 20
-1.124724
  0
VERTEX
  8
PLAN_1
 62
     2
  6
CONTINUOUS
 10
0.072047
 20
-1.122059
  0
VERTEX
  8
PLAN_1
 62
     2
  6
CONTINUOUS
 10
0.074177
 20
-1.121528
  0
VERTEX
  8
PLAN_1
 62
     2
  6
CONTINUOUS
 10
0.076839
 20
-1.120461
  0
VERTEX
  8
PLAN_1
 62
     2
  6
CONTINUOUS
 10
0.078972
 20
-1.120461
  0
VERTEX
  8
PLAN_1
 62
     2
  6
CONTINUOUS
 10
0.081634
 20
-1.119929
  0
VERTEX
  8
PLAN_1
 62
     2
  6
CONTINUOUS
 10
0.085362
 20
-1.120461
  0
VERTEX
  8
PLAN_1
 62
     2
  6
CONTINUOUS
 10
0.088028
 20
-1.120992
  0
VERTEX
  8
PLAN_1
 62
     2
  6
CONTINUOUS
 10
0.090689
 20
-1.122059
  0
VERTEX
  8
PLAN_1
 62
     2
  6
CONTINUOUS
 10
0.092823
 20
-1.123657
  0
VERTEX
  8
PLAN_1
 62
     2
  6
CONTINUOUS
 10
0.094421
 20
-1.125256
  0
VERTEX
  8
PLAN_1
 62
     2
  6
CONTINUOUS
 10
0.096020
 20
-1.126323
  0
VERTEX
  8
PLAN_1
 62
     2
  6
CONTINUOUS
 10
0.097083
 20
-1.127917
  0
VERTEX
  8
PLAN_1
 62
     2
  6
CONTINUOUS
 10
0.098150
 20
-1.129516
  0
VERTEX
  8
PLAN_1
 62
     2
  6
CONTINUOUS
 10
0.098150
 20
-1.128453
  0
VERTEX
  8
PLAN_1
 62
     2
  6
CONTINUOUS
 10
0.098150
 20
-1.101283
  0
VERTEX
  8
PLAN_1
 62
     2
  6
CONTINUOUS
 10
0.107205
 20
-1.101283
  0
VERTEX
  8
PLAN_1
 62
     2
  6
CONTINUOUS
 10
0.107205
 20
-1.175862
  0
SEQEND
  8
0
  0
POLYLINE
  8
PLAN_1
 62
     2
  6
CONTINUOUS
 66
     1
 40
0.003000
 41
0.003000
  0
VERTEX
  8
PLAN_1
 62
     2
  6
CONTINUOUS
 10
0.083232
 20
-1.169469
  0
VERTEX
  8
PLAN_1
 62
     2
  6
CONTINUOUS
 10
0.085362
 20
-1.169469
  0
VERTEX
  8
PLAN_1
 62
     2
  6
CONTINUOUS
 10
0.088028
 20
-1.168937
  0
VERTEX
  8
PLAN_1
 62
     2
  6
CONTINUOUS
 10
0.090689
 20
-1.167874
  0
VERTEX
  8
PLAN_1
 62
     2
  6
CONTINUOUS
 10
0.092823
 20
-1.165740
  0
VERTEX
  8
PLAN_1
 62
     2
  6
CONTINUOUS
 10
0.094953
 20
-1.163610
  0
VERTEX
  8
PLAN_1
 62
     2
  6
CONTINUOUS
 10
0.096551
 20
-1.160413
  0
VERTEX
  8
PLAN_1
 62
     2
  6
CONTINUOUS
 10
0.097614
 20
-1.156154
  0
VERTEX
  8
PLAN_1
 62
     2
  6
CONTINUOUS
 10
0.098150
 20
-1.151358
  0
VERTEX
  8
PLAN_1
 62
     2
  6
CONTINUOUS
 10
0.098150
 20
-1.147630
  0
VERTEX
  8
PLAN_1
 62
     2
  6
CONTINUOUS
 10
0.097614
 20
-1.143902
  0
VERTEX
  8
PLAN_1
 62
     2
  6
CONTINUOUS
 10
0.097083
 20
-1.140173
  0
VERTEX
  8
PLAN_1
 62
     2
  6
CONTINUOUS
 10
0.095484
 20
-1.136441
  0
VERTEX
  8
PLAN_1
 62
     2
  6
CONTINUOUS
 10
0.093886
 20
-1.133248
  0
VERTEX
  8
PLAN_1
 62
     2
  6
CONTINUOUS
 10
0.091224
 20
-1.130583
  0
VERTEX
  8
PLAN_1
 62
     2
  6
CONTINUOUS
 10
0.089626
 20
-1.129516
  0
VERTEX
  8
PLAN_1
 62
     2
  6
CONTINUOUS
 10
0.088028
 20
-1.128984
  0
VERTEX
  8
PLAN_1
 62
     2
  6
CONTINUOUS
 10
0.085898
 20
-1.128453
  0
VERTEX
  8
PLAN_1
 62
     2
  6
CONTINUOUS
 10
0.083232
 20
-1.128453
  0
VERTEX
  8
PLAN_1
 62
     2
  6
CONTINUOUS
 10
0.081102
 20
-1.128453
  0
VERTEX
  8
PLAN_1
 62
     2
  6
CONTINUOUS
 10
0.078437
 20
-1.128984
  0
VERTEX
  8
PLAN_1
 62
     2
  6
CONTINUOUS
 10
0.076839
 20
-1.129516
  0
VERTEX
  8
PLAN_1
 62
     2
  6
CONTINUOUS
 10
0.075244
 20
-1.130583
  0
VERTEX
  8
PLAN_1
 62
     2
  6
CONTINUOUS
 10
0.072579
 20
-1.132713
  0
VERTEX
  8
PLAN_1
 62
     2
  6
CONTINUOUS
 10
0.070449
 20
-1.135909
  0
VERTEX
  8
PLAN_1
 62
     2
  6
CONTINUOUS
 10
0.069382
 20
-1.139106
  0
VERTEX
  8
PLAN_1
 62
     2
  6
CONTINUOUS
 10
0.068850
 20
-1.142303
  0
VERTEX
  8
PLAN_1
 62
     2
  6
CONTINUOUS
 10
0.068319
 20
-1.146031
  0
VERTEX
  8
PLAN_1
 62
     2
  6
CONTINUOUS
 10
0.068319
 20
-1.148693
  0
VERTEX
  8
PLAN_1
 62
     2
  6
CONTINUOUS
 10
0.068850
 20
-1.152957
  0
VERTEX
  8
PLAN_1
 62
     2
  6
CONTINUOUS
 10
0.069382
 20
-1.157217
  0
VERTEX
  8
PLAN_1
 62
     2
  6
CONTINUOUS
 10
0.070449
 20
-1.160413
  0
VERTEX
  8
PLAN_1
 62
     2
  6
CONTINUOUS
 10
0.072047
 20
-1.163610
  0
VERTEX
  8
PLAN_1
 62
     2
  6
CONTINUOUS
 10
0.074177
 20
-1.166276
  0
VERTEX
  8
PLAN_1
 62
     2
  6
CONTINUOUS
 10
0.076839
 20
-1.167874
  0
VERTEX
  8
PLAN_1
 62
     2
  6
CONTINUOUS
 10
0.079504
 20
-1.169469
  0
VERTEX
  8
PLAN_1
 62
     2
  6
CONTINUOUS
 10
0.083232
 20
-1.169469
  0
SEQEND
  8
0
  0
SOLID
  8
PLAN_1
 62
     2
 10
0.144496
 20
-1.114602
 11
0.137571
 21
-1.114602
 12
0.158346
 22
-1.099685
 13
0.147157
 23
-1.099685
  0
POLYLINE
  8
PLAN_1
 62
     2
  6
CONTINUOUS
 66
     1
 40
0.003000
 41
0.003000
  0
VERTEX
  8
PLAN_1
 62
     2
  6
CONTINUOUS
 10
0.144496
 20
-1.114602
  0
VERTEX
  8
PLAN_1
 62
     2
  6
CONTINUOUS
 10
0.137571
 20
-1.114602
  0
VERTEX
  8
PLAN_1
 62
     2
  6
CONTINUOUS
 10
0.147157
 20
-1.099685
  0
VERTEX
  8
PLAN_1
 62
     2
  6
CONTINUOUS
 10
0.158346
 20
-1.099685
  0
VERTEX
  8
PLAN_1
 62
     2
  6
CONTINUOUS
 10
0.144496
 20
-1.114602
  0
SEQEND
  8
0
  0
POLYLINE
  8
PLAN_1
 62
     2
  6
CONTINUOUS
 66
     1
 40
0.003000
 41
0.003000
  0
VERTEX
  8
PLAN_1
 62
     2
  6
CONTINUOUS
 10
0.166335
 20
-1.158815
  0
VERTEX
  8
PLAN_1
 62
     2
  6
CONTINUOUS
 10
0.165803
 20
-1.160413
  0
VERTEX
  8
PLAN_1
 62
     2
  6
CONTINUOUS
 10
0.165803
 20
-1.162012
  0
VERTEX
  8
PLAN_1
 62
     2
  6
CONTINUOUS
 10
0.164736
 20
-1.163610
  0
VERTEX
  8
PLAN_1
 62
     2
  6
CONTINUOUS
 10
0.163673
 20
-1.165740
  0
VERTEX
  8
PLAN_1
 62
     2
  6
CONTINUOUS
 10
0.162606
 20
-1.167874
  0
VERTEX
  8
PLAN_1
 62
     2
  6
CONTINUOUS
 10
0.161008
 20
-1.170004
  0
VERTEX
  8
PLAN_1
 62
     2
  6
CONTINUOUS
 10
0.158878
 20
-1.172134
  0
VERTEX
  8
PLAN_1
 62
     2
  6
CONTINUOUS
 10
0.156748
 20
-1.173732
  0
VERTEX
  8
PLAN_1
 62
     2
  6
CONTINUOUS
 10
0.155681
 20
-1.174264
  0
VERTEX
  8
PLAN_1
 62
     2
  6
CONTINUOUS
 10
0.154614
 20
-1.175331
  0
VERTEX
  8
PLAN_1
 62
     2
  6
CONTINUOUS
 10
0.153016
 20
-1.175862
  0
VERTEX
  8
PLAN_1
 62
     2
  6
CONTINUOUS
 10
0.151421
 20
-1.176394
  0
VERTEX
  8
PLAN_1
 62
     2
  6
CONTINUOUS
 10
0.149823
 20
-1.176929
  0
VERTEX
  8
PLAN_1
 62
     2
  6
CONTINUOUS
 10
0.147689
 20
-1.177461
  0
VERTEX
  8
PLAN_1
 62
     2
  6
CONTINUOUS
 10
0.145028
 20
-1.177461
  0
VERTEX
  8
PLAN_1
 62
     2
  6
CONTINUOUS
 10
0.141831
 20
-1.177461
  0
VERTEX
  8
PLAN_1
 62
     2
  6
CONTINUOUS
 10
0.139165
 20
-1.177461
  0
VERTEX
  8
PLAN_1
 62
     2
  6
CONTINUOUS
 10
0.136504
 20
-1.176929
  0
VERTEX
  8
PLAN_1
 62
     2
  6
CONTINUOUS
 10
0.133839
 20
-1.176394
  0
VERTEX
  8
PLAN_1
 62
     2
  6
CONTINUOUS
 10
0.131709
 20
-1.175331
  0
VERTEX
  8
PLAN_1
 62
     2
  6
CONTINUOUS
 10
0.129579
 20
-1.174264
  0
VERTEX
  8
PLAN_1
 62
     2
  6
CONTINUOUS
 10
0.127449
 20
-1.173201
  0
VERTEX
  8
PLAN_1
 62
     2
  6
CONTINUOUS
 10
0.125315
 20
-1.171602
  0
VERTEX
  8
PLAN_1
 62
     2
  6
CONTINUOUS
 10
0.123720
 20
-1.170004
  0
VERTEX
  8
PLAN_1
 62
     2
  6
CONTINUOUS
 10
0.121055
 20
-1.165740
  0
VERTEX
  8
PLAN_1
 62
     2
  6
CONTINUOUS
 10
0.118925
 20
-1.161480
  0
VERTEX
  8
PLAN_1
 62
     2
  6
CONTINUOUS
 10
0.117858
 20
-1.156154
  0
VERTEX
  8
PLAN_1
 62
     2
  6
CONTINUOUS
 10
0.117327
 20
-1.150291
  0
VERTEX
  8
PLAN_1
 62
     2
  6
CONTINUOUS
 10
0.117858
 20
-1.144433
  0
VERTEX
  8
PLAN_1
 62
     2
  6
CONTINUOUS
 10
0.118925
 20
-1.138575
  0
VERTEX
  8
PLAN_1
 62
     2
  6
CONTINUOUS
 10
0.121055
 20
-1.133248
  0
VERTEX
  8
PLAN_1
 62
     2
  6
CONTINUOUS
 10
0.123720
 20
-1.128984
  0
VERTEX
  8
PLAN_1
 62
     2
  6
CONTINUOUS
 10
0.125315
 20
-1.126854
  0
VERTEX
  8
PLAN_1
 62
     2
  6
CONTINUOUS
 10
0.127449
 20
-1.125256
  0
VERTEX
  8
PLAN_1
 62
     2
  6
CONTINUOUS
 10
0.129579
 20
-1.123657
  0
VERTEX
  8
PLAN_1
 62
     2
  6
CONTINUOUS
 10
0.131709
 20
-1.122591
  0
VERTEX
  8
PLAN_1
 62
     2
  6
CONTINUOUS
 10
0.134374
 20
-1.121528
  0
VERTEX
  8
PLAN_1
 62
     2
  6
CONTINUOUS
 10
0.137035
 20
-1.120461
  0
VERTEX
  8
PLAN_1
 62
     2
  6
CONTINUOUS
 10
0.140232
 20
-1.120461
  0
VERTEX
  8
PLAN_1
 62
     2
  6
CONTINUOUS
 10
0.143429
 20
-1.119929
  0
VERTEX
  8
PLAN_1
 62
     2
  6
CONTINUOUS
 10
0.146626
 20
-1.120461
  0
VERTEX
  8
PLAN_1
 62
     2
  6
CONTINUOUS
 10
0.149287
 20
-1.120461
  0
VERTEX
  8
PLAN_1
 62
     2
  6
CONTINUOUS
 10
0.151421
 20
-1.121528
  0
VERTEX
  8
PLAN_1
 62
     2
  6
CONTINUOUS
 10
0.154083
 20
-1.122059
  0
VERTEX
  8
PLAN_1
 62
     2
  6
CONTINUOUS
 10
0.156213
 20
-1.123657
  0
VERTEX
  8
PLAN_1
 62
     2
  6
CONTINUOUS
 10
0.157811
 20
-1.125256
  0
VERTEX
  8
PLAN_1
 62
     2
  6
CONTINUOUS
 10
0.159409
 20
-1.126854
  0
VERTEX
  8
PLAN_1
 62
     2
  6
CONTINUOUS
 10
0.161008
 20
-1.128984
  0
VERTEX
  8
PLAN_1
 62
     2
  6
CONTINUOUS
 10
0.163673
 20
-1.133248
  0
VERTEX
  8
PLAN_1
 62
     2
  6
CONTINUOUS
 10
0.165268
 20
-1.138575
  0
VERTEX
  8
PLAN_1
 62
     2
  6
CONTINUOUS
 10
0.166866
 20
-1.144965
  0
VERTEX
  8
PLAN_1
 62
     2
  6
CONTINUOUS
 10
0.166866
 20
-1.151890
  0
VERTEX
  8
PLAN_1
 62
     2
  6
CONTINUOUS
 10
0.127449
 20
-1.151890
  0
VERTEX
  8
PLAN_1
 62
     2
  6
CONTINUOUS
 10
0.127449
 20
-1.155618
  0
VERTEX
  8
PLAN_1
 62
     2
  6
CONTINUOUS
 10
0.127980
 20
-1.159350
  0
VERTEX
  8
PLAN_1
 62
     2
  6
CONTINUOUS
 10
0.129579
 20
-1.162543
  0
VERTEX
  8
PLAN_1
 62
     2
  6
CONTINUOUS
 10
0.131177
 20
-1.165209
  0
VERTEX
  8
PLAN_1
 62
     2
  6
CONTINUOUS
 10
0.133307
 20
-1.166807
  0
VERTEX
  8
PLAN_1
 62
     2
  6
CONTINUOUS
 10
0.135972
 20
-1.168406
  0
VERTEX
  8
PLAN_1
 62
     2
  6
CONTINUOUS
 10
0.139165
 20
-1.169469
  0
VERTEX
  8
PLAN_1
 62
     2
  6
CONTINUOUS
 10
0.142898
 20
-1.169469
  0
VERTEX
  8
PLAN_1
 62
     2
  6
CONTINUOUS
 10
0.146091
 20
-1.169469
  0
VERTEX
  8
PLAN_1
 62
     2
  6
CONTINUOUS
 10
0.148756
 20
-1.168406
  0
VERTEX
  8
PLAN_1
 62
     2
  6
CONTINUOUS
 10
0.151421
 20
-1.167339
  0
VERTEX
  8
PLAN_1
 62
     2
  6
CONTINUOUS
 10
0.153016
 20
-1.165740
  0
VERTEX
  8
PLAN_1
 62
     2
  6
CONTINUOUS
 10
0.154614
 20
-1.164142
  0
VERTEX
  8
PLAN_1
 62
     2
  6
CONTINUOUS
 10
0.156213
 20
-1.162543
  0
VERTEX
  8
PLAN_1
 62
     2
  6
CONTINUOUS
 10
0.156748
 20
-1.160413
  0
VERTEX
  8
PLAN_1
 62
     2
  6
CONTINUOUS
 10
0.157280
 20
-1.158815
  0
VERTEX
  8
PLAN_1
 62
     2
  6
CONTINUOUS
 10
0.166335
 20
-1.158815
  0
SEQEND
  8
0
  0
POLYLINE
  8
PLAN_1
 62
     2
  6
CONTINUOUS
 66
     1
 40
0.003000
 41
0.003000
  0
VERTEX
  8
PLAN_1
 62
     2
  6
CONTINUOUS
 10
0.157280
 20
-1.144433
  0
VERTEX
  8
PLAN_1
 62
     2
  6
CONTINUOUS
 10
0.157280
 20
-1.141236
  0
VERTEX
  8
PLAN_1
 62
     2
  6
CONTINUOUS
 10
0.156213
 20
-1.138575
  0
VERTEX
  8
PLAN_1
 62
     2
  6
CONTINUOUS
 10
0.155150
 20
-1.135909
  0
VERTEX
  8
PLAN_1
 62
     2
  6
CONTINUOUS
 10
0.154083
 20
-1.133248
  0
VERTEX
  8
PLAN_1
 62
     2
  6
CONTINUOUS
 10
0.151953
 20
-1.131114
  0
VERTEX
  8
PLAN_1
 62
     2
  6
CONTINUOUS
 10
0.149287
 20
-1.129516
  0
VERTEX
  8
PLAN_1
 62
     2
  6
CONTINUOUS
 10
0.146091
 20
-1.128453
  0
VERTEX
  8
PLAN_1
 62
     2
  6
CONTINUOUS
 10
0.142362
 20
-1.128453
  0
VERTEX
  8
PLAN_1
 62
     2
  6
CONTINUOUS
 10
0.139165
 20
-1.128453
  0
VERTEX
  8
PLAN_1
 62
     2
  6
CONTINUOUS
 10
0.136504
 20
-1.129516
  0
VERTEX
  8
PLAN_1
 62
     2
  6
CONTINUOUS
 10
0.133839
 20
-1.131114
  0
VERTEX
  8
PLAN_1
 62
     2
  6
CONTINUOUS
 10
0.131709
 20
-1.133248
  0
VERTEX
  8
PLAN_1
 62
     2
  6
CONTINUOUS
 10
0.129579
 20
-1.135909
  0
VERTEX
  8
PLAN_1
 62
     2
  6
CONTINUOUS
 10
0.128512
 20
-1.138575
  0
VERTEX
  8
PLAN_1
 62
     2
  6
CONTINUOUS
 10
0.127449
 20
-1.141236
  0
VERTEX
  8
PLAN_1
 62
     2
  6
CONTINUOUS
 10
0.127449
 20
-1.144433
  0
VERTEX
  8
PLAN_1
 62
     2
  6
CONTINUOUS
 10
0.157280
 20
-1.144433
  0
SEQEND
  8
0
  0
POLYLINE
  8
PLAN_1
 62
     2
  6
CONTINUOUS
 66
     1
 40
0.003000
 41
0.003000
  0
VERTEX
  8
PLAN_1
 62
     2
  6
CONTINUOUS
 10
-0.470248
 20
-1.246713
  0
VERTEX
  8
PLAN_1
 62
     2
  6
CONTINUOUS
 10
-0.461193
 20
-1.246713
  0
VERTEX
  8
PLAN_1
 62
     2
  6
CONTINUOUS
 10
-0.461193
 20
-1.254169
  0
VERTEX
  8
PLAN_1
 62
     2
  6
CONTINUOUS
 10
-0.460126
 20
-1.253106
  0
VERTEX
  8
PLAN_1
 62
     2
  6
CONTINUOUS
 10
-0.459063
 20
-1.251508
  0
VERTEX
  8
PLAN_1
 62
     2
  6
CONTINUOUS
 10
-0.457465
 20
-1.249909
  0
VERTEX
  8
PLAN_1
 62
     2
  6
CONTINUOUS
 10
-0.455866
 20
-1.248311
  0
VERTEX
  8
PLAN_1
 62
     2
  6
CONTINUOUS
 10
-0.453736
 20
-1.247244
  0
VERTEX
  8
PLAN_1
 62
     2
  6
CONTINUOUS
 10
-0.451071
 20
-1.246181
  0
VERTEX
  8
PLAN_1
 62
     2
  6
CONTINUOUS
 10
-0.448409
 20
-1.245114
  0
VERTEX
  8
PLAN_1
 62
     2
  6
CONTINUOUS
 10
-0.444677
 20
-1.245114
  0
VERTEX
  8
PLAN_1
 62
     2
  6
CONTINUOUS
 10
-0.442547
 20
-1.245114
  0
VERTEX
  8
PLAN_1
 62
     2
  6
CONTINUOUS
 10
-0.439886
 20
-1.245646
  0
VERTEX
  8
PLAN_1
 62
     2
  6
CONTINUOUS
 10
-0.437220
 20
-1.246181
  0
VERTEX
  8
PLAN_1
 62
     2
  6
CONTINUOUS
 10
-0.435091
 20
-1.247244
  0
VERTEX
  8
PLAN_1
 62
     2
  6
CONTINUOUS
 10
-0.431362
 20
-1.249378
  0
VERTEX
  8
PLAN_1
 62
     2
  6
CONTINUOUS
 10
-0.428165
 20
-1.253106
  0
VERTEX
  8
PLAN_1
 62
     2
  6
CONTINUOUS
 10
-0.425500
 20
-1.256835
  0
VERTEX
  8
PLAN_1
 62
     2
  6
CONTINUOUS
 10
-0.423902
 20
-1.261630
  0
VERTEX
  8
PLAN_1
 62
     2
  6
CONTINUOUS
 10
-0.422839
 20
-1.266421
  0
VERTEX
  8
PLAN_1
 62
     2
  6
CONTINUOUS
 10
-0.422303
 20
-1.272283
  0
VERTEX
  8
PLAN_1
 62
     2
  6
CONTINUOUS
 10
-0.422303
 20
-1.277079
  0
VERTEX
  8
PLAN_1
 62
     2
  6
CONTINUOUS
 10
-0.423370
 20
-1.282406
  0
VERTEX
  8
PLAN_1
 62
     2
  6
CONTINUOUS
 10
-0.424969
 20
-1.287732
  0
VERTEX
  8
PLAN_1
 62
     2
  6
CONTINUOUS
 10
-0.427098
 20
-1.292524
  0
VERTEX
  8
PLAN_1
 62
     2
  6
CONTINUOUS
 10
-0.428697
 20
-1.294657
  0
VERTEX
  8
PLAN_1
 62
     2
  6
CONTINUOUS
 10
-0.430295
 20
-1.296256
  0
VERTEX
  8
PLAN_1
 62
     2
  6
CONTINUOUS
 10
-0.432425
 20
-1.298386
  0
VERTEX
  8
PLAN_1
 62
     2
  6
CONTINUOUS
 10
-0.434559
 20
-1.299449
  0
VERTEX
  8
PLAN_1
 62
     2
  6
CONTINUOUS
 10
-0.437220
 20
-1.301047
  0
VERTEX
  8
PLAN_1
 62
     2
  6
CONTINUOUS
 10
-0.439886
 20
-1.301583
  0
VERTEX
  8
PLAN_1
 62
     2
  6
CONTINUOUS
 10
-0.443079
 20
-1.302646
  0
VERTEX
  8
PLAN_1
 62
     2
  6
CONTINUOUS
 10
-0.446276
 20
-1.302646
  0
VERTEX
  8
PLAN_1
 62
     2
  6
CONTINUOUS
 10
-0.448941
 20
-1.302646
  0
VERTEX
  8
PLAN_1
 62
     2
  6
CONTINUOUS
 10
-0.451071
 20
-1.302114
  0
VERTEX
  8
PLAN_1
 62
     2
  6
CONTINUOUS
 10
-0.453201
 20
-1.301047
  0
VERTEX
  8
PLAN_1
 62
     2
  6
CONTINUOUS
 10
-0.455335
 20
-1.300516
  0
VERTEX
  8
PLAN_1
 62
     2
  6
CONTINUOUS
 10
-0.456929
 20
-1.299449
  0
VERTEX
  8
PLAN_1
 62
     2
  6
CONTINUOUS
 10
-0.458528
 20
-1.297854
  0
VERTEX
  8
PLAN_1
 62
     2
  6
CONTINUOUS
 10
-0.459594
 20
-1.296787
  0
VERTEX
  8
PLAN_1
 62
     2
  6
CONTINUOUS
 10
-0.460661
 20
-1.295189
  0
VERTEX
  8
PLAN_1
 62
     2
  6
CONTINUOUS
 10
-0.460661
 20
-1.322358
  0
VERTEX
  8
PLAN_1
 62
     2
  6
CONTINUOUS
 10
-0.470248
 20
-1.322358
  0
VERTEX
  8
PLAN_1
 62
     2
  6
CONTINUOUS
 10
-0.470248
 20
-1.246713
  0
SEQEND
  8
0
  0
POLYLINE
  8
PLAN_1
 62
     2
  6
CONTINUOUS
 66
     1
 40
0.003000
 41
0.003000
  0
VERTEX
  8
PLAN_1
 62
     2
  6
CONTINUOUS
 10
-0.446276
 20
-1.294657
  0
VERTEX
  8
PLAN_1
 62
     2
  6
CONTINUOUS
 10
-0.443079
 20
-1.294122
  0
VERTEX
  8
PLAN_1
 62
     2
  6
CONTINUOUS
 10
-0.439886
 20
-1.293059
  0
VERTEX
  8
PLAN_1
 62
     2
  6
CONTINUOUS
 10
-0.437220
 20
-1.291461
  0
VERTEX
  8
PLAN_1
 62
     2
  6
CONTINUOUS
 10
-0.435091
 20
-1.288795
  0
VERTEX
  8
PLAN_1
 62
     2
  6
CONTINUOUS
 10
-0.433492
 20
-1.285598
  0
VERTEX
  8
PLAN_1
 62
     2
  6
CONTINUOUS
 10
-0.432425
 20
-1.281870
  0
VERTEX
  8
PLAN_1
 62
     2
  6
CONTINUOUS
 10
-0.431894
 20
-1.278142
  0
VERTEX
  8
PLAN_1
 62
     2
  6
CONTINUOUS
 10
-0.431894
 20
-1.273882
  0
VERTEX
  8
PLAN_1
 62
     2
  6
CONTINUOUS
 10
-0.431894
 20
-1.270685
  0
VERTEX
  8
PLAN_1
 62
     2
  6
CONTINUOUS
 10
-0.431894
 20
-1.267488
  0
VERTEX
  8
PLAN_1
 62
     2
  6
CONTINUOUS
 10
-0.432961
 20
-1.264291
  0
VERTEX
  8
PLAN_1
 62
     2
  6
CONTINUOUS
 10
-0.434024
 20
-1.261094
  0
VERTEX
  8
PLAN_1
 62
     2
  6
CONTINUOUS
 10
-0.435622
 20
-1.257898
  0
VERTEX
  8
PLAN_1
 62
     2
  6
CONTINUOUS
 10
-0.438287
 20
-1.255236
  0
VERTEX
  8
PLAN_1
 62
     2
  6
CONTINUOUS
 10
-0.439886
 20
-1.254705
  0
VERTEX
  8
PLAN_1
 62
     2
  6
CONTINUOUS
 10
-0.442016
 20
-1.253638
  0
VERTEX
  8
PLAN_1
 62
     2
  6
CONTINUOUS
 10
-0.444146
 20
-1.253638
  0
VERTEX
  8
PLAN_1
 62
     2
  6
CONTINUOUS
 10
-0.446811
 20
-1.253106
  0
VERTEX
  8
PLAN_1
 62
     2
  6
CONTINUOUS
 10
-0.448941
 20
-1.253638
  0
VERTEX
  8
PLAN_1
 62
     2
  6
CONTINUOUS
 10
-0.451071
 20
-1.254169
  0
VERTEX
  8
PLAN_1
 62
     2
  6
CONTINUOUS
 10
-0.452669
 20
-1.254705
  0
VERTEX
  8
PLAN_1
 62
     2
  6
CONTINUOUS
 10
-0.454268
 20
-1.255768
  0
VERTEX
  8
PLAN_1
 62
     2
  6
CONTINUOUS
 10
-0.456929
 20
-1.258433
  0
VERTEX
  8
PLAN_1
 62
     2
  6
CONTINUOUS
 10
-0.459063
 20
-1.261630
  0
VERTEX
  8
PLAN_1
 62
     2
  6
CONTINUOUS
 10
-0.460126
 20
-1.265358
  0
VERTEX
  8
PLAN_1
 62
     2
  6
CONTINUOUS
 10
-0.460661
 20
-1.269087
  0
VERTEX
  8
PLAN_1
 62
     2
  6
CONTINUOUS
 10
-0.461193
 20
-1.272815
  0
VERTEX
  8
PLAN_1
 62
     2
  6
CONTINUOUS
 10
-0.461193
 20
-1.276543
  0
VERTEX
  8
PLAN_1
 62
     2
  6
CONTINUOUS
 10
-0.460661
 20
-1.281339
  0
VERTEX
  8
PLAN_1
 62
     2
  6
CONTINUOUS
 10
-0.459594
 20
-1.285598
  0
VERTEX
  8
PLAN_1
 62
     2
  6
CONTINUOUS
 10
-0.457996
 20
-1.288264
  0
VERTEX
  8
PLAN_1
 62
     2
  6
CONTINUOUS
 10
-0.455866
 20
-1.290929
  0
VERTEX
  8
PLAN_1
 62
     2
  6
CONTINUOUS
 10
-0.453736
 20
-1.292524
  0
VERTEX
  8
PLAN_1
 62
     2
  6
CONTINUOUS
 10
-0.451071
 20
-1.294122
  0
VERTEX
  8
PLAN_1
 62
     2
  6
CONTINUOUS
 10
-0.448941
 20
-1.294657
  0
VERTEX
  8
PLAN_1
 62
     2
  6
CONTINUOUS
 10
-0.446276
 20
-1.294657
  0
SEQEND
  8
0
  0
POLYLINE
  8
PLAN_1
 62
     2
  6
CONTINUOUS
 66
     1
 40
0.003000
 41
0.003000
  0
VERTEX
  8
PLAN_1
 62
     2
  6
CONTINUOUS
 10
-0.389276
 20
-1.245114
  0
VERTEX
  8
PLAN_1
 62
     2
  6
CONTINUOUS
 10
-0.386083
 20
-1.245114
  0
VERTEX
  8
PLAN_1
 62
     2
  6
CONTINUOUS
 10
-0.382886
 20
-1.245646
  0
VERTEX
  8
PLAN_1
 62
     2
  6
CONTINUOUS
 10
-0.380220
 20
-1.246713
  0
VERTEX
  8
PLAN_1
 62
     2
  6
CONTINUOUS
 10
-0.378091
 20
-1.247780
  0
VERTEX
  8
PLAN_1
 62
     2
  6
CONTINUOUS
 10
-0.375425
 20
-1.248843
  0
VERTEX
  8
PLAN_1
 62
     2
  6
CONTINUOUS
 10
-0.373831
 20
-1.250441
  0
VERTEX
  8
PLAN_1
 62
     2
  6
CONTINUOUS
 10
-0.371697
 20
-1.252039
  0
VERTEX
  8
PLAN_1
 62
     2
  6
CONTINUOUS
 10
-0.370098
 20
-1.254169
  0
VERTEX
  8
PLAN_1
 62
     2
  6
CONTINUOUS
 10
-0.367437
 20
-1.258433
  0
VERTEX
  8
PLAN_1
 62
     2
  6
CONTINUOUS
 10
-0.365307
 20
-1.263228
  0
VERTEX
  8
PLAN_1
 62
     2
  6
CONTINUOUS
 10
-0.364240
 20
-1.268555
  0
VERTEX
  8
PLAN_1
 62
     2
  6
CONTINUOUS
 10
-0.363709
 20
-1.273882
  0
VERTEX
  8
PLAN_1
 62
     2
  6
CONTINUOUS
 10
-0.364240
 20
-1.279209
  0
VERTEX
  8
PLAN_1
 62
     2
  6
CONTINUOUS
 10
-0.365307
 20
-1.284004
  0
VERTEX
  8
PLAN_1
 62
     2
  6
CONTINUOUS
 10
-0.367437
 20
-1.288795
  0
VERTEX
  8
PLAN_1
 62
     2
  6
CONTINUOUS
 10
-0.370098
 20
-1.293591
  0
VERTEX
  8
PLAN_1
 62
     2
  6
CONTINUOUS
 10
-0.371697
 20
-1.295189
  0
VERTEX
  8
PLAN_1
 62
     2
  6
CONTINUOUS
 10
-0.373831
 20
-1.297319
  0
VERTEX
  8
PLAN_1
 62
     2
  6
CONTINUOUS
 10
-0.375425
 20
-1.298917
  0
VERTEX
  8
PLAN_1
 62
     2
  6
CONTINUOUS
 10
-0.378091
 20
-1.299984
  0
VERTEX
  8
PLAN_1
 62
     2
  6
CONTINUOUS
 10
-0.380220
 20
-1.301047
  0
VERTEX
  8
PLAN_1
 62
     2
  6
CONTINUOUS
 10
-0.382886
 20
-1.301583
  0
VERTEX
  8
PLAN_1
 62
     2
  6
CONTINUOUS
 10
-0.386083
 20
-1.302114
  0
VERTEX
  8
PLAN_1
 62
     2
  6
CONTINUOUS
 10
-0.389276
 20
-1.302646
  0
VERTEX
  8
PLAN_1
 62
     2
  6
CONTINUOUS
 10
-0.392472
 20
-1.302114
  0
VERTEX
  8
PLAN_1
 62
     2
  6
CONTINUOUS
 10
-0.395138
 20
-1.301583
  0
VERTEX
  8
PLAN_1
 62
     2
  6
CONTINUOUS
 10
-0.397799
 20
-1.301047
  0
VERTEX
  8
PLAN_1
 62
     2
  6
CONTINUOUS
 10
-0.400465
 20
-1.299984
  0
VERTEX
  8
PLAN_1
 62
     2
  6
CONTINUOUS
 10
-0.402594
 20
-1.298917
  0
VERTEX
  8
PLAN_1
 62
     2
  6
CONTINUOUS
 10
-0.404724
 20
-1.297319
  0
VERTEX
  8
PLAN_1
 62
     2
  6
CONTINUOUS
 10
-0.406858
 20
-1.295189
  0
VERTEX
  8
PLAN_1
 62
     2
  6
CONTINUOUS
 10
-0.408453
 20
-1.293591
  0
VERTEX
  8
PLAN_1
 62
     2
  6
CONTINUOUS
 10
-0.411118
 20
-1.288795
  0
VERTEX
  8
PLAN_1
 62
     2
  6
CONTINUOUS
 10
-0.413248
 20
-1.284004
  0
VERTEX
  8
PLAN_1
 62
     2
  6
CONTINUOUS
 10
-0.414315
 20
-1.279209
  0
VERTEX
  8
PLAN_1
 62
     2
  6
CONTINUOUS
 10
-0.414315
 20
-1.273882
  0
VERTEX
  8
PLAN_1
 62
     2
  6
CONTINUOUS
 10
-0.414315
 20
-1.268555
  0
VERTEX
  8
PLAN_1
 62
     2
  6
CONTINUOUS
 10
-0.413248
 20
-1.263228
  0
VERTEX
  8
PLAN_1
 62
     2
  6
CONTINUOUS
 10
-0.411118
 20
-1.258433
  0
VERTEX
  8
PLAN_1
 62
     2
  6
CONTINUOUS
 10
-0.408453
 20
-1.254169
  0
VERTEX
  8
PLAN_1
 62
     2
  6
CONTINUOUS
 10
-0.406858
 20
-1.252039
  0
VERTEX
  8
PLAN_1
 62
     2
  6
CONTINUOUS
 10
-0.404724
 20
-1.250441
  0
VERTEX
  8
PLAN_1
 62
     2
  6
CONTINUOUS
 10
-0.402594
 20
-1.248843
  0
VERTEX
  8
PLAN_1
 62
     2
  6
CONTINUOUS
 10
-0.400465
 20
-1.247780
  0
VERTEX
  8
PLAN_1
 62
     2
  6
CONTINUOUS
 10
-0.397799
 20
-1.246713
  0
VERTEX
  8
PLAN_1
 62
     2
  6
CONTINUOUS
 10
-0.395138
 20
-1.245646
  0
VERTEX
  8
PLAN_1
 62
     2
  6
CONTINUOUS
 10
-0.392472
 20
-1.245114
  0
VERTEX
  8
PLAN_1
 62
     2
  6
CONTINUOUS
 10
-0.389276
 20
-1.245114
  0
SEQEND
  8
0
  0
POLYLINE
  8
PLAN_1
 62
     2
  6
CONTINUOUS
 66
     1
 40
0.003000
 41
0.003000
  0
VERTEX
  8
PLAN_1
 62
     2
  6
CONTINUOUS
 10
-0.389276
 20
-1.294657
  0
VERTEX
  8
PLAN_1
 62
     2
  6
CONTINUOUS
 10
-0.387146
 20
-1.294657
  0
VERTEX
  8
PLAN_1
 62
     2
  6
CONTINUOUS
 10
-0.385016
 20
-1.294122
  0
VERTEX
  8
PLAN_1
 62
     2
  6
CONTINUOUS
 10
-0.382886
 20
-1.293059
  0
VERTEX
  8
PLAN_1
 62
     2
  6
CONTINUOUS
 10
-0.381287
 20
-1.292524
  0
VERTEX
  8
PLAN_1
 62
     2
  6
CONTINUOUS
 10
-0.378622
 20
-1.289862
  0
VERTEX
  8
PLAN_1
 62
     2
  6
CONTINUOUS
 10
-0.376492
 20
-1.286665
  0
VERTEX
  8
PLAN_1
 62
     2
  6
CONTINUOUS
 10
-0.374894
 20
-1.283469
  0
VERTEX
  8
PLAN_1
 62
     2
  6
CONTINUOUS
 10
-0.373831
 20
-1.280272
  0
VERTEX
  8
PLAN_1
 62
     2
  6
CONTINUOUS
 10
-0.373295
 20
-1.276543
  0
VERTEX
  8
PLAN_1
 62
     2
  6
CONTINUOUS
 10
-0.373295
 20
-1.273882
  0
VERTEX
  8
PLAN_1
 62
     2
  6
CONTINUOUS
 10
-0.373295
 20
-1.270685
  0
VERTEX
  8
PLAN_1
 62
     2
  6
CONTINUOUS
 10
-0.373831
 20
-1.267488
  0
VERTEX
  8
PLAN_1
 62
     2
  6
CONTINUOUS
 10
-0.374894
 20
-1.263760
  0
VERTEX
  8
PLAN_1
 62
     2
  6
CONTINUOUS
 10
-0.376492
 20
-1.260563
  0
VERTEX
  8
PLAN_1
 62
     2
  6
CONTINUOUS
 10
-0.378622
 20
-1.257898
  0
VERTEX
  8
PLAN_1
 62
     2
  6
CONTINUOUS
 10
-0.381287
 20
-1.255236
  0
VERTEX
  8
PLAN_1
 62
     2
  6
CONTINUOUS
 10
-0.382886
 20
-1.254169
  0
VERTEX
  8
PLAN_1
 62
     2
  6
CONTINUOUS
 10
-0.385016
 20
-1.253638
  0
VERTEX
  8
PLAN_1
 62
     2
  6
CONTINUOUS
 10
-0.387146
 20
-1.253106
  0
VERTEX
  8
PLAN_1
 62
     2
  6
CONTINUOUS
 10
-0.389276
 20
-1.253106
  0
VERTEX
  8
PLAN_1
 62
     2
  6
CONTINUOUS
 10
-0.391409
 20
-1.253106
  0
VERTEX
  8
PLAN_1
 62
     2
  6
CONTINUOUS
 10
-0.393539
 20
-1.253638
  0
VERTEX
  8
PLAN_1
 62
     2
  6
CONTINUOUS
 10
-0.395669
 20
-1.254169
  0
VERTEX
  8
PLAN_1
 62
     2
  6
CONTINUOUS
 10
-0.397268
 20
-1.255236
  0
VERTEX
  8
PLAN_1
 62
     2
  6
CONTINUOUS
 10
-0.399933
 20
-1.257898
  0
VERTEX
  8
PLAN_1
 62
     2
  6
CONTINUOUS
 10
-0.402063
 20
-1.260563
  0
VERTEX
  8
PLAN_1
 62
     2
  6
CONTINUOUS
 10
-0.403661
 20
-1.263760
  0
VERTEX
  8
PLAN_1
 62
     2
  6
CONTINUOUS
 10
-0.404193
 20
-1.267488
  0
VERTEX
  8
PLAN_1
 62
     2
  6
CONTINUOUS
 10
-0.404724
 20
-1.270685
  0
VERTEX
  8
PLAN_1
 62
     2
  6
CONTINUOUS
 10
-0.405260
 20
-1.273882
  0
VERTEX
  8
PLAN_1
 62
     2
  6
CONTINUOUS
 10
-0.404724
 20
-1.276543
  0
VERTEX
  8
PLAN_1
 62
     2
  6
CONTINUOUS
 10
-0.404193
 20
-1.280272
  0
VERTEX
  8
PLAN_1
 62
     2
  6
CONTINUOUS
 10
-0.403661
 20
-1.283469
  0
VERTEX
  8
PLAN_1
 62
     2
  6
CONTINUOUS
 10
-0.402063
 20
-1.286665
  0
VERTEX
  8
PLAN_1
 62
     2
  6
CONTINUOUS
 10
-0.399933
 20
-1.289862
  0
VERTEX
  8
PLAN_1
 62
     2
  6
CONTINUOUS
 10
-0.397268
 20
-1.292524
  0
VERTEX
  8
PLAN_1
 62
     2
  6
CONTINUOUS
 10
-0.395669
 20
-1.293059
  0
VERTEX
  8
PLAN_1
 62
     2
  6
CONTINUOUS
 10
-0.393539
 20
-1.294122
  0
VERTEX
  8
PLAN_1
 62
     2
  6
CONTINUOUS
 10
-0.391409
 20
-1.294657
  0
VERTEX
  8
PLAN_1
 62
     2
  6
CONTINUOUS
 10
-0.389276
 20
-1.294657
  0
SEQEND
  8
0
  0
POLYLINE
  8
PLAN_1
 62
     2
  6
CONTINUOUS
 66
     1
 40
0.003000
 41
0.003000
  0
VERTEX
  8
PLAN_1
 62
     2
  6
CONTINUOUS
 10
-0.317894
 20
-1.301047
  0
VERTEX
  8
PLAN_1
 62
     2
  6
CONTINUOUS
 10
-0.317894
 20
-1.293059
  0
VERTEX
  8
PLAN_1
 62
     2
  6
CONTINUOUS
 10
-0.318429
 20
-1.293059
  0
VERTEX
  8
PLAN_1
 62
     2
  6
CONTINUOUS
 10
-0.319492
 20
-1.295189
  0
VERTEX
  8
PLAN_1
 62
     2
  6
CONTINUOUS
 10
-0.321091
 20
-1.297319
  0
VERTEX
  8
PLAN_1
 62
     2
  6
CONTINUOUS
 10
-0.323220
 20
-1.298917
  0
VERTEX
  8
PLAN_1
 62
     2
  6
CONTINUOUS
 10
-0.324819
 20
-1.299984
  0
VERTEX
  8
PLAN_1
 62
     2
  6
CONTINUOUS
 10
-0.326949
 20
-1.301047
  0
VERTEX
  8
PLAN_1
 62
     2
  6
CONTINUOUS
 10
-0.329614
 20
-1.302114
  0
VERTEX
  8
PLAN_1
 62
     2
  6
CONTINUOUS
 10
-0.332280
 20
-1.302646
  0
VERTEX
  8
PLAN_1
 62
     2
  6
CONTINUOUS
 10
-0.335472
 20
-1.302646
  0
VERTEX
  8
PLAN_1
 62
     2
  6
CONTINUOUS
 10
-0.338669
 20
-1.302646
  0
VERTEX
  8
PLAN_1
 62
     2
  6
CONTINUOUS
 10
-0.341866
 20
-1.301583
  0
VERTEX
  8
PLAN_1
 62
     2
  6
CONTINUOUS
 10
-0.344531
 20
-1.300516
  0
VERTEX
  8
PLAN_1
 62
     2
  6
CONTINUOUS
 10
-0.347193
 20
-1.298917
  0
VERTEX
  8
PLAN_1
 62
     2
  6
CONTINUOUS
 10
-0.349858
 20
-1.296787
  0
VERTEX
  8
PLAN_1
 62
     2
  6
CONTINUOUS
 10
-0.351457
 20
-1.294122
  0
VERTEX
  8
PLAN_1
 62
     2
  6
CONTINUOUS
 10
-0.352520
 20
-1.290394
  0
VERTEX
  8
PLAN_1
 62
     2
  6
CONTINUOUS
 10
-0.353055
 20
-1.285598
  0
VERTEX
  8
PLAN_1
 62
     2
  6
CONTINUOUS
 10
-0.353055
 20
-1.246713
  0
VERTEX
  8
PLAN_1
 62
     2
  6
CONTINUOUS
 10
-0.343996
 20
-1.246713
  0
VERTEX
  8
PLAN_1
 62
     2
  6
CONTINUOUS
 10
-0.343996
 20
-1.282937
  0
VERTEX
  8
PLAN_1
 62
     2
  6
CONTINUOUS
 10
-0.343996
 20
-1.285598
  0
VERTEX
  8
PLAN_1
 62
     2
  6
CONTINUOUS
 10
-0.343465
 20
-1.288264
  0
VERTEX
  8
PLAN_1
 62
     2
  6
CONTINUOUS
 10
-0.342398
 20
-1.290394
  0
VERTEX
  8
PLAN_1
 62
     2
  6
CONTINUOUS
 10
-0.340799
 20
-1.291992
  0
VERTEX
  8
PLAN_1
 62
     2
  6
CONTINUOUS
 10
-0.339205
 20
-1.293059
  0
VERTEX
  8
PLAN_1
 62
     2
  6
CONTINUOUS
 10
-0.337606
 20
-1.294122
  0
VERTEX
  8
PLAN_1
 62
     2
  6
CONTINUOUS
 10
-0.335472
 20
-1.294657
  0
VERTEX
  8
PLAN_1
 62
     2
  6
CONTINUOUS
 10
-0.333343
 20
-1.294657
  0
VERTEX
  8
PLAN_1
 62
     2
  6
CONTINUOUS
 10
-0.329614
 20
-1.294122
  0
VERTEX
  8
PLAN_1
 62
     2
  6
CONTINUOUS
 10
-0.326417
 20
-1.293059
  0
VERTEX
  8
PLAN_1
 62
     2
  6
CONTINUOUS
 10
-0.323756
 20
-1.290929
  0
VERTEX
  8
PLAN_1
 62
     2
  6
CONTINUOUS
 10
-0.321622
 20
-1.288795
  0
VERTEX
  8
PLAN_1
 62
     2
  6
CONTINUOUS
 10
-0.320024
 20
-1.285598
  0
VERTEX
  8
PLAN_1
 62
     2
  6
CONTINUOUS
 10
-0.319492
 20
-1.282937
  0
VERTEX
  8
PLAN_1
 62
     2
  6
CONTINUOUS
 10
-0.318429
 20
-1.279740
  0
VERTEX
  8
PLAN_1
 62
     2
  6
CONTINUOUS
 10
-0.318429
 20
-1.276543
  0
VERTEX
  8
PLAN_1
 62
     2
  6
CONTINUOUS
 10
-0.318429
 20
-1.246713
  0
VERTEX
  8
PLAN_1
 62
     2
  6
CONTINUOUS
 10
-0.309370
 20
-1.246713
  0
VERTEX
  8
PLAN_1
 62
     2
  6
CONTINUOUS
 10
-0.309370
 20
-1.301047
  0
VERTEX
  8
PLAN_1
 62
     2
  6
CONTINUOUS
 10
-0.317894
 20
-1.301047
  0
SEQEND
  8
0
  0
POLYLINE
  8
PLAN_1
 62
     2
  6
CONTINUOUS
 66
     1
 40
0.003000
 41
0.003000
  0
VERTEX
  8
PLAN_1
 62
     2
  6
CONTINUOUS
 10
-0.285398
 20
-1.301047
  0
VERTEX
  8
PLAN_1
 62
     2
  6
CONTINUOUS
 10
-0.294457
 20
-1.301047
  0
VERTEX
  8
PLAN_1
 62
     2
  6
CONTINUOUS
 10
-0.294457
 20
-1.246713
  0
VERTEX
  8
PLAN_1
 62
     2
  6
CONTINUOUS
 10
-0.285933
 20
-1.246713
  0
VERTEX
  8
PLAN_1
 62
     2
  6
CONTINUOUS
 10
-0.285933
 20
-1.255768
  0
VERTEX
  8
PLAN_1
 62
     2
  6
CONTINUOUS
 10
-0.285398
 20
-1.255768
  0
VERTEX
  8
PLAN_1
 62
     2
  6
CONTINUOUS
 10
-0.284335
 20
-1.253638
  0
VERTEX
  8
PLAN_1
 62
     2
  6
CONTINUOUS
 10
-0.282736
 20
-1.251508
  0
VERTEX
  8
PLAN_1
 62
     2
  6
CONTINUOUS
 10
-0.280606
 20
-1.249378
  0
VERTEX
  8
PLAN_1
 62
     2
  6
CONTINUOUS
 10
-0.279008
 20
-1.247780
  0
VERTEX
  8
PLAN_1
 62
     2
  6
CONTINUOUS
 10
-0.276878
 20
-1.246713
  0
VERTEX
  8
PLAN_1
 62
     2
  6
CONTINUOUS
 10
-0.274744
 20
-1.245646
  0
VERTEX
  8
PLAN_1
 62
     2
  6
CONTINUOUS
 10
-0.272614
 20
-1.245114
  0
VERTEX
  8
PLAN_1
 62
     2
  6
CONTINUOUS
 10
-0.269953
 20
-1.245114
  0
VERTEX
  8
PLAN_1
 62
     2
  6
CONTINUOUS
 10
-0.269417
 20
-1.245114
  0
VERTEX
  8
PLAN_1
 62
     2
  6
CONTINUOUS
 10
-0.268886
 20
-1.245114
  0
VERTEX
  8
PLAN_1
 62
     2
  6
CONTINUOUS
 10
-0.268354
 20
-1.245114
  0
VERTEX
  8
PLAN_1
 62
     2
  6
CONTINUOUS
 10
-0.267819
 20
-1.245114
  0
VERTEX
  8
PLAN_1
 62
     2
  6
CONTINUOUS
 10
-0.267819
 20
-1.254705
  0
VERTEX
  8
PLAN_1
 62
     2
  6
CONTINUOUS
 10
-0.271016
 20
-1.254705
  0
VERTEX
  8
PLAN_1
 62
     2
  6
CONTINUOUS
 10
-0.274213
 20
-1.255236
  0
VERTEX
  8
PLAN_1
 62
     2
  6
CONTINUOUS
 10
-0.276878
 20
-1.255768
  0
VERTEX
  8
PLAN_1
 62
     2
  6
CONTINUOUS
 10
-0.279539
 20
-1.257366
  0
VERTEX
  8
PLAN_1
 62
     2
  6
CONTINUOUS
 10
-0.281669
 20
-1.258965
  0
VERTEX
  8
PLAN_1
 62
     2
  6
CONTINUOUS
 10
-0.283268
 20
-1.261094
  0
VERTEX
  8
PLAN_1
 62
     2
  6
CONTINUOUS
 10
-0.284335
 20
-1.263760
  0
VERTEX
  8
PLAN_1
 62
     2
  6
CONTINUOUS
 10
-0.284866
 20
-1.266421
  0
VERTEX
  8
PLAN_1
 62
     2
  6
CONTINUOUS
 10
-0.285398
 20
-1.269618
  0
VERTEX
  8
PLAN_1
 62
     2
  6
CONTINUOUS
 10
-0.285398
 20
-1.301047
  0
SEQEND
  8
0
  0
POLYLINE
  8
PLAN_1
 62
     2
  6
CONTINUOUS
 66
     1
 40
0.003000
 41
0.003000
  0
VERTEX
  8
PLAN_1
 62
     2
  6
CONTINUOUS
 10
-0.220941
 20
-1.254169
  0
VERTEX
  8
PLAN_1
 62
     2
  6
CONTINUOUS
 10
-0.220941
 20
-1.289331
  0
VERTEX
  8
PLAN_1
 62
     2
  6
CONTINUOUS
 10
-0.220409
 20
-1.290929
  0
VERTEX
  8
PLAN_1
 62
     2
  6
CONTINUOUS
 10
-0.220409
 20
-1.291992
  0
VERTEX
  8
PLAN_1
 62
     2
  6
CONTINUOUS
 10
-0.219343
 20
-1.293059
  0
VERTEX
  8
PLAN_1
 62
     2
  6
CONTINUOUS
 10
-0.218811
 20
-1.293059
  0
VERTEX
  8
PLAN_1
 62
     2
  6
CONTINUOUS
 10
-0.217744
 20
-1.293591
  0
VERTEX
  8
PLAN_1
 62
     2
  6
CONTINUOUS
 10
-0.216681
 20
-1.293591
  0
VERTEX
  8
PLAN_1
 62
     2
  6
CONTINUOUS
 10
-0.216150
 20
-1.293591
  0
VERTEX
  8
PLAN_1
 62
     2
  6
CONTINUOUS
 10
-0.215083
 20
-1.293591
  0
VERTEX
  8
PLAN_1
 62
     2
  6
CONTINUOUS
 10
-0.211886
 20
-1.293591
  0
VERTEX
  8
PLAN_1
 62
     2
  6
CONTINUOUS
 10
-0.211886
 20
-1.301047
  0
VERTEX
  8
PLAN_1
 62
     2
  6
CONTINUOUS
 10
-0.213484
 20
-1.301047
  0
VERTEX
  8
PLAN_1
 62
     2
  6
CONTINUOUS
 10
-0.214551
 20
-1.301047
  0
VERTEX
  8
PLAN_1
 62
     2
  6
CONTINUOUS
 10
-0.215614
 20
-1.301583
  0
VERTEX
  8
PLAN_1
 62
     2
  6
CONTINUOUS
 10
-0.216150
 20
-1.301583
  0
VERTEX
  8
PLAN_1
 62
     2
  6
CONTINUOUS
 10
-0.217213
 20
-1.301583
  0
VERTEX
  8
PLAN_1
 62
     2
  6
CONTINUOUS
 10
-0.217744
 20
-1.301583
  0
VERTEX
  8
PLAN_1
 62
     2
  6
CONTINUOUS
 10
-0.218280
 20
-1.301583
  0
VERTEX
  8
PLAN_1
 62
     2
  6
CONTINUOUS
 10
-0.218811
 20
-1.301583
  0
VERTEX
  8
PLAN_1
 62
     2
  6
CONTINUOUS
 10
-0.222008
 20
-1.301583
  0
VERTEX
  8
PLAN_1
 62
     2
  6
CONTINUOUS
 10
-0.224669
 20
-1.301047
  0
VERTEX
  8
PLAN_1
 62
     2
  6
CONTINUOUS
 10
-0.226268
 20
-1.299984
  0
VERTEX
  8
PLAN_1
 62
     2
  6
CONTINUOUS
 10
-0.227866
 20
-1.298386
  0
VERTEX
  8
PLAN_1
 62
     2
  6
CONTINUOUS
 10
-0.228933
 20
-1.296787
  0
VERTEX
  8
PLAN_1
 62
     2
  6
CONTINUOUS
 10
-0.229465
 20
-1.294657
  0
VERTEX
  8
PLAN_1
 62
     2
  6
CONTINUOUS
 10
-0.230000
 20
-1.292524
  0
VERTEX
  8
PLAN_1
 62
     2
  6
CONTINUOUS
 10
-0.230000
 20
-1.289862
  0
VERTEX
  8
PLAN_1
 62
     2
  6
CONTINUOUS
 10
-0.230000
 20
-1.254169
  0
VERTEX
  8
PLAN_1
 62
     2
  6
CONTINUOUS
 10
-0.237457
 20
-1.254169
  0
VERTEX
  8
PLAN_1
 62
     2
  6
CONTINUOUS
 10
-0.237457
 20
-1.246713
  0
VERTEX
  8
PLAN_1
 62
     2
  6
CONTINUOUS
 10
-0.230000
 20
-1.246713
  0
VERTEX
  8
PLAN_1
 62
     2
  6
CONTINUOUS
 10
-0.230000
 20
-1.231264
  0
VERTEX
  8
PLAN_1
 62
     2
  6
CONTINUOUS
 10
-0.220941
 20
-1.231264
  0
VERTEX
  8
PLAN_1
 62
     2
  6
CONTINUOUS
 10
-0.220941
 20
-1.246713
  0
VERTEX
  8
PLAN_1
 62
     2
  6
CONTINUOUS
 10
-0.211886
 20
-1.246713
  0
VERTEX
  8
PLAN_1
 62
     2
  6
CONTINUOUS
 10
-0.211886
 20
-1.254169
  0
VERTEX
  8
PLAN_1
 62
     2
  6
CONTINUOUS
 10
-0.220941
 20
-1.254169
  0
SEQEND
  8
0
  0
POLYLINE
  8
PLAN_1
 62
     2
  6
CONTINUOUS
 66
     1
 40
0.003000
 41
0.003000
  0
VERTEX
  8
PLAN_1
 62
     2
  6
CONTINUOUS
 10
-0.167673
 20
-1.301047
  0
VERTEX
  8
PLAN_1
 62
     2
  6
CONTINUOUS
 10
-0.167673
 20
-1.293059
  0
VERTEX
  8
PLAN_1
 62
     2
  6
CONTINUOUS
 10
-0.169268
 20
-1.295189
  0
VERTEX
  8
PLAN_1
 62
     2
  6
CONTINUOUS
 10
-0.170866
 20
-1.297319
  0
VERTEX
  8
PLAN_1
 62
     2
  6
CONTINUOUS
 10
-0.172465
 20
-1.298917
  0
VERTEX
  8
PLAN_1
 62
     2
  6
CONTINUOUS
 10
-0.174598
 20
-1.299984
  0
VERTEX
  8
PLAN_1
 62
     2
  6
CONTINUOUS
 10
-0.176728
 20
-1.301047
  0
VERTEX
  8
PLAN_1
 62
     2
  6
CONTINUOUS
 10
-0.179390
 20
-1.302114
  0
VERTEX
  8
PLAN_1
 62
     2
  6
CONTINUOUS
 10
-0.182055
 20
-1.302646
  0
VERTEX
  8
PLAN_1
 62
     2
  6
CONTINUOUS
 10
-0.185252
 20
-1.302646
  0
VERTEX
  8
PLAN_1
 62
     2
  6
CONTINUOUS
 10
-0.187913
 20
-1.302646
  0
VERTEX
  8
PLAN_1
 62
     2
  6
CONTINUOUS
 10
-0.191110
 20
-1.301583
  0
VERTEX
  8
PLAN_1
 62
     2
  6
CONTINUOUS
 10
-0.194307
 20
-1.300516
  0
VERTEX
  8
PLAN_1
 62
     2
  6
CONTINUOUS
 10
-0.196969
 20
-1.298917
  0
VERTEX
  8
PLAN_1
 62
     2
  6
CONTINUOUS
 10
-0.199102
 20
-1.296787
  0
VERTEX
  8
PLAN_1
 62
     2
  6
CONTINUOUS
 10
-0.201232
 20
-1.294122
  0
VERTEX
  8
PLAN_1
 62
     2
  6
CONTINUOUS
 10
-0.202299
 20
-1.290394
  0
VERTEX
  8
PLAN_1
 62
     2
  6
CONTINUOUS
 10
-0.202831
 20
-1.285598
  0
VERTEX
  8
PLAN_1
 62
     2
  6
CONTINUOUS
 10
-0.202831
 20
-1.246713
  0
VERTEX
  8
PLAN_1
 62
     2
  6
CONTINUOUS
 10
-0.193776
 20
-1.246713
  0
VERTEX
  8
PLAN_1
 62
     2
  6
CONTINUOUS
 10
-0.193776
 20
-1.282937
  0
VERTEX
  8
PLAN_1
 62
     2
  6
CONTINUOUS
 10
-0.193240
 20
-1.285598
  0
VERTEX
  8
PLAN_1
 62
     2
  6
CONTINUOUS
 10
-0.192709
 20
-1.288264
  0
VERTEX
  8
PLAN_1
 62
     2
  6
CONTINUOUS
 10
-0.191642
 20
-1.290394
  0
VERTEX
  8
PLAN_1
 62
     2
  6
CONTINUOUS
 10
-0.190579
 20
-1.291992
  0
VERTEX
  8
PLAN_1
 62
     2
  6
CONTINUOUS
 10
-0.188980
 20
-1.293059
  0
VERTEX
  8
PLAN_1
 62
     2
  6
CONTINUOUS
 10
-0.187382
 20
-1.294122
  0
VERTEX
  8
PLAN_1
 62
     2
  6
CONTINUOUS
 10
-0.185252
 20
-1.294657
  0
VERTEX
  8
PLAN_1
 62
     2
  6
CONTINUOUS
 10
-0.183118
 20
-1.294657
  0
VERTEX
  8
PLAN_1
 62
     2
  6
CONTINUOUS
 10
-0.178858
 20
-1.294122
  0
VERTEX
  8
PLAN_1
 62
     2
  6
CONTINUOUS
 10
-0.175661
 20
-1.293059
  0
VERTEX
  8
PLAN_1
 62
     2
  6
CONTINUOUS
 10
-0.173000
 20
-1.290929
  0
VERTEX
  8
PLAN_1
 62
     2
  6
CONTINUOUS
 10
-0.171402
 20
-1.288795
  0
VERTEX
  8
PLAN_1
 62
     2
  6
CONTINUOUS
 10
-0.169803
 20
-1.285598
  0
VERTEX
  8
PLAN_1
 62
     2
  6
CONTINUOUS
 10
-0.168736
 20
-1.282937
  0
VERTEX
  8
PLAN_1
 62
     2
  6
CONTINUOUS
 10
-0.168205
 20
-1.279740
  0
VERTEX
  8
PLAN_1
 62
     2
  6
CONTINUOUS
 10
-0.168205
 20
-1.276543
  0
VERTEX
  8
PLAN_1
 62
     2
  6
CONTINUOUS
 10
-0.168205
 20
-1.246713
  0
VERTEX
  8
PLAN_1
 62
     2
  6
CONTINUOUS
 10
-0.159150
 20
-1.246713
  0
VERTEX
  8
PLAN_1
 62
     2
  6
CONTINUOUS
 10
-0.159150
 20
-1.301047
  0
VERTEX
  8
PLAN_1
 62
     2
  6
CONTINUOUS
 10
-0.167673
 20
-1.301047
  0
SEQEND
  8
0
  0
POLYLINE
  8
PLAN_1
 62
     2
  6
CONTINUOUS
 66
     1
 40
0.003000
 41
0.003000
  0
VERTEX
  8
PLAN_1
 62
     2
  6
CONTINUOUS
 10
-0.145831
 20
-1.301047
  0
VERTEX
  8
PLAN_1
 62
     2
  6
CONTINUOUS
 10
-0.145831
 20
-1.226469
  0
VERTEX
  8
PLAN_1
 62
     2
  6
CONTINUOUS
 10
-0.136776
 20
-1.226469
  0
VERTEX
  8
PLAN_1
 62
     2
  6
CONTINUOUS
 10
-0.136776
 20
-1.253638
  0
VERTEX
  8
PLAN_1
 62
     2
  6
CONTINUOUS
 10
-0.135177
 20
-1.251508
  0
VERTEX
  8
PLAN_1
 62
     2
  6
CONTINUOUS
 10
-0.133047
 20
-1.249909
  0
VERTEX
  8
PLAN_1
 62
     2
  6
CONTINUOUS
 10
-0.131449
 20
-1.248311
  0
VERTEX
  8
PLAN_1
 62
     2
  6
CONTINUOUS
 10
-0.129315
 20
-1.247244
  0
VERTEX
  8
PLAN_1
 62
     2
  6
CONTINUOUS
 10
-0.127720
 20
-1.246181
  0
VERTEX
  8
PLAN_1
 62
     2
  6
CONTINUOUS
 10
-0.125587
 20
-1.245646
  0
VERTEX
  8
PLAN_1
 62
     2
  6
CONTINUOUS
 10
-0.122925
 20
-1.245114
  0
VERTEX
  8
PLAN_1
 62
     2
  6
CONTINUOUS
 10
-0.120795
 20
-1.245114
  0
VERTEX
  8
PLAN_1
 62
     2
  6
CONTINUOUS
 10
-0.118130
 20
-1.245114
  0
VERTEX
  8
PLAN_1
 62
     2
  6
CONTINUOUS
 10
-0.115465
 20
-1.245646
  0
VERTEX
  8
PLAN_1
 62
     2
  6
CONTINUOUS
 10
-0.113335
 20
-1.246181
  0
VERTEX
  8
PLAN_1
 62
     2
  6
CONTINUOUS
 10
-0.111205
 20
-1.247244
  0
VERTEX
  8
PLAN_1
 62
     2
  6
CONTINUOUS
 10
-0.107476
 20
-1.249378
  0
VERTEX
  8
PLAN_1
 62
     2
  6
CONTINUOUS
 10
-0.104280
 20
-1.253106
  0
VERTEX
  8
PLAN_1
 62
     2
  6
CONTINUOUS
 10
-0.101614
 20
-1.256835
  0
VERTEX
  8
PLAN_1
 62
     2
  6
CONTINUOUS
 10
-0.099484
 20
-1.261630
  0
VERTEX
  8
PLAN_1
 62
     2
  6
CONTINUOUS
 10
-0.098421
 20
-1.266421
  0
VERTEX
  8
PLAN_1
 62
     2
  6
CONTINUOUS
 10
-0.097886
 20
-1.272283
  0
VERTEX
  8
PLAN_1
 62
     2
  6
CONTINUOUS
 10
-0.098421
 20
-1.277079
  0
VERTEX
  8
PLAN_1
 62
     2
  6
CONTINUOUS
 10
-0.099484
 20
-1.282406
  0
VERTEX
  8
PLAN_1
 62
     2
  6
CONTINUOUS
 10
-0.101083
 20
-1.287732
  0
VERTEX
  8
PLAN_1
 62
     2
  6
CONTINUOUS
 10
-0.103213
 20
-1.292524
  0
VERTEX
  8
PLAN_1
 62
     2
  6
CONTINUOUS
 10
-0.104811
 20
-1.294657
  0
VERTEX
  8
PLAN_1
 62
     2
  6
CONTINUOUS
 10
-0.106409
 20
-1.296256
  0
VERTEX
  8
PLAN_1
 62
     2
  6
CONTINUOUS
 10
-0.108539
 20
-1.298386
  0
VERTEX
  8
PLAN_1
 62
     2
  6
CONTINUOUS
 10
-0.110673
 20
-1.299449
  0
VERTEX
  8
PLAN_1
 62
     2
  6
CONTINUOUS
 10
-0.112803
 20
-1.301047
  0
VERTEX
  8
PLAN_1
 62
     2
  6
CONTINUOUS
 10
-0.115465
 20
-1.301583
  0
VERTEX
  8
PLAN_1
 62
     2
  6
CONTINUOUS
 10
-0.118661
 20
-1.302646
  0
VERTEX
  8
PLAN_1
 62
     2
  6
CONTINUOUS
 10
-0.121858
 20
-1.302646
  0
VERTEX
  8
PLAN_1
 62
     2
  6
CONTINUOUS
 10
-0.125055
 20
-1.302114
  0
VERTEX
  8
PLAN_1
 62
     2
  6
CONTINUOUS
 10
-0.128252
 20
-1.301583
  0
VERTEX
  8
PLAN_1
 62
     2
  6
CONTINUOUS
 10
-0.130382
 20
-1.300516
  0
VERTEX
  8
PLAN_1
 62
     2
  6
CONTINUOUS
 10
-0.132512
 20
-1.299449
  0
VERTEX
  8
PLAN_1
 62
     2
  6
CONTINUOUS
 10
-0.134110
 20
-1.298386
  0
VERTEX
  8
PLAN_1
 62
     2
  6
CONTINUOUS
 10
-0.135177
 20
-1.296787
  0
VERTEX
  8
PLAN_1
 62
     2
  6
CONTINUOUS
 10
-0.136240
 20
-1.295720
  0
VERTEX
  8
PLAN_1
 62
     2
  6
CONTINUOUS
 10
-0.136776
 20
-1.294122
  0
VERTEX
  8
PLAN_1
 62
     2
  6
CONTINUOUS
 10
-0.137307
 20
-1.294122
  0
VERTEX
  8
PLAN_1
 62
     2
  6
CONTINUOUS
 10
-0.137307
 20
-1.301047
  0
VERTEX
  8
PLAN_1
 62
     2
  6
CONTINUOUS
 10
-0.145831
 20
-1.301047
  0
SEQEND
  8
0
  0
POLYLINE
  8
PLAN_1
 62
     2
  6
CONTINUOUS
 66
     1
 40
0.003000
 41
0.003000
  0
VERTEX
  8
PLAN_1
 62
     2
  6
CONTINUOUS
 10
-0.122390
 20
-1.253106
  0
VERTEX
  8
PLAN_1
 62
     2
  6
CONTINUOUS
 10
-0.125055
 20
-1.253638
  0
VERTEX
  8
PLAN_1
 62
     2
  6
CONTINUOUS
 10
-0.126654
 20
-1.254169
  0
VERTEX
  8
PLAN_1
 62
     2
  6
CONTINUOUS
 10
-0.128783
 20
-1.254705
  0
VERTEX
  8
PLAN_1
 62
     2
  6
CONTINUOUS
 10
-0.130382
 20
-1.255768
  0
VERTEX
  8
PLAN_1
 62
     2
  6
CONTINUOUS
 10
-0.133047
 20
-1.258433
  0
VERTEX
  8
PLAN_1
 62
     2
  6
CONTINUOUS
 10
-0.134646
 20
-1.261630
  0
VERTEX
  8
PLAN_1
 62
     2
  6
CONTINUOUS
 10
-0.136240
 20
-1.265358
  0
VERTEX
  8
PLAN_1
 62
     2
  6
CONTINUOUS
 10
-0.136776
 20
-1.269087
  0
VERTEX
  8
PLAN_1
 62
     2
  6
CONTINUOUS
 10
-0.137307
 20
-1.272815
  0
VERTEX
  8
PLAN_1
 62
     2
  6
CONTINUOUS
 10
-0.137307
 20
-1.276543
  0
VERTEX
  8
PLAN_1
 62
     2
  6
CONTINUOUS
 10
-0.136776
 20
-1.281339
  0
VERTEX
  8
PLAN_1
 62
     2
  6
CONTINUOUS
 10
-0.135709
 20
-1.285598
  0
VERTEX
  8
PLAN_1
 62
     2
  6
CONTINUOUS
 10
-0.134110
 20
-1.288264
  0
VERTEX
  8
PLAN_1
 62
     2
  6
CONTINUOUS
 10
-0.131980
 20
-1.290929
  0
VERTEX
  8
PLAN_1
 62
     2
  6
CONTINUOUS
 10
-0.129315
 20
-1.292524
  0
VERTEX
  8
PLAN_1
 62
     2
  6
CONTINUOUS
 10
-0.127185
 20
-1.294122
  0
VERTEX
  8
PLAN_1
 62
     2
  6
CONTINUOUS
 10
-0.124524
 20
-1.294657
  0
VERTEX
  8
PLAN_1
 62
     2
  6
CONTINUOUS
 10
-0.122390
 20
-1.294657
  0
VERTEX
  8
PLAN_1
 62
     2
  6
CONTINUOUS
 10
-0.118661
 20
-1.294122
  0
VERTEX
  8
PLAN_1
 62
     2
  6
CONTINUOUS
 10
-0.116000
 20
-1.293059
  0
VERTEX
  8
PLAN_1
 62
     2
  6
CONTINUOUS
 10
-0.113335
 20
-1.291461
  0
VERTEX
  8
PLAN_1
 62
     2
  6
CONTINUOUS
 10
-0.111205
 20
-1.288795
  0
VERTEX
  8
PLAN_1
 62
     2
  6
CONTINUOUS
 10
-0.109606
 20
-1.285598
  0
VERTEX
  8
PLAN_1
 62
     2
  6
CONTINUOUS
 10
-0.108539
 20
-1.281870
  0
VERTEX
  8
PLAN_1
 62
     2
  6
CONTINUOUS
 10
-0.108008
 20
-1.278142
  0
VERTEX
  8
PLAN_1
 62
     2
  6
CONTINUOUS
 10
-0.107476
 20
-1.273882
  0
VERTEX
  8
PLAN_1
 62
     2
  6
CONTINUOUS
 10
-0.107476
 20
-1.270685
  0
VERTEX
  8
PLAN_1
 62
     2
  6
CONTINUOUS
 10
-0.108008
 20
-1.267488
  0
VERTEX
  8
PLAN_1
 62
     2
  6
CONTINUOUS
 10
-0.108539
 20
-1.264291
  0
VERTEX
  8
PLAN_1
 62
     2
  6
CONTINUOUS
 10
-0.109606
 20
-1.261094
  0
VERTEX
  8
PLAN_1
 62
     2
  6
CONTINUOUS
 10
-0.111736
 20
-1.257898
  0
VERTEX
  8
PLAN_1
 62
     2
  6
CONTINUOUS
 10
-0.114402
 20
-1.255236
  0
VERTEX
  8
PLAN_1
 62
     2
  6
CONTINUOUS
 10
-0.116000
 20
-1.254705
  0
VERTEX
  8
PLAN_1
 62
     2
  6
CONTINUOUS
 10
-0.117598
 20
-1.253638
  0
VERTEX
  8
PLAN_1
 62
     2
  6
CONTINUOUS
 10
-0.119728
 20
-1.253638
  0
VERTEX
  8
PLAN_1
 62
     2
  6
CONTINUOUS
 10
-0.122390
 20
-1.253106
  0
SEQEND
  8
0
  0
POLYLINE
  8
PLAN_1
 62
     2
  6
CONTINUOUS
 66
     1
 40
0.003000
 41
0.003000
  0
VERTEX
  8
PLAN_1
 62
     2
  6
CONTINUOUS
 10
-0.040886
 20
-1.284004
  0
VERTEX
  8
PLAN_1
 62
     2
  6
CONTINUOUS
 10
-0.041421
 20
-1.285067
  0
VERTEX
  8
PLAN_1
 62
     2
  6
CONTINUOUS
 10
-0.041953
 20
-1.286665
  0
VERTEX
  8
PLAN_1
 62
     2
  6
CONTINUOUS
 10
-0.042484
 20
-1.288795
  0
VERTEX
  8
PLAN_1
 62
     2
  6
CONTINUOUS
 10
-0.043551
 20
-1.290929
  0
VERTEX
  8
PLAN_1
 62
     2
  6
CONTINUOUS
 10
-0.044618
 20
-1.293059
  0
VERTEX
  8
PLAN_1
 62
     2
  6
CONTINUOUS
 10
-0.046217
 20
-1.295189
  0
VERTEX
  8
PLAN_1
 62
     2
  6
CONTINUOUS
 10
-0.048346
 20
-1.296787
  0
VERTEX
  8
PLAN_1
 62
     2
  6
CONTINUOUS
 10
-0.050476
 20
-1.298917
  0
VERTEX
  8
PLAN_1
 62
     2
  6
CONTINUOUS
 10
-0.051543
 20
-1.299449
  0
VERTEX
  8
PLAN_1
 62
     2
  6
CONTINUOUS
 10
-0.052606
 20
-1.299984
  0
VERTEX
  8
PLAN_1
 62
     2
  6
CONTINUOUS
 10
-0.054205
 20
-1.300516
  0
VERTEX
  8
PLAN_1
 62
     2
  6
CONTINUOUS
 10
-0.055803
 20
-1.301583
  0
VERTEX
  8
PLAN_1
 62
     2
  6
CONTINUOUS
 10
-0.057402
 20
-1.302114
  0
VERTEX
  8
PLAN_1
 62
     2
  6
CONTINUOUS
 10
-0.060063
 20
-1.302114
  0
VERTEX
  8
PLAN_1
 62
     2
  6
CONTINUOUS
 10
-0.062728
 20
-1.302646
  0
VERTEX
  8
PLAN_1
 62
     2
  6
CONTINUOUS
 10
-0.065394
 20
-1.302646
  0
VERTEX
  8
PLAN_1
 62
     2
  6
CONTINUOUS
 10
-0.068055
 20
-1.302646
  0
VERTEX
  8
PLAN_1
 62
     2
  6
CONTINUOUS
 10
-0.070720
 20
-1.302114
  0
VERTEX
  8
PLAN_1
 62
     2
  6
CONTINUOUS
 10
-0.073382
 20
-1.301583
  0
VERTEX
  8
PLAN_1
 62
     2
  6
CONTINUOUS
 10
-0.075512
 20
-1.300516
  0
VERTEX
  8
PLAN_1
 62
     2
  6
CONTINUOUS
 10
-0.078177
 20
-1.299449
  0
VERTEX
  8
PLAN_1
 62
     2
  6
CONTINUOUS
 10
-0.079776
 20
-1.297854
  0
VERTEX
  8
PLAN_1
 62
     2
  6
CONTINUOUS
 10
-0.081906
 20
-1.296787
  0
VERTEX
  8
PLAN_1
 62
     2
  6
CONTINUOUS
 10
-0.083504
 20
-1.294657
  0
VERTEX
  8
PLAN_1
 62
     2
  6
CONTINUOUS
 10
-0.086169
 20
-1.290929
  0
VERTEX
  8
PLAN_1
 62
     2
  6
CONTINUOUS
 10
-0.088299
 20
-1.286134
  0
VERTEX
  8
PLAN_1
 62
     2
  6
CONTINUOUS
 10
-0.089362
 20
-1.280807
  0
VERTEX
  8
PLAN_1
 62
     2
  6
CONTINUOUS
 10
-0.089898
 20
-1.275480
  0
VERTEX
  8
PLAN_1
 62
     2
  6
CONTINUOUS
 10
-0.089362
 20
-1.269087
  0
VERTEX
  8
PLAN_1
 62
     2
  6
CONTINUOUS
 10
-0.088299
 20
-1.263760
  0
VERTEX
  8
PLAN_1
 62
     2
  6
CONTINUOUS
 10
-0.086169
 20
-1.258433
  0
VERTEX
  8
PLAN_1
 62
     2
  6
CONTINUOUS
 10
-0.083504
 20
-1.253638
  0
VERTEX
  8
PLAN_1
 62
     2
  6
CONTINUOUS
 10
-0.081906
 20
-1.252039
  0
VERTEX
  8
PLAN_1
 62
     2
  6
CONTINUOUS
 10
-0.079776
 20
-1.250441
  0
VERTEX
  8
PLAN_1
 62
     2
  6
CONTINUOUS
 10
-0.077646
 20
-1.248843
  0
VERTEX
  8
PLAN_1
 62
     2
  6
CONTINUOUS
 10
-0.075512
 20
-1.247244
  0
VERTEX
  8
PLAN_1
 62
     2
  6
CONTINUOUS
 10
-0.072850
 20
-1.246181
  0
VERTEX
  8
PLAN_1
 62
     2
  6
CONTINUOUS
 10
-0.070185
 20
-1.245646
  0
VERTEX
  8
PLAN_1
 62
     2
  6
CONTINUOUS
 10
-0.066988
 20
-1.245114
  0
VERTEX
  8
PLAN_1
 62
     2
  6
CONTINUOUS
 10
-0.063795
 20
-1.245114
  0
VERTEX
  8
PLAN_1
 62
     2
  6
CONTINUOUS
 10
-0.061130
 20
-1.245114
  0
VERTEX
  8
PLAN_1
 62
     2
  6
CONTINUOUS
 10
-0.058469
 20
-1.245646
  0
VERTEX
  8
PLAN_1
 62
     2
  6
CONTINUOUS
 10
-0.055803
 20
-1.246181
  0
VERTEX
  8
PLAN_1
 62
     2
  6
CONTINUOUS
 10
-0.053673
 20
-1.247244
  0
VERTEX
  8
PLAN_1
 62
     2
  6
CONTINUOUS
 10
-0.051543
 20
-1.248311
  0
VERTEX
  8
PLAN_1
 62
     2
  6
CONTINUOUS
 10
-0.049409
 20
-1.249909
  0
VERTEX
  8
PLAN_1
 62
     2
  6
CONTINUOUS
 10
-0.047811
 20
-1.251508
  0
VERTEX
  8
PLAN_1
 62
     2
  6
CONTINUOUS
 10
-0.046217
 20
-1.253638
  0
VERTEX
  8
PLAN_1
 62
     2
  6
CONTINUOUS
 10
-0.043551
 20
-1.258433
  0
VERTEX
  8
PLAN_1
 62
     2
  6
CONTINUOUS
 10
-0.041953
 20
-1.263760
  0
VERTEX
  8
PLAN_1
 62
     2
  6
CONTINUOUS
 10
-0.040886
 20
-1.270154
  0
VERTEX
  8
PLAN_1
 62
     2
  6
CONTINUOUS
 10
-0.040354
 20
-1.276543
  0
VERTEX
  8
PLAN_1
 62
     2
  6
CONTINUOUS
 10
-0.080307
 20
-1.276543
  0
VERTEX
  8
PLAN_1
 62
     2
  6
CONTINUOUS
 10
-0.079776
 20
-1.280807
  0
VERTEX
  8
PLAN_1
 62
     2
  6
CONTINUOUS
 10
-0.079244
 20
-1.284535
  0
VERTEX
  8
PLAN_1
 62
     2
  6
CONTINUOUS
 10
-0.077646
 20
-1.287197
  0
VERTEX
  8
PLAN_1
 62
     2
  6
CONTINUOUS
 10
-0.076047
 20
-1.289862
  0
VERTEX
  8
PLAN_1
 62
     2
  6
CONTINUOUS
 10
-0.073913
 20
-1.291992
  0
VERTEX
  8
PLAN_1
 62
     2
  6
CONTINUOUS
 10
-0.071252
 20
-1.293591
  0
VERTEX
  8
PLAN_1
 62
     2
  6
CONTINUOUS
 10
-0.068055
 20
-1.294122
  0
VERTEX
  8
PLAN_1
 62
     2
  6
CONTINUOUS
 10
-0.064327
 20
-1.294657
  0
VERTEX
  8
PLAN_1
 62
     2
  6
CONTINUOUS
 10
-0.061130
 20
-1.294657
  0
VERTEX
  8
PLAN_1
 62
     2
  6
CONTINUOUS
 10
-0.058469
 20
-1.293591
  0
VERTEX
  8
PLAN_1
 62
     2
  6
CONTINUOUS
 10
-0.056335
 20
-1.292524
  0
VERTEX
  8
PLAN_1
 62
     2
  6
CONTINUOUS
 10
-0.054205
 20
-1.290929
  0
VERTEX
  8
PLAN_1
 62
     2
  6
CONTINUOUS
 10
-0.052606
 20
-1.289331
  0
VERTEX
  8
PLAN_1
 62
     2
  6
CONTINUOUS
 10
-0.051543
 20
-1.287197
  0
VERTEX
  8
PLAN_1
 62
     2
  6
CONTINUOUS
 10
-0.050476
 20
-1.285598
  0
VERTEX
  8
PLAN_1
 62
     2
  6
CONTINUOUS
 10
-0.050476
 20
-1.284004
  0
VERTEX
  8
PLAN_1
 62
     2
  6
CONTINUOUS
 10
-0.040886
 20
-1.284004
  0
SEQEND
  8
0
  0
POLYLINE
  8
PLAN_1
 62
     2
  6
CONTINUOUS
 66
     1
 40
0.003000
 41
0.003000
  0
VERTEX
  8
PLAN_1
 62
     2
  6
CONTINUOUS
 10
-0.049945
 20
-1.269618
  0
VERTEX
  8
PLAN_1
 62
     2
  6
CONTINUOUS
 10
-0.049945
 20
-1.266421
  0
VERTEX
  8
PLAN_1
 62
     2
  6
CONTINUOUS
 10
-0.051008
 20
-1.263228
  0
VERTEX
  8
PLAN_1
 62
     2
  6
CONTINUOUS
 10
-0.052075
 20
-1.260563
  0
VERTEX
  8
PLAN_1
 62
     2
  6
CONTINUOUS
 10
-0.053673
 20
-1.258433
  0
VERTEX
  8
PLAN_1
 62
     2
  6
CONTINUOUS
 10
-0.055272
 20
-1.256303
  0
VERTEX
  8
PLAN_1
 62
     2
  6
CONTINUOUS
 10
-0.057933
 20
-1.254705
  0
VERTEX
  8
PLAN_1
 62
     2
  6
CONTINUOUS
 10
-0.061130
 20
-1.253638
  0
VERTEX
  8
PLAN_1
 62
     2
  6
CONTINUOUS
 10
-0.064858
 20
-1.253106
  0
VERTEX
  8
PLAN_1
 62
     2
  6
CONTINUOUS
 10
-0.068055
 20
-1.253638
  0
VERTEX
  8
PLAN_1
 62
     2
  6
CONTINUOUS
 10
-0.070720
 20
-1.254705
  0
VERTEX
  8
PLAN_1
 62
     2
  6
CONTINUOUS
 10
-0.073382
 20
-1.256303
  0
VERTEX
  8
PLAN_1
 62
     2
  6
CONTINUOUS
 10
-0.075512
 20
-1.258433
  0
VERTEX
  8
PLAN_1
 62
     2
  6
CONTINUOUS
 10
-0.077646
 20
-1.260563
  0
VERTEX
  8
PLAN_1
 62
     2
  6
CONTINUOUS
 10
-0.078709
 20
-1.263228
  0
VERTEX
  8
PLAN_1
 62
     2
  6
CONTINUOUS
 10
-0.079776
 20
-1.266421
  0
VERTEX
  8
PLAN_1
 62
     2
  6
CONTINUOUS
 10
-0.080307
 20
-1.269618
  0
VERTEX
  8
PLAN_1
 62
     2
  6
CONTINUOUS
 10
-0.049945
 20
-1.269618
  0
SEQEND
  8
0
  0
POLYLINE
  8
PLAN_1
 62
     2
  6
CONTINUOUS
 66
     1
 40
0.003000
 41
0.003000
  0
VERTEX
  8
PLAN_1
 62
     2
  6
CONTINUOUS
 10
0.029961
 20
-1.301047
  0
VERTEX
  8
PLAN_1
 62
     2
  6
CONTINUOUS
 10
0.020374
 20
-1.301047
  0
VERTEX
  8
PLAN_1
 62
     2
  6
CONTINUOUS
 10
0.020374
 20
-1.249378
  0
VERTEX
  8
PLAN_1
 62
     2
  6
CONTINUOUS
 10
0.003327
 20
-1.249378
  0
VERTEX
  8
PLAN_1
 62
     2
  6
CONTINUOUS
 10
0.003327
 20
-1.241917
  0
VERTEX
  8
PLAN_1
 62
     2
  6
CONTINUOUS
 10
0.007591
 20
-1.241386
  0
VERTEX
  8
PLAN_1
 62
     2
  6
CONTINUOUS
 10
0.010783
 20
-1.240854
  0
VERTEX
  8
PLAN_1
 62
     2
  6
CONTINUOUS
 10
0.013980
 20
-1.240319
  0
VERTEX
  8
PLAN_1
 62
     2
  6
CONTINUOUS
 10
0.016646
 20
-1.239256
  0
VERTEX
  8
PLAN_1
 62
     2
  6
CONTINUOUS
 10
0.018776
 20
-1.237122
  0
VERTEX
  8
PLAN_1
 62
     2
  6
CONTINUOUS
 10
0.020374
 20
-1.234992
  0
VERTEX
  8
PLAN_1
 62
     2
  6
CONTINUOUS
 10
0.021972
 20
-1.231795
  0
VERTEX
  8
PLAN_1
 62
     2
  6
CONTINUOUS
 10
0.023035
 20
-1.228067
  0
VERTEX
  8
PLAN_1
 62
     2
  6
CONTINUOUS
 10
0.029961
 20
-1.228067
  0
VERTEX
  8
PLAN_1
 62
     2
  6
CONTINUOUS
 10
0.029961
 20
-1.301047
  0
SEQEND
  8
0
  0
SOLID
  8
PLAN_1
 62
     2
 10
0.056063
 20
-1.303181
 11
0.049142
 21
-1.303181
 12
0.081634
 22
-1.224339
 13
0.074709
 23
-1.224339
  0
POLYLINE
  8
PLAN_1
 62
     2
  6
CONTINUOUS
 66
     1
 40
0.003000
 41
0.003000
  0
VERTEX
  8
PLAN_1
 62
     2
  6
CONTINUOUS
 10
0.056063
 20
-1.303181
  0
VERTEX
  8
PLAN_1
 62
     2
  6
CONTINUOUS
 10
0.049142
 20
-1.303181
  0
VERTEX
  8
PLAN_1
 62
     2
  6
CONTINUOUS
 10
0.074709
 20
-1.224339
  0
VERTEX
  8
PLAN_1
 62
     2
  6
CONTINUOUS
 10
0.081634
 20
-1.224339
  0
VERTEX
  8
PLAN_1
 62
     2
  6
CONTINUOUS
 10
0.056063
 20
-1.303181
  0
SEQEND
  8
0
  0
POLYLINE
  8
PLAN_1
 62
     2
  6
CONTINUOUS
 66
     1
 40
0.003000
 41
0.003000
  0
VERTEX
  8
PLAN_1
 62
     2
  6
CONTINUOUS
 10
0.084299
 20
-1.254169
  0
VERTEX
  8
PLAN_1
 62
     2
  6
CONTINUOUS
 10
0.084299
 20
-1.249909
  0
VERTEX
  8
PLAN_1
 62
     2
  6
CONTINUOUS
 10
0.084831
 20
-1.246181
  0
VERTEX
  8
PLAN_1
 62
     2
  6
CONTINUOUS
 10
0.085898
 20
-1.242984
  0
VERTEX
  8
PLAN_1
 62
     2
  6
CONTINUOUS
 10
0.086961
 20
-1.239787
  0
VERTEX
  8
PLAN_1
 62
     2
  6
CONTINUOUS
 10
0.088559
 20
-1.237657
  0
VERTEX
  8
PLAN_1
 62
     2
  6
CONTINUOUS
 10
0.090157
 20
-1.235528
  0
VERTEX
  8
PLAN_1
 62
     2
  6
CONTINUOUS
 10
0.091756
 20
-1.233394
  0
VERTEX
  8
PLAN_1
 62
     2
  6
CONTINUOUS
 10
0.093886
 20
-1.231795
  0
VERTEX
  8
PLAN_1
 62
     2
  6
CONTINUOUS
 10
0.098150
 20
-1.229665
  0
VERTEX
  8
PLAN_1
 62
     2
  6
CONTINUOUS
 10
0.102409
 20
-1.228602
  0
VERTEX
  8
PLAN_1
 62
     2
  6
CONTINUOUS
 10
0.106138
 20
-1.228067
  0
VERTEX
  8
PLAN_1
 62
     2
  6
CONTINUOUS
 10
0.109335
 20
-1.228067
  0
VERTEX
  8
PLAN_1
 62
     2
  6
CONTINUOUS
 10
0.114130
 20
-1.228067
  0
VERTEX
  8
PLAN_1
 62
     2
  6
CONTINUOUS
 10
0.118390
 20
-1.229134
  0
VERTEX
  8
PLAN_1
 62
     2
  6
CONTINUOUS
 10
0.122122
 20
-1.231264
  0
VERTEX
  8
PLAN_1
 62
     2
  6
CONTINUOUS
 10
0.125850
 20
-1.233929
  0
VERTEX
  8
PLAN_1
 62
     2
  6
CONTINUOUS
 10
0.128512
 20
-1.236591
  0
VERTEX
  8
PLAN_1
 62
     2
  6
CONTINUOUS
 10
0.130646
 20
-1.240319
  0
VERTEX
  8
PLAN_1
 62
     2
  6
CONTINUOUS
 10
0.131709
 20
-1.245114
  0
VERTEX
  8
PLAN_1
 62
     2
  6
CONTINUOUS
 10
0.132240
 20
-1.249909
  0
VERTEX
  8
PLAN_1
 62
     2
  6
CONTINUOUS
 10
0.132240
 20
-1.254169
  0
VERTEX
  8
PLAN_1
 62
     2
  6
CONTINUOUS
 10
0.130646
 20
-1.258433
  0
VERTEX
  8
PLAN_1
 62
     2
  6
CONTINUOUS
 10
0.129047
 20
-1.261630
  0
VERTEX
  8
PLAN_1
 62
     2
  6
CONTINUOUS
 10
0.126913
 20
-1.264823
  0
VERTEX
  8
PLAN_1
 62
     2
  6
CONTINUOUS
 10
0.123720
 20
-1.267488
  0
VERTEX
  8
PLAN_1
 62
     2
  6
CONTINUOUS
 10
0.120524
 20
-1.269618
  0
VERTEX
  8
PLAN_1
 62
     2
  6
CONTINUOUS
 10
0.116795
 20
-1.271748
  0
VERTEX
  8
PLAN_1
 62
     2
  6
CONTINUOUS
 10
0.113063
 20
-1.274413
  0
VERTEX
  8
PLAN_1
 62
     2
  6
CONTINUOUS
 10
0.105075
 20
-1.278142
  0
VERTEX
  8
PLAN_1
 62
     2
  6
CONTINUOUS
 10
0.101878
 20
-1.280272
  0
VERTEX
  8
PLAN_1
 62
     2
  6
CONTINUOUS
 10
0.099213
 20
-1.282406
  0
VERTEX
  8
PLAN_1
 62
     2
  6
CONTINUOUS
 10
0.097083
 20
-1.284535
  0
VERTEX
  8
PLAN_1
 62
     2
  6
CONTINUOUS
 10
0.095484
 20
-1.286134
  0
VERTEX
  8
PLAN_1
 62
     2
  6
CONTINUOUS
 10
0.094421
 20
-1.288264
  0
VERTEX
  8
PLAN_1
 62
     2
  6
CONTINUOUS
 10
0.093354
 20
-1.289862
  0
VERTEX
  8
PLAN_1
 62
     2
  6
CONTINUOUS
 10
0.092823
 20
-1.291461
  0
VERTEX
  8
PLAN_1
 62
     2
  6
CONTINUOUS
 10
0.092823
 20
-1.292524
  0
VERTEX
  8
PLAN_1
 62
     2
  6
CONTINUOUS
 10
0.132240
 20
-1.292524
  0
VERTEX
  8
PLAN_1
 62
     2
  6
CONTINUOUS
 10
0.132240
 20
-1.301047
  0
VERTEX
  8
PLAN_1
 62
     2
  6
CONTINUOUS
 10
0.082169
 20
-1.301047
  0
VERTEX
  8
PLAN_1
 62
     2
  6
CONTINUOUS
 10
0.082701
 20
-1.295720
  0
VERTEX
  8
PLAN_1
 62
     2
  6
CONTINUOUS
 10
0.083764
 20
-1.290929
  0
VERTEX
  8
PLAN_1
 62
     2
  6
CONTINUOUS
 10
0.085362
 20
-1.286665
  0
VERTEX
  8
PLAN_1
 62
     2
  6
CONTINUOUS
 10
0.087496
 20
-1.282937
  0
VERTEX
  8
PLAN_1
 62
     2
  6
CONTINUOUS
 10
0.090157
 20
-1.279740
  0
VERTEX
  8
PLAN_1
 62
     2
  6
CONTINUOUS
 10
0.092823
 20
-1.277079
  0
VERTEX
  8
PLAN_1
 62
     2
  6
CONTINUOUS
 10
0.096020
 20
-1.274413
  0
VERTEX
  8
PLAN_1
 62
     2
  6
CONTINUOUS
 10
0.099748
 20
-1.271748
  0
VERTEX
  8
PLAN_1
 62
     2
  6
CONTINUOUS
 10
0.109335
 20
-1.266421
  0
VERTEX
  8
PLAN_1
 62
     2
  6
CONTINUOUS
 10
0.112000
 20
-1.264823
  0
VERTEX
  8
PLAN_1
 62
     2
  6
CONTINUOUS
 10
0.114661
 20
-1.263228
  0
VERTEX
  8
PLAN_1
 62
     2
  6
CONTINUOUS
 10
0.116795
 20
-1.261630
  0
VERTEX
  8
PLAN_1
 62
     2
  6
CONTINUOUS
 10
0.118925
 20
-1.260031
  0
VERTEX
  8
PLAN_1
 62
     2
  6
CONTINUOUS
 10
0.120524
 20
-1.257898
  0
VERTEX
  8
PLAN_1
 62
     2
  6
CONTINUOUS
 10
0.121587
 20
-1.255236
  0
VERTEX
  8
PLAN_1
 62
     2
  6
CONTINUOUS
 10
0.122122
 20
-1.252571
  0
VERTEX
  8
PLAN_1
 62
     2
  6
CONTINUOUS
 10
0.122654
 20
-1.249378
  0
VERTEX
  8
PLAN_1
 62
     2
  6
CONTINUOUS
 10
0.122654
 20
-1.247244
  0
VERTEX
  8
PLAN_1
 62
     2
  6
CONTINUOUS
 10
0.122122
 20
-1.244583
  0
VERTEX
  8
PLAN_1
 62
     2
  6
CONTINUOUS
 10
0.121055
 20
-1.242453
  0
VERTEX
  8
PLAN_1
 62
     2
  6
CONTINUOUS
 10
0.119457
 20
-1.240319
  0
VERTEX
  8
PLAN_1
 62
     2
  6
CONTINUOUS
 10
0.117327
 20
-1.238720
  0
VERTEX
  8
PLAN_1
 62
     2
  6
CONTINUOUS
 10
0.115197
 20
-1.237122
  0
VERTEX
  8
PLAN_1
 62
     2
  6
CONTINUOUS
 10
0.112000
 20
-1.236591
  0
VERTEX
  8
PLAN_1
 62
     2
  6
CONTINUOUS
 10
0.108272
 20
-1.236059
  0
VERTEX
  8
PLAN_1
 62
     2
  6
CONTINUOUS
 10
0.105606
 20
-1.236059
  0
VERTEX
  8
PLAN_1
 62
     2
  6
CONTINUOUS
 10
0.103476
 20
-1.236591
  0
VERTEX
  8
PLAN_1
 62
     2
  6
CONTINUOUS
 10
0.101878
 20
-1.237122
  0
VERTEX
  8
PLAN_1
 62
     2
  6
CONTINUOUS
 10
0.100280
 20
-1.238189
  0
VERTEX
  8
PLAN_1
 62
     2
  6
CONTINUOUS
 10
0.097614
 20
-1.240319
  0
VERTEX
  8
PLAN_1
 62
     2
  6
CONTINUOUS
 10
0.095484
 20
-1.242984
  0
VERTEX
  8
PLAN_1
 62
     2
  6
CONTINUOUS
 10
0.094421
 20
-1.246181
  0
VERTEX
  8
PLAN_1
 62
     2
  6
CONTINUOUS
 10
0.093886
 20
-1.249378
  0
VERTEX
  8
PLAN_1
 62
     2
  6
CONTINUOUS
 10
0.093354
 20
-1.252039
  0
VERTEX
  8
PLAN_1
 62
     2
  6
CONTINUOUS
 10
0.093354
 20
-1.254169
  0
VERTEX
  8
PLAN_1
 62
     2
  6
CONTINUOUS
 10
0.084299
 20
-1.254169
  0
SEQEND
  8
0
  0
SOLID
  8
PLAN_1
 62
     2
 10
0.145028
 20
-1.226469
 11
0.152484
 21
-1.226469
 12
0.145028
 22
-1.253106
 13
0.152484
 23
-1.253106
  0
POLYLINE
  8
PLAN_1
 62
     2
  6
CONTINUOUS
 66
     1
 40
0.003000
 41
0.003000
  0
VERTEX
  8
PLAN_1
 62
     2
  6
CONTINUOUS
 10
0.145028
 20
-1.226469
  0
VERTEX
  8
PLAN_1
 62
     2
  6
CONTINUOUS
 10
0.152484
 20
-1.226469
  0
VERTEX
  8
PLAN_1
 62
     2
  6
CONTINUOUS
 10
0.152484
 20
-1.253106
  0
VERTEX
  8
PLAN_1
 62
     2
  6
CONTINUOUS
 10
0.145028
 20
-1.253106
  0
VERTEX
  8
PLAN_1
 62
     2
  6
CONTINUOUS
 10
0.145028
 20
-1.226469
  0
SEQEND
  8
0
  0
SOLID
  8
PLAN_1
 62
     2
 10
0.159409
 20
-1.226469
 11
0.167402
 21
-1.226469
 12
0.159409
 22
-1.253106
 13
0.167402
 23
-1.253106
  0
POLYLINE
  8
PLAN_1
 62
     2
  6
CONTINUOUS
 66
     1
 40
0.003000
 41
0.003000
  0
VERTEX
  8
PLAN_1
 62
     2
  6
CONTINUOUS
 10
0.159409
 20
-1.226469
  0
VERTEX
  8
PLAN_1
 62
     2
  6
CONTINUOUS
 10
0.167402
 20
-1.226469
  0
VERTEX
  8
PLAN_1
 62
     2
  6
CONTINUOUS
 10
0.167402
 20
-1.253106
  0
VERTEX
  8
PLAN_1
 62
     2
  6
CONTINUOUS
 10
0.159409
 20
-1.253106
  0
VERTEX
  8
PLAN_1
 62
     2
  6
CONTINUOUS
 10
0.159409
 20
-1.226469
  0
SEQEND
  8
0
  0
POLYLINE
  8
PLAN_1
 62
     2
  6
CONTINUOUS
 66
     1
 40
0.003000
 41
0.003000
  0
VERTEX
  8
PLAN_1
 62
     2
  6
CONTINUOUS
 10
0.260626
 20
-1.226469
  0
VERTEX
  8
PLAN_1
 62
     2
  6
CONTINUOUS
 10
0.270744
 20
-1.226469
  0
VERTEX
  8
PLAN_1
 62
     2
  6
CONTINUOUS
 10
0.270744
 20
-1.301047
  0
VERTEX
  8
PLAN_1
 62
     2
  6
CONTINUOUS
 10
0.259559
 20
-1.301047
  0
VERTEX
  8
PLAN_1
 62
     2
  6
CONTINUOUS
 10
0.221205
 20
-1.240854
  0
VERTEX
  8
PLAN_1
 62
     2
  6
CONTINUOUS
 10
0.221205
 20
-1.301047
  0
VERTEX
  8
PLAN_1
 62
     2
  6
CONTINUOUS
 10
0.211614
 20
-1.301047
  0
VERTEX
  8
PLAN_1
 62
     2
  6
CONTINUOUS
 10
0.211614
 20
-1.226469
  0
VERTEX
  8
PLAN_1
 62
     2
  6
CONTINUOUS
 10
0.223335
 20
-1.226469
  0
VERTEX
  8
PLAN_1
 62
     2
  6
CONTINUOUS
 10
0.260626
 20
-1.286665
  0
VERTEX
  8
PLAN_1
 62
     2
  6
CONTINUOUS
 10
0.260626
 20
-1.226469
  0
SEQEND
  8
0
  0
POLYLINE
  8
PLAN_1
 62
     2
  6
CONTINUOUS
 66
     1
 40
0.003000
 41
0.003000
  0
VERTEX
  8
PLAN_1
 62
     2
  6
CONTINUOUS
 10
0.297913
 20
-1.301047
  0
VERTEX
  8
PLAN_1
 62
     2
  6
CONTINUOUS
 10
0.287791
 20
-1.301047
  0
VERTEX
  8
PLAN_1
 62
     2
  6
CONTINUOUS
 10
0.287791
 20
-1.226469
  0
VERTEX
  8
PLAN_1
 62
     2
  6
CONTINUOUS
 10
0.321354
 20
-1.226469
  0
VERTEX
  8
PLAN_1
 62
     2
  6
CONTINUOUS
 10
0.326146
 20
-1.227004
  0
VERTEX
  8
PLAN_1
 62
     2
  6
CONTINUOUS
 10
0.330409
 20
-1.228067
  0
VERTEX
  8
PLAN_1
 62
     2
  6
CONTINUOUS
 10
0.334138
 20
-1.229665
  0
VERTEX
  8
PLAN_1
 62
     2
  6
CONTINUOUS
 10
0.337335
 20
-1.232331
  0
VERTEX
  8
PLAN_1
 62
     2
  6
CONTINUOUS
 10
0.339996
 20
-1.235528
  0
VERTEX
  8
PLAN_1
 62
     2
  6
CONTINUOUS
 10
0.341594
 20
-1.238720
  0
VERTEX
  8
PLAN_1
 62
     2
  6
CONTINUOUS
 10
0.343193
 20
-1.242984
  0
VERTEX
  8
PLAN_1
 62
     2
  6
CONTINUOUS
 10
0.343193
 20
-1.247244
  0
VERTEX
  8
PLAN_1
 62
     2
  6
CONTINUOUS
 10
0.343193
 20
-1.251508
  0
VERTEX
  8
PLAN_1
 62
     2
  6
CONTINUOUS
 10
0.342130
 20
-1.255236
  0
VERTEX
  8
PLAN_1
 62
     2
  6
CONTINUOUS
 10
0.340531
 20
-1.258965
  0
VERTEX
  8
PLAN_1
 62
     2
  6
CONTINUOUS
 10
0.338398
 20
-1.262161
  0
VERTEX
  8
PLAN_1
 62
     2
  6
CONTINUOUS
 10
0.335205
 20
-1.265358
  0
VERTEX
  8
PLAN_1
 62
     2
  6
CONTINUOUS
 10
0.331472
 20
-1.267488
  0
VERTEX
  8
PLAN_1
 62
     2
  6
CONTINUOUS
 10
0.329343
 20
-1.268555
  0
VERTEX
  8
PLAN_1
 62
     2
  6
CONTINUOUS
 10
0.326681
 20
-1.269087
  0
VERTEX
  8
PLAN_1
 62
     2
  6
CONTINUOUS
 10
0.324016
 20
-1.269618
  0
VERTEX
  8
PLAN_1
 62
     2
  6
CONTINUOUS
 10
0.321354
 20
-1.269618
  0
VERTEX
  8
PLAN_1
 62
     2
  6
CONTINUOUS
 10
0.297913
 20
-1.269618
  0
VERTEX
  8
PLAN_1
 62
     2
  6
CONTINUOUS
 10
0.297913
 20
-1.301047
  0
SEQEND
  8
0
  0
POLYLINE
  8
PLAN_1
 62
     2
  6
CONTINUOUS
 66
     1
 40
0.003000
 41
0.003000
  0
VERTEX
  8
PLAN_1
 62
     2
  6
CONTINUOUS
 10
0.297913
 20
-1.261094
  0
VERTEX
  8
PLAN_1
 62
     2
  6
CONTINUOUS
 10
0.317622
 20
-1.261094
  0
VERTEX
  8
PLAN_1
 62
     2
  6
CONTINUOUS
 10
0.320819
 20
-1.260563
  0
VERTEX
  8
PLAN_1
 62
     2
  6
CONTINUOUS
 10
0.324016
 20
-1.260031
  0
VERTEX
  8
PLAN_1
 62
     2
  6
CONTINUOUS
 10
0.326681
 20
-1.259496
  0
VERTEX
  8
PLAN_1
 62
     2
  6
CONTINUOUS
 10
0.328811
 20
-1.257898
  0
VERTEX
  8
PLAN_1
 62
     2
  6
CONTINUOUS
 10
0.330409
 20
-1.256303
  0
VERTEX
  8
PLAN_1
 62
     2
  6
CONTINUOUS
 10
0.332008
 20
-1.253638
  0
VERTEX
  8
PLAN_1
 62
     2
  6
CONTINUOUS
 10
0.332539
 20
-1.250972
  0
VERTEX
  8
PLAN_1
 62
     2
  6
CONTINUOUS
 10
0.333071
 20
-1.247244
  0
VERTEX
  8
PLAN_1
 62
     2
  6
CONTINUOUS
 10
0.332539
 20
-1.244047
  0
VERTEX
  8
PLAN_1
 62
     2
  6
CONTINUOUS
 10
0.332008
 20
-1.241386
  0
VERTEX
  8
PLAN_1
 62
     2
  6
CONTINUOUS
 10
0.330409
 20
-1.239256
  0
VERTEX
  8
PLAN_1
 62
     2
  6
CONTINUOUS
 10
0.328811
 20
-1.237657
  0
VERTEX
  8
PLAN_1
 62
     2
  6
CONTINUOUS
 10
0.326681
 20
-1.236591
  0
VERTEX
  8
PLAN_1
 62
     2
  6
CONTINUOUS
 10
0.324016
 20
-1.235528
  0
VERTEX
  8
PLAN_1
 62
     2
  6
CONTINUOUS
 10
0.321354
 20
-1.234992
  0
VERTEX
  8
PLAN_1
 62
     2
  6
CONTINUOUS
 10
0.318157
 20
-1.234992
  0
VERTEX
  8
PLAN_1
 62
     2
  6
CONTINUOUS
 10
0.297913
 20
-1.234992
  0
VERTEX
  8
PLAN_1
 62
     2
  6
CONTINUOUS
 10
0.297913
 20
-1.261094
  0
SEQEND
  8
0
  0
POLYLINE
  8
PLAN_1
 62
     2
  6
CONTINUOUS
 66
     1
 40
0.003000
 41
0.003000
  0
VERTEX
  8
PLAN_1
 62
     2
  6
CONTINUOUS
 10
0.349587
 20
-1.226469
  0
VERTEX
  8
PLAN_1
 62
     2
  6
CONTINUOUS
 10
0.410315
 20
-1.226469
  0
VERTEX
  8
PLAN_1
 62
     2
  6
CONTINUOUS
 10
0.410315
 20
-1.235528
  0
VERTEX
  8
PLAN_1
 62
     2
  6
CONTINUOUS
 10
0.384744
 20
-1.235528
  0
VERTEX
  8
PLAN_1
 62
     2
  6
CONTINUOUS
 10
0.384744
 20
-1.301047
  0
VERTEX
  8
PLAN_1
 62
     2
  6
CONTINUOUS
 10
0.374622
 20
-1.301047
  0
VERTEX
  8
PLAN_1
 62
     2
  6
CONTINUOUS
 10
0.374622
 20
-1.235528
  0
VERTEX
  8
PLAN_1
 62
     2
  6
CONTINUOUS
 10
0.349587
 20
-1.235528
  0
VERTEX
  8
PLAN_1
 62
     2
  6
CONTINUOUS
 10
0.349587
 20
-1.226469
  0
SEQEND
  8
0
  0
ENDSEC
  0
EOF
