  0
SECTION
  2
HEADER
  9
$ACADVER
  1
AC1006
  9
$EXTMIN
 10
-1.935000
 20
-4.073567
  9
$EXTMAX
 10
1.928000
 20
4.073000
  9
$LTSCALE
 40
0.000394
  9
$PDMODE
 70
    35
  9
$PDSIZE
 40
0.000315
  0
ENDSEC
  0
SECTION
  2
TABLES
  0
TABLE
  2
LTYPE
 70
     9
  0
LTYPE
  2
CONTINUOUS
 70
    64
  3
Solid line
 72
    65
 73
     0
 40
0.000000
  0
LTYPE
  2
DASHED
 70
    64
  3
__ __ __ __ __ __ __ __ __ __ __ __ __ __ __
 72
    65
 73
     2
 40
0.000003
 49
0.000002
 49
-0.000001
  0
LTYPE
  2
HIDDEN
 70
    64
  3
 _ _ _ _ _ _ _ _ _ _ _ _ _ _ _ _ _ _ _ _ _ _
 72
    65
 73
     2
 40
0.000001
 49
0.000001
 49
-0.000000
  0
LTYPE
  2
CENTER
 70
    64
  3
____ _ ____ _ ____ _ ____ _ ____ _ ____ _ ____
 72
    65
 73
     4
 40
0.000008
 49
0.000005
 49
-0.000001
 49
0.000001
 49
-0.000001
  0
LTYPE
  2
PHANTOM
 70
    64
  3
_____ _ _ _____ _ _ _____ _ _ _____ _ _ ____
 72
    65
 73
     6
 40
0.000010
 49
0.000005
 49
-0.000001
 49
0.000001
 49
-0.000001
 49
0.000001
 49
-0.000001
  0
LTYPE
  2
DOT
 70
    64
  3
...............................................
 72
    65
 73
     2
 40
0.000001
 49
0.000000
 49
-0.000001
  0
LTYPE
  2
DASHDOT
 70
    64
  3
__ . __ . __ . __ . __ . __ . __ . __ . __ . __
 72
    65
 73
     4
 40
0.000004
 49
0.000002
 49
-0.000001
 49
0.000000
 49
-0.000001
  0
LTYPE
  2
BORDER
 70
    64
  3
__ __ . __ __ . __ __ . __ __ . __ __ . __ __
 72
    65
 73
     6
 40
0.000007
 49
0.000002
 49
-0.000001
 49
0.000002
 49
-0.000001
 49
0.000000
 49
-0.000001
  0
LTYPE
  2
DIVIDE
 70
    64
  3
__ . . __ . . __ . . __ . . __ . . __ . . __
 72
    65
 73
     6
 40
0.000005
 49
0.000002
 49
-0.000001
 49
0.000000
 49
-0.000001
 49
0.000000
 49
-0.000001
  0
LTYPE
  2
DOTDOT
 70
    64
  3
 . .  . .  . .  . .  . .  . . 
 72
    65
 73
     5
 40
0.000002
 49
-0.000001
 49
0.000000
 49
-0.000001
 49
0.000000
 49
-0.000001
  0
ENDTAB
  0
TABLE
  2
STYLE
 70
     0
  0
ENDTAB
  0
TABLE
  2
LAYER
 70
     3
  0
LAYER
  2
FOREGROUND
 70
    64
 62
     7
  6
CONTINUOUS
  0
LAYER
  2
BACKGROUND
 70
    65
 62
    -7
  6
CONTINUOUS
  0
LAYER
  2
PLAN_1
 70
    64
 62
     7
  6
CONTINUOUS
  0
ENDTAB
  0
ENDSEC
  0
SECTION
  2
ENTITIES
  0
POLYLINE
  8
PLAN_1
  6
CONTINUOUS
 66
     1
 40
0.003000
 41
0.003000
  0
VERTEX
  8
PLAN_1
  6
CONTINUOUS
 10
0.083823
 20
-4.068476
  0
VERTEX
  8
PLAN_1
  6
CONTINUOUS
 10
0.050217
 20
-4.068476
  0
VERTEX
  8
PLAN_1
  6
CONTINUOUS
 10
-0.003244
 20
-3.986500
  0
VERTEX
  8
PLAN_1
  6
CONTINUOUS
 10
-0.058236
 20
-4.068476
  0
VERTEX
  8
PLAN_1
  6
CONTINUOUS
 10
-0.090823
 20
-4.068476
  0
VERTEX
  8
PLAN_1
  6
CONTINUOUS
 10
-0.019539
 20
-3.966134
  0
VERTEX
  8
PLAN_1
  6
CONTINUOUS
 10
-0.086240
 20
-3.868886
  0
VERTEX
  8
PLAN_1
  6
CONTINUOUS
 10
-0.052634
 20
-3.868886
  0
VERTEX
  8
PLAN_1
  6
CONTINUOUS
 10
-0.002228
 20
-3.945260
  0
VERTEX
  8
PLAN_1
  6
CONTINUOUS
 10
0.048689
 20
-3.868886
  0
VERTEX
  8
PLAN_1
  6
CONTINUOUS
 10
0.080768
 20
-3.868886
  0
VERTEX
  8
PLAN_1
  6
CONTINUOUS
 10
0.013555
 20
-3.966134
  0
VERTEX
  8
PLAN_1
  6
CONTINUOUS
 10
0.083823
 20
-4.068476
  0
SEQEND
  8
0
  0
POLYLINE
  8
PLAN_1
  6
CONTINUOUS
 66
     1
 40
0.003000
 41
0.003000
  0
VERTEX
  8
PLAN_1
  6
CONTINUOUS
 10
0.250315
 20
-3.928965
  0
VERTEX
  8
PLAN_1
  6
CONTINUOUS
 10
0.248280
 20
-3.922854
  0
VERTEX
  8
PLAN_1
  6
CONTINUOUS
 10
0.246244
 20
-3.917256
  0
VERTEX
  8
PLAN_1
  6
CONTINUOUS
 10
0.243697
 20
-3.912161
  0
VERTEX
  8
PLAN_1
  6
CONTINUOUS
 10
0.240642
 20
-3.907579
  0
VERTEX
  8
PLAN_1
  6
CONTINUOUS
 10
0.237587
 20
-3.904016
  0
VERTEX
  8
PLAN_1
  6
CONTINUOUS
 10
0.234024
 20
-3.900453
  0
VERTEX
  8
PLAN_1
  6
CONTINUOUS
 10
0.230461
 20
-3.897398
  0
VERTEX
  8
PLAN_1
  6
CONTINUOUS
 10
0.226386
 20
-3.895362
  0
VERTEX
  8
PLAN_1
  6
CONTINUOUS
 10
0.222311
 20
-3.893323
  0
VERTEX
  8
PLAN_1
  6
CONTINUOUS
 10
0.218240
 20
-3.891287
  0
VERTEX
  8
PLAN_1
  6
CONTINUOUS
 10
0.214165
 20
-3.890268
  0
VERTEX
  8
PLAN_1
  6
CONTINUOUS
 10
0.210094
 20
-3.889252
  0
VERTEX
  8
PLAN_1
  6
CONTINUOUS
 10
0.201945
 20
-3.887724
  0
VERTEX
  8
PLAN_1
  6
CONTINUOUS
 10
0.194307
 20
-3.887724
  0
VERTEX
  8
PLAN_1
  6
CONTINUOUS
 10
0.187689
 20
-3.887724
  0
VERTEX
  8
PLAN_1
  6
CONTINUOUS
 10
0.181071
 20
-3.888740
  0
VERTEX
  8
PLAN_1
  6
CONTINUOUS
 10
0.174961
 20
-3.890268
  0
VERTEX
  8
PLAN_1
  6
CONTINUOUS
 10
0.168850
 20
-3.892815
  0
VERTEX
  8
PLAN_1
  6
CONTINUOUS
 10
0.163252
 20
-3.895362
  0
VERTEX
  8
PLAN_1
  6
CONTINUOUS
 10
0.157650
 20
-3.898925
  0
VERTEX
  8
PLAN_1
  6
CONTINUOUS
 10
0.152559
 20
-3.902996
  0
VERTEX
  8
PLAN_1
  6
CONTINUOUS
 10
0.147976
 20
-3.907579
  0
VERTEX
  8
PLAN_1
  6
CONTINUOUS
 10
0.143902
 20
-3.912673
  0
VERTEX
  8
PLAN_1
  6
CONTINUOUS
 10
0.140339
 20
-3.918783
  0
VERTEX
  8
PLAN_1
  6
CONTINUOUS
 10
0.136776
 20
-3.924890
  0
VERTEX
  8
PLAN_1
  6
CONTINUOUS
 10
0.134228
 20
-3.932020
  0
VERTEX
  8
PLAN_1
  6
CONTINUOUS
 10
0.132193
 20
-3.940165
  0
VERTEX
  8
PLAN_1
  6
CONTINUOUS
 10
0.130154
 20
-3.948315
  0
VERTEX
  8
PLAN_1
  6
CONTINUOUS
 10
0.129138
 20
-3.956969
  0
VERTEX
  8
PLAN_1
  6
CONTINUOUS
 10
0.129138
 20
-3.966642
  0
VERTEX
  8
PLAN_1
  6
CONTINUOUS
 10
0.129138
 20
-3.975299
  0
VERTEX
  8
PLAN_1
  6
CONTINUOUS
 10
0.129646
 20
-3.983953
  0
VERTEX
  8
PLAN_1
  6
CONTINUOUS
 10
0.130665
 20
-3.991591
  0
VERTEX
  8
PLAN_1
  6
CONTINUOUS
 10
0.132193
 20
-3.999228
  0
VERTEX
  8
PLAN_1
  6
CONTINUOUS
 10
0.134228
 20
-4.006866
  0
VERTEX
  8
PLAN_1
  6
CONTINUOUS
 10
0.136776
 20
-4.013484
  0
VERTEX
  8
PLAN_1
  6
CONTINUOUS
 10
0.139827
 20
-4.020106
  0
VERTEX
  8
PLAN_1
  6
CONTINUOUS
 10
0.143394
 20
-4.025705
  0
VERTEX
  8
PLAN_1
  6
CONTINUOUS
 10
0.147976
 20
-4.031307
  0
VERTEX
  8
PLAN_1
  6
CONTINUOUS
 10
0.152559
 20
-4.035890
  0
VERTEX
  8
PLAN_1
  6
CONTINUOUS
 10
0.157650
 20
-4.039961
  0
VERTEX
  8
PLAN_1
  6
CONTINUOUS
 10
0.163760
 20
-4.043528
  0
VERTEX
  8
PLAN_1
  6
CONTINUOUS
 10
0.170886
 20
-4.046071
  0
VERTEX
  8
PLAN_1
  6
CONTINUOUS
 10
0.178016
 20
-4.048110
  0
VERTEX
  8
PLAN_1
  6
CONTINUOUS
 10
0.186161
 20
-4.049126
  0
VERTEX
  8
PLAN_1
  6
CONTINUOUS
 10
0.195327
 20
-4.049638
  0
VERTEX
  8
PLAN_1
  6
CONTINUOUS
 10
0.202457
 20
-4.049126
  0
VERTEX
  8
PLAN_1
  6
CONTINUOUS
 10
0.210094
 20
-4.047598
  0
VERTEX
  8
PLAN_1
  6
CONTINUOUS
 10
0.214165
 20
-4.046583
  0
VERTEX
  8
PLAN_1
  6
CONTINUOUS
 10
0.218240
 20
-4.044543
  0
VERTEX
  8
PLAN_1
  6
CONTINUOUS
 10
0.222311
 20
-4.042508
  0
VERTEX
  8
PLAN_1
  6
CONTINUOUS
 10
0.226894
 20
-4.039961
  0
VERTEX
  8
PLAN_1
  6
CONTINUOUS
 10
0.230969
 20
-4.036398
  0
VERTEX
  8
PLAN_1
  6
CONTINUOUS
 10
0.234531
 20
-4.032835
  0
VERTEX
  8
PLAN_1
  6
CONTINUOUS
 10
0.238098
 20
-4.028252
  0
VERTEX
  8
PLAN_1
  6
CONTINUOUS
 10
0.241661
 20
-4.023161
  0
VERTEX
  8
PLAN_1
  6
CONTINUOUS
 10
0.244717
 20
-4.017051
  0
VERTEX
  8
PLAN_1
  6
CONTINUOUS
 10
0.247772
 20
-4.010429
  0
VERTEX
  8
PLAN_1
  6
CONTINUOUS
 10
0.250315
 20
-4.003303
  0
VERTEX
  8
PLAN_1
  6
CONTINUOUS
 10
0.251843
 20
-3.995157
  0
VERTEX
  8
PLAN_1
  6
CONTINUOUS
 10
0.278319
 20
-3.995157
  0
VERTEX
  8
PLAN_1
  6
CONTINUOUS
 10
0.276791
 20
-4.001776
  0
VERTEX
  8
PLAN_1
  6
CONTINUOUS
 10
0.275264
 20
-4.008394
  0
VERTEX
  8
PLAN_1
  6
CONTINUOUS
 10
0.273736
 20
-4.014504
  0
VERTEX
  8
PLAN_1
  6
CONTINUOUS
 10
0.271701
 20
-4.020106
  0
VERTEX
  8
PLAN_1
  6
CONTINUOUS
 10
0.269665
 20
-4.025197
  0
VERTEX
  8
PLAN_1
  6
CONTINUOUS
 10
0.267118
 20
-4.030287
  0
VERTEX
  8
PLAN_1
  6
CONTINUOUS
 10
0.264575
 20
-4.034870
  0
VERTEX
  8
PLAN_1
  6
CONTINUOUS
 10
0.262028
 20
-4.038945
  0
VERTEX
  8
PLAN_1
  6
CONTINUOUS
 10
0.258972
 20
-4.043016
  0
VERTEX
  8
PLAN_1
  6
CONTINUOUS
 10
0.255917
 20
-4.046583
  0
VERTEX
  8
PLAN_1
  6
CONTINUOUS
 10
0.252862
 20
-4.050146
  0
VERTEX
  8
PLAN_1
  6
CONTINUOUS
 10
0.249807
 20
-4.052689
  0
VERTEX
  8
PLAN_1
  6
CONTINUOUS
 10
0.242677
 20
-4.058291
  0
VERTEX
  8
PLAN_1
  6
CONTINUOUS
 10
0.236059
 20
-4.062366
  0
VERTEX
  8
PLAN_1
  6
CONTINUOUS
 10
0.228933
 20
-4.065929
  0
VERTEX
  8
PLAN_1
  6
CONTINUOUS
 10
0.222311
 20
-4.068476
  0
VERTEX
  8
PLAN_1
  6
CONTINUOUS
 10
0.215693
 20
-4.070512
  0
VERTEX
  8
PLAN_1
  6
CONTINUOUS
 10
0.209583
 20
-4.072039
  0
VERTEX
  8
PLAN_1
  6
CONTINUOUS
 10
0.198382
 20
-4.073059
  0
VERTEX
  8
PLAN_1
  6
CONTINUOUS
 10
0.190744
 20
-4.073567
  0
VERTEX
  8
PLAN_1
  6
CONTINUOUS
 10
0.182598
 20
-4.073059
  0
VERTEX
  8
PLAN_1
  6
CONTINUOUS
 10
0.173941
 20
-4.072039
  0
VERTEX
  8
PLAN_1
  6
CONTINUOUS
 10
0.165795
 20
-4.070512
  0
VERTEX
  8
PLAN_1
  6
CONTINUOUS
 10
0.157650
 20
-4.067965
  0
VERTEX
  8
PLAN_1
  6
CONTINUOUS
 10
0.150012
 20
-4.064402
  0
VERTEX
  8
PLAN_1
  6
CONTINUOUS
 10
0.142882
 20
-4.060327
  0
VERTEX
  8
PLAN_1
  6
CONTINUOUS
 10
0.135756
 20
-4.055236
  0
VERTEX
  8
PLAN_1
  6
CONTINUOUS
 10
0.129138
 20
-4.049126
  0
VERTEX
  8
PLAN_1
  6
CONTINUOUS
 10
0.126083
 20
-4.046071
  0
VERTEX
  8
PLAN_1
  6
CONTINUOUS
 10
0.123028
 20
-4.042508
  0
VERTEX
  8
PLAN_1
  6
CONTINUOUS
 10
0.120480
 20
-4.038945
  0
VERTEX
  8
PLAN_1
  6
CONTINUOUS
 10
0.117933
 20
-4.034870
  0
VERTEX
  8
PLAN_1
  6
CONTINUOUS
 10
0.115390
 20
-4.030287
  0
VERTEX
  8
PLAN_1
  6
CONTINUOUS
 10
0.112843
 20
-4.026217
  0
VERTEX
  8
PLAN_1
  6
CONTINUOUS
 10
0.110807
 20
-4.021634
  0
VERTEX
  8
PLAN_1
  6
CONTINUOUS
 10
0.108772
 20
-4.016539
  0
VERTEX
  8
PLAN_1
  6
CONTINUOUS
 10
0.107244
 20
-4.011449
  0
VERTEX
  8
PLAN_1
  6
CONTINUOUS
 10
0.105717
 20
-4.005846
  0
VERTEX
  8
PLAN_1
  6
CONTINUOUS
 10
0.104189
 20
-4.000248
  0
VERTEX
  8
PLAN_1
  6
CONTINUOUS
 10
0.103169
 20
-3.994138
  0
VERTEX
  8
PLAN_1
  6
CONTINUOUS
 10
0.102661
 20
-3.988028
  0
VERTEX
  8
PLAN_1
  6
CONTINUOUS
 10
0.101642
 20
-3.981409
  0
VERTEX
  8
PLAN_1
  6
CONTINUOUS
 10
0.101642
 20
-3.974791
  0
VERTEX
  8
PLAN_1
  6
CONTINUOUS
 10
0.101134
 20
-3.967661
  0
VERTEX
  8
PLAN_1
  6
CONTINUOUS
 10
0.101642
 20
-3.956461
  0
VERTEX
  8
PLAN_1
  6
CONTINUOUS
 10
0.102661
 20
-3.945260
  0
VERTEX
  8
PLAN_1
  6
CONTINUOUS
 10
0.104697
 20
-3.935075
  0
VERTEX
  8
PLAN_1
  6
CONTINUOUS
 10
0.107752
 20
-3.925402
  0
VERTEX
  8
PLAN_1
  6
CONTINUOUS
 10
0.111315
 20
-3.916236
  0
VERTEX
  8
PLAN_1
  6
CONTINUOUS
 10
0.115390
 20
-3.907579
  0
VERTEX
  8
PLAN_1
  6
CONTINUOUS
 10
0.120480
 20
-3.899941
  0
VERTEX
  8
PLAN_1
  6
CONTINUOUS
 10
0.126083
 20
-3.892815
  0
VERTEX
  8
PLAN_1
  6
CONTINUOUS
 10
0.132193
 20
-3.886197
  0
VERTEX
  8
PLAN_1
  6
CONTINUOUS
 10
0.139319
 20
-3.880594
  0
VERTEX
  8
PLAN_1
  6
CONTINUOUS
 10
0.142882
 20
-3.878047
  0
VERTEX
  8
PLAN_1
  6
CONTINUOUS
 10
0.146957
 20
-3.875504
  0
VERTEX
  8
PLAN_1
  6
CONTINUOUS
 10
0.151031
 20
-3.873465
  0
VERTEX
  8
PLAN_1
  6
CONTINUOUS
 10
0.155102
 20
-3.871429
  0
VERTEX
  8
PLAN_1
  6
CONTINUOUS
 10
0.159685
 20
-3.869394
  0
VERTEX
  8
PLAN_1
  6
CONTINUOUS
 10
0.164268
 20
-3.867866
  0
VERTEX
  8
PLAN_1
  6
CONTINUOUS
 10
0.168850
 20
-3.866846
  0
VERTEX
  8
PLAN_1
  6
CONTINUOUS
 10
0.173433
 20
-3.865831
  0
VERTEX
  8
PLAN_1
  6
CONTINUOUS
 10
0.183618
 20
-3.864303
  0
VERTEX
  8
PLAN_1
  6
CONTINUOUS
 10
0.194307
 20
-3.863791
  0
VERTEX
  8
PLAN_1
  6
CONTINUOUS
 10
0.203472
 20
-3.864303
  0
VERTEX
  8
PLAN_1
  6
CONTINUOUS
 10
0.212638
 20
-3.865319
  0
VERTEX
  8
PLAN_1
  6
CONTINUOUS
 10
0.220783
 20
-3.866846
  0
VERTEX
  8
PLAN_1
  6
CONTINUOUS
 10
0.228421
 20
-3.869394
  0
VERTEX
  8
PLAN_1
  6
CONTINUOUS
 10
0.235043
 20
-3.871937
  0
VERTEX
  8
PLAN_1
  6
CONTINUOUS
 10
0.241661
 20
-3.875504
  0
VERTEX
  8
PLAN_1
  6
CONTINUOUS
 10
0.247772
 20
-3.879575
  0
VERTEX
  8
PLAN_1
  6
CONTINUOUS
 10
0.252862
 20
-3.883650
  0
VERTEX
  8
PLAN_1
  6
CONTINUOUS
 10
0.257953
 20
-3.888740
  0
VERTEX
  8
PLAN_1
  6
CONTINUOUS
 10
0.262028
 20
-3.893835
  0
VERTEX
  8
PLAN_1
  6
CONTINUOUS
 10
0.265591
 20
-3.898925
  0
VERTEX
  8
PLAN_1
  6
CONTINUOUS
 10
0.269154
 20
-3.904524
  0
VERTEX
  8
PLAN_1
  6
CONTINUOUS
 10
0.271701
 20
-3.910634
  0
VERTEX
  8
PLAN_1
  6
CONTINUOUS
 10
0.273736
 20
-3.916744
  0
VERTEX
  8
PLAN_1
  6
CONTINUOUS
 10
0.275264
 20
-3.922854
  0
VERTEX
  8
PLAN_1
  6
CONTINUOUS
 10
0.276283
 20
-3.928965
  0
VERTEX
  8
PLAN_1
  6
CONTINUOUS
 10
0.250315
 20
-3.928965
  0
SEQEND
  8
0
  0
POLYLINE
  8
PLAN_1
  6
CONTINUOUS
 66
     1
 40
0.003000
 41
0.003000
  0
VERTEX
  8
PLAN_1
  6
CONTINUOUS
 10
0.337382
 20
-4.068476
  0
VERTEX
  8
PLAN_1
  6
CONTINUOUS
 10
0.310906
 20
-4.068476
  0
VERTEX
  8
PLAN_1
  6
CONTINUOUS
 10
0.310906
 20
-3.868886
  0
VERTEX
  8
PLAN_1
  6
CONTINUOUS
 10
0.337382
 20
-3.868886
  0
VERTEX
  8
PLAN_1
  6
CONTINUOUS
 10
0.337382
 20
-3.965626
  0
VERTEX
  8
PLAN_1
  6
CONTINUOUS
 10
0.434122
 20
-3.868886
  0
VERTEX
  8
PLAN_1
  6
CONTINUOUS
 10
0.471291
 20
-3.868886
  0
VERTEX
  8
PLAN_1
  6
CONTINUOUS
 10
0.388299
 20
-3.949331
  0
VERTEX
  8
PLAN_1
  6
CONTINUOUS
 10
0.473839
 20
-4.068476
  0
VERTEX
  8
PLAN_1
  6
CONTINUOUS
 10
0.438705
 20
-4.068476
  0
VERTEX
  8
PLAN_1
  6
CONTINUOUS
 10
0.368953
 20
-3.968169
  0
VERTEX
  8
PLAN_1
  6
CONTINUOUS
 10
0.337382
 20
-3.998213
  0
VERTEX
  8
PLAN_1
  6
CONTINUOUS
 10
0.337382
 20
-4.068476
  0
SEQEND
  8
0
  0
POLYLINE
  8
PLAN_1
  6
CONTINUOUS
 66
     1
 40
0.003000
 41
0.003000
  0
VERTEX
  8
PLAN_1
  6
CONTINUOUS
 10
0.504898
 20
-4.004319
  0
VERTEX
  8
PLAN_1
  6
CONTINUOUS
 10
0.504898
 20
-4.018067
  0
VERTEX
  8
PLAN_1
  6
CONTINUOUS
 10
0.504898
 20
-4.022142
  0
VERTEX
  8
PLAN_1
  6
CONTINUOUS
 10
0.505406
 20
-4.026217
  0
VERTEX
  8
PLAN_1
  6
CONTINUOUS
 10
0.505913
 20
-4.029780
  0
VERTEX
  8
PLAN_1
  6
CONTINUOUS
 10
0.506933
 20
-4.033343
  0
VERTEX
  8
PLAN_1
  6
CONTINUOUS
 10
0.507953
 20
-4.036398
  0
VERTEX
  8
PLAN_1
  6
CONTINUOUS
 10
0.509480
 20
-4.038945
  0
VERTEX
  8
PLAN_1
  6
CONTINUOUS
 10
0.511008
 20
-4.040980
  0
VERTEX
  8
PLAN_1
  6
CONTINUOUS
 10
0.513043
 20
-4.043016
  0
VERTEX
  8
PLAN_1
  6
CONTINUOUS
 10
0.515079
 20
-4.045055
  0
VERTEX
  8
PLAN_1
  6
CONTINUOUS
 10
0.517118
 20
-4.046583
  0
VERTEX
  8
PLAN_1
  6
CONTINUOUS
 10
0.519661
 20
-4.047598
  0
VERTEX
  8
PLAN_1
  6
CONTINUOUS
 10
0.522209
 20
-4.048618
  0
VERTEX
  8
PLAN_1
  6
CONTINUOUS
 10
0.528319
 20
-4.050146
  0
VERTEX
  8
PLAN_1
  6
CONTINUOUS
 10
0.534937
 20
-4.050654
  0
VERTEX
  8
PLAN_1
  6
CONTINUOUS
 10
0.539012
 20
-4.050146
  0
VERTEX
  8
PLAN_1
  6
CONTINUOUS
 10
0.543083
 20
-4.049638
  0
VERTEX
  8
PLAN_1
  6
CONTINUOUS
 10
0.547157
 20
-4.049126
  0
VERTEX
  8
PLAN_1
  6
CONTINUOUS
 10
0.550213
 20
-4.048110
  0
VERTEX
  8
PLAN_1
  6
CONTINUOUS
 10
0.553268
 20
-4.046583
  0
VERTEX
  8
PLAN_1
  6
CONTINUOUS
 10
0.555811
 20
-4.044543
  0
VERTEX
  8
PLAN_1
  6
CONTINUOUS
 10
0.558358
 20
-4.043016
  0
VERTEX
  8
PLAN_1
  6
CONTINUOUS
 10
0.559886
 20
-4.040472
  0
VERTEX
  8
PLAN_1
  6
CONTINUOUS
 10
0.561921
 20
-4.038433
  0
VERTEX
  8
PLAN_1
  6
CONTINUOUS
 10
0.563449
 20
-4.035378
  0
VERTEX
  8
PLAN_1
  6
CONTINUOUS
 10
0.564469
 20
-4.032835
  0
VERTEX
  8
PLAN_1
  6
CONTINUOUS
 10
0.565488
 20
-4.029780
  0
VERTEX
  8
PLAN_1
  6
CONTINUOUS
 10
0.566504
 20
-4.023161
  0
VERTEX
  8
PLAN_1
  6
CONTINUOUS
 10
0.566504
 20
-4.016031
  0
VERTEX
  8
PLAN_1
  6
CONTINUOUS
 10
0.566504
 20
-3.868886
  0
VERTEX
  8
PLAN_1
  6
CONTINUOUS
 10
0.593492
 20
-3.868886
  0
VERTEX
  8
PLAN_1
  6
CONTINUOUS
 10
0.593492
 20
-4.014504
  0
VERTEX
  8
PLAN_1
  6
CONTINUOUS
 10
0.593492
 20
-4.022650
  0
VERTEX
  8
PLAN_1
  6
CONTINUOUS
 10
0.592472
 20
-4.030287
  0
VERTEX
  8
PLAN_1
  6
CONTINUOUS
 10
0.590437
 20
-4.037417
  0
VERTEX
  8
PLAN_1
  6
CONTINUOUS
 10
0.588398
 20
-4.043528
  0
VERTEX
  8
PLAN_1
  6
CONTINUOUS
 10
0.585854
 20
-4.048618
  0
VERTEX
  8
PLAN_1
  6
CONTINUOUS
 10
0.582799
 20
-4.053709
  0
VERTEX
  8
PLAN_1
  6
CONTINUOUS
 10
0.578724
 20
-4.057783
  0
VERTEX
  8
PLAN_1
  6
CONTINUOUS
 10
0.575161
 20
-4.061346
  0
VERTEX
  8
PLAN_1
  6
CONTINUOUS
 10
0.570579
 20
-4.064402
  0
VERTEX
  8
PLAN_1
  6
CONTINUOUS
 10
0.565996
 20
-4.066949
  0
VERTEX
  8
PLAN_1
  6
CONTINUOUS
 10
0.561413
 20
-4.069492
  0
VERTEX
  8
PLAN_1
  6
CONTINUOUS
 10
0.556323
 20
-4.071020
  0
VERTEX
  8
PLAN_1
  6
CONTINUOUS
 10
0.551228
 20
-4.072039
  0
VERTEX
  8
PLAN_1
  6
CONTINUOUS
 10
0.546138
 20
-4.073059
  0
VERTEX
  8
PLAN_1
  6
CONTINUOUS
 10
0.541047
 20
-4.073567
  0
VERTEX
  8
PLAN_1
  6
CONTINUOUS
 10
0.535957
 20
-4.073567
  0
VERTEX
  8
PLAN_1
  6
CONTINUOUS
 10
0.527807
 20
-4.073059
  0
VERTEX
  8
PLAN_1
  6
CONTINUOUS
 10
0.520681
 20
-4.072039
  0
VERTEX
  8
PLAN_1
  6
CONTINUOUS
 10
0.513551
 20
-4.070512
  0
VERTEX
  8
PLAN_1
  6
CONTINUOUS
 10
0.507953
 20
-4.068476
  0
VERTEX
  8
PLAN_1
  6
CONTINUOUS
 10
0.502350
 20
-4.065929
  0
VERTEX
  8
PLAN_1
  6
CONTINUOUS
 10
0.497768
 20
-4.062874
  0
VERTEX
  8
PLAN_1
  6
CONTINUOUS
 10
0.493697
 20
-4.059311
  0
VERTEX
  8
PLAN_1
  6
CONTINUOUS
 10
0.490642
 20
-4.055744
  0
VERTEX
  8
PLAN_1
  6
CONTINUOUS
 10
0.487587
 20
-4.051673
  0
VERTEX
  8
PLAN_1
  6
CONTINUOUS
 10
0.485039
 20
-4.047598
  0
VERTEX
  8
PLAN_1
  6
CONTINUOUS
 10
0.483512
 20
-4.043528
  0
VERTEX
  8
PLAN_1
  6
CONTINUOUS
 10
0.481984
 20
-4.039453
  0
VERTEX
  8
PLAN_1
  6
CONTINUOUS
 10
0.480965
 20
-4.035378
  0
VERTEX
  8
PLAN_1
  6
CONTINUOUS
 10
0.479949
 20
-4.031307
  0
VERTEX
  8
PLAN_1
  6
CONTINUOUS
 10
0.479437
 20
-4.027740
  0
VERTEX
  8
PLAN_1
  6
CONTINUOUS
 10
0.479437
 20
-4.023669
  0
VERTEX
  8
PLAN_1
  6
CONTINUOUS
 10
0.479437
 20
-4.004319
  0
VERTEX
  8
PLAN_1
  6
CONTINUOUS
 10
0.504898
 20
-4.004319
  0
SEQEND
  8
0
  0
POLYLINE
  8
PLAN_1
  6
CONTINUOUS
 66
     1
 40
0.003000
 41
0.003000
  0
VERTEX
  8
PLAN_1
  6
CONTINUOUS
 10
0.713142
 20
-4.068476
  0
VERTEX
  8
PLAN_1
  6
CONTINUOUS
 10
0.687177
 20
-4.068476
  0
VERTEX
  8
PLAN_1
  6
CONTINUOUS
 10
0.687177
 20
-3.929984
  0
VERTEX
  8
PLAN_1
  6
CONTINUOUS
 10
0.641862
 20
-3.929984
  0
VERTEX
  8
PLAN_1
  6
CONTINUOUS
 10
0.641862
 20
-3.910126
  0
VERTEX
  8
PLAN_1
  6
CONTINUOUS
 10
0.652555
 20
-3.909618
  0
VERTEX
  8
PLAN_1
  6
CONTINUOUS
 10
0.662228
 20
-3.908091
  0
VERTEX
  8
PLAN_1
  6
CONTINUOUS
 10
0.666299
 20
-3.907071
  0
VERTEX
  8
PLAN_1
  6
CONTINUOUS
 10
0.670374
 20
-3.906051
  0
VERTEX
  8
PLAN_1
  6
CONTINUOUS
 10
0.673937
 20
-3.904524
  0
VERTEX
  8
PLAN_1
  6
CONTINUOUS
 10
0.676992
 20
-3.902996
  0
VERTEX
  8
PLAN_1
  6
CONTINUOUS
 10
0.680047
 20
-3.900961
  0
VERTEX
  8
PLAN_1
  6
CONTINUOUS
 10
0.682594
 20
-3.898413
  0
VERTEX
  8
PLAN_1
  6
CONTINUOUS
 10
0.685138
 20
-3.895362
  0
VERTEX
  8
PLAN_1
  6
CONTINUOUS
 10
0.687177
 20
-3.892307
  0
VERTEX
  8
PLAN_1
  6
CONTINUOUS
 10
0.689213
 20
-3.888232
  0
VERTEX
  8
PLAN_1
  6
CONTINUOUS
 10
0.691248
 20
-3.883650
  0
VERTEX
  8
PLAN_1
  6
CONTINUOUS
 10
0.692776
 20
-3.878559
  0
VERTEX
  8
PLAN_1
  6
CONTINUOUS
 10
0.694303
 20
-3.872957
  0
VERTEX
  8
PLAN_1
  6
CONTINUOUS
 10
0.713142
 20
-3.872957
  0
VERTEX
  8
PLAN_1
  6
CONTINUOUS
 10
0.713142
 20
-4.068476
  0
SEQEND
  8
0
  0
POLYLINE
  8
PLAN_1
  6
CONTINUOUS
 66
     1
 40
0.003000
 41
0.003000
  0
VERTEX
  8
PLAN_1
  6
CONTINUOUS
 10
0.788500
 20
-3.868886
  0
VERTEX
  8
PLAN_1
  6
CONTINUOUS
 10
0.876583
 20
-3.868886
  0
VERTEX
  8
PLAN_1
  6
CONTINUOUS
 10
0.883205
 20
-3.869394
  0
VERTEX
  8
PLAN_1
  6
CONTINUOUS
 10
0.889311
 20
-3.869902
  0
VERTEX
  8
PLAN_1
  6
CONTINUOUS
 10
0.895421
 20
-3.871429
  0
VERTEX
  8
PLAN_1
  6
CONTINUOUS
 10
0.901024
 20
-3.872957
  0
VERTEX
  8
PLAN_1
  6
CONTINUOUS
 10
0.906114
 20
-3.874992
  0
VERTEX
  8
PLAN_1
  6
CONTINUOUS
 10
0.910697
 20
-3.877539
  0
VERTEX
  8
PLAN_1
  6
CONTINUOUS
 10
0.914772
 20
-3.880594
  0
VERTEX
  8
PLAN_1
  6
CONTINUOUS
 10
0.918335
 20
-3.884157
  0
VERTEX
  8
PLAN_1
  6
CONTINUOUS
 10
0.921898
 20
-3.887724
  0
VERTEX
  8
PLAN_1
  6
CONTINUOUS
 10
0.924445
 20
-3.891287
  0
VERTEX
  8
PLAN_1
  6
CONTINUOUS
 10
0.926992
 20
-3.895362
  0
VERTEX
  8
PLAN_1
  6
CONTINUOUS
 10
0.929028
 20
-3.899941
  0
VERTEX
  8
PLAN_1
  6
CONTINUOUS
 10
0.930555
 20
-3.904524
  0
VERTEX
  8
PLAN_1
  6
CONTINUOUS
 10
0.931575
 20
-3.909106
  0
VERTEX
  8
PLAN_1
  6
CONTINUOUS
 10
0.932591
 20
-3.914201
  0
VERTEX
  8
PLAN_1
  6
CONTINUOUS
 10
0.932591
 20
-3.919291
  0
VERTEX
  8
PLAN_1
  6
CONTINUOUS
 10
0.932591
 20
-3.924382
  0
VERTEX
  8
PLAN_1
  6
CONTINUOUS
 10
0.931575
 20
-3.929984
  0
VERTEX
  8
PLAN_1
  6
CONTINUOUS
 10
0.930047
 20
-3.935583
  0
VERTEX
  8
PLAN_1
  6
CONTINUOUS
 10
0.927500
 20
-3.941185
  0
VERTEX
  8
PLAN_1
  6
CONTINUOUS
 10
0.925972
 20
-3.943732
  0
VERTEX
  8
PLAN_1
  6
CONTINUOUS
 10
0.923937
 20
-3.946787
  0
VERTEX
  8
PLAN_1
  6
CONTINUOUS
 10
0.921898
 20
-3.949331
  0
VERTEX
  8
PLAN_1
  6
CONTINUOUS
 10
0.919354
 20
-3.951878
  0
VERTEX
  8
PLAN_1
  6
CONTINUOUS
 10
0.916807
 20
-3.954421
  0
VERTEX
  8
PLAN_1
  6
CONTINUOUS
 10
0.913244
 20
-3.956461
  0
VERTEX
  8
PLAN_1
  6
CONTINUOUS
 10
0.910189
 20
-3.959004
  0
VERTEX
  8
PLAN_1
  6
CONTINUOUS
 10
0.906114
 20
-3.961043
  0
VERTEX
  8
PLAN_1
  6
CONTINUOUS
 10
0.911205
 20
-3.963079
  0
VERTEX
  8
PLAN_1
  6
CONTINUOUS
 10
0.917315
 20
-3.966134
  0
VERTEX
  8
PLAN_1
  6
CONTINUOUS
 10
0.920370
 20
-3.967661
  0
VERTEX
  8
PLAN_1
  6
CONTINUOUS
 10
0.923425
 20
-3.969697
  0
VERTEX
  8
PLAN_1
  6
CONTINUOUS
 10
0.925972
 20
-3.971736
  0
VERTEX
  8
PLAN_1
  6
CONTINUOUS
 10
0.929028
 20
-3.974280
  0
VERTEX
  8
PLAN_1
  6
CONTINUOUS
 10
0.931575
 20
-3.977335
  0
VERTEX
  8
PLAN_1
  6
CONTINUOUS
 10
0.934118
 20
-3.980390
  0
VERTEX
  8
PLAN_1
  6
CONTINUOUS
 10
0.936157
 20
-3.983953
  0
VERTEX
  8
PLAN_1
  6
CONTINUOUS
 10
0.938193
 20
-3.988028
  0
VERTEX
  8
PLAN_1
  6
CONTINUOUS
 10
0.939720
 20
-3.992610
  0
VERTEX
  8
PLAN_1
  6
CONTINUOUS
 10
0.941248
 20
-3.997701
  0
VERTEX
  8
PLAN_1
  6
CONTINUOUS
 10
0.941756
 20
-4.003303
  0
VERTEX
  8
PLAN_1
  6
CONTINUOUS
 10
0.942264
 20
-4.009413
  0
VERTEX
  8
PLAN_1
  6
CONTINUOUS
 10
0.941756
 20
-4.015524
  0
VERTEX
  8
PLAN_1
  6
CONTINUOUS
 10
0.941248
 20
-4.021122
  0
VERTEX
  8
PLAN_1
  6
CONTINUOUS
 10
0.939720
 20
-4.026724
  0
VERTEX
  8
PLAN_1
  6
CONTINUOUS
 10
0.937681
 20
-4.032323
  0
VERTEX
  8
PLAN_1
  6
CONTINUOUS
 10
0.935138
 20
-4.037417
  0
VERTEX
  8
PLAN_1
  6
CONTINUOUS
 10
0.932591
 20
-4.042000
  0
VERTEX
  8
PLAN_1
  6
CONTINUOUS
 10
0.929028
 20
-4.046583
  0
VERTEX
  8
PLAN_1
  6
CONTINUOUS
 10
0.924953
 20
-4.050654
  0
VERTEX
  8
PLAN_1
  6
CONTINUOUS
 10
0.920370
 20
-4.054728
  0
VERTEX
  8
PLAN_1
  6
CONTINUOUS
 10
0.915280
 20
-4.058291
  0
VERTEX
  8
PLAN_1
  6
CONTINUOUS
 10
0.909681
 20
-4.060839
  0
VERTEX
  8
PLAN_1
  6
CONTINUOUS
 10
0.903571
 20
-4.063382
  0
VERTEX
  8
PLAN_1
  6
CONTINUOUS
 10
0.896949
 20
-4.065421
  0
VERTEX
  8
PLAN_1
  6
CONTINUOUS
 10
0.889823
 20
-4.066949
  0
VERTEX
  8
PLAN_1
  6
CONTINUOUS
 10
0.882693
 20
-4.067965
  0
VERTEX
  8
PLAN_1
  6
CONTINUOUS
 10
0.874547
 20
-4.068476
  0
VERTEX
  8
PLAN_1
  6
CONTINUOUS
 10
0.788500
 20
-4.068476
  0
VERTEX
  8
PLAN_1
  6
CONTINUOUS
 10
0.788500
 20
-3.868886
  0
SEQEND
  8
0
  0
POLYLINE
  8
PLAN_1
  6
CONTINUOUS
 66
     1
 40
0.003000
 41
0.003000
  0
VERTEX
  8
PLAN_1
  6
CONTINUOUS
 10
0.815484
 20
-3.953406
  0
VERTEX
  8
PLAN_1
  6
CONTINUOUS
 10
0.864362
 20
-3.953406
  0
VERTEX
  8
PLAN_1
  6
CONTINUOUS
 10
0.873528
 20
-3.952894
  0
VERTEX
  8
PLAN_1
  6
CONTINUOUS
 10
0.881677
 20
-3.951878
  0
VERTEX
  8
PLAN_1
  6
CONTINUOUS
 10
0.885240
 20
-3.950858
  0
VERTEX
  8
PLAN_1
  6
CONTINUOUS
 10
0.888803
 20
-3.949839
  0
VERTEX
  8
PLAN_1
  6
CONTINUOUS
 10
0.891858
 20
-3.948315
  0
VERTEX
  8
PLAN_1
  6
CONTINUOUS
 10
0.894406
 20
-3.946276
  0
VERTEX
  8
PLAN_1
  6
CONTINUOUS
 10
0.896949
 20
-3.944240
  0
VERTEX
  8
PLAN_1
  6
CONTINUOUS
 10
0.899496
 20
-3.942205
  0
VERTEX
  8
PLAN_1
  6
CONTINUOUS
 10
0.901531
 20
-3.939657
  0
VERTEX
  8
PLAN_1
  6
CONTINUOUS
 10
0.903059
 20
-3.936602
  0
VERTEX
  8
PLAN_1
  6
CONTINUOUS
 10
0.904079
 20
-3.933039
  0
VERTEX
  8
PLAN_1
  6
CONTINUOUS
 10
0.905098
 20
-3.929472
  0
VERTEX
  8
PLAN_1
  6
CONTINUOUS
 10
0.905606
 20
-3.925402
  0
VERTEX
  8
PLAN_1
  6
CONTINUOUS
 10
0.905606
 20
-3.921327
  0
VERTEX
  8
PLAN_1
  6
CONTINUOUS
 10
0.905606
 20
-3.917764
  0
VERTEX
  8
PLAN_1
  6
CONTINUOUS
 10
0.905098
 20
-3.914709
  0
VERTEX
  8
PLAN_1
  6
CONTINUOUS
 10
0.904587
 20
-3.911654
  0
VERTEX
  8
PLAN_1
  6
CONTINUOUS
 10
0.903571
 20
-3.908598
  0
VERTEX
  8
PLAN_1
  6
CONTINUOUS
 10
0.902043
 20
-3.906051
  0
VERTEX
  8
PLAN_1
  6
CONTINUOUS
 10
0.900516
 20
-3.904016
  0
VERTEX
  8
PLAN_1
  6
CONTINUOUS
 10
0.898476
 20
-3.901469
  0
VERTEX
  8
PLAN_1
  6
CONTINUOUS
 10
0.896441
 20
-3.899433
  0
VERTEX
  8
PLAN_1
  6
CONTINUOUS
 10
0.893894
 20
-3.897906
  0
VERTEX
  8
PLAN_1
  6
CONTINUOUS
 10
0.890839
 20
-3.896378
  0
VERTEX
  8
PLAN_1
  6
CONTINUOUS
 10
0.887276
 20
-3.894850
  0
VERTEX
  8
PLAN_1
  6
CONTINUOUS
 10
0.883713
 20
-3.893835
  0
VERTEX
  8
PLAN_1
  6
CONTINUOUS
 10
0.879130
 20
-3.893323
  0
VERTEX
  8
PLAN_1
  6
CONTINUOUS
 10
0.874547
 20
-3.892307
  0
VERTEX
  8
PLAN_1
  6
CONTINUOUS
 10
0.869965
 20
-3.892307
  0
VERTEX
  8
PLAN_1
  6
CONTINUOUS
 10
0.864362
 20
-3.891795
  0
VERTEX
  8
PLAN_1
  6
CONTINUOUS
 10
0.815484
 20
-3.891795
  0
VERTEX
  8
PLAN_1
  6
CONTINUOUS
 10
0.815484
 20
-3.953406
  0
SEQEND
  8
0
  0
POLYLINE
  8
PLAN_1
  6
CONTINUOUS
 66
     1
 40
0.003000
 41
0.003000
  0
VERTEX
  8
PLAN_1
  6
CONTINUOUS
 10
0.815484
 20
-4.045055
  0
VERTEX
  8
PLAN_1
  6
CONTINUOUS
 10
0.873020
 20
-4.045055
  0
VERTEX
  8
PLAN_1
  6
CONTINUOUS
 10
0.878110
 20
-4.045055
  0
VERTEX
  8
PLAN_1
  6
CONTINUOUS
 10
0.882693
 20
-4.044543
  0
VERTEX
  8
PLAN_1
  6
CONTINUOUS
 10
0.887276
 20
-4.044035
  0
VERTEX
  8
PLAN_1
  6
CONTINUOUS
 10
0.891350
 20
-4.042508
  0
VERTEX
  8
PLAN_1
  6
CONTINUOUS
 10
0.895421
 20
-4.041488
  0
VERTEX
  8
PLAN_1
  6
CONTINUOUS
 10
0.898476
 20
-4.039453
  0
VERTEX
  8
PLAN_1
  6
CONTINUOUS
 10
0.902043
 20
-4.037417
  0
VERTEX
  8
PLAN_1
  6
CONTINUOUS
 10
0.904587
 20
-4.035378
  0
VERTEX
  8
PLAN_1
  6
CONTINUOUS
 10
0.907134
 20
-4.032835
  0
VERTEX
  8
PLAN_1
  6
CONTINUOUS
 10
0.909169
 20
-4.030287
  0
VERTEX
  8
PLAN_1
  6
CONTINUOUS
 10
0.911205
 20
-4.027232
  0
VERTEX
  8
PLAN_1
  6
CONTINUOUS
 10
0.912732
 20
-4.024177
  0
VERTEX
  8
PLAN_1
  6
CONTINUOUS
 10
0.913752
 20
-4.020614
  0
VERTEX
  8
PLAN_1
  6
CONTINUOUS
 10
0.914772
 20
-4.017051
  0
VERTEX
  8
PLAN_1
  6
CONTINUOUS
 10
0.915280
 20
-4.012976
  0
VERTEX
  8
PLAN_1
  6
CONTINUOUS
 10
0.915280
 20
-4.008902
  0
VERTEX
  8
PLAN_1
  6
CONTINUOUS
 10
0.914772
 20
-4.003811
  0
VERTEX
  8
PLAN_1
  6
CONTINUOUS
 10
0.914260
 20
-3.999228
  0
VERTEX
  8
PLAN_1
  6
CONTINUOUS
 10
0.912732
 20
-3.995157
  0
VERTEX
  8
PLAN_1
  6
CONTINUOUS
 10
0.911205
 20
-3.991591
  0
VERTEX
  8
PLAN_1
  6
CONTINUOUS
 10
0.908661
 20
-3.988535
  0
VERTEX
  8
PLAN_1
  6
CONTINUOUS
 10
0.906114
 20
-3.985992
  0
VERTEX
  8
PLAN_1
  6
CONTINUOUS
 10
0.903571
 20
-3.983445
  0
VERTEX
  8
PLAN_1
  6
CONTINUOUS
 10
0.900004
 20
-3.981409
  0
VERTEX
  8
PLAN_1
  6
CONTINUOUS
 10
0.896441
 20
-3.979882
  0
VERTEX
  8
PLAN_1
  6
CONTINUOUS
 10
0.892878
 20
-3.978354
  0
VERTEX
  8
PLAN_1
  6
CONTINUOUS
 10
0.889311
 20
-3.977335
  0
VERTEX
  8
PLAN_1
  6
CONTINUOUS
 10
0.885240
 20
-3.976827
  0
VERTEX
  8
PLAN_1
  6
CONTINUOUS
 10
0.877094
 20
-3.975807
  0
VERTEX
  8
PLAN_1
  6
CONTINUOUS
 10
0.868437
 20
-3.975299
  0
VERTEX
  8
PLAN_1
  6
CONTINUOUS
 10
0.815484
 20
-3.975299
  0
VERTEX
  8
PLAN_1
  6
CONTINUOUS
 10
0.815484
 20
-4.045055
  0
SEQEND
  8
0
  0
POLYLINE
  8
PLAN_1
  6
CONTINUOUS
 66
     1
 40
0.003000
 41
0.003000
  0
VERTEX
  8
PLAN_1
  6
CONTINUOUS
 10
0.963650
 20
-3.877539
  0
VERTEX
  8
PLAN_1
  6
CONTINUOUS
 10
1.098579
 20
-3.877539
  0
VERTEX
  8
PLAN_1
  6
CONTINUOUS
 10
1.098579
 20
-3.898925
  0
VERTEX
  8
PLAN_1
  6
CONTINUOUS
 10
1.089921
 20
-3.908091
  0
VERTEX
  8
PLAN_1
  6
CONTINUOUS
 10
1.079740
 20
-3.921327
  0
VERTEX
  8
PLAN_1
  6
CONTINUOUS
 10
1.074138
 20
-3.929472
  0
VERTEX
  8
PLAN_1
  6
CONTINUOUS
 10
1.068535
 20
-3.938130
  0
VERTEX
  8
PLAN_1
  6
CONTINUOUS
 10
1.062429
 20
-3.947803
  0
VERTEX
  8
PLAN_1
  6
CONTINUOUS
 10
1.056319
 20
-3.958496
  0
VERTEX
  8
PLAN_1
  6
CONTINUOUS
 10
1.050717
 20
-3.969697
  0
VERTEX
  8
PLAN_1
  6
CONTINUOUS
 10
1.044606
 20
-3.981917
  0
VERTEX
  8
PLAN_1
  6
CONTINUOUS
 10
1.039008
 20
-3.994646
  0
VERTEX
  8
PLAN_1
  6
CONTINUOUS
 10
1.033913
 20
-4.007886
  0
VERTEX
  8
PLAN_1
  6
CONTINUOUS
 10
1.029331
 20
-4.022142
  0
VERTEX
  8
PLAN_1
  6
CONTINUOUS
 10
1.025260
 20
-4.036906
  0
VERTEX
  8
PLAN_1
  6
CONTINUOUS
 10
1.021185
 20
-4.052181
  0
VERTEX
  8
PLAN_1
  6
CONTINUOUS
 10
1.018130
 20
-4.068476
  0
VERTEX
  8
PLAN_1
  6
CONTINUOUS
 10
0.991146
 20
-4.068476
  0
VERTEX
  8
PLAN_1
  6
CONTINUOUS
 10
0.993181
 20
-4.058291
  0
VERTEX
  8
PLAN_1
  6
CONTINUOUS
 10
0.995217
 20
-4.047598
  0
VERTEX
  8
PLAN_1
  6
CONTINUOUS
 10
0.997764
 20
-4.036906
  0
VERTEX
  8
PLAN_1
  6
CONTINUOUS
 10
1.001327
 20
-4.025705
  0
VERTEX
  8
PLAN_1
  6
CONTINUOUS
 10
1.005402
 20
-4.014504
  0
VERTEX
  8
PLAN_1
  6
CONTINUOUS
 10
1.009476
 20
-4.003303
  0
VERTEX
  8
PLAN_1
  6
CONTINUOUS
 10
1.014567
 20
-3.992102
  0
VERTEX
  8
PLAN_1
  6
CONTINUOUS
 10
1.019657
 20
-3.980898
  0
VERTEX
  8
PLAN_1
  6
CONTINUOUS
 10
1.025260
 20
-3.970209
  0
VERTEX
  8
PLAN_1
  6
CONTINUOUS
 10
1.031370
 20
-3.959004
  0
VERTEX
  8
PLAN_1
  6
CONTINUOUS
 10
1.037480
 20
-3.948315
  0
VERTEX
  8
PLAN_1
  6
CONTINUOUS
 10
1.043587
 20
-3.938130
  0
VERTEX
  8
PLAN_1
  6
CONTINUOUS
 10
1.050209
 20
-3.928457
  0
VERTEX
  8
PLAN_1
  6
CONTINUOUS
 10
1.057335
 20
-3.918783
  0
VERTEX
  8
PLAN_1
  6
CONTINUOUS
 10
1.063957
 20
-3.909618
  0
VERTEX
  8
PLAN_1
  6
CONTINUOUS
 10
1.071083
 20
-3.900961
  0
VERTEX
  8
PLAN_1
  6
CONTINUOUS
 10
0.963650
 20
-3.900961
  0
VERTEX
  8
PLAN_1
  6
CONTINUOUS
 10
0.963650
 20
-3.877539
  0
SEQEND
  8
0
  0
POLYLINE
  8
PLAN_1
  6
CONTINUOUS
 66
     1
 40
0.003000
 41
0.003000
  0
VERTEX
  8
PLAN_1
  6
CONTINUOUS
 10
1.159169
 20
-4.068476
  0
VERTEX
  8
PLAN_1
  6
CONTINUOUS
 10
1.132181
 20
-4.068476
  0
VERTEX
  8
PLAN_1
  6
CONTINUOUS
 10
1.132181
 20
-3.868886
  0
VERTEX
  8
PLAN_1
  6
CONTINUOUS
 10
1.224339
 20
-3.868886
  0
VERTEX
  8
PLAN_1
  6
CONTINUOUS
 10
1.230449
 20
-3.868886
  0
VERTEX
  8
PLAN_1
  6
CONTINUOUS
 10
1.236559
 20
-3.869394
  0
VERTEX
  8
PLAN_1
  6
CONTINUOUS
 10
1.242669
 20
-3.870413
  0
VERTEX
  8
PLAN_1
  6
CONTINUOUS
 10
1.248272
 20
-3.871429
  0
VERTEX
  8
PLAN_1
  6
CONTINUOUS
 10
1.253870
 20
-3.872957
  0
VERTEX
  8
PLAN_1
  6
CONTINUOUS
 10
1.259472
 20
-3.874992
  0
VERTEX
  8
PLAN_1
  6
CONTINUOUS
 10
1.264563
 20
-3.877031
  0
VERTEX
  8
PLAN_1
  6
CONTINUOUS
 10
1.269146
 20
-3.880087
  0
VERTEX
  8
PLAN_1
  6
CONTINUOUS
 10
1.273728
 20
-3.883142
  0
VERTEX
  8
PLAN_1
  6
CONTINUOUS
 10
1.277803
 20
-3.887213
  0
VERTEX
  8
PLAN_1
  6
CONTINUOUS
 10
1.281366
 20
-3.891287
  0
VERTEX
  8
PLAN_1
  6
CONTINUOUS
 10
1.284421
 20
-3.896378
  0
VERTEX
  8
PLAN_1
  6
CONTINUOUS
 10
1.286457
 20
-3.901980
  0
VERTEX
  8
PLAN_1
  6
CONTINUOUS
 10
1.288496
 20
-3.908091
  0
VERTEX
  8
PLAN_1
  6
CONTINUOUS
 10
1.289512
 20
-3.915217
  0
VERTEX
  8
PLAN_1
  6
CONTINUOUS
 10
1.290024
 20
-3.922346
  0
VERTEX
  8
PLAN_1
  6
CONTINUOUS
 10
1.289512
 20
-3.927945
  0
VERTEX
  8
PLAN_1
  6
CONTINUOUS
 10
1.289004
 20
-3.932528
  0
VERTEX
  8
PLAN_1
  6
CONTINUOUS
 10
1.288496
 20
-3.937110
  0
VERTEX
  8
PLAN_1
  6
CONTINUOUS
 10
1.287476
 20
-3.941185
  0
VERTEX
  8
PLAN_1
  6
CONTINUOUS
 10
1.285949
 20
-3.945260
  0
VERTEX
  8
PLAN_1
  6
CONTINUOUS
 10
1.284421
 20
-3.948823
  0
VERTEX
  8
PLAN_1
  6
CONTINUOUS
 10
1.282894
 20
-3.951878
  0
VERTEX
  8
PLAN_1
  6
CONTINUOUS
 10
1.280858
 20
-3.954421
  0
VERTEX
  8
PLAN_1
  6
CONTINUOUS
 10
1.276276
 20
-3.959516
  0
VERTEX
  8
PLAN_1
  6
CONTINUOUS
 10
1.271693
 20
-3.963587
  0
VERTEX
  8
PLAN_1
  6
CONTINUOUS
 10
1.267110
 20
-3.967154
  0
VERTEX
  8
PLAN_1
  6
CONTINUOUS
 10
1.262020
 20
-3.970209
  0
VERTEX
  8
PLAN_1
  6
CONTINUOUS
 10
1.266091
 20
-3.972244
  0
VERTEX
  8
PLAN_1
  6
CONTINUOUS
 10
1.270673
 20
-3.974280
  0
VERTEX
  8
PLAN_1
  6
CONTINUOUS
 10
1.274236
 20
-3.976827
  0
VERTEX
  8
PLAN_1
  6
CONTINUOUS
 10
1.277803
 20
-3.980390
  0
VERTEX
  8
PLAN_1
  6
CONTINUOUS
 10
1.279331
 20
-3.982425
  0
VERTEX
  8
PLAN_1
  6
CONTINUOUS
 10
1.280858
 20
-3.984972
  0
VERTEX
  8
PLAN_1
  6
CONTINUOUS
 10
1.282386
 20
-3.987520
  0
VERTEX
  8
PLAN_1
  6
CONTINUOUS
 10
1.283402
 20
-3.991083
  0
VERTEX
  8
PLAN_1
  6
CONTINUOUS
 10
1.284421
 20
-3.994646
  0
VERTEX
  8
PLAN_1
  6
CONTINUOUS
 10
1.284929
 20
-3.998213
  0
VERTEX
  8
PLAN_1
  6
CONTINUOUS
 10
1.285441
 20
-4.002791
  0
VERTEX
  8
PLAN_1
  6
CONTINUOUS
 10
1.285949
 20
-4.007886
  0
VERTEX
  8
PLAN_1
  6
CONTINUOUS
 10
1.287476
 20
-4.044035
  0
VERTEX
  8
PLAN_1
  6
CONTINUOUS
 10
1.287984
 20
-4.047598
  0
VERTEX
  8
PLAN_1
  6
CONTINUOUS
 10
1.287984
 20
-4.051165
  0
VERTEX
  8
PLAN_1
  6
CONTINUOUS
 10
1.288496
 20
-4.053709
  0
VERTEX
  8
PLAN_1
  6
CONTINUOUS
 10
1.289512
 20
-4.056256
  0
VERTEX
  8
PLAN_1
  6
CONTINUOUS
 10
1.291039
 20
-4.058291
  0
VERTEX
  8
PLAN_1
  6
CONTINUOUS
 10
1.292567
 20
-4.060327
  0
VERTEX
  8
PLAN_1
  6
CONTINUOUS
 10
1.294606
 20
-4.061854
  0
VERTEX
  8
PLAN_1
  6
CONTINUOUS
 10
1.297657
 20
-4.063894
  0
VERTEX
  8
PLAN_1
  6
CONTINUOUS
 10
1.297657
 20
-4.068476
  0
VERTEX
  8
PLAN_1
  6
CONTINUOUS
 10
1.264563
 20
-4.068476
  0
VERTEX
  8
PLAN_1
  6
CONTINUOUS
 10
1.263035
 20
-4.062874
  0
VERTEX
  8
PLAN_1
  6
CONTINUOUS
 10
1.262020
 20
-4.056256
  0
VERTEX
  8
PLAN_1
  6
CONTINUOUS
 10
1.261508
 20
-4.049126
  0
VERTEX
  8
PLAN_1
  6
CONTINUOUS
 10
1.261000
 20
-4.041488
  0
VERTEX
  8
PLAN_1
  6
CONTINUOUS
 10
1.260492
 20
-4.034362
  0
VERTEX
  8
PLAN_1
  6
CONTINUOUS
 10
1.259980
 20
-4.027740
  0
VERTEX
  8
PLAN_1
  6
CONTINUOUS
 10
1.259980
 20
-4.022142
  0
VERTEX
  8
PLAN_1
  6
CONTINUOUS
 10
1.259980
 20
-4.018579
  0
VERTEX
  8
PLAN_1
  6
CONTINUOUS
 10
1.259472
 20
-4.011957
  0
VERTEX
  8
PLAN_1
  6
CONTINUOUS
 10
1.258965
 20
-4.005846
  0
VERTEX
  8
PLAN_1
  6
CONTINUOUS
 10
1.257945
 20
-4.002791
  0
VERTEX
  8
PLAN_1
  6
CONTINUOUS
 10
1.256925
 20
-3.999740
  0
VERTEX
  8
PLAN_1
  6
CONTINUOUS
 10
1.255909
 20
-3.997193
  0
VERTEX
  8
PLAN_1
  6
CONTINUOUS
 10
1.254382
 20
-3.994646
  0
VERTEX
  8
PLAN_1
  6
CONTINUOUS
 10
1.252343
 20
-3.992102
  0
VERTEX
  8
PLAN_1
  6
CONTINUOUS
 10
1.249799
 20
-3.989555
  0
VERTEX
  8
PLAN_1
  6
CONTINUOUS
 10
1.246744
 20
-3.987520
  0
VERTEX
  8
PLAN_1
  6
CONTINUOUS
 10
1.243689
 20
-3.985992
  0
VERTEX
  8
PLAN_1
  6
CONTINUOUS
 10
1.239614
 20
-3.984465
  0
VERTEX
  8
PLAN_1
  6
CONTINUOUS
 10
1.235031
 20
-3.983445
  0
VERTEX
  8
PLAN_1
  6
CONTINUOUS
 10
1.229941
 20
-3.982937
  0
VERTEX
  8
PLAN_1
  6
CONTINUOUS
 10
1.224339
 20
-3.982937
  0
VERTEX
  8
PLAN_1
  6
CONTINUOUS
 10
1.159169
 20
-3.982937
  0
VERTEX
  8
PLAN_1
  6
CONTINUOUS
 10
1.159169
 20
-4.068476
  0
SEQEND
  8
0
  0
POLYLINE
  8
PLAN_1
  6
CONTINUOUS
 66
     1
 40
0.003000
 41
0.003000
  0
VERTEX
  8
PLAN_1
  6
CONTINUOUS
 10
1.159169
 20
-3.959516
  0
VERTEX
  8
PLAN_1
  6
CONTINUOUS
 10
1.221795
 20
-3.959516
  0
VERTEX
  8
PLAN_1
  6
CONTINUOUS
 10
1.228921
 20
-3.959516
  0
VERTEX
  8
PLAN_1
  6
CONTINUOUS
 10
1.236051
 20
-3.958496
  0
VERTEX
  8
PLAN_1
  6
CONTINUOUS
 10
1.239614
 20
-3.957476
  0
VERTEX
  8
PLAN_1
  6
CONTINUOUS
 10
1.243181
 20
-3.956461
  0
VERTEX
  8
PLAN_1
  6
CONTINUOUS
 10
1.246232
 20
-3.955441
  0
VERTEX
  8
PLAN_1
  6
CONTINUOUS
 10
1.249287
 20
-3.953406
  0
VERTEX
  8
PLAN_1
  6
CONTINUOUS
 10
1.251835
 20
-3.951366
  0
VERTEX
  8
PLAN_1
  6
CONTINUOUS
 10
1.254382
 20
-3.949331
  0
VERTEX
  8
PLAN_1
  6
CONTINUOUS
 10
1.256417
 20
-3.946276
  0
VERTEX
  8
PLAN_1
  6
CONTINUOUS
 10
1.258453
 20
-3.943220
  0
VERTEX
  8
PLAN_1
  6
CONTINUOUS
 10
1.259980
 20
-3.939657
  0
VERTEX
  8
PLAN_1
  6
CONTINUOUS
 10
1.261000
 20
-3.935075
  0
VERTEX
  8
PLAN_1
  6
CONTINUOUS
 10
1.262020
 20
-3.930492
  0
VERTEX
  8
PLAN_1
  6
CONTINUOUS
 10
1.262020
 20
-3.925402
  0
VERTEX
  8
PLAN_1
  6
CONTINUOUS
 10
1.262020
 20
-3.919799
  0
VERTEX
  8
PLAN_1
  6
CONTINUOUS
 10
1.261000
 20
-3.915217
  0
VERTEX
  8
PLAN_1
  6
CONTINUOUS
 10
1.259980
 20
-3.910634
  0
VERTEX
  8
PLAN_1
  6
CONTINUOUS
 10
1.258453
 20
-3.907071
  0
VERTEX
  8
PLAN_1
  6
CONTINUOUS
 10
1.256417
 20
-3.904016
  0
VERTEX
  8
PLAN_1
  6
CONTINUOUS
 10
1.254382
 20
-3.901469
  0
VERTEX
  8
PLAN_1
  6
CONTINUOUS
 10
1.251835
 20
-3.898925
  0
VERTEX
  8
PLAN_1
  6
CONTINUOUS
 10
1.249287
 20
-3.896890
  0
VERTEX
  8
PLAN_1
  6
CONTINUOUS
 10
1.246232
 20
-3.895870
  0
VERTEX
  8
PLAN_1
  6
CONTINUOUS
 10
1.243689
 20
-3.894343
  0
VERTEX
  8
PLAN_1
  6
CONTINUOUS
 10
1.240634
 20
-3.893323
  0
VERTEX
  8
PLAN_1
  6
CONTINUOUS
 10
1.237579
 20
-3.892815
  0
VERTEX
  8
PLAN_1
  6
CONTINUOUS
 10
1.231469
 20
-3.892307
  0
VERTEX
  8
PLAN_1
  6
CONTINUOUS
 10
1.226378
 20
-3.891795
  0
VERTEX
  8
PLAN_1
  6
CONTINUOUS
 10
1.159169
 20
-3.891795
  0
VERTEX
  8
PLAN_1
  6
CONTINUOUS
 10
1.159169
 20
-3.959516
  0
SEQEND
  8
0
  0
SOLID
  8
PLAN_1
 10
1.361303
 20
-4.068476
 11
1.332283
 21
-4.068476
 12
1.361303
 22
-4.038945
 13
1.332283
 23
-4.038945
  0
POLYLINE
  8
PLAN_1
  6
CONTINUOUS
 66
     1
 40
0.003000
 41
0.003000
  0
VERTEX
  8
PLAN_1
  6
CONTINUOUS
 10
1.361303
 20
-4.068476
  0
VERTEX
  8
PLAN_1
  6
CONTINUOUS
 10
1.332283
 20
-4.068476
  0
VERTEX
  8
PLAN_1
  6
CONTINUOUS
 10
1.332283
 20
-4.038945
  0
VERTEX
  8
PLAN_1
  6
CONTINUOUS
 10
1.361303
 20
-4.038945
  0
VERTEX
  8
PLAN_1
  6
CONTINUOUS
 10
1.361303
 20
-4.068476
  0
SEQEND
  8
0
  0
POLYLINE
  8
PLAN_1
  6
CONTINUOUS
 66
     1
 40
0.003000
 41
0.003000
  0
VERTEX
  8
PLAN_1
  6
CONTINUOUS
 10
1.556311
 20
-4.068476
  0
VERTEX
  8
PLAN_1
  6
CONTINUOUS
 10
1.409165
 20
-4.068476
  0
VERTEX
  8
PLAN_1
  6
CONTINUOUS
 10
1.409165
 20
-3.868886
  0
VERTEX
  8
PLAN_1
  6
CONTINUOUS
 10
1.554276
 20
-3.868886
  0
VERTEX
  8
PLAN_1
  6
CONTINUOUS
 10
1.554276
 20
-3.892815
  0
VERTEX
  8
PLAN_1
  6
CONTINUOUS
 10
1.436150
 20
-3.892815
  0
VERTEX
  8
PLAN_1
  6
CONTINUOUS
 10
1.436150
 20
-3.953913
  0
VERTEX
  8
PLAN_1
  6
CONTINUOUS
 10
1.545110
 20
-3.953913
  0
VERTEX
  8
PLAN_1
  6
CONTINUOUS
 10
1.545110
 20
-3.977843
  0
VERTEX
  8
PLAN_1
  6
CONTINUOUS
 10
1.436150
 20
-3.977843
  0
VERTEX
  8
PLAN_1
  6
CONTINUOUS
 10
1.436150
 20
-4.044543
  0
VERTEX
  8
PLAN_1
  6
CONTINUOUS
 10
1.556311
 20
-4.044543
  0
VERTEX
  8
PLAN_1
  6
CONTINUOUS
 10
1.556311
 20
-4.068476
  0
SEQEND
  8
0
  0
POLYLINE
  8
PLAN_1
  6
CONTINUOUS
 66
     1
 40
0.003000
 41
0.003000
  0
VERTEX
  8
PLAN_1
  6
CONTINUOUS
 10
1.621484
 20
-4.068476
  0
VERTEX
  8
PLAN_1
  6
CONTINUOUS
 10
1.594500
 20
-4.068476
  0
VERTEX
  8
PLAN_1
  6
CONTINUOUS
 10
1.594500
 20
-3.868886
  0
VERTEX
  8
PLAN_1
  6
CONTINUOUS
 10
1.684110
 20
-3.868886
  0
VERTEX
  8
PLAN_1
  6
CONTINUOUS
 10
1.690732
 20
-3.869394
  0
VERTEX
  8
PLAN_1
  6
CONTINUOUS
 10
1.697350
 20
-3.869902
  0
VERTEX
  8
PLAN_1
  6
CONTINUOUS
 10
1.703461
 20
-3.871429
  0
VERTEX
  8
PLAN_1
  6
CONTINUOUS
 10
1.709063
 20
-3.873465
  0
VERTEX
  8
PLAN_1
  6
CONTINUOUS
 10
1.714154
 20
-3.875504
  0
VERTEX
  8
PLAN_1
  6
CONTINUOUS
 10
1.719244
 20
-3.878047
  0
VERTEX
  8
PLAN_1
  6
CONTINUOUS
 10
1.723319
 20
-3.881614
  0
VERTEX
  8
PLAN_1
  6
CONTINUOUS
 10
1.727390
 20
-3.885177
  0
VERTEX
  8
PLAN_1
  6
CONTINUOUS
 10
1.730957
 20
-3.888740
  0
VERTEX
  8
PLAN_1
  6
CONTINUOUS
 10
1.734520
 20
-3.893323
  0
VERTEX
  8
PLAN_1
  6
CONTINUOUS
 10
1.737063
 20
-3.897906
  0
VERTEX
  8
PLAN_1
  6
CONTINUOUS
 10
1.739102
 20
-3.902488
  0
VERTEX
  8
PLAN_1
  6
CONTINUOUS
 10
1.741138
 20
-3.908091
  0
VERTEX
  8
PLAN_1
  6
CONTINUOUS
 10
1.742157
 20
-3.913181
  0
VERTEX
  8
PLAN_1
  6
CONTINUOUS
 10
1.743173
 20
-3.919291
  0
VERTEX
  8
PLAN_1
  6
CONTINUOUS
 10
1.743173
 20
-3.924890
  0
VERTEX
  8
PLAN_1
  6
CONTINUOUS
 10
1.743173
 20
-3.930492
  0
VERTEX
  8
PLAN_1
  6
CONTINUOUS
 10
1.742665
 20
-3.935583
  0
VERTEX
  8
PLAN_1
  6
CONTINUOUS
 10
1.741646
 20
-3.940677
  0
VERTEX
  8
PLAN_1
  6
CONTINUOUS
 10
1.740118
 20
-3.945768
  0
VERTEX
  8
PLAN_1
  6
CONTINUOUS
 10
1.738083
 20
-3.950858
  0
VERTEX
  8
PLAN_1
  6
CONTINUOUS
 10
1.736047
 20
-3.955949
  0
VERTEX
  8
PLAN_1
  6
CONTINUOUS
 10
1.732992
 20
-3.960531
  0
VERTEX
  8
PLAN_1
  6
CONTINUOUS
 10
1.729937
 20
-3.965114
  0
VERTEX
  8
PLAN_1
  6
CONTINUOUS
 10
1.726374
 20
-3.969189
  0
VERTEX
  8
PLAN_1
  6
CONTINUOUS
 10
1.721791
 20
-3.972752
  0
VERTEX
  8
PLAN_1
  6
CONTINUOUS
 10
1.717209
 20
-3.976315
  0
VERTEX
  8
PLAN_1
  6
CONTINUOUS
 10
1.711606
 20
-3.978862
  0
VERTEX
  8
PLAN_1
  6
CONTINUOUS
 10
1.705496
 20
-3.980898
  0
VERTEX
  8
PLAN_1
  6
CONTINUOUS
 10
1.699386
 20
-3.982937
  0
VERTEX
  8
PLAN_1
  6
CONTINUOUS
 10
1.691748
 20
-3.983953
  0
VERTEX
  8
PLAN_1
  6
CONTINUOUS
 10
1.684110
 20
-3.983953
  0
VERTEX
  8
PLAN_1
  6
CONTINUOUS
 10
1.621484
 20
-3.983953
  0
VERTEX
  8
PLAN_1
  6
CONTINUOUS
 10
1.621484
 20
-4.068476
  0
SEQEND
  8
0
  0
POLYLINE
  8
PLAN_1
  6
CONTINUOUS
 66
     1
 40
0.003000
 41
0.003000
  0
VERTEX
  8
PLAN_1
  6
CONTINUOUS
 10
1.621484
 20
-3.961043
  0
VERTEX
  8
PLAN_1
  6
CONTINUOUS
 10
1.674949
 20
-3.961043
  0
VERTEX
  8
PLAN_1
  6
CONTINUOUS
 10
1.679531
 20
-3.961043
  0
VERTEX
  8
PLAN_1
  6
CONTINUOUS
 10
1.683602
 20
-3.960531
  0
VERTEX
  8
PLAN_1
  6
CONTINUOUS
 10
1.687677
 20
-3.960024
  0
VERTEX
  8
PLAN_1
  6
CONTINUOUS
 10
1.691748
 20
-3.959516
  0
VERTEX
  8
PLAN_1
  6
CONTINUOUS
 10
1.695315
 20
-3.958496
  0
VERTEX
  8
PLAN_1
  6
CONTINUOUS
 10
1.698370
 20
-3.956969
  0
VERTEX
  8
PLAN_1
  6
CONTINUOUS
 10
1.701425
 20
-3.955441
  0
VERTEX
  8
PLAN_1
  6
CONTINUOUS
 10
1.704480
 20
-3.953406
  0
VERTEX
  8
PLAN_1
  6
CONTINUOUS
 10
1.707024
 20
-3.950858
  0
VERTEX
  8
PLAN_1
  6
CONTINUOUS
 10
1.709063
 20
-3.948315
  0
VERTEX
  8
PLAN_1
  6
CONTINUOUS
 10
1.711098
 20
-3.945768
  0
VERTEX
  8
PLAN_1
  6
CONTINUOUS
 10
1.712626
 20
-3.942205
  0
VERTEX
  8
PLAN_1
  6
CONTINUOUS
 10
1.713642
 20
-3.938638
  0
VERTEX
  8
PLAN_1
  6
CONTINUOUS
 10
1.714661
 20
-3.934567
  0
VERTEX
  8
PLAN_1
  6
CONTINUOUS
 10
1.715169
 20
-3.929984
  0
VERTEX
  8
PLAN_1
  6
CONTINUOUS
 10
1.715681
 20
-3.925402
  0
VERTEX
  8
PLAN_1
  6
CONTINUOUS
 10
1.715169
 20
-3.920819
  0
VERTEX
  8
PLAN_1
  6
CONTINUOUS
 10
1.714661
 20
-3.916744
  0
VERTEX
  8
PLAN_1
  6
CONTINUOUS
 10
1.713642
 20
-3.912673
  0
VERTEX
  8
PLAN_1
  6
CONTINUOUS
 10
1.712626
 20
-3.909618
  0
VERTEX
  8
PLAN_1
  6
CONTINUOUS
 10
1.711098
 20
-3.906563
  0
VERTEX
  8
PLAN_1
  6
CONTINUOUS
 10
1.709063
 20
-3.903508
  0
VERTEX
  8
PLAN_1
  6
CONTINUOUS
 10
1.706516
 20
-3.901469
  0
VERTEX
  8
PLAN_1
  6
CONTINUOUS
 10
1.703969
 20
-3.899433
  0
VERTEX
  8
PLAN_1
  6
CONTINUOUS
 10
1.701425
 20
-3.897398
  0
VERTEX
  8
PLAN_1
  6
CONTINUOUS
 10
1.698370
 20
-3.895870
  0
VERTEX
  8
PLAN_1
  6
CONTINUOUS
 10
1.695315
 20
-3.894850
  0
VERTEX
  8
PLAN_1
  6
CONTINUOUS
 10
1.691748
 20
-3.893835
  0
VERTEX
  8
PLAN_1
  6
CONTINUOUS
 10
1.684110
 20
-3.892307
  0
VERTEX
  8
PLAN_1
  6
CONTINUOUS
 10
1.675965
 20
-3.891795
  0
VERTEX
  8
PLAN_1
  6
CONTINUOUS
 10
1.621484
 20
-3.891795
  0
VERTEX
  8
PLAN_1
  6
CONTINUOUS
 10
1.621484
 20
-3.961043
  0
SEQEND
  8
0
  0
POLYLINE
  8
PLAN_1
  6
CONTINUOUS
 66
     1
 40
0.003000
 41
0.003000
  0
VERTEX
  8
PLAN_1
  6
CONTINUOUS
 10
1.896941
 20
-3.927437
  0
VERTEX
  8
PLAN_1
  6
CONTINUOUS
 10
1.896433
 20
-3.921839
  0
VERTEX
  8
PLAN_1
  6
CONTINUOUS
 10
1.895413
 20
-3.916744
  0
VERTEX
  8
PLAN_1
  6
CONTINUOUS
 10
1.893886
 20
-3.912161
  0
VERTEX
  8
PLAN_1
  6
CONTINUOUS
 10
1.891850
 20
-3.908091
  0
VERTEX
  8
PLAN_1
  6
CONTINUOUS
 10
1.889811
 20
-3.904016
  0
VERTEX
  8
PLAN_1
  6
CONTINUOUS
 10
1.886760
 20
-3.900961
  0
VERTEX
  8
PLAN_1
  6
CONTINUOUS
 10
1.883705
 20
-3.897906
  0
VERTEX
  8
PLAN_1
  6
CONTINUOUS
 10
1.880138
 20
-3.895362
  0
VERTEX
  8
PLAN_1
  6
CONTINUOUS
 10
1.876575
 20
-3.893323
  0
VERTEX
  8
PLAN_1
  6
CONTINUOUS
 10
1.873012
 20
-3.891287
  0
VERTEX
  8
PLAN_1
  6
CONTINUOUS
 10
1.868937
 20
-3.889760
  0
VERTEX
  8
PLAN_1
  6
CONTINUOUS
 10
1.864862
 20
-3.888740
  0
VERTEX
  8
PLAN_1
  6
CONTINUOUS
 10
1.860791
 20
-3.887724
  0
VERTEX
  8
PLAN_1
  6
CONTINUOUS
 10
1.856209
 20
-3.887213
  0
VERTEX
  8
PLAN_1
  6
CONTINUOUS
 10
1.852134
 20
-3.886705
  0
VERTEX
  8
PLAN_1
  6
CONTINUOUS
 10
1.847551
 20
-3.886705
  0
VERTEX
  8
PLAN_1
  6
CONTINUOUS
 10
1.840933
 20
-3.887213
  0
VERTEX
  8
PLAN_1
  6
CONTINUOUS
 10
1.833295
 20
-3.887724
  0
VERTEX
  8
PLAN_1
  6
CONTINUOUS
 10
1.829732
 20
-3.888740
  0
VERTEX
  8
PLAN_1
  6
CONTINUOUS
 10
1.826169
 20
-3.889760
  0
VERTEX
  8
PLAN_1
  6
CONTINUOUS
 10
1.822094
 20
-3.891287
  0
VERTEX
  8
PLAN_1
  6
CONTINUOUS
 10
1.818531
 20
-3.892815
  0
VERTEX
  8
PLAN_1
  6
CONTINUOUS
 10
1.815476
 20
-3.894850
  0
VERTEX
  8
PLAN_1
  6
CONTINUOUS
 10
1.812421
 20
-3.897398
  0
VERTEX
  8
PLAN_1
  6
CONTINUOUS
 10
1.809366
 20
-3.900453
  0
VERTEX
  8
PLAN_1
  6
CONTINUOUS
 10
1.806819
 20
-3.903508
  0
VERTEX
  8
PLAN_1
  6
CONTINUOUS
 10
1.804783
 20
-3.907071
  0
VERTEX
  8
PLAN_1
  6
CONTINUOUS
 10
1.803764
 20
-3.911654
  0
VERTEX
  8
PLAN_1
  6
CONTINUOUS
 10
1.802748
 20
-3.916236
  0
VERTEX
  8
PLAN_1
  6
CONTINUOUS
 10
1.802236
 20
-3.921839
  0
VERTEX
  8
PLAN_1
  6
CONTINUOUS
 10
1.802236
 20
-3.924890
  0
VERTEX
  8
PLAN_1
  6
CONTINUOUS
 10
1.802748
 20
-3.927437
  0
VERTEX
  8
PLAN_1
  6
CONTINUOUS
 10
1.803256
 20
-3.929984
  0
VERTEX
  8
PLAN_1
  6
CONTINUOUS
 10
1.804276
 20
-3.932528
  0
VERTEX
  8
PLAN_1
  6
CONTINUOUS
 10
1.806819
 20
-3.936602
  0
VERTEX
  8
PLAN_1
  6
CONTINUOUS
 10
1.809874
 20
-3.939657
  0
VERTEX
  8
PLAN_1
  6
CONTINUOUS
 10
1.813437
 20
-3.942205
  0
VERTEX
  8
PLAN_1
  6
CONTINUOUS
 10
1.817004
 20
-3.944240
  0
VERTEX
  8
PLAN_1
  6
CONTINUOUS
 10
1.821587
 20
-3.945768
  0
VERTEX
  8
PLAN_1
  6
CONTINUOUS
 10
1.825657
 20
-3.946787
  0
VERTEX
  8
PLAN_1
  6
CONTINUOUS
 10
1.882685
 20
-3.960024
  0
VERTEX
  8
PLAN_1
  6
CONTINUOUS
 10
1.887268
 20
-3.961043
  0
VERTEX
  8
PLAN_1
  6
CONTINUOUS
 10
1.891850
 20
-3.962571
  0
VERTEX
  8
PLAN_1
  6
CONTINUOUS
 10
1.896433
 20
-3.964606
  0
VERTEX
  8
PLAN_1
  6
CONTINUOUS
 10
1.900504
 20
-3.966642
  0
VERTEX
  8
PLAN_1
  6
CONTINUOUS
 10
1.904579
 20
-3.968681
  0
VERTEX
  8
PLAN_1
  6
CONTINUOUS
 10
1.908654
 20
-3.971224
  0
VERTEX
  8
PLAN_1
  6
CONTINUOUS
 10
1.911709
 20
-3.974280
  0
VERTEX
  8
PLAN_1
  6
CONTINUOUS
 10
1.915272
 20
-3.977335
  0
VERTEX
  8
PLAN_1
  6
CONTINUOUS
 10
1.917815
 20
-3.980390
  0
VERTEX
  8
PLAN_1
  6
CONTINUOUS
 10
1.920362
 20
-3.983953
  0
VERTEX
  8
PLAN_1
  6
CONTINUOUS
 10
1.922909
 20
-3.988028
  0
VERTEX
  8
PLAN_1
  6
CONTINUOUS
 10
1.924437
 20
-3.992610
  0
VERTEX
  8
PLAN_1
  6
CONTINUOUS
 10
1.925965
 20
-3.997193
  0
VERTEX
  8
PLAN_1
  6
CONTINUOUS
 10
1.926980
 20
-4.002283
  0
VERTEX
  8
PLAN_1
  6
CONTINUOUS
 10
1.928000
 20
-4.007374
  0
VERTEX
  8
PLAN_1
  6
CONTINUOUS
 10
1.928000
 20
-4.013484
  0
VERTEX
  8
PLAN_1
  6
CONTINUOUS
 10
1.928000
 20
-4.017559
  0
VERTEX
  8
PLAN_1
  6
CONTINUOUS
 10
1.927492
 20
-4.021634
  0
VERTEX
  8
PLAN_1
  6
CONTINUOUS
 10
1.926980
 20
-4.025705
  0
VERTEX
  8
PLAN_1
  6
CONTINUOUS
 10
1.925965
 20
-4.029268
  0
VERTEX
  8
PLAN_1
  6
CONTINUOUS
 10
1.923925
 20
-4.036398
  0
VERTEX
  8
PLAN_1
  6
CONTINUOUS
 10
1.920362
 20
-4.042508
  0
VERTEX
  8
PLAN_1
  6
CONTINUOUS
 10
1.916799
 20
-4.048110
  0
VERTEX
  8
PLAN_1
  6
CONTINUOUS
 10
1.912217
 20
-4.053201
  0
VERTEX
  8
PLAN_1
  6
CONTINUOUS
 10
1.907126
 20
-4.057272
  0
VERTEX
  8
PLAN_1
  6
CONTINUOUS
 10
1.902031
 20
-4.061346
  0
VERTEX
  8
PLAN_1
  6
CONTINUOUS
 10
1.895921
 20
-4.064402
  0
VERTEX
  8
PLAN_1
  6
CONTINUOUS
 10
1.889811
 20
-4.066949
  0
VERTEX
  8
PLAN_1
  6
CONTINUOUS
 10
1.883193
 20
-4.068984
  0
VERTEX
  8
PLAN_1
  6
CONTINUOUS
 10
1.876575
 20
-4.071020
  0
VERTEX
  8
PLAN_1
  6
CONTINUOUS
 10
1.869957
 20
-4.072039
  0
VERTEX
  8
PLAN_1
  6
CONTINUOUS
 10
1.863339
 20
-4.073059
  0
VERTEX
  8
PLAN_1
  6
CONTINUOUS
 10
1.856717
 20
-4.073567
  0
VERTEX
  8
PLAN_1
  6
CONTINUOUS
 10
1.850098
 20
-4.073567
  0
VERTEX
  8
PLAN_1
  6
CONTINUOUS
 10
1.843480
 20
-4.073567
  0
VERTEX
  8
PLAN_1
  6
CONTINUOUS
 10
1.837370
 20
-4.073059
  0
VERTEX
  8
PLAN_1
  6
CONTINUOUS
 10
1.831260
 20
-4.072547
  0
VERTEX
  8
PLAN_1
  6
CONTINUOUS
 10
1.826169
 20
-4.071531
  0
VERTEX
  8
PLAN_1
  6
CONTINUOUS
 10
1.817004
 20
-4.069492
  0
VERTEX
  8
PLAN_1
  6
CONTINUOUS
 10
1.809366
 20
-4.066949
  0
VERTEX
  8
PLAN_1
  6
CONTINUOUS
 10
1.802748
 20
-4.063894
  0
VERTEX
  8
PLAN_1
  6
CONTINUOUS
 10
1.797654
 20
-4.060839
  0
VERTEX
  8
PLAN_1
  6
CONTINUOUS
 10
1.793583
 20
-4.057783
  0
VERTEX
  8
PLAN_1
  6
CONTINUOUS
 10
1.790016
 20
-4.054217
  0
VERTEX
  8
PLAN_1
  6
CONTINUOUS
 10
1.783909
 20
-4.048618
  0
VERTEX
  8
PLAN_1
  6
CONTINUOUS
 10
1.779327
 20
-4.042508
  0
VERTEX
  8
PLAN_1
  6
CONTINUOUS
 10
1.775760
 20
-4.036398
  0
VERTEX
  8
PLAN_1
  6
CONTINUOUS
 10
1.773217
 20
-4.030287
  0
VERTEX
  8
PLAN_1
  6
CONTINUOUS
 10
1.771689
 20
-4.024177
  0
VERTEX
  8
PLAN_1
  6
CONTINUOUS
 10
1.770161
 20
-4.017559
  0
VERTEX
  8
PLAN_1
  6
CONTINUOUS
 10
1.769650
 20
-4.010941
  0
VERTEX
  8
PLAN_1
  6
CONTINUOUS
 10
1.769650
 20
-4.003811
  0
VERTEX
  8
PLAN_1
  6
CONTINUOUS
 10
1.794598
 20
-4.003811
  0
VERTEX
  8
PLAN_1
  6
CONTINUOUS
 10
1.795110
 20
-4.010429
  0
VERTEX
  8
PLAN_1
  6
CONTINUOUS
 10
1.796126
 20
-4.016031
  0
VERTEX
  8
PLAN_1
  6
CONTINUOUS
 10
1.797654
 20
-4.021634
  0
VERTEX
  8
PLAN_1
  6
CONTINUOUS
 10
1.799693
 20
-4.026217
  0
VERTEX
  8
PLAN_1
  6
CONTINUOUS
 10
1.802236
 20
-4.030795
  0
VERTEX
  8
PLAN_1
  6
CONTINUOUS
 10
1.805291
 20
-4.034362
  0
VERTEX
  8
PLAN_1
  6
CONTINUOUS
 10
1.808858
 20
-4.037925
  0
VERTEX
  8
PLAN_1
  6
CONTINUOUS
 10
1.812421
 20
-4.040980
  0
VERTEX
  8
PLAN_1
  6
CONTINUOUS
 10
1.817004
 20
-4.043016
  0
VERTEX
  8
PLAN_1
  6
CONTINUOUS
 10
1.821075
 20
-4.045055
  0
VERTEX
  8
PLAN_1
  6
CONTINUOUS
 10
1.825657
 20
-4.047091
  0
VERTEX
  8
PLAN_1
  6
CONTINUOUS
 10
1.830240
 20
-4.048110
  0
VERTEX
  8
PLAN_1
  6
CONTINUOUS
 10
1.835335
 20
-4.049126
  0
VERTEX
  8
PLAN_1
  6
CONTINUOUS
 10
1.839913
 20
-4.050146
  0
VERTEX
  8
PLAN_1
  6
CONTINUOUS
 10
1.845008
 20
-4.050654
  0
VERTEX
  8
PLAN_1
  6
CONTINUOUS
 10
1.849591
 20
-4.050654
  0
VERTEX
  8
PLAN_1
  6
CONTINUOUS
 10
1.857736
 20
-4.050146
  0
VERTEX
  8
PLAN_1
  6
CONTINUOUS
 10
1.865882
 20
-4.049126
  0
VERTEX
  8
PLAN_1
  6
CONTINUOUS
 10
1.870465
 20
-4.048618
  0
VERTEX
  8
PLAN_1
  6
CONTINUOUS
 10
1.874539
 20
-4.047598
  0
VERTEX
  8
PLAN_1
  6
CONTINUOUS
 10
1.879122
 20
-4.046071
  0
VERTEX
  8
PLAN_1
  6
CONTINUOUS
 10
1.883193
 20
-4.044543
  0
VERTEX
  8
PLAN_1
  6
CONTINUOUS
 10
1.886760
 20
-4.042508
  0
VERTEX
  8
PLAN_1
  6
CONTINUOUS
 10
1.890323
 20
-4.039961
  0
VERTEX
  8
PLAN_1
  6
CONTINUOUS
 10
1.893886
 20
-4.037417
  0
VERTEX
  8
PLAN_1
  6
CONTINUOUS
 10
1.896433
 20
-4.034362
  0
VERTEX
  8
PLAN_1
  6
CONTINUOUS
 10
1.898976
 20
-4.030795
  0
VERTEX
  8
PLAN_1
  6
CONTINUOUS
 10
1.900504
 20
-4.026724
  0
VERTEX
  8
PLAN_1
  6
CONTINUOUS
 10
1.901524
 20
-4.022142
  0
VERTEX
  8
PLAN_1
  6
CONTINUOUS
 10
1.902031
 20
-4.017051
  0
VERTEX
  8
PLAN_1
  6
CONTINUOUS
 10
1.902031
 20
-4.012976
  0
VERTEX
  8
PLAN_1
  6
CONTINUOUS
 10
1.901524
 20
-4.009921
  0
VERTEX
  8
PLAN_1
  6
CONTINUOUS
 10
1.901016
 20
-4.006866
  0
VERTEX
  8
PLAN_1
  6
CONTINUOUS
 10
1.899996
 20
-4.003811
  0
VERTEX
  8
PLAN_1
  6
CONTINUOUS
 10
1.898469
 20
-4.001264
  0
VERTEX
  8
PLAN_1
  6
CONTINUOUS
 10
1.896941
 20
-3.998720
  0
VERTEX
  8
PLAN_1
  6
CONTINUOUS
 10
1.895413
 20
-3.996685
  0
VERTEX
  8
PLAN_1
  6
CONTINUOUS
 10
1.892866
 20
-3.994646
  0
VERTEX
  8
PLAN_1
  6
CONTINUOUS
 10
1.890323
 20
-3.992610
  0
VERTEX
  8
PLAN_1
  6
CONTINUOUS
 10
1.887268
 20
-3.990575
  0
VERTEX
  8
PLAN_1
  6
CONTINUOUS
 10
1.883705
 20
-3.989047
  0
VERTEX
  8
PLAN_1
  6
CONTINUOUS
 10
1.880138
 20
-3.987520
  0
VERTEX
  8
PLAN_1
  6
CONTINUOUS
 10
1.870465
 20
-3.984465
  0
VERTEX
  8
PLAN_1
  6
CONTINUOUS
 10
1.859264
 20
-3.981917
  0
VERTEX
  8
PLAN_1
  6
CONTINUOUS
 10
1.818531
 20
-3.972244
  0
VERTEX
  8
PLAN_1
  6
CONTINUOUS
 10
1.812929
 20
-3.970717
  0
VERTEX
  8
PLAN_1
  6
CONTINUOUS
 10
1.806311
 20
-3.968681
  0
VERTEX
  8
PLAN_1
  6
CONTINUOUS
 10
1.802748
 20
-3.967154
  0
VERTEX
  8
PLAN_1
  6
CONTINUOUS
 10
1.799693
 20
-3.965114
  0
VERTEX
  8
PLAN_1
  6
CONTINUOUS
 10
1.796126
 20
-3.963079
  0
VERTEX
  8
PLAN_1
  6
CONTINUOUS
 10
1.792563
 20
-3.960531
  0
VERTEX
  8
PLAN_1
  6
CONTINUOUS
 10
1.789000
 20
-3.957988
  0
VERTEX
  8
PLAN_1
  6
CONTINUOUS
 10
1.785945
 20
-3.954421
  0
VERTEX
  8
PLAN_1
  6
CONTINUOUS
 10
1.783398
 20
-3.950858
  0
VERTEX
  8
PLAN_1
  6
CONTINUOUS
 10
1.780854
 20
-3.946787
  0
VERTEX
  8
PLAN_1
  6
CONTINUOUS
 10
1.778815
 20
-3.942205
  0
VERTEX
  8
PLAN_1
  6
CONTINUOUS
 10
1.777287
 20
-3.937110
  0
VERTEX
  8
PLAN_1
  6
CONTINUOUS
 10
1.776272
 20
-3.931512
  0
VERTEX
  8
PLAN_1
  6
CONTINUOUS
 10
1.776272
 20
-3.925402
  0
VERTEX
  8
PLAN_1
  6
CONTINUOUS
 10
1.776272
 20
-3.919291
  0
VERTEX
  8
PLAN_1
  6
CONTINUOUS
 10
1.777287
 20
-3.913689
  0
VERTEX
  8
PLAN_1
  6
CONTINUOUS
 10
1.778307
 20
-3.908091
  0
VERTEX
  8
PLAN_1
  6
CONTINUOUS
 10
1.779835
 20
-3.902488
  0
VERTEX
  8
PLAN_1
  6
CONTINUOUS
 10
1.782382
 20
-3.897398
  0
VERTEX
  8
PLAN_1
  6
CONTINUOUS
 10
1.784925
 20
-3.892307
  0
VERTEX
  8
PLAN_1
  6
CONTINUOUS
 10
1.788488
 20
-3.887213
  0
VERTEX
  8
PLAN_1
  6
CONTINUOUS
 10
1.792563
 20
-3.882630
  0
VERTEX
  8
PLAN_1
  6
CONTINUOUS
 10
1.796638
 20
-3.878559
  0
VERTEX
  8
PLAN_1
  6
CONTINUOUS
 10
1.801728
 20
-3.874992
  0
VERTEX
  8
PLAN_1
  6
CONTINUOUS
 10
1.807331
 20
-3.871937
  0
VERTEX
  8
PLAN_1
  6
CONTINUOUS
 10
1.813437
 20
-3.868886
  0
VERTEX
  8
PLAN_1
  6
CONTINUOUS
 10
1.820567
 20
-3.866846
  0
VERTEX
  8
PLAN_1
  6
CONTINUOUS
 10
1.827697
 20
-3.865319
  0
VERTEX
  8
PLAN_1
  6
CONTINUOUS
 10
1.835843
 20
-3.864303
  0
VERTEX
  8
PLAN_1
  6
CONTINUOUS
 10
1.844496
 20
-3.863791
  0
VERTEX
  8
PLAN_1
  6
CONTINUOUS
 10
1.857228
 20
-3.864303
  0
VERTEX
  8
PLAN_1
  6
CONTINUOUS
 10
1.867917
 20
-3.865319
  0
VERTEX
  8
PLAN_1
  6
CONTINUOUS
 10
1.877594
 20
-3.867866
  0
VERTEX
  8
PLAN_1
  6
CONTINUOUS
 10
1.886248
 20
-3.870413
  0
VERTEX
  8
PLAN_1
  6
CONTINUOUS
 10
1.893378
 20
-3.873976
  0
VERTEX
  8
PLAN_1
  6
CONTINUOUS
 10
1.899488
 20
-3.878047
  0
VERTEX
  8
PLAN_1
  6
CONTINUOUS
 10
1.905087
 20
-3.882630
  0
VERTEX
  8
PLAN_1
  6
CONTINUOUS
 10
1.909161
 20
-3.887213
  0
VERTEX
  8
PLAN_1
  6
CONTINUOUS
 10
1.912724
 20
-3.892307
  0
VERTEX
  8
PLAN_1
  6
CONTINUOUS
 10
1.915780
 20
-3.897398
  0
VERTEX
  8
PLAN_1
  6
CONTINUOUS
 10
1.917815
 20
-3.902996
  0
VERTEX
  8
PLAN_1
  6
CONTINUOUS
 10
1.919854
 20
-3.908091
  0
VERTEX
  8
PLAN_1
  6
CONTINUOUS
 10
1.920870
 20
-3.913181
  0
VERTEX
  8
PLAN_1
  6
CONTINUOUS
 10
1.921890
 20
-3.918272
  0
VERTEX
  8
PLAN_1
  6
CONTINUOUS
 10
1.922398
 20
-3.922854
  0
VERTEX
  8
PLAN_1
  6
CONTINUOUS
 10
1.922398
 20
-3.927437
  0
VERTEX
  8
PLAN_1
  6
CONTINUOUS
 10
1.896941
 20
-3.927437
  0
SEQEND
  8
0
  0
POLYLINE
  8
PLAN_1
  6
CONTINUOUS
 66
     1
 40
0.008146
 41
0.008146
  0
VERTEX
  8
PLAN_1
  6
CONTINUOUS
 10
-0.547539
 20
1.529236
  0
VERTEX
  8
PLAN_1
  6
CONTINUOUS
 10
-0.513933
 20
1.529236
  0
VERTEX
  8
PLAN_1
  6
CONTINUOUS
 10
-0.513933
 20
1.990024
  0
VERTEX
  8
PLAN_1
  6
CONTINUOUS
 10
-0.548047
 20
1.990024
  0
SEQEND
  8
0
  0
POLYLINE
  8
PLAN_1
  6
CONTINUOUS
 66
     1
 40
0.008146
 41
0.008146
  0
VERTEX
  8
PLAN_1
  6
CONTINUOUS
 10
-0.547539
 20
-0.636732
  0
VERTEX
  8
PLAN_1
  6
CONTINUOUS
 10
-0.513933
 20
-0.636732
  0
VERTEX
  8
PLAN_1
  6
CONTINUOUS
 10
-0.513933
 20
-0.304760
  0
VERTEX
  8
PLAN_1
  6
CONTINUOUS
 10
-0.547539
 20
-0.304760
  0
SEQEND
  8
0
  0
POLYLINE
  8
PLAN_1
  6
CONTINUOUS
 66
     1
 40
0.008146
 41
0.008146
  0
VERTEX
  8
PLAN_1
  6
CONTINUOUS
 10
-1.819421
 20
1.625465
  0
VERTEX
  8
PLAN_1
  6
CONTINUOUS
 10
-1.930925
 20
1.625976
  0
VERTEX
  8
PLAN_1
  6
CONTINUOUS
 10
-1.930925
 20
-1.160150
  0
VERTEX
  8
PLAN_1
  6
CONTINUOUS
 10
-0.548047
 20
-1.160150
  0
SEQEND
  8
0
  0
POLYLINE
  8
PLAN_1
  6
CONTINUOUS
 66
     1
 40
0.008146
 41
0.008146
  0
VERTEX
  8
PLAN_1
  6
CONTINUOUS
 10
-0.548047
 20
-1.160150
  0
VERTEX
  8
PLAN_1
  6
CONTINUOUS
 10
-0.548047
 20
-1.024205
  0
VERTEX
  8
PLAN_1
  6
CONTINUOUS
 10
-0.548047
 20
-0.667283
  0
VERTEX
  8
PLAN_1
  6
CONTINUOUS
 10
-0.548047
 20
-0.163217
  0
VERTEX
  8
PLAN_1
  6
CONTINUOUS
 10
-0.548047
 20
0.414173
  0
VERTEX
  8
PLAN_1
  6
CONTINUOUS
 10
-0.548047
 20
0.992071
  0
VERTEX
  8
PLAN_1
  6
CONTINUOUS
 10
-0.548047
 20
1.496138
  0
VERTEX
  8
PLAN_1
  6
CONTINUOUS
 10
-0.548047
 20
1.852551
  0
VERTEX
  8
PLAN_1
  6
CONTINUOUS
 10
-0.548047
 20
1.987480
  0
SEQEND
  8
0
  0
POLYLINE
  8
PLAN_1
  6
CONTINUOUS
 66
     1
 40
0.008146
 41
0.008146
  0
VERTEX
  8
PLAN_1
  6
CONTINUOUS
 10
-0.548047
 20
1.987480
  0
VERTEX
  8
PLAN_1
  6
CONTINUOUS
 10
-1.819421
 20
1.987480
  0
VERTEX
  8
PLAN_1
  6
CONTINUOUS
 10
-1.819421
 20
1.625465
  0
SEQEND
  8
0
  0
POLYLINE
  8
PLAN_1
  6
CONTINUOUS
 66
     1
 40
0.008146
 41
0.008146
  0
VERTEX
  8
PLAN_1
  6
CONTINUOUS
 10
-0.548047
 20
2.737980
  0
VERTEX
  8
PLAN_1
  6
CONTINUOUS
 10
-0.548555
 20
1.988496
  0
VERTEX
  8
PLAN_1
  6
CONTINUOUS
 10
-1.819421
 20
1.988496
  0
VERTEX
  8
PLAN_1
  6
CONTINUOUS
 10
-1.819421
 20
2.737980
  0
VERTEX
  8
PLAN_1
  6
CONTINUOUS
 10
-0.548047
 20
2.737980
  0
SEQEND
  8
0
  0
POLYLINE
  8
PLAN_1
  6
CONTINUOUS
 66
     1
 40
0.008146
 41
0.008146
  0
VERTEX
  8
PLAN_1
  6
CONTINUOUS
 10
-1.782252
 20
-0.320543
  0
VERTEX
  8
PLAN_1
  6
CONTINUOUS
 10
-1.907504
 20
-0.320543
  0
VERTEX
  8
PLAN_1
  6
CONTINUOUS
 10
-1.907504
 20
-0.644882
  0
VERTEX
  8
PLAN_1
  6
CONTINUOUS
 10
-1.782252
 20
-0.644882
  0
SEQEND
  8
0
  0
POLYLINE
  8
PLAN_1
  6
CONTINUOUS
 66
     1
 40
0.008146
 41
0.008146
  0
VERTEX
  8
PLAN_1
  6
CONTINUOUS
 10
-1.907504
 20
-0.613823
  0
VERTEX
  8
PLAN_1
  6
CONTINUOUS
 10
-1.841315
 20
-0.613823
  0
VERTEX
  8
PLAN_1
  6
CONTINUOUS
 10
-1.841315
 20
-0.586835
  0
VERTEX
  8
PLAN_1
  6
CONTINUOUS
 10
-1.907504
 20
-0.586835
  0
SEQEND
  8
0
  0
POLYLINE
  8
PLAN_1
  6
CONTINUOUS
 66
     1
 40
0.008146
 41
0.008146
  0
VERTEX
  8
PLAN_1
  6
CONTINUOUS
 10
-1.930417
 20
-0.669319
  0
VERTEX
  8
PLAN_1
  6
CONTINUOUS
 10
-1.781744
 20
-0.669319
  0
VERTEX
  8
PLAN_1
  6
CONTINUOUS
 10
-1.781744
 20
-0.294067
  0
VERTEX
  8
PLAN_1
  6
CONTINUOUS
 10
-1.930417
 20
-0.294067
  0
SEQEND
  8
0
  0
POLYLINE
  8
PLAN_1
  6
CONTINUOUS
 66
     1
 40
0.008146
 41
0.008146
  0
VERTEX
  8
PLAN_1
  6
CONTINUOUS
 10
-1.819421
 20
2.240531
  0
VERTEX
  8
PLAN_1
  6
CONTINUOUS
 10
-1.514433
 20
2.240531
  0
VERTEX
  8
PLAN_1
  6
CONTINUOUS
 10
-1.514433
 20
2.048579
  0
VERTEX
  8
PLAN_1
  6
CONTINUOUS
 10
-0.853035
 20
2.048579
  0
VERTEX
  8
PLAN_1
  6
CONTINUOUS
 10
-0.853035
 20
2.240531
  0
VERTEX
  8
PLAN_1
  6
CONTINUOUS
 10
-0.548047
 20
2.240531
  0
SEQEND
  8
0
  0
POLYLINE
  8
PLAN_1
  6
CONTINUOUS
 66
     1
 40
0.008146
 41
0.008146
  0
VERTEX
  8
PLAN_1
  6
CONTINUOUS
 10
-1.124417
 20
-0.442744
  0
VERTEX
  8
PLAN_1
  6
CONTINUOUS
 10
-1.165150
 20
-0.442744
  0
VERTEX
  8
PLAN_1
  6
CONTINUOUS
 10
-1.165150
 20
1.622409
  0
SEQEND
  8
0
  0
POLYLINE
  8
PLAN_1
  6
CONTINUOUS
 66
     1
 40
0.008146
 41
0.008146
  0
VERTEX
  8
PLAN_1
  6
CONTINUOUS
 10
-1.124417
 20
-1.159134
  0
VERTEX
  8
PLAN_1
  6
CONTINUOUS
 10
-1.124417
 20
1.625976
  0
VERTEX
  8
PLAN_1
  6
CONTINUOUS
 10
-1.819421
 20
1.625976
  0
SEQEND
  8
0
  0
POLYLINE
  8
PLAN_1
  6
CONTINUOUS
 66
     1
 40
0.008146
 41
0.008146
  0
VERTEX
  8
PLAN_1
  6
CONTINUOUS
 10
-1.435512
 20
1.625465
  0
VERTEX
  8
PLAN_1
  6
CONTINUOUS
 10
-1.435512
 20
1.990024
  0
SEQEND
  8
0
  0
POLYLINE
  8
PLAN_1
  6
CONTINUOUS
 66
     1
 40
0.008146
 41
0.008146
  0
VERTEX
  8
PLAN_1
  6
CONTINUOUS
 10
-0.838780
 20
2.737980
  0
VERTEX
  8
PLAN_1
  6
CONTINUOUS
 10
-0.838780
 20
2.757331
  0
VERTEX
  8
PLAN_1
  6
CONTINUOUS
 10
-1.544984
 20
2.757331
  0
VERTEX
  8
PLAN_1
  6
CONTINUOUS
 10
-1.544984
 20
2.737980
  0
VERTEX
  8
PLAN_1
  6
CONTINUOUS
 10
-0.838780
 20
2.737980
  0
SEQEND
  8
0
  0
POLYLINE
  8
PLAN_1
  6
CONTINUOUS
 66
     1
 40
0.008146
 41
0.008146
  0
VERTEX
  8
PLAN_1
  6
CONTINUOUS
 10
-1.082665
 20
3.163638
  0
VERTEX
  8
PLAN_1
  6
CONTINUOUS
 10
-1.082665
 20
2.973213
  0
VERTEX
  8
PLAN_1
  6
CONTINUOUS
 10
-1.284803
 20
2.973213
  0
VERTEX
  8
PLAN_1
  6
CONTINUOUS
 10
-1.284803
 20
3.163130
  0
SEQEND
  8
0
  0
POLYLINE
  8
PLAN_1
  6
CONTINUOUS
 66
     1
 40
0.008146
 41
0.008146
  0
VERTEX
  8
PLAN_1
  6
CONTINUOUS
 10
-1.374413
 20
3.357122
  0
VERTEX
  8
PLAN_1
  6
CONTINUOUS
 10
-1.284803
 20
3.357122
  0
SEQEND
  8
0
  0
POLYLINE
  8
PLAN_1
  6
CONTINUOUS
 66
     1
 40
0.008146
 41
0.008146
  0
VERTEX
  8
PLAN_1
  6
CONTINUOUS
 10
-1.082665
 20
3.357122
  0
VERTEX
  8
PLAN_1
  6
CONTINUOUS
 10
-0.999161
 20
3.357122
  0
SEQEND
  8
0
  0
POLYLINE
  8
PLAN_1
  6
CONTINUOUS
 66
     1
 40
0.008146
 41
0.008146
  0
VERTEX
  8
PLAN_1
  6
CONTINUOUS
 10
-1.082665
 20
3.087776
  0
VERTEX
  8
PLAN_1
  6
CONTINUOUS
 10
-1.284803
 20
3.087776
  0
SEQEND
  8
0
  0
POLYLINE
  8
PLAN_1
  6
CONTINUOUS
 66
     1
 40
0.008146
 41
0.008146
  0
VERTEX
  8
PLAN_1
  6
CONTINUOUS
 10
-1.450787
 20
3.314858
  0
VERTEX
  8
PLAN_1
  6
CONTINUOUS
 10
-1.284803
 20
3.314858
  0
SEQEND
  8
0
  0
POLYLINE
  8
PLAN_1
  6
CONTINUOUS
 66
     1
 40
0.008146
 41
0.008146
  0
VERTEX
  8
PLAN_1
  6
CONTINUOUS
 10
-1.082665
 20
3.314858
  0
VERTEX
  8
PLAN_1
  6
CONTINUOUS
 10
-0.908024
 20
3.314858
  0
SEQEND
  8
0
  0
POLYLINE
  8
PLAN_1
  6
CONTINUOUS
 66
     1
 40
0.008146
 41
0.008146
  0
VERTEX
  8
PLAN_1
  6
CONTINUOUS
 10
-1.082665
 20
3.164657
  0
VERTEX
  8
PLAN_1
  6
CONTINUOUS
 10
-1.284803
 20
3.164657
  0
VERTEX
  8
PLAN_1
  6
CONTINUOUS
 10
-1.284803
 20
3.089303
  0
VERTEX
  8
PLAN_1
  6
CONTINUOUS
 10
-1.082665
 20
3.089303
  0
VERTEX
  8
PLAN_1
  6
CONTINUOUS
 10
-1.082665
 20
3.164657
  0
SEQEND
  8
0
  0
POLYLINE
  8
PLAN_1
  6
CONTINUOUS
 66
     1
 40
0.008146
 41
0.008146
  0
VERTEX
  8
PLAN_1
  6
CONTINUOUS
 10
-1.374925
 20
3.537362
  0
VERTEX
  8
PLAN_1
  6
CONTINUOUS
 10
-1.374925
 20
3.538890
  0
SEQEND
  8
0
  0
POLYLINE
  8
PLAN_1
  6
CONTINUOUS
 66
     1
 40
0.008146
 41
0.008146
  0
VERTEX
  8
PLAN_1
  6
CONTINUOUS
 10
-1.374925
 20
3.538890
  0
VERTEX
  8
PLAN_1
  6
CONTINUOUS
 10
-1.363720
 20
3.547547
  0
VERTEX
  8
PLAN_1
  6
CONTINUOUS
 10
-1.353031
 20
3.555693
  0
VERTEX
  8
PLAN_1
  6
CONTINUOUS
 10
-1.342339
 20
3.563839
  0
VERTEX
  8
PLAN_1
  6
CONTINUOUS
 10
-1.331134
 20
3.570969
  0
VERTEX
  8
PLAN_1
  6
CONTINUOUS
 10
-1.320445
 20
3.577587
  0
VERTEX
  8
PLAN_1
  6
CONTINUOUS
 10
-1.308732
 20
3.583697
  0
VERTEX
  8
PLAN_1
  6
CONTINUOUS
 10
-1.297024
 20
3.589299
  0
VERTEX
  8
PLAN_1
  6
CONTINUOUS
 10
-1.284803
 20
3.593882
  0
SEQEND
  8
0
  0
POLYLINE
  8
PLAN_1
  6
CONTINUOUS
 66
     1
 40
0.008146
 41
0.008146
  0
VERTEX
  8
PLAN_1
  6
CONTINUOUS
 10
-1.374925
 20
3.537362
  0
VERTEX
  8
PLAN_1
  6
CONTINUOUS
 10
-1.374925
 20
3.356610
  0
VERTEX
  8
PLAN_1
  6
CONTINUOUS
 10
-1.460972
 20
3.314858
  0
VERTEX
  8
PLAN_1
  6
CONTINUOUS
 10
-1.460972
 20
2.757331
  0
VERTEX
  8
PLAN_1
  6
CONTINUOUS
 10
-0.907004
 20
2.757331
  0
VERTEX
  8
PLAN_1
  6
CONTINUOUS
 10
-0.907004
 20
3.314858
  0
VERTEX
  8
PLAN_1
  6
CONTINUOUS
 10
-0.996106
 20
3.356610
  0
VERTEX
  8
PLAN_1
  6
CONTINUOUS
 10
-0.996106
 20
3.538890
  0
SEQEND
  8
0
  0
POLYLINE
  8
PLAN_1
  6
CONTINUOUS
 66
     1
 40
0.008146
 41
0.008146
  0
VERTEX
  8
PLAN_1
  6
CONTINUOUS
 10
-0.996106
 20
3.538890
  0
VERTEX
  8
PLAN_1
  6
CONTINUOUS
 10
-1.005783
 20
3.546528
  0
VERTEX
  8
PLAN_1
  6
CONTINUOUS
 10
-1.015965
 20
3.554165
  0
VERTEX
  8
PLAN_1
  6
CONTINUOUS
 10
-1.026150
 20
3.560783
  0
VERTEX
  8
PLAN_1
  6
CONTINUOUS
 10
-1.036843
 20
3.567406
  0
VERTEX
  8
PLAN_1
  6
CONTINUOUS
 10
-1.047531
 20
3.573512
  0
VERTEX
  8
PLAN_1
  6
CONTINUOUS
 10
-1.058736
 20
3.579114
  0
VERTEX
  8
PLAN_1
  6
CONTINUOUS
 10
-1.070445
 20
3.584717
  0
VERTEX
  8
PLAN_1
  6
CONTINUOUS
 10
-1.082665
 20
3.589299
  0
SEQEND
  8
0
  0
POLYLINE
  8
PLAN_1
  6
CONTINUOUS
 66
     1
 40
0.008146
 41
0.008146
  0
VERTEX
  8
PLAN_1
  6
CONTINUOUS
 10
-1.374925
 20
3.537362
  0
VERTEX
  8
PLAN_1
  6
CONTINUOUS
 10
-1.284803
 20
3.537362
  0
SEQEND
  8
0
  0
POLYLINE
  8
PLAN_1
  6
CONTINUOUS
 66
     1
 40
0.008146
 41
0.008146
  0
VERTEX
  8
PLAN_1
  6
CONTINUOUS
 10
-0.999161
 20
3.537362
  0
VERTEX
  8
PLAN_1
  6
CONTINUOUS
 10
-1.082665
 20
3.537362
  0
SEQEND
  8
0
  0
POLYLINE
  8
PLAN_1
  6
CONTINUOUS
 66
     1
 40
0.008146
 41
0.008146
  0
VERTEX
  8
PLAN_1
  6
CONTINUOUS
 10
-1.375433
 20
3.537362
  0
VERTEX
  8
PLAN_1
  6
CONTINUOUS
 10
-1.374925
 20
3.537362
  0
SEQEND
  8
0
  0
POLYLINE
  8
PLAN_1
  6
CONTINUOUS
 66
     1
 40
0.008146
 41
0.008146
  0
VERTEX
  8
PLAN_1
  6
CONTINUOUS
 10
-1.082665
 20
3.589299
  0
VERTEX
  8
PLAN_1
  6
CONTINUOUS
 10
-1.082665
 20
3.537362
  0
SEQEND
  8
0
  0
POLYLINE
  8
PLAN_1
  6
CONTINUOUS
 66
     1
 40
0.008146
 41
0.008146
  0
VERTEX
  8
PLAN_1
  6
CONTINUOUS
 10
-1.082665
 20
3.589299
  0
VERTEX
  8
PLAN_1
  6
CONTINUOUS
 10
-1.082665
 20
3.640213
  0
VERTEX
  8
PLAN_1
  6
CONTINUOUS
 10
-1.284803
 20
3.640213
  0
VERTEX
  8
PLAN_1
  6
CONTINUOUS
 10
-1.284803
 20
3.593882
  0
SEQEND
  8
0
  0
POLYLINE
  8
PLAN_1
  6
CONTINUOUS
 66
     1
 40
0.008146
 41
0.008146
  0
VERTEX
  8
PLAN_1
  6
CONTINUOUS
 10
-1.284803
 20
3.593882
  0
VERTEX
  8
PLAN_1
  6
CONTINUOUS
 10
-1.284803
 20
3.537362
  0
SEQEND
  8
0
  0
POLYLINE
  8
PLAN_1
  6
CONTINUOUS
 66
     1
 40
0.008146
 41
0.008146
  0
VERTEX
  8
PLAN_1
  6
CONTINUOUS
 10
-1.082665
 20
3.537362
  0
VERTEX
  8
PLAN_1
  6
CONTINUOUS
 10
-1.082665
 20
3.165165
  0
VERTEX
  8
PLAN_1
  6
CONTINUOUS
 10
-1.284803
 20
3.165165
  0
VERTEX
  8
PLAN_1
  6
CONTINUOUS
 10
-1.284803
 20
3.537362
  0
SEQEND
  8
0
  0
POLYLINE
  8
PLAN_1
 62
     2
  6
CONTINUOUS
 66
     1
 40
0.004071
 41
0.004071
  0
VERTEX
  8
PLAN_1
 62
     2
  6
CONTINUOUS
 10
-1.405984
 20
-1.313409
  0
VERTEX
  8
PLAN_1
 62
     2
  6
CONTINUOUS
 10
-0.543465
 20
-1.313409
  0
SEQEND
  8
0
  0
SOLID
  8
PLAN_1
 62
     2
 10
-0.513933
 20
-1.313409
 11
-0.572996
 21
-1.297622
 12
-0.513933
 22
-1.313409
 13
-0.572996
 23
-1.329193
  0
POLYLINE
  8
PLAN_1
 62
     2
  6
CONTINUOUS
 66
     1
 40
0.003000
 41
0.003000
  0
VERTEX
  8
PLAN_1
 62
     2
  6
CONTINUOUS
 10
-0.513933
 20
-1.313409
  0
VERTEX
  8
PLAN_1
 62
     2
  6
CONTINUOUS
 10
-0.572996
 20
-1.297622
  0
VERTEX
  8
PLAN_1
 62
     2
  6
CONTINUOUS
 10
-0.572996
 20
-1.329193
  0
VERTEX
  8
PLAN_1
 62
     2
  6
CONTINUOUS
 10
-0.513933
 20
-1.313409
  0
SEQEND
  8
0
  0
SOLID
  8
PLAN_1
 62
     2
 10
-1.435512
 20
-1.313409
 11
-1.376453
 21
-1.297622
 12
-1.435512
 22
-1.313409
 13
-1.376453
 23
-1.329193
  0
POLYLINE
  8
PLAN_1
 62
     2
  6
CONTINUOUS
 66
     1
 40
0.003000
 41
0.003000
  0
VERTEX
  8
PLAN_1
 62
     2
  6
CONTINUOUS
 10
-1.435512
 20
-1.313409
  0
VERTEX
  8
PLAN_1
 62
     2
  6
CONTINUOUS
 10
-1.376453
 20
-1.297622
  0
VERTEX
  8
PLAN_1
 62
     2
  6
CONTINUOUS
 10
-1.376453
 20
-1.329193
  0
VERTEX
  8
PLAN_1
 62
     2
  6
CONTINUOUS
 10
-1.435512
 20
-1.313409
  0
SEQEND
  8
0
  0
POLYLINE
  8
PLAN_1
 62
     2
  6
CONTINUOUS
 66
     1
 40
0.003000
 41
0.003000
  0
VERTEX
  8
PLAN_1
 62
     2
  6
CONTINUOUS
 10
-1.027677
 20
-1.243146
  0
VERTEX
  8
PLAN_1
 62
     2
  6
CONTINUOUS
 10
-1.027677
 20
-1.238563
  0
VERTEX
  8
PLAN_1
 62
     2
  6
CONTINUOUS
 10
-1.027165
 20
-1.234996
  0
VERTEX
  8
PLAN_1
 62
     2
  6
CONTINUOUS
 10
-1.026150
 20
-1.231941
  0
VERTEX
  8
PLAN_1
 62
     2
  6
CONTINUOUS
 10
-1.025130
 20
-1.228886
  0
VERTEX
  8
PLAN_1
 62
     2
  6
CONTINUOUS
 10
-1.023602
 20
-1.226343
  0
VERTEX
  8
PLAN_1
 62
     2
  6
CONTINUOUS
 10
-1.022075
 20
-1.224303
  0
VERTEX
  8
PLAN_1
 62
     2
  6
CONTINUOUS
 10
-1.020039
 20
-1.222268
  0
VERTEX
  8
PLAN_1
 62
     2
  6
CONTINUOUS
 10
-1.018004
 20
-1.220740
  0
VERTEX
  8
PLAN_1
 62
     2
  6
CONTINUOUS
 10
-1.013929
 20
-1.218705
  0
VERTEX
  8
PLAN_1
 62
     2
  6
CONTINUOUS
 10
-1.009854
 20
-1.217685
  0
VERTEX
  8
PLAN_1
 62
     2
  6
CONTINUOUS
 10
-1.005783
 20
-1.217177
  0
VERTEX
  8
PLAN_1
 62
     2
  6
CONTINUOUS
 10
-1.002728
 20
-1.216669
  0
VERTEX
  8
PLAN_1
 62
     2
  6
CONTINUOUS
 10
-0.998146
 20
-1.217177
  0
VERTEX
  8
PLAN_1
 62
     2
  6
CONTINUOUS
 10
-0.993563
 20
-1.218197
  0
VERTEX
  8
PLAN_1
 62
     2
  6
CONTINUOUS
 10
-0.990000
 20
-1.220232
  0
VERTEX
  8
PLAN_1
 62
     2
  6
CONTINUOUS
 10
-0.986433
 20
-1.222776
  0
VERTEX
  8
PLAN_1
 62
     2
  6
CONTINUOUS
 10
-0.983890
 20
-1.225831
  0
VERTEX
  8
PLAN_1
 62
     2
  6
CONTINUOUS
 10
-0.981343
 20
-1.229398
  0
VERTEX
  8
PLAN_1
 62
     2
  6
CONTINUOUS
 10
-0.980323
 20
-1.233980
  0
VERTEX
  8
PLAN_1
 62
     2
  6
CONTINUOUS
 10
-0.979815
 20
-1.238563
  0
VERTEX
  8
PLAN_1
 62
     2
  6
CONTINUOUS
 10
-0.980323
 20
-1.243146
  0
VERTEX
  8
PLAN_1
 62
     2
  6
CONTINUOUS
 10
-0.981343
 20
-1.247217
  0
VERTEX
  8
PLAN_1
 62
     2
  6
CONTINUOUS
 10
-0.982870
 20
-1.250780
  0
VERTEX
  8
PLAN_1
 62
     2
  6
CONTINUOUS
 10
-0.985417
 20
-1.253835
  0
VERTEX
  8
PLAN_1
 62
     2
  6
CONTINUOUS
 10
-0.988472
 20
-1.256382
  0
VERTEX
  8
PLAN_1
 62
     2
  6
CONTINUOUS
 10
-0.991528
 20
-1.258417
  0
VERTEX
  8
PLAN_1
 62
     2
  6
CONTINUOUS
 10
-0.995091
 20
-1.260965
  0
VERTEX
  8
PLAN_1
 62
     2
  6
CONTINUOUS
 10
-0.999161
 20
-1.263000
  0
VERTEX
  8
PLAN_1
 62
     2
  6
CONTINUOUS
 10
-1.006799
 20
-1.267075
  0
VERTEX
  8
PLAN_1
 62
     2
  6
CONTINUOUS
 10
-1.010366
 20
-1.269110
  0
VERTEX
  8
PLAN_1
 62
     2
  6
CONTINUOUS
 10
-1.012909
 20
-1.271146
  0
VERTEX
  8
PLAN_1
 62
     2
  6
CONTINUOUS
 10
-1.014949
 20
-1.273185
  0
VERTEX
  8
PLAN_1
 62
     2
  6
CONTINUOUS
 10
-1.016984
 20
-1.275220
  0
VERTEX
  8
PLAN_1
 62
     2
  6
CONTINUOUS
 10
-1.018004
 20
-1.277256
  0
VERTEX
  8
PLAN_1
 62
     2
  6
CONTINUOUS
 10
-1.018512
 20
-1.278783
  0
VERTEX
  8
PLAN_1
 62
     2
  6
CONTINUOUS
 10
-1.019020
 20
-1.280311
  0
VERTEX
  8
PLAN_1
 62
     2
  6
CONTINUOUS
 10
-1.019531
 20
-1.281331
  0
VERTEX
  8
PLAN_1
 62
     2
  6
CONTINUOUS
 10
-0.979815
 20
-1.281331
  0
VERTEX
  8
PLAN_1
 62
     2
  6
CONTINUOUS
 10
-0.979815
 20
-1.289988
  0
VERTEX
  8
PLAN_1
 62
     2
  6
CONTINUOUS
 10
-1.029713
 20
-1.289988
  0
VERTEX
  8
PLAN_1
 62
     2
  6
CONTINUOUS
 10
-1.029205
 20
-1.284386
  0
VERTEX
  8
PLAN_1
 62
     2
  6
CONTINUOUS
 10
-1.028185
 20
-1.279803
  0
VERTEX
  8
PLAN_1
 62
     2
  6
CONTINUOUS
 10
-1.026657
 20
-1.275728
  0
VERTEX
  8
PLAN_1
 62
     2
  6
CONTINUOUS
 10
-1.024622
 20
-1.271657
  0
VERTEX
  8
PLAN_1
 62
     2
  6
CONTINUOUS
 10
-1.022075
 20
-1.268602
  0
VERTEX
  8
PLAN_1
 62
     2
  6
CONTINUOUS
 10
-1.019531
 20
-1.265547
  0
VERTEX
  8
PLAN_1
 62
     2
  6
CONTINUOUS
 10
-1.015965
 20
-1.263000
  0
VERTEX
  8
PLAN_1
 62
     2
  6
CONTINUOUS
 10
-1.012402
 20
-1.260965
  0
VERTEX
  8
PLAN_1
 62
     2
  6
CONTINUOUS
 10
-1.002728
 20
-1.255362
  0
VERTEX
  8
PLAN_1
 62
     2
  6
CONTINUOUS
 10
-1.000181
 20
-1.253835
  0
VERTEX
  8
PLAN_1
 62
     2
  6
CONTINUOUS
 10
-0.997634
 20
-1.252307
  0
VERTEX
  8
PLAN_1
 62
     2
  6
CONTINUOUS
 10
-0.995091
 20
-1.250272
  0
VERTEX
  8
PLAN_1
 62
     2
  6
CONTINUOUS
 10
-0.993563
 20
-1.248744
  0
VERTEX
  8
PLAN_1
 62
     2
  6
CONTINUOUS
 10
-0.991528
 20
-1.246709
  0
VERTEX
  8
PLAN_1
 62
     2
  6
CONTINUOUS
 10
-0.990508
 20
-1.244161
  0
VERTEX
  8
PLAN_1
 62
     2
  6
CONTINUOUS
 10
-0.990000
 20
-1.241618
  0
VERTEX
  8
PLAN_1
 62
     2
  6
CONTINUOUS
 10
-0.989488
 20
-1.238051
  0
VERTEX
  8
PLAN_1
 62
     2
  6
CONTINUOUS
 10
-0.989488
 20
-1.236016
  0
VERTEX
  8
PLAN_1
 62
     2
  6
CONTINUOUS
 10
-0.990508
 20
-1.233469
  0
VERTEX
  8
PLAN_1
 62
     2
  6
CONTINUOUS
 10
-0.991528
 20
-1.231433
  0
VERTEX
  8
PLAN_1
 62
     2
  6
CONTINUOUS
 10
-0.992543
 20
-1.229398
  0
VERTEX
  8
PLAN_1
 62
     2
  6
CONTINUOUS
 10
-0.994583
 20
-1.227870
  0
VERTEX
  8
PLAN_1
 62
     2
  6
CONTINUOUS
 10
-0.997126
 20
-1.226343
  0
VERTEX
  8
PLAN_1
 62
     2
  6
CONTINUOUS
 10
-1.000181
 20
-1.225323
  0
VERTEX
  8
PLAN_1
 62
     2
  6
CONTINUOUS
 10
-1.003744
 20
-1.224815
  0
VERTEX
  8
PLAN_1
 62
     2
  6
CONTINUOUS
 10
-1.006291
 20
-1.225323
  0
VERTEX
  8
PLAN_1
 62
     2
  6
CONTINUOUS
 10
-1.008839
 20
-1.225831
  0
VERTEX
  8
PLAN_1
 62
     2
  6
CONTINUOUS
 10
-1.010366
 20
-1.226343
  0
VERTEX
  8
PLAN_1
 62
     2
  6
CONTINUOUS
 10
-1.011894
 20
-1.227358
  0
VERTEX
  8
PLAN_1
 62
     2
  6
CONTINUOUS
 10
-1.014437
 20
-1.229398
  0
VERTEX
  8
PLAN_1
 62
     2
  6
CONTINUOUS
 10
-1.016476
 20
-1.231941
  0
VERTEX
  8
PLAN_1
 62
     2
  6
CONTINUOUS
 10
-1.017492
 20
-1.234996
  0
VERTEX
  8
PLAN_1
 62
     2
  6
CONTINUOUS
 10
-1.018512
 20
-1.238051
  0
VERTEX
  8
PLAN_1
 62
     2
  6
CONTINUOUS
 10
-1.018512
 20
-1.240598
  0
VERTEX
  8
PLAN_1
 62
     2
  6
CONTINUOUS
 10
-1.018512
 20
-1.243146
  0
VERTEX
  8
PLAN_1
 62
     2
  6
CONTINUOUS
 10
-1.027677
 20
-1.243146
  0
SEQEND
  8
0
  0
POLYLINE
  8
PLAN_1
 62
     2
  6
CONTINUOUS
 66
     1
 40
0.003000
 41
0.003000
  0
VERTEX
  8
PLAN_1
 62
     2
  6
CONTINUOUS
 10
-0.959449
 20
-1.247217
  0
VERTEX
  8
PLAN_1
 62
     2
  6
CONTINUOUS
 10
-0.957921
 20
-1.246709
  0
VERTEX
  8
PLAN_1
 62
     2
  6
CONTINUOUS
 10
-0.956902
 20
-1.245689
  0
VERTEX
  8
PLAN_1
 62
     2
  6
CONTINUOUS
 10
-0.955374
 20
-1.244673
  0
VERTEX
  8
PLAN_1
 62
     2
  6
CONTINUOUS
 10
-0.953339
 20
-1.244161
  0
VERTEX
  8
PLAN_1
 62
     2
  6
CONTINUOUS
 10
-0.951811
 20
-1.243654
  0
VERTEX
  8
PLAN_1
 62
     2
  6
CONTINUOUS
 10
-0.949776
 20
-1.243146
  0
VERTEX
  8
PLAN_1
 62
     2
  6
CONTINUOUS
 10
-0.947736
 20
-1.243146
  0
VERTEX
  8
PLAN_1
 62
     2
  6
CONTINUOUS
 10
-0.945193
 20
-1.242634
  0
VERTEX
  8
PLAN_1
 62
     2
  6
CONTINUOUS
 10
-0.940610
 20
-1.243146
  0
VERTEX
  8
PLAN_1
 62
     2
  6
CONTINUOUS
 10
-0.936535
 20
-1.244161
  0
VERTEX
  8
PLAN_1
 62
     2
  6
CONTINUOUS
 10
-0.932465
 20
-1.246197
  0
VERTEX
  8
PLAN_1
 62
     2
  6
CONTINUOUS
 10
-0.928898
 20
-1.248744
  0
VERTEX
  8
PLAN_1
 62
     2
  6
CONTINUOUS
 10
-0.925843
 20
-1.252307
  0
VERTEX
  8
PLAN_1
 62
     2
  6
CONTINUOUS
 10
-0.923299
 20
-1.256382
  0
VERTEX
  8
PLAN_1
 62
     2
  6
CONTINUOUS
 10
-0.922280
 20
-1.258417
  0
VERTEX
  8
PLAN_1
 62
     2
  6
CONTINUOUS
 10
-0.921772
 20
-1.260965
  0
VERTEX
  8
PLAN_1
 62
     2
  6
CONTINUOUS
 10
-0.921260
 20
-1.263512
  0
VERTEX
  8
PLAN_1
 62
     2
  6
CONTINUOUS
 10
-0.921260
 20
-1.266055
  0
VERTEX
  8
PLAN_1
 62
     2
  6
CONTINUOUS
 10
-0.921260
 20
-1.269622
  0
VERTEX
  8
PLAN_1
 62
     2
  6
CONTINUOUS
 10
-0.922280
 20
-1.273693
  0
VERTEX
  8
PLAN_1
 62
     2
  6
CONTINUOUS
 10
-0.923299
 20
-1.277768
  0
VERTEX
  8
PLAN_1
 62
     2
  6
CONTINUOUS
 10
-0.925843
 20
-1.282350
  0
VERTEX
  8
PLAN_1
 62
     2
  6
CONTINUOUS
 10
-0.927370
 20
-1.283878
  0
VERTEX
  8
PLAN_1
 62
     2
  6
CONTINUOUS
 10
-0.929409
 20
-1.285913
  0
VERTEX
  8
PLAN_1
 62
     2
  6
CONTINUOUS
 10
-0.931445
 20
-1.287441
  0
VERTEX
  8
PLAN_1
 62
     2
  6
CONTINUOUS
 10
-0.933992
 20
-1.288969
  0
VERTEX
  8
PLAN_1
 62
     2
  6
CONTINUOUS
 10
-0.936535
 20
-1.290496
  0
VERTEX
  8
PLAN_1
 62
     2
  6
CONTINUOUS
 10
-0.940102
 20
-1.291004
  0
VERTEX
  8
PLAN_1
 62
     2
  6
CONTINUOUS
 10
-0.943665
 20
-1.291516
  0
VERTEX
  8
PLAN_1
 62
     2
  6
CONTINUOUS
 10
-0.947736
 20
-1.292024
  0
VERTEX
  8
PLAN_1
 62
     2
  6
CONTINUOUS
 10
-0.951303
 20
-1.291516
  0
VERTEX
  8
PLAN_1
 62
     2
  6
CONTINUOUS
 10
-0.955374
 20
-1.291004
  0
VERTEX
  8
PLAN_1
 62
     2
  6
CONTINUOUS
 10
-0.958941
 20
-1.289988
  0
VERTEX
  8
PLAN_1
 62
     2
  6
CONTINUOUS
 10
-0.962504
 20
-1.287949
  0
VERTEX
  8
PLAN_1
 62
     2
  6
CONTINUOUS
 10
-0.965559
 20
-1.285406
  0
VERTEX
  8
PLAN_1
 62
     2
  6
CONTINUOUS
 10
-0.968106
 20
-1.281839
  0
VERTEX
  8
PLAN_1
 62
     2
  6
CONTINUOUS
 10
-0.969122
 20
-1.279803
  0
VERTEX
  8
PLAN_1
 62
     2
  6
CONTINUOUS
 10
-0.970142
 20
-1.277256
  0
VERTEX
  8
PLAN_1
 62
     2
  6
CONTINUOUS
 10
-0.970650
 20
-1.274713
  0
VERTEX
  8
PLAN_1
 62
     2
  6
CONTINUOUS
 10
-0.971157
 20
-1.271657
  0
VERTEX
  8
PLAN_1
 62
     2
  6
CONTINUOUS
 10
-0.961996
 20
-1.271657
  0
VERTEX
  8
PLAN_1
 62
     2
  6
CONTINUOUS
 10
-0.960976
 20
-1.274713
  0
VERTEX
  8
PLAN_1
 62
     2
  6
CONTINUOUS
 10
-0.959957
 20
-1.277256
  0
VERTEX
  8
PLAN_1
 62
     2
  6
CONTINUOUS
 10
-0.958429
 20
-1.279295
  0
VERTEX
  8
PLAN_1
 62
     2
  6
CONTINUOUS
 10
-0.956902
 20
-1.280823
  0
VERTEX
  8
PLAN_1
 62
     2
  6
CONTINUOUS
 10
-0.954358
 20
-1.282350
  0
VERTEX
  8
PLAN_1
 62
     2
  6
CONTINUOUS
 10
-0.952319
 20
-1.283366
  0
VERTEX
  8
PLAN_1
 62
     2
  6
CONTINUOUS
 10
-0.949264
 20
-1.283878
  0
VERTEX
  8
PLAN_1
 62
     2
  6
CONTINUOUS
 10
-0.946209
 20
-1.283878
  0
VERTEX
  8
PLAN_1
 62
     2
  6
CONTINUOUS
 10
-0.943157
 20
-1.283878
  0
VERTEX
  8
PLAN_1
 62
     2
  6
CONTINUOUS
 10
-0.940102
 20
-1.282858
  0
VERTEX
  8
PLAN_1
 62
     2
  6
CONTINUOUS
 10
-0.937047
 20
-1.281331
  0
VERTEX
  8
PLAN_1
 62
     2
  6
CONTINUOUS
 10
-0.935008
 20
-1.279295
  0
VERTEX
  8
PLAN_1
 62
     2
  6
CONTINUOUS
 10
-0.933480
 20
-1.276748
  0
VERTEX
  8
PLAN_1
 62
     2
  6
CONTINUOUS
 10
-0.931953
 20
-1.273693
  0
VERTEX
  8
PLAN_1
 62
     2
  6
CONTINUOUS
 10
-0.930937
 20
-1.270638
  0
VERTEX
  8
PLAN_1
 62
     2
  6
CONTINUOUS
 10
-0.930937
 20
-1.267075
  0
VERTEX
  8
PLAN_1
 62
     2
  6
CONTINUOUS
 10
-0.931445
 20
-1.263512
  0
VERTEX
  8
PLAN_1
 62
     2
  6
CONTINUOUS
 10
-0.931953
 20
-1.260457
  0
VERTEX
  8
PLAN_1
 62
     2
  6
CONTINUOUS
 10
-0.933480
 20
-1.257402
  0
VERTEX
  8
PLAN_1
 62
     2
  6
CONTINUOUS
 10
-0.935520
 20
-1.255362
  0
VERTEX
  8
PLAN_1
 62
     2
  6
CONTINUOUS
 10
-0.938063
 20
-1.253327
  0
VERTEX
  8
PLAN_1
 62
     2
  6
CONTINUOUS
 10
-0.940610
 20
-1.252307
  0
VERTEX
  8
PLAN_1
 62
     2
  6
CONTINUOUS
 10
-0.943665
 20
-1.251291
  0
VERTEX
  8
PLAN_1
 62
     2
  6
CONTINUOUS
 10
-0.947228
 20
-1.250780
  0
VERTEX
  8
PLAN_1
 62
     2
  6
CONTINUOUS
 10
-0.949264
 20
-1.251291
  0
VERTEX
  8
PLAN_1
 62
     2
  6
CONTINUOUS
 10
-0.950791
 20
-1.251291
  0
VERTEX
  8
PLAN_1
 62
     2
  6
CONTINUOUS
 10
-0.952831
 20
-1.252307
  0
VERTEX
  8
PLAN_1
 62
     2
  6
CONTINUOUS
 10
-0.954358
 20
-1.252819
  0
VERTEX
  8
PLAN_1
 62
     2
  6
CONTINUOUS
 10
-0.956394
 20
-1.253835
  0
VERTEX
  8
PLAN_1
 62
     2
  6
CONTINUOUS
 10
-0.957921
 20
-1.254854
  0
VERTEX
  8
PLAN_1
 62
     2
  6
CONTINUOUS
 10
-0.959449
 20
-1.256382
  0
VERTEX
  8
PLAN_1
 62
     2
  6
CONTINUOUS
 10
-0.960469
 20
-1.257909
  0
VERTEX
  8
PLAN_1
 62
     2
  6
CONTINUOUS
 10
-0.968614
 20
-1.257402
  0
VERTEX
  8
PLAN_1
 62
     2
  6
CONTINUOUS
 10
-0.963012
 20
-1.218197
  0
VERTEX
  8
PLAN_1
 62
     2
  6
CONTINUOUS
 10
-0.925335
 20
-1.218197
  0
VERTEX
  8
PLAN_1
 62
     2
  6
CONTINUOUS
 10
-0.925335
 20
-1.227358
  0
VERTEX
  8
PLAN_1
 62
     2
  6
CONTINUOUS
 10
-0.956394
 20
-1.227358
  0
VERTEX
  8
PLAN_1
 62
     2
  6
CONTINUOUS
 10
-0.959449
 20
-1.247217
  0
SEQEND
  8
0
  0
POLYLINE
  8
PLAN_1
 62
     2
  6
CONTINUOUS
 66
     1
 40
0.004071
 41
0.004071
  0
VERTEX
  8
PLAN_1
 62
     2
  6
CONTINUOUS
 10
-1.895795
 20
-1.471248
  0
VERTEX
  8
PLAN_1
 62
     2
  6
CONTINUOUS
 10
-0.543465
 20
-1.471248
  0
SEQEND
  8
0
  0
SOLID
  8
PLAN_1
 62
     2
 10
-0.513933
 20
-1.471248
 11
-0.572996
 21
-1.455465
 12
-0.513933
 22
-1.471248
 13
-0.572996
 23
-1.486524
  0
POLYLINE
  8
PLAN_1
 62
     2
  6
CONTINUOUS
 66
     1
 40
0.003000
 41
0.003000
  0
VERTEX
  8
PLAN_1
 62
     2
  6
CONTINUOUS
 10
-0.513933
 20
-1.471248
  0
VERTEX
  8
PLAN_1
 62
     2
  6
CONTINUOUS
 10
-0.572996
 20
-1.455465
  0
VERTEX
  8
PLAN_1
 62
     2
  6
CONTINUOUS
 10
-0.572996
 20
-1.486524
  0
VERTEX
  8
PLAN_1
 62
     2
  6
CONTINUOUS
 10
-0.513933
 20
-1.471248
  0
SEQEND
  8
0
  0
SOLID
  8
PLAN_1
 62
     2
 10
-1.925327
 20
-1.471248
 11
-1.866264
 21
-1.455465
 12
-1.925327
 22
-1.471248
 13
-1.866264
 23
-1.486524
  0
POLYLINE
  8
PLAN_1
 62
     2
  6
CONTINUOUS
 66
     1
 40
0.003000
 41
0.003000
  0
VERTEX
  8
PLAN_1
 62
     2
  6
CONTINUOUS
 10
-1.925327
 20
-1.471248
  0
VERTEX
  8
PLAN_1
 62
     2
  6
CONTINUOUS
 10
-1.866264
 20
-1.455465
  0
VERTEX
  8
PLAN_1
 62
     2
  6
CONTINUOUS
 10
-1.866264
 20
-1.486524
  0
VERTEX
  8
PLAN_1
 62
     2
  6
CONTINUOUS
 10
-1.925327
 20
-1.471248
  0
SEQEND
  8
0
  0
POLYLINE
  8
PLAN_1
 62
     2
  6
CONTINUOUS
 66
     1
 40
0.003000
 41
0.003000
  0
VERTEX
  8
PLAN_1
 62
     2
  6
CONTINUOUS
 10
-1.254252
 20
-1.405567
  0
VERTEX
  8
PLAN_1
 62
     2
  6
CONTINUOUS
 10
-1.253744
 20
-1.406075
  0
VERTEX
  8
PLAN_1
 62
     2
  6
CONTINUOUS
 10
-1.252724
 20
-1.406075
  0
VERTEX
  8
PLAN_1
 62
     2
  6
CONTINUOUS
 10
-1.252217
 20
-1.406075
  0
VERTEX
  8
PLAN_1
 62
     2
  6
CONTINUOUS
 10
-1.251709
 20
-1.406075
  0
VERTEX
  8
PLAN_1
 62
     2
  6
CONTINUOUS
 10
-1.251197
 20
-1.406075
  0
VERTEX
  8
PLAN_1
 62
     2
  6
CONTINUOUS
 10
-1.250689
 20
-1.406075
  0
VERTEX
  8
PLAN_1
 62
     2
  6
CONTINUOUS
 10
-1.250181
 20
-1.406075
  0
VERTEX
  8
PLAN_1
 62
     2
  6
CONTINUOUS
 10
-1.249161
 20
-1.406075
  0
VERTEX
  8
PLAN_1
 62
     2
  6
CONTINUOUS
 10
-1.246614
 20
-1.406075
  0
VERTEX
  8
PLAN_1
 62
     2
  6
CONTINUOUS
 10
-1.244071
 20
-1.405567
  0
VERTEX
  8
PLAN_1
 62
     2
  6
CONTINUOUS
 10
-1.242031
 20
-1.404547
  0
VERTEX
  8
PLAN_1
 62
     2
  6
CONTINUOUS
 10
-1.239488
 20
-1.403528
  0
VERTEX
  8
PLAN_1
 62
     2
  6
CONTINUOUS
 10
-1.237961
 20
-1.402000
  0
VERTEX
  8
PLAN_1
 62
     2
  6
CONTINUOUS
 10
-1.236433
 20
-1.399965
  0
VERTEX
  8
PLAN_1
 62
     2
  6
CONTINUOUS
 10
-1.235921
 20
-1.397421
  0
VERTEX
  8
PLAN_1
 62
     2
  6
CONTINUOUS
 10
-1.235413
 20
-1.393854
  0
VERTEX
  8
PLAN_1
 62
     2
  6
CONTINUOUS
 10
-1.235413
 20
-1.392327
  0
VERTEX
  8
PLAN_1
 62
     2
  6
CONTINUOUS
 10
-1.235921
 20
-1.390291
  0
VERTEX
  8
PLAN_1
 62
     2
  6
CONTINUOUS
 10
-1.236941
 20
-1.388256
  0
VERTEX
  8
PLAN_1
 62
     2
  6
CONTINUOUS
 10
-1.237961
 20
-1.386728
  0
VERTEX
  8
PLAN_1
 62
     2
  6
CONTINUOUS
 10
-1.239996
 20
-1.385201
  0
VERTEX
  8
PLAN_1
 62
     2
  6
CONTINUOUS
 10
-1.242031
 20
-1.383673
  0
VERTEX
  8
PLAN_1
 62
     2
  6
CONTINUOUS
 10
-1.245087
 20
-1.382654
  0
VERTEX
  8
PLAN_1
 62
     2
  6
CONTINUOUS
 10
-1.249161
 20
-1.382654
  0
VERTEX
  8
PLAN_1
 62
     2
  6
CONTINUOUS
 10
-1.253232
 20
-1.383161
  0
VERTEX
  8
PLAN_1
 62
     2
  6
CONTINUOUS
 10
-1.256799
 20
-1.384181
  0
VERTEX
  8
PLAN_1
 62
     2
  6
CONTINUOUS
 10
-1.258835
 20
-1.386217
  0
VERTEX
  8
PLAN_1
 62
     2
  6
CONTINUOUS
 10
-1.260870
 20
-1.388256
  0
VERTEX
  8
PLAN_1
 62
     2
  6
CONTINUOUS
 10
-1.261890
 20
-1.390799
  0
VERTEX
  8
PLAN_1
 62
     2
  6
CONTINUOUS
 10
-1.262398
 20
-1.393346
  0
VERTEX
  8
PLAN_1
 62
     2
  6
CONTINUOUS
 10
-1.262909
 20
-1.395894
  0
VERTEX
  8
PLAN_1
 62
     2
  6
CONTINUOUS
 10
-1.263417
 20
-1.398437
  0
VERTEX
  8
PLAN_1
 62
     2
  6
CONTINUOUS
 10
-1.272075
 20
-1.398437
  0
VERTEX
  8
PLAN_1
 62
     2
  6
CONTINUOUS
 10
-1.272075
 20
-1.393854
  0
VERTEX
  8
PLAN_1
 62
     2
  6
CONTINUOUS
 10
-1.271055
 20
-1.389783
  0
VERTEX
  8
PLAN_1
 62
     2
  6
CONTINUOUS
 10
-1.269528
 20
-1.385709
  0
VERTEX
  8
PLAN_1
 62
     2
  6
CONTINUOUS
 10
-1.267492
 20
-1.382146
  0
VERTEX
  8
PLAN_1
 62
     2
  6
CONTINUOUS
 10
-1.265965
 20
-1.380618
  0
VERTEX
  8
PLAN_1
 62
     2
  6
CONTINUOUS
 10
-1.264437
 20
-1.379091
  0
VERTEX
  8
PLAN_1
 62
     2
  6
CONTINUOUS
 10
-1.262398
 20
-1.377563
  0
VERTEX
  8
PLAN_1
 62
     2
  6
CONTINUOUS
 10
-1.260362
 20
-1.376543
  0
VERTEX
  8
PLAN_1
 62
     2
  6
CONTINUOUS
 10
-1.257815
 20
-1.375524
  0
VERTEX
  8
PLAN_1
 62
     2
  6
CONTINUOUS
 10
-1.255272
 20
-1.375016
  0
VERTEX
  8
PLAN_1
 62
     2
  6
CONTINUOUS
 10
-1.251709
 20
-1.374508
  0
VERTEX
  8
PLAN_1
 62
     2
  6
CONTINUOUS
 10
-1.248654
 20
-1.374508
  0
VERTEX
  8
PLAN_1
 62
     2
  6
CONTINUOUS
 10
-1.243559
 20
-1.374508
  0
VERTEX
  8
PLAN_1
 62
     2
  6
CONTINUOUS
 10
-1.238976
 20
-1.375524
  0
VERTEX
  8
PLAN_1
 62
     2
  6
CONTINUOUS
 10
-1.234906
 20
-1.377563
  0
VERTEX
  8
PLAN_1
 62
     2
  6
CONTINUOUS
 10
-1.231850
 20
-1.379598
  0
VERTEX
  8
PLAN_1
 62
     2
  6
CONTINUOUS
 10
-1.229303
 20
-1.382654
  0
VERTEX
  8
PLAN_1
 62
     2
  6
CONTINUOUS
 10
-1.227268
 20
-1.385709
  0
VERTEX
  8
PLAN_1
 62
     2
  6
CONTINUOUS
 10
-1.226248
 20
-1.389272
  0
VERTEX
  8
PLAN_1
 62
     2
  6
CONTINUOUS
 10
-1.225740
 20
-1.393346
  0
VERTEX
  8
PLAN_1
 62
     2
  6
CONTINUOUS
 10
-1.226248
 20
-1.396909
  0
VERTEX
  8
PLAN_1
 62
     2
  6
CONTINUOUS
 10
-1.226760
 20
-1.399457
  0
VERTEX
  8
PLAN_1
 62
     2
  6
CONTINUOUS
 10
-1.227776
 20
-1.402000
  0
VERTEX
  8
PLAN_1
 62
     2
  6
CONTINUOUS
 10
-1.229303
 20
-1.404039
  0
VERTEX
  8
PLAN_1
 62
     2
  6
CONTINUOUS
 10
-1.230831
 20
-1.405567
  0
VERTEX
  8
PLAN_1
 62
     2
  6
CONTINUOUS
 10
-1.232358
 20
-1.407094
  0
VERTEX
  8
PLAN_1
 62
     2
  6
CONTINUOUS
 10
-1.233886
 20
-1.408110
  0
VERTEX
  8
PLAN_1
 62
     2
  6
CONTINUOUS
 10
-1.235413
 20
-1.408622
  0
VERTEX
  8
PLAN_1
 62
     2
  6
CONTINUOUS
 10
-1.232866
 20
-1.409638
  0
VERTEX
  8
PLAN_1
 62
     2
  6
CONTINUOUS
 10
-1.230323
 20
-1.411165
  0
VERTEX
  8
PLAN_1
 62
     2
  6
CONTINUOUS
 10
-1.228283
 20
-1.412693
  0
VERTEX
  8
PLAN_1
 62
     2
  6
CONTINUOUS
 10
-1.226760
 20
-1.414732
  0
VERTEX
  8
PLAN_1
 62
     2
  6
CONTINUOUS
 10
-1.225232
 20
-1.416768
  0
VERTEX
  8
PLAN_1
 62
     2
  6
CONTINUOUS
 10
-1.224213
 20
-1.419315
  0
VERTEX
  8
PLAN_1
 62
     2
  6
CONTINUOUS
 10
-1.223193
 20
-1.422370
  0
VERTEX
  8
PLAN_1
 62
     2
  6
CONTINUOUS
 10
-1.223193
 20
-1.425933
  0
VERTEX
  8
PLAN_1
 62
     2
  6
CONTINUOUS
 10
-1.223705
 20
-1.430516
  0
VERTEX
  8
PLAN_1
 62
     2
  6
CONTINUOUS
 10
-1.224720
 20
-1.434587
  0
VERTEX
  8
PLAN_1
 62
     2
  6
CONTINUOUS
 10
-1.226760
 20
-1.438661
  0
VERTEX
  8
PLAN_1
 62
     2
  6
CONTINUOUS
 10
-1.229303
 20
-1.442224
  0
VERTEX
  8
PLAN_1
 62
     2
  6
CONTINUOUS
 10
-1.230831
 20
-1.443752
  0
VERTEX
  8
PLAN_1
 62
     2
  6
CONTINUOUS
 10
-1.232866
 20
-1.445280
  0
VERTEX
  8
PLAN_1
 62
     2
  6
CONTINUOUS
 10
-1.234906
 20
-1.446299
  0
VERTEX
  8
PLAN_1
 62
     2
  6
CONTINUOUS
 10
-1.237449
 20
-1.447319
  0
VERTEX
  8
PLAN_1
 62
     2
  6
CONTINUOUS
 10
-1.239996
 20
-1.448335
  0
VERTEX
  8
PLAN_1
 62
     2
  6
CONTINUOUS
 10
-1.243051
 20
-1.448846
  0
VERTEX
  8
PLAN_1
 62
     2
  6
CONTINUOUS
 10
-1.246106
 20
-1.449354
  0
VERTEX
  8
PLAN_1
 62
     2
  6
CONTINUOUS
 10
-1.249669
 20
-1.449354
  0
VERTEX
  8
PLAN_1
 62
     2
  6
CONTINUOUS
 10
-1.251197
 20
-1.449354
  0
VERTEX
  8
PLAN_1
 62
     2
  6
CONTINUOUS
 10
-1.253232
 20
-1.449354
  0
VERTEX
  8
PLAN_1
 62
     2
  6
CONTINUOUS
 10
-1.255272
 20
-1.448846
  0
VERTEX
  8
PLAN_1
 62
     2
  6
CONTINUOUS
 10
-1.256799
 20
-1.448335
  0
VERTEX
  8
PLAN_1
 62
     2
  6
CONTINUOUS
 10
-1.258327
 20
-1.447827
  0
VERTEX
  8
PLAN_1
 62
     2
  6
CONTINUOUS
 10
-1.260362
 20
-1.447319
  0
VERTEX
  8
PLAN_1
 62
     2
  6
CONTINUOUS
 10
-1.261382
 20
-1.446807
  0
VERTEX
  8
PLAN_1
 62
     2
  6
CONTINUOUS
 10
-1.262909
 20
-1.446299
  0
VERTEX
  8
PLAN_1
 62
     2
  6
CONTINUOUS
 10
-1.265965
 20
-1.444264
  0
VERTEX
  8
PLAN_1
 62
     2
  6
CONTINUOUS
 10
-1.268000
 20
-1.442224
  0
VERTEX
  8
PLAN_1
 62
     2
  6
CONTINUOUS
 10
-1.270035
 20
-1.439681
  0
VERTEX
  8
PLAN_1
 62
     2
  6
CONTINUOUS
 10
-1.271055
 20
-1.437134
  0
VERTEX
  8
PLAN_1
 62
     2
  6
CONTINUOUS
 10
-1.272075
 20
-1.434079
  0
VERTEX
  8
PLAN_1
 62
     2
  6
CONTINUOUS
 10
-1.273091
 20
-1.431531
  0
VERTEX
  8
PLAN_1
 62
     2
  6
CONTINUOUS
 10
-1.273602
 20
-1.427969
  0
VERTEX
  8
PLAN_1
 62
     2
  6
CONTINUOUS
 10
-1.274110
 20
-1.424913
  0
VERTEX
  8
PLAN_1
 62
     2
  6
CONTINUOUS
 10
-1.264437
 20
-1.424913
  0
VERTEX
  8
PLAN_1
 62
     2
  6
CONTINUOUS
 10
-1.264437
 20
-1.427461
  0
VERTEX
  8
PLAN_1
 62
     2
  6
CONTINUOUS
 10
-1.263925
 20
-1.430516
  0
VERTEX
  8
PLAN_1
 62
     2
  6
CONTINUOUS
 10
-1.262909
 20
-1.433059
  0
VERTEX
  8
PLAN_1
 62
     2
  6
CONTINUOUS
 10
-1.261382
 20
-1.435606
  0
VERTEX
  8
PLAN_1
 62
     2
  6
CONTINUOUS
 10
-1.259854
 20
-1.437642
  0
VERTEX
  8
PLAN_1
 62
     2
  6
CONTINUOUS
 10
-1.256799
 20
-1.439681
  0
VERTEX
  8
PLAN_1
 62
     2
  6
CONTINUOUS
 10
-1.253232
 20
-1.440697
  0
VERTEX
  8
PLAN_1
 62
     2
  6
CONTINUOUS
 10
-1.248654
 20
-1.441209
  0
VERTEX
  8
PLAN_1
 62
     2
  6
CONTINUOUS
 10
-1.245598
 20
-1.440697
  0
VERTEX
  8
PLAN_1
 62
     2
  6
CONTINUOUS
 10
-1.242543
 20
-1.440189
  0
VERTEX
  8
PLAN_1
 62
     2
  6
CONTINUOUS
 10
-1.239488
 20
-1.438661
  0
VERTEX
  8
PLAN_1
 62
     2
  6
CONTINUOUS
 10
-1.237449
 20
-1.437134
  0
VERTEX
  8
PLAN_1
 62
     2
  6
CONTINUOUS
 10
-1.235413
 20
-1.435098
  0
VERTEX
  8
PLAN_1
 62
     2
  6
CONTINUOUS
 10
-1.233886
 20
-1.432551
  0
VERTEX
  8
PLAN_1
 62
     2
  6
CONTINUOUS
 10
-1.233378
 20
-1.430004
  0
VERTEX
  8
PLAN_1
 62
     2
  6
CONTINUOUS
 10
-1.232866
 20
-1.426949
  0
VERTEX
  8
PLAN_1
 62
     2
  6
CONTINUOUS
 10
-1.232866
 20
-1.424913
  0
VERTEX
  8
PLAN_1
 62
     2
  6
CONTINUOUS
 10
-1.233378
 20
-1.422878
  0
VERTEX
  8
PLAN_1
 62
     2
  6
CONTINUOUS
 10
-1.233886
 20
-1.421350
  0
VERTEX
  8
PLAN_1
 62
     2
  6
CONTINUOUS
 10
-1.234906
 20
-1.419823
  0
VERTEX
  8
PLAN_1
 62
     2
  6
CONTINUOUS
 10
-1.236433
 20
-1.417276
  0
VERTEX
  8
PLAN_1
 62
     2
  6
CONTINUOUS
 10
-1.238976
 20
-1.415748
  0
VERTEX
  8
PLAN_1
 62
     2
  6
CONTINUOUS
 10
-1.242031
 20
-1.414732
  0
VERTEX
  8
PLAN_1
 62
     2
  6
CONTINUOUS
 10
-1.244579
 20
-1.413713
  0
VERTEX
  8
PLAN_1
 62
     2
  6
CONTINUOUS
 10
-1.247634
 20
-1.413713
  0
VERTEX
  8
PLAN_1
 62
     2
  6
CONTINUOUS
 10
-1.250181
 20
-1.413713
  0
VERTEX
  8
PLAN_1
 62
     2
  6
CONTINUOUS
 10
-1.250689
 20
-1.413713
  0
VERTEX
  8
PLAN_1
 62
     2
  6
CONTINUOUS
 10
-1.251197
 20
-1.413713
  0
VERTEX
  8
PLAN_1
 62
     2
  6
CONTINUOUS
 10
-1.251709
 20
-1.413713
  0
VERTEX
  8
PLAN_1
 62
     2
  6
CONTINUOUS
 10
-1.252217
 20
-1.413713
  0
VERTEX
  8
PLAN_1
 62
     2
  6
CONTINUOUS
 10
-1.252724
 20
-1.413713
  0
VERTEX
  8
PLAN_1
 62
     2
  6
CONTINUOUS
 10
-1.253232
 20
-1.413713
  0
VERTEX
  8
PLAN_1
 62
     2
  6
CONTINUOUS
 10
-1.253744
 20
-1.413713
  0
VERTEX
  8
PLAN_1
 62
     2
  6
CONTINUOUS
 10
-1.254252
 20
-1.413713
  0
VERTEX
  8
PLAN_1
 62
     2
  6
CONTINUOUS
 10
-1.254252
 20
-1.405567
  0
SEQEND
  8
0
  0
POLYLINE
  8
PLAN_1
 62
     2
  6
CONTINUOUS
 66
     1
 40
0.003000
 41
0.003000
  0
VERTEX
  8
PLAN_1
 62
     2
  6
CONTINUOUS
 10
-1.176350
 20
-1.393854
  0
VERTEX
  8
PLAN_1
 62
     2
  6
CONTINUOUS
 10
-1.176858
 20
-1.391311
  0
VERTEX
  8
PLAN_1
 62
     2
  6
CONTINUOUS
 10
-1.177370
 20
-1.389272
  0
VERTEX
  8
PLAN_1
 62
     2
  6
CONTINUOUS
 10
-1.178386
 20
-1.387236
  0
VERTEX
  8
PLAN_1
 62
     2
  6
CONTINUOUS
 10
-1.179913
 20
-1.385709
  0
VERTEX
  8
PLAN_1
 62
     2
  6
CONTINUOUS
 10
-1.181441
 20
-1.384181
  0
VERTEX
  8
PLAN_1
 62
     2
  6
CONTINUOUS
 10
-1.183480
 20
-1.383161
  0
VERTEX
  8
PLAN_1
 62
     2
  6
CONTINUOUS
 10
-1.186024
 20
-1.382654
  0
VERTEX
  8
PLAN_1
 62
     2
  6
CONTINUOUS
 10
-1.188571
 20
-1.382654
  0
VERTEX
  8
PLAN_1
 62
     2
  6
CONTINUOUS
 10
-1.191118
 20
-1.382654
  0
VERTEX
  8
PLAN_1
 62
     2
  6
CONTINUOUS
 10
-1.193661
 20
-1.383161
  0
VERTEX
  8
PLAN_1
 62
     2
  6
CONTINUOUS
 10
-1.195701
 20
-1.384181
  0
VERTEX
  8
PLAN_1
 62
     2
  6
CONTINUOUS
 10
-1.197736
 20
-1.385709
  0
VERTEX
  8
PLAN_1
 62
     2
  6
CONTINUOUS
 10
-1.199264
 20
-1.387236
  0
VERTEX
  8
PLAN_1
 62
     2
  6
CONTINUOUS
 10
-1.200791
 20
-1.388764
  0
VERTEX
  8
PLAN_1
 62
     2
  6
CONTINUOUS
 10
-1.201807
 20
-1.390799
  0
VERTEX
  8
PLAN_1
 62
     2
  6
CONTINUOUS
 10
-1.202827
 20
-1.393346
  0
VERTEX
  8
PLAN_1
 62
     2
  6
CONTINUOUS
 10
-1.204354
 20
-1.397421
  0
VERTEX
  8
PLAN_1
 62
     2
  6
CONTINUOUS
 10
-1.205374
 20
-1.402000
  0
VERTEX
  8
PLAN_1
 62
     2
  6
CONTINUOUS
 10
-1.205882
 20
-1.406075
  0
VERTEX
  8
PLAN_1
 62
     2
  6
CONTINUOUS
 10
-1.205882
 20
-1.409638
  0
VERTEX
  8
PLAN_1
 62
     2
  6
CONTINUOUS
 10
-1.204862
 20
-1.408110
  0
VERTEX
  8
PLAN_1
 62
     2
  6
CONTINUOUS
 10
-1.203846
 20
-1.406583
  0
VERTEX
  8
PLAN_1
 62
     2
  6
CONTINUOUS
 10
-1.201807
 20
-1.405055
  0
VERTEX
  8
PLAN_1
 62
     2
  6
CONTINUOUS
 10
-1.200283
 20
-1.403528
  0
VERTEX
  8
PLAN_1
 62
     2
  6
CONTINUOUS
 10
-1.197736
 20
-1.402512
  0
VERTEX
  8
PLAN_1
 62
     2
  6
CONTINUOUS
 10
-1.195189
 20
-1.401492
  0
VERTEX
  8
PLAN_1
 62
     2
  6
CONTINUOUS
 10
-1.192134
 20
-1.400984
  0
VERTEX
  8
PLAN_1
 62
     2
  6
CONTINUOUS
 10
-1.188571
 20
-1.400984
  0
VERTEX
  8
PLAN_1
 62
     2
  6
CONTINUOUS
 10
-1.185008
 20
-1.400984
  0
VERTEX
  8
PLAN_1
 62
     2
  6
CONTINUOUS
 10
-1.180933
 20
-1.402000
  0
VERTEX
  8
PLAN_1
 62
     2
  6
CONTINUOUS
 10
-1.177370
 20
-1.403528
  0
VERTEX
  8
PLAN_1
 62
     2
  6
CONTINUOUS
 10
-1.173807
 20
-1.406075
  0
VERTEX
  8
PLAN_1
 62
     2
  6
CONTINUOUS
 10
-1.172280
 20
-1.407094
  0
VERTEX
  8
PLAN_1
 62
     2
  6
CONTINUOUS
 10
-1.170752
 20
-1.409130
  0
VERTEX
  8
PLAN_1
 62
     2
  6
CONTINUOUS
 10
-1.169224
 20
-1.410657
  0
VERTEX
  8
PLAN_1
 62
     2
  6
CONTINUOUS
 10
-1.168205
 20
-1.413205
  0
VERTEX
  8
PLAN_1
 62
     2
  6
CONTINUOUS
 10
-1.167185
 20
-1.415240
  0
VERTEX
  8
PLAN_1
 62
     2
  6
CONTINUOUS
 10
-1.166169
 20
-1.417787
  0
VERTEX
  8
PLAN_1
 62
     2
  6
CONTINUOUS
 10
-1.165657
 20
-1.420843
  0
VERTEX
  8
PLAN_1
 62
     2
  6
CONTINUOUS
 10
-1.165657
 20
-1.423898
  0
VERTEX
  8
PLAN_1
 62
     2
  6
CONTINUOUS
 10
-1.165657
 20
-1.426949
  0
VERTEX
  8
PLAN_1
 62
     2
  6
CONTINUOUS
 10
-1.166169
 20
-1.429496
  0
VERTEX
  8
PLAN_1
 62
     2
  6
CONTINUOUS
 10
-1.166677
 20
-1.431531
  0
VERTEX
  8
PLAN_1
 62
     2
  6
CONTINUOUS
 10
-1.167185
 20
-1.434079
  0
VERTEX
  8
PLAN_1
 62
     2
  6
CONTINUOUS
 10
-1.168205
 20
-1.436114
  0
VERTEX
  8
PLAN_1
 62
     2
  6
CONTINUOUS
 10
-1.169224
 20
-1.438154
  0
VERTEX
  8
PLAN_1
 62
     2
  6
CONTINUOUS
 10
-1.170752
 20
-1.440189
  0
VERTEX
  8
PLAN_1
 62
     2
  6
CONTINUOUS
 10
-1.172787
 20
-1.442224
  0
VERTEX
  8
PLAN_1
 62
     2
  6
CONTINUOUS
 10
-1.174315
 20
-1.443752
  0
VERTEX
  8
PLAN_1
 62
     2
  6
CONTINUOUS
 10
-1.175843
 20
-1.445280
  0
VERTEX
  8
PLAN_1
 62
     2
  6
CONTINUOUS
 10
-1.177370
 20
-1.446299
  0
VERTEX
  8
PLAN_1
 62
     2
  6
CONTINUOUS
 10
-1.179406
 20
-1.447319
  0
VERTEX
  8
PLAN_1
 62
     2
  6
CONTINUOUS
 10
-1.181953
 20
-1.448335
  0
VERTEX
  8
PLAN_1
 62
     2
  6
CONTINUOUS
 10
-1.184496
 20
-1.448846
  0
VERTEX
  8
PLAN_1
 62
     2
  6
CONTINUOUS
 10
-1.187551
 20
-1.449354
  0
VERTEX
  8
PLAN_1
 62
     2
  6
CONTINUOUS
 10
-1.191118
 20
-1.449354
  0
VERTEX
  8
PLAN_1
 62
     2
  6
CONTINUOUS
 10
-1.193154
 20
-1.449354
  0
VERTEX
  8
PLAN_1
 62
     2
  6
CONTINUOUS
 10
-1.195701
 20
-1.448846
  0
VERTEX
  8
PLAN_1
 62
     2
  6
CONTINUOUS
 10
-1.198244
 20
-1.448335
  0
VERTEX
  8
PLAN_1
 62
     2
  6
CONTINUOUS
 10
-1.200791
 20
-1.447319
  0
VERTEX
  8
PLAN_1
 62
     2
  6
CONTINUOUS
 10
-1.203335
 20
-1.445791
  0
VERTEX
  8
PLAN_1
 62
     2
  6
CONTINUOUS
 10
-1.205374
 20
-1.443752
  0
VERTEX
  8
PLAN_1
 62
     2
  6
CONTINUOUS
 10
-1.207917
 20
-1.441717
  0
VERTEX
  8
PLAN_1
 62
     2
  6
CONTINUOUS
 10
-1.209957
 20
-1.438661
  0
VERTEX
  8
PLAN_1
 62
     2
  6
CONTINUOUS
 10
-1.211484
 20
-1.436114
  0
VERTEX
  8
PLAN_1
 62
     2
  6
CONTINUOUS
 10
-1.212500
 20
-1.433059
  0
VERTEX
  8
PLAN_1
 62
     2
  6
CONTINUOUS
 10
-1.213520
 20
-1.430004
  0
VERTEX
  8
PLAN_1
 62
     2
  6
CONTINUOUS
 10
-1.214539
 20
-1.426949
  0
VERTEX
  8
PLAN_1
 62
     2
  6
CONTINUOUS
 10
-1.215047
 20
-1.423898
  0
VERTEX
  8
PLAN_1
 62
     2
  6
CONTINUOUS
 10
-1.215555
 20
-1.420331
  0
VERTEX
  8
PLAN_1
 62
     2
  6
CONTINUOUS
 10
-1.215555
 20
-1.416768
  0
VERTEX
  8
PLAN_1
 62
     2
  6
CONTINUOUS
 10
-1.215555
 20
-1.413205
  0
VERTEX
  8
PLAN_1
 62
     2
  6
CONTINUOUS
 10
-1.215555
 20
-1.407094
  0
VERTEX
  8
PLAN_1
 62
     2
  6
CONTINUOUS
 10
-1.214539
 20
-1.400472
  0
VERTEX
  8
PLAN_1
 62
     2
  6
CONTINUOUS
 10
-1.213012
 20
-1.393854
  0
VERTEX
  8
PLAN_1
 62
     2
  6
CONTINUOUS
 10
-1.210465
 20
-1.387744
  0
VERTEX
  8
PLAN_1
 62
     2
  6
CONTINUOUS
 10
-1.208429
 20
-1.385201
  0
VERTEX
  8
PLAN_1
 62
     2
  6
CONTINUOUS
 10
-1.206902
 20
-1.382654
  0
VERTEX
  8
PLAN_1
 62
     2
  6
CONTINUOUS
 10
-1.204354
 20
-1.380106
  0
VERTEX
  8
PLAN_1
 62
     2
  6
CONTINUOUS
 10
-1.201807
 20
-1.378071
  0
VERTEX
  8
PLAN_1
 62
     2
  6
CONTINUOUS
 10
-1.199264
 20
-1.376543
  0
VERTEX
  8
PLAN_1
 62
     2
  6
CONTINUOUS
 10
-1.196209
 20
-1.375524
  0
VERTEX
  8
PLAN_1
 62
     2
  6
CONTINUOUS
 10
-1.192646
 20
-1.374508
  0
VERTEX
  8
PLAN_1
 62
     2
  6
CONTINUOUS
 10
-1.188571
 20
-1.374508
  0
VERTEX
  8
PLAN_1
 62
     2
  6
CONTINUOUS
 10
-1.185008
 20
-1.374508
  0
VERTEX
  8
PLAN_1
 62
     2
  6
CONTINUOUS
 10
-1.181953
 20
-1.375016
  0
VERTEX
  8
PLAN_1
 62
     2
  6
CONTINUOUS
 10
-1.178386
 20
-1.376543
  0
VERTEX
  8
PLAN_1
 62
     2
  6
CONTINUOUS
 10
-1.174823
 20
-1.378579
  0
VERTEX
  8
PLAN_1
 62
     2
  6
CONTINUOUS
 10
-1.172280
 20
-1.381126
  0
VERTEX
  8
PLAN_1
 62
     2
  6
CONTINUOUS
 10
-1.169732
 20
-1.384181
  0
VERTEX
  8
PLAN_1
 62
     2
  6
CONTINUOUS
 10
-1.168713
 20
-1.386217
  0
VERTEX
  8
PLAN_1
 62
     2
  6
CONTINUOUS
 10
-1.168205
 20
-1.388764
  0
VERTEX
  8
PLAN_1
 62
     2
  6
CONTINUOUS
 10
-1.167697
 20
-1.390799
  0
VERTEX
  8
PLAN_1
 62
     2
  6
CONTINUOUS
 10
-1.167185
 20
-1.393854
  0
VERTEX
  8
PLAN_1
 62
     2
  6
CONTINUOUS
 10
-1.176350
 20
-1.393854
  0
SEQEND
  8
0
  0
POLYLINE
  8
PLAN_1
 62
     2
  6
CONTINUOUS
 66
     1
 40
0.003000
 41
0.003000
  0
VERTEX
  8
PLAN_1
 62
     2
  6
CONTINUOUS
 10
-1.189591
 20
-1.441209
  0
VERTEX
  8
PLAN_1
 62
     2
  6
CONTINUOUS
 10
-1.186535
 20
-1.440697
  0
VERTEX
  8
PLAN_1
 62
     2
  6
CONTINUOUS
 10
-1.183480
 20
-1.439681
  0
VERTEX
  8
PLAN_1
 62
     2
  6
CONTINUOUS
 10
-1.180933
 20
-1.438661
  0
VERTEX
  8
PLAN_1
 62
     2
  6
CONTINUOUS
 10
-1.178898
 20
-1.436626
  0
VERTEX
  8
PLAN_1
 62
     2
  6
CONTINUOUS
 10
-1.177370
 20
-1.434079
  0
VERTEX
  8
PLAN_1
 62
     2
  6
CONTINUOUS
 10
-1.176350
 20
-1.431024
  0
VERTEX
  8
PLAN_1
 62
     2
  6
CONTINUOUS
 10
-1.175331
 20
-1.427969
  0
VERTEX
  8
PLAN_1
 62
     2
  6
CONTINUOUS
 10
-1.175331
 20
-1.424406
  0
VERTEX
  8
PLAN_1
 62
     2
  6
CONTINUOUS
 10
-1.175331
 20
-1.421858
  0
VERTEX
  8
PLAN_1
 62
     2
  6
CONTINUOUS
 10
-1.175843
 20
-1.419315
  0
VERTEX
  8
PLAN_1
 62
     2
  6
CONTINUOUS
 10
-1.176858
 20
-1.416768
  0
VERTEX
  8
PLAN_1
 62
     2
  6
CONTINUOUS
 10
-1.178386
 20
-1.414220
  0
VERTEX
  8
PLAN_1
 62
     2
  6
CONTINUOUS
 10
-1.180425
 20
-1.412185
  0
VERTEX
  8
PLAN_1
 62
     2
  6
CONTINUOUS
 10
-1.182969
 20
-1.410657
  0
VERTEX
  8
PLAN_1
 62
     2
  6
CONTINUOUS
 10
-1.186024
 20
-1.409638
  0
VERTEX
  8
PLAN_1
 62
     2
  6
CONTINUOUS
 10
-1.190098
 20
-1.409130
  0
VERTEX
  8
PLAN_1
 62
     2
  6
CONTINUOUS
 10
-1.193661
 20
-1.409130
  0
VERTEX
  8
PLAN_1
 62
     2
  6
CONTINUOUS
 10
-1.196717
 20
-1.410150
  0
VERTEX
  8
PLAN_1
 62
     2
  6
CONTINUOUS
 10
-1.199264
 20
-1.411677
  0
VERTEX
  8
PLAN_1
 62
     2
  6
CONTINUOUS
 10
-1.201299
 20
-1.413713
  0
VERTEX
  8
PLAN_1
 62
     2
  6
CONTINUOUS
 10
-1.202827
 20
-1.416260
  0
VERTEX
  8
PLAN_1
 62
     2
  6
CONTINUOUS
 10
-1.203846
 20
-1.418803
  0
VERTEX
  8
PLAN_1
 62
     2
  6
CONTINUOUS
 10
-1.204862
 20
-1.421858
  0
VERTEX
  8
PLAN_1
 62
     2
  6
CONTINUOUS
 10
-1.204862
 20
-1.424913
  0
VERTEX
  8
PLAN_1
 62
     2
  6
CONTINUOUS
 10
-1.204862
 20
-1.427969
  0
VERTEX
  8
PLAN_1
 62
     2
  6
CONTINUOUS
 10
-1.203846
 20
-1.430516
  0
VERTEX
  8
PLAN_1
 62
     2
  6
CONTINUOUS
 10
-1.202827
 20
-1.433571
  0
VERTEX
  8
PLAN_1
 62
     2
  6
CONTINUOUS
 10
-1.201299
 20
-1.436114
  0
VERTEX
  8
PLAN_1
 62
     2
  6
CONTINUOUS
 10
-1.199264
 20
-1.438154
  0
VERTEX
  8
PLAN_1
 62
     2
  6
CONTINUOUS
 10
-1.196209
 20
-1.439681
  0
VERTEX
  8
PLAN_1
 62
     2
  6
CONTINUOUS
 10
-1.193154
 20
-1.440697
  0
VERTEX
  8
PLAN_1
 62
     2
  6
CONTINUOUS
 10
-1.189591
 20
-1.441209
  0
SEQEND
  8
0
  0
POLYLINE
  8
PLAN_1
 62
     2
  6
CONTINUOUS
 66
     1
 40
0.004071
 41
0.004071
  0
VERTEX
  8
PLAN_1
 62
     2
  6
CONTINUOUS
 10
-1.930925
 20
-1.183571
  0
VERTEX
  8
PLAN_1
 62
     2
  6
CONTINUOUS
 10
-1.930925
 20
-1.494669
  0
SEQEND
  8
0
  0
POLYLINE
  8
PLAN_1
 62
     2
  6
CONTINUOUS
 66
     1
 40
0.004071
 41
0.004071
  0
VERTEX
  8
PLAN_1
 62
     2
  6
CONTINUOUS
 10
-0.513933
 20
-0.660665
  0
VERTEX
  8
PLAN_1
 62
     2
  6
CONTINUOUS
 10
-0.513933
 20
-1.494669
  0
SEQEND
  8
0
  0
POLYLINE
  8
PLAN_1
 62
     2
  6
CONTINUOUS
 66
     1
 40
0.004071
 41
0.004071
  0
VERTEX
  8
PLAN_1
 62
     2
  6
CONTINUOUS
 10
-1.435512
 20
1.601535
  0
VERTEX
  8
PLAN_1
 62
     2
  6
CONTINUOUS
 10
-1.435512
 20
-1.360760
  0
SEQEND
  8
0
  0
POLYLINE
  8
PLAN_1
 62
     2
  6
CONTINUOUS
 66
     1
 40
0.004071
 41
0.004071
  0
VERTEX
  8
PLAN_1
 62
     2
  6
CONTINUOUS
 10
-0.361693
 20
-1.130618
  0
VERTEX
  8
PLAN_1
 62
     2
  6
CONTINUOUS
 10
-0.361693
 20
3.610681
  0
SEQEND
  8
0
  0
SOLID
  8
PLAN_1
 62
     2
 10
-0.361693
 20
3.640213
 11
-0.377476
 21
3.581150
 12
-0.361693
 22
3.640213
 13
-0.345909
 23
3.581150
  0
POLYLINE
  8
PLAN_1
 62
     2
  6
CONTINUOUS
 66
     1
 40
0.003000
 41
0.003000
  0
VERTEX
  8
PLAN_1
 62
     2
  6
CONTINUOUS
 10
-0.361693
 20
3.640213
  0
VERTEX
  8
PLAN_1
 62
     2
  6
CONTINUOUS
 10
-0.377476
 20
3.581150
  0
VERTEX
  8
PLAN_1
 62
     2
  6
CONTINUOUS
 10
-0.345909
 20
3.581150
  0
VERTEX
  8
PLAN_1
 62
     2
  6
CONTINUOUS
 10
-0.361693
 20
3.640213
  0
SEQEND
  8
0
  0
SOLID
  8
PLAN_1
 62
     2
 10
-0.361693
 20
-1.160150
 11
-0.377476
 21
-1.101087
 12
-0.361693
 22
-1.160150
 13
-0.345909
 23
-1.101087
  0
POLYLINE
  8
PLAN_1
 62
     2
  6
CONTINUOUS
 66
     1
 40
0.003000
 41
0.003000
  0
VERTEX
  8
PLAN_1
 62
     2
  6
CONTINUOUS
 10
-0.361693
 20
-1.160150
  0
VERTEX
  8
PLAN_1
 62
     2
  6
CONTINUOUS
 10
-0.377476
 20
-1.101087
  0
VERTEX
  8
PLAN_1
 62
     2
  6
CONTINUOUS
 10
-0.345909
 20
-1.101087
  0
VERTEX
  8
PLAN_1
 62
     2
  6
CONTINUOUS
 10
-0.361693
 20
-1.160150
  0
SEQEND
  8
0
  0
POLYLINE
  8
PLAN_1
 62
     2
  6
CONTINUOUS
 66
     1
 40
0.003000
 41
0.003000
  0
VERTEX
  8
PLAN_1
 62
     2
  6
CONTINUOUS
 10
-0.385114
 20
1.190642
  0
VERTEX
  8
PLAN_1
 62
     2
  6
CONTINUOUS
 10
-0.385114
 20
1.180969
  0
VERTEX
  8
PLAN_1
 62
     2
  6
CONTINUOUS
 10
-0.437051
 20
1.180969
  0
VERTEX
  8
PLAN_1
 62
     2
  6
CONTINUOUS
 10
-0.437051
 20
1.163657
  0
VERTEX
  8
PLAN_1
 62
     2
  6
CONTINUOUS
 10
-0.444177
 20
1.163657
  0
VERTEX
  8
PLAN_1
 62
     2
  6
CONTINUOUS
 10
-0.444689
 20
1.167732
  0
VERTEX
  8
PLAN_1
 62
     2
  6
CONTINUOUS
 10
-0.445197
 20
1.171295
  0
VERTEX
  8
PLAN_1
 62
     2
  6
CONTINUOUS
 10
-0.445705
 20
1.174350
  0
VERTEX
  8
PLAN_1
 62
     2
  6
CONTINUOUS
 10
-0.447232
 20
1.176894
  0
VERTEX
  8
PLAN_1
 62
     2
  6
CONTINUOUS
 10
-0.448760
 20
1.178933
  0
VERTEX
  8
PLAN_1
 62
     2
  6
CONTINUOUS
 10
-0.451307
 20
1.180969
  0
VERTEX
  8
PLAN_1
 62
     2
  6
CONTINUOUS
 10
-0.454362
 20
1.182496
  0
VERTEX
  8
PLAN_1
 62
     2
  6
CONTINUOUS
 10
-0.458433
 20
1.183516
  0
VERTEX
  8
PLAN_1
 62
     2
  6
CONTINUOUS
 10
-0.458433
 20
1.190642
  0
VERTEX
  8
PLAN_1
 62
     2
  6
CONTINUOUS
 10
-0.385114
 20
1.190642
  0
SEQEND
  8
0
  0
POLYLINE
  8
PLAN_1
 62
     2
  6
CONTINUOUS
 66
     1
 40
0.003000
 41
0.003000
  0
VERTEX
  8
PLAN_1
 62
     2
  6
CONTINUOUS
 10
-0.431957
 20
1.215591
  0
VERTEX
  8
PLAN_1
 62
     2
  6
CONTINUOUS
 10
-0.436031
 20
1.216102
  0
VERTEX
  8
PLAN_1
 62
     2
  6
CONTINUOUS
 10
-0.440106
 20
1.216610
  0
VERTEX
  8
PLAN_1
 62
     2
  6
CONTINUOUS
 10
-0.443161
 20
1.217630
  0
VERTEX
  8
PLAN_1
 62
     2
  6
CONTINUOUS
 10
-0.446217
 20
1.218646
  0
VERTEX
  8
PLAN_1
 62
     2
  6
CONTINUOUS
 10
-0.448760
 20
1.220173
  0
VERTEX
  8
PLAN_1
 62
     2
  6
CONTINUOUS
 10
-0.450799
 20
1.221701
  0
VERTEX
  8
PLAN_1
 62
     2
  6
CONTINUOUS
 10
-0.452835
 20
1.223740
  0
VERTEX
  8
PLAN_1
 62
     2
  6
CONTINUOUS
 10
-0.453854
 20
1.225268
  0
VERTEX
  8
PLAN_1
 62
     2
  6
CONTINUOUS
 10
-0.456398
 20
1.229339
  0
VERTEX
  8
PLAN_1
 62
     2
  6
CONTINUOUS
 10
-0.457417
 20
1.233921
  0
VERTEX
  8
PLAN_1
 62
     2
  6
CONTINUOUS
 10
-0.457925
 20
1.237484
  0
VERTEX
  8
PLAN_1
 62
     2
  6
CONTINUOUS
 10
-0.458433
 20
1.241051
  0
VERTEX
  8
PLAN_1
 62
     2
  6
CONTINUOUS
 10
-0.457925
 20
1.245634
  0
VERTEX
  8
PLAN_1
 62
     2
  6
CONTINUOUS
 10
-0.456906
 20
1.250217
  0
VERTEX
  8
PLAN_1
 62
     2
  6
CONTINUOUS
 10
-0.454870
 20
1.253780
  0
VERTEX
  8
PLAN_1
 62
     2
  6
CONTINUOUS
 10
-0.452327
 20
1.257343
  0
VERTEX
  8
PLAN_1
 62
     2
  6
CONTINUOUS
 10
-0.449272
 20
1.259890
  0
VERTEX
  8
PLAN_1
 62
     2
  6
CONTINUOUS
 10
-0.445705
 20
1.261925
  0
VERTEX
  8
PLAN_1
 62
     2
  6
CONTINUOUS
 10
-0.441122
 20
1.263453
  0
VERTEX
  8
PLAN_1
 62
     2
  6
CONTINUOUS
 10
-0.436539
 20
1.263961
  0
VERTEX
  8
PLAN_1
 62
     2
  6
CONTINUOUS
 10
-0.431957
 20
1.263453
  0
VERTEX
  8
PLAN_1
 62
     2
  6
CONTINUOUS
 10
-0.427886
 20
1.262433
  0
VERTEX
  8
PLAN_1
 62
     2
  6
CONTINUOUS
 10
-0.424323
 20
1.260398
  0
VERTEX
  8
PLAN_1
 62
     2
  6
CONTINUOUS
 10
-0.421268
 20
1.258362
  0
VERTEX
  8
PLAN_1
 62
     2
  6
CONTINUOUS
 10
-0.418720
 20
1.255307
  0
VERTEX
  8
PLAN_1
 62
     2
  6
CONTINUOUS
 10
-0.416173
 20
1.252252
  0
VERTEX
  8
PLAN_1
 62
     2
  6
CONTINUOUS
 10
-0.414138
 20
1.248177
  0
VERTEX
  8
PLAN_1
 62
     2
  6
CONTINUOUS
 10
-0.412102
 20
1.244614
  0
VERTEX
  8
PLAN_1
 62
     2
  6
CONTINUOUS
 10
-0.408028
 20
1.236976
  0
VERTEX
  8
PLAN_1
 62
     2
  6
CONTINUOUS
 10
-0.405480
 20
1.233413
  0
VERTEX
  8
PLAN_1
 62
     2
  6
CONTINUOUS
 10
-0.403445
 20
1.230866
  0
VERTEX
  8
PLAN_1
 62
     2
  6
CONTINUOUS
 10
-0.401917
 20
1.228319
  0
VERTEX
  8
PLAN_1
 62
     2
  6
CONTINUOUS
 10
-0.399882
 20
1.226795
  0
VERTEX
  8
PLAN_1
 62
     2
  6
CONTINUOUS
 10
-0.397846
 20
1.225776
  0
VERTEX
  8
PLAN_1
 62
     2
  6
CONTINUOUS
 10
-0.396319
 20
1.224756
  0
VERTEX
  8
PLAN_1
 62
     2
  6
CONTINUOUS
 10
-0.394791
 20
1.224248
  0
VERTEX
  8
PLAN_1
 62
     2
  6
CONTINUOUS
 10
-0.393772
 20
1.224248
  0
VERTEX
  8
PLAN_1
 62
     2
  6
CONTINUOUS
 10
-0.393772
 20
1.263961
  0
VERTEX
  8
PLAN_1
 62
     2
  6
CONTINUOUS
 10
-0.385114
 20
1.263961
  0
VERTEX
  8
PLAN_1
 62
     2
  6
CONTINUOUS
 10
-0.385114
 20
1.214063
  0
VERTEX
  8
PLAN_1
 62
     2
  6
CONTINUOUS
 10
-0.390717
 20
1.214575
  0
VERTEX
  8
PLAN_1
 62
     2
  6
CONTINUOUS
 10
-0.395299
 20
1.215591
  0
VERTEX
  8
PLAN_1
 62
     2
  6
CONTINUOUS
 10
-0.399374
 20
1.217118
  0
VERTEX
  8
PLAN_1
 62
     2
  6
CONTINUOUS
 10
-0.403445
 20
1.219157
  0
VERTEX
  8
PLAN_1
 62
     2
  6
CONTINUOUS
 10
-0.406500
 20
1.221701
  0
VERTEX
  8
PLAN_1
 62
     2
  6
CONTINUOUS
 10
-0.409555
 20
1.224248
  0
VERTEX
  8
PLAN_1
 62
     2
  6
CONTINUOUS
 10
-0.412102
 20
1.227303
  0
VERTEX
  8
PLAN_1
 62
     2
  6
CONTINUOUS
 10
-0.414138
 20
1.230866
  0
VERTEX
  8
PLAN_1
 62
     2
  6
CONTINUOUS
 10
-0.419740
 20
1.240539
  0
VERTEX
  8
PLAN_1
 62
     2
  6
CONTINUOUS
 10
-0.421268
 20
1.243594
  0
VERTEX
  8
PLAN_1
 62
     2
  6
CONTINUOUS
 10
-0.422795
 20
1.246142
  0
VERTEX
  8
PLAN_1
 62
     2
  6
CONTINUOUS
 10
-0.424831
 20
1.248177
  0
VERTEX
  8
PLAN_1
 62
     2
  6
CONTINUOUS
 10
-0.426358
 20
1.250217
  0
VERTEX
  8
PLAN_1
 62
     2
  6
CONTINUOUS
 10
-0.428394
 20
1.251744
  0
VERTEX
  8
PLAN_1
 62
     2
  6
CONTINUOUS
 10
-0.430941
 20
1.253268
  0
VERTEX
  8
PLAN_1
 62
     2
  6
CONTINUOUS
 10
-0.433484
 20
1.253780
  0
VERTEX
  8
PLAN_1
 62
     2
  6
CONTINUOUS
 10
-0.437051
 20
1.254287
  0
VERTEX
  8
PLAN_1
 62
     2
  6
CONTINUOUS
 10
-0.439087
 20
1.253780
  0
VERTEX
  8
PLAN_1
 62
     2
  6
CONTINUOUS
 10
-0.441122
 20
1.253268
  0
VERTEX
  8
PLAN_1
 62
     2
  6
CONTINUOUS
 10
-0.443669
 20
1.252252
  0
VERTEX
  8
PLAN_1
 62
     2
  6
CONTINUOUS
 10
-0.445705
 20
1.250724
  0
VERTEX
  8
PLAN_1
 62
     2
  6
CONTINUOUS
 10
-0.447232
 20
1.249197
  0
VERTEX
  8
PLAN_1
 62
     2
  6
CONTINUOUS
 10
-0.448760
 20
1.246650
  0
VERTEX
  8
PLAN_1
 62
     2
  6
CONTINUOUS
 10
-0.449780
 20
1.243594
  0
VERTEX
  8
PLAN_1
 62
     2
  6
CONTINUOUS
 10
-0.450287
 20
1.239524
  0
VERTEX
  8
PLAN_1
 62
     2
  6
CONTINUOUS
 10
-0.449780
 20
1.237484
  0
VERTEX
  8
PLAN_1
 62
     2
  6
CONTINUOUS
 10
-0.449272
 20
1.234941
  0
VERTEX
  8
PLAN_1
 62
     2
  6
CONTINUOUS
 10
-0.448760
 20
1.233413
  0
VERTEX
  8
PLAN_1
 62
     2
  6
CONTINUOUS
 10
-0.447744
 20
1.231374
  0
VERTEX
  8
PLAN_1
 62
     2
  6
CONTINUOUS
 10
-0.445705
 20
1.228831
  0
VERTEX
  8
PLAN_1
 62
     2
  6
CONTINUOUS
 10
-0.443161
 20
1.227303
  0
VERTEX
  8
PLAN_1
 62
     2
  6
CONTINUOUS
 10
-0.440106
 20
1.226283
  0
VERTEX
  8
PLAN_1
 62
     2
  6
CONTINUOUS
 10
-0.437051
 20
1.225268
  0
VERTEX
  8
PLAN_1
 62
     2
  6
CONTINUOUS
 10
-0.434504
 20
1.225268
  0
VERTEX
  8
PLAN_1
 62
     2
  6
CONTINUOUS
 10
-0.431957
 20
1.224756
  0
VERTEX
  8
PLAN_1
 62
     2
  6
CONTINUOUS
 10
-0.431957
 20
1.215591
  0
SEQEND
  8
0
  0
POLYLINE
  8
PLAN_1
 62
     2
  6
CONTINUOUS
 66
     1
 40
0.003000
 41
0.003000
  0
VERTEX
  8
PLAN_1
 62
     2
  6
CONTINUOUS
 10
-0.456906
 20
1.273126
  0
VERTEX
  8
PLAN_1
 62
     2
  6
CONTINUOUS
 10
-0.456906
 20
1.323535
  0
VERTEX
  8
PLAN_1
 62
     2
  6
CONTINUOUS
 10
-0.448760
 20
1.323535
  0
VERTEX
  8
PLAN_1
 62
     2
  6
CONTINUOUS
 10
-0.445197
 20
1.320480
  0
VERTEX
  8
PLAN_1
 62
     2
  6
CONTINUOUS
 10
-0.440106
 20
1.316406
  0
VERTEX
  8
PLAN_1
 62
     2
  6
CONTINUOUS
 10
-0.433996
 20
1.312331
  0
VERTEX
  8
PLAN_1
 62
     2
  6
CONTINUOUS
 10
-0.426358
 20
1.307748
  0
VERTEX
  8
PLAN_1
 62
     2
  6
CONTINUOUS
 10
-0.417701
 20
1.303169
  0
VERTEX
  8
PLAN_1
 62
     2
  6
CONTINUOUS
 10
-0.408028
 20
1.299602
  0
VERTEX
  8
PLAN_1
 62
     2
  6
CONTINUOUS
 10
-0.402429
 20
1.297567
  0
VERTEX
  8
PLAN_1
 62
     2
  6
CONTINUOUS
 10
-0.396827
 20
1.296039
  0
VERTEX
  8
PLAN_1
 62
     2
  6
CONTINUOUS
 10
-0.391224
 20
1.294512
  0
VERTEX
  8
PLAN_1
 62
     2
  6
CONTINUOUS
 10
-0.385114
 20
1.293492
  0
VERTEX
  8
PLAN_1
 62
     2
  6
CONTINUOUS
 10
-0.385114
 20
1.283311
  0
VERTEX
  8
PLAN_1
 62
     2
  6
CONTINUOUS
 10
-0.392752
 20
1.284839
  0
VERTEX
  8
PLAN_1
 62
     2
  6
CONTINUOUS
 10
-0.400902
 20
1.286874
  0
VERTEX
  8
PLAN_1
 62
     2
  6
CONTINUOUS
 10
-0.409555
 20
1.290437
  0
VERTEX
  8
PLAN_1
 62
     2
  6
CONTINUOUS
 10
-0.417701
 20
1.294004
  0
VERTEX
  8
PLAN_1
 62
     2
  6
CONTINUOUS
 10
-0.425850
 20
1.298075
  0
VERTEX
  8
PLAN_1
 62
     2
  6
CONTINUOUS
 10
-0.433996
 20
1.303169
  0
VERTEX
  8
PLAN_1
 62
     2
  6
CONTINUOUS
 10
-0.441122
 20
1.307748
  0
VERTEX
  8
PLAN_1
 62
     2
  6
CONTINUOUS
 10
-0.447744
 20
1.313350
  0
VERTEX
  8
PLAN_1
 62
     2
  6
CONTINUOUS
 10
-0.447744
 20
1.273126
  0
VERTEX
  8
PLAN_1
 62
     2
  6
CONTINUOUS
 10
-0.456906
 20
1.273126
  0
SEQEND
  8
0
  0
POLYLINE
  8
PLAN_1
 62
     2
  6
CONTINUOUS
 66
     1
 40
0.004071
 41
0.004071
  0
VERTEX
  8
PLAN_1
 62
     2
  6
CONTINUOUS
 10
-1.153949
 20
3.976260
  0
VERTEX
  8
PLAN_1
 62
     2
  6
CONTINUOUS
 10
-0.543465
 20
3.976260
  0
SEQEND
  8
0
  0
SOLID
  8
PLAN_1
 62
     2
 10
-1.183480
 20
3.976260
 11
-1.124417
 21
3.992043
 12
-1.183480
 22
3.976260
 13
-1.124417
 23
3.960476
  0
POLYLINE
  8
PLAN_1
 62
     2
  6
CONTINUOUS
 66
     1
 40
0.003000
 41
0.003000
  0
VERTEX
  8
PLAN_1
 62
     2
  6
CONTINUOUS
 10
-1.183480
 20
3.976260
  0
VERTEX
  8
PLAN_1
 62
     2
  6
CONTINUOUS
 10
-1.124417
 20
3.992043
  0
VERTEX
  8
PLAN_1
 62
     2
  6
CONTINUOUS
 10
-1.124417
 20
3.960476
  0
VERTEX
  8
PLAN_1
 62
     2
  6
CONTINUOUS
 10
-1.183480
 20
3.976260
  0
SEQEND
  8
0
  0
POLYLINE
  8
PLAN_1
 62
     2
  6
CONTINUOUS
 66
     1
 40
0.004071
 41
0.004071
  0
VERTEX
  8
PLAN_1
 62
     2
  6
CONTINUOUS
 10
-1.255272
 20
3.795000
  0
VERTEX
  8
PLAN_1
 62
     2
  6
CONTINUOUS
 10
-1.112197
 20
3.795000
  0
SEQEND
  8
0
  0
SOLID
  8
PLAN_1
 62
     2
 10
-1.082665
 20
3.795000
 11
-1.141728
 21
3.810783
 12
-1.082665
 22
3.795000
 13
-1.141728
 23
3.779213
  0
POLYLINE
  8
PLAN_1
 62
     2
  6
CONTINUOUS
 66
     1
 40
0.003000
 41
0.003000
  0
VERTEX
  8
PLAN_1
 62
     2
  6
CONTINUOUS
 10
-1.082665
 20
3.795000
  0
VERTEX
  8
PLAN_1
 62
     2
  6
CONTINUOUS
 10
-1.141728
 20
3.810783
  0
VERTEX
  8
PLAN_1
 62
     2
  6
CONTINUOUS
 10
-1.141728
 20
3.779213
  0
VERTEX
  8
PLAN_1
 62
     2
  6
CONTINUOUS
 10
-1.082665
 20
3.795000
  0
SEQEND
  8
0
  0
SOLID
  8
PLAN_1
 62
     2
 10
-1.284803
 20
3.795000
 11
-1.225740
 21
3.810783
 12
-1.284803
 22
3.795000
 13
-1.225740
 23
3.779213
  0
POLYLINE
  8
PLAN_1
 62
     2
  6
CONTINUOUS
 66
     1
 40
0.003000
 41
0.003000
  0
VERTEX
  8
PLAN_1
 62
     2
  6
CONTINUOUS
 10
-1.284803
 20
3.795000
  0
VERTEX
  8
PLAN_1
 62
     2
  6
CONTINUOUS
 10
-1.225740
 20
3.810783
  0
VERTEX
  8
PLAN_1
 62
     2
  6
CONTINUOUS
 10
-1.225740
 20
3.779213
  0
VERTEX
  8
PLAN_1
 62
     2
  6
CONTINUOUS
 10
-1.284803
 20
3.795000
  0
SEQEND
  8
0
  0
POLYLINE
  8
PLAN_1
 62
     2
  6
CONTINUOUS
 66
     1
 40
0.003000
 41
0.003000
  0
VERTEX
  8
PLAN_1
 62
     2
  6
CONTINUOUS
 10
-1.192134
 20
3.861189
  0
VERTEX
  8
PLAN_1
 62
     2
  6
CONTINUOUS
 10
-1.191118
 20
3.862209
  0
VERTEX
  8
PLAN_1
 62
     2
  6
CONTINUOUS
 10
-1.189591
 20
3.863224
  0
VERTEX
  8
PLAN_1
 62
     2
  6
CONTINUOUS
 10
-1.188063
 20
3.863736
  0
VERTEX
  8
PLAN_1
 62
     2
  6
CONTINUOUS
 10
-1.186535
 20
3.864752
  0
VERTEX
  8
PLAN_1
 62
     2
  6
CONTINUOUS
 10
-1.184496
 20
3.865264
  0
VERTEX
  8
PLAN_1
 62
     2
  6
CONTINUOUS
 10
-1.182461
 20
3.865772
  0
VERTEX
  8
PLAN_1
 62
     2
  6
CONTINUOUS
 10
-1.180425
 20
3.865772
  0
VERTEX
  8
PLAN_1
 62
     2
  6
CONTINUOUS
 10
-1.177878
 20
3.865772
  0
VERTEX
  8
PLAN_1
 62
     2
  6
CONTINUOUS
 10
-1.173295
 20
3.865772
  0
VERTEX
  8
PLAN_1
 62
     2
  6
CONTINUOUS
 10
-1.169224
 20
3.864244
  0
VERTEX
  8
PLAN_1
 62
     2
  6
CONTINUOUS
 10
-1.165150
 20
3.862717
  0
VERTEX
  8
PLAN_1
 62
     2
  6
CONTINUOUS
 10
-1.161587
 20
3.859661
  0
VERTEX
  8
PLAN_1
 62
     2
  6
CONTINUOUS
 10
-1.158531
 20
3.856606
  0
VERTEX
  8
PLAN_1
 62
     2
  6
CONTINUOUS
 10
-1.155984
 20
3.852535
  0
VERTEX
  8
PLAN_1
 62
     2
  6
CONTINUOUS
 10
-1.154965
 20
3.850496
  0
VERTEX
  8
PLAN_1
 62
     2
  6
CONTINUOUS
 10
-1.154457
 20
3.847953
  0
VERTEX
  8
PLAN_1
 62
     2
  6
CONTINUOUS
 10
-1.153949
 20
3.845406
  0
VERTEX
  8
PLAN_1
 62
     2
  6
CONTINUOUS
 10
-1.153949
 20
3.842350
  0
VERTEX
  8
PLAN_1
 62
     2
  6
CONTINUOUS
 10
-1.153949
 20
3.839295
  0
VERTEX
  8
PLAN_1
 62
     2
  6
CONTINUOUS
 10
-1.154965
 20
3.835220
  0
VERTEX
  8
PLAN_1
 62
     2
  6
CONTINUOUS
 10
-1.156492
 20
3.830638
  0
VERTEX
  8
PLAN_1
 62
     2
  6
CONTINUOUS
 10
-1.158531
 20
3.826567
  0
VERTEX
  8
PLAN_1
 62
     2
  6
CONTINUOUS
 10
-1.160059
 20
3.824531
  0
VERTEX
  8
PLAN_1
 62
     2
  6
CONTINUOUS
 10
-1.162094
 20
3.823004
  0
VERTEX
  8
PLAN_1
 62
     2
  6
CONTINUOUS
 10
-1.164130
 20
3.820965
  0
VERTEX
  8
PLAN_1
 62
     2
  6
CONTINUOUS
 10
-1.166677
 20
3.819437
  0
VERTEX
  8
PLAN_1
 62
     2
  6
CONTINUOUS
 10
-1.169732
 20
3.818421
  0
VERTEX
  8
PLAN_1
 62
     2
  6
CONTINUOUS
 10
-1.172787
 20
3.817402
  0
VERTEX
  8
PLAN_1
 62
     2
  6
CONTINUOUS
 10
-1.176350
 20
3.816894
  0
VERTEX
  8
PLAN_1
 62
     2
  6
CONTINUOUS
 10
-1.180425
 20
3.816894
  0
VERTEX
  8
PLAN_1
 62
     2
  6
CONTINUOUS
 10
-1.183988
 20
3.816894
  0
VERTEX
  8
PLAN_1
 62
     2
  6
CONTINUOUS
 10
-1.188063
 20
3.817909
  0
VERTEX
  8
PLAN_1
 62
     2
  6
CONTINUOUS
 10
-1.191626
 20
3.818929
  0
VERTEX
  8
PLAN_1
 62
     2
  6
CONTINUOUS
 10
-1.195189
 20
3.820965
  0
VERTEX
  8
PLAN_1
 62
     2
  6
CONTINUOUS
 10
-1.198244
 20
3.823512
  0
VERTEX
  8
PLAN_1
 62
     2
  6
CONTINUOUS
 10
-1.200791
 20
3.827075
  0
VERTEX
  8
PLAN_1
 62
     2
  6
CONTINUOUS
 10
-1.201807
 20
3.829110
  0
VERTEX
  8
PLAN_1
 62
     2
  6
CONTINUOUS
 10
-1.202827
 20
3.831657
  0
VERTEX
  8
PLAN_1
 62
     2
  6
CONTINUOUS
 10
-1.203846
 20
3.834205
  0
VERTEX
  8
PLAN_1
 62
     2
  6
CONTINUOUS
 10
-1.203846
 20
3.836748
  0
VERTEX
  8
PLAN_1
 62
     2
  6
CONTINUOUS
 10
-1.194681
 20
3.836748
  0
VERTEX
  8
PLAN_1
 62
     2
  6
CONTINUOUS
 10
-1.194173
 20
3.834205
  0
VERTEX
  8
PLAN_1
 62
     2
  6
CONTINUOUS
 10
-1.193154
 20
3.831657
  0
VERTEX
  8
PLAN_1
 62
     2
  6
CONTINUOUS
 10
-1.191626
 20
3.829110
  0
VERTEX
  8
PLAN_1
 62
     2
  6
CONTINUOUS
 10
-1.189591
 20
3.827587
  0
VERTEX
  8
PLAN_1
 62
     2
  6
CONTINUOUS
 10
-1.187551
 20
3.826567
  0
VERTEX
  8
PLAN_1
 62
     2
  6
CONTINUOUS
 10
-1.185008
 20
3.825547
  0
VERTEX
  8
PLAN_1
 62
     2
  6
CONTINUOUS
 10
-1.181953
 20
3.825039
  0
VERTEX
  8
PLAN_1
 62
     2
  6
CONTINUOUS
 10
-1.178898
 20
3.824531
  0
VERTEX
  8
PLAN_1
 62
     2
  6
CONTINUOUS
 10
-1.175843
 20
3.825039
  0
VERTEX
  8
PLAN_1
 62
     2
  6
CONTINUOUS
 10
-1.172787
 20
3.826059
  0
VERTEX
  8
PLAN_1
 62
     2
  6
CONTINUOUS
 10
-1.170240
 20
3.827587
  0
VERTEX
  8
PLAN_1
 62
     2
  6
CONTINUOUS
 10
-1.167697
 20
3.829622
  0
VERTEX
  8
PLAN_1
 62
     2
  6
CONTINUOUS
 10
-1.166169
 20
3.832165
  0
VERTEX
  8
PLAN_1
 62
     2
  6
CONTINUOUS
 10
-1.164642
 20
3.835220
  0
VERTEX
  8
PLAN_1
 62
     2
  6
CONTINUOUS
 10
-1.164130
 20
3.838276
  0
VERTEX
  8
PLAN_1
 62
     2
  6
CONTINUOUS
 10
-1.163622
 20
3.841331
  0
VERTEX
  8
PLAN_1
 62
     2
  6
CONTINUOUS
 10
-1.164130
 20
3.845406
  0
VERTEX
  8
PLAN_1
 62
     2
  6
CONTINUOUS
 10
-1.165150
 20
3.848461
  0
VERTEX
  8
PLAN_1
 62
     2
  6
CONTINUOUS
 10
-1.166677
 20
3.851008
  0
VERTEX
  8
PLAN_1
 62
     2
  6
CONTINUOUS
 10
-1.168205
 20
3.853551
  0
VERTEX
  8
PLAN_1
 62
     2
  6
CONTINUOUS
 10
-1.170752
 20
3.855079
  0
VERTEX
  8
PLAN_1
 62
     2
  6
CONTINUOUS
 10
-1.173807
 20
3.856606
  0
VERTEX
  8
PLAN_1
 62
     2
  6
CONTINUOUS
 10
-1.176858
 20
3.857626
  0
VERTEX
  8
PLAN_1
 62
     2
  6
CONTINUOUS
 10
-1.179913
 20
3.857626
  0
VERTEX
  8
PLAN_1
 62
     2
  6
CONTINUOUS
 10
-1.181953
 20
3.857626
  0
VERTEX
  8
PLAN_1
 62
     2
  6
CONTINUOUS
 10
-1.183988
 20
3.857114
  0
VERTEX
  8
PLAN_1
 62
     2
  6
CONTINUOUS
 10
-1.185516
 20
3.856606
  0
VERTEX
  8
PLAN_1
 62
     2
  6
CONTINUOUS
 10
-1.187551
 20
3.856098
  0
VERTEX
  8
PLAN_1
 62
     2
  6
CONTINUOUS
 10
-1.189079
 20
3.855079
  0
VERTEX
  8
PLAN_1
 62
     2
  6
CONTINUOUS
 10
-1.190606
 20
3.853551
  0
VERTEX
  8
PLAN_1
 62
     2
  6
CONTINUOUS
 10
-1.192134
 20
3.852535
  0
VERTEX
  8
PLAN_1
 62
     2
  6
CONTINUOUS
 10
-1.193661
 20
3.850496
  0
VERTEX
  8
PLAN_1
 62
     2
  6
CONTINUOUS
 10
-1.201299
 20
3.851008
  0
VERTEX
  8
PLAN_1
 62
     2
  6
CONTINUOUS
 10
-1.195701
 20
3.890213
  0
VERTEX
  8
PLAN_1
 62
     2
  6
CONTINUOUS
 10
-1.158020
 20
3.890213
  0
VERTEX
  8
PLAN_1
 62
     2
  6
CONTINUOUS
 10
-1.158020
 20
3.881555
  0
VERTEX
  8
PLAN_1
 62
     2
  6
CONTINUOUS
 10
-1.189079
 20
3.881555
  0
VERTEX
  8
PLAN_1
 62
     2
  6
CONTINUOUS
 10
-1.192134
 20
3.861189
  0
SEQEND
  8
0
  0
POLYLINE
  8
PLAN_1
 62
     2
  6
CONTINUOUS
 66
     1
 40
0.004071
 41
0.004071
  0
VERTEX
  8
PLAN_1
 62
     2
  6
CONTINUOUS
 10
-1.284803
 20
3.818929
  0
VERTEX
  8
PLAN_1
 62
     2
  6
CONTINUOUS
 10
-1.284803
 20
3.640213
  0
SEQEND
  8
0
  0
POLYLINE
  8
PLAN_1
 62
     2
  6
CONTINUOUS
 66
     1
 40
0.004071
 41
0.004071
  0
VERTEX
  8
PLAN_1
 62
     2
  6
CONTINUOUS
 10
-1.082665
 20
3.818929
  0
VERTEX
  8
PLAN_1
 62
     2
  6
CONTINUOUS
 10
-1.082665
 20
3.640213
  0
SEQEND
  8
0
  0
POLYLINE
  8
PLAN_1
 62
     2
  6
CONTINUOUS
 66
     1
 40
0.004071
 41
0.004071
  0
VERTEX
  8
PLAN_1
 62
     2
  6
CONTINUOUS
 10
-0.513933
 20
3.677382
  0
VERTEX
  8
PLAN_1
 62
     2
  6
CONTINUOUS
 10
-0.513933
 20
3.999681
  0
SEQEND
  8
0
  0
POLYLINE
  8
PLAN_1
 62
     2
  6
CONTINUOUS
 66
     1
 40
0.004071
 41
0.004071
  0
VERTEX
  8
PLAN_1
 62
     2
  6
CONTINUOUS
 10
-1.183480
 20
3.913634
  0
VERTEX
  8
PLAN_1
 62
     2
  6
CONTINUOUS
 10
-1.183480
 20
3.999681
  0
SEQEND
  8
0
  0
POLYLINE
  8
PLAN_1
 62
     2
  6
CONTINUOUS
 66
     1
 40
0.004071
 41
0.004071
  0
VERTEX
  8
PLAN_1
 62
     2
  6
CONTINUOUS
 10
-1.183480
 20
3.607626
  0
VERTEX
  8
PLAN_1
 62
     2
  6
CONTINUOUS
 10
-1.183480
 20
3.770559
  0
SEQEND
  8
0
  0
SOLID
  8
PLAN_1
 62
     2
 10
-0.513933
 20
3.976260
 11
-0.572996
 21
3.992043
 12
-0.513933
 22
3.976260
 13
-0.572996
 23
3.960476
  0
POLYLINE
  8
PLAN_1
 62
     2
  6
CONTINUOUS
 66
     1
 40
0.003000
 41
0.003000
  0
VERTEX
  8
PLAN_1
 62
     2
  6
CONTINUOUS
 10
-0.513933
 20
3.976260
  0
VERTEX
  8
PLAN_1
 62
     2
  6
CONTINUOUS
 10
-0.572996
 20
3.992043
  0
VERTEX
  8
PLAN_1
 62
     2
  6
CONTINUOUS
 10
-0.572996
 20
3.960476
  0
VERTEX
  8
PLAN_1
 62
     2
  6
CONTINUOUS
 10
-0.513933
 20
3.976260
  0
SEQEND
  8
0
  0
POLYLINE
  8
PLAN_1
 62
     2
  6
CONTINUOUS
 66
     1
 40
0.003000
 41
0.003000
  0
VERTEX
  8
PLAN_1
 62
     2
  6
CONTINUOUS
 10
-0.869327
 20
3.999681
  0
VERTEX
  8
PLAN_1
 62
     2
  6
CONTINUOUS
 10
-0.879000
 20
3.999681
  0
VERTEX
  8
PLAN_1
 62
     2
  6
CONTINUOUS
 10
-0.879000
 20
4.051614
  0
VERTEX
  8
PLAN_1
 62
     2
  6
CONTINUOUS
 10
-0.896311
 20
4.051614
  0
VERTEX
  8
PLAN_1
 62
     2
  6
CONTINUOUS
 10
-0.896311
 20
4.059252
  0
VERTEX
  8
PLAN_1
 62
     2
  6
CONTINUOUS
 10
-0.892240
 20
4.059252
  0
VERTEX
  8
PLAN_1
 62
     2
  6
CONTINUOUS
 10
-0.888677
 20
4.059764
  0
VERTEX
  8
PLAN_1
 62
     2
  6
CONTINUOUS
 10
-0.885622
 20
4.060780
  0
VERTEX
  8
PLAN_1
 62
     2
  6
CONTINUOUS
 10
-0.883075
 20
4.061799
  0
VERTEX
  8
PLAN_1
 62
     2
  6
CONTINUOUS
 10
-0.881039
 20
4.063327
  0
VERTEX
  8
PLAN_1
 62
     2
  6
CONTINUOUS
 10
-0.879000
 20
4.065870
  0
VERTEX
  8
PLAN_1
 62
     2
  6
CONTINUOUS
 10
-0.877984
 20
4.068925
  0
VERTEX
  8
PLAN_1
 62
     2
  6
CONTINUOUS
 10
-0.876457
 20
4.073000
  0
VERTEX
  8
PLAN_1
 62
     2
  6
CONTINUOUS
 10
-0.869327
 20
4.073000
  0
VERTEX
  8
PLAN_1
 62
     2
  6
CONTINUOUS
 10
-0.869327
 20
3.999681
  0
SEQEND
  8
0
  0
POLYLINE
  8
PLAN_1
 62
     2
  6
CONTINUOUS
 66
     1
 40
0.003000
 41
0.003000
  0
VERTEX
  8
PLAN_1
 62
     2
  6
CONTINUOUS
 10
-0.844886
 20
4.071472
  0
VERTEX
  8
PLAN_1
 62
     2
  6
CONTINUOUS
 10
-0.794480
 20
4.071472
  0
VERTEX
  8
PLAN_1
 62
     2
  6
CONTINUOUS
 10
-0.794480
 20
4.063327
  0
VERTEX
  8
PLAN_1
 62
     2
  6
CONTINUOUS
 10
-0.797535
 20
4.059764
  0
VERTEX
  8
PLAN_1
 62
     2
  6
CONTINUOUS
 10
-0.801610
 20
4.054669
  0
VERTEX
  8
PLAN_1
 62
     2
  6
CONTINUOUS
 10
-0.805681
 20
4.048559
  0
VERTEX
  8
PLAN_1
 62
     2
  6
CONTINUOUS
 10
-0.810264
 20
4.040921
  0
VERTEX
  8
PLAN_1
 62
     2
  6
CONTINUOUS
 10
-0.814339
 20
4.032268
  0
VERTEX
  8
PLAN_1
 62
     2
  6
CONTINUOUS
 10
-0.818409
 20
4.022594
  0
VERTEX
  8
PLAN_1
 62
     2
  6
CONTINUOUS
 10
-0.820449
 20
4.016992
  0
VERTEX
  8
PLAN_1
 62
     2
  6
CONTINUOUS
 10
-0.821976
 20
4.011902
  0
VERTEX
  8
PLAN_1
 62
     2
  6
CONTINUOUS
 10
-0.823504
 20
4.005791
  0
VERTEX
  8
PLAN_1
 62
     2
  6
CONTINUOUS
 10
-0.824520
 20
3.999681
  0
VERTEX
  8
PLAN_1
 62
     2
  6
CONTINUOUS
 10
-0.834705
 20
3.999681
  0
VERTEX
  8
PLAN_1
 62
     2
  6
CONTINUOUS
 10
-0.833177
 20
4.007827
  0
VERTEX
  8
PLAN_1
 62
     2
  6
CONTINUOUS
 10
-0.830630
 20
4.015972
  0
VERTEX
  8
PLAN_1
 62
     2
  6
CONTINUOUS
 10
-0.827575
 20
4.024122
  0
VERTEX
  8
PLAN_1
 62
     2
  6
CONTINUOUS
 10
-0.824012
 20
4.032776
  0
VERTEX
  8
PLAN_1
 62
     2
  6
CONTINUOUS
 10
-0.819429
 20
4.040921
  0
VERTEX
  8
PLAN_1
 62
     2
  6
CONTINUOUS
 10
-0.814846
 20
4.048559
  0
VERTEX
  8
PLAN_1
 62
     2
  6
CONTINUOUS
 10
-0.809756
 20
4.055689
  0
VERTEX
  8
PLAN_1
 62
     2
  6
CONTINUOUS
 10
-0.804665
 20
4.062307
  0
VERTEX
  8
PLAN_1
 62
     2
  6
CONTINUOUS
 10
-0.844886
 20
4.062307
  0
VERTEX
  8
PLAN_1
 62
     2
  6
CONTINUOUS
 10
-0.844886
 20
4.071472
  0
SEQEND
  8
0
  0
POLYLINE
  8
PLAN_1
 62
     2
  6
CONTINUOUS
 66
     1
 40
0.004071
 41
0.004071
  0
VERTEX
  8
PLAN_1
 62
     2
  6
CONTINUOUS
 10
-0.337764
 20
-1.160150
  0
VERTEX
  8
PLAN_1
 62
     2
  6
CONTINUOUS
 10
-0.477276
 20
-1.160150
  0
SEQEND
  8
0
  0
POLYLINE
  8
PLAN_1
 62
     2
  6
CONTINUOUS
 66
     1
 40
0.004071
 41
0.004071
  0
VERTEX
  8
PLAN_1
 62
     2
  6
CONTINUOUS
 10
-0.337764
 20
3.640213
  0
VERTEX
  8
PLAN_1
 62
     2
  6
CONTINUOUS
 10
-1.058736
 20
3.640213
  0
SEQEND
  8
0
  0
POLYLINE
  8
PLAN_1
 62
     2
  6
CONTINUOUS
 66
     1
 40
0.004071
 41
0.004071
  0
VERTEX
  8
PLAN_1
 62
     2
  6
CONTINUOUS
 10
-0.513933
 20
3.611701
  0
VERTEX
  8
PLAN_1
 62
     2
  6
CONTINUOUS
 10
-0.513933
 20
2.013445
  0
SEQEND
  8
0
  0
ENDSEC
  0
EOF
