  0
SECTION
  2
HEADER
  9
$ACADVER
  1
AC1006
  9
$EXTMIN
 10
-2.475000
 20
-4.698264
  9
$EXTMAX
 10
2.479000
 20
4.701000
  9
$LTSCALE
 40
0.000394
  9
$PDMODE
 70
    35
  9
$PDSIZE
 40
0.000315
  0
ENDSEC
  0
SECTION
  2
TABLES
  0
TABLE
  2
LTYPE
 70
     9
  0
LTYPE
  2
CONTINUOUS
 70
    64
  3
Solid line
 72
    65
 73
     0
 40
0.000000
  0
LTYPE
  2
DASHED
 70
    64
  3
__ __ __ __ __ __ __ __ __ __ __ __ __ __ __
 72
    65
 73
     2
 40
0.000003
 49
0.000002
 49
-0.000001
  0
LTYPE
  2
HIDDEN
 70
    64
  3
 _ _ _ _ _ _ _ _ _ _ _ _ _ _ _ _ _ _ _ _ _ _
 72
    65
 73
     2
 40
0.000001
 49
0.000001
 49
-0.000000
  0
LTYPE
  2
CENTER
 70
    64
  3
____ _ ____ _ ____ _ ____ _ ____ _ ____ _ ____
 72
    65
 73
     4
 40
0.000008
 49
0.000005
 49
-0.000001
 49
0.000001
 49
-0.000001
  0
LTYPE
  2
PHANTOM
 70
    64
  3
_____ _ _ _____ _ _ _____ _ _ _____ _ _ ____
 72
    65
 73
     6
 40
0.000010
 49
0.000005
 49
-0.000001
 49
0.000001
 49
-0.000001
 49
0.000001
 49
-0.000001
  0
LTYPE
  2
DOT
 70
    64
  3
...............................................
 72
    65
 73
     2
 40
0.000001
 49
0.000000
 49
-0.000001
  0
LTYPE
  2
DASHDOT
 70
    64
  3
__ . __ . __ . __ . __ . __ . __ . __ . __ . __
 72
    65
 73
     4
 40
0.000004
 49
0.000002
 49
-0.000001
 49
0.000000
 49
-0.000001
  0
LTYPE
  2
BORDER
 70
    64
  3
__ __ . __ __ . __ __ . __ __ . __ __ . __ __
 72
    65
 73
     6
 40
0.000007
 49
0.000002
 49
-0.000001
 49
0.000002
 49
-0.000001
 49
0.000000
 49
-0.000001
  0
LTYPE
  2
DIVIDE
 70
    64
  3
__ . . __ . . __ . . __ . . __ . . __ . . __
 72
    65
 73
     6
 40
0.000005
 49
0.000002
 49
-0.000001
 49
0.000000
 49
-0.000001
 49
0.000000
 49
-0.000001
  0
LTYPE
  2
DOTDOT
 70
    64
  3
 . .  . .  . .  . .  . .  . . 
 72
    65
 73
     5
 40
0.000002
 49
-0.000001
 49
0.000000
 49
-0.000001
 49
0.000000
 49
-0.000001
  0
ENDTAB
  0
TABLE
  2
STYLE
 70
     0
  0
ENDTAB
  0
TABLE
  2
LAYER
 70
     3
  0
LAYER
  2
FOREGROUND
 70
    64
 62
     7
  6
CONTINUOUS
  0
LAYER
  2
BACKGROUND
 70
    65
 62
    -7
  6
CONTINUOUS
  0
LAYER
  2
PLAN_1
 70
    64
 62
     7
  6
CONTINUOUS
  0
ENDTAB
  0
ENDSEC
  0
SECTION
  2
ENTITIES
  0
POLYLINE
  8
PLAN_1
  6
CONTINUOUS
 66
     1
 40
0.003000
 41
0.003000
  0
VERTEX
  8
PLAN_1
  6
CONTINUOUS
 10
0.507504
 20
-4.692976
  0
VERTEX
  8
PLAN_1
  6
CONTINUOUS
 10
0.474020
 20
-4.692976
  0
VERTEX
  8
PLAN_1
  6
CONTINUOUS
 10
0.420559
 20
-4.611323
  0
VERTEX
  8
PLAN_1
  6
CONTINUOUS
 10
0.365339
 20
-4.692976
  0
VERTEX
  8
PLAN_1
  6
CONTINUOUS
 10
0.332441
 20
-4.692976
  0
VERTEX
  8
PLAN_1
  6
CONTINUOUS
 10
0.404114
 20
-4.590760
  0
VERTEX
  8
PLAN_1
  6
CONTINUOUS
 10
0.337142
 20
-4.493831
  0
VERTEX
  8
PLAN_1
  6
CONTINUOUS
 10
0.371217
 20
-4.493831
  0
VERTEX
  8
PLAN_1
  6
CONTINUOUS
 10
0.421736
 20
-4.570201
  0
VERTEX
  8
PLAN_1
  6
CONTINUOUS
 10
0.472256
 20
-4.493831
  0
VERTEX
  8
PLAN_1
  6
CONTINUOUS
 10
0.503980
 20
-4.493831
  0
VERTEX
  8
PLAN_1
  6
CONTINUOUS
 10
0.437598
 20
-4.590760
  0
VERTEX
  8
PLAN_1
  6
CONTINUOUS
 10
0.507504
 20
-4.692976
  0
SEQEND
  8
0
  0
POLYLINE
  8
PLAN_1
  6
CONTINUOUS
 66
     1
 40
0.003000
 41
0.003000
  0
VERTEX
  8
PLAN_1
  6
CONTINUOUS
 10
0.673752
 20
-4.553752
  0
VERTEX
  8
PLAN_1
  6
CONTINUOUS
 10
0.671992
 20
-4.547287
  0
VERTEX
  8
PLAN_1
  6
CONTINUOUS
 10
0.669642
 20
-4.542004
  0
VERTEX
  8
PLAN_1
  6
CONTINUOUS
 10
0.667291
 20
-4.536717
  0
VERTEX
  8
PLAN_1
  6
CONTINUOUS
 10
0.664354
 20
-4.532602
  0
VERTEX
  8
PLAN_1
  6
CONTINUOUS
 10
0.661417
 20
-4.528492
  0
VERTEX
  8
PLAN_1
  6
CONTINUOUS
 10
0.657894
 20
-4.524965
  0
VERTEX
  8
PLAN_1
  6
CONTINUOUS
 10
0.653780
 20
-4.522028
  0
VERTEX
  8
PLAN_1
  6
CONTINUOUS
 10
0.650256
 20
-4.519677
  0
VERTEX
  8
PLAN_1
  6
CONTINUOUS
 10
0.646142
 20
-4.517917
  0
VERTEX
  8
PLAN_1
  6
CONTINUOUS
 10
0.642031
 20
-4.516154
  0
VERTEX
  8
PLAN_1
  6
CONTINUOUS
 10
0.637917
 20
-4.514980
  0
VERTEX
  8
PLAN_1
  6
CONTINUOUS
 10
0.633807
 20
-4.513803
  0
VERTEX
  8
PLAN_1
  6
CONTINUOUS
 10
0.625583
 20
-4.512630
  0
VERTEX
  8
PLAN_1
  6
CONTINUOUS
 10
0.617945
 20
-4.512043
  0
VERTEX
  8
PLAN_1
  6
CONTINUOUS
 10
0.610898
 20
-4.512630
  0
VERTEX
  8
PLAN_1
  6
CONTINUOUS
 10
0.604433
 20
-4.513803
  0
VERTEX
  8
PLAN_1
  6
CONTINUOUS
 10
0.598559
 20
-4.514980
  0
VERTEX
  8
PLAN_1
  6
CONTINUOUS
 10
0.592685
 20
-4.517331
  0
VERTEX
  8
PLAN_1
  6
CONTINUOUS
 10
0.586811
 20
-4.520268
  0
VERTEX
  8
PLAN_1
  6
CONTINUOUS
 10
0.581524
 20
-4.523205
  0
VERTEX
  8
PLAN_1
  6
CONTINUOUS
 10
0.576236
 20
-4.527315
  0
VERTEX
  8
PLAN_1
  6
CONTINUOUS
 10
0.571535
 20
-4.532016
  0
VERTEX
  8
PLAN_1
  6
CONTINUOUS
 10
0.567425
 20
-4.537303
  0
VERTEX
  8
PLAN_1
  6
CONTINUOUS
 10
0.563902
 20
-4.543177
  0
VERTEX
  8
PLAN_1
  6
CONTINUOUS
 10
0.560374
 20
-4.549638
  0
VERTEX
  8
PLAN_1
  6
CONTINUOUS
 10
0.558024
 20
-4.556689
  0
VERTEX
  8
PLAN_1
  6
CONTINUOUS
 10
0.555677
 20
-4.564327
  0
VERTEX
  8
PLAN_1
  6
CONTINUOUS
 10
0.553913
 20
-4.573138
  0
VERTEX
  8
PLAN_1
  6
CONTINUOUS
 10
0.552736
 20
-4.581949
  0
VERTEX
  8
PLAN_1
  6
CONTINUOUS
 10
0.552736
 20
-4.591346
  0
VERTEX
  8
PLAN_1
  6
CONTINUOUS
 10
0.552736
 20
-4.600161
  0
VERTEX
  8
PLAN_1
  6
CONTINUOUS
 10
0.553327
 20
-4.608386
  0
VERTEX
  8
PLAN_1
  6
CONTINUOUS
 10
0.554500
 20
-4.616610
  0
VERTEX
  8
PLAN_1
  6
CONTINUOUS
 10
0.556264
 20
-4.624244
  0
VERTEX
  8
PLAN_1
  6
CONTINUOUS
 10
0.558024
 20
-4.631295
  0
VERTEX
  8
PLAN_1
  6
CONTINUOUS
 10
0.560374
 20
-4.638343
  0
VERTEX
  8
PLAN_1
  6
CONTINUOUS
 10
0.563311
 20
-4.644807
  0
VERTEX
  8
PLAN_1
  6
CONTINUOUS
 10
0.567425
 20
-4.650681
  0
VERTEX
  8
PLAN_1
  6
CONTINUOUS
 10
0.571535
 20
-4.655969
  0
VERTEX
  8
PLAN_1
  6
CONTINUOUS
 10
0.576236
 20
-4.660669
  0
VERTEX
  8
PLAN_1
  6
CONTINUOUS
 10
0.581524
 20
-4.664780
  0
VERTEX
  8
PLAN_1
  6
CONTINUOUS
 10
0.587398
 20
-4.668303
  0
VERTEX
  8
PLAN_1
  6
CONTINUOUS
 10
0.594449
 20
-4.670654
  0
VERTEX
  8
PLAN_1
  6
CONTINUOUS
 10
0.601496
 20
-4.673004
  0
VERTEX
  8
PLAN_1
  6
CONTINUOUS
 10
0.609720
 20
-4.674181
  0
VERTEX
  8
PLAN_1
  6
CONTINUOUS
 10
0.618531
 20
-4.674181
  0
VERTEX
  8
PLAN_1
  6
CONTINUOUS
 10
0.625583
 20
-4.674181
  0
VERTEX
  8
PLAN_1
  6
CONTINUOUS
 10
0.633807
 20
-4.672417
  0
VERTEX
  8
PLAN_1
  6
CONTINUOUS
 10
0.637917
 20
-4.671240
  0
VERTEX
  8
PLAN_1
  6
CONTINUOUS
 10
0.642031
 20
-4.669480
  0
VERTEX
  8
PLAN_1
  6
CONTINUOUS
 10
0.646142
 20
-4.667130
  0
VERTEX
  8
PLAN_1
  6
CONTINUOUS
 10
0.650256
 20
-4.664193
  0
VERTEX
  8
PLAN_1
  6
CONTINUOUS
 10
0.654366
 20
-4.661256
  0
VERTEX
  8
PLAN_1
  6
CONTINUOUS
 10
0.657894
 20
-4.657142
  0
VERTEX
  8
PLAN_1
  6
CONTINUOUS
 10
0.662004
 20
-4.653031
  0
VERTEX
  8
PLAN_1
  6
CONTINUOUS
 10
0.665528
 20
-4.647744
  0
VERTEX
  8
PLAN_1
  6
CONTINUOUS
 10
0.668469
 20
-4.641870
  0
VERTEX
  8
PLAN_1
  6
CONTINUOUS
 10
0.671406
 20
-4.635406
  0
VERTEX
  8
PLAN_1
  6
CONTINUOUS
 10
0.673752
 20
-4.627772
  0
VERTEX
  8
PLAN_1
  6
CONTINUOUS
 10
0.675516
 20
-4.619547
  0
VERTEX
  8
PLAN_1
  6
CONTINUOUS
 10
0.701953
 20
-4.619547
  0
VERTEX
  8
PLAN_1
  6
CONTINUOUS
 10
0.700776
 20
-4.626594
  0
VERTEX
  8
PLAN_1
  6
CONTINUOUS
 10
0.699016
 20
-4.633059
  0
VERTEX
  8
PLAN_1
  6
CONTINUOUS
 10
0.697252
 20
-4.638933
  0
VERTEX
  8
PLAN_1
  6
CONTINUOUS
 10
0.695488
 20
-4.644807
  0
VERTEX
  8
PLAN_1
  6
CONTINUOUS
 10
0.693138
 20
-4.650094
  0
VERTEX
  8
PLAN_1
  6
CONTINUOUS
 10
0.690791
 20
-4.654791
  0
VERTEX
  8
PLAN_1
  6
CONTINUOUS
 10
0.688441
 20
-4.659492
  0
VERTEX
  8
PLAN_1
  6
CONTINUOUS
 10
0.685504
 20
-4.663606
  0
VERTEX
  8
PLAN_1
  6
CONTINUOUS
 10
0.679630
 20
-4.671240
  0
VERTEX
  8
PLAN_1
  6
CONTINUOUS
 10
0.673165
 20
-4.677705
  0
VERTEX
  8
PLAN_1
  6
CONTINUOUS
 10
0.666705
 20
-4.682992
  0
VERTEX
  8
PLAN_1
  6
CONTINUOUS
 10
0.659654
 20
-4.687102
  0
VERTEX
  8
PLAN_1
  6
CONTINUOUS
 10
0.652606
 20
-4.690626
  0
VERTEX
  8
PLAN_1
  6
CONTINUOUS
 10
0.645555
 20
-4.692976
  0
VERTEX
  8
PLAN_1
  6
CONTINUOUS
 10
0.639094
 20
-4.695327
  0
VERTEX
  8
PLAN_1
  6
CONTINUOUS
 10
0.632634
 20
-4.696504
  0
VERTEX
  8
PLAN_1
  6
CONTINUOUS
 10
0.622059
 20
-4.698264
  0
VERTEX
  8
PLAN_1
  6
CONTINUOUS
 10
0.614421
 20
-4.698264
  0
VERTEX
  8
PLAN_1
  6
CONTINUOUS
 10
0.606197
 20
-4.697677
  0
VERTEX
  8
PLAN_1
  6
CONTINUOUS
 10
0.597972
 20
-4.697091
  0
VERTEX
  8
PLAN_1
  6
CONTINUOUS
 10
0.589161
 20
-4.695327
  0
VERTEX
  8
PLAN_1
  6
CONTINUOUS
 10
0.581524
 20
-4.692390
  0
VERTEX
  8
PLAN_1
  6
CONTINUOUS
 10
0.573886
 20
-4.688866
  0
VERTEX
  8
PLAN_1
  6
CONTINUOUS
 10
0.566248
 20
-4.684752
  0
VERTEX
  8
PLAN_1
  6
CONTINUOUS
 10
0.559201
 20
-4.680055
  0
VERTEX
  8
PLAN_1
  6
CONTINUOUS
 10
0.552736
 20
-4.674181
  0
VERTEX
  8
PLAN_1
  6
CONTINUOUS
 10
0.546862
 20
-4.667130
  0
VERTEX
  8
PLAN_1
  6
CONTINUOUS
 10
0.541575
 20
-4.659492
  0
VERTEX
  8
PLAN_1
  6
CONTINUOUS
 10
0.536291
 20
-4.650681
  0
VERTEX
  8
PLAN_1
  6
CONTINUOUS
 10
0.532764
 20
-4.641283
  0
VERTEX
  8
PLAN_1
  6
CONTINUOUS
 10
0.529240
 20
-4.630709
  0
VERTEX
  8
PLAN_1
  6
CONTINUOUS
 10
0.526890
 20
-4.618957
  0
VERTEX
  8
PLAN_1
  6
CONTINUOUS
 10
0.525126
 20
-4.606035
  0
VERTEX
  8
PLAN_1
  6
CONTINUOUS
 10
0.525126
 20
-4.591937
  0
VERTEX
  8
PLAN_1
  6
CONTINUOUS
 10
0.525126
 20
-4.580776
  0
VERTEX
  8
PLAN_1
  6
CONTINUOUS
 10
0.526303
 20
-4.570201
  0
VERTEX
  8
PLAN_1
  6
CONTINUOUS
 10
0.528654
 20
-4.559626
  0
VERTEX
  8
PLAN_1
  6
CONTINUOUS
 10
0.531004
 20
-4.550224
  0
VERTEX
  8
PLAN_1
  6
CONTINUOUS
 10
0.534528
 20
-4.540827
  0
VERTEX
  8
PLAN_1
  6
CONTINUOUS
 10
0.539228
 20
-4.532602
  0
VERTEX
  8
PLAN_1
  6
CONTINUOUS
 10
0.543925
 20
-4.524378
  0
VERTEX
  8
PLAN_1
  6
CONTINUOUS
 10
0.549799
 20
-4.517331
  0
VERTEX
  8
PLAN_1
  6
CONTINUOUS
 10
0.555677
 20
-4.510866
  0
VERTEX
  8
PLAN_1
  6
CONTINUOUS
 10
0.562724
 20
-4.504992
  0
VERTEX
  8
PLAN_1
  6
CONTINUOUS
 10
0.570362
 20
-4.500291
  0
VERTEX
  8
PLAN_1
  6
CONTINUOUS
 10
0.578587
 20
-4.496181
  0
VERTEX
  8
PLAN_1
  6
CONTINUOUS
 10
0.587984
 20
-4.492657
  0
VERTEX
  8
PLAN_1
  6
CONTINUOUS
 10
0.597386
 20
-4.490307
  0
VERTEX
  8
PLAN_1
  6
CONTINUOUS
 10
0.607370
 20
-4.489130
  0
VERTEX
  8
PLAN_1
  6
CONTINUOUS
 10
0.617945
 20
-4.488543
  0
VERTEX
  8
PLAN_1
  6
CONTINUOUS
 10
0.627346
 20
-4.488543
  0
VERTEX
  8
PLAN_1
  6
CONTINUOUS
 10
0.636157
 20
-4.489720
  0
VERTEX
  8
PLAN_1
  6
CONTINUOUS
 10
0.644382
 20
-4.491480
  0
VERTEX
  8
PLAN_1
  6
CONTINUOUS
 10
0.652020
 20
-4.493831
  0
VERTEX
  8
PLAN_1
  6
CONTINUOUS
 10
0.659067
 20
-4.496768
  0
VERTEX
  8
PLAN_1
  6
CONTINUOUS
 10
0.665528
 20
-4.500291
  0
VERTEX
  8
PLAN_1
  6
CONTINUOUS
 10
0.671406
 20
-4.504406
  0
VERTEX
  8
PLAN_1
  6
CONTINUOUS
 10
0.676693
 20
-4.508516
  0
VERTEX
  8
PLAN_1
  6
CONTINUOUS
 10
0.681390
 20
-4.513217
  0
VERTEX
  8
PLAN_1
  6
CONTINUOUS
 10
0.685504
 20
-4.518504
  0
VERTEX
  8
PLAN_1
  6
CONTINUOUS
 10
0.689614
 20
-4.523791
  0
VERTEX
  8
PLAN_1
  6
CONTINUOUS
 10
0.692551
 20
-4.529665
  0
VERTEX
  8
PLAN_1
  6
CONTINUOUS
 10
0.694902
 20
-4.535539
  0
VERTEX
  8
PLAN_1
  6
CONTINUOUS
 10
0.697252
 20
-4.541413
  0
VERTEX
  8
PLAN_1
  6
CONTINUOUS
 10
0.699016
 20
-4.547287
  0
VERTEX
  8
PLAN_1
  6
CONTINUOUS
 10
0.699602
 20
-4.553752
  0
VERTEX
  8
PLAN_1
  6
CONTINUOUS
 10
0.673752
 20
-4.553752
  0
SEQEND
  8
0
  0
POLYLINE
  8
PLAN_1
  6
CONTINUOUS
 66
     1
 40
0.003000
 41
0.003000
  0
VERTEX
  8
PLAN_1
  6
CONTINUOUS
 10
0.761283
 20
-4.692976
  0
VERTEX
  8
PLAN_1
  6
CONTINUOUS
 10
0.734260
 20
-4.692976
  0
VERTEX
  8
PLAN_1
  6
CONTINUOUS
 10
0.734260
 20
-4.493831
  0
VERTEX
  8
PLAN_1
  6
CONTINUOUS
 10
0.761283
 20
-4.493831
  0
VERTEX
  8
PLAN_1
  6
CONTINUOUS
 10
0.761283
 20
-4.590173
  0
VERTEX
  8
PLAN_1
  6
CONTINUOUS
 10
0.857626
 20
-4.493831
  0
VERTEX
  8
PLAN_1
  6
CONTINUOUS
 10
0.895224
 20
-4.493831
  0
VERTEX
  8
PLAN_1
  6
CONTINUOUS
 10
0.811807
 20
-4.574311
  0
VERTEX
  8
PLAN_1
  6
CONTINUOUS
 10
0.896988
 20
-4.692976
  0
VERTEX
  8
PLAN_1
  6
CONTINUOUS
 10
0.862327
 20
-4.692976
  0
VERTEX
  8
PLAN_1
  6
CONTINUOUS
 10
0.792421
 20
-4.593110
  0
VERTEX
  8
PLAN_1
  6
CONTINUOUS
 10
0.761283
 20
-4.623071
  0
VERTEX
  8
PLAN_1
  6
CONTINUOUS
 10
0.761283
 20
-4.692976
  0
SEQEND
  8
0
  0
POLYLINE
  8
PLAN_1
  6
CONTINUOUS
 66
     1
 40
0.003000
 41
0.003000
  0
VERTEX
  8
PLAN_1
  6
CONTINUOUS
 10
0.928122
 20
-4.628945
  0
VERTEX
  8
PLAN_1
  6
CONTINUOUS
 10
0.928122
 20
-4.642457
  0
VERTEX
  8
PLAN_1
  6
CONTINUOUS
 10
0.928709
 20
-4.647157
  0
VERTEX
  8
PLAN_1
  6
CONTINUOUS
 10
0.928709
 20
-4.651268
  0
VERTEX
  8
PLAN_1
  6
CONTINUOUS
 10
0.929295
 20
-4.654791
  0
VERTEX
  8
PLAN_1
  6
CONTINUOUS
 10
0.930472
 20
-4.657732
  0
VERTEX
  8
PLAN_1
  6
CONTINUOUS
 10
0.931646
 20
-4.660669
  0
VERTEX
  8
PLAN_1
  6
CONTINUOUS
 10
0.932823
 20
-4.663606
  0
VERTEX
  8
PLAN_1
  6
CONTINUOUS
 10
0.934583
 20
-4.665957
  0
VERTEX
  8
PLAN_1
  6
CONTINUOUS
 10
0.936346
 20
-4.667717
  0
VERTEX
  8
PLAN_1
  6
CONTINUOUS
 10
0.938697
 20
-4.669480
  0
VERTEX
  8
PLAN_1
  6
CONTINUOUS
 10
0.940457
 20
-4.671240
  0
VERTEX
  8
PLAN_1
  6
CONTINUOUS
 10
0.943394
 20
-4.672417
  0
VERTEX
  8
PLAN_1
  6
CONTINUOUS
 10
0.945744
 20
-4.673591
  0
VERTEX
  8
PLAN_1
  6
CONTINUOUS
 10
0.951618
 20
-4.674768
  0
VERTEX
  8
PLAN_1
  6
CONTINUOUS
 10
0.958083
 20
-4.675354
  0
VERTEX
  8
PLAN_1
  6
CONTINUOUS
 10
0.962780
 20
-4.674768
  0
VERTEX
  8
PLAN_1
  6
CONTINUOUS
 10
0.966894
 20
-4.674768
  0
VERTEX
  8
PLAN_1
  6
CONTINUOUS
 10
0.970417
 20
-4.673591
  0
VERTEX
  8
PLAN_1
  6
CONTINUOUS
 10
0.973941
 20
-4.672417
  0
VERTEX
  8
PLAN_1
  6
CONTINUOUS
 10
0.976882
 20
-4.671240
  0
VERTEX
  8
PLAN_1
  6
CONTINUOUS
 10
0.979228
 20
-4.669480
  0
VERTEX
  8
PLAN_1
  6
CONTINUOUS
 10
0.981579
 20
-4.667717
  0
VERTEX
  8
PLAN_1
  6
CONTINUOUS
 10
0.983929
 20
-4.665366
  0
VERTEX
  8
PLAN_1
  6
CONTINUOUS
 10
0.985106
 20
-4.663016
  0
VERTEX
  8
PLAN_1
  6
CONTINUOUS
 10
0.986866
 20
-4.660079
  0
VERTEX
  8
PLAN_1
  6
CONTINUOUS
 10
0.988043
 20
-4.657142
  0
VERTEX
  8
PLAN_1
  6
CONTINUOUS
 10
0.988630
 20
-4.654205
  0
VERTEX
  8
PLAN_1
  6
CONTINUOUS
 10
0.989803
 20
-4.647744
  0
VERTEX
  8
PLAN_1
  6
CONTINUOUS
 10
0.990390
 20
-4.640693
  0
VERTEX
  8
PLAN_1
  6
CONTINUOUS
 10
0.990390
 20
-4.493831
  0
VERTEX
  8
PLAN_1
  6
CONTINUOUS
 10
1.017413
 20
-4.493831
  0
VERTEX
  8
PLAN_1
  6
CONTINUOUS
 10
1.017413
 20
-4.638933
  0
VERTEX
  8
PLAN_1
  6
CONTINUOUS
 10
1.016827
 20
-4.647744
  0
VERTEX
  8
PLAN_1
  6
CONTINUOUS
 10
1.015654
 20
-4.654791
  0
VERTEX
  8
PLAN_1
  6
CONTINUOUS
 10
1.014476
 20
-4.661843
  0
VERTEX
  8
PLAN_1
  6
CONTINUOUS
 10
1.012126
 20
-4.668303
  0
VERTEX
  8
PLAN_1
  6
CONTINUOUS
 10
1.009189
 20
-4.673591
  0
VERTEX
  8
PLAN_1
  6
CONTINUOUS
 10
1.006252
 20
-4.678291
  0
VERTEX
  8
PLAN_1
  6
CONTINUOUS
 10
1.002728
 20
-4.682402
  0
VERTEX
  8
PLAN_1
  6
CONTINUOUS
 10
0.998614
 20
-4.685929
  0
VERTEX
  8
PLAN_1
  6
CONTINUOUS
 10
0.994504
 20
-4.689453
  0
VERTEX
  8
PLAN_1
  6
CONTINUOUS
 10
0.989803
 20
-4.691803
  0
VERTEX
  8
PLAN_1
  6
CONTINUOUS
 10
0.985106
 20
-4.694154
  0
VERTEX
  8
PLAN_1
  6
CONTINUOUS
 10
0.979819
 20
-4.695327
  0
VERTEX
  8
PLAN_1
  6
CONTINUOUS
 10
0.975118
 20
-4.697091
  0
VERTEX
  8
PLAN_1
  6
CONTINUOUS
 10
0.969831
 20
-4.697677
  0
VERTEX
  8
PLAN_1
  6
CONTINUOUS
 10
0.964543
 20
-4.698264
  0
VERTEX
  8
PLAN_1
  6
CONTINUOUS
 10
0.959843
 20
-4.698264
  0
VERTEX
  8
PLAN_1
  6
CONTINUOUS
 10
0.951618
 20
-4.697677
  0
VERTEX
  8
PLAN_1
  6
CONTINUOUS
 10
0.943984
 20
-4.697091
  0
VERTEX
  8
PLAN_1
  6
CONTINUOUS
 10
0.937520
 20
-4.695327
  0
VERTEX
  8
PLAN_1
  6
CONTINUOUS
 10
0.931059
 20
-4.692976
  0
VERTEX
  8
PLAN_1
  6
CONTINUOUS
 10
0.925772
 20
-4.690626
  0
VERTEX
  8
PLAN_1
  6
CONTINUOUS
 10
0.921657
 20
-4.687689
  0
VERTEX
  8
PLAN_1
  6
CONTINUOUS
 10
0.917547
 20
-4.684165
  0
VERTEX
  8
PLAN_1
  6
CONTINUOUS
 10
0.914024
 20
-4.680642
  0
VERTEX
  8
PLAN_1
  6
CONTINUOUS
 10
0.911087
 20
-4.676528
  0
VERTEX
  8
PLAN_1
  6
CONTINUOUS
 10
0.908736
 20
-4.672417
  0
VERTEX
  8
PLAN_1
  6
CONTINUOUS
 10
0.906972
 20
-4.668303
  0
VERTEX
  8
PLAN_1
  6
CONTINUOUS
 10
0.905209
 20
-4.664193
  0
VERTEX
  8
PLAN_1
  6
CONTINUOUS
 10
0.903449
 20
-4.655969
  0
VERTEX
  8
PLAN_1
  6
CONTINUOUS
 10
0.902862
 20
-4.648331
  0
VERTEX
  8
PLAN_1
  6
CONTINUOUS
 10
0.902862
 20
-4.628945
  0
VERTEX
  8
PLAN_1
  6
CONTINUOUS
 10
0.928122
 20
-4.628945
  0
SEQEND
  8
0
  0
POLYLINE
  8
PLAN_1
  6
CONTINUOUS
 66
     1
 40
0.003000
 41
0.003000
  0
VERTEX
  8
PLAN_1
  6
CONTINUOUS
 10
1.221260
 20
-4.538476
  0
VERTEX
  8
PLAN_1
  6
CONTINUOUS
 10
1.240059
 20
-4.538476
  0
VERTEX
  8
PLAN_1
  6
CONTINUOUS
 10
1.235949
 20
-4.553165
  0
VERTEX
  8
PLAN_1
  6
CONTINUOUS
 10
1.231248
 20
-4.567850
  0
VERTEX
  8
PLAN_1
  6
CONTINUOUS
 10
1.227134
 20
-4.582535
  0
VERTEX
  8
PLAN_1
  6
CONTINUOUS
 10
1.223610
 20
-4.595461
  0
VERTEX
  8
PLAN_1
  6
CONTINUOUS
 10
1.220087
 20
-4.607209
  0
VERTEX
  8
PLAN_1
  6
CONTINUOUS
 10
1.217150
 20
-4.617197
  0
VERTEX
  8
PLAN_1
  6
CONTINUOUS
 10
1.215386
 20
-4.624835
  0
VERTEX
  8
PLAN_1
  6
CONTINUOUS
 10
1.214799
 20
-4.628945
  0
VERTEX
  8
PLAN_1
  6
CONTINUOUS
 10
1.214799
 20
-4.631295
  0
VERTEX
  8
PLAN_1
  6
CONTINUOUS
 10
1.215386
 20
-4.632469
  0
VERTEX
  8
PLAN_1
  6
CONTINUOUS
 10
1.215386
 20
-4.634232
  0
VERTEX
  8
PLAN_1
  6
CONTINUOUS
 10
1.215972
 20
-4.635406
  0
VERTEX
  8
PLAN_1
  6
CONTINUOUS
 10
1.217150
 20
-4.635996
  0
VERTEX
  8
PLAN_1
  6
CONTINUOUS
 10
1.217736
 20
-4.636583
  0
VERTEX
  8
PLAN_1
  6
CONTINUOUS
 10
1.219500
 20
-4.637169
  0
VERTEX
  8
PLAN_1
  6
CONTINUOUS
 10
1.220673
 20
-4.637169
  0
VERTEX
  8
PLAN_1
  6
CONTINUOUS
 10
1.224197
 20
-4.636583
  0
VERTEX
  8
PLAN_1
  6
CONTINUOUS
 10
1.227724
 20
-4.635996
  0
VERTEX
  8
PLAN_1
  6
CONTINUOUS
 10
1.231248
 20
-4.634232
  0
VERTEX
  8
PLAN_1
  6
CONTINUOUS
 10
1.234772
 20
-4.631882
  0
VERTEX
  8
PLAN_1
  6
CONTINUOUS
 10
1.238295
 20
-4.629531
  0
VERTEX
  8
PLAN_1
  6
CONTINUOUS
 10
1.241236
 20
-4.626008
  0
VERTEX
  8
PLAN_1
  6
CONTINUOUS
 10
1.244760
 20
-4.622484
  0
VERTEX
  8
PLAN_1
  6
CONTINUOUS
 10
1.247697
 20
-4.618370
  0
VERTEX
  8
PLAN_1
  6
CONTINUOUS
 10
1.250047
 20
-4.613673
  0
VERTEX
  8
PLAN_1
  6
CONTINUOUS
 10
1.252398
 20
-4.608972
  0
VERTEX
  8
PLAN_1
  6
CONTINUOUS
 10
1.254744
 20
-4.604272
  0
VERTEX
  8
PLAN_1
  6
CONTINUOUS
 10
1.256508
 20
-4.598984
  0
VERTEX
  8
PLAN_1
  6
CONTINUOUS
 10
1.258272
 20
-4.593697
  0
VERTEX
  8
PLAN_1
  6
CONTINUOUS
 10
1.259445
 20
-4.588409
  0
VERTEX
  8
PLAN_1
  6
CONTINUOUS
 10
1.260031
 20
-4.582535
  0
VERTEX
  8
PLAN_1
  6
CONTINUOUS
 10
1.260031
 20
-4.577248
  0
VERTEX
  8
PLAN_1
  6
CONTINUOUS
 10
1.260031
 20
-4.569024
  0
VERTEX
  8
PLAN_1
  6
CONTINUOUS
 10
1.258272
 20
-4.561390
  0
VERTEX
  8
PLAN_1
  6
CONTINUOUS
 10
1.256508
 20
-4.554339
  0
VERTEX
  8
PLAN_1
  6
CONTINUOUS
 10
1.254157
 20
-4.547287
  0
VERTEX
  8
PLAN_1
  6
CONTINUOUS
 10
1.250634
 20
-4.540827
  0
VERTEX
  8
PLAN_1
  6
CONTINUOUS
 10
1.246520
 20
-4.534953
  0
VERTEX
  8
PLAN_1
  6
CONTINUOUS
 10
1.242409
 20
-4.529665
  0
VERTEX
  8
PLAN_1
  6
CONTINUOUS
 10
1.237122
 20
-4.524965
  0
VERTEX
  8
PLAN_1
  6
CONTINUOUS
 10
1.231835
 20
-4.520268
  0
VERTEX
  8
PLAN_1
  6
CONTINUOUS
 10
1.225374
 20
-4.516740
  0
VERTEX
  8
PLAN_1
  6
CONTINUOUS
 10
1.219500
 20
-4.513217
  0
VERTEX
  8
PLAN_1
  6
CONTINUOUS
 10
1.212449
 20
-4.510280
  0
VERTEX
  8
PLAN_1
  6
CONTINUOUS
 10
1.205402
 20
-4.508516
  0
VERTEX
  8
PLAN_1
  6
CONTINUOUS
 10
1.198350
 20
-4.506756
  0
VERTEX
  8
PLAN_1
  6
CONTINUOUS
 10
1.190713
 20
-4.506165
  0
VERTEX
  8
PLAN_1
  6
CONTINUOUS
 10
1.182488
 20
-4.505579
  0
VERTEX
  8
PLAN_1
  6
CONTINUOUS
 10
1.173677
 20
-4.506165
  0
VERTEX
  8
PLAN_1
  6
CONTINUOUS
 10
1.164866
 20
-4.507343
  0
VERTEX
  8
PLAN_1
  6
CONTINUOUS
 10
1.156642
 20
-4.509693
  0
VERTEX
  8
PLAN_1
  6
CONTINUOUS
 10
1.148417
 20
-4.512630
  0
VERTEX
  8
PLAN_1
  6
CONTINUOUS
 10
1.141366
 20
-4.516154
  0
VERTEX
  8
PLAN_1
  6
CONTINUOUS
 10
1.134319
 20
-4.520854
  0
VERTEX
  8
PLAN_1
  6
CONTINUOUS
 10
1.127854
 20
-4.526142
  0
VERTEX
  8
PLAN_1
  6
CONTINUOUS
 10
1.121980
 20
-4.531429
  0
VERTEX
  8
PLAN_1
  6
CONTINUOUS
 10
1.116693
 20
-4.537890
  0
VERTEX
  8
PLAN_1
  6
CONTINUOUS
 10
1.111996
 20
-4.544941
  0
VERTEX
  8
PLAN_1
  6
CONTINUOUS
 10
1.107882
 20
-4.551988
  0
VERTEX
  8
PLAN_1
  6
CONTINUOUS
 10
1.104358
 20
-4.559626
  0
VERTEX
  8
PLAN_1
  6
CONTINUOUS
 10
1.102008
 20
-4.567850
  0
VERTEX
  8
PLAN_1
  6
CONTINUOUS
 10
1.099657
 20
-4.576661
  0
VERTEX
  8
PLAN_1
  6
CONTINUOUS
 10
1.098484
 20
-4.585472
  0
VERTEX
  8
PLAN_1
  6
CONTINUOUS
 10
1.098484
 20
-4.594283
  0
VERTEX
  8
PLAN_1
  6
CONTINUOUS
 10
1.098484
 20
-4.603685
  0
VERTEX
  8
PLAN_1
  6
CONTINUOUS
 10
1.100244
 20
-4.612496
  0
VERTEX
  8
PLAN_1
  6
CONTINUOUS
 10
1.102008
 20
-4.620720
  0
VERTEX
  8
PLAN_1
  6
CONTINUOUS
 10
1.104945
 20
-4.628945
  0
VERTEX
  8
PLAN_1
  6
CONTINUOUS
 10
1.108469
 20
-4.636583
  0
VERTEX
  8
PLAN_1
  6
CONTINUOUS
 10
1.112583
 20
-4.643630
  0
VERTEX
  8
PLAN_1
  6
CONTINUOUS
 10
1.117870
 20
-4.650094
  0
VERTEX
  8
PLAN_1
  6
CONTINUOUS
 10
1.123157
 20
-4.655969
  0
VERTEX
  8
PLAN_1
  6
CONTINUOUS
 10
1.129618
 20
-4.661843
  0
VERTEX
  8
PLAN_1
  6
CONTINUOUS
 10
1.136079
 20
-4.666543
  0
VERTEX
  8
PLAN_1
  6
CONTINUOUS
 10
1.143130
 20
-4.670654
  0
VERTEX
  8
PLAN_1
  6
CONTINUOUS
 10
1.150768
 20
-4.674181
  0
VERTEX
  8
PLAN_1
  6
CONTINUOUS
 10
1.158402
 20
-4.677118
  0
VERTEX
  8
PLAN_1
  6
CONTINUOUS
 10
1.167217
 20
-4.679465
  0
VERTEX
  8
PLAN_1
  6
CONTINUOUS
 10
1.175441
 20
-4.680642
  0
VERTEX
  8
PLAN_1
  6
CONTINUOUS
 10
1.184839
 20
-4.681228
  0
VERTEX
  8
PLAN_1
  6
CONTINUOUS
 10
1.194236
 20
-4.680642
  0
VERTEX
  8
PLAN_1
  6
CONTINUOUS
 10
1.203638
 20
-4.678878
  0
VERTEX
  8
PLAN_1
  6
CONTINUOUS
 10
1.213035
 20
-4.675941
  0
VERTEX
  8
PLAN_1
  6
CONTINUOUS
 10
1.221846
 20
-4.672417
  0
VERTEX
  8
PLAN_1
  6
CONTINUOUS
 10
1.230661
 20
-4.667717
  0
VERTEX
  8
PLAN_1
  6
CONTINUOUS
 10
1.238295
 20
-4.662429
  0
VERTEX
  8
PLAN_1
  6
CONTINUOUS
 10
1.245933
 20
-4.656555
  0
VERTEX
  8
PLAN_1
  6
CONTINUOUS
 10
1.252398
 20
-4.649508
  0
VERTEX
  8
PLAN_1
  6
CONTINUOUS
 10
1.270606
 20
-4.649508
  0
VERTEX
  8
PLAN_1
  6
CONTINUOUS
 10
1.267083
 20
-4.654791
  0
VERTEX
  8
PLAN_1
  6
CONTINUOUS
 10
1.262969
 20
-4.660079
  0
VERTEX
  8
PLAN_1
  6
CONTINUOUS
 10
1.258858
 20
-4.665366
  0
VERTEX
  8
PLAN_1
  6
CONTINUOUS
 10
1.254744
 20
-4.670067
  0
VERTEX
  8
PLAN_1
  6
CONTINUOUS
 10
1.250047
 20
-4.674181
  0
VERTEX
  8
PLAN_1
  6
CONTINUOUS
 10
1.244760
 20
-4.678291
  0
VERTEX
  8
PLAN_1
  6
CONTINUOUS
 10
1.239472
 20
-4.681815
  0
VERTEX
  8
PLAN_1
  6
CONTINUOUS
 10
1.234185
 20
-4.685343
  0
VERTEX
  8
PLAN_1
  6
CONTINUOUS
 10
1.228311
 20
-4.688280
  0
VERTEX
  8
PLAN_1
  6
CONTINUOUS
 10
1.222437
 20
-4.690626
  0
VERTEX
  8
PLAN_1
  6
CONTINUOUS
 10
1.216563
 20
-4.692976
  0
VERTEX
  8
PLAN_1
  6
CONTINUOUS
 10
1.210098
 20
-4.694740
  0
VERTEX
  8
PLAN_1
  6
CONTINUOUS
 10
1.203638
 20
-4.696504
  0
VERTEX
  8
PLAN_1
  6
CONTINUOUS
 10
1.197177
 20
-4.697677
  0
VERTEX
  8
PLAN_1
  6
CONTINUOUS
 10
1.190713
 20
-4.698264
  0
VERTEX
  8
PLAN_1
  6
CONTINUOUS
 10
1.184252
 20
-4.698264
  0
VERTEX
  8
PLAN_1
  6
CONTINUOUS
 10
1.173091
 20
-4.697677
  0
VERTEX
  8
PLAN_1
  6
CONTINUOUS
 10
1.162516
 20
-4.695913
  0
VERTEX
  8
PLAN_1
  6
CONTINUOUS
 10
1.152528
 20
-4.693567
  0
VERTEX
  8
PLAN_1
  6
CONTINUOUS
 10
1.142543
 20
-4.690039
  0
VERTEX
  8
PLAN_1
  6
CONTINUOUS
 10
1.133142
 20
-4.685929
  0
VERTEX
  8
PLAN_1
  6
CONTINUOUS
 10
1.124331
 20
-4.680642
  0
VERTEX
  8
PLAN_1
  6
CONTINUOUS
 10
1.116106
 20
-4.674181
  0
VERTEX
  8
PLAN_1
  6
CONTINUOUS
 10
1.109059
 20
-4.667717
  0
VERTEX
  8
PLAN_1
  6
CONTINUOUS
 10
1.102008
 20
-4.660079
  0
VERTEX
  8
PLAN_1
  6
CONTINUOUS
 10
1.096134
 20
-4.651854
  0
VERTEX
  8
PLAN_1
  6
CONTINUOUS
 10
1.090846
 20
-4.643630
  0
VERTEX
  8
PLAN_1
  6
CONTINUOUS
 10
1.086146
 20
-4.634232
  0
VERTEX
  8
PLAN_1
  6
CONTINUOUS
 10
1.082622
 20
-4.624244
  0
VERTEX
  8
PLAN_1
  6
CONTINUOUS
 10
1.080272
 20
-4.614260
  0
VERTEX
  8
PLAN_1
  6
CONTINUOUS
 10
1.078508
 20
-4.603685
  0
VERTEX
  8
PLAN_1
  6
CONTINUOUS
 10
1.077921
 20
-4.592524
  0
VERTEX
  8
PLAN_1
  6
CONTINUOUS
 10
1.078508
 20
-4.581949
  0
VERTEX
  8
PLAN_1
  6
CONTINUOUS
 10
1.080272
 20
-4.571374
  0
VERTEX
  8
PLAN_1
  6
CONTINUOUS
 10
1.082622
 20
-4.561390
  0
VERTEX
  8
PLAN_1
  6
CONTINUOUS
 10
1.086146
 20
-4.551988
  0
VERTEX
  8
PLAN_1
  6
CONTINUOUS
 10
1.090846
 20
-4.542591
  0
VERTEX
  8
PLAN_1
  6
CONTINUOUS
 10
1.096134
 20
-4.534366
  0
VERTEX
  8
PLAN_1
  6
CONTINUOUS
 10
1.102008
 20
-4.526142
  0
VERTEX
  8
PLAN_1
  6
CONTINUOUS
 10
1.109059
 20
-4.519091
  0
VERTEX
  8
PLAN_1
  6
CONTINUOUS
 10
1.116106
 20
-4.512043
  0
VERTEX
  8
PLAN_1
  6
CONTINUOUS
 10
1.124331
 20
-4.506165
  0
VERTEX
  8
PLAN_1
  6
CONTINUOUS
 10
1.133142
 20
-4.500882
  0
VERTEX
  8
PLAN_1
  6
CONTINUOUS
 10
1.141953
 20
-4.496768
  0
VERTEX
  8
PLAN_1
  6
CONTINUOUS
 10
1.151941
 20
-4.493244
  0
VERTEX
  8
PLAN_1
  6
CONTINUOUS
 10
1.161929
 20
-4.490307
  0
VERTEX
  8
PLAN_1
  6
CONTINUOUS
 10
1.171913
 20
-4.489130
  0
VERTEX
  8
PLAN_1
  6
CONTINUOUS
 10
1.182488
 20
-4.488543
  0
VERTEX
  8
PLAN_1
  6
CONTINUOUS
 10
1.192476
 20
-4.488543
  0
VERTEX
  8
PLAN_1
  6
CONTINUOUS
 10
1.201287
 20
-4.490307
  0
VERTEX
  8
PLAN_1
  6
CONTINUOUS
 10
1.210685
 20
-4.492067
  0
VERTEX
  8
PLAN_1
  6
CONTINUOUS
 10
1.219500
 20
-4.495004
  0
VERTEX
  8
PLAN_1
  6
CONTINUOUS
 10
1.227724
 20
-4.498531
  0
VERTEX
  8
PLAN_1
  6
CONTINUOUS
 10
1.235358
 20
-4.502642
  0
VERTEX
  8
PLAN_1
  6
CONTINUOUS
 10
1.242996
 20
-4.507343
  0
VERTEX
  8
PLAN_1
  6
CONTINUOUS
 10
1.249461
 20
-4.512630
  0
VERTEX
  8
PLAN_1
  6
CONTINUOUS
 10
1.255921
 20
-4.519091
  0
VERTEX
  8
PLAN_1
  6
CONTINUOUS
 10
1.261795
 20
-4.525555
  0
VERTEX
  8
PLAN_1
  6
CONTINUOUS
 10
1.266496
 20
-4.532602
  0
VERTEX
  8
PLAN_1
  6
CONTINUOUS
 10
1.270606
 20
-4.540240
  0
VERTEX
  8
PLAN_1
  6
CONTINUOUS
 10
1.273543
 20
-4.548465
  0
VERTEX
  8
PLAN_1
  6
CONTINUOUS
 10
1.276480
 20
-4.556689
  0
VERTEX
  8
PLAN_1
  6
CONTINUOUS
 10
1.277657
 20
-4.565500
  0
VERTEX
  8
PLAN_1
  6
CONTINUOUS
 10
1.278244
 20
-4.574898
  0
VERTEX
  8
PLAN_1
  6
CONTINUOUS
 10
1.277657
 20
-4.584299
  0
VERTEX
  8
PLAN_1
  6
CONTINUOUS
 10
1.276480
 20
-4.593110
  0
VERTEX
  8
PLAN_1
  6
CONTINUOUS
 10
1.274130
 20
-4.601335
  0
VERTEX
  8
PLAN_1
  6
CONTINUOUS
 10
1.271193
 20
-4.608972
  0
VERTEX
  8
PLAN_1
  6
CONTINUOUS
 10
1.267669
 20
-4.616020
  0
VERTEX
  8
PLAN_1
  6
CONTINUOUS
 10
1.263559
 20
-4.622484
  0
VERTEX
  8
PLAN_1
  6
CONTINUOUS
 10
1.259445
 20
-4.628358
  0
VERTEX
  8
PLAN_1
  6
CONTINUOUS
 10
1.254157
 20
-4.634232
  0
VERTEX
  8
PLAN_1
  6
CONTINUOUS
 10
1.248870
 20
-4.638933
  0
VERTEX
  8
PLAN_1
  6
CONTINUOUS
 10
1.243583
 20
-4.643043
  0
VERTEX
  8
PLAN_1
  6
CONTINUOUS
 10
1.238295
 20
-4.646567
  0
VERTEX
  8
PLAN_1
  6
CONTINUOUS
 10
1.232421
 20
-4.649508
  0
VERTEX
  8
PLAN_1
  6
CONTINUOUS
 10
1.227134
 20
-4.651854
  0
VERTEX
  8
PLAN_1
  6
CONTINUOUS
 10
1.221846
 20
-4.653618
  0
VERTEX
  8
PLAN_1
  6
CONTINUOUS
 10
1.216563
 20
-4.654791
  0
VERTEX
  8
PLAN_1
  6
CONTINUOUS
 10
1.211862
 20
-4.655382
  0
VERTEX
  8
PLAN_1
  6
CONTINUOUS
 10
1.208339
 20
-4.654791
  0
VERTEX
  8
PLAN_1
  6
CONTINUOUS
 10
1.205402
 20
-4.654205
  0
VERTEX
  8
PLAN_1
  6
CONTINUOUS
 10
1.202461
 20
-4.653031
  0
VERTEX
  8
PLAN_1
  6
CONTINUOUS
 10
1.199524
 20
-4.650681
  0
VERTEX
  8
PLAN_1
  6
CONTINUOUS
 10
1.197177
 20
-4.648331
  0
VERTEX
  8
PLAN_1
  6
CONTINUOUS
 10
1.196000
 20
-4.645394
  0
VERTEX
  8
PLAN_1
  6
CONTINUOUS
 10
1.194827
 20
-4.641870
  0
VERTEX
  8
PLAN_1
  6
CONTINUOUS
 10
1.194236
 20
-4.637756
  0
VERTEX
  8
PLAN_1
  6
CONTINUOUS
 10
1.193650
 20
-4.637756
  0
VERTEX
  8
PLAN_1
  6
CONTINUOUS
 10
1.190126
 20
-4.641283
  0
VERTEX
  8
PLAN_1
  6
CONTINUOUS
 10
1.186602
 20
-4.644220
  0
VERTEX
  8
PLAN_1
  6
CONTINUOUS
 10
1.183075
 20
-4.647157
  0
VERTEX
  8
PLAN_1
  6
CONTINUOUS
 10
1.178965
 20
-4.650094
  0
VERTEX
  8
PLAN_1
  6
CONTINUOUS
 10
1.174264
 20
-4.651854
  0
VERTEX
  8
PLAN_1
  6
CONTINUOUS
 10
1.169563
 20
-4.653618
  0
VERTEX
  8
PLAN_1
  6
CONTINUOUS
 10
1.164866
 20
-4.654791
  0
VERTEX
  8
PLAN_1
  6
CONTINUOUS
 10
1.160165
 20
-4.655382
  0
VERTEX
  8
PLAN_1
  6
CONTINUOUS
 10
1.156055
 20
-4.654791
  0
VERTEX
  8
PLAN_1
  6
CONTINUOUS
 10
1.151354
 20
-4.654205
  0
VERTEX
  8
PLAN_1
  6
CONTINUOUS
 10
1.147831
 20
-4.653031
  0
VERTEX
  8
PLAN_1
  6
CONTINUOUS
 10
1.143717
 20
-4.651854
  0
VERTEX
  8
PLAN_1
  6
CONTINUOUS
 10
1.140193
 20
-4.650094
  0
VERTEX
  8
PLAN_1
  6
CONTINUOUS
 10
1.136669
 20
-4.647744
  0
VERTEX
  8
PLAN_1
  6
CONTINUOUS
 10
1.133728
 20
-4.644807
  0
VERTEX
  8
PLAN_1
  6
CONTINUOUS
 10
1.130791
 20
-4.641870
  0
VERTEX
  8
PLAN_1
  6
CONTINUOUS
 10
1.128445
 20
-4.638933
  0
VERTEX
  8
PLAN_1
  6
CONTINUOUS
 10
1.126094
 20
-4.635406
  0
VERTEX
  8
PLAN_1
  6
CONTINUOUS
 10
1.124331
 20
-4.631882
  0
VERTEX
  8
PLAN_1
  6
CONTINUOUS
 10
1.122567
 20
-4.627772
  0
VERTEX
  8
PLAN_1
  6
CONTINUOUS
 10
1.121394
 20
-4.623657
  0
VERTEX
  8
PLAN_1
  6
CONTINUOUS
 10
1.120220
 20
-4.619547
  0
VERTEX
  8
PLAN_1
  6
CONTINUOUS
 10
1.119630
 20
-4.615433
  0
VERTEX
  8
PLAN_1
  6
CONTINUOUS
 10
1.119630
 20
-4.610732
  0
VERTEX
  8
PLAN_1
  6
CONTINUOUS
 10
1.119630
 20
-4.603685
  0
VERTEX
  8
PLAN_1
  6
CONTINUOUS
 10
1.120807
 20
-4.596634
  0
VERTEX
  8
PLAN_1
  6
CONTINUOUS
 10
1.121980
 20
-4.589587
  0
VERTEX
  8
PLAN_1
  6
CONTINUOUS
 10
1.123744
 20
-4.583122
  0
VERTEX
  8
PLAN_1
  6
CONTINUOUS
 10
1.126681
 20
-4.576661
  0
VERTEX
  8
PLAN_1
  6
CONTINUOUS
 10
1.129618
 20
-4.570201
  0
VERTEX
  8
PLAN_1
  6
CONTINUOUS
 10
1.133142
 20
-4.564327
  0
VERTEX
  8
PLAN_1
  6
CONTINUOUS
 10
1.137256
 20
-4.558449
  0
VERTEX
  8
PLAN_1
  6
CONTINUOUS
 10
1.141366
 20
-4.553165
  0
VERTEX
  8
PLAN_1
  6
CONTINUOUS
 10
1.146067
 20
-4.548465
  0
VERTEX
  8
PLAN_1
  6
CONTINUOUS
 10
1.151354
 20
-4.544350
  0
VERTEX
  8
PLAN_1
  6
CONTINUOUS
 10
1.157228
 20
-4.540827
  0
VERTEX
  8
PLAN_1
  6
CONTINUOUS
 10
1.163102
 20
-4.537890
  0
VERTEX
  8
PLAN_1
  6
CONTINUOUS
 10
1.169563
 20
-4.536126
  0
VERTEX
  8
PLAN_1
  6
CONTINUOUS
 10
1.176614
 20
-4.534953
  0
VERTEX
  8
PLAN_1
  6
CONTINUOUS
 10
1.183665
 20
-4.534366
  0
VERTEX
  8
PLAN_1
  6
CONTINUOUS
 10
1.188362
 20
-4.534366
  0
VERTEX
  8
PLAN_1
  6
CONTINUOUS
 10
1.193063
 20
-4.535539
  0
VERTEX
  8
PLAN_1
  6
CONTINUOUS
 10
1.197764
 20
-4.536717
  0
VERTEX
  8
PLAN_1
  6
CONTINUOUS
 10
1.201874
 20
-4.539063
  0
VERTEX
  8
PLAN_1
  6
CONTINUOUS
 10
1.205988
 20
-4.542004
  0
VERTEX
  8
PLAN_1
  6
CONTINUOUS
 10
1.209512
 20
-4.546114
  0
VERTEX
  8
PLAN_1
  6
CONTINUOUS
 10
1.212449
 20
-4.550224
  0
VERTEX
  8
PLAN_1
  6
CONTINUOUS
 10
1.215386
 20
-4.556102
  0
VERTEX
  8
PLAN_1
  6
CONTINUOUS
 10
1.221260
 20
-4.538476
  0
SEQEND
  8
0
  0
POLYLINE
  8
PLAN_1
  6
CONTINUOUS
 66
     1
 40
0.003000
 41
0.003000
  0
VERTEX
  8
PLAN_1
  6
CONTINUOUS
 10
1.184252
 20
-4.554339
  0
VERTEX
  8
PLAN_1
  6
CONTINUOUS
 10
1.179551
 20
-4.554339
  0
VERTEX
  8
PLAN_1
  6
CONTINUOUS
 10
1.175441
 20
-4.555512
  0
VERTEX
  8
PLAN_1
  6
CONTINUOUS
 10
1.171327
 20
-4.557276
  0
VERTEX
  8
PLAN_1
  6
CONTINUOUS
 10
1.167217
 20
-4.559626
  0
VERTEX
  8
PLAN_1
  6
CONTINUOUS
 10
1.163689
 20
-4.561976
  0
VERTEX
  8
PLAN_1
  6
CONTINUOUS
 10
1.160165
 20
-4.565500
  0
VERTEX
  8
PLAN_1
  6
CONTINUOUS
 10
1.156642
 20
-4.569024
  0
VERTEX
  8
PLAN_1
  6
CONTINUOUS
 10
1.153705
 20
-4.572551
  0
VERTEX
  8
PLAN_1
  6
CONTINUOUS
 10
1.151354
 20
-4.576661
  0
VERTEX
  8
PLAN_1
  6
CONTINUOUS
 10
1.149004
 20
-4.581362
  0
VERTEX
  8
PLAN_1
  6
CONTINUOUS
 10
1.146654
 20
-4.585472
  0
VERTEX
  8
PLAN_1
  6
CONTINUOUS
 10
1.145480
 20
-4.590173
  0
VERTEX
  8
PLAN_1
  6
CONTINUOUS
 10
1.143717
 20
-4.594874
  0
VERTEX
  8
PLAN_1
  6
CONTINUOUS
 10
1.143130
 20
-4.599571
  0
VERTEX
  8
PLAN_1
  6
CONTINUOUS
 10
1.142543
 20
-4.603685
  0
VERTEX
  8
PLAN_1
  6
CONTINUOUS
 10
1.141953
 20
-4.608386
  0
VERTEX
  8
PLAN_1
  6
CONTINUOUS
 10
1.142543
 20
-4.614260
  0
VERTEX
  8
PLAN_1
  6
CONTINUOUS
 10
1.143717
 20
-4.618957
  0
VERTEX
  8
PLAN_1
  6
CONTINUOUS
 10
1.146067
 20
-4.623657
  0
VERTEX
  8
PLAN_1
  6
CONTINUOUS
 10
1.148417
 20
-4.627772
  0
VERTEX
  8
PLAN_1
  6
CONTINUOUS
 10
1.151941
 20
-4.630709
  0
VERTEX
  8
PLAN_1
  6
CONTINUOUS
 10
1.156055
 20
-4.633059
  0
VERTEX
  8
PLAN_1
  6
CONTINUOUS
 10
1.160752
 20
-4.634819
  0
VERTEX
  8
PLAN_1
  6
CONTINUOUS
 10
1.165453
 20
-4.635406
  0
VERTEX
  8
PLAN_1
  6
CONTINUOUS
 10
1.169563
 20
-4.634819
  0
VERTEX
  8
PLAN_1
  6
CONTINUOUS
 10
1.174264
 20
-4.633646
  0
VERTEX
  8
PLAN_1
  6
CONTINUOUS
 10
1.177787
 20
-4.631882
  0
VERTEX
  8
PLAN_1
  6
CONTINUOUS
 10
1.181902
 20
-4.629531
  0
VERTEX
  8
PLAN_1
  6
CONTINUOUS
 10
1.185425
 20
-4.626594
  0
VERTEX
  8
PLAN_1
  6
CONTINUOUS
 10
1.188953
 20
-4.623657
  0
VERTEX
  8
PLAN_1
  6
CONTINUOUS
 10
1.191890
 20
-4.620134
  0
VERTEX
  8
PLAN_1
  6
CONTINUOUS
 10
1.194827
 20
-4.616020
  0
VERTEX
  8
PLAN_1
  6
CONTINUOUS
 10
1.197764
 20
-4.611323
  0
VERTEX
  8
PLAN_1
  6
CONTINUOUS
 10
1.200114
 20
-4.607209
  0
VERTEX
  8
PLAN_1
  6
CONTINUOUS
 10
1.201874
 20
-4.602508
  0
VERTEX
  8
PLAN_1
  6
CONTINUOUS
 10
1.203638
 20
-4.597811
  0
VERTEX
  8
PLAN_1
  6
CONTINUOUS
 10
1.204811
 20
-4.593110
  0
VERTEX
  8
PLAN_1
  6
CONTINUOUS
 10
1.205988
 20
-4.588409
  0
VERTEX
  8
PLAN_1
  6
CONTINUOUS
 10
1.206575
 20
-4.584299
  0
VERTEX
  8
PLAN_1
  6
CONTINUOUS
 10
1.206575
 20
-4.579598
  0
VERTEX
  8
PLAN_1
  6
CONTINUOUS
 10
1.206575
 20
-4.574898
  0
VERTEX
  8
PLAN_1
  6
CONTINUOUS
 10
1.204811
 20
-4.570201
  0
VERTEX
  8
PLAN_1
  6
CONTINUOUS
 10
1.203051
 20
-4.565500
  0
VERTEX
  8
PLAN_1
  6
CONTINUOUS
 10
1.200114
 20
-4.561976
  0
VERTEX
  8
PLAN_1
  6
CONTINUOUS
 10
1.196587
 20
-4.558449
  0
VERTEX
  8
PLAN_1
  6
CONTINUOUS
 10
1.193063
 20
-4.556102
  0
VERTEX
  8
PLAN_1
  6
CONTINUOUS
 10
1.188362
 20
-4.554925
  0
VERTEX
  8
PLAN_1
  6
CONTINUOUS
 10
1.184252
 20
-4.554339
  0
SEQEND
  8
0
  0
POLYLINE
  8
PLAN_1
  6
CONTINUOUS
 66
     1
 40
0.003000
 41
0.003000
  0
VERTEX
  8
PLAN_1
  6
CONTINUOUS
 10
1.366949
 20
-4.692976
  0
VERTEX
  8
PLAN_1
  6
CONTINUOUS
 10
1.340516
 20
-4.692976
  0
VERTEX
  8
PLAN_1
  6
CONTINUOUS
 10
1.340516
 20
-4.493831
  0
VERTEX
  8
PLAN_1
  6
CONTINUOUS
 10
1.366949
 20
-4.493831
  0
VERTEX
  8
PLAN_1
  6
CONTINUOUS
 10
1.366949
 20
-4.590173
  0
VERTEX
  8
PLAN_1
  6
CONTINUOUS
 10
1.463878
 20
-4.493831
  0
VERTEX
  8
PLAN_1
  6
CONTINUOUS
 10
1.500890
 20
-4.493831
  0
VERTEX
  8
PLAN_1
  6
CONTINUOUS
 10
1.418059
 20
-4.574311
  0
VERTEX
  8
PLAN_1
  6
CONTINUOUS
 10
1.503240
 20
-4.692976
  0
VERTEX
  8
PLAN_1
  6
CONTINUOUS
 10
1.467992
 20
-4.692976
  0
VERTEX
  8
PLAN_1
  6
CONTINUOUS
 10
1.398673
 20
-4.593110
  0
VERTEX
  8
PLAN_1
  6
CONTINUOUS
 10
1.366949
 20
-4.623071
  0
VERTEX
  8
PLAN_1
  6
CONTINUOUS
 10
1.366949
 20
-4.692976
  0
SEQEND
  8
0
  0
POLYLINE
  8
PLAN_1
  6
CONTINUOUS
 66
     1
 40
0.003000
 41
0.003000
  0
VERTEX
  8
PLAN_1
  6
CONTINUOUS
 10
1.514402
 20
-4.502055
  0
VERTEX
  8
PLAN_1
  6
CONTINUOUS
 10
1.649516
 20
-4.502055
  0
VERTEX
  8
PLAN_1
  6
CONTINUOUS
 10
1.649516
 20
-4.523205
  0
VERTEX
  8
PLAN_1
  6
CONTINUOUS
 10
1.641291
 20
-4.533189
  0
VERTEX
  8
PLAN_1
  6
CONTINUOUS
 10
1.630717
 20
-4.546114
  0
VERTEX
  8
PLAN_1
  6
CONTINUOUS
 10
1.625429
 20
-4.554339
  0
VERTEX
  8
PLAN_1
  6
CONTINUOUS
 10
1.619555
 20
-4.563150
  0
VERTEX
  8
PLAN_1
  6
CONTINUOUS
 10
1.613681
 20
-4.572551
  0
VERTEX
  8
PLAN_1
  6
CONTINUOUS
 10
1.607217
 20
-4.583122
  0
VERTEX
  8
PLAN_1
  6
CONTINUOUS
 10
1.601343
 20
-4.594283
  0
VERTEX
  8
PLAN_1
  6
CONTINUOUS
 10
1.596055
 20
-4.606622
  0
VERTEX
  8
PLAN_1
  6
CONTINUOUS
 10
1.590181
 20
-4.618957
  0
VERTEX
  8
PLAN_1
  6
CONTINUOUS
 10
1.584894
 20
-4.632469
  0
VERTEX
  8
PLAN_1
  6
CONTINUOUS
 10
1.580197
 20
-4.646567
  0
VERTEX
  8
PLAN_1
  6
CONTINUOUS
 10
1.576083
 20
-4.661256
  0
VERTEX
  8
PLAN_1
  6
CONTINUOUS
 10
1.572559
 20
-4.677118
  0
VERTEX
  8
PLAN_1
  6
CONTINUOUS
 10
1.569035
 20
-4.692976
  0
VERTEX
  8
PLAN_1
  6
CONTINUOUS
 10
1.542598
 20
-4.692976
  0
VERTEX
  8
PLAN_1
  6
CONTINUOUS
 10
1.543772
 20
-4.682992
  0
VERTEX
  8
PLAN_1
  6
CONTINUOUS
 10
1.546122
 20
-4.672417
  0
VERTEX
  8
PLAN_1
  6
CONTINUOUS
 10
1.549059
 20
-4.661256
  0
VERTEX
  8
PLAN_1
  6
CONTINUOUS
 10
1.552587
 20
-4.650681
  0
VERTEX
  8
PLAN_1
  6
CONTINUOUS
 10
1.556110
 20
-4.639520
  0
VERTEX
  8
PLAN_1
  6
CONTINUOUS
 10
1.560811
 20
-4.628358
  0
VERTEX
  8
PLAN_1
  6
CONTINUOUS
 10
1.565508
 20
-4.616610
  0
VERTEX
  8
PLAN_1
  6
CONTINUOUS
 10
1.570795
 20
-4.605449
  0
VERTEX
  8
PLAN_1
  6
CONTINUOUS
 10
1.576083
 20
-4.594874
  0
VERTEX
  8
PLAN_1
  6
CONTINUOUS
 10
1.581957
 20
-4.583713
  0
VERTEX
  8
PLAN_1
  6
CONTINUOUS
 10
1.588421
 20
-4.573138
  0
VERTEX
  8
PLAN_1
  6
CONTINUOUS
 10
1.594882
 20
-4.562563
  0
VERTEX
  8
PLAN_1
  6
CONTINUOUS
 10
1.601343
 20
-4.553165
  0
VERTEX
  8
PLAN_1
  6
CONTINUOUS
 10
1.608394
 20
-4.543177
  0
VERTEX
  8
PLAN_1
  6
CONTINUOUS
 10
1.614854
 20
-4.534366
  0
VERTEX
  8
PLAN_1
  6
CONTINUOUS
 10
1.621906
 20
-4.526142
  0
VERTEX
  8
PLAN_1
  6
CONTINUOUS
 10
1.514402
 20
-4.526142
  0
VERTEX
  8
PLAN_1
  6
CONTINUOUS
 10
1.514402
 20
-4.502055
  0
SEQEND
  8
0
  0
POLYLINE
  8
PLAN_1
  6
CONTINUOUS
 66
     1
 40
0.003000
 41
0.003000
  0
VERTEX
  8
PLAN_1
  6
CONTINUOUS
 10
1.710024
 20
-4.692976
  0
VERTEX
  8
PLAN_1
  6
CONTINUOUS
 10
1.683000
 20
-4.692976
  0
VERTEX
  8
PLAN_1
  6
CONTINUOUS
 10
1.683000
 20
-4.493831
  0
VERTEX
  8
PLAN_1
  6
CONTINUOUS
 10
1.775228
 20
-4.493831
  0
VERTEX
  8
PLAN_1
  6
CONTINUOUS
 10
1.781693
 20
-4.493831
  0
VERTEX
  8
PLAN_1
  6
CONTINUOUS
 10
1.787567
 20
-4.494417
  0
VERTEX
  8
PLAN_1
  6
CONTINUOUS
 10
1.793441
 20
-4.495004
  0
VERTEX
  8
PLAN_1
  6
CONTINUOUS
 10
1.799315
 20
-4.496181
  0
VERTEX
  8
PLAN_1
  6
CONTINUOUS
 10
1.805189
 20
-4.497354
  0
VERTEX
  8
PLAN_1
  6
CONTINUOUS
 10
1.810476
 20
-4.499705
  0
VERTEX
  8
PLAN_1
  6
CONTINUOUS
 10
1.815764
 20
-4.502055
  0
VERTEX
  8
PLAN_1
  6
CONTINUOUS
 10
1.820465
 20
-4.504406
  0
VERTEX
  8
PLAN_1
  6
CONTINUOUS
 10
1.824575
 20
-4.507929
  0
VERTEX
  8
PLAN_1
  6
CONTINUOUS
 10
1.828689
 20
-4.512043
  0
VERTEX
  8
PLAN_1
  6
CONTINUOUS
 10
1.832213
 20
-4.516154
  0
VERTEX
  8
PLAN_1
  6
CONTINUOUS
 10
1.835150
 20
-4.520854
  0
VERTEX
  8
PLAN_1
  6
CONTINUOUS
 10
1.837500
 20
-4.526728
  0
VERTEX
  8
PLAN_1
  6
CONTINUOUS
 10
1.839264
 20
-4.532602
  0
VERTEX
  8
PLAN_1
  6
CONTINUOUS
 10
1.840437
 20
-4.539654
  0
VERTEX
  8
PLAN_1
  6
CONTINUOUS
 10
1.841024
 20
-4.547287
  0
VERTEX
  8
PLAN_1
  6
CONTINUOUS
 10
1.840437
 20
-4.552575
  0
VERTEX
  8
PLAN_1
  6
CONTINUOUS
 10
1.840437
 20
-4.557276
  0
VERTEX
  8
PLAN_1
  6
CONTINUOUS
 10
1.839264
 20
-4.561976
  0
VERTEX
  8
PLAN_1
  6
CONTINUOUS
 10
1.838087
 20
-4.566087
  0
VERTEX
  8
PLAN_1
  6
CONTINUOUS
 10
1.836913
 20
-4.569614
  0
VERTEX
  8
PLAN_1
  6
CONTINUOUS
 10
1.835150
 20
-4.573138
  0
VERTEX
  8
PLAN_1
  6
CONTINUOUS
 10
1.833390
 20
-4.576661
  0
VERTEX
  8
PLAN_1
  6
CONTINUOUS
 10
1.831626
 20
-4.579598
  0
VERTEX
  8
PLAN_1
  6
CONTINUOUS
 10
1.827512
 20
-4.584299
  0
VERTEX
  8
PLAN_1
  6
CONTINUOUS
 10
1.822815
 20
-4.588409
  0
VERTEX
  8
PLAN_1
  6
CONTINUOUS
 10
1.818114
 20
-4.591937
  0
VERTEX
  8
PLAN_1
  6
CONTINUOUS
 10
1.812827
 20
-4.594874
  0
VERTEX
  8
PLAN_1
  6
CONTINUOUS
 10
1.817528
 20
-4.596634
  0
VERTEX
  8
PLAN_1
  6
CONTINUOUS
 10
1.821638
 20
-4.598984
  0
VERTEX
  8
PLAN_1
  6
CONTINUOUS
 10
1.825165
 20
-4.601335
  0
VERTEX
  8
PLAN_1
  6
CONTINUOUS
 10
1.828689
 20
-4.604858
  0
VERTEX
  8
PLAN_1
  6
CONTINUOUS
 10
1.832213
 20
-4.609559
  0
VERTEX
  8
PLAN_1
  6
CONTINUOUS
 10
1.834563
 20
-4.615433
  0
VERTEX
  8
PLAN_1
  6
CONTINUOUS
 10
1.836327
 20
-4.623071
  0
VERTEX
  8
PLAN_1
  6
CONTINUOUS
 10
1.836913
 20
-4.632469
  0
VERTEX
  8
PLAN_1
  6
CONTINUOUS
 10
1.838673
 20
-4.668303
  0
VERTEX
  8
PLAN_1
  6
CONTINUOUS
 10
1.838673
 20
-4.672417
  0
VERTEX
  8
PLAN_1
  6
CONTINUOUS
 10
1.839264
 20
-4.675941
  0
VERTEX
  8
PLAN_1
  6
CONTINUOUS
 10
1.839850
 20
-4.678291
  0
VERTEX
  8
PLAN_1
  6
CONTINUOUS
 10
1.840437
 20
-4.681228
  0
VERTEX
  8
PLAN_1
  6
CONTINUOUS
 10
1.841614
 20
-4.682992
  0
VERTEX
  8
PLAN_1
  6
CONTINUOUS
 10
1.843374
 20
-4.684752
  0
VERTEX
  8
PLAN_1
  6
CONTINUOUS
 10
1.845724
 20
-4.686516
  0
VERTEX
  8
PLAN_1
  6
CONTINUOUS
 10
1.848661
 20
-4.688280
  0
VERTEX
  8
PLAN_1
  6
CONTINUOUS
 10
1.848661
 20
-4.692976
  0
VERTEX
  8
PLAN_1
  6
CONTINUOUS
 10
1.815764
 20
-4.692976
  0
VERTEX
  8
PLAN_1
  6
CONTINUOUS
 10
1.814004
 20
-4.687689
  0
VERTEX
  8
PLAN_1
  6
CONTINUOUS
 10
1.813413
 20
-4.681228
  0
VERTEX
  8
PLAN_1
  6
CONTINUOUS
 10
1.812240
 20
-4.673591
  0
VERTEX
  8
PLAN_1
  6
CONTINUOUS
 10
1.811654
 20
-4.665957
  0
VERTEX
  8
PLAN_1
  6
CONTINUOUS
 10
1.811063
 20
-4.658906
  0
VERTEX
  8
PLAN_1
  6
CONTINUOUS
 10
1.811063
 20
-4.652445
  0
VERTEX
  8
PLAN_1
  6
CONTINUOUS
 10
1.811063
 20
-4.646567
  0
VERTEX
  8
PLAN_1
  6
CONTINUOUS
 10
1.811063
 20
-4.643043
  0
VERTEX
  8
PLAN_1
  6
CONTINUOUS
 10
1.810476
 20
-4.636583
  0
VERTEX
  8
PLAN_1
  6
CONTINUOUS
 10
1.809890
 20
-4.630709
  0
VERTEX
  8
PLAN_1
  6
CONTINUOUS
 10
1.809303
 20
-4.627772
  0
VERTEX
  8
PLAN_1
  6
CONTINUOUS
 10
1.808126
 20
-4.624835
  0
VERTEX
  8
PLAN_1
  6
CONTINUOUS
 10
1.806953
 20
-4.621898
  0
VERTEX
  8
PLAN_1
  6
CONTINUOUS
 10
1.805189
 20
-4.618957
  0
VERTEX
  8
PLAN_1
  6
CONTINUOUS
 10
1.803429
 20
-4.616610
  0
VERTEX
  8
PLAN_1
  6
CONTINUOUS
 10
1.800492
 20
-4.614260
  0
VERTEX
  8
PLAN_1
  6
CONTINUOUS
 10
1.797555
 20
-4.612496
  0
VERTEX
  8
PLAN_1
  6
CONTINUOUS
 10
1.794614
 20
-4.610732
  0
VERTEX
  8
PLAN_1
  6
CONTINUOUS
 10
1.790504
 20
-4.609559
  0
VERTEX
  8
PLAN_1
  6
CONTINUOUS
 10
1.786390
 20
-4.608386
  0
VERTEX
  8
PLAN_1
  6
CONTINUOUS
 10
1.781106
 20
-4.607795
  0
VERTEX
  8
PLAN_1
  6
CONTINUOUS
 10
1.775228
 20
-4.607209
  0
VERTEX
  8
PLAN_1
  6
CONTINUOUS
 10
1.710024
 20
-4.607209
  0
VERTEX
  8
PLAN_1
  6
CONTINUOUS
 10
1.710024
 20
-4.692976
  0
SEQEND
  8
0
  0
POLYLINE
  8
PLAN_1
  6
CONTINUOUS
 66
     1
 40
0.003000
 41
0.003000
  0
VERTEX
  8
PLAN_1
  6
CONTINUOUS
 10
1.710024
 20
-4.584299
  0
VERTEX
  8
PLAN_1
  6
CONTINUOUS
 10
1.772291
 20
-4.584299
  0
VERTEX
  8
PLAN_1
  6
CONTINUOUS
 10
1.779929
 20
-4.584299
  0
VERTEX
  8
PLAN_1
  6
CONTINUOUS
 10
1.786980
 20
-4.583122
  0
VERTEX
  8
PLAN_1
  6
CONTINUOUS
 10
1.790504
 20
-4.582535
  0
VERTEX
  8
PLAN_1
  6
CONTINUOUS
 10
1.794028
 20
-4.581362
  0
VERTEX
  8
PLAN_1
  6
CONTINUOUS
 10
1.796965
 20
-4.580185
  0
VERTEX
  8
PLAN_1
  6
CONTINUOUS
 10
1.800492
 20
-4.578425
  0
VERTEX
  8
PLAN_1
  6
CONTINUOUS
 10
1.802839
 20
-4.576075
  0
VERTEX
  8
PLAN_1
  6
CONTINUOUS
 10
1.805189
 20
-4.573724
  0
VERTEX
  8
PLAN_1
  6
CONTINUOUS
 10
1.807539
 20
-4.570787
  0
VERTEX
  8
PLAN_1
  6
CONTINUOUS
 10
1.809303
 20
-4.567850
  0
VERTEX
  8
PLAN_1
  6
CONTINUOUS
 10
1.811063
 20
-4.564327
  0
VERTEX
  8
PLAN_1
  6
CONTINUOUS
 10
1.812240
 20
-4.560213
  0
VERTEX
  8
PLAN_1
  6
CONTINUOUS
 10
1.812827
 20
-4.555512
  0
VERTEX
  8
PLAN_1
  6
CONTINUOUS
 10
1.812827
 20
-4.550224
  0
VERTEX
  8
PLAN_1
  6
CONTINUOUS
 10
1.812827
 20
-4.544350
  0
VERTEX
  8
PLAN_1
  6
CONTINUOUS
 10
1.812240
 20
-4.539654
  0
VERTEX
  8
PLAN_1
  6
CONTINUOUS
 10
1.811063
 20
-4.535539
  0
VERTEX
  8
PLAN_1
  6
CONTINUOUS
 10
1.809303
 20
-4.532016
  0
VERTEX
  8
PLAN_1
  6
CONTINUOUS
 10
1.807539
 20
-4.528492
  0
VERTEX
  8
PLAN_1
  6
CONTINUOUS
 10
1.805189
 20
-4.526142
  0
VERTEX
  8
PLAN_1
  6
CONTINUOUS
 10
1.802839
 20
-4.523791
  0
VERTEX
  8
PLAN_1
  6
CONTINUOUS
 10
1.799902
 20
-4.522028
  0
VERTEX
  8
PLAN_1
  6
CONTINUOUS
 10
1.794614
 20
-4.519091
  0
VERTEX
  8
PLAN_1
  6
CONTINUOUS
 10
1.788740
 20
-4.517331
  0
VERTEX
  8
PLAN_1
  6
CONTINUOUS
 10
1.782866
 20
-4.516740
  0
VERTEX
  8
PLAN_1
  6
CONTINUOUS
 10
1.776992
 20
-4.516740
  0
VERTEX
  8
PLAN_1
  6
CONTINUOUS
 10
1.710024
 20
-4.516740
  0
VERTEX
  8
PLAN_1
  6
CONTINUOUS
 10
1.710024
 20
-4.584299
  0
SEQEND
  8
0
  0
SOLID
  8
PLAN_1
 10
1.912106
 20
-4.692976
 11
1.883323
 21
-4.692976
 12
1.912106
 22
-4.663606
 13
1.883323
 23
-4.663606
  0
POLYLINE
  8
PLAN_1
  6
CONTINUOUS
 66
     1
 40
0.003000
 41
0.003000
  0
VERTEX
  8
PLAN_1
  6
CONTINUOUS
 10
1.912106
 20
-4.692976
  0
VERTEX
  8
PLAN_1
  6
CONTINUOUS
 10
1.883323
 20
-4.692976
  0
VERTEX
  8
PLAN_1
  6
CONTINUOUS
 10
1.883323
 20
-4.663606
  0
VERTEX
  8
PLAN_1
  6
CONTINUOUS
 10
1.912106
 20
-4.663606
  0
VERTEX
  8
PLAN_1
  6
CONTINUOUS
 10
1.912106
 20
-4.692976
  0
SEQEND
  8
0
  0
POLYLINE
  8
PLAN_1
  6
CONTINUOUS
 66
     1
 40
0.003000
 41
0.003000
  0
VERTEX
  8
PLAN_1
  6
CONTINUOUS
 10
2.107142
 20
-4.692976
  0
VERTEX
  8
PLAN_1
  6
CONTINUOUS
 10
1.960280
 20
-4.692976
  0
VERTEX
  8
PLAN_1
  6
CONTINUOUS
 10
1.960280
 20
-4.493831
  0
VERTEX
  8
PLAN_1
  6
CONTINUOUS
 10
2.105378
 20
-4.493831
  0
VERTEX
  8
PLAN_1
  6
CONTINUOUS
 10
2.105378
 20
-4.517331
  0
VERTEX
  8
PLAN_1
  6
CONTINUOUS
 10
1.987299
 20
-4.517331
  0
VERTEX
  8
PLAN_1
  6
CONTINUOUS
 10
1.987299
 20
-4.578425
  0
VERTEX
  8
PLAN_1
  6
CONTINUOUS
 10
2.096567
 20
-4.578425
  0
VERTEX
  8
PLAN_1
  6
CONTINUOUS
 10
2.096567
 20
-4.602508
  0
VERTEX
  8
PLAN_1
  6
CONTINUOUS
 10
1.987299
 20
-4.602508
  0
VERTEX
  8
PLAN_1
  6
CONTINUOUS
 10
1.987299
 20
-4.668894
  0
VERTEX
  8
PLAN_1
  6
CONTINUOUS
 10
2.107142
 20
-4.668894
  0
VERTEX
  8
PLAN_1
  6
CONTINUOUS
 10
2.107142
 20
-4.692976
  0
SEQEND
  8
0
  0
POLYLINE
  8
PLAN_1
  6
CONTINUOUS
 66
     1
 40
0.003000
 41
0.003000
  0
VERTEX
  8
PLAN_1
  6
CONTINUOUS
 10
2.172350
 20
-4.692976
  0
VERTEX
  8
PLAN_1
  6
CONTINUOUS
 10
2.145327
 20
-4.692976
  0
VERTEX
  8
PLAN_1
  6
CONTINUOUS
 10
2.145327
 20
-4.493831
  0
VERTEX
  8
PLAN_1
  6
CONTINUOUS
 10
2.235205
 20
-4.493831
  0
VERTEX
  8
PLAN_1
  6
CONTINUOUS
 10
2.241669
 20
-4.493831
  0
VERTEX
  8
PLAN_1
  6
CONTINUOUS
 10
2.248130
 20
-4.495004
  0
VERTEX
  8
PLAN_1
  6
CONTINUOUS
 10
2.254594
 20
-4.496181
  0
VERTEX
  8
PLAN_1
  6
CONTINUOUS
 10
2.259878
 20
-4.497945
  0
VERTEX
  8
PLAN_1
  6
CONTINUOUS
 10
2.265165
 20
-4.500291
  0
VERTEX
  8
PLAN_1
  6
CONTINUOUS
 10
2.269866
 20
-4.503228
  0
VERTEX
  8
PLAN_1
  6
CONTINUOUS
 10
2.274567
 20
-4.506165
  0
VERTEX
  8
PLAN_1
  6
CONTINUOUS
 10
2.278677
 20
-4.509693
  0
VERTEX
  8
PLAN_1
  6
CONTINUOUS
 10
2.282205
 20
-4.513803
  0
VERTEX
  8
PLAN_1
  6
CONTINUOUS
 10
2.285142
 20
-4.517917
  0
VERTEX
  8
PLAN_1
  6
CONTINUOUS
 10
2.288079
 20
-4.522614
  0
VERTEX
  8
PLAN_1
  6
CONTINUOUS
 10
2.290429
 20
-4.527315
  0
VERTEX
  8
PLAN_1
  6
CONTINUOUS
 10
2.292189
 20
-4.532602
  0
VERTEX
  8
PLAN_1
  6
CONTINUOUS
 10
2.293366
 20
-4.537890
  0
VERTEX
  8
PLAN_1
  6
CONTINUOUS
 10
2.293953
 20
-4.543764
  0
VERTEX
  8
PLAN_1
  6
CONTINUOUS
 10
2.294539
 20
-4.549638
  0
VERTEX
  8
PLAN_1
  6
CONTINUOUS
 10
2.293953
 20
-4.554925
  0
VERTEX
  8
PLAN_1
  6
CONTINUOUS
 10
2.293366
 20
-4.560213
  0
VERTEX
  8
PLAN_1
  6
CONTINUOUS
 10
2.292776
 20
-4.565500
  0
VERTEX
  8
PLAN_1
  6
CONTINUOUS
 10
2.291016
 20
-4.570787
  0
VERTEX
  8
PLAN_1
  6
CONTINUOUS
 10
2.289252
 20
-4.575488
  0
VERTEX
  8
PLAN_1
  6
CONTINUOUS
 10
2.286902
 20
-4.580776
  0
VERTEX
  8
PLAN_1
  6
CONTINUOUS
 10
2.283965
 20
-4.585472
  0
VERTEX
  8
PLAN_1
  6
CONTINUOUS
 10
2.281028
 20
-4.589587
  0
VERTEX
  8
PLAN_1
  6
CONTINUOUS
 10
2.277504
 20
-4.593697
  0
VERTEX
  8
PLAN_1
  6
CONTINUOUS
 10
2.272803
 20
-4.597224
  0
VERTEX
  8
PLAN_1
  6
CONTINUOUS
 10
2.268102
 20
-4.600748
  0
VERTEX
  8
PLAN_1
  6
CONTINUOUS
 10
2.262815
 20
-4.603685
  0
VERTEX
  8
PLAN_1
  6
CONTINUOUS
 10
2.256941
 20
-4.606035
  0
VERTEX
  8
PLAN_1
  6
CONTINUOUS
 10
2.249894
 20
-4.607209
  0
VERTEX
  8
PLAN_1
  6
CONTINUOUS
 10
2.242843
 20
-4.608386
  0
VERTEX
  8
PLAN_1
  6
CONTINUOUS
 10
2.235205
 20
-4.608972
  0
VERTEX
  8
PLAN_1
  6
CONTINUOUS
 10
2.172350
 20
-4.608972
  0
VERTEX
  8
PLAN_1
  6
CONTINUOUS
 10
2.172350
 20
-4.692976
  0
SEQEND
  8
0
  0
POLYLINE
  8
PLAN_1
  6
CONTINUOUS
 66
     1
 40
0.003000
 41
0.003000
  0
VERTEX
  8
PLAN_1
  6
CONTINUOUS
 10
2.172350
 20
-4.586063
  0
VERTEX
  8
PLAN_1
  6
CONTINUOUS
 10
2.225807
 20
-4.586063
  0
VERTEX
  8
PLAN_1
  6
CONTINUOUS
 10
2.234618
 20
-4.585472
  0
VERTEX
  8
PLAN_1
  6
CONTINUOUS
 10
2.242843
 20
-4.584299
  0
VERTEX
  8
PLAN_1
  6
CONTINUOUS
 10
2.246370
 20
-4.583122
  0
VERTEX
  8
PLAN_1
  6
CONTINUOUS
 10
2.249307
 20
-4.581362
  0
VERTEX
  8
PLAN_1
  6
CONTINUOUS
 10
2.252831
 20
-4.580185
  0
VERTEX
  8
PLAN_1
  6
CONTINUOUS
 10
2.255181
 20
-4.577839
  0
VERTEX
  8
PLAN_1
  6
CONTINUOUS
 10
2.258118
 20
-4.576075
  0
VERTEX
  8
PLAN_1
  6
CONTINUOUS
 10
2.259878
 20
-4.573138
  0
VERTEX
  8
PLAN_1
  6
CONTINUOUS
 10
2.262228
 20
-4.570201
  0
VERTEX
  8
PLAN_1
  6
CONTINUOUS
 10
2.263406
 20
-4.567264
  0
VERTEX
  8
PLAN_1
  6
CONTINUOUS
 10
2.265165
 20
-4.563150
  0
VERTEX
  8
PLAN_1
  6
CONTINUOUS
 10
2.265756
 20
-4.559039
  0
VERTEX
  8
PLAN_1
  6
CONTINUOUS
 10
2.266343
 20
-4.554925
  0
VERTEX
  8
PLAN_1
  6
CONTINUOUS
 10
2.266343
 20
-4.550224
  0
VERTEX
  8
PLAN_1
  6
CONTINUOUS
 10
2.266343
 20
-4.545528
  0
VERTEX
  8
PLAN_1
  6
CONTINUOUS
 10
2.265756
 20
-4.541413
  0
VERTEX
  8
PLAN_1
  6
CONTINUOUS
 10
2.264579
 20
-4.537303
  0
VERTEX
  8
PLAN_1
  6
CONTINUOUS
 10
2.263406
 20
-4.534366
  0
VERTEX
  8
PLAN_1
  6
CONTINUOUS
 10
2.261642
 20
-4.530839
  0
VERTEX
  8
PLAN_1
  6
CONTINUOUS
 10
2.259878
 20
-4.528492
  0
VERTEX
  8
PLAN_1
  6
CONTINUOUS
 10
2.257531
 20
-4.526142
  0
VERTEX
  8
PLAN_1
  6
CONTINUOUS
 10
2.255181
 20
-4.523791
  0
VERTEX
  8
PLAN_1
  6
CONTINUOUS
 10
2.252244
 20
-4.522028
  0
VERTEX
  8
PLAN_1
  6
CONTINUOUS
 10
2.249307
 20
-4.520854
  0
VERTEX
  8
PLAN_1
  6
CONTINUOUS
 10
2.246370
 20
-4.519091
  0
VERTEX
  8
PLAN_1
  6
CONTINUOUS
 10
2.242843
 20
-4.518504
  0
VERTEX
  8
PLAN_1
  6
CONTINUOUS
 10
2.235205
 20
-4.517331
  0
VERTEX
  8
PLAN_1
  6
CONTINUOUS
 10
2.226980
 20
-4.516740
  0
VERTEX
  8
PLAN_1
  6
CONTINUOUS
 10
2.172350
 20
-4.516740
  0
VERTEX
  8
PLAN_1
  6
CONTINUOUS
 10
2.172350
 20
-4.586063
  0
SEQEND
  8
0
  0
POLYLINE
  8
PLAN_1
  6
CONTINUOUS
 66
     1
 40
0.003000
 41
0.003000
  0
VERTEX
  8
PLAN_1
  6
CONTINUOUS
 10
2.448453
 20
-4.551988
  0
VERTEX
  8
PLAN_1
  6
CONTINUOUS
 10
2.447866
 20
-4.546701
  0
VERTEX
  8
PLAN_1
  6
CONTINUOUS
 10
2.446689
 20
-4.541413
  0
VERTEX
  8
PLAN_1
  6
CONTINUOUS
 10
2.444929
 20
-4.536717
  0
VERTEX
  8
PLAN_1
  6
CONTINUOUS
 10
2.443165
 20
-4.532602
  0
VERTEX
  8
PLAN_1
  6
CONTINUOUS
 10
2.440815
 20
-4.529079
  0
VERTEX
  8
PLAN_1
  6
CONTINUOUS
 10
2.437878
 20
-4.525555
  0
VERTEX
  8
PLAN_1
  6
CONTINUOUS
 10
2.434941
 20
-4.522614
  0
VERTEX
  8
PLAN_1
  6
CONTINUOUS
 10
2.431417
 20
-4.520268
  0
VERTEX
  8
PLAN_1
  6
CONTINUOUS
 10
2.427890
 20
-4.517917
  0
VERTEX
  8
PLAN_1
  6
CONTINUOUS
 10
2.423780
 20
-4.516154
  0
VERTEX
  8
PLAN_1
  6
CONTINUOUS
 10
2.419665
 20
-4.514390
  0
VERTEX
  8
PLAN_1
  6
CONTINUOUS
 10
2.415555
 20
-4.513217
  0
VERTEX
  8
PLAN_1
  6
CONTINUOUS
 10
2.407331
 20
-4.512043
  0
VERTEX
  8
PLAN_1
  6
CONTINUOUS
 10
2.398520
 20
-4.511453
  0
VERTEX
  8
PLAN_1
  6
CONTINUOUS
 10
2.392055
 20
-4.511453
  0
VERTEX
  8
PLAN_1
  6
CONTINUOUS
 10
2.384421
 20
-4.512630
  0
VERTEX
  8
PLAN_1
  6
CONTINUOUS
 10
2.380894
 20
-4.513217
  0
VERTEX
  8
PLAN_1
  6
CONTINUOUS
 10
2.376783
 20
-4.514390
  0
VERTEX
  8
PLAN_1
  6
CONTINUOUS
 10
2.373260
 20
-4.516154
  0
VERTEX
  8
PLAN_1
  6
CONTINUOUS
 10
2.369732
 20
-4.517331
  0
VERTEX
  8
PLAN_1
  6
CONTINUOUS
 10
2.366209
 20
-4.519677
  0
VERTEX
  8
PLAN_1
  6
CONTINUOUS
 10
2.363272
 20
-4.522028
  0
VERTEX
  8
PLAN_1
  6
CONTINUOUS
 10
2.360335
 20
-4.524965
  0
VERTEX
  8
PLAN_1
  6
CONTINUOUS
 10
2.357984
 20
-4.528492
  0
VERTEX
  8
PLAN_1
  6
CONTINUOUS
 10
2.356220
 20
-4.532016
  0
VERTEX
  8
PLAN_1
  6
CONTINUOUS
 10
2.354461
 20
-4.536126
  0
VERTEX
  8
PLAN_1
  6
CONTINUOUS
 10
2.353874
 20
-4.540827
  0
VERTEX
  8
PLAN_1
  6
CONTINUOUS
 10
2.353283
 20
-4.546701
  0
VERTEX
  8
PLAN_1
  6
CONTINUOUS
 10
2.353874
 20
-4.551988
  0
VERTEX
  8
PLAN_1
  6
CONTINUOUS
 10
2.355047
 20
-4.557276
  0
VERTEX
  8
PLAN_1
  6
CONTINUOUS
 10
2.357398
 20
-4.561390
  0
VERTEX
  8
PLAN_1
  6
CONTINUOUS
 10
2.360921
 20
-4.564327
  0
VERTEX
  8
PLAN_1
  6
CONTINUOUS
 10
2.364445
 20
-4.566673
  0
VERTEX
  8
PLAN_1
  6
CONTINUOUS
 10
2.367972
 20
-4.569024
  0
VERTEX
  8
PLAN_1
  6
CONTINUOUS
 10
2.372669
 20
-4.570787
  0
VERTEX
  8
PLAN_1
  6
CONTINUOUS
 10
2.376783
 20
-4.571961
  0
VERTEX
  8
PLAN_1
  6
CONTINUOUS
 10
2.433768
 20
-4.584886
  0
VERTEX
  8
PLAN_1
  6
CONTINUOUS
 10
2.443165
 20
-4.587236
  0
VERTEX
  8
PLAN_1
  6
CONTINUOUS
 10
2.451976
 20
-4.591346
  0
VERTEX
  8
PLAN_1
  6
CONTINUOUS
 10
2.455500
 20
-4.593697
  0
VERTEX
  8
PLAN_1
  6
CONTINUOUS
 10
2.459614
 20
-4.596047
  0
VERTEX
  8
PLAN_1
  6
CONTINUOUS
 10
2.463138
 20
-4.598984
  0
VERTEX
  8
PLAN_1
  6
CONTINUOUS
 10
2.466075
 20
-4.601921
  0
VERTEX
  8
PLAN_1
  6
CONTINUOUS
 10
2.469012
 20
-4.605449
  0
VERTEX
  8
PLAN_1
  6
CONTINUOUS
 10
2.471362
 20
-4.608972
  0
VERTEX
  8
PLAN_1
  6
CONTINUOUS
 10
2.473713
 20
-4.613083
  0
VERTEX
  8
PLAN_1
  6
CONTINUOUS
 10
2.475476
 20
-4.617197
  0
VERTEX
  8
PLAN_1
  6
CONTINUOUS
 10
2.477236
 20
-4.621898
  0
VERTEX
  8
PLAN_1
  6
CONTINUOUS
 10
2.477827
 20
-4.627181
  0
VERTEX
  8
PLAN_1
  6
CONTINUOUS
 10
2.479000
 20
-4.632469
  0
VERTEX
  8
PLAN_1
  6
CONTINUOUS
 10
2.479000
 20
-4.637756
  0
VERTEX
  8
PLAN_1
  6
CONTINUOUS
 10
2.478413
 20
-4.646567
  0
VERTEX
  8
PLAN_1
  6
CONTINUOUS
 10
2.477236
 20
-4.654205
  0
VERTEX
  8
PLAN_1
  6
CONTINUOUS
 10
2.474890
 20
-4.661256
  0
VERTEX
  8
PLAN_1
  6
CONTINUOUS
 10
2.471362
 20
-4.667130
  0
VERTEX
  8
PLAN_1
  6
CONTINUOUS
 10
2.467839
 20
-4.673004
  0
VERTEX
  8
PLAN_1
  6
CONTINUOUS
 10
2.463138
 20
-4.677705
  0
VERTEX
  8
PLAN_1
  6
CONTINUOUS
 10
2.458441
 20
-4.682402
  0
VERTEX
  8
PLAN_1
  6
CONTINUOUS
 10
2.452563
 20
-4.685929
  0
VERTEX
  8
PLAN_1
  6
CONTINUOUS
 10
2.446689
 20
-4.688866
  0
VERTEX
  8
PLAN_1
  6
CONTINUOUS
 10
2.440815
 20
-4.691803
  0
VERTEX
  8
PLAN_1
  6
CONTINUOUS
 10
2.434354
 20
-4.693567
  0
VERTEX
  8
PLAN_1
  6
CONTINUOUS
 10
2.427303
 20
-4.695327
  0
VERTEX
  8
PLAN_1
  6
CONTINUOUS
 10
2.420843
 20
-4.696504
  0
VERTEX
  8
PLAN_1
  6
CONTINUOUS
 10
2.414382
 20
-4.697677
  0
VERTEX
  8
PLAN_1
  6
CONTINUOUS
 10
2.407331
 20
-4.698264
  0
VERTEX
  8
PLAN_1
  6
CONTINUOUS
 10
2.400870
 20
-4.698264
  0
VERTEX
  8
PLAN_1
  6
CONTINUOUS
 10
2.387945
 20
-4.697677
  0
VERTEX
  8
PLAN_1
  6
CONTINUOUS
 10
2.377370
 20
-4.696504
  0
VERTEX
  8
PLAN_1
  6
CONTINUOUS
 10
2.367972
 20
-4.694154
  0
VERTEX
  8
PLAN_1
  6
CONTINUOUS
 10
2.360335
 20
-4.691803
  0
VERTEX
  8
PLAN_1
  6
CONTINUOUS
 10
2.353874
 20
-4.688866
  0
VERTEX
  8
PLAN_1
  6
CONTINUOUS
 10
2.348587
 20
-4.685343
  0
VERTEX
  8
PLAN_1
  6
CONTINUOUS
 10
2.344472
 20
-4.682402
  0
VERTEX
  8
PLAN_1
  6
CONTINUOUS
 10
2.340949
 20
-4.678878
  0
VERTEX
  8
PLAN_1
  6
CONTINUOUS
 10
2.335075
 20
-4.673591
  0
VERTEX
  8
PLAN_1
  6
CONTINUOUS
 10
2.330374
 20
-4.667130
  0
VERTEX
  8
PLAN_1
  6
CONTINUOUS
 10
2.326850
 20
-4.661256
  0
VERTEX
  8
PLAN_1
  6
CONTINUOUS
 10
2.324500
 20
-4.655382
  0
VERTEX
  8
PLAN_1
  6
CONTINUOUS
 10
2.322736
 20
-4.648917
  0
VERTEX
  8
PLAN_1
  6
CONTINUOUS
 10
2.321563
 20
-4.642457
  0
VERTEX
  8
PLAN_1
  6
CONTINUOUS
 10
2.320976
 20
-4.635406
  0
VERTEX
  8
PLAN_1
  6
CONTINUOUS
 10
2.320386
 20
-4.628358
  0
VERTEX
  8
PLAN_1
  6
CONTINUOUS
 10
2.345650
 20
-4.628358
  0
VERTEX
  8
PLAN_1
  6
CONTINUOUS
 10
2.346236
 20
-4.634819
  0
VERTEX
  8
PLAN_1
  6
CONTINUOUS
 10
2.346823
 20
-4.640693
  0
VERTEX
  8
PLAN_1
  6
CONTINUOUS
 10
2.348587
 20
-4.646567
  0
VERTEX
  8
PLAN_1
  6
CONTINUOUS
 10
2.350933
 20
-4.651268
  0
VERTEX
  8
PLAN_1
  6
CONTINUOUS
 10
2.353283
 20
-4.655382
  0
VERTEX
  8
PLAN_1
  6
CONTINUOUS
 10
2.356220
 20
-4.659492
  0
VERTEX
  8
PLAN_1
  6
CONTINUOUS
 10
2.359748
 20
-4.662429
  0
VERTEX
  8
PLAN_1
  6
CONTINUOUS
 10
2.363858
 20
-4.665366
  0
VERTEX
  8
PLAN_1
  6
CONTINUOUS
 10
2.367972
 20
-4.667717
  0
VERTEX
  8
PLAN_1
  6
CONTINUOUS
 10
2.372083
 20
-4.670067
  0
VERTEX
  8
PLAN_1
  6
CONTINUOUS
 10
2.376783
 20
-4.671831
  0
VERTEX
  8
PLAN_1
  6
CONTINUOUS
 10
2.381484
 20
-4.673004
  0
VERTEX
  8
PLAN_1
  6
CONTINUOUS
 10
2.390882
 20
-4.674768
  0
VERTEX
  8
PLAN_1
  6
CONTINUOUS
 10
2.400870
 20
-4.675354
  0
VERTEX
  8
PLAN_1
  6
CONTINUOUS
 10
2.408504
 20
-4.674768
  0
VERTEX
  8
PLAN_1
  6
CONTINUOUS
 10
2.417319
 20
-4.674181
  0
VERTEX
  8
PLAN_1
  6
CONTINUOUS
 10
2.421429
 20
-4.673004
  0
VERTEX
  8
PLAN_1
  6
CONTINUOUS
 10
2.425543
 20
-4.672417
  0
VERTEX
  8
PLAN_1
  6
CONTINUOUS
 10
2.430240
 20
-4.670654
  0
VERTEX
  8
PLAN_1
  6
CONTINUOUS
 10
2.434354
 20
-4.668894
  0
VERTEX
  8
PLAN_1
  6
CONTINUOUS
 10
2.437878
 20
-4.667130
  0
VERTEX
  8
PLAN_1
  6
CONTINUOUS
 10
2.441402
 20
-4.664780
  0
VERTEX
  8
PLAN_1
  6
CONTINUOUS
 10
2.444929
 20
-4.661843
  0
VERTEX
  8
PLAN_1
  6
CONTINUOUS
 10
2.447276
 20
-4.658906
  0
VERTEX
  8
PLAN_1
  6
CONTINUOUS
 10
2.449626
 20
-4.655382
  0
VERTEX
  8
PLAN_1
  6
CONTINUOUS
 10
2.451390
 20
-4.651268
  0
VERTEX
  8
PLAN_1
  6
CONTINUOUS
 10
2.452563
 20
-4.646567
  0
VERTEX
  8
PLAN_1
  6
CONTINUOUS
 10
2.453154
 20
-4.641870
  0
VERTEX
  8
PLAN_1
  6
CONTINUOUS
 10
2.452563
 20
-4.637756
  0
VERTEX
  8
PLAN_1
  6
CONTINUOUS
 10
2.452563
 20
-4.634232
  0
VERTEX
  8
PLAN_1
  6
CONTINUOUS
 10
2.451976
 20
-4.631295
  0
VERTEX
  8
PLAN_1
  6
CONTINUOUS
 10
2.450803
 20
-4.628358
  0
VERTEX
  8
PLAN_1
  6
CONTINUOUS
 10
2.449626
 20
-4.626008
  0
VERTEX
  8
PLAN_1
  6
CONTINUOUS
 10
2.447866
 20
-4.623657
  0
VERTEX
  8
PLAN_1
  6
CONTINUOUS
 10
2.446102
 20
-4.621307
  0
VERTEX
  8
PLAN_1
  6
CONTINUOUS
 10
2.443752
 20
-4.618957
  0
VERTEX
  8
PLAN_1
  6
CONTINUOUS
 10
2.438465
 20
-4.615433
  0
VERTEX
  8
PLAN_1
  6
CONTINUOUS
 10
2.430831
 20
-4.612496
  0
VERTEX
  8
PLAN_1
  6
CONTINUOUS
 10
2.421429
 20
-4.609559
  0
VERTEX
  8
PLAN_1
  6
CONTINUOUS
 10
2.410268
 20
-4.606622
  0
VERTEX
  8
PLAN_1
  6
CONTINUOUS
 10
2.369732
 20
-4.597224
  0
VERTEX
  8
PLAN_1
  6
CONTINUOUS
 10
2.363858
 20
-4.595461
  0
VERTEX
  8
PLAN_1
  6
CONTINUOUS
 10
2.357398
 20
-4.593110
  0
VERTEX
  8
PLAN_1
  6
CONTINUOUS
 10
2.350346
 20
-4.590173
  0
VERTEX
  8
PLAN_1
  6
CONTINUOUS
 10
2.343299
 20
-4.585472
  0
VERTEX
  8
PLAN_1
  6
CONTINUOUS
 10
2.340362
 20
-4.582535
  0
VERTEX
  8
PLAN_1
  6
CONTINUOUS
 10
2.337425
 20
-4.579598
  0
VERTEX
  8
PLAN_1
  6
CONTINUOUS
 10
2.334488
 20
-4.575488
  0
VERTEX
  8
PLAN_1
  6
CONTINUOUS
 10
2.332138
 20
-4.571374
  0
VERTEX
  8
PLAN_1
  6
CONTINUOUS
 10
2.329787
 20
-4.567264
  0
VERTEX
  8
PLAN_1
  6
CONTINUOUS
 10
2.328610
 20
-4.561976
  0
VERTEX
  8
PLAN_1
  6
CONTINUOUS
 10
2.327437
 20
-4.556102
  0
VERTEX
  8
PLAN_1
  6
CONTINUOUS
 10
2.327437
 20
-4.550224
  0
VERTEX
  8
PLAN_1
  6
CONTINUOUS
 10
2.327437
 20
-4.544350
  0
VERTEX
  8
PLAN_1
  6
CONTINUOUS
 10
2.328024
 20
-4.538476
  0
VERTEX
  8
PLAN_1
  6
CONTINUOUS
 10
2.329201
 20
-4.532602
  0
VERTEX
  8
PLAN_1
  6
CONTINUOUS
 10
2.330961
 20
-4.527315
  0
VERTEX
  8
PLAN_1
  6
CONTINUOUS
 10
2.333311
 20
-4.522028
  0
VERTEX
  8
PLAN_1
  6
CONTINUOUS
 10
2.336248
 20
-4.516740
  0
VERTEX
  8
PLAN_1
  6
CONTINUOUS
 10
2.339185
 20
-4.512043
  0
VERTEX
  8
PLAN_1
  6
CONTINUOUS
 10
2.343299
 20
-4.507343
  0
VERTEX
  8
PLAN_1
  6
CONTINUOUS
 10
2.347996
 20
-4.503228
  0
VERTEX
  8
PLAN_1
  6
CONTINUOUS
 10
2.352697
 20
-4.499705
  0
VERTEX
  8
PLAN_1
  6
CONTINUOUS
 10
2.358571
 20
-4.496181
  0
VERTEX
  8
PLAN_1
  6
CONTINUOUS
 10
2.364445
 20
-4.493831
  0
VERTEX
  8
PLAN_1
  6
CONTINUOUS
 10
2.371496
 20
-4.491480
  0
VERTEX
  8
PLAN_1
  6
CONTINUOUS
 10
2.379134
 20
-4.489720
  0
VERTEX
  8
PLAN_1
  6
CONTINUOUS
 10
2.386772
 20
-4.488543
  0
VERTEX
  8
PLAN_1
  6
CONTINUOUS
 10
2.395583
 20
-4.488543
  0
VERTEX
  8
PLAN_1
  6
CONTINUOUS
 10
2.407917
 20
-4.489130
  0
VERTEX
  8
PLAN_1
  6
CONTINUOUS
 10
2.419079
 20
-4.490307
  0
VERTEX
  8
PLAN_1
  6
CONTINUOUS
 10
2.428480
 20
-4.492657
  0
VERTEX
  8
PLAN_1
  6
CONTINUOUS
 10
2.437291
 20
-4.495004
  0
VERTEX
  8
PLAN_1
  6
CONTINUOUS
 10
2.444339
 20
-4.498531
  0
VERTEX
  8
PLAN_1
  6
CONTINUOUS
 10
2.450803
 20
-4.502642
  0
VERTEX
  8
PLAN_1
  6
CONTINUOUS
 10
2.456091
 20
-4.507343
  0
VERTEX
  8
PLAN_1
  6
CONTINUOUS
 10
2.460201
 20
-4.512043
  0
VERTEX
  8
PLAN_1
  6
CONTINUOUS
 10
2.463724
 20
-4.516740
  0
VERTEX
  8
PLAN_1
  6
CONTINUOUS
 10
2.466665
 20
-4.522028
  0
VERTEX
  8
PLAN_1
  6
CONTINUOUS
 10
2.469012
 20
-4.527315
  0
VERTEX
  8
PLAN_1
  6
CONTINUOUS
 10
2.470776
 20
-4.532602
  0
VERTEX
  8
PLAN_1
  6
CONTINUOUS
 10
2.472539
 20
-4.543177
  0
VERTEX
  8
PLAN_1
  6
CONTINUOUS
 10
2.473713
 20
-4.551988
  0
VERTEX
  8
PLAN_1
  6
CONTINUOUS
 10
2.448453
 20
-4.551988
  0
SEQEND
  8
0
  0
POLYLINE
  8
PLAN_1
  6
CONTINUOUS
 66
     1
 40
0.008220
 41
0.008220
  0
VERTEX
  8
PLAN_1
  6
CONTINUOUS
 10
-2.292890
 20
1.350161
  0
VERTEX
  8
PLAN_1
  6
CONTINUOUS
 10
-2.292890
 20
1.835398
  0
VERTEX
  8
PLAN_1
  6
CONTINUOUS
 10
-2.407441
 20
1.835398
  0
VERTEX
  8
PLAN_1
  6
CONTINUOUS
 10
-2.407441
 20
1.350161
  0
VERTEX
  8
PLAN_1
  6
CONTINUOUS
 10
-2.292890
 20
1.350161
  0
SEQEND
  8
0
  0
POLYLINE
  8
PLAN_1
  6
CONTINUOUS
 66
     1
 40
0.008220
 41
0.008220
  0
VERTEX
  8
PLAN_1
  6
CONTINUOUS
 10
-2.406854
 20
1.711445
  0
VERTEX
  8
PLAN_1
  6
CONTINUOUS
 10
-2.295827
 20
1.711445
  0
SEQEND
  8
0
  0
POLYLINE
  8
PLAN_1
  6
CONTINUOUS
 66
     1
 40
0.008220
 41
0.008220
  0
VERTEX
  8
PLAN_1
  6
CONTINUOUS
 10
-2.406854
 20
1.473528
  0
VERTEX
  8
PLAN_1
  6
CONTINUOUS
 10
-2.295827
 20
1.473528
  0
SEQEND
  8
0
  0
POLYLINE
  8
PLAN_1
  6
CONTINUOUS
 66
     1
 40
0.008220
 41
0.008220
  0
VERTEX
  8
PLAN_1
  6
CONTINUOUS
 10
-2.393933
 20
1.834811
  0
VERTEX
  8
PLAN_1
  6
CONTINUOUS
 10
-2.395106
 20
1.831874
  0
VERTEX
  8
PLAN_1
  6
CONTINUOUS
 10
-2.398630
 20
1.824236
  0
VERTEX
  8
PLAN_1
  6
CONTINUOUS
 10
-2.400394
 20
1.818362
  0
VERTEX
  8
PLAN_1
  6
CONTINUOUS
 10
-2.402157
 20
1.811902
  0
VERTEX
  8
PLAN_1
  6
CONTINUOUS
 10
-2.404504
 20
1.804264
  0
VERTEX
  8
PLAN_1
  6
CONTINUOUS
 10
-2.405681
 20
1.796039
  0
VERTEX
  8
PLAN_1
  6
CONTINUOUS
 10
-2.406854
 20
1.786642
  0
VERTEX
  8
PLAN_1
  6
CONTINUOUS
 10
-2.407441
 20
1.777240
  0
VERTEX
  8
PLAN_1
  6
CONTINUOUS
 10
-2.407441
 20
1.766665
  0
VERTEX
  8
PLAN_1
  6
CONTINUOUS
 10
-2.406854
 20
1.756094
  0
VERTEX
  8
PLAN_1
  6
CONTINUOUS
 10
-2.404504
 20
1.744933
  0
VERTEX
  8
PLAN_1
  6
CONTINUOUS
 10
-2.401567
 20
1.733768
  0
VERTEX
  8
PLAN_1
  6
CONTINUOUS
 10
-2.399807
 20
1.727894
  0
VERTEX
  8
PLAN_1
  6
CONTINUOUS
 10
-2.397457
 20
1.722606
  0
VERTEX
  8
PLAN_1
  6
CONTINUOUS
 10
-2.394520
 20
1.716732
  0
VERTEX
  8
PLAN_1
  6
CONTINUOUS
 10
-2.391583
 20
1.710858
  0
VERTEX
  8
PLAN_1
  6
CONTINUOUS
 10
-2.392756
 20
1.706748
  0
VERTEX
  8
PLAN_1
  6
CONTINUOUS
 10
-2.396280
 20
1.693823
  0
VERTEX
  8
PLAN_1
  6
CONTINUOUS
 10
-2.398630
 20
1.684425
  0
VERTEX
  8
PLAN_1
  6
CONTINUOUS
 10
-2.400980
 20
1.673264
  0
VERTEX
  8
PLAN_1
  6
CONTINUOUS
 10
-2.402744
 20
1.660339
  0
VERTEX
  8
PLAN_1
  6
CONTINUOUS
 10
-2.404504
 20
1.645650
  0
VERTEX
  8
PLAN_1
  6
CONTINUOUS
 10
-2.406268
 20
1.629205
  0
VERTEX
  8
PLAN_1
  6
CONTINUOUS
 10
-2.407441
 20
1.610992
  0
VERTEX
  8
PLAN_1
  6
CONTINUOUS
 10
-2.408031
 20
1.591606
  0
VERTEX
  8
PLAN_1
  6
CONTINUOUS
 10
-2.407441
 20
1.570457
  0
VERTEX
  8
PLAN_1
  6
CONTINUOUS
 10
-2.405681
 20
1.548134
  0
VERTEX
  8
PLAN_1
  6
CONTINUOUS
 10
-2.403331
 20
1.524638
  0
VERTEX
  8
PLAN_1
  6
CONTINUOUS
 10
-2.401567
 20
1.512299
  0
VERTEX
  8
PLAN_1
  6
CONTINUOUS
 10
-2.399807
 20
1.499965
  0
VERTEX
  8
PLAN_1
  6
CONTINUOUS
 10
-2.396870
 20
1.487039
  0
VERTEX
  8
PLAN_1
  6
CONTINUOUS
 10
-2.394520
 20
1.473528
  0
VERTEX
  8
PLAN_1
  6
CONTINUOUS
 10
-2.395693
 20
1.471177
  0
VERTEX
  8
PLAN_1
  6
CONTINUOUS
 10
-2.398630
 20
1.462953
  0
VERTEX
  8
PLAN_1
  6
CONTINUOUS
 10
-2.400980
 20
1.457665
  0
VERTEX
  8
PLAN_1
  6
CONTINUOUS
 10
-2.402744
 20
1.451205
  0
VERTEX
  8
PLAN_1
  6
CONTINUOUS
 10
-2.404504
 20
1.443567
  0
VERTEX
  8
PLAN_1
  6
CONTINUOUS
 10
-2.406268
 20
1.435343
  0
VERTEX
  8
PLAN_1
  6
CONTINUOUS
 10
-2.407441
 20
1.426531
  0
VERTEX
  8
PLAN_1
  6
CONTINUOUS
 10
-2.408031
 20
1.417130
  0
VERTEX
  8
PLAN_1
  6
CONTINUOUS
 10
-2.408031
 20
1.407146
  0
VERTEX
  8
PLAN_1
  6
CONTINUOUS
 10
-2.406854
 20
1.396571
  0
VERTEX
  8
PLAN_1
  6
CONTINUOUS
 10
-2.405094
 20
1.385409
  0
VERTEX
  8
PLAN_1
  6
CONTINUOUS
 10
-2.402157
 20
1.374248
  0
VERTEX
  8
PLAN_1
  6
CONTINUOUS
 10
-2.399807
 20
1.368374
  0
VERTEX
  8
PLAN_1
  6
CONTINUOUS
 10
-2.397457
 20
1.363087
  0
VERTEX
  8
PLAN_1
  6
CONTINUOUS
 10
-2.395106
 20
1.357213
  0
VERTEX
  8
PLAN_1
  6
CONTINUOUS
 10
-2.391583
 20
1.351339
  0
SEQEND
  8
0
  0
POLYLINE
  8
PLAN_1
  6
CONTINUOUS
 66
     1
 40
0.008220
 41
0.008220
  0
VERTEX
  8
PLAN_1
  6
CONTINUOUS
 10
-1.526260
 20
2.025736
  0
VERTEX
  8
PLAN_1
  6
CONTINUOUS
 10
-1.526260
 20
1.148665
  0
SEQEND
  8
0
  0
POLYLINE
  8
PLAN_1
  6
CONTINUOUS
 66
     1
 40
0.008220
 41
0.008220
  0
VERTEX
  8
PLAN_1
  6
CONTINUOUS
 10
-1.637291
 20
2.025146
  0
VERTEX
  8
PLAN_1
  6
CONTINUOUS
 10
-1.637291
 20
1.156890
  0
SEQEND
  8
0
  0
POLYLINE
  8
PLAN_1
  6
CONTINUOUS
 66
     1
 40
0.008220
 41
0.008220
  0
VERTEX
  8
PLAN_1
  6
CONTINUOUS
 10
-1.905169
 20
1.264394
  0
VERTEX
  8
PLAN_1
  6
CONTINUOUS
 10
-1.905169
 20
1.900020
  0
SEQEND
  8
0
  0
POLYLINE
  8
PLAN_1
  6
CONTINUOUS
 66
     1
 40
0.008220
 41
0.008220
  0
VERTEX
  8
PLAN_1
  6
CONTINUOUS
 10
-2.461488
 20
1.729071
  0
VERTEX
  8
PLAN_1
  6
CONTINUOUS
 10
-2.461488
 20
1.453555
  0
SEQEND
  8
0
  0
POLYLINE
  8
PLAN_1
  6
CONTINUOUS
 66
     1
 40
0.008220
 41
0.008220
  0
VERTEX
  8
PLAN_1
  6
CONTINUOUS
 10
-2.461488
 20
1.453555
  0
VERTEX
  8
PLAN_1
  6
CONTINUOUS
 10
-2.470890
 20
1.462953
  0
VERTEX
  8
PLAN_1
  6
CONTINUOUS
 10
-2.470890
 20
1.718496
  0
VERTEX
  8
PLAN_1
  6
CONTINUOUS
 10
-2.461488
 20
1.727894
  0
VERTEX
  8
PLAN_1
  6
CONTINUOUS
 10
-2.408031
 20
1.729071
  0
VERTEX
  8
PLAN_1
  6
CONTINUOUS
 10
-2.408031
 20
1.453555
  0
VERTEX
  8
PLAN_1
  6
CONTINUOUS
 10
-2.461488
 20
1.453555
  0
SEQEND
  8
0
  0
POLYLINE
  8
PLAN_1
  6
CONTINUOUS
 66
     1
 40
0.008220
 41
0.008220
  0
VERTEX
  8
PLAN_1
  6
CONTINUOUS
 10
-0.132232
 20
-2.328476
  0
VERTEX
  8
PLAN_1
  6
CONTINUOUS
 10
-0.132232
 20
0.990642
  0
VERTEX
  8
PLAN_1
  6
CONTINUOUS
 10
-1.871685
 20
0.990642
  0
VERTEX
  8
PLAN_1
  6
CONTINUOUS
 10
-1.871685
 20
-2.328476
  0
VERTEX
  8
PLAN_1
  6
CONTINUOUS
 10
-0.132232
 20
-2.328476
  0
SEQEND
  8
0
  0
POLYLINE
  8
PLAN_1
  6
CONTINUOUS
 66
     1
 40
0.008220
 41
0.008220
  0
VERTEX
  8
PLAN_1
  6
CONTINUOUS
 10
-1.192587
 20
0.990642
  0
VERTEX
  8
PLAN_1
  6
CONTINUOUS
 10
-1.192587
 20
1.205650
  0
VERTEX
  8
PLAN_1
  6
CONTINUOUS
 10
-1.529787
 20
1.205650
  0
VERTEX
  8
PLAN_1
  6
CONTINUOUS
 10
-1.529787
 20
0.990642
  0
VERTEX
  8
PLAN_1
  6
CONTINUOUS
 10
-1.192587
 20
0.990642
  0
SEQEND
  8
0
  0
POLYLINE
  8
PLAN_1
  6
CONTINUOUS
 66
     1
 40
0.008220
 41
0.008220
  0
VERTEX
  8
PLAN_1
  6
CONTINUOUS
 10
-0.132232
 20
0.990642
  0
VERTEX
  8
PLAN_1
  6
CONTINUOUS
 10
-0.132232
 20
1.205650
  0
VERTEX
  8
PLAN_1
  6
CONTINUOUS
 10
-0.474130
 20
1.205650
  0
VERTEX
  8
PLAN_1
  6
CONTINUOUS
 10
-0.474130
 20
0.990642
  0
VERTEX
  8
PLAN_1
  6
CONTINUOUS
 10
-0.132232
 20
0.990642
  0
SEQEND
  8
0
  0
POLYLINE
  8
PLAN_1
  6
CONTINUOUS
 66
     1
 40
0.008220
 41
0.008220
  0
VERTEX
  8
PLAN_1
  6
CONTINUOUS
 10
-0.108736
 20
0.631705
  0
VERTEX
  8
PLAN_1
  6
CONTINUOUS
 10
-0.108736
 20
0.955394
  0
VERTEX
  8
PLAN_1
  6
CONTINUOUS
 10
-0.129295
 20
0.955394
  0
VERTEX
  8
PLAN_1
  6
CONTINUOUS
 10
-0.129295
 20
0.631705
  0
VERTEX
  8
PLAN_1
  6
CONTINUOUS
 10
-0.108736
 20
0.631705
  0
SEQEND
  8
0
  0
POLYLINE
  8
PLAN_1
  6
CONTINUOUS
 66
     1
 40
0.008220
 41
0.008220
  0
VERTEX
  8
PLAN_1
  6
CONTINUOUS
 10
-0.108736
 20
-2.297339
  0
VERTEX
  8
PLAN_1
  6
CONTINUOUS
 10
-0.108736
 20
-1.973654
  0
VERTEX
  8
PLAN_1
  6
CONTINUOUS
 10
-0.129295
 20
-1.973654
  0
VERTEX
  8
PLAN_1
  6
CONTINUOUS
 10
-0.129295
 20
-2.297339
  0
VERTEX
  8
PLAN_1
  6
CONTINUOUS
 10
-0.108736
 20
-2.297339
  0
SEQEND
  8
0
  0
POLYLINE
  8
PLAN_1
  6
CONTINUOUS
 66
     1
 40
0.008220
 41
0.008220
  0
VERTEX
  8
PLAN_1
  6
CONTINUOUS
 10
-1.791205
 20
0.990642
  0
VERTEX
  8
PLAN_1
  6
CONTINUOUS
 10
-1.791205
 20
-2.328476
  0
SEQEND
  8
0
  0
POLYLINE
  8
PLAN_1
  6
CONTINUOUS
 66
     1
 40
0.008220
 41
0.008220
  0
VERTEX
  8
PLAN_1
  6
CONTINUOUS
 10
-1.701909
 20
0.990642
  0
VERTEX
  8
PLAN_1
  6
CONTINUOUS
 10
-1.701909
 20
-2.328476
  0
SEQEND
  8
0
  0
POLYLINE
  8
PLAN_1
  6
CONTINUOUS
 66
     1
 40
0.008220
 41
0.008220
  0
VERTEX
  8
PLAN_1
  6
CONTINUOUS
 10
-1.701909
 20
0.364413
  0
VERTEX
  8
PLAN_1
  6
CONTINUOUS
 10
-1.529787
 20
0.364413
  0
VERTEX
  8
PLAN_1
  6
CONTINUOUS
 10
-1.529787
 20
0.990642
  0
SEQEND
  8
0
  0
POLYLINE
  8
PLAN_1
  6
CONTINUOUS
 66
     1
 40
0.008220
 41
0.008220
  0
VERTEX
  8
PLAN_1
  6
CONTINUOUS
 10
-1.697799
 20
-1.739260
  0
VERTEX
  8
PLAN_1
  6
CONTINUOUS
 10
-1.528024
 20
-1.739260
  0
VERTEX
  8
PLAN_1
  6
CONTINUOUS
 10
-1.528024
 20
-2.329650
  0
SEQEND
  8
0
  0
POLYLINE
  8
PLAN_1
  6
CONTINUOUS
 66
     1
 40
0.008220
 41
0.008220
  0
VERTEX
  8
PLAN_1
  6
CONTINUOUS
 10
-1.871685
 20
-2.235657
  0
VERTEX
  8
PLAN_1
  6
CONTINUOUS
 10
-1.871685
 20
-1.960728
  0
VERTEX
  8
PLAN_1
  6
CONTINUOUS
 10
-1.976839
 20
-1.960728
  0
VERTEX
  8
PLAN_1
  6
CONTINUOUS
 10
-1.976839
 20
-2.235657
  0
VERTEX
  8
PLAN_1
  6
CONTINUOUS
 10
-1.871685
 20
-2.235657
  0
SEQEND
  8
0
  0
POLYLINE
  8
PLAN_1
  6
CONTINUOUS
 66
     1
 40
0.008220
 41
0.008220
  0
VERTEX
  8
PLAN_1
  6
CONTINUOUS
 10
-1.920445
 20
-2.210984
  0
VERTEX
  8
PLAN_1
  6
CONTINUOUS
 10
-1.920445
 20
-2.186898
  0
VERTEX
  8
PLAN_1
  6
CONTINUOUS
 10
-1.976839
 20
-2.186898
  0
VERTEX
  8
PLAN_1
  6
CONTINUOUS
 10
-1.976839
 20
-2.210984
  0
VERTEX
  8
PLAN_1
  6
CONTINUOUS
 10
-1.920445
 20
-2.210984
  0
SEQEND
  8
0
  0
POLYLINE
  8
PLAN_1
  6
CONTINUOUS
 66
     1
 40
0.008220
 41
0.008220
  0
VERTEX
  8
PLAN_1
  6
CONTINUOUS
 10
-1.871685
 20
0.900760
  0
VERTEX
  8
PLAN_1
  6
CONTINUOUS
 10
-1.871685
 20
0.625831
  0
VERTEX
  8
PLAN_1
  6
CONTINUOUS
 10
-1.976839
 20
0.625831
  0
VERTEX
  8
PLAN_1
  6
CONTINUOUS
 10
-1.976839
 20
0.900760
  0
VERTEX
  8
PLAN_1
  6
CONTINUOUS
 10
-1.871685
 20
0.900760
  0
SEQEND
  8
0
  0
POLYLINE
  8
PLAN_1
  6
CONTINUOUS
 66
     1
 40
0.008220
 41
0.008220
  0
VERTEX
  8
PLAN_1
  6
CONTINUOUS
 10
-1.920445
 20
0.876673
  0
VERTEX
  8
PLAN_1
  6
CONTINUOUS
 10
-1.920445
 20
0.852000
  0
VERTEX
  8
PLAN_1
  6
CONTINUOUS
 10
-1.976839
 20
0.852000
  0
VERTEX
  8
PLAN_1
  6
CONTINUOUS
 10
-1.976839
 20
0.876673
  0
VERTEX
  8
PLAN_1
  6
CONTINUOUS
 10
-1.920445
 20
0.876673
  0
SEQEND
  8
0
  0
POLYLINE
  8
PLAN_1
  6
CONTINUOUS
 66
     1
 40
0.008220
 41
0.008220
  0
VERTEX
  8
PLAN_1
  6
CONTINUOUS
 10
-1.980362
 20
1.260283
  0
VERTEX
  8
PLAN_1
  6
CONTINUOUS
 10
-1.905169
 20
1.260283
  0
VERTEX
  8
PLAN_1
  6
CONTINUOUS
 10
-1.905169
 20
1.183327
  0
VERTEX
  8
PLAN_1
  6
CONTINUOUS
 10
-1.638465
 20
1.148079
  0
VERTEX
  8
PLAN_1
  6
CONTINUOUS
 10
-1.526260
 20
1.148079
  0
VERTEX
  8
PLAN_1
  6
CONTINUOUS
 10
-1.526260
 20
0.989465
  0
VERTEX
  8
PLAN_1
  6
CONTINUOUS
 10
-0.132232
 20
0.989465
  0
VERTEX
  8
PLAN_1
  6
CONTINUOUS
 10
-0.132232
 20
2.025736
  0
VERTEX
  8
PLAN_1
  6
CONTINUOUS
 10
-1.647866
 20
2.025146
  0
VERTEX
  8
PLAN_1
  6
CONTINUOUS
 10
-1.905169
 20
1.981087
  0
VERTEX
  8
PLAN_1
  6
CONTINUOUS
 10
-1.905169
 20
1.907657
  0
VERTEX
  8
PLAN_1
  6
CONTINUOUS
 10
-1.980362
 20
1.907657
  0
SEQEND
  8
0
  0
POLYLINE
  8
PLAN_1
  6
CONTINUOUS
 66
     1
 40
0.008220
 41
0.008220
  0
VERTEX
  8
PLAN_1
  6
CONTINUOUS
 10
-2.234732
 20
1.907657
  0
VERTEX
  8
PLAN_1
  6
CONTINUOUS
 10
-2.293476
 20
1.907657
  0
VERTEX
  8
PLAN_1
  6
CONTINUOUS
 10
-2.293476
 20
1.260283
  0
VERTEX
  8
PLAN_1
  6
CONTINUOUS
 10
-2.234732
 20
1.260283
  0
SEQEND
  8
0
  0
POLYLINE
  8
PLAN_1
  6
CONTINUOUS
 66
     1
 40
0.008220
 41
0.008220
  0
VERTEX
  8
PLAN_1
  6
CONTINUOUS
 10
-2.234732
 20
1.907657
  0
VERTEX
  8
PLAN_1
  6
CONTINUOUS
 10
-2.234732
 20
1.260283
  0
SEQEND
  8
0
  0
POLYLINE
  8
PLAN_1
  6
CONTINUOUS
 66
     1
 40
0.008220
 41
0.008220
  0
VERTEX
  8
PLAN_1
  6
CONTINUOUS
 10
-1.980362
 20
3.255862
  0
VERTEX
  8
PLAN_1
  6
CONTINUOUS
 10
-1.980362
 20
1.907657
  0
SEQEND
  8
0
  0
POLYLINE
  8
PLAN_1
  6
CONTINUOUS
 66
     1
 40
0.008220
 41
0.008220
  0
VERTEX
  8
PLAN_1
  6
CONTINUOUS
 10
-1.980362
 20
1.907657
  0
VERTEX
  8
PLAN_1
  6
CONTINUOUS
 10
-1.980362
 20
1.260283
  0
SEQEND
  8
0
  0
POLYLINE
  8
PLAN_1
  6
CONTINUOUS
 66
     1
 40
0.008220
 41
0.008220
  0
VERTEX
  8
PLAN_1
  6
CONTINUOUS
 10
-2.234732
 20
1.260283
  0
VERTEX
  8
PLAN_1
  6
CONTINUOUS
 10
-2.234732
 20
0.503055
  0
VERTEX
  8
PLAN_1
  6
CONTINUOUS
 10
-1.980362
 20
0.503055
  0
VERTEX
  8
PLAN_1
  6
CONTINUOUS
 10
-1.980362
 20
1.260283
  0
SEQEND
  8
0
  0
POLYLINE
  8
PLAN_1
  6
CONTINUOUS
 66
     1
 40
0.008220
 41
0.008220
  0
VERTEX
  8
PLAN_1
  6
CONTINUOUS
 10
-2.234732
 20
1.907657
  0
VERTEX
  8
PLAN_1
  6
CONTINUOUS
 10
-2.234732
 20
3.110173
  0
SEQEND
  8
0
  0
POLYLINE
  8
PLAN_1
  6
CONTINUOUS
 66
     1
 40
0.008220
 41
0.008220
  0
VERTEX
  8
PLAN_1
  6
CONTINUOUS
 10
-1.980362
 20
3.462059
  0
VERTEX
  8
PLAN_1
  6
CONTINUOUS
 10
-1.980362
 20
4.446634
  0
VERTEX
  8
PLAN_1
  6
CONTINUOUS
 10
-2.234732
 20
4.446634
  0
VERTEX
  8
PLAN_1
  6
CONTINUOUS
 10
-2.234732
 20
3.316370
  0
SEQEND
  8
0
  0
POLYLINE
  8
PLAN_1
  6
CONTINUOUS
 66
     1
 40
0.004110
 41
0.004110
  0
VERTEX
  8
PLAN_1
  6
CONTINUOUS
 10
-2.381008
 20
3.230016
  0
VERTEX
  8
PLAN_1
  6
CONTINUOUS
 10
-1.830563
 20
3.549004
  0
SEQEND
  8
0
  0
POLYLINE
  8
PLAN_1
  6
CONTINUOUS
 66
     1
 40
0.004110
 41
0.004110
  0
VERTEX
  8
PLAN_1
  6
CONTINUOUS
 10
-1.822339
 20
3.361606
  0
VERTEX
  8
PLAN_1
  6
CONTINUOUS
 10
-2.381008
 20
3.035567
  0
SEQEND
  8
0
  0
POLYLINE
  8
PLAN_1
  6
CONTINUOUS
 66
     1
 40
0.008220
 41
0.008220
  0
VERTEX
  8
PLAN_1
  6
CONTINUOUS
 10
-1.946878
 20
1.304343
  0
VERTEX
  8
PLAN_1
  6
CONTINUOUS
 10
-1.946878
 20
1.857720
  0
VERTEX
  8
PLAN_1
  6
CONTINUOUS
 10
-2.260579
 20
1.857720
  0
VERTEX
  8
PLAN_1
  6
CONTINUOUS
 10
-2.260579
 20
1.304343
  0
VERTEX
  8
PLAN_1
  6
CONTINUOUS
 10
-1.946878
 20
1.304343
  0
SEQEND
  8
0
  0
POLYLINE
  8
PLAN_1
  6
CONTINUOUS
 66
     1
 40
0.008220
 41
0.008220
  0
VERTEX
  8
PLAN_1
  6
CONTINUOUS
 10
-2.261756
 20
1.857720
  0
VERTEX
  8
PLAN_1
  6
CONTINUOUS
 10
-2.298764
 20
1.905894
  0
SEQEND
  8
0
  0
POLYLINE
  8
PLAN_1
  6
CONTINUOUS
 66
     1
 40
0.008220
 41
0.008220
  0
VERTEX
  8
PLAN_1
  6
CONTINUOUS
 10
-2.298177
 20
1.263220
  0
VERTEX
  8
PLAN_1
  6
CONTINUOUS
 10
-2.260579
 20
1.304343
  0
SEQEND
  8
0
  0
POLYLINE
  8
PLAN_1
  6
CONTINUOUS
 66
     1
 40
0.008220
 41
0.008220
  0
VERTEX
  8
PLAN_1
  6
CONTINUOUS
 10
-1.945705
 20
1.858898
  0
VERTEX
  8
PLAN_1
  6
CONTINUOUS
 10
-1.905169
 20
1.906480
  0
SEQEND
  8
0
  0
POLYLINE
  8
PLAN_1
  6
CONTINUOUS
 66
     1
 40
0.008220
 41
0.008220
  0
VERTEX
  8
PLAN_1
  6
CONTINUOUS
 10
-1.905169
 20
1.263807
  0
VERTEX
  8
PLAN_1
  6
CONTINUOUS
 10
-1.946878
 20
1.304929
  0
SEQEND
  8
0
  0
POLYLINE
  8
PLAN_1
 62
     2
  6
CONTINUOUS
 66
     1
 40
0.004110
 41
0.004110
  0
VERTEX
  8
PLAN_1
 62
     2
  6
CONTINUOUS
 10
-0.108736
 20
-2.351972
  0
VERTEX
  8
PLAN_1
 62
     2
  6
CONTINUOUS
 10
-0.108736
 20
-2.437740
  0
SEQEND
  8
0
  0
POLYLINE
  8
PLAN_1
 62
     2
  6
CONTINUOUS
 66
     1
 40
0.004110
 41
0.004110
  0
VERTEX
  8
PLAN_1
 62
     2
  6
CONTINUOUS
 10
-0.108736
 20
-2.507063
  0
VERTEX
  8
PLAN_1
 62
     2
  6
CONTINUOUS
 10
-0.108736
 20
-2.780228
  0
SEQEND
  8
0
  0
POLYLINE
  8
PLAN_1
 62
     2
  6
CONTINUOUS
 66
     1
 40
0.004110
 41
0.004110
  0
VERTEX
  8
PLAN_1
 62
     2
  6
CONTINUOUS
 10
-1.528024
 20
-2.351972
  0
VERTEX
  8
PLAN_1
 62
     2
  6
CONTINUOUS
 10
-1.528024
 20
-2.622791
  0
SEQEND
  8
0
  0
POLYLINE
  8
PLAN_1
 62
     2
  6
CONTINUOUS
 66
     1
 40
0.004110
 41
0.004110
  0
VERTEX
  8
PLAN_1
 62
     2
  6
CONTINUOUS
 10
-1.498650
 20
-2.599291
  0
VERTEX
  8
PLAN_1
 62
     2
  6
CONTINUOUS
 10
-0.138106
 20
-2.599291
  0
SEQEND
  8
0
  0
SOLID
  8
PLAN_1
 62
     2
 10
-0.108736
 20
-2.599291
 11
-0.168067
 21
-2.583429
 12
-0.108736
 22
-2.599291
 13
-0.168067
 23
-2.615154
  0
POLYLINE
  8
PLAN_1
 62
     2
  6
CONTINUOUS
 66
     1
 40
0.003000
 41
0.003000
  0
VERTEX
  8
PLAN_1
 62
     2
  6
CONTINUOUS
 10
-0.108736
 20
-2.599291
  0
VERTEX
  8
PLAN_1
 62
     2
  6
CONTINUOUS
 10
-0.168067
 20
-2.583429
  0
VERTEX
  8
PLAN_1
 62
     2
  6
CONTINUOUS
 10
-0.168067
 20
-2.615154
  0
VERTEX
  8
PLAN_1
 62
     2
  6
CONTINUOUS
 10
-0.108736
 20
-2.599291
  0
SEQEND
  8
0
  0
SOLID
  8
PLAN_1
 62
     2
 10
-1.528024
 20
-2.599291
 11
-1.469280
 21
-2.583429
 12
-1.528024
 22
-2.599291
 13
-1.469280
 23
-2.615154
  0
POLYLINE
  8
PLAN_1
 62
     2
  6
CONTINUOUS
 66
     1
 40
0.003000
 41
0.003000
  0
VERTEX
  8
PLAN_1
 62
     2
  6
CONTINUOUS
 10
-1.528024
 20
-2.599291
  0
VERTEX
  8
PLAN_1
 62
     2
  6
CONTINUOUS
 10
-1.469280
 20
-2.583429
  0
VERTEX
  8
PLAN_1
 62
     2
  6
CONTINUOUS
 10
-1.469280
 20
-2.615154
  0
VERTEX
  8
PLAN_1
 62
     2
  6
CONTINUOUS
 10
-1.528024
 20
-2.599291
  0
SEQEND
  8
0
  0
POLYLINE
  8
PLAN_1
 62
     2
  6
CONTINUOUS
 66
     1
 40
0.003000
 41
0.003000
  0
VERTEX
  8
PLAN_1
 62
     2
  6
CONTINUOUS
 10
-0.894161
 20
-2.534083
  0
VERTEX
  8
PLAN_1
 62
     2
  6
CONTINUOUS
 10
-0.893575
 20
-2.534083
  0
VERTEX
  8
PLAN_1
 62
     2
  6
CONTINUOUS
 10
-0.892988
 20
-2.534083
  0
VERTEX
  8
PLAN_1
 62
     2
  6
CONTINUOUS
 10
-0.892398
 20
-2.534083
  0
VERTEX
  8
PLAN_1
 62
     2
  6
CONTINUOUS
 10
-0.891811
 20
-2.534083
  0
VERTEX
  8
PLAN_1
 62
     2
  6
CONTINUOUS
 10
-0.891224
 20
-2.534083
  0
VERTEX
  8
PLAN_1
 62
     2
  6
CONTINUOUS
 10
-0.890638
 20
-2.534083
  0
VERTEX
  8
PLAN_1
 62
     2
  6
CONTINUOUS
 10
-0.890047
 20
-2.534083
  0
VERTEX
  8
PLAN_1
 62
     2
  6
CONTINUOUS
 10
-0.889461
 20
-2.534083
  0
VERTEX
  8
PLAN_1
 62
     2
  6
CONTINUOUS
 10
-0.887110
 20
-2.534083
  0
VERTEX
  8
PLAN_1
 62
     2
  6
CONTINUOUS
 10
-0.884173
 20
-2.533496
  0
VERTEX
  8
PLAN_1
 62
     2
  6
CONTINUOUS
 10
-0.881823
 20
-2.532909
  0
VERTEX
  8
PLAN_1
 62
     2
  6
CONTINUOUS
 10
-0.880063
 20
-2.531736
  0
VERTEX
  8
PLAN_1
 62
     2
  6
CONTINUOUS
 10
-0.878299
 20
-2.529972
  0
VERTEX
  8
PLAN_1
 62
     2
  6
CONTINUOUS
 10
-0.876539
 20
-2.527622
  0
VERTEX
  8
PLAN_1
 62
     2
  6
CONTINUOUS
 10
-0.875949
 20
-2.525272
  0
VERTEX
  8
PLAN_1
 62
     2
  6
CONTINUOUS
 10
-0.875362
 20
-2.522335
  0
VERTEX
  8
PLAN_1
 62
     2
  6
CONTINUOUS
 10
-0.875362
 20
-2.520571
  0
VERTEX
  8
PLAN_1
 62
     2
  6
CONTINUOUS
 10
-0.875949
 20
-2.518811
  0
VERTEX
  8
PLAN_1
 62
     2
  6
CONTINUOUS
 10
-0.877126
 20
-2.516461
  0
VERTEX
  8
PLAN_1
 62
     2
  6
CONTINUOUS
 10
-0.878299
 20
-2.514697
  0
VERTEX
  8
PLAN_1
 62
     2
  6
CONTINUOUS
 10
-0.880063
 20
-2.512937
  0
VERTEX
  8
PLAN_1
 62
     2
  6
CONTINUOUS
 10
-0.882413
 20
-2.511760
  0
VERTEX
  8
PLAN_1
 62
     2
  6
CONTINUOUS
 10
-0.885350
 20
-2.511173
  0
VERTEX
  8
PLAN_1
 62
     2
  6
CONTINUOUS
 10
-0.888874
 20
-2.510587
  0
VERTEX
  8
PLAN_1
 62
     2
  6
CONTINUOUS
 10
-0.893575
 20
-2.511173
  0
VERTEX
  8
PLAN_1
 62
     2
  6
CONTINUOUS
 10
-0.896512
 20
-2.512346
  0
VERTEX
  8
PLAN_1
 62
     2
  6
CONTINUOUS
 10
-0.899449
 20
-2.514110
  0
VERTEX
  8
PLAN_1
 62
     2
  6
CONTINUOUS
 10
-0.900622
 20
-2.516461
  0
VERTEX
  8
PLAN_1
 62
     2
  6
CONTINUOUS
 10
-0.901799
 20
-2.519398
  0
VERTEX
  8
PLAN_1
 62
     2
  6
CONTINUOUS
 10
-0.902972
 20
-2.521748
  0
VERTEX
  8
PLAN_1
 62
     2
  6
CONTINUOUS
 10
-0.902972
 20
-2.524098
  0
VERTEX
  8
PLAN_1
 62
     2
  6
CONTINUOUS
 10
-0.903559
 20
-2.526449
  0
VERTEX
  8
PLAN_1
 62
     2
  6
CONTINUOUS
 10
-0.912374
 20
-2.526449
  0
VERTEX
  8
PLAN_1
 62
     2
  6
CONTINUOUS
 10
-0.911783
 20
-2.522335
  0
VERTEX
  8
PLAN_1
 62
     2
  6
CONTINUOUS
 10
-0.911197
 20
-2.518224
  0
VERTEX
  8
PLAN_1
 62
     2
  6
CONTINUOUS
 10
-0.910024
 20
-2.514110
  0
VERTEX
  8
PLAN_1
 62
     2
  6
CONTINUOUS
 10
-0.907673
 20
-2.510587
  0
VERTEX
  8
PLAN_1
 62
     2
  6
CONTINUOUS
 10
-0.906496
 20
-2.508823
  0
VERTEX
  8
PLAN_1
 62
     2
  6
CONTINUOUS
 10
-0.904736
 20
-2.507063
  0
VERTEX
  8
PLAN_1
 62
     2
  6
CONTINUOUS
 10
-0.902386
 20
-2.505886
  0
VERTEX
  8
PLAN_1
 62
     2
  6
CONTINUOUS
 10
-0.900622
 20
-2.504713
  0
VERTEX
  8
PLAN_1
 62
     2
  6
CONTINUOUS
 10
-0.897685
 20
-2.503535
  0
VERTEX
  8
PLAN_1
 62
     2
  6
CONTINUOUS
 10
-0.895335
 20
-2.502949
  0
VERTEX
  8
PLAN_1
 62
     2
  6
CONTINUOUS
 10
-0.891811
 20
-2.502362
  0
VERTEX
  8
PLAN_1
 62
     2
  6
CONTINUOUS
 10
-0.888874
 20
-2.502362
  0
VERTEX
  8
PLAN_1
 62
     2
  6
CONTINUOUS
 10
-0.883587
 20
-2.502949
  0
VERTEX
  8
PLAN_1
 62
     2
  6
CONTINUOUS
 10
-0.878886
 20
-2.504122
  0
VERTEX
  8
PLAN_1
 62
     2
  6
CONTINUOUS
 10
-0.875362
 20
-2.505299
  0
VERTEX
  8
PLAN_1
 62
     2
  6
CONTINUOUS
 10
-0.871839
 20
-2.507650
  0
VERTEX
  8
PLAN_1
 62
     2
  6
CONTINUOUS
 10
-0.869488
 20
-2.510587
  0
VERTEX
  8
PLAN_1
 62
     2
  6
CONTINUOUS
 10
-0.867724
 20
-2.514110
  0
VERTEX
  8
PLAN_1
 62
     2
  6
CONTINUOUS
 10
-0.866551
 20
-2.517634
  0
VERTEX
  8
PLAN_1
 62
     2
  6
CONTINUOUS
 10
-0.865965
 20
-2.521748
  0
VERTEX
  8
PLAN_1
 62
     2
  6
CONTINUOUS
 10
-0.866551
 20
-2.524685
  0
VERTEX
  8
PLAN_1
 62
     2
  6
CONTINUOUS
 10
-0.867138
 20
-2.527622
  0
VERTEX
  8
PLAN_1
 62
     2
  6
CONTINUOUS
 10
-0.867724
 20
-2.529972
  0
VERTEX
  8
PLAN_1
 62
     2
  6
CONTINUOUS
 10
-0.869488
 20
-2.532323
  0
VERTEX
  8
PLAN_1
 62
     2
  6
CONTINUOUS
 10
-0.870661
 20
-2.534083
  0
VERTEX
  8
PLAN_1
 62
     2
  6
CONTINUOUS
 10
-0.872425
 20
-2.535260
  0
VERTEX
  8
PLAN_1
 62
     2
  6
CONTINUOUS
 10
-0.873598
 20
-2.535846
  0
VERTEX
  8
PLAN_1
 62
     2
  6
CONTINUOUS
 10
-0.875362
 20
-2.537020
  0
VERTEX
  8
PLAN_1
 62
     2
  6
CONTINUOUS
 10
-0.873012
 20
-2.538197
  0
VERTEX
  8
PLAN_1
 62
     2
  6
CONTINUOUS
 10
-0.870661
 20
-2.539370
  0
VERTEX
  8
PLAN_1
 62
     2
  6
CONTINUOUS
 10
-0.868315
 20
-2.540547
  0
VERTEX
  8
PLAN_1
 62
     2
  6
CONTINUOUS
 10
-0.866551
 20
-2.542898
  0
VERTEX
  8
PLAN_1
 62
     2
  6
CONTINUOUS
 10
-0.865374
 20
-2.544657
  0
VERTEX
  8
PLAN_1
 62
     2
  6
CONTINUOUS
 10
-0.864201
 20
-2.547594
  0
VERTEX
  8
PLAN_1
 62
     2
  6
CONTINUOUS
 10
-0.863614
 20
-2.550531
  0
VERTEX
  8
PLAN_1
 62
     2
  6
CONTINUOUS
 10
-0.863028
 20
-2.554059
  0
VERTEX
  8
PLAN_1
 62
     2
  6
CONTINUOUS
 10
-0.863614
 20
-2.558169
  0
VERTEX
  8
PLAN_1
 62
     2
  6
CONTINUOUS
 10
-0.864787
 20
-2.562870
  0
VERTEX
  8
PLAN_1
 62
     2
  6
CONTINUOUS
 10
-0.866551
 20
-2.566980
  0
VERTEX
  8
PLAN_1
 62
     2
  6
CONTINUOUS
 10
-0.869488
 20
-2.570508
  0
VERTEX
  8
PLAN_1
 62
     2
  6
CONTINUOUS
 10
-0.873012
 20
-2.573445
  0
VERTEX
  8
PLAN_1
 62
     2
  6
CONTINUOUS
 10
-0.877713
 20
-2.575795
  0
VERTEX
  8
PLAN_1
 62
     2
  6
CONTINUOUS
 10
-0.883000
 20
-2.576969
  0
VERTEX
  8
PLAN_1
 62
     2
  6
CONTINUOUS
 10
-0.889461
 20
-2.577555
  0
VERTEX
  8
PLAN_1
 62
     2
  6
CONTINUOUS
 10
-0.891811
 20
-2.577555
  0
VERTEX
  8
PLAN_1
 62
     2
  6
CONTINUOUS
 10
-0.893575
 20
-2.577555
  0
VERTEX
  8
PLAN_1
 62
     2
  6
CONTINUOUS
 10
-0.895335
 20
-2.576969
  0
VERTEX
  8
PLAN_1
 62
     2
  6
CONTINUOUS
 10
-0.897098
 20
-2.576382
  0
VERTEX
  8
PLAN_1
 62
     2
  6
CONTINUOUS
 10
-0.898862
 20
-2.576382
  0
VERTEX
  8
PLAN_1
 62
     2
  6
CONTINUOUS
 10
-0.900035
 20
-2.575795
  0
VERTEX
  8
PLAN_1
 62
     2
  6
CONTINUOUS
 10
-0.901799
 20
-2.575205
  0
VERTEX
  8
PLAN_1
 62
     2
  6
CONTINUOUS
 10
-0.902972
 20
-2.574031
  0
VERTEX
  8
PLAN_1
 62
     2
  6
CONTINUOUS
 10
-0.905909
 20
-2.572268
  0
VERTEX
  8
PLAN_1
 62
     2
  6
CONTINUOUS
 10
-0.908260
 20
-2.570508
  0
VERTEX
  8
PLAN_1
 62
     2
  6
CONTINUOUS
 10
-0.910024
 20
-2.568157
  0
VERTEX
  8
PLAN_1
 62
     2
  6
CONTINUOUS
 10
-0.911197
 20
-2.565220
  0
VERTEX
  8
PLAN_1
 62
     2
  6
CONTINUOUS
 10
-0.912374
 20
-2.562283
  0
VERTEX
  8
PLAN_1
 62
     2
  6
CONTINUOUS
 10
-0.912961
 20
-2.559346
  0
VERTEX
  8
PLAN_1
 62
     2
  6
CONTINUOUS
 10
-0.913547
 20
-2.556406
  0
VERTEX
  8
PLAN_1
 62
     2
  6
CONTINUOUS
 10
-0.914134
 20
-2.552882
  0
VERTEX
  8
PLAN_1
 62
     2
  6
CONTINUOUS
 10
-0.904736
 20
-2.552882
  0
VERTEX
  8
PLAN_1
 62
     2
  6
CONTINUOUS
 10
-0.904150
 20
-2.555819
  0
VERTEX
  8
PLAN_1
 62
     2
  6
CONTINUOUS
 10
-0.904150
 20
-2.558756
  0
VERTEX
  8
PLAN_1
 62
     2
  6
CONTINUOUS
 10
-0.902972
 20
-2.561106
  0
VERTEX
  8
PLAN_1
 62
     2
  6
CONTINUOUS
 10
-0.901799
 20
-2.564043
  0
VERTEX
  8
PLAN_1
 62
     2
  6
CONTINUOUS
 10
-0.900035
 20
-2.565807
  0
VERTEX
  8
PLAN_1
 62
     2
  6
CONTINUOUS
 10
-0.897098
 20
-2.567571
  0
VERTEX
  8
PLAN_1
 62
     2
  6
CONTINUOUS
 10
-0.893575
 20
-2.568744
  0
VERTEX
  8
PLAN_1
 62
     2
  6
CONTINUOUS
 10
-0.888874
 20
-2.569331
  0
VERTEX
  8
PLAN_1
 62
     2
  6
CONTINUOUS
 10
-0.885350
 20
-2.569331
  0
VERTEX
  8
PLAN_1
 62
     2
  6
CONTINUOUS
 10
-0.882413
 20
-2.568157
  0
VERTEX
  8
PLAN_1
 62
     2
  6
CONTINUOUS
 10
-0.880063
 20
-2.566980
  0
VERTEX
  8
PLAN_1
 62
     2
  6
CONTINUOUS
 10
-0.877713
 20
-2.565220
  0
VERTEX
  8
PLAN_1
 62
     2
  6
CONTINUOUS
 10
-0.875362
 20
-2.563457
  0
VERTEX
  8
PLAN_1
 62
     2
  6
CONTINUOUS
 10
-0.874189
 20
-2.561106
  0
VERTEX
  8
PLAN_1
 62
     2
  6
CONTINUOUS
 10
-0.873598
 20
-2.558169
  0
VERTEX
  8
PLAN_1
 62
     2
  6
CONTINUOUS
 10
-0.873012
 20
-2.555232
  0
VERTEX
  8
PLAN_1
 62
     2
  6
CONTINUOUS
 10
-0.873598
 20
-2.551122
  0
VERTEX
  8
PLAN_1
 62
     2
  6
CONTINUOUS
 10
-0.874776
 20
-2.547594
  0
VERTEX
  8
PLAN_1
 62
     2
  6
CONTINUOUS
 10
-0.876539
 20
-2.545244
  0
VERTEX
  8
PLAN_1
 62
     2
  6
CONTINUOUS
 10
-0.879476
 20
-2.544071
  0
VERTEX
  8
PLAN_1
 62
     2
  6
CONTINUOUS
 10
-0.881823
 20
-2.542898
  0
VERTEX
  8
PLAN_1
 62
     2
  6
CONTINUOUS
 10
-0.884764
 20
-2.542307
  0
VERTEX
  8
PLAN_1
 62
     2
  6
CONTINUOUS
 10
-0.887701
 20
-2.541720
  0
VERTEX
  8
PLAN_1
 62
     2
  6
CONTINUOUS
 10
-0.890047
 20
-2.541720
  0
VERTEX
  8
PLAN_1
 62
     2
  6
CONTINUOUS
 10
-0.890638
 20
-2.541720
  0
VERTEX
  8
PLAN_1
 62
     2
  6
CONTINUOUS
 10
-0.891224
 20
-2.541720
  0
VERTEX
  8
PLAN_1
 62
     2
  6
CONTINUOUS
 10
-0.891811
 20
-2.541720
  0
VERTEX
  8
PLAN_1
 62
     2
  6
CONTINUOUS
 10
-0.892398
 20
-2.541720
  0
VERTEX
  8
PLAN_1
 62
     2
  6
CONTINUOUS
 10
-0.892988
 20
-2.541720
  0
VERTEX
  8
PLAN_1
 62
     2
  6
CONTINUOUS
 10
-0.893575
 20
-2.541720
  0
VERTEX
  8
PLAN_1
 62
     2
  6
CONTINUOUS
 10
-0.894161
 20
-2.541720
  0
VERTEX
  8
PLAN_1
 62
     2
  6
CONTINUOUS
 10
-0.894161
 20
-2.534083
  0
SEQEND
  8
0
  0
POLYLINE
  8
PLAN_1
 62
     2
  6
CONTINUOUS
 66
     1
 40
0.003000
 41
0.003000
  0
VERTEX
  8
PLAN_1
 62
     2
  6
CONTINUOUS
 10
-0.836591
 20
-2.534083
  0
VERTEX
  8
PLAN_1
 62
     2
  6
CONTINUOUS
 10
-0.836004
 20
-2.534083
  0
VERTEX
  8
PLAN_1
 62
     2
  6
CONTINUOUS
 10
-0.835417
 20
-2.534083
  0
VERTEX
  8
PLAN_1
 62
     2
  6
CONTINUOUS
 10
-0.834827
 20
-2.534083
  0
VERTEX
  8
PLAN_1
 62
     2
  6
CONTINUOUS
 10
-0.833654
 20
-2.534083
  0
VERTEX
  8
PLAN_1
 62
     2
  6
CONTINUOUS
 10
-0.833067
 20
-2.534083
  0
VERTEX
  8
PLAN_1
 62
     2
  6
CONTINUOUS
 10
-0.832480
 20
-2.534083
  0
VERTEX
  8
PLAN_1
 62
     2
  6
CONTINUOUS
 10
-0.831890
 20
-2.534083
  0
VERTEX
  8
PLAN_1
 62
     2
  6
CONTINUOUS
 10
-0.831303
 20
-2.534083
  0
VERTEX
  8
PLAN_1
 62
     2
  6
CONTINUOUS
 10
-0.828953
 20
-2.534083
  0
VERTEX
  8
PLAN_1
 62
     2
  6
CONTINUOUS
 10
-0.826602
 20
-2.533496
  0
VERTEX
  8
PLAN_1
 62
     2
  6
CONTINUOUS
 10
-0.824256
 20
-2.532909
  0
VERTEX
  8
PLAN_1
 62
     2
  6
CONTINUOUS
 10
-0.821906
 20
-2.531736
  0
VERTEX
  8
PLAN_1
 62
     2
  6
CONTINUOUS
 10
-0.820142
 20
-2.529972
  0
VERTEX
  8
PLAN_1
 62
     2
  6
CONTINUOUS
 10
-0.818969
 20
-2.527622
  0
VERTEX
  8
PLAN_1
 62
     2
  6
CONTINUOUS
 10
-0.817791
 20
-2.525272
  0
VERTEX
  8
PLAN_1
 62
     2
  6
CONTINUOUS
 10
-0.817791
 20
-2.522335
  0
VERTEX
  8
PLAN_1
 62
     2
  6
CONTINUOUS
 10
-0.817791
 20
-2.520571
  0
VERTEX
  8
PLAN_1
 62
     2
  6
CONTINUOUS
 10
-0.818378
 20
-2.518811
  0
VERTEX
  8
PLAN_1
 62
     2
  6
CONTINUOUS
 10
-0.818969
 20
-2.516461
  0
VERTEX
  8
PLAN_1
 62
     2
  6
CONTINUOUS
 10
-0.820142
 20
-2.514697
  0
VERTEX
  8
PLAN_1
 62
     2
  6
CONTINUOUS
 10
-0.821906
 20
-2.512937
  0
VERTEX
  8
PLAN_1
 62
     2
  6
CONTINUOUS
 10
-0.824256
 20
-2.511760
  0
VERTEX
  8
PLAN_1
 62
     2
  6
CONTINUOUS
 10
-0.827193
 20
-2.511173
  0
VERTEX
  8
PLAN_1
 62
     2
  6
CONTINUOUS
 10
-0.831303
 20
-2.510587
  0
VERTEX
  8
PLAN_1
 62
     2
  6
CONTINUOUS
 10
-0.835417
 20
-2.511173
  0
VERTEX
  8
PLAN_1
 62
     2
  6
CONTINUOUS
 10
-0.838941
 20
-2.512346
  0
VERTEX
  8
PLAN_1
 62
     2
  6
CONTINUOUS
 10
-0.841291
 20
-2.514110
  0
VERTEX
  8
PLAN_1
 62
     2
  6
CONTINUOUS
 10
-0.843051
 20
-2.516461
  0
VERTEX
  8
PLAN_1
 62
     2
  6
CONTINUOUS
 10
-0.844228
 20
-2.519398
  0
VERTEX
  8
PLAN_1
 62
     2
  6
CONTINUOUS
 10
-0.844815
 20
-2.521748
  0
VERTEX
  8
PLAN_1
 62
     2
  6
CONTINUOUS
 10
-0.845402
 20
-2.524098
  0
VERTEX
  8
PLAN_1
 62
     2
  6
CONTINUOUS
 10
-0.845402
 20
-2.526449
  0
VERTEX
  8
PLAN_1
 62
     2
  6
CONTINUOUS
 10
-0.854213
 20
-2.526449
  0
VERTEX
  8
PLAN_1
 62
     2
  6
CONTINUOUS
 10
-0.854213
 20
-2.522335
  0
VERTEX
  8
PLAN_1
 62
     2
  6
CONTINUOUS
 10
-0.853626
 20
-2.518224
  0
VERTEX
  8
PLAN_1
 62
     2
  6
CONTINUOUS
 10
-0.851866
 20
-2.514110
  0
VERTEX
  8
PLAN_1
 62
     2
  6
CONTINUOUS
 10
-0.849516
 20
-2.510587
  0
VERTEX
  8
PLAN_1
 62
     2
  6
CONTINUOUS
 10
-0.848339
 20
-2.508823
  0
VERTEX
  8
PLAN_1
 62
     2
  6
CONTINUOUS
 10
-0.846579
 20
-2.507063
  0
VERTEX
  8
PLAN_1
 62
     2
  6
CONTINUOUS
 10
-0.844815
 20
-2.505886
  0
VERTEX
  8
PLAN_1
 62
     2
  6
CONTINUOUS
 10
-0.842465
 20
-2.504713
  0
VERTEX
  8
PLAN_1
 62
     2
  6
CONTINUOUS
 10
-0.840114
 20
-2.503535
  0
VERTEX
  8
PLAN_1
 62
     2
  6
CONTINUOUS
 10
-0.837177
 20
-2.502949
  0
VERTEX
  8
PLAN_1
 62
     2
  6
CONTINUOUS
 10
-0.834240
 20
-2.502362
  0
VERTEX
  8
PLAN_1
 62
     2
  6
CONTINUOUS
 10
-0.830717
 20
-2.502362
  0
VERTEX
  8
PLAN_1
 62
     2
  6
CONTINUOUS
 10
-0.825429
 20
-2.502949
  0
VERTEX
  8
PLAN_1
 62
     2
  6
CONTINUOUS
 10
-0.821315
 20
-2.504122
  0
VERTEX
  8
PLAN_1
 62
     2
  6
CONTINUOUS
 10
-0.817205
 20
-2.505299
  0
VERTEX
  8
PLAN_1
 62
     2
  6
CONTINUOUS
 10
-0.814268
 20
-2.507650
  0
VERTEX
  8
PLAN_1
 62
     2
  6
CONTINUOUS
 10
-0.811331
 20
-2.510587
  0
VERTEX
  8
PLAN_1
 62
     2
  6
CONTINUOUS
 10
-0.809567
 20
-2.514110
  0
VERTEX
  8
PLAN_1
 62
     2
  6
CONTINUOUS
 10
-0.808394
 20
-2.517634
  0
VERTEX
  8
PLAN_1
 62
     2
  6
CONTINUOUS
 10
-0.808394
 20
-2.521748
  0
VERTEX
  8
PLAN_1
 62
     2
  6
CONTINUOUS
 10
-0.808394
 20
-2.524685
  0
VERTEX
  8
PLAN_1
 62
     2
  6
CONTINUOUS
 10
-0.808980
 20
-2.527622
  0
VERTEX
  8
PLAN_1
 62
     2
  6
CONTINUOUS
 10
-0.810154
 20
-2.529972
  0
VERTEX
  8
PLAN_1
 62
     2
  6
CONTINUOUS
 10
-0.811331
 20
-2.532323
  0
VERTEX
  8
PLAN_1
 62
     2
  6
CONTINUOUS
 10
-0.813091
 20
-2.534083
  0
VERTEX
  8
PLAN_1
 62
     2
  6
CONTINUOUS
 10
-0.814268
 20
-2.535260
  0
VERTEX
  8
PLAN_1
 62
     2
  6
CONTINUOUS
 10
-0.816031
 20
-2.535846
  0
VERTEX
  8
PLAN_1
 62
     2
  6
CONTINUOUS
 10
-0.817791
 20
-2.537020
  0
VERTEX
  8
PLAN_1
 62
     2
  6
CONTINUOUS
 10
-0.814854
 20
-2.538197
  0
VERTEX
  8
PLAN_1
 62
     2
  6
CONTINUOUS
 10
-0.812504
 20
-2.539370
  0
VERTEX
  8
PLAN_1
 62
     2
  6
CONTINUOUS
 10
-0.810744
 20
-2.540547
  0
VERTEX
  8
PLAN_1
 62
     2
  6
CONTINUOUS
 10
-0.808980
 20
-2.542898
  0
VERTEX
  8
PLAN_1
 62
     2
  6
CONTINUOUS
 10
-0.807217
 20
-2.544657
  0
VERTEX
  8
PLAN_1
 62
     2
  6
CONTINUOUS
 10
-0.806043
 20
-2.547594
  0
VERTEX
  8
PLAN_1
 62
     2
  6
CONTINUOUS
 10
-0.805457
 20
-2.550531
  0
VERTEX
  8
PLAN_1
 62
     2
  6
CONTINUOUS
 10
-0.805457
 20
-2.554059
  0
VERTEX
  8
PLAN_1
 62
     2
  6
CONTINUOUS
 10
-0.805457
 20
-2.558169
  0
VERTEX
  8
PLAN_1
 62
     2
  6
CONTINUOUS
 10
-0.806630
 20
-2.562870
  0
VERTEX
  8
PLAN_1
 62
     2
  6
CONTINUOUS
 10
-0.808980
 20
-2.566980
  0
VERTEX
  8
PLAN_1
 62
     2
  6
CONTINUOUS
 10
-0.811331
 20
-2.570508
  0
VERTEX
  8
PLAN_1
 62
     2
  6
CONTINUOUS
 10
-0.814854
 20
-2.573445
  0
VERTEX
  8
PLAN_1
 62
     2
  6
CONTINUOUS
 10
-0.819555
 20
-2.575795
  0
VERTEX
  8
PLAN_1
 62
     2
  6
CONTINUOUS
 10
-0.825429
 20
-2.576969
  0
VERTEX
  8
PLAN_1
 62
     2
  6
CONTINUOUS
 10
-0.831890
 20
-2.577555
  0
VERTEX
  8
PLAN_1
 62
     2
  6
CONTINUOUS
 10
-0.833654
 20
-2.577555
  0
VERTEX
  8
PLAN_1
 62
     2
  6
CONTINUOUS
 10
-0.835417
 20
-2.577555
  0
VERTEX
  8
PLAN_1
 62
     2
  6
CONTINUOUS
 10
-0.837177
 20
-2.576969
  0
VERTEX
  8
PLAN_1
 62
     2
  6
CONTINUOUS
 10
-0.838941
 20
-2.576382
  0
VERTEX
  8
PLAN_1
 62
     2
  6
CONTINUOUS
 10
-0.840705
 20
-2.576382
  0
VERTEX
  8
PLAN_1
 62
     2
  6
CONTINUOUS
 10
-0.842465
 20
-2.575795
  0
VERTEX
  8
PLAN_1
 62
     2
  6
CONTINUOUS
 10
-0.843642
 20
-2.575205
  0
VERTEX
  8
PLAN_1
 62
     2
  6
CONTINUOUS
 10
-0.845402
 20
-2.574031
  0
VERTEX
  8
PLAN_1
 62
     2
  6
CONTINUOUS
 10
-0.847752
 20
-2.572268
  0
VERTEX
  8
PLAN_1
 62
     2
  6
CONTINUOUS
 10
-0.850102
 20
-2.570508
  0
VERTEX
  8
PLAN_1
 62
     2
  6
CONTINUOUS
 10
-0.851866
 20
-2.568157
  0
VERTEX
  8
PLAN_1
 62
     2
  6
CONTINUOUS
 10
-0.853626
 20
-2.565220
  0
VERTEX
  8
PLAN_1
 62
     2
  6
CONTINUOUS
 10
-0.854803
 20
-2.562283
  0
VERTEX
  8
PLAN_1
 62
     2
  6
CONTINUOUS
 10
-0.855390
 20
-2.559346
  0
VERTEX
  8
PLAN_1
 62
     2
  6
CONTINUOUS
 10
-0.855976
 20
-2.556406
  0
VERTEX
  8
PLAN_1
 62
     2
  6
CONTINUOUS
 10
-0.855976
 20
-2.552882
  0
VERTEX
  8
PLAN_1
 62
     2
  6
CONTINUOUS
 10
-0.846579
 20
-2.552882
  0
VERTEX
  8
PLAN_1
 62
     2
  6
CONTINUOUS
 10
-0.846579
 20
-2.555819
  0
VERTEX
  8
PLAN_1
 62
     2
  6
CONTINUOUS
 10
-0.845988
 20
-2.558756
  0
VERTEX
  8
PLAN_1
 62
     2
  6
CONTINUOUS
 10
-0.845402
 20
-2.561106
  0
VERTEX
  8
PLAN_1
 62
     2
  6
CONTINUOUS
 10
-0.843642
 20
-2.564043
  0
VERTEX
  8
PLAN_1
 62
     2
  6
CONTINUOUS
 10
-0.841878
 20
-2.565807
  0
VERTEX
  8
PLAN_1
 62
     2
  6
CONTINUOUS
 10
-0.838941
 20
-2.567571
  0
VERTEX
  8
PLAN_1
 62
     2
  6
CONTINUOUS
 10
-0.835417
 20
-2.568744
  0
VERTEX
  8
PLAN_1
 62
     2
  6
CONTINUOUS
 10
-0.831303
 20
-2.569331
  0
VERTEX
  8
PLAN_1
 62
     2
  6
CONTINUOUS
 10
-0.827780
 20
-2.569331
  0
VERTEX
  8
PLAN_1
 62
     2
  6
CONTINUOUS
 10
-0.824843
 20
-2.568157
  0
VERTEX
  8
PLAN_1
 62
     2
  6
CONTINUOUS
 10
-0.821906
 20
-2.566980
  0
VERTEX
  8
PLAN_1
 62
     2
  6
CONTINUOUS
 10
-0.819555
 20
-2.565220
  0
VERTEX
  8
PLAN_1
 62
     2
  6
CONTINUOUS
 10
-0.817791
 20
-2.563457
  0
VERTEX
  8
PLAN_1
 62
     2
  6
CONTINUOUS
 10
-0.816031
 20
-2.561106
  0
VERTEX
  8
PLAN_1
 62
     2
  6
CONTINUOUS
 10
-0.815441
 20
-2.558169
  0
VERTEX
  8
PLAN_1
 62
     2
  6
CONTINUOUS
 10
-0.814854
 20
-2.555232
  0
VERTEX
  8
PLAN_1
 62
     2
  6
CONTINUOUS
 10
-0.815441
 20
-2.551122
  0
VERTEX
  8
PLAN_1
 62
     2
  6
CONTINUOUS
 10
-0.816618
 20
-2.547594
  0
VERTEX
  8
PLAN_1
 62
     2
  6
CONTINUOUS
 10
-0.818969
 20
-2.545244
  0
VERTEX
  8
PLAN_1
 62
     2
  6
CONTINUOUS
 10
-0.821315
 20
-2.544071
  0
VERTEX
  8
PLAN_1
 62
     2
  6
CONTINUOUS
 10
-0.824256
 20
-2.542898
  0
VERTEX
  8
PLAN_1
 62
     2
  6
CONTINUOUS
 10
-0.826602
 20
-2.542307
  0
VERTEX
  8
PLAN_1
 62
     2
  6
CONTINUOUS
 10
-0.829539
 20
-2.541720
  0
VERTEX
  8
PLAN_1
 62
     2
  6
CONTINUOUS
 10
-0.831890
 20
-2.541720
  0
VERTEX
  8
PLAN_1
 62
     2
  6
CONTINUOUS
 10
-0.832480
 20
-2.541720
  0
VERTEX
  8
PLAN_1
 62
     2
  6
CONTINUOUS
 10
-0.833067
 20
-2.541720
  0
VERTEX
  8
PLAN_1
 62
     2
  6
CONTINUOUS
 10
-0.833654
 20
-2.541720
  0
VERTEX
  8
PLAN_1
 62
     2
  6
CONTINUOUS
 10
-0.834240
 20
-2.541720
  0
VERTEX
  8
PLAN_1
 62
     2
  6
CONTINUOUS
 10
-0.834827
 20
-2.541720
  0
VERTEX
  8
PLAN_1
 62
     2
  6
CONTINUOUS
 10
-0.835417
 20
-2.541720
  0
VERTEX
  8
PLAN_1
 62
     2
  6
CONTINUOUS
 10
-0.836004
 20
-2.541720
  0
VERTEX
  8
PLAN_1
 62
     2
  6
CONTINUOUS
 10
-0.836591
 20
-2.541720
  0
VERTEX
  8
PLAN_1
 62
     2
  6
CONTINUOUS
 10
-0.836591
 20
-2.534083
  0
SEQEND
  8
0
  0
POLYLINE
  8
PLAN_1
 62
     2
  6
CONTINUOUS
 66
     1
 40
0.003000
 41
0.003000
  0
VERTEX
  8
PLAN_1
 62
     2
  6
CONTINUOUS
 10
-0.792531
 20
-2.564630
  0
VERTEX
  8
PLAN_1
 62
     2
  6
CONTINUOUS
 10
-0.781957
 20
-2.564630
  0
VERTEX
  8
PLAN_1
 62
     2
  6
CONTINUOUS
 10
-0.781957
 20
-2.574618
  0
VERTEX
  8
PLAN_1
 62
     2
  6
CONTINUOUS
 10
-0.782543
 20
-2.579319
  0
VERTEX
  8
PLAN_1
 62
     2
  6
CONTINUOUS
 10
-0.783134
 20
-2.583429
  0
VERTEX
  8
PLAN_1
 62
     2
  6
CONTINUOUS
 10
-0.784894
 20
-2.585780
  0
VERTEX
  8
PLAN_1
 62
     2
  6
CONTINUOUS
 10
-0.786657
 20
-2.588130
  0
VERTEX
  8
PLAN_1
 62
     2
  6
CONTINUOUS
 10
-0.788421
 20
-2.589303
  0
VERTEX
  8
PLAN_1
 62
     2
  6
CONTINUOUS
 10
-0.790181
 20
-2.589894
  0
VERTEX
  8
PLAN_1
 62
     2
  6
CONTINUOUS
 10
-0.791358
 20
-2.590480
  0
VERTEX
  8
PLAN_1
 62
     2
  6
CONTINUOUS
 10
-0.792531
 20
-2.591067
  0
VERTEX
  8
PLAN_1
 62
     2
  6
CONTINUOUS
 10
-0.792531
 20
-2.585780
  0
VERTEX
  8
PLAN_1
 62
     2
  6
CONTINUOUS
 10
-0.791358
 20
-2.585780
  0
VERTEX
  8
PLAN_1
 62
     2
  6
CONTINUOUS
 10
-0.790181
 20
-2.585193
  0
VERTEX
  8
PLAN_1
 62
     2
  6
CONTINUOUS
 10
-0.789008
 20
-2.584016
  0
VERTEX
  8
PLAN_1
 62
     2
  6
CONTINUOUS
 10
-0.788421
 20
-2.582256
  0
VERTEX
  8
PLAN_1
 62
     2
  6
CONTINUOUS
 10
-0.787831
 20
-2.581079
  0
VERTEX
  8
PLAN_1
 62
     2
  6
CONTINUOUS
 10
-0.787244
 20
-2.579319
  0
VERTEX
  8
PLAN_1
 62
     2
  6
CONTINUOUS
 10
-0.787244
 20
-2.577555
  0
VERTEX
  8
PLAN_1
 62
     2
  6
CONTINUOUS
 10
-0.787244
 20
-2.575795
  0
VERTEX
  8
PLAN_1
 62
     2
  6
CONTINUOUS
 10
-0.792531
 20
-2.575795
  0
VERTEX
  8
PLAN_1
 62
     2
  6
CONTINUOUS
 10
-0.792531
 20
-2.564630
  0
SEQEND
  8
0
  0
POLYLINE
  8
PLAN_1
 62
     2
  6
CONTINUOUS
 66
     1
 40
0.003000
 41
0.003000
  0
VERTEX
  8
PLAN_1
 62
     2
  6
CONTINUOUS
 10
-0.757283
 20
-2.532909
  0
VERTEX
  8
PLAN_1
 62
     2
  6
CONTINUOUS
 10
-0.756110
 20
-2.532323
  0
VERTEX
  8
PLAN_1
 62
     2
  6
CONTINUOUS
 10
-0.754933
 20
-2.531146
  0
VERTEX
  8
PLAN_1
 62
     2
  6
CONTINUOUS
 10
-0.753173
 20
-2.530559
  0
VERTEX
  8
PLAN_1
 62
     2
  6
CONTINUOUS
 10
-0.751996
 20
-2.529972
  0
VERTEX
  8
PLAN_1
 62
     2
  6
CONTINUOUS
 10
-0.749646
 20
-2.529386
  0
VERTEX
  8
PLAN_1
 62
     2
  6
CONTINUOUS
 10
-0.747886
 20
-2.528795
  0
VERTEX
  8
PLAN_1
 62
     2
  6
CONTINUOUS
 10
-0.745535
 20
-2.528795
  0
VERTEX
  8
PLAN_1
 62
     2
  6
CONTINUOUS
 10
-0.743185
 20
-2.528209
  0
VERTEX
  8
PLAN_1
 62
     2
  6
CONTINUOUS
 10
-0.739075
 20
-2.528795
  0
VERTEX
  8
PLAN_1
 62
     2
  6
CONTINUOUS
 10
-0.734374
 20
-2.529972
  0
VERTEX
  8
PLAN_1
 62
     2
  6
CONTINUOUS
 10
-0.730850
 20
-2.531736
  0
VERTEX
  8
PLAN_1
 62
     2
  6
CONTINUOUS
 10
-0.726736
 20
-2.534673
  0
VERTEX
  8
PLAN_1
 62
     2
  6
CONTINUOUS
 10
-0.723799
 20
-2.537610
  0
VERTEX
  8
PLAN_1
 62
     2
  6
CONTINUOUS
 10
-0.721449
 20
-2.541720
  0
VERTEX
  8
PLAN_1
 62
     2
  6
CONTINUOUS
 10
-0.719689
 20
-2.546421
  0
VERTEX
  8
PLAN_1
 62
     2
  6
CONTINUOUS
 10
-0.719098
 20
-2.551709
  0
VERTEX
  8
PLAN_1
 62
     2
  6
CONTINUOUS
 10
-0.719689
 20
-2.555232
  0
VERTEX
  8
PLAN_1
 62
     2
  6
CONTINUOUS
 10
-0.720276
 20
-2.559346
  0
VERTEX
  8
PLAN_1
 62
     2
  6
CONTINUOUS
 10
-0.721449
 20
-2.563457
  0
VERTEX
  8
PLAN_1
 62
     2
  6
CONTINUOUS
 10
-0.723799
 20
-2.567571
  0
VERTEX
  8
PLAN_1
 62
     2
  6
CONTINUOUS
 10
-0.725563
 20
-2.569917
  0
VERTEX
  8
PLAN_1
 62
     2
  6
CONTINUOUS
 10
-0.727323
 20
-2.571681
  0
VERTEX
  8
PLAN_1
 62
     2
  6
CONTINUOUS
 10
-0.729673
 20
-2.573445
  0
VERTEX
  8
PLAN_1
 62
     2
  6
CONTINUOUS
 10
-0.732024
 20
-2.574618
  0
VERTEX
  8
PLAN_1
 62
     2
  6
CONTINUOUS
 10
-0.734961
 20
-2.575795
  0
VERTEX
  8
PLAN_1
 62
     2
  6
CONTINUOUS
 10
-0.737898
 20
-2.576969
  0
VERTEX
  8
PLAN_1
 62
     2
  6
CONTINUOUS
 10
-0.742012
 20
-2.577555
  0
VERTEX
  8
PLAN_1
 62
     2
  6
CONTINUOUS
 10
-0.746122
 20
-2.577555
  0
VERTEX
  8
PLAN_1
 62
     2
  6
CONTINUOUS
 10
-0.749646
 20
-2.577555
  0
VERTEX
  8
PLAN_1
 62
     2
  6
CONTINUOUS
 10
-0.753173
 20
-2.576382
  0
VERTEX
  8
PLAN_1
 62
     2
  6
CONTINUOUS
 10
-0.757283
 20
-2.575205
  0
VERTEX
  8
PLAN_1
 62
     2
  6
CONTINUOUS
 10
-0.760811
 20
-2.573445
  0
VERTEX
  8
PLAN_1
 62
     2
  6
CONTINUOUS
 10
-0.763748
 20
-2.571094
  0
VERTEX
  8
PLAN_1
 62
     2
  6
CONTINUOUS
 10
-0.766685
 20
-2.567571
  0
VERTEX
  8
PLAN_1
 62
     2
  6
CONTINUOUS
 10
-0.768445
 20
-2.562870
  0
VERTEX
  8
PLAN_1
 62
     2
  6
CONTINUOUS
 10
-0.769622
 20
-2.557583
  0
VERTEX
  8
PLAN_1
 62
     2
  6
CONTINUOUS
 10
-0.760220
 20
-2.557583
  0
VERTEX
  8
PLAN_1
 62
     2
  6
CONTINUOUS
 10
-0.759634
 20
-2.560520
  0
VERTEX
  8
PLAN_1
 62
     2
  6
CONTINUOUS
 10
-0.758461
 20
-2.562870
  0
VERTEX
  8
PLAN_1
 62
     2
  6
CONTINUOUS
 10
-0.756697
 20
-2.565220
  0
VERTEX
  8
PLAN_1
 62
     2
  6
CONTINUOUS
 10
-0.754933
 20
-2.566394
  0
VERTEX
  8
PLAN_1
 62
     2
  6
CONTINUOUS
 10
-0.752587
 20
-2.568157
  0
VERTEX
  8
PLAN_1
 62
     2
  6
CONTINUOUS
 10
-0.750236
 20
-2.568744
  0
VERTEX
  8
PLAN_1
 62
     2
  6
CONTINUOUS
 10
-0.747299
 20
-2.569331
  0
VERTEX
  8
PLAN_1
 62
     2
  6
CONTINUOUS
 10
-0.744362
 20
-2.569331
  0
VERTEX
  8
PLAN_1
 62
     2
  6
CONTINUOUS
 10
-0.741421
 20
-2.569331
  0
VERTEX
  8
PLAN_1
 62
     2
  6
CONTINUOUS
 10
-0.737898
 20
-2.568157
  0
VERTEX
  8
PLAN_1
 62
     2
  6
CONTINUOUS
 10
-0.735547
 20
-2.566980
  0
VERTEX
  8
PLAN_1
 62
     2
  6
CONTINUOUS
 10
-0.733197
 20
-2.564630
  0
VERTEX
  8
PLAN_1
 62
     2
  6
CONTINUOUS
 10
-0.731437
 20
-2.562283
  0
VERTEX
  8
PLAN_1
 62
     2
  6
CONTINUOUS
 10
-0.730260
 20
-2.559346
  0
VERTEX
  8
PLAN_1
 62
     2
  6
CONTINUOUS
 10
-0.729673
 20
-2.556406
  0
VERTEX
  8
PLAN_1
 62
     2
  6
CONTINUOUS
 10
-0.729087
 20
-2.552882
  0
VERTEX
  8
PLAN_1
 62
     2
  6
CONTINUOUS
 10
-0.729673
 20
-2.549358
  0
VERTEX
  8
PLAN_1
 62
     2
  6
CONTINUOUS
 10
-0.730260
 20
-2.545835
  0
VERTEX
  8
PLAN_1
 62
     2
  6
CONTINUOUS
 10
-0.732024
 20
-2.542898
  0
VERTEX
  8
PLAN_1
 62
     2
  6
CONTINUOUS
 10
-0.733787
 20
-2.540547
  0
VERTEX
  8
PLAN_1
 62
     2
  6
CONTINUOUS
 10
-0.736138
 20
-2.538783
  0
VERTEX
  8
PLAN_1
 62
     2
  6
CONTINUOUS
 10
-0.739075
 20
-2.537610
  0
VERTEX
  8
PLAN_1
 62
     2
  6
CONTINUOUS
 10
-0.742012
 20
-2.537020
  0
VERTEX
  8
PLAN_1
 62
     2
  6
CONTINUOUS
 10
-0.745535
 20
-2.536433
  0
VERTEX
  8
PLAN_1
 62
     2
  6
CONTINUOUS
 10
-0.747299
 20
-2.537020
  0
VERTEX
  8
PLAN_1
 62
     2
  6
CONTINUOUS
 10
-0.749059
 20
-2.537020
  0
VERTEX
  8
PLAN_1
 62
     2
  6
CONTINUOUS
 10
-0.750823
 20
-2.537610
  0
VERTEX
  8
PLAN_1
 62
     2
  6
CONTINUOUS
 10
-0.752587
 20
-2.538197
  0
VERTEX
  8
PLAN_1
 62
     2
  6
CONTINUOUS
 10
-0.754346
 20
-2.539370
  0
VERTEX
  8
PLAN_1
 62
     2
  6
CONTINUOUS
 10
-0.756110
 20
-2.540547
  0
VERTEX
  8
PLAN_1
 62
     2
  6
CONTINUOUS
 10
-0.757283
 20
-2.542307
  0
VERTEX
  8
PLAN_1
 62
     2
  6
CONTINUOUS
 10
-0.759047
 20
-2.543484
  0
VERTEX
  8
PLAN_1
 62
     2
  6
CONTINUOUS
 10
-0.766685
 20
-2.542898
  0
VERTEX
  8
PLAN_1
 62
     2
  6
CONTINUOUS
 10
-0.761398
 20
-2.504122
  0
VERTEX
  8
PLAN_1
 62
     2
  6
CONTINUOUS
 10
-0.723213
 20
-2.504122
  0
VERTEX
  8
PLAN_1
 62
     2
  6
CONTINUOUS
 10
-0.723213
 20
-2.512937
  0
VERTEX
  8
PLAN_1
 62
     2
  6
CONTINUOUS
 10
-0.754346
 20
-2.512937
  0
VERTEX
  8
PLAN_1
 62
     2
  6
CONTINUOUS
 10
-0.757283
 20
-2.532909
  0
SEQEND
  8
0
  0
POLYLINE
  8
PLAN_1
 62
     2
  6
CONTINUOUS
 66
     1
 40
0.004110
 41
0.004110
  0
VERTEX
  8
PLAN_1
 62
     2
  6
CONTINUOUS
 10
-2.470890
 20
1.439457
  0
VERTEX
  8
PLAN_1
 62
     2
  6
CONTINUOUS
 10
-2.470890
 20
-2.789039
  0
SEQEND
  8
0
  0
POLYLINE
  8
PLAN_1
 62
     2
  6
CONTINUOUS
 66
     1
 40
0.004110
 41
0.004110
  0
VERTEX
  8
PLAN_1
 62
     2
  6
CONTINUOUS
 10
-2.441516
 20
-2.756728
  0
VERTEX
  8
PLAN_1
 62
     2
  6
CONTINUOUS
 10
-0.138106
 20
-2.756728
  0
SEQEND
  8
0
  0
SOLID
  8
PLAN_1
 62
     2
 10
-0.108736
 20
-2.756728
 11
-0.168067
 21
-2.740866
 12
-0.108736
 22
-2.756728
 13
-0.168067
 23
-2.772591
  0
POLYLINE
  8
PLAN_1
 62
     2
  6
CONTINUOUS
 66
     1
 40
0.003000
 41
0.003000
  0
VERTEX
  8
PLAN_1
 62
     2
  6
CONTINUOUS
 10
-0.108736
 20
-2.756728
  0
VERTEX
  8
PLAN_1
 62
     2
  6
CONTINUOUS
 10
-0.168067
 20
-2.740866
  0
VERTEX
  8
PLAN_1
 62
     2
  6
CONTINUOUS
 10
-0.168067
 20
-2.772591
  0
VERTEX
  8
PLAN_1
 62
     2
  6
CONTINUOUS
 10
-0.108736
 20
-2.756728
  0
SEQEND
  8
0
  0
SOLID
  8
PLAN_1
 62
     2
 10
-2.470890
 20
-2.756728
 11
-2.411555
 21
-2.740866
 12
-2.470890
 22
-2.756728
 13
-2.411555
 23
-2.772591
  0
POLYLINE
  8
PLAN_1
 62
     2
  6
CONTINUOUS
 66
     1
 40
0.003000
 41
0.003000
  0
VERTEX
  8
PLAN_1
 62
     2
  6
CONTINUOUS
 10
-2.470890
 20
-2.756728
  0
VERTEX
  8
PLAN_1
 62
     2
  6
CONTINUOUS
 10
-2.411555
 20
-2.740866
  0
VERTEX
  8
PLAN_1
 62
     2
  6
CONTINUOUS
 10
-2.411555
 20
-2.772591
  0
VERTEX
  8
PLAN_1
 62
     2
  6
CONTINUOUS
 10
-2.470890
 20
-2.756728
  0
SEQEND
  8
0
  0
POLYLINE
  8
PLAN_1
 62
     2
  6
CONTINUOUS
 66
     1
 40
0.003000
 41
0.003000
  0
VERTEX
  8
PLAN_1
 62
     2
  6
CONTINUOUS
 10
-1.307142
 20
-2.679185
  0
VERTEX
  8
PLAN_1
 62
     2
  6
CONTINUOUS
 10
-1.307728
 20
-2.676835
  0
VERTEX
  8
PLAN_1
 62
     2
  6
CONTINUOUS
 10
-1.308315
 20
-2.675075
  0
VERTEX
  8
PLAN_1
 62
     2
  6
CONTINUOUS
 10
-1.309492
 20
-2.672724
  0
VERTEX
  8
PLAN_1
 62
     2
  6
CONTINUOUS
 10
-1.310665
 20
-2.671547
  0
VERTEX
  8
PLAN_1
 62
     2
  6
CONTINUOUS
 10
-1.312429
 20
-2.669787
  0
VERTEX
  8
PLAN_1
 62
     2
  6
CONTINUOUS
 10
-1.314189
 20
-2.669197
  0
VERTEX
  8
PLAN_1
 62
     2
  6
CONTINUOUS
 10
-1.317130
 20
-2.668024
  0
VERTEX
  8
PLAN_1
 62
     2
  6
CONTINUOUS
 10
-1.319476
 20
-2.668024
  0
VERTEX
  8
PLAN_1
 62
     2
  6
CONTINUOUS
 10
-1.322413
 20
-2.668024
  0
VERTEX
  8
PLAN_1
 62
     2
  6
CONTINUOUS
 10
-1.324177
 20
-2.669197
  0
VERTEX
  8
PLAN_1
 62
     2
  6
CONTINUOUS
 10
-1.326528
 20
-2.669787
  0
VERTEX
  8
PLAN_1
 62
     2
  6
CONTINUOUS
 10
-1.328291
 20
-2.670961
  0
VERTEX
  8
PLAN_1
 62
     2
  6
CONTINUOUS
 10
-1.331228
 20
-2.674484
  0
VERTEX
  8
PLAN_1
 62
     2
  6
CONTINUOUS
 10
-1.333579
 20
-2.678598
  0
VERTEX
  8
PLAN_1
 62
     2
  6
CONTINUOUS
 10
-1.335339
 20
-2.683299
  0
VERTEX
  8
PLAN_1
 62
     2
  6
CONTINUOUS
 10
-1.336516
 20
-2.687409
  0
VERTEX
  8
PLAN_1
 62
     2
  6
CONTINUOUS
 10
-1.337102
 20
-2.691524
  0
VERTEX
  8
PLAN_1
 62
     2
  6
CONTINUOUS
 10
-1.337102
 20
-2.695047
  0
VERTEX
  8
PLAN_1
 62
     2
  6
CONTINUOUS
 10
-1.336516
 20
-2.695047
  0
VERTEX
  8
PLAN_1
 62
     2
  6
CONTINUOUS
 10
-1.335925
 20
-2.693870
  0
VERTEX
  8
PLAN_1
 62
     2
  6
CONTINUOUS
 10
-1.334752
 20
-2.692110
  0
VERTEX
  8
PLAN_1
 62
     2
  6
CONTINUOUS
 10
-1.332988
 20
-2.690933
  0
VERTEX
  8
PLAN_1
 62
     2
  6
CONTINUOUS
 10
-1.331228
 20
-2.689173
  0
VERTEX
  8
PLAN_1
 62
     2
  6
CONTINUOUS
 10
-1.328878
 20
-2.687996
  0
VERTEX
  8
PLAN_1
 62
     2
  6
CONTINUOUS
 10
-1.325941
 20
-2.687409
  0
VERTEX
  8
PLAN_1
 62
     2
  6
CONTINUOUS
 10
-1.323004
 20
-2.686823
  0
VERTEX
  8
PLAN_1
 62
     2
  6
CONTINUOUS
 10
-1.319476
 20
-2.686236
  0
VERTEX
  8
PLAN_1
 62
     2
  6
CONTINUOUS
 10
-1.315953
 20
-2.686823
  0
VERTEX
  8
PLAN_1
 62
     2
  6
CONTINUOUS
 10
-1.311843
 20
-2.687409
  0
VERTEX
  8
PLAN_1
 62
     2
  6
CONTINUOUS
 10
-1.308315
 20
-2.689173
  0
VERTEX
  8
PLAN_1
 62
     2
  6
CONTINUOUS
 10
-1.304791
 20
-2.691524
  0
VERTEX
  8
PLAN_1
 62
     2
  6
CONTINUOUS
 10
-1.301268
 20
-2.694461
  0
VERTEX
  8
PLAN_1
 62
     2
  6
CONTINUOUS
 10
-1.298917
 20
-2.698571
  0
VERTEX
  8
PLAN_1
 62
     2
  6
CONTINUOUS
 10
-1.297740
 20
-2.700921
  0
VERTEX
  8
PLAN_1
 62
     2
  6
CONTINUOUS
 10
-1.297154
 20
-2.703858
  0
VERTEX
  8
PLAN_1
 62
     2
  6
CONTINUOUS
 10
-1.296567
 20
-2.706209
  0
VERTEX
  8
PLAN_1
 62
     2
  6
CONTINUOUS
 10
-1.296567
 20
-2.709732
  0
VERTEX
  8
PLAN_1
 62
     2
  6
CONTINUOUS
 10
-1.296567
 20
-2.712083
  0
VERTEX
  8
PLAN_1
 62
     2
  6
CONTINUOUS
 10
-1.297154
 20
-2.715020
  0
VERTEX
  8
PLAN_1
 62
     2
  6
CONTINUOUS
 10
-1.297154
 20
-2.717370
  0
VERTEX
  8
PLAN_1
 62
     2
  6
CONTINUOUS
 10
-1.298331
 20
-2.719720
  0
VERTEX
  8
PLAN_1
 62
     2
  6
CONTINUOUS
 10
-1.298917
 20
-2.721480
  0
VERTEX
  8
PLAN_1
 62
     2
  6
CONTINUOUS
 10
-1.300091
 20
-2.723831
  0
VERTEX
  8
PLAN_1
 62
     2
  6
CONTINUOUS
 10
-1.301854
 20
-2.725594
  0
VERTEX
  8
PLAN_1
 62
     2
  6
CONTINUOUS
 10
-1.303618
 20
-2.727945
  0
VERTEX
  8
PLAN_1
 62
     2
  6
CONTINUOUS
 10
-1.304791
 20
-2.729705
  0
VERTEX
  8
PLAN_1
 62
     2
  6
CONTINUOUS
 10
-1.306555
 20
-2.730882
  0
VERTEX
  8
PLAN_1
 62
     2
  6
CONTINUOUS
 10
-1.308315
 20
-2.732055
  0
VERTEX
  8
PLAN_1
 62
     2
  6
CONTINUOUS
 10
-1.310079
 20
-2.733232
  0
VERTEX
  8
PLAN_1
 62
     2
  6
CONTINUOUS
 10
-1.312429
 20
-2.733819
  0
VERTEX
  8
PLAN_1
 62
     2
  6
CONTINUOUS
 10
-1.315366
 20
-2.734406
  0
VERTEX
  8
PLAN_1
 62
     2
  6
CONTINUOUS
 10
-1.318303
 20
-2.734992
  0
VERTEX
  8
PLAN_1
 62
     2
  6
CONTINUOUS
 10
-1.321827
 20
-2.734992
  0
VERTEX
  8
PLAN_1
 62
     2
  6
CONTINUOUS
 10
-1.324177
 20
-2.734992
  0
VERTEX
  8
PLAN_1
 62
     2
  6
CONTINUOUS
 10
-1.326528
 20
-2.734406
  0
VERTEX
  8
PLAN_1
 62
     2
  6
CONTINUOUS
 10
-1.328878
 20
-2.733819
  0
VERTEX
  8
PLAN_1
 62
     2
  6
CONTINUOUS
 10
-1.331815
 20
-2.732642
  0
VERTEX
  8
PLAN_1
 62
     2
  6
CONTINUOUS
 10
-1.334165
 20
-2.731469
  0
VERTEX
  8
PLAN_1
 62
     2
  6
CONTINUOUS
 10
-1.336516
 20
-2.729705
  0
VERTEX
  8
PLAN_1
 62
     2
  6
CONTINUOUS
 10
-1.338862
 20
-2.727358
  0
VERTEX
  8
PLAN_1
 62
     2
  6
CONTINUOUS
 10
-1.340626
 20
-2.724417
  0
VERTEX
  8
PLAN_1
 62
     2
  6
CONTINUOUS
 10
-1.342390
 20
-2.721480
  0
VERTEX
  8
PLAN_1
 62
     2
  6
CONTINUOUS
 10
-1.343563
 20
-2.719134
  0
VERTEX
  8
PLAN_1
 62
     2
  6
CONTINUOUS
 10
-1.344740
 20
-2.715606
  0
VERTEX
  8
PLAN_1
 62
     2
  6
CONTINUOUS
 10
-1.345327
 20
-2.712669
  0
VERTEX
  8
PLAN_1
 62
     2
  6
CONTINUOUS
 10
-1.345913
 20
-2.709146
  0
VERTEX
  8
PLAN_1
 62
     2
  6
CONTINUOUS
 10
-1.345913
 20
-2.706209
  0
VERTEX
  8
PLAN_1
 62
     2
  6
CONTINUOUS
 10
-1.346500
 20
-2.702685
  0
VERTEX
  8
PLAN_1
 62
     2
  6
CONTINUOUS
 10
-1.346500
 20
-2.699157
  0
VERTEX
  8
PLAN_1
 62
     2
  6
CONTINUOUS
 10
-1.345913
 20
-2.692697
  0
VERTEX
  8
PLAN_1
 62
     2
  6
CONTINUOUS
 10
-1.345327
 20
-2.686236
  0
VERTEX
  8
PLAN_1
 62
     2
  6
CONTINUOUS
 10
-1.343563
 20
-2.679772
  0
VERTEX
  8
PLAN_1
 62
     2
  6
CONTINUOUS
 10
-1.341213
 20
-2.673311
  0
VERTEX
  8
PLAN_1
 62
     2
  6
CONTINUOUS
 10
-1.339453
 20
-2.670374
  0
VERTEX
  8
PLAN_1
 62
     2
  6
CONTINUOUS
 10
-1.337689
 20
-2.668024
  0
VERTEX
  8
PLAN_1
 62
     2
  6
CONTINUOUS
 10
-1.335339
 20
-2.665673
  0
VERTEX
  8
PLAN_1
 62
     2
  6
CONTINUOUS
 10
-1.332988
 20
-2.663913
  0
VERTEX
  8
PLAN_1
 62
     2
  6
CONTINUOUS
 10
-1.330051
 20
-2.662150
  0
VERTEX
  8
PLAN_1
 62
     2
  6
CONTINUOUS
 10
-1.327114
 20
-2.660972
  0
VERTEX
  8
PLAN_1
 62
     2
  6
CONTINUOUS
 10
-1.323004
 20
-2.660386
  0
VERTEX
  8
PLAN_1
 62
     2
  6
CONTINUOUS
 10
-1.319476
 20
-2.659799
  0
VERTEX
  8
PLAN_1
 62
     2
  6
CONTINUOUS
 10
-1.315953
 20
-2.659799
  0
VERTEX
  8
PLAN_1
 62
     2
  6
CONTINUOUS
 10
-1.312429
 20
-2.660972
  0
VERTEX
  8
PLAN_1
 62
     2
  6
CONTINUOUS
 10
-1.308906
 20
-2.662150
  0
VERTEX
  8
PLAN_1
 62
     2
  6
CONTINUOUS
 10
-1.305965
 20
-2.663913
  0
VERTEX
  8
PLAN_1
 62
     2
  6
CONTINUOUS
 10
-1.303028
 20
-2.666850
  0
VERTEX
  8
PLAN_1
 62
     2
  6
CONTINUOUS
 10
-1.300681
 20
-2.669787
  0
VERTEX
  8
PLAN_1
 62
     2
  6
CONTINUOUS
 10
-1.298917
 20
-2.674484
  0
VERTEX
  8
PLAN_1
 62
     2
  6
CONTINUOUS
 10
-1.298331
 20
-2.679185
  0
VERTEX
  8
PLAN_1
 62
     2
  6
CONTINUOUS
 10
-1.307142
 20
-2.679185
  0
SEQEND
  8
0
  0
POLYLINE
  8
PLAN_1
 62
     2
  6
CONTINUOUS
 66
     1
 40
0.003000
 41
0.003000
  0
VERTEX
  8
PLAN_1
 62
     2
  6
CONTINUOUS
 10
-1.320067
 20
-2.726768
  0
VERTEX
  8
PLAN_1
 62
     2
  6
CONTINUOUS
 10
-1.317130
 20
-2.726181
  0
VERTEX
  8
PLAN_1
 62
     2
  6
CONTINUOUS
 10
-1.314189
 20
-2.725594
  0
VERTEX
  8
PLAN_1
 62
     2
  6
CONTINUOUS
 10
-1.311843
 20
-2.723831
  0
VERTEX
  8
PLAN_1
 62
     2
  6
CONTINUOUS
 10
-1.310079
 20
-2.722071
  0
VERTEX
  8
PLAN_1
 62
     2
  6
CONTINUOUS
 10
-1.308315
 20
-2.719720
  0
VERTEX
  8
PLAN_1
 62
     2
  6
CONTINUOUS
 10
-1.307142
 20
-2.716783
  0
VERTEX
  8
PLAN_1
 62
     2
  6
CONTINUOUS
 10
-1.305965
 20
-2.713846
  0
VERTEX
  8
PLAN_1
 62
     2
  6
CONTINUOUS
 10
-1.305965
 20
-2.709732
  0
VERTEX
  8
PLAN_1
 62
     2
  6
CONTINUOUS
 10
-1.305965
 20
-2.707382
  0
VERTEX
  8
PLAN_1
 62
     2
  6
CONTINUOUS
 10
-1.306555
 20
-2.705031
  0
VERTEX
  8
PLAN_1
 62
     2
  6
CONTINUOUS
 10
-1.307728
 20
-2.702094
  0
VERTEX
  8
PLAN_1
 62
     2
  6
CONTINUOUS
 10
-1.308906
 20
-2.699748
  0
VERTEX
  8
PLAN_1
 62
     2
  6
CONTINUOUS
 10
-1.311252
 20
-2.697984
  0
VERTEX
  8
PLAN_1
 62
     2
  6
CONTINUOUS
 10
-1.313602
 20
-2.696220
  0
VERTEX
  8
PLAN_1
 62
     2
  6
CONTINUOUS
 10
-1.317130
 20
-2.695047
  0
VERTEX
  8
PLAN_1
 62
     2
  6
CONTINUOUS
 10
-1.320654
 20
-2.694461
  0
VERTEX
  8
PLAN_1
 62
     2
  6
CONTINUOUS
 10
-1.324177
 20
-2.695047
  0
VERTEX
  8
PLAN_1
 62
     2
  6
CONTINUOUS
 10
-1.327114
 20
-2.695634
  0
VERTEX
  8
PLAN_1
 62
     2
  6
CONTINUOUS
 10
-1.330051
 20
-2.697398
  0
VERTEX
  8
PLAN_1
 62
     2
  6
CONTINUOUS
 10
-1.331815
 20
-2.699157
  0
VERTEX
  8
PLAN_1
 62
     2
  6
CONTINUOUS
 10
-1.333579
 20
-2.701508
  0
VERTEX
  8
PLAN_1
 62
     2
  6
CONTINUOUS
 10
-1.334752
 20
-2.704445
  0
VERTEX
  8
PLAN_1
 62
     2
  6
CONTINUOUS
 10
-1.335339
 20
-2.707382
  0
VERTEX
  8
PLAN_1
 62
     2
  6
CONTINUOUS
 10
-1.335925
 20
-2.710319
  0
VERTEX
  8
PLAN_1
 62
     2
  6
CONTINUOUS
 10
-1.335339
 20
-2.713256
  0
VERTEX
  8
PLAN_1
 62
     2
  6
CONTINUOUS
 10
-1.334752
 20
-2.716193
  0
VERTEX
  8
PLAN_1
 62
     2
  6
CONTINUOUS
 10
-1.333579
 20
-2.719134
  0
VERTEX
  8
PLAN_1
 62
     2
  6
CONTINUOUS
 10
-1.331815
 20
-2.721480
  0
VERTEX
  8
PLAN_1
 62
     2
  6
CONTINUOUS
 10
-1.330051
 20
-2.723831
  0
VERTEX
  8
PLAN_1
 62
     2
  6
CONTINUOUS
 10
-1.327114
 20
-2.725594
  0
VERTEX
  8
PLAN_1
 62
     2
  6
CONTINUOUS
 10
-1.324177
 20
-2.726181
  0
VERTEX
  8
PLAN_1
 62
     2
  6
CONTINUOUS
 10
-1.320067
 20
-2.726768
  0
SEQEND
  8
0
  0
POLYLINE
  8
PLAN_1
 62
     2
  6
CONTINUOUS
 66
     1
 40
0.003000
 41
0.003000
  0
VERTEX
  8
PLAN_1
 62
     2
  6
CONTINUOUS
 10
-1.263669
 20
-2.734992
  0
VERTEX
  8
PLAN_1
 62
     2
  6
CONTINUOUS
 10
-1.267193
 20
-2.734992
  0
VERTEX
  8
PLAN_1
 62
     2
  6
CONTINUOUS
 10
-1.270720
 20
-2.733819
  0
VERTEX
  8
PLAN_1
 62
     2
  6
CONTINUOUS
 10
-1.273657
 20
-2.732642
  0
VERTEX
  8
PLAN_1
 62
     2
  6
CONTINUOUS
 10
-1.276594
 20
-2.731469
  0
VERTEX
  8
PLAN_1
 62
     2
  6
CONTINUOUS
 10
-1.278945
 20
-2.729118
  0
VERTEX
  8
PLAN_1
 62
     2
  6
CONTINUOUS
 10
-1.280705
 20
-2.727358
  0
VERTEX
  8
PLAN_1
 62
     2
  6
CONTINUOUS
 10
-1.282469
 20
-2.724417
  0
VERTEX
  8
PLAN_1
 62
     2
  6
CONTINUOUS
 10
-1.284232
 20
-2.722071
  0
VERTEX
  8
PLAN_1
 62
     2
  6
CONTINUOUS
 10
-1.285992
 20
-2.716193
  0
VERTEX
  8
PLAN_1
 62
     2
  6
CONTINUOUS
 10
-1.287756
 20
-2.709732
  0
VERTEX
  8
PLAN_1
 62
     2
  6
CONTINUOUS
 10
-1.288343
 20
-2.703272
  0
VERTEX
  8
PLAN_1
 62
     2
  6
CONTINUOUS
 10
-1.288929
 20
-2.697398
  0
VERTEX
  8
PLAN_1
 62
     2
  6
CONTINUOUS
 10
-1.288343
 20
-2.691524
  0
VERTEX
  8
PLAN_1
 62
     2
  6
CONTINUOUS
 10
-1.287756
 20
-2.685059
  0
VERTEX
  8
PLAN_1
 62
     2
  6
CONTINUOUS
 10
-1.285992
 20
-2.678598
  0
VERTEX
  8
PLAN_1
 62
     2
  6
CONTINUOUS
 10
-1.284232
 20
-2.672724
  0
VERTEX
  8
PLAN_1
 62
     2
  6
CONTINUOUS
 10
-1.282469
 20
-2.670374
  0
VERTEX
  8
PLAN_1
 62
     2
  6
CONTINUOUS
 10
-1.280705
 20
-2.668024
  0
VERTEX
  8
PLAN_1
 62
     2
  6
CONTINUOUS
 10
-1.278945
 20
-2.665673
  0
VERTEX
  8
PLAN_1
 62
     2
  6
CONTINUOUS
 10
-1.276594
 20
-2.663323
  0
VERTEX
  8
PLAN_1
 62
     2
  6
CONTINUOUS
 10
-1.273657
 20
-2.662150
  0
VERTEX
  8
PLAN_1
 62
     2
  6
CONTINUOUS
 10
-1.270720
 20
-2.660972
  0
VERTEX
  8
PLAN_1
 62
     2
  6
CONTINUOUS
 10
-1.267193
 20
-2.660386
  0
VERTEX
  8
PLAN_1
 62
     2
  6
CONTINUOUS
 10
-1.263669
 20
-2.659799
  0
VERTEX
  8
PLAN_1
 62
     2
  6
CONTINUOUS
 10
-1.259559
 20
-2.660386
  0
VERTEX
  8
PLAN_1
 62
     2
  6
CONTINUOUS
 10
-1.256622
 20
-2.660972
  0
VERTEX
  8
PLAN_1
 62
     2
  6
CONTINUOUS
 10
-1.253681
 20
-2.662150
  0
VERTEX
  8
PLAN_1
 62
     2
  6
CONTINUOUS
 10
-1.250744
 20
-2.663323
  0
VERTEX
  8
PLAN_1
 62
     2
  6
CONTINUOUS
 10
-1.248398
 20
-2.665673
  0
VERTEX
  8
PLAN_1
 62
     2
  6
CONTINUOUS
 10
-1.246634
 20
-2.668024
  0
VERTEX
  8
PLAN_1
 62
     2
  6
CONTINUOUS
 10
-1.244870
 20
-2.670374
  0
VERTEX
  8
PLAN_1
 62
     2
  6
CONTINUOUS
 10
-1.243110
 20
-2.672724
  0
VERTEX
  8
PLAN_1
 62
     2
  6
CONTINUOUS
 10
-1.240760
 20
-2.678598
  0
VERTEX
  8
PLAN_1
 62
     2
  6
CONTINUOUS
 10
-1.239583
 20
-2.685059
  0
VERTEX
  8
PLAN_1
 62
     2
  6
CONTINUOUS
 10
-1.238996
 20
-2.691524
  0
VERTEX
  8
PLAN_1
 62
     2
  6
CONTINUOUS
 10
-1.238409
 20
-2.697398
  0
VERTEX
  8
PLAN_1
 62
     2
  6
CONTINUOUS
 10
-1.238996
 20
-2.703272
  0
VERTEX
  8
PLAN_1
 62
     2
  6
CONTINUOUS
 10
-1.239583
 20
-2.709732
  0
VERTEX
  8
PLAN_1
 62
     2
  6
CONTINUOUS
 10
-1.240760
 20
-2.716193
  0
VERTEX
  8
PLAN_1
 62
     2
  6
CONTINUOUS
 10
-1.243110
 20
-2.722071
  0
VERTEX
  8
PLAN_1
 62
     2
  6
CONTINUOUS
 10
-1.244870
 20
-2.724417
  0
VERTEX
  8
PLAN_1
 62
     2
  6
CONTINUOUS
 10
-1.246634
 20
-2.727358
  0
VERTEX
  8
PLAN_1
 62
     2
  6
CONTINUOUS
 10
-1.248398
 20
-2.729118
  0
VERTEX
  8
PLAN_1
 62
     2
  6
CONTINUOUS
 10
-1.250744
 20
-2.731469
  0
VERTEX
  8
PLAN_1
 62
     2
  6
CONTINUOUS
 10
-1.253681
 20
-2.732642
  0
VERTEX
  8
PLAN_1
 62
     2
  6
CONTINUOUS
 10
-1.256622
 20
-2.733819
  0
VERTEX
  8
PLAN_1
 62
     2
  6
CONTINUOUS
 10
-1.259559
 20
-2.734992
  0
VERTEX
  8
PLAN_1
 62
     2
  6
CONTINUOUS
 10
-1.263669
 20
-2.734992
  0
SEQEND
  8
0
  0
POLYLINE
  8
PLAN_1
 62
     2
  6
CONTINUOUS
 66
     1
 40
0.003000
 41
0.003000
  0
VERTEX
  8
PLAN_1
 62
     2
  6
CONTINUOUS
 10
-1.263669
 20
-2.668024
  0
VERTEX
  8
PLAN_1
 62
     2
  6
CONTINUOUS
 10
-1.267193
 20
-2.668610
  0
VERTEX
  8
PLAN_1
 62
     2
  6
CONTINUOUS
 10
-1.270130
 20
-2.670374
  0
VERTEX
  8
PLAN_1
 62
     2
  6
CONTINUOUS
 10
-1.273071
 20
-2.672724
  0
VERTEX
  8
PLAN_1
 62
     2
  6
CONTINUOUS
 10
-1.275417
 20
-2.675661
  0
VERTEX
  8
PLAN_1
 62
     2
  6
CONTINUOUS
 10
-1.276594
 20
-2.680358
  0
VERTEX
  8
PLAN_1
 62
     2
  6
CONTINUOUS
 10
-1.277768
 20
-2.685059
  0
VERTEX
  8
PLAN_1
 62
     2
  6
CONTINUOUS
 10
-1.278354
 20
-2.690933
  0
VERTEX
  8
PLAN_1
 62
     2
  6
CONTINUOUS
 10
-1.278945
 20
-2.697398
  0
VERTEX
  8
PLAN_1
 62
     2
  6
CONTINUOUS
 10
-1.278354
 20
-2.703858
  0
VERTEX
  8
PLAN_1
 62
     2
  6
CONTINUOUS
 10
-1.277768
 20
-2.709732
  0
VERTEX
  8
PLAN_1
 62
     2
  6
CONTINUOUS
 10
-1.276594
 20
-2.715020
  0
VERTEX
  8
PLAN_1
 62
     2
  6
CONTINUOUS
 10
-1.275417
 20
-2.719134
  0
VERTEX
  8
PLAN_1
 62
     2
  6
CONTINUOUS
 10
-1.273071
 20
-2.722071
  0
VERTEX
  8
PLAN_1
 62
     2
  6
CONTINUOUS
 10
-1.270130
 20
-2.725008
  0
VERTEX
  8
PLAN_1
 62
     2
  6
CONTINUOUS
 10
-1.267193
 20
-2.726181
  0
VERTEX
  8
PLAN_1
 62
     2
  6
CONTINUOUS
 10
-1.263669
 20
-2.726768
  0
VERTEX
  8
PLAN_1
 62
     2
  6
CONTINUOUS
 10
-1.260146
 20
-2.726181
  0
VERTEX
  8
PLAN_1
 62
     2
  6
CONTINUOUS
 10
-1.256622
 20
-2.725008
  0
VERTEX
  8
PLAN_1
 62
     2
  6
CONTINUOUS
 10
-1.254272
 20
-2.722071
  0
VERTEX
  8
PLAN_1
 62
     2
  6
CONTINUOUS
 10
-1.251921
 20
-2.719134
  0
VERTEX
  8
PLAN_1
 62
     2
  6
CONTINUOUS
 10
-1.250157
 20
-2.715020
  0
VERTEX
  8
PLAN_1
 62
     2
  6
CONTINUOUS
 10
-1.248984
 20
-2.709732
  0
VERTEX
  8
PLAN_1
 62
     2
  6
CONTINUOUS
 10
-1.248398
 20
-2.703858
  0
VERTEX
  8
PLAN_1
 62
     2
  6
CONTINUOUS
 10
-1.248398
 20
-2.697398
  0
VERTEX
  8
PLAN_1
 62
     2
  6
CONTINUOUS
 10
-1.248398
 20
-2.690933
  0
VERTEX
  8
PLAN_1
 62
     2
  6
CONTINUOUS
 10
-1.248984
 20
-2.685059
  0
VERTEX
  8
PLAN_1
 62
     2
  6
CONTINUOUS
 10
-1.250157
 20
-2.680358
  0
VERTEX
  8
PLAN_1
 62
     2
  6
CONTINUOUS
 10
-1.251921
 20
-2.675661
  0
VERTEX
  8
PLAN_1
 62
     2
  6
CONTINUOUS
 10
-1.254272
 20
-2.672724
  0
VERTEX
  8
PLAN_1
 62
     2
  6
CONTINUOUS
 10
-1.256622
 20
-2.670374
  0
VERTEX
  8
PLAN_1
 62
     2
  6
CONTINUOUS
 10
-1.260146
 20
-2.668610
  0
VERTEX
  8
PLAN_1
 62
     2
  6
CONTINUOUS
 10
-1.263669
 20
-2.668024
  0
SEQEND
  8
0
  0
SOLID
  8
PLAN_1
 62
     2
 10
-0.339606
 20
-2.341988
 11
-0.296720
 21
-2.385457
 12
-0.339606
 22
-2.341988
 13
-0.280858
 23
-2.357846
  0
POLYLINE
  8
PLAN_1
 62
     2
  6
CONTINUOUS
 66
     1
 40
0.003000
 41
0.003000
  0
VERTEX
  8
PLAN_1
 62
     2
  6
CONTINUOUS
 10
-0.339606
 20
-2.341988
  0
VERTEX
  8
PLAN_1
 62
     2
  6
CONTINUOUS
 10
-0.296720
 20
-2.385457
  0
VERTEX
  8
PLAN_1
 62
     2
  6
CONTINUOUS
 10
-0.280858
 20
-2.357846
  0
VERTEX
  8
PLAN_1
 62
     2
  6
CONTINUOUS
 10
-0.339606
 20
-2.341988
  0
SEQEND
  8
0
  0
POLYLINE
  8
PLAN_1
 62
     2
  6
CONTINUOUS
 66
     1
 40
0.004110
 41
0.004110
  0
VERTEX
  8
PLAN_1
 62
     2
  6
CONTINUOUS
 10
-0.307295
 20
-2.360783
  0
VERTEX
  8
PLAN_1
 62
     2
  6
CONTINUOUS
 10
-0.055276
 20
-2.512937
  0
VERTEX
  8
PLAN_1
 62
     2
  6
CONTINUOUS
 10
0.903449
 20
-2.512937
  0
SEQEND
  8
0
  0
POLYLINE
  8
PLAN_1
 62
     2
  6
CONTINUOUS
 66
     1
 40
0.004110
 41
0.004110
  0
VERTEX
  8
PLAN_1
 62
     2
  6
CONTINUOUS
 10
0.048701
 20
-2.328476
  0
VERTEX
  8
PLAN_1
 62
     2
  6
CONTINUOUS
 10
-0.108736
 20
-2.328476
  0
SEQEND
  8
0
  0
POLYLINE
  8
PLAN_1
 62
     2
  6
CONTINUOUS
 66
     1
 40
0.004110
 41
0.004110
  0
VERTEX
  8
PLAN_1
 62
     2
  6
CONTINUOUS
 10
-0.151031
 20
4.446634
  0
VERTEX
  8
PLAN_1
 62
     2
  6
CONTINUOUS
 10
-1.956866
 20
4.446634
  0
SEQEND
  8
0
  0
POLYLINE
  8
PLAN_1
 62
     2
  6
CONTINUOUS
 66
     1
 40
0.004110
 41
0.004110
  0
VERTEX
  8
PLAN_1
 62
     2
  6
CONTINUOUS
 10
0.025205
 20
-2.299102
  0
VERTEX
  8
PLAN_1
 62
     2
  6
CONTINUOUS
 10
0.025205
 20
4.416673
  0
SEQEND
  8
0
  0
SOLID
  8
PLAN_1
 62
     2
 10
0.025205
 20
-2.328476
 11
0.009343
 21
-2.269728
 12
0.025205
 22
-2.328476
 13
0.040476
 23
-2.269728
  0
POLYLINE
  8
PLAN_1
 62
     2
  6
CONTINUOUS
 66
     1
 40
0.003000
 41
0.003000
  0
VERTEX
  8
PLAN_1
 62
     2
  6
CONTINUOUS
 10
0.025205
 20
-2.328476
  0
VERTEX
  8
PLAN_1
 62
     2
  6
CONTINUOUS
 10
0.009343
 20
-2.269728
  0
VERTEX
  8
PLAN_1
 62
     2
  6
CONTINUOUS
 10
0.040476
 20
-2.269728
  0
VERTEX
  8
PLAN_1
 62
     2
  6
CONTINUOUS
 10
0.025205
 20
-2.328476
  0
SEQEND
  8
0
  0
POLYLINE
  8
PLAN_1
 62
     2
  6
CONTINUOUS
 66
     1
 40
0.004110
 41
0.004110
  0
VERTEX
  8
PLAN_1
 62
     2
  6
CONTINUOUS
 10
0.048701
 20
4.446634
  0
VERTEX
  8
PLAN_1
 62
     2
  6
CONTINUOUS
 10
-0.116961
 20
4.446634
  0
SEQEND
  8
0
  0
SOLID
  8
PLAN_1
 62
     2
 10
0.025205
 20
4.446634
 11
0.009343
 21
4.387299
 12
0.025205
 22
4.446634
 13
0.040476
 23
4.387299
  0
POLYLINE
  8
PLAN_1
 62
     2
  6
CONTINUOUS
 66
     1
 40
0.003000
 41
0.003000
  0
VERTEX
  8
PLAN_1
 62
     2
  6
CONTINUOUS
 10
0.025205
 20
4.446634
  0
VERTEX
  8
PLAN_1
 62
     2
  6
CONTINUOUS
 10
0.009343
 20
4.387299
  0
VERTEX
  8
PLAN_1
 62
     2
  6
CONTINUOUS
 10
0.040476
 20
4.387299
  0
VERTEX
  8
PLAN_1
 62
     2
  6
CONTINUOUS
 10
0.025205
 20
4.446634
  0
SEQEND
  8
0
  0
POLYLINE
  8
PLAN_1
 62
     2
  6
CONTINUOUS
 66
     1
 40
0.004110
 41
0.004110
  0
VERTEX
  8
PLAN_1
 62
     2
  6
CONTINUOUS
 10
-2.063783
 20
4.604071
  0
VERTEX
  8
PLAN_1
 62
     2
  6
CONTINUOUS
 10
-0.168654
 20
4.604071
  0
SEQEND
  8
0
  0
SOLID
  8
PLAN_1
 62
     2
 10
-0.139283
 20
4.604071
 11
-0.198028
 21
4.619933
 12
-0.139283
 22
4.604071
 13
-0.198028
 23
4.588209
  0
POLYLINE
  8
PLAN_1
 62
     2
  6
CONTINUOUS
 66
     1
 40
0.003000
 41
0.003000
  0
VERTEX
  8
PLAN_1
 62
     2
  6
CONTINUOUS
 10
-0.139283
 20
4.604071
  0
VERTEX
  8
PLAN_1
 62
     2
  6
CONTINUOUS
 10
-0.198028
 20
4.619933
  0
VERTEX
  8
PLAN_1
 62
     2
  6
CONTINUOUS
 10
-0.198028
 20
4.588209
  0
VERTEX
  8
PLAN_1
 62
     2
  6
CONTINUOUS
 10
-0.139283
 20
4.604071
  0
SEQEND
  8
0
  0
SOLID
  8
PLAN_1
 62
     2
 10
-2.093154
 20
4.604071
 11
-2.034409
 21
4.619933
 12
-2.093154
 22
4.604071
 13
-2.034409
 23
4.588209
  0
POLYLINE
  8
PLAN_1
 62
     2
  6
CONTINUOUS
 66
     1
 40
0.003000
 41
0.003000
  0
VERTEX
  8
PLAN_1
 62
     2
  6
CONTINUOUS
 10
-2.093154
 20
4.604071
  0
VERTEX
  8
PLAN_1
 62
     2
  6
CONTINUOUS
 10
-2.034409
 20
4.619933
  0
VERTEX
  8
PLAN_1
 62
     2
  6
CONTINUOUS
 10
-2.034409
 20
4.588209
  0
VERTEX
  8
PLAN_1
 62
     2
  6
CONTINUOUS
 10
-2.093154
 20
4.604071
  0
SEQEND
  8
0
  0
POLYLINE
  8
PLAN_1
 62
     2
  6
CONTINUOUS
 66
     1
 40
0.003000
 41
0.003000
  0
VERTEX
  8
PLAN_1
 62
     2
  6
CONTINUOUS
 10
-1.130319
 20
4.645780
  0
VERTEX
  8
PLAN_1
 62
     2
  6
CONTINUOUS
 10
-1.130319
 20
4.628157
  0
VERTEX
  8
PLAN_1
 62
     2
  6
CONTINUOUS
 10
-1.139717
 20
4.628157
  0
VERTEX
  8
PLAN_1
 62
     2
  6
CONTINUOUS
 10
-1.139717
 20
4.645780
  0
VERTEX
  8
PLAN_1
 62
     2
  6
CONTINUOUS
 10
-1.171441
 20
4.645780
  0
VERTEX
  8
PLAN_1
 62
     2
  6
CONTINUOUS
 10
-1.171441
 20
4.654591
  0
VERTEX
  8
PLAN_1
 62
     2
  6
CONTINUOUS
 10
-1.137953
 20
4.701000
  0
VERTEX
  8
PLAN_1
 62
     2
  6
CONTINUOUS
 10
-1.130319
 20
4.701000
  0
VERTEX
  8
PLAN_1
 62
     2
  6
CONTINUOUS
 10
-1.130319
 20
4.653417
  0
VERTEX
  8
PLAN_1
 62
     2
  6
CONTINUOUS
 10
-1.119744
 20
4.653417
  0
VERTEX
  8
PLAN_1
 62
     2
  6
CONTINUOUS
 10
-1.119744
 20
4.645780
  0
VERTEX
  8
PLAN_1
 62
     2
  6
CONTINUOUS
 10
-1.130319
 20
4.645780
  0
SEQEND
  8
0
  0
SOLID
  8
PLAN_1
 62
     2
 10
-1.163217
 20
4.653417
 11
-1.139717
 21
4.653417
 12
-1.163217
 22
4.653417
 13
-1.139717
 23
4.686902
  0
POLYLINE
  8
PLAN_1
 62
     2
  6
CONTINUOUS
 66
     1
 40
0.003000
 41
0.003000
  0
VERTEX
  8
PLAN_1
 62
     2
  6
CONTINUOUS
 10
-1.163217
 20
4.653417
  0
VERTEX
  8
PLAN_1
 62
     2
  6
CONTINUOUS
 10
-1.139717
 20
4.653417
  0
VERTEX
  8
PLAN_1
 62
     2
  6
CONTINUOUS
 10
-1.139717
 20
4.686902
  0
VERTEX
  8
PLAN_1
 62
     2
  6
CONTINUOUS
 10
-1.163217
 20
4.653417
  0
SEQEND
  8
0
  0
POLYLINE
  8
PLAN_1
 62
     2
  6
CONTINUOUS
 66
     1
 40
0.003000
 41
0.003000
  0
VERTEX
  8
PLAN_1
 62
     2
  6
CONTINUOUS
 10
-1.074508
 20
4.666929
  0
VERTEX
  8
PLAN_1
 62
     2
  6
CONTINUOUS
 10
-1.070984
 20
4.665165
  0
VERTEX
  8
PLAN_1
 62
     2
  6
CONTINUOUS
 10
-1.068634
 20
4.662815
  0
VERTEX
  8
PLAN_1
 62
     2
  6
CONTINUOUS
 10
-1.066283
 20
4.661051
  0
VERTEX
  8
PLAN_1
 62
     2
  6
CONTINUOUS
 10
-1.064524
 20
4.658114
  0
VERTEX
  8
PLAN_1
 62
     2
  6
CONTINUOUS
 10
-1.063937
 20
4.655768
  0
VERTEX
  8
PLAN_1
 62
     2
  6
CONTINUOUS
 10
-1.062760
 20
4.653417
  0
VERTEX
  8
PLAN_1
 62
     2
  6
CONTINUOUS
 10
-1.062760
 20
4.651067
  0
VERTEX
  8
PLAN_1
 62
     2
  6
CONTINUOUS
 10
-1.062760
 20
4.648717
  0
VERTEX
  8
PLAN_1
 62
     2
  6
CONTINUOUS
 10
-1.062760
 20
4.644606
  0
VERTEX
  8
PLAN_1
 62
     2
  6
CONTINUOUS
 10
-1.063937
 20
4.640492
  0
VERTEX
  8
PLAN_1
 62
     2
  6
CONTINUOUS
 10
-1.065697
 20
4.636382
  0
VERTEX
  8
PLAN_1
 62
     2
  6
CONTINUOUS
 10
-1.068634
 20
4.632854
  0
VERTEX
  8
PLAN_1
 62
     2
  6
CONTINUOUS
 10
-1.071571
 20
4.629917
  0
VERTEX
  8
PLAN_1
 62
     2
  6
CONTINUOUS
 10
-1.076272
 20
4.627567
  0
VERTEX
  8
PLAN_1
 62
     2
  6
CONTINUOUS
 10
-1.080972
 20
4.626394
  0
VERTEX
  8
PLAN_1
 62
     2
  6
CONTINUOUS
 10
-1.087433
 20
4.625807
  0
VERTEX
  8
PLAN_1
 62
     2
  6
CONTINUOUS
 10
-1.089197
 20
4.625807
  0
VERTEX
  8
PLAN_1
 62
     2
  6
CONTINUOUS
 10
-1.090957
 20
4.626394
  0
VERTEX
  8
PLAN_1
 62
     2
  6
CONTINUOUS
 10
-1.093307
 20
4.626394
  0
VERTEX
  8
PLAN_1
 62
     2
  6
CONTINUOUS
 10
-1.095071
 20
4.626980
  0
VERTEX
  8
PLAN_1
 62
     2
  6
CONTINUOUS
 10
-1.098008
 20
4.627567
  0
VERTEX
  8
PLAN_1
 62
     2
  6
CONTINUOUS
 10
-1.100358
 20
4.628744
  0
VERTEX
  8
PLAN_1
 62
     2
  6
CONTINUOUS
 10
-1.102709
 20
4.629917
  0
VERTEX
  8
PLAN_1
 62
     2
  6
CONTINUOUS
 10
-1.105059
 20
4.631681
  0
VERTEX
  8
PLAN_1
 62
     2
  6
CONTINUOUS
 10
-1.107406
 20
4.634031
  0
VERTEX
  8
PLAN_1
 62
     2
  6
CONTINUOUS
 10
-1.109169
 20
4.636382
  0
VERTEX
  8
PLAN_1
 62
     2
  6
CONTINUOUS
 10
-1.110343
 20
4.638728
  0
VERTEX
  8
PLAN_1
 62
     2
  6
CONTINUOUS
 10
-1.111520
 20
4.641079
  0
VERTEX
  8
PLAN_1
 62
     2
  6
CONTINUOUS
 10
-1.112106
 20
4.643429
  0
VERTEX
  8
PLAN_1
 62
     2
  6
CONTINUOUS
 10
-1.112106
 20
4.645780
  0
VERTEX
  8
PLAN_1
 62
     2
  6
CONTINUOUS
 10
-1.112106
 20
4.647543
  0
VERTEX
  8
PLAN_1
 62
     2
  6
CONTINUOUS
 10
-1.112106
 20
4.648717
  0
VERTEX
  8
PLAN_1
 62
     2
  6
CONTINUOUS
 10
-1.112106
 20
4.652240
  0
VERTEX
  8
PLAN_1
 62
     2
  6
CONTINUOUS
 10
-1.111520
 20
4.655177
  0
VERTEX
  8
PLAN_1
 62
     2
  6
CONTINUOUS
 10
-1.110343
 20
4.657528
  0
VERTEX
  8
PLAN_1
 62
     2
  6
CONTINUOUS
 10
-1.109169
 20
4.659878
  0
VERTEX
  8
PLAN_1
 62
     2
  6
CONTINUOUS
 10
-1.107406
 20
4.662228
  0
VERTEX
  8
PLAN_1
 62
     2
  6
CONTINUOUS
 10
-1.105059
 20
4.663992
  0
VERTEX
  8
PLAN_1
 62
     2
  6
CONTINUOUS
 10
-1.102709
 20
4.665165
  0
VERTEX
  8
PLAN_1
 62
     2
  6
CONTINUOUS
 10
-1.099772
 20
4.666929
  0
VERTEX
  8
PLAN_1
 62
     2
  6
CONTINUOUS
 10
-1.102118
 20
4.667516
  0
VERTEX
  8
PLAN_1
 62
     2
  6
CONTINUOUS
 10
-1.103882
 20
4.668689
  0
VERTEX
  8
PLAN_1
 62
     2
  6
CONTINUOUS
 10
-1.105646
 20
4.670453
  0
VERTEX
  8
PLAN_1
 62
     2
  6
CONTINUOUS
 10
-1.107406
 20
4.672217
  0
VERTEX
  8
PLAN_1
 62
     2
  6
CONTINUOUS
 10
-1.108583
 20
4.673976
  0
VERTEX
  8
PLAN_1
 62
     2
  6
CONTINUOUS
 10
-1.109169
 20
4.676327
  0
VERTEX
  8
PLAN_1
 62
     2
  6
CONTINUOUS
 10
-1.109756
 20
4.678677
  0
VERTEX
  8
PLAN_1
 62
     2
  6
CONTINUOUS
 10
-1.109756
 20
4.681028
  0
VERTEX
  8
PLAN_1
 62
     2
  6
CONTINUOUS
 10
-1.109756
 20
4.683965
  0
VERTEX
  8
PLAN_1
 62
     2
  6
CONTINUOUS
 10
-1.108583
 20
4.687488
  0
VERTEX
  8
PLAN_1
 62
     2
  6
CONTINUOUS
 10
-1.107406
 20
4.690425
  0
VERTEX
  8
PLAN_1
 62
     2
  6
CONTINUOUS
 10
-1.105059
 20
4.693949
  0
VERTEX
  8
PLAN_1
 62
     2
  6
CONTINUOUS
 10
-1.102118
 20
4.696890
  0
VERTEX
  8
PLAN_1
 62
     2
  6
CONTINUOUS
 10
-1.098594
 20
4.698650
  0
VERTEX
  8
PLAN_1
 62
     2
  6
CONTINUOUS
 10
-1.093894
 20
4.700413
  0
VERTEX
  8
PLAN_1
 62
     2
  6
CONTINUOUS
 10
-1.087433
 20
4.701000
  0
VERTEX
  8
PLAN_1
 62
     2
  6
CONTINUOUS
 10
-1.082146
 20
4.700413
  0
VERTEX
  8
PLAN_1
 62
     2
  6
CONTINUOUS
 10
-1.077445
 20
4.699236
  0
VERTEX
  8
PLAN_1
 62
     2
  6
CONTINUOUS
 10
-1.073335
 20
4.697476
  0
VERTEX
  8
PLAN_1
 62
     2
  6
CONTINUOUS
 10
-1.070398
 20
4.694539
  0
VERTEX
  8
PLAN_1
 62
     2
  6
CONTINUOUS
 10
-1.068047
 20
4.691602
  0
VERTEX
  8
PLAN_1
 62
     2
  6
CONTINUOUS
 10
-1.066283
 20
4.688665
  0
VERTEX
  8
PLAN_1
 62
     2
  6
CONTINUOUS
 10
-1.065110
 20
4.685138
  0
VERTEX
  8
PLAN_1
 62
     2
  6
CONTINUOUS
 10
-1.065110
 20
4.682201
  0
VERTEX
  8
PLAN_1
 62
     2
  6
CONTINUOUS
 10
-1.065110
 20
4.678677
  0
VERTEX
  8
PLAN_1
 62
     2
  6
CONTINUOUS
 10
-1.066283
 20
4.675740
  0
VERTEX
  8
PLAN_1
 62
     2
  6
CONTINUOUS
 10
-1.067461
 20
4.673390
  0
VERTEX
  8
PLAN_1
 62
     2
  6
CONTINUOUS
 10
-1.068634
 20
4.671039
  0
VERTEX
  8
PLAN_1
 62
     2
  6
CONTINUOUS
 10
-1.069811
 20
4.669866
  0
VERTEX
  8
PLAN_1
 62
     2
  6
CONTINUOUS
 10
-1.071571
 20
4.668689
  0
VERTEX
  8
PLAN_1
 62
     2
  6
CONTINUOUS
 10
-1.073335
 20
4.667516
  0
VERTEX
  8
PLAN_1
 62
     2
  6
CONTINUOUS
 10
-1.074508
 20
4.666929
  0
SEQEND
  8
0
  0
POLYLINE
  8
PLAN_1
 62
     2
  6
CONTINUOUS
 66
     1
 40
0.003000
 41
0.003000
  0
VERTEX
  8
PLAN_1
 62
     2
  6
CONTINUOUS
 10
-1.102709
 20
4.648717
  0
VERTEX
  8
PLAN_1
 62
     2
  6
CONTINUOUS
 10
-1.102118
 20
4.646366
  0
VERTEX
  8
PLAN_1
 62
     2
  6
CONTINUOUS
 10
-1.102118
 20
4.644016
  0
VERTEX
  8
PLAN_1
 62
     2
  6
CONTINUOUS
 10
-1.100945
 20
4.641665
  0
VERTEX
  8
PLAN_1
 62
     2
  6
CONTINUOUS
 10
-1.099772
 20
4.639319
  0
VERTEX
  8
PLAN_1
 62
     2
  6
CONTINUOUS
 10
-1.097421
 20
4.636969
  0
VERTEX
  8
PLAN_1
 62
     2
  6
CONTINUOUS
 10
-1.094484
 20
4.635791
  0
VERTEX
  8
PLAN_1
 62
     2
  6
CONTINUOUS
 10
-1.090957
 20
4.634618
  0
VERTEX
  8
PLAN_1
 62
     2
  6
CONTINUOUS
 10
-1.086846
 20
4.634031
  0
VERTEX
  8
PLAN_1
 62
     2
  6
CONTINUOUS
 10
-1.084496
 20
4.634031
  0
VERTEX
  8
PLAN_1
 62
     2
  6
CONTINUOUS
 10
-1.081559
 20
4.634618
  0
VERTEX
  8
PLAN_1
 62
     2
  6
CONTINUOUS
 10
-1.079209
 20
4.635205
  0
VERTEX
  8
PLAN_1
 62
     2
  6
CONTINUOUS
 10
-1.076858
 20
4.636969
  0
VERTEX
  8
PLAN_1
 62
     2
  6
CONTINUOUS
 10
-1.075098
 20
4.638728
  0
VERTEX
  8
PLAN_1
 62
     2
  6
CONTINUOUS
 10
-1.073335
 20
4.641079
  0
VERTEX
  8
PLAN_1
 62
     2
  6
CONTINUOUS
 10
-1.072748
 20
4.644016
  0
VERTEX
  8
PLAN_1
 62
     2
  6
CONTINUOUS
 10
-1.072161
 20
4.648130
  0
VERTEX
  8
PLAN_1
 62
     2
  6
CONTINUOUS
 10
-1.072748
 20
4.651654
  0
VERTEX
  8
PLAN_1
 62
     2
  6
CONTINUOUS
 10
-1.073335
 20
4.654591
  0
VERTEX
  8
PLAN_1
 62
     2
  6
CONTINUOUS
 10
-1.075098
 20
4.656941
  0
VERTEX
  8
PLAN_1
 62
     2
  6
CONTINUOUS
 10
-1.076858
 20
4.658705
  0
VERTEX
  8
PLAN_1
 62
     2
  6
CONTINUOUS
 10
-1.079209
 20
4.660465
  0
VERTEX
  8
PLAN_1
 62
     2
  6
CONTINUOUS
 10
-1.081559
 20
4.661642
  0
VERTEX
  8
PLAN_1
 62
     2
  6
CONTINUOUS
 10
-1.084496
 20
4.662228
  0
VERTEX
  8
PLAN_1
 62
     2
  6
CONTINUOUS
 10
-1.087433
 20
4.662228
  0
VERTEX
  8
PLAN_1
 62
     2
  6
CONTINUOUS
 10
-1.090957
 20
4.661642
  0
VERTEX
  8
PLAN_1
 62
     2
  6
CONTINUOUS
 10
-1.093894
 20
4.661051
  0
VERTEX
  8
PLAN_1
 62
     2
  6
CONTINUOUS
 10
-1.096835
 20
4.659878
  0
VERTEX
  8
PLAN_1
 62
     2
  6
CONTINUOUS
 10
-1.098594
 20
4.658114
  0
VERTEX
  8
PLAN_1
 62
     2
  6
CONTINUOUS
 10
-1.100358
 20
4.655768
  0
VERTEX
  8
PLAN_1
 62
     2
  6
CONTINUOUS
 10
-1.101531
 20
4.653417
  0
VERTEX
  8
PLAN_1
 62
     2
  6
CONTINUOUS
 10
-1.102118
 20
4.651067
  0
VERTEX
  8
PLAN_1
 62
     2
  6
CONTINUOUS
 10
-1.102709
 20
4.648717
  0
SEQEND
  8
0
  0
POLYLINE
  8
PLAN_1
 62
     2
  6
CONTINUOUS
 66
     1
 40
0.003000
 41
0.003000
  0
VERTEX
  8
PLAN_1
 62
     2
  6
CONTINUOUS
 10
-1.074508
 20
4.681614
  0
VERTEX
  8
PLAN_1
 62
     2
  6
CONTINUOUS
 10
-1.074508
 20
4.683378
  0
VERTEX
  8
PLAN_1
 62
     2
  6
CONTINUOUS
 10
-1.075098
 20
4.685724
  0
VERTEX
  8
PLAN_1
 62
     2
  6
CONTINUOUS
 10
-1.076272
 20
4.687488
  0
VERTEX
  8
PLAN_1
 62
     2
  6
CONTINUOUS
 10
-1.077445
 20
4.689252
  0
VERTEX
  8
PLAN_1
 62
     2
  6
CONTINUOUS
 10
-1.079209
 20
4.690425
  0
VERTEX
  8
PLAN_1
 62
     2
  6
CONTINUOUS
 10
-1.081559
 20
4.691602
  0
VERTEX
  8
PLAN_1
 62
     2
  6
CONTINUOUS
 10
-1.084496
 20
4.692776
  0
VERTEX
  8
PLAN_1
 62
     2
  6
CONTINUOUS
 10
-1.088020
 20
4.692776
  0
VERTEX
  8
PLAN_1
 62
     2
  6
CONTINUOUS
 10
-1.091547
 20
4.692189
  0
VERTEX
  8
PLAN_1
 62
     2
  6
CONTINUOUS
 10
-1.094484
 20
4.691602
  0
VERTEX
  8
PLAN_1
 62
     2
  6
CONTINUOUS
 10
-1.096244
 20
4.690425
  0
VERTEX
  8
PLAN_1
 62
     2
  6
CONTINUOUS
 10
-1.098008
 20
4.688665
  0
VERTEX
  8
PLAN_1
 62
     2
  6
CONTINUOUS
 10
-1.099181
 20
4.686902
  0
VERTEX
  8
PLAN_1
 62
     2
  6
CONTINUOUS
 10
-1.099772
 20
4.685138
  0
VERTEX
  8
PLAN_1
 62
     2
  6
CONTINUOUS
 10
-1.100358
 20
4.683378
  0
VERTEX
  8
PLAN_1
 62
     2
  6
CONTINUOUS
 10
-1.100358
 20
4.681614
  0
VERTEX
  8
PLAN_1
 62
     2
  6
CONTINUOUS
 10
-1.100358
 20
4.678677
  0
VERTEX
  8
PLAN_1
 62
     2
  6
CONTINUOUS
 10
-1.099181
 20
4.676913
  0
VERTEX
  8
PLAN_1
 62
     2
  6
CONTINUOUS
 10
-1.098008
 20
4.674563
  0
VERTEX
  8
PLAN_1
 62
     2
  6
CONTINUOUS
 10
-1.096244
 20
4.673390
  0
VERTEX
  8
PLAN_1
 62
     2
  6
CONTINUOUS
 10
-1.094484
 20
4.671626
  0
VERTEX
  8
PLAN_1
 62
     2
  6
CONTINUOUS
 10
-1.092134
 20
4.671039
  0
VERTEX
  8
PLAN_1
 62
     2
  6
CONTINUOUS
 10
-1.089783
 20
4.670453
  0
VERTEX
  8
PLAN_1
 62
     2
  6
CONTINUOUS
 10
-1.087433
 20
4.669866
  0
VERTEX
  8
PLAN_1
 62
     2
  6
CONTINUOUS
 10
-1.084496
 20
4.670453
  0
VERTEX
  8
PLAN_1
 62
     2
  6
CONTINUOUS
 10
-1.082146
 20
4.671039
  0
VERTEX
  8
PLAN_1
 62
     2
  6
CONTINUOUS
 10
-1.079795
 20
4.672217
  0
VERTEX
  8
PLAN_1
 62
     2
  6
CONTINUOUS
 10
-1.078035
 20
4.673390
  0
VERTEX
  8
PLAN_1
 62
     2
  6
CONTINUOUS
 10
-1.076858
 20
4.675154
  0
VERTEX
  8
PLAN_1
 62
     2
  6
CONTINUOUS
 10
-1.075685
 20
4.677500
  0
VERTEX
  8
PLAN_1
 62
     2
  6
CONTINUOUS
 10
-1.074508
 20
4.679264
  0
VERTEX
  8
PLAN_1
 62
     2
  6
CONTINUOUS
 10
-1.074508
 20
4.681614
  0
SEQEND
  8
0
  0
POLYLINE
  8
PLAN_1
 62
     2
  6
CONTINUOUS
 66
     1
 40
0.004110
 41
0.004110
  0
VERTEX
  8
PLAN_1
 62
     2
  6
CONTINUOUS
 10
-0.132819
 20
4.628157
  0
VERTEX
  8
PLAN_1
 62
     2
  6
CONTINUOUS
 10
-0.132819
 20
2.049232
  0
SEQEND
  8
0
  0
POLYLINE
  8
PLAN_1
 62
     2
  6
CONTINUOUS
 66
     1
 40
0.003000
 41
0.003000
  0
VERTEX
  8
PLAN_1
 62
     2
  6
CONTINUOUS
 10
-0.043528
 20
0.822630
  0
VERTEX
  8
PLAN_1
 62
     2
  6
CONTINUOUS
 10
-0.048228
 20
0.822630
  0
VERTEX
  8
PLAN_1
 62
     2
  6
CONTINUOUS
 10
-0.051752
 20
0.823217
  0
VERTEX
  8
PLAN_1
 62
     2
  6
CONTINUOUS
 10
-0.055276
 20
0.824390
  0
VERTEX
  8
PLAN_1
 62
     2
  6
CONTINUOUS
 10
-0.058213
 20
0.825567
  0
VERTEX
  8
PLAN_1
 62
     2
  6
CONTINUOUS
 10
-0.060563
 20
0.826740
  0
VERTEX
  8
PLAN_1
 62
     2
  6
CONTINUOUS
 10
-0.062327
 20
0.828504
  0
VERTEX
  8
PLAN_1
 62
     2
  6
CONTINUOUS
 10
-0.064087
 20
0.830264
  0
VERTEX
  8
PLAN_1
 62
     2
  6
CONTINUOUS
 10
-0.065850
 20
0.832614
  0
VERTEX
  8
PLAN_1
 62
     2
  6
CONTINUOUS
 10
-0.068201
 20
0.836728
  0
VERTEX
  8
PLAN_1
 62
     2
  6
CONTINUOUS
 10
-0.069374
 20
0.840839
  0
VERTEX
  8
PLAN_1
 62
     2
  6
CONTINUOUS
 10
-0.069965
 20
0.844362
  0
VERTEX
  8
PLAN_1
 62
     2
  6
CONTINUOUS
 10
-0.069965
 20
0.847890
  0
VERTEX
  8
PLAN_1
 62
     2
  6
CONTINUOUS
 10
-0.069374
 20
0.852587
  0
VERTEX
  8
PLAN_1
 62
     2
  6
CONTINUOUS
 10
-0.068787
 20
0.856701
  0
VERTEX
  8
PLAN_1
 62
     2
  6
CONTINUOUS
 10
-0.066437
 20
0.860811
  0
VERTEX
  8
PLAN_1
 62
     2
  6
CONTINUOUS
 10
-0.064087
 20
0.864339
  0
VERTEX
  8
PLAN_1
 62
     2
  6
CONTINUOUS
 10
-0.061150
 20
0.866689
  0
VERTEX
  8
PLAN_1
 62
     2
  6
CONTINUOUS
 10
-0.057626
 20
0.869035
  0
VERTEX
  8
PLAN_1
 62
     2
  6
CONTINUOUS
 10
-0.052925
 20
0.870213
  0
VERTEX
  8
PLAN_1
 62
     2
  6
CONTINUOUS
 10
-0.048228
 20
0.870799
  0
VERTEX
  8
PLAN_1
 62
     2
  6
CONTINUOUS
 10
-0.043528
 20
0.870213
  0
VERTEX
  8
PLAN_1
 62
     2
  6
CONTINUOUS
 10
-0.039417
 20
0.869626
  0
VERTEX
  8
PLAN_1
 62
     2
  6
CONTINUOUS
 10
-0.036476
 20
0.867276
  0
VERTEX
  8
PLAN_1
 62
     2
  6
CONTINUOUS
 10
-0.032953
 20
0.864925
  0
VERTEX
  8
PLAN_1
 62
     2
  6
CONTINUOUS
 10
-0.030602
 20
0.862575
  0
VERTEX
  8
PLAN_1
 62
     2
  6
CONTINUOUS
 10
-0.028252
 20
0.859051
  0
VERTEX
  8
PLAN_1
 62
     2
  6
CONTINUOUS
 10
-0.025906
 20
0.855528
  0
VERTEX
  8
PLAN_1
 62
     2
  6
CONTINUOUS
 10
-0.023555
 20
0.851413
  0
VERTEX
  8
PLAN_1
 62
     2
  6
CONTINUOUS
 10
-0.019441
 20
0.843776
  0
VERTEX
  8
PLAN_1
 62
     2
  6
CONTINUOUS
 10
-0.017681
 20
0.840252
  0
VERTEX
  8
PLAN_1
 62
     2
  6
CONTINUOUS
 10
-0.015331
 20
0.837315
  0
VERTEX
  8
PLAN_1
 62
     2
  6
CONTINUOUS
 10
-0.013567
 20
0.835551
  0
VERTEX
  8
PLAN_1
 62
     2
  6
CONTINUOUS
 10
-0.011807
 20
0.833791
  0
VERTEX
  8
PLAN_1
 62
     2
  6
CONTINUOUS
 10
-0.010043
 20
0.832614
  0
VERTEX
  8
PLAN_1
 62
     2
  6
CONTINUOUS
 10
-0.008280
 20
0.832028
  0
VERTEX
  8
PLAN_1
 62
     2
  6
CONTINUOUS
 10
-0.006520
 20
0.831441
  0
VERTEX
  8
PLAN_1
 62
     2
  6
CONTINUOUS
 10
-0.005343
 20
0.830854
  0
VERTEX
  8
PLAN_1
 62
     2
  6
CONTINUOUS
 10
-0.005343
 20
0.870799
  0
VERTEX
  8
PLAN_1
 62
     2
  6
CONTINUOUS
 10
0.002882
 20
0.870799
  0
VERTEX
  8
PLAN_1
 62
     2
  6
CONTINUOUS
 10
0.002882
 20
0.820866
  0
VERTEX
  8
PLAN_1
 62
     2
  6
CONTINUOUS
 10
-0.002406
 20
0.821453
  0
VERTEX
  8
PLAN_1
 62
     2
  6
CONTINUOUS
 10
-0.007106
 20
0.822630
  0
VERTEX
  8
PLAN_1
 62
     2
  6
CONTINUOUS
 10
-0.011217
 20
0.823803
  0
VERTEX
  8
PLAN_1
 62
     2
  6
CONTINUOUS
 10
-0.014744
 20
0.826154
  0
VERTEX
  8
PLAN_1
 62
     2
  6
CONTINUOUS
 10
-0.018268
 20
0.828504
  0
VERTEX
  8
PLAN_1
 62
     2
  6
CONTINUOUS
 10
-0.021205
 20
0.831441
  0
VERTEX
  8
PLAN_1
 62
     2
  6
CONTINUOUS
 10
-0.023555
 20
0.834378
  0
VERTEX
  8
PLAN_1
 62
     2
  6
CONTINUOUS
 10
-0.025906
 20
0.837902
  0
VERTEX
  8
PLAN_1
 62
     2
  6
CONTINUOUS
 10
-0.031780
 20
0.847890
  0
VERTEX
  8
PLAN_1
 62
     2
  6
CONTINUOUS
 10
-0.032953
 20
0.850240
  0
VERTEX
  8
PLAN_1
 62
     2
  6
CONTINUOUS
 10
-0.034717
 20
0.853177
  0
VERTEX
  8
PLAN_1
 62
     2
  6
CONTINUOUS
 10
-0.036476
 20
0.855528
  0
VERTEX
  8
PLAN_1
 62
     2
  6
CONTINUOUS
 10
-0.038240
 20
0.857287
  0
VERTEX
  8
PLAN_1
 62
     2
  6
CONTINUOUS
 10
-0.040004
 20
0.859051
  0
VERTEX
  8
PLAN_1
 62
     2
  6
CONTINUOUS
 10
-0.042354
 20
0.860224
  0
VERTEX
  8
PLAN_1
 62
     2
  6
CONTINUOUS
 10
-0.045291
 20
0.860811
  0
VERTEX
  8
PLAN_1
 62
     2
  6
CONTINUOUS
 10
-0.048815
 20
0.860811
  0
VERTEX
  8
PLAN_1
 62
     2
  6
CONTINUOUS
 10
-0.050579
 20
0.860811
  0
VERTEX
  8
PLAN_1
 62
     2
  6
CONTINUOUS
 10
-0.052925
 20
0.860224
  0
VERTEX
  8
PLAN_1
 62
     2
  6
CONTINUOUS
 10
-0.055276
 20
0.859051
  0
VERTEX
  8
PLAN_1
 62
     2
  6
CONTINUOUS
 10
-0.057626
 20
0.857874
  0
VERTEX
  8
PLAN_1
 62
     2
  6
CONTINUOUS
 10
-0.059390
 20
0.856114
  0
VERTEX
  8
PLAN_1
 62
     2
  6
CONTINUOUS
 10
-0.060563
 20
0.853177
  0
VERTEX
  8
PLAN_1
 62
     2
  6
CONTINUOUS
 10
-0.061740
 20
0.850240
  0
VERTEX
  8
PLAN_1
 62
     2
  6
CONTINUOUS
 10
-0.061740
 20
0.846713
  0
VERTEX
  8
PLAN_1
 62
     2
  6
CONTINUOUS
 10
-0.061740
 20
0.844362
  0
VERTEX
  8
PLAN_1
 62
     2
  6
CONTINUOUS
 10
-0.061150
 20
0.842016
  0
VERTEX
  8
PLAN_1
 62
     2
  6
CONTINUOUS
 10
-0.060563
 20
0.840252
  0
VERTEX
  8
PLAN_1
 62
     2
  6
CONTINUOUS
 10
-0.059976
 20
0.838488
  0
VERTEX
  8
PLAN_1
 62
     2
  6
CONTINUOUS
 10
-0.057626
 20
0.836142
  0
VERTEX
  8
PLAN_1
 62
     2
  6
CONTINUOUS
 10
-0.054689
 20
0.834378
  0
VERTEX
  8
PLAN_1
 62
     2
  6
CONTINUOUS
 10
-0.051752
 20
0.833201
  0
VERTEX
  8
PLAN_1
 62
     2
  6
CONTINUOUS
 10
-0.048815
 20
0.832614
  0
VERTEX
  8
PLAN_1
 62
     2
  6
CONTINUOUS
 10
-0.045878
 20
0.832028
  0
VERTEX
  8
PLAN_1
 62
     2
  6
CONTINUOUS
 10
-0.043528
 20
0.832028
  0
VERTEX
  8
PLAN_1
 62
     2
  6
CONTINUOUS
 10
-0.043528
 20
0.822630
  0
SEQEND
  8
0
  0
POLYLINE
  8
PLAN_1
 62
     2
  6
CONTINUOUS
 66
     1
 40
0.003000
 41
0.003000
  0
VERTEX
  8
PLAN_1
 62
     2
  6
CONTINUOUS
 10
-0.035890
 20
0.917795
  0
VERTEX
  8
PLAN_1
 62
     2
  6
CONTINUOUS
 10
-0.034130
 20
0.921319
  0
VERTEX
  8
PLAN_1
 62
     2
  6
CONTINUOUS
 10
-0.031780
 20
0.923669
  0
VERTEX
  8
PLAN_1
 62
     2
  6
CONTINUOUS
 10
-0.030016
 20
0.926020
  0
VERTEX
  8
PLAN_1
 62
     2
  6
CONTINUOUS
 10
-0.027665
 20
0.927783
  0
VERTEX
  8
PLAN_1
 62
     2
  6
CONTINUOUS
 10
-0.024728
 20
0.928370
  0
VERTEX
  8
PLAN_1
 62
     2
  6
CONTINUOUS
 10
-0.022378
 20
0.929543
  0
VERTEX
  8
PLAN_1
 62
     2
  6
CONTINUOUS
 10
-0.020028
 20
0.929543
  0
VERTEX
  8
PLAN_1
 62
     2
  6
CONTINUOUS
 10
-0.018268
 20
0.929543
  0
VERTEX
  8
PLAN_1
 62
     2
  6
CONTINUOUS
 10
-0.013567
 20
0.929543
  0
VERTEX
  8
PLAN_1
 62
     2
  6
CONTINUOUS
 10
-0.009457
 20
0.928370
  0
VERTEX
  8
PLAN_1
 62
     2
  6
CONTINUOUS
 10
-0.005343
 20
0.926606
  0
VERTEX
  8
PLAN_1
 62
     2
  6
CONTINUOUS
 10
-0.001819
 20
0.923669
  0
VERTEX
  8
PLAN_1
 62
     2
  6
CONTINUOUS
 10
0.001118
 20
0.920732
  0
VERTEX
  8
PLAN_1
 62
     2
  6
CONTINUOUS
 10
0.002882
 20
0.916035
  0
VERTEX
  8
PLAN_1
 62
     2
  6
CONTINUOUS
 10
0.004642
 20
0.911335
  0
VERTEX
  8
PLAN_1
 62
     2
  6
CONTINUOUS
 10
0.005232
 20
0.904870
  0
VERTEX
  8
PLAN_1
 62
     2
  6
CONTINUOUS
 10
0.005232
 20
0.903110
  0
VERTEX
  8
PLAN_1
 62
     2
  6
CONTINUOUS
 10
0.004642
 20
0.901346
  0
VERTEX
  8
PLAN_1
 62
     2
  6
CONTINUOUS
 10
0.004642
 20
0.898996
  0
VERTEX
  8
PLAN_1
 62
     2
  6
CONTINUOUS
 10
0.004055
 20
0.896646
  0
VERTEX
  8
PLAN_1
 62
     2
  6
CONTINUOUS
 10
0.003469
 20
0.894299
  0
VERTEX
  8
PLAN_1
 62
     2
  6
CONTINUOUS
 10
0.002295
 20
0.891949
  0
VERTEX
  8
PLAN_1
 62
     2
  6
CONTINUOUS
 10
0.001118
 20
0.889598
  0
VERTEX
  8
PLAN_1
 62
     2
  6
CONTINUOUS
 10
-0.000642
 20
0.887248
  0
VERTEX
  8
PLAN_1
 62
     2
  6
CONTINUOUS
 10
-0.002992
 20
0.884898
  0
VERTEX
  8
PLAN_1
 62
     2
  6
CONTINUOUS
 10
-0.005343
 20
0.883138
  0
VERTEX
  8
PLAN_1
 62
     2
  6
CONTINUOUS
 10
-0.007693
 20
0.881961
  0
VERTEX
  8
PLAN_1
 62
     2
  6
CONTINUOUS
 10
-0.010043
 20
0.880787
  0
VERTEX
  8
PLAN_1
 62
     2
  6
CONTINUOUS
 10
-0.012394
 20
0.880201
  0
VERTEX
  8
PLAN_1
 62
     2
  6
CONTINUOUS
 10
-0.014744
 20
0.880201
  0
VERTEX
  8
PLAN_1
 62
     2
  6
CONTINUOUS
 10
-0.016504
 20
0.880201
  0
VERTEX
  8
PLAN_1
 62
     2
  6
CONTINUOUS
 10
-0.017681
 20
0.880201
  0
VERTEX
  8
PLAN_1
 62
     2
  6
CONTINUOUS
 10
-0.021205
 20
0.880201
  0
VERTEX
  8
PLAN_1
 62
     2
  6
CONTINUOUS
 10
-0.024142
 20
0.880787
  0
VERTEX
  8
PLAN_1
 62
     2
  6
CONTINUOUS
 10
-0.026492
 20
0.881961
  0
VERTEX
  8
PLAN_1
 62
     2
  6
CONTINUOUS
 10
-0.028843
 20
0.883138
  0
VERTEX
  8
PLAN_1
 62
     2
  6
CONTINUOUS
 10
-0.031193
 20
0.884898
  0
VERTEX
  8
PLAN_1
 62
     2
  6
CONTINUOUS
 10
-0.032953
 20
0.887248
  0
VERTEX
  8
PLAN_1
 62
     2
  6
CONTINUOUS
 10
-0.034130
 20
0.889598
  0
VERTEX
  8
PLAN_1
 62
     2
  6
CONTINUOUS
 10
-0.035890
 20
0.892535
  0
VERTEX
  8
PLAN_1
 62
     2
  6
CONTINUOUS
 10
-0.036476
 20
0.890185
  0
VERTEX
  8
PLAN_1
 62
     2
  6
CONTINUOUS
 10
-0.038240
 20
0.888421
  0
VERTEX
  8
PLAN_1
 62
     2
  6
CONTINUOUS
 10
-0.039417
 20
0.886661
  0
VERTEX
  8
PLAN_1
 62
     2
  6
CONTINUOUS
 10
-0.041177
 20
0.884898
  0
VERTEX
  8
PLAN_1
 62
     2
  6
CONTINUOUS
 10
-0.042941
 20
0.883724
  0
VERTEX
  8
PLAN_1
 62
     2
  6
CONTINUOUS
 10
-0.045291
 20
0.883138
  0
VERTEX
  8
PLAN_1
 62
     2
  6
CONTINUOUS
 10
-0.047642
 20
0.882547
  0
VERTEX
  8
PLAN_1
 62
     2
  6
CONTINUOUS
 10
-0.049988
 20
0.882547
  0
VERTEX
  8
PLAN_1
 62
     2
  6
CONTINUOUS
 10
-0.052925
 20
0.882547
  0
VERTEX
  8
PLAN_1
 62
     2
  6
CONTINUOUS
 10
-0.056453
 20
0.883724
  0
VERTEX
  8
PLAN_1
 62
     2
  6
CONTINUOUS
 10
-0.059390
 20
0.884898
  0
VERTEX
  8
PLAN_1
 62
     2
  6
CONTINUOUS
 10
-0.062913
 20
0.887248
  0
VERTEX
  8
PLAN_1
 62
     2
  6
CONTINUOUS
 10
-0.065850
 20
0.890185
  0
VERTEX
  8
PLAN_1
 62
     2
  6
CONTINUOUS
 10
-0.068201
 20
0.893709
  0
VERTEX
  8
PLAN_1
 62
     2
  6
CONTINUOUS
 10
-0.069374
 20
0.898409
  0
VERTEX
  8
PLAN_1
 62
     2
  6
CONTINUOUS
 10
-0.069965
 20
0.904870
  0
VERTEX
  8
PLAN_1
 62
     2
  6
CONTINUOUS
 10
-0.069374
 20
0.910157
  0
VERTEX
  8
PLAN_1
 62
     2
  6
CONTINUOUS
 10
-0.068201
 20
0.914858
  0
VERTEX
  8
PLAN_1
 62
     2
  6
CONTINUOUS
 10
-0.066437
 20
0.918972
  0
VERTEX
  8
PLAN_1
 62
     2
  6
CONTINUOUS
 10
-0.064087
 20
0.921909
  0
VERTEX
  8
PLAN_1
 62
     2
  6
CONTINUOUS
 10
-0.061150
 20
0.924260
  0
VERTEX
  8
PLAN_1
 62
     2
  6
CONTINUOUS
 10
-0.057626
 20
0.926020
  0
VERTEX
  8
PLAN_1
 62
     2
  6
CONTINUOUS
 10
-0.054689
 20
0.926606
  0
VERTEX
  8
PLAN_1
 62
     2
  6
CONTINUOUS
 10
-0.051165
 20
0.927197
  0
VERTEX
  8
PLAN_1
 62
     2
  6
CONTINUOUS
 10
-0.047642
 20
0.927197
  0
VERTEX
  8
PLAN_1
 62
     2
  6
CONTINUOUS
 10
-0.044701
 20
0.926020
  0
VERTEX
  8
PLAN_1
 62
     2
  6
CONTINUOUS
 10
-0.042354
 20
0.924846
  0
VERTEX
  8
PLAN_1
 62
     2
  6
CONTINUOUS
 10
-0.040004
 20
0.923669
  0
VERTEX
  8
PLAN_1
 62
     2
  6
CONTINUOUS
 10
-0.038827
 20
0.922496
  0
VERTEX
  8
PLAN_1
 62
     2
  6
CONTINUOUS
 10
-0.037654
 20
0.920732
  0
VERTEX
  8
PLAN_1
 62
     2
  6
CONTINUOUS
 10
-0.036476
 20
0.918972
  0
VERTEX
  8
PLAN_1
 62
     2
  6
CONTINUOUS
 10
-0.035890
 20
0.917795
  0
SEQEND
  8
0
  0
POLYLINE
  8
PLAN_1
 62
     2
  6
CONTINUOUS
 66
     1
 40
0.003000
 41
0.003000
  0
VERTEX
  8
PLAN_1
 62
     2
  6
CONTINUOUS
 10
-0.017681
 20
0.889598
  0
VERTEX
  8
PLAN_1
 62
     2
  6
CONTINUOUS
 10
-0.015331
 20
0.890185
  0
VERTEX
  8
PLAN_1
 62
     2
  6
CONTINUOUS
 10
-0.012980
 20
0.890185
  0
VERTEX
  8
PLAN_1
 62
     2
  6
CONTINUOUS
 10
-0.010630
 20
0.891362
  0
VERTEX
  8
PLAN_1
 62
     2
  6
CONTINUOUS
 10
-0.008280
 20
0.892535
  0
VERTEX
  8
PLAN_1
 62
     2
  6
CONTINUOUS
 10
-0.005929
 20
0.894886
  0
VERTEX
  8
PLAN_1
 62
     2
  6
CONTINUOUS
 10
-0.004756
 20
0.897823
  0
VERTEX
  8
PLAN_1
 62
     2
  6
CONTINUOUS
 10
-0.003583
 20
0.900760
  0
VERTEX
  8
PLAN_1
 62
     2
  6
CONTINUOUS
 10
-0.002992
 20
0.905461
  0
VERTEX
  8
PLAN_1
 62
     2
  6
CONTINUOUS
 10
-0.002992
 20
0.907811
  0
VERTEX
  8
PLAN_1
 62
     2
  6
CONTINUOUS
 10
-0.003583
 20
0.910157
  0
VERTEX
  8
PLAN_1
 62
     2
  6
CONTINUOUS
 10
-0.004756
 20
0.913094
  0
VERTEX
  8
PLAN_1
 62
     2
  6
CONTINUOUS
 10
-0.005929
 20
0.915445
  0
VERTEX
  8
PLAN_1
 62
     2
  6
CONTINUOUS
 10
-0.007693
 20
0.917209
  0
VERTEX
  8
PLAN_1
 62
     2
  6
CONTINUOUS
 10
-0.010043
 20
0.918382
  0
VERTEX
  8
PLAN_1
 62
     2
  6
CONTINUOUS
 10
-0.012980
 20
0.919559
  0
VERTEX
  8
PLAN_1
 62
     2
  6
CONTINUOUS
 10
-0.017091
 20
0.920146
  0
VERTEX
  8
PLAN_1
 62
     2
  6
CONTINUOUS
 10
-0.020618
 20
0.919559
  0
VERTEX
  8
PLAN_1
 62
     2
  6
CONTINUOUS
 10
-0.023555
 20
0.918972
  0
VERTEX
  8
PLAN_1
 62
     2
  6
CONTINUOUS
 10
-0.025906
 20
0.917209
  0
VERTEX
  8
PLAN_1
 62
     2
  6
CONTINUOUS
 10
-0.027665
 20
0.915445
  0
VERTEX
  8
PLAN_1
 62
     2
  6
CONTINUOUS
 10
-0.029429
 20
0.913094
  0
VERTEX
  8
PLAN_1
 62
     2
  6
CONTINUOUS
 10
-0.030602
 20
0.910748
  0
VERTEX
  8
PLAN_1
 62
     2
  6
CONTINUOUS
 10
-0.031193
 20
0.907811
  0
VERTEX
  8
PLAN_1
 62
     2
  6
CONTINUOUS
 10
-0.031193
 20
0.904870
  0
VERTEX
  8
PLAN_1
 62
     2
  6
CONTINUOUS
 10
-0.031193
 20
0.901346
  0
VERTEX
  8
PLAN_1
 62
     2
  6
CONTINUOUS
 10
-0.030016
 20
0.898409
  0
VERTEX
  8
PLAN_1
 62
     2
  6
CONTINUOUS
 10
-0.028843
 20
0.895472
  0
VERTEX
  8
PLAN_1
 62
     2
  6
CONTINUOUS
 10
-0.027079
 20
0.893709
  0
VERTEX
  8
PLAN_1
 62
     2
  6
CONTINUOUS
 10
-0.024728
 20
0.891949
  0
VERTEX
  8
PLAN_1
 62
     2
  6
CONTINUOUS
 10
-0.022378
 20
0.890772
  0
VERTEX
  8
PLAN_1
 62
     2
  6
CONTINUOUS
 10
-0.020028
 20
0.890185
  0
VERTEX
  8
PLAN_1
 62
     2
  6
CONTINUOUS
 10
-0.017681
 20
0.889598
  0
SEQEND
  8
0
  0
POLYLINE
  8
PLAN_1
 62
     2
  6
CONTINUOUS
 66
     1
 40
0.003000
 41
0.003000
  0
VERTEX
  8
PLAN_1
 62
     2
  6
CONTINUOUS
 10
-0.051165
 20
0.917795
  0
VERTEX
  8
PLAN_1
 62
     2
  6
CONTINUOUS
 10
-0.052925
 20
0.917795
  0
VERTEX
  8
PLAN_1
 62
     2
  6
CONTINUOUS
 10
-0.054689
 20
0.917209
  0
VERTEX
  8
PLAN_1
 62
     2
  6
CONTINUOUS
 10
-0.056453
 20
0.916035
  0
VERTEX
  8
PLAN_1
 62
     2
  6
CONTINUOUS
 10
-0.058213
 20
0.914858
  0
VERTEX
  8
PLAN_1
 62
     2
  6
CONTINUOUS
 10
-0.059390
 20
0.913094
  0
VERTEX
  8
PLAN_1
 62
     2
  6
CONTINUOUS
 10
-0.060563
 20
0.910748
  0
VERTEX
  8
PLAN_1
 62
     2
  6
CONTINUOUS
 10
-0.061740
 20
0.907811
  0
VERTEX
  8
PLAN_1
 62
     2
  6
CONTINUOUS
 10
-0.061740
 20
0.904283
  0
VERTEX
  8
PLAN_1
 62
     2
  6
CONTINUOUS
 10
-0.061740
 20
0.900760
  0
VERTEX
  8
PLAN_1
 62
     2
  6
CONTINUOUS
 10
-0.060563
 20
0.897823
  0
VERTEX
  8
PLAN_1
 62
     2
  6
CONTINUOUS
 10
-0.059390
 20
0.896059
  0
VERTEX
  8
PLAN_1
 62
     2
  6
CONTINUOUS
 10
-0.057626
 20
0.894299
  0
VERTEX
  8
PLAN_1
 62
     2
  6
CONTINUOUS
 10
-0.055866
 20
0.893122
  0
VERTEX
  8
PLAN_1
 62
     2
  6
CONTINUOUS
 10
-0.054102
 20
0.892535
  0
VERTEX
  8
PLAN_1
 62
     2
  6
CONTINUOUS
 10
-0.052339
 20
0.891949
  0
VERTEX
  8
PLAN_1
 62
     2
  6
CONTINUOUS
 10
-0.050579
 20
0.891949
  0
VERTEX
  8
PLAN_1
 62
     2
  6
CONTINUOUS
 10
-0.047642
 20
0.891949
  0
VERTEX
  8
PLAN_1
 62
     2
  6
CONTINUOUS
 10
-0.045878
 20
0.893122
  0
VERTEX
  8
PLAN_1
 62
     2
  6
CONTINUOUS
 10
-0.043528
 20
0.894299
  0
VERTEX
  8
PLAN_1
 62
     2
  6
CONTINUOUS
 10
-0.042354
 20
0.896059
  0
VERTEX
  8
PLAN_1
 62
     2
  6
CONTINUOUS
 10
-0.040591
 20
0.897823
  0
VERTEX
  8
PLAN_1
 62
     2
  6
CONTINUOUS
 10
-0.040004
 20
0.900173
  0
VERTEX
  8
PLAN_1
 62
     2
  6
CONTINUOUS
 10
-0.039417
 20
0.902524
  0
VERTEX
  8
PLAN_1
 62
     2
  6
CONTINUOUS
 10
-0.038827
 20
0.904870
  0
VERTEX
  8
PLAN_1
 62
     2
  6
CONTINUOUS
 10
-0.039417
 20
0.907811
  0
VERTEX
  8
PLAN_1
 62
     2
  6
CONTINUOUS
 10
-0.040004
 20
0.910157
  0
VERTEX
  8
PLAN_1
 62
     2
  6
CONTINUOUS
 10
-0.041177
 20
0.912508
  0
VERTEX
  8
PLAN_1
 62
     2
  6
CONTINUOUS
 10
-0.042354
 20
0.914272
  0
VERTEX
  8
PLAN_1
 62
     2
  6
CONTINUOUS
 10
-0.044114
 20
0.915445
  0
VERTEX
  8
PLAN_1
 62
     2
  6
CONTINUOUS
 10
-0.046465
 20
0.916622
  0
VERTEX
  8
PLAN_1
 62
     2
  6
CONTINUOUS
 10
-0.048228
 20
0.917209
  0
VERTEX
  8
PLAN_1
 62
     2
  6
CONTINUOUS
 10
-0.051165
 20
0.917795
  0
SEQEND
  8
0
  0
POLYLINE
  8
PLAN_1
 62
     2
  6
CONTINUOUS
 66
     1
 40
0.003000
 41
0.003000
  0
VERTEX
  8
PLAN_1
 62
     2
  6
CONTINUOUS
 10
-0.043528
 20
0.938358
  0
VERTEX
  8
PLAN_1
 62
     2
  6
CONTINUOUS
 10
-0.048228
 20
0.938945
  0
VERTEX
  8
PLAN_1
 62
     2
  6
CONTINUOUS
 10
-0.051752
 20
0.939531
  0
VERTEX
  8
PLAN_1
 62
     2
  6
CONTINUOUS
 10
-0.055276
 20
0.940118
  0
VERTEX
  8
PLAN_1
 62
     2
  6
CONTINUOUS
 10
-0.058213
 20
0.941295
  0
VERTEX
  8
PLAN_1
 62
     2
  6
CONTINUOUS
 10
-0.060563
 20
0.942469
  0
VERTEX
  8
PLAN_1
 62
     2
  6
CONTINUOUS
 10
-0.062327
 20
0.944232
  0
VERTEX
  8
PLAN_1
 62
     2
  6
CONTINUOUS
 10
-0.064087
 20
0.945992
  0
VERTEX
  8
PLAN_1
 62
     2
  6
CONTINUOUS
 10
-0.065850
 20
0.948343
  0
VERTEX
  8
PLAN_1
 62
     2
  6
CONTINUOUS
 10
-0.068201
 20
0.952457
  0
VERTEX
  8
PLAN_1
 62
     2
  6
CONTINUOUS
 10
-0.069374
 20
0.956567
  0
VERTEX
  8
PLAN_1
 62
     2
  6
CONTINUOUS
 10
-0.069965
 20
0.960681
  0
VERTEX
  8
PLAN_1
 62
     2
  6
CONTINUOUS
 10
-0.069965
 20
0.963618
  0
VERTEX
  8
PLAN_1
 62
     2
  6
CONTINUOUS
 10
-0.069374
 20
0.968319
  0
VERTEX
  8
PLAN_1
 62
     2
  6
CONTINUOUS
 10
-0.068787
 20
0.972429
  0
VERTEX
  8
PLAN_1
 62
     2
  6
CONTINUOUS
 10
-0.066437
 20
0.976539
  0
VERTEX
  8
PLAN_1
 62
     2
  6
CONTINUOUS
 10
-0.064087
 20
0.980067
  0
VERTEX
  8
PLAN_1
 62
     2
  6
CONTINUOUS
 10
-0.061150
 20
0.983004
  0
VERTEX
  8
PLAN_1
 62
     2
  6
CONTINUOUS
 10
-0.057626
 20
0.984764
  0
VERTEX
  8
PLAN_1
 62
     2
  6
CONTINUOUS
 10
-0.052925
 20
0.985941
  0
VERTEX
  8
PLAN_1
 62
     2
  6
CONTINUOUS
 10
-0.048228
 20
0.986528
  0
VERTEX
  8
PLAN_1
 62
     2
  6
CONTINUOUS
 10
-0.043528
 20
0.986528
  0
VERTEX
  8
PLAN_1
 62
     2
  6
CONTINUOUS
 10
-0.039417
 20
0.985354
  0
VERTEX
  8
PLAN_1
 62
     2
  6
CONTINUOUS
 10
-0.036476
 20
0.983591
  0
VERTEX
  8
PLAN_1
 62
     2
  6
CONTINUOUS
 10
-0.032953
 20
0.981240
  0
VERTEX
  8
PLAN_1
 62
     2
  6
CONTINUOUS
 10
-0.030602
 20
0.978303
  0
VERTEX
  8
PLAN_1
 62
     2
  6
CONTINUOUS
 10
-0.028252
 20
0.974780
  0
VERTEX
  8
PLAN_1
 62
     2
  6
CONTINUOUS
 10
-0.025906
 20
0.971256
  0
VERTEX
  8
PLAN_1
 62
     2
  6
CONTINUOUS
 10
-0.023555
 20
0.967142
  0
VERTEX
  8
PLAN_1
 62
     2
  6
CONTINUOUS
 10
-0.019441
 20
0.959504
  0
VERTEX
  8
PLAN_1
 62
     2
  6
CONTINUOUS
 10
-0.017681
 20
0.955980
  0
VERTEX
  8
PLAN_1
 62
     2
  6
CONTINUOUS
 10
-0.015331
 20
0.953630
  0
VERTEX
  8
PLAN_1
 62
     2
  6
CONTINUOUS
 10
-0.013567
 20
0.951280
  0
VERTEX
  8
PLAN_1
 62
     2
  6
CONTINUOUS
 10
-0.011807
 20
0.949520
  0
VERTEX
  8
PLAN_1
 62
     2
  6
CONTINUOUS
 10
-0.010043
 20
0.948343
  0
VERTEX
  8
PLAN_1
 62
     2
  6
CONTINUOUS
 10
-0.008280
 20
0.947756
  0
VERTEX
  8
PLAN_1
 62
     2
  6
CONTINUOUS
 10
-0.006520
 20
0.947169
  0
VERTEX
  8
PLAN_1
 62
     2
  6
CONTINUOUS
 10
-0.005343
 20
0.947169
  0
VERTEX
  8
PLAN_1
 62
     2
  6
CONTINUOUS
 10
-0.005343
 20
0.986528
  0
VERTEX
  8
PLAN_1
 62
     2
  6
CONTINUOUS
 10
0.002882
 20
0.986528
  0
VERTEX
  8
PLAN_1
 62
     2
  6
CONTINUOUS
 10
0.002882
 20
0.936594
  0
VERTEX
  8
PLAN_1
 62
     2
  6
CONTINUOUS
 10
-0.002406
 20
0.937181
  0
VERTEX
  8
PLAN_1
 62
     2
  6
CONTINUOUS
 10
-0.007106
 20
0.938358
  0
VERTEX
  8
PLAN_1
 62
     2
  6
CONTINUOUS
 10
-0.011217
 20
0.939531
  0
VERTEX
  8
PLAN_1
 62
     2
  6
CONTINUOUS
 10
-0.014744
 20
0.941882
  0
VERTEX
  8
PLAN_1
 62
     2
  6
CONTINUOUS
 10
-0.018268
 20
0.944232
  0
VERTEX
  8
PLAN_1
 62
     2
  6
CONTINUOUS
 10
-0.021205
 20
0.947169
  0
VERTEX
  8
PLAN_1
 62
     2
  6
CONTINUOUS
 10
-0.023555
 20
0.950106
  0
VERTEX
  8
PLAN_1
 62
     2
  6
CONTINUOUS
 10
-0.025906
 20
0.953630
  0
VERTEX
  8
PLAN_1
 62
     2
  6
CONTINUOUS
 10
-0.031780
 20
0.963618
  0
VERTEX
  8
PLAN_1
 62
     2
  6
CONTINUOUS
 10
-0.032953
 20
0.966555
  0
VERTEX
  8
PLAN_1
 62
     2
  6
CONTINUOUS
 10
-0.034717
 20
0.968906
  0
VERTEX
  8
PLAN_1
 62
     2
  6
CONTINUOUS
 10
-0.036476
 20
0.971256
  0
VERTEX
  8
PLAN_1
 62
     2
  6
CONTINUOUS
 10
-0.038240
 20
0.973016
  0
VERTEX
  8
PLAN_1
 62
     2
  6
CONTINUOUS
 10
-0.040004
 20
0.974780
  0
VERTEX
  8
PLAN_1
 62
     2
  6
CONTINUOUS
 10
-0.042354
 20
0.975953
  0
VERTEX
  8
PLAN_1
 62
     2
  6
CONTINUOUS
 10
-0.045291
 20
0.976539
  0
VERTEX
  8
PLAN_1
 62
     2
  6
CONTINUOUS
 10
-0.048815
 20
0.977130
  0
VERTEX
  8
PLAN_1
 62
     2
  6
CONTINUOUS
 10
-0.050579
 20
0.976539
  0
VERTEX
  8
PLAN_1
 62
     2
  6
CONTINUOUS
 10
-0.052925
 20
0.975953
  0
VERTEX
  8
PLAN_1
 62
     2
  6
CONTINUOUS
 10
-0.055276
 20
0.975366
  0
VERTEX
  8
PLAN_1
 62
     2
  6
CONTINUOUS
 10
-0.057626
 20
0.973602
  0
VERTEX
  8
PLAN_1
 62
     2
  6
CONTINUOUS
 10
-0.059390
 20
0.971843
  0
VERTEX
  8
PLAN_1
 62
     2
  6
CONTINUOUS
 10
-0.060563
 20
0.968906
  0
VERTEX
  8
PLAN_1
 62
     2
  6
CONTINUOUS
 10
-0.061740
 20
0.965969
  0
VERTEX
  8
PLAN_1
 62
     2
  6
CONTINUOUS
 10
-0.061740
 20
0.962441
  0
VERTEX
  8
PLAN_1
 62
     2
  6
CONTINUOUS
 10
-0.061740
 20
0.960094
  0
VERTEX
  8
PLAN_1
 62
     2
  6
CONTINUOUS
 10
-0.061150
 20
0.957744
  0
VERTEX
  8
PLAN_1
 62
     2
  6
CONTINUOUS
 10
-0.060563
 20
0.955980
  0
VERTEX
  8
PLAN_1
 62
     2
  6
CONTINUOUS
 10
-0.059976
 20
0.954217
  0
VERTEX
  8
PLAN_1
 62
     2
  6
CONTINUOUS
 10
-0.057626
 20
0.951870
  0
VERTEX
  8
PLAN_1
 62
     2
  6
CONTINUOUS
 10
-0.054689
 20
0.950106
  0
VERTEX
  8
PLAN_1
 62
     2
  6
CONTINUOUS
 10
-0.051752
 20
0.948929
  0
VERTEX
  8
PLAN_1
 62
     2
  6
CONTINUOUS
 10
-0.048815
 20
0.948343
  0
VERTEX
  8
PLAN_1
 62
     2
  6
CONTINUOUS
 10
-0.045878
 20
0.947756
  0
VERTEX
  8
PLAN_1
 62
     2
  6
CONTINUOUS
 10
-0.043528
 20
0.947756
  0
VERTEX
  8
PLAN_1
 62
     2
  6
CONTINUOUS
 10
-0.043528
 20
0.938358
  0
SEQEND
  8
0
  0
POLYLINE
  8
PLAN_1
 62
     2
  6
CONTINUOUS
 66
     1
 40
0.003000
 41
0.003000
  0
VERTEX
  8
PLAN_1
 62
     2
  6
CONTINUOUS
 10
-0.051165
 20
1.027650
  0
VERTEX
  8
PLAN_1
 62
     2
  6
CONTINUOUS
 10
-0.051165
 20
1.035874
  0
VERTEX
  8
PLAN_1
 62
     2
  6
CONTINUOUS
 10
-0.043528
 20
1.035874
  0
VERTEX
  8
PLAN_1
 62
     2
  6
CONTINUOUS
 10
-0.043528
 20
1.036461
  0
VERTEX
  8
PLAN_1
 62
     2
  6
CONTINUOUS
 10
-0.044701
 20
1.037047
  0
VERTEX
  8
PLAN_1
 62
     2
  6
CONTINUOUS
 10
-0.046465
 20
1.038224
  0
VERTEX
  8
PLAN_1
 62
     2
  6
CONTINUOUS
 10
-0.047642
 20
1.039988
  0
VERTEX
  8
PLAN_1
 62
     2
  6
CONTINUOUS
 10
-0.049402
 20
1.041748
  0
VERTEX
  8
PLAN_1
 62
     2
  6
CONTINUOUS
 10
-0.050579
 20
1.043512
  0
VERTEX
  8
PLAN_1
 62
     2
  6
CONTINUOUS
 10
-0.051752
 20
1.046449
  0
VERTEX
  8
PLAN_1
 62
     2
  6
CONTINUOUS
 10
-0.052339
 20
1.049386
  0
VERTEX
  8
PLAN_1
 62
     2
  6
CONTINUOUS
 10
-0.052925
 20
1.052909
  0
VERTEX
  8
PLAN_1
 62
     2
  6
CONTINUOUS
 10
-0.052339
 20
1.055846
  0
VERTEX
  8
PLAN_1
 62
     2
  6
CONTINUOUS
 10
-0.051752
 20
1.058783
  0
VERTEX
  8
PLAN_1
 62
     2
  6
CONTINUOUS
 10
-0.050579
 20
1.061134
  0
VERTEX
  8
PLAN_1
 62
     2
  6
CONTINUOUS
 10
-0.049402
 20
1.062898
  0
VERTEX
  8
PLAN_1
 62
     2
  6
CONTINUOUS
 10
-0.048228
 20
1.064657
  0
VERTEX
  8
PLAN_1
 62
     2
  6
CONTINUOUS
 10
-0.046465
 20
1.065835
  0
VERTEX
  8
PLAN_1
 62
     2
  6
CONTINUOUS
 10
-0.045291
 20
1.066421
  0
VERTEX
  8
PLAN_1
 62
     2
  6
CONTINUOUS
 10
-0.044114
 20
1.067008
  0
VERTEX
  8
PLAN_1
 62
     2
  6
CONTINUOUS
 10
-0.045878
 20
1.068772
  0
VERTEX
  8
PLAN_1
 62
     2
  6
CONTINUOUS
 10
-0.047642
 20
1.070535
  0
VERTEX
  8
PLAN_1
 62
     2
  6
CONTINUOUS
 10
-0.048815
 20
1.072295
  0
VERTEX
  8
PLAN_1
 62
     2
  6
CONTINUOUS
 10
-0.050579
 20
1.074059
  0
VERTEX
  8
PLAN_1
 62
     2
  6
CONTINUOUS
 10
-0.051165
 20
1.076409
  0
VERTEX
  8
PLAN_1
 62
     2
  6
CONTINUOUS
 10
-0.052339
 20
1.078169
  0
VERTEX
  8
PLAN_1
 62
     2
  6
CONTINUOUS
 10
-0.052925
 20
1.081106
  0
VERTEX
  8
PLAN_1
 62
     2
  6
CONTINUOUS
 10
-0.052925
 20
1.084047
  0
VERTEX
  8
PLAN_1
 62
     2
  6
CONTINUOUS
 10
-0.052925
 20
1.086394
  0
VERTEX
  8
PLAN_1
 62
     2
  6
CONTINUOUS
 10
-0.052339
 20
1.088744
  0
VERTEX
  8
PLAN_1
 62
     2
  6
CONTINUOUS
 10
-0.051165
 20
1.091681
  0
VERTEX
  8
PLAN_1
 62
     2
  6
CONTINUOUS
 10
-0.049402
 20
1.094618
  0
VERTEX
  8
PLAN_1
 62
     2
  6
CONTINUOUS
 10
-0.047051
 20
1.096969
  0
VERTEX
  8
PLAN_1
 62
     2
  6
CONTINUOUS
 10
-0.044114
 20
1.098732
  0
VERTEX
  8
PLAN_1
 62
     2
  6
CONTINUOUS
 10
-0.040004
 20
1.100496
  0
VERTEX
  8
PLAN_1
 62
     2
  6
CONTINUOUS
 10
-0.034717
 20
1.100496
  0
VERTEX
  8
PLAN_1
 62
     2
  6
CONTINUOUS
 10
0.002882
 20
1.100496
  0
VERTEX
  8
PLAN_1
 62
     2
  6
CONTINUOUS
 10
0.002882
 20
1.091681
  0
VERTEX
  8
PLAN_1
 62
     2
  6
CONTINUOUS
 10
-0.031780
 20
1.091681
  0
VERTEX
  8
PLAN_1
 62
     2
  6
CONTINUOUS
 10
-0.034717
 20
1.091681
  0
VERTEX
  8
PLAN_1
 62
     2
  6
CONTINUOUS
 10
-0.037067
 20
1.091094
  0
VERTEX
  8
PLAN_1
 62
     2
  6
CONTINUOUS
 10
-0.039417
 20
1.090508
  0
VERTEX
  8
PLAN_1
 62
     2
  6
CONTINUOUS
 10
-0.041177
 20
1.089331
  0
VERTEX
  8
PLAN_1
 62
     2
  6
CONTINUOUS
 10
-0.042354
 20
1.088157
  0
VERTEX
  8
PLAN_1
 62
     2
  6
CONTINUOUS
 10
-0.043528
 20
1.086394
  0
VERTEX
  8
PLAN_1
 62
     2
  6
CONTINUOUS
 10
-0.044701
 20
1.084047
  0
VERTEX
  8
PLAN_1
 62
     2
  6
CONTINUOUS
 10
-0.044701
 20
1.081697
  0
VERTEX
  8
PLAN_1
 62
     2
  6
CONTINUOUS
 10
-0.044114
 20
1.078760
  0
VERTEX
  8
PLAN_1
 62
     2
  6
CONTINUOUS
 10
-0.043528
 20
1.076409
  0
VERTEX
  8
PLAN_1
 62
     2
  6
CONTINUOUS
 10
-0.041764
 20
1.074059
  0
VERTEX
  8
PLAN_1
 62
     2
  6
CONTINUOUS
 10
-0.040004
 20
1.072295
  0
VERTEX
  8
PLAN_1
 62
     2
  6
CONTINUOUS
 10
-0.037654
 20
1.070535
  0
VERTEX
  8
PLAN_1
 62
     2
  6
CONTINUOUS
 10
-0.035303
 20
1.069358
  0
VERTEX
  8
PLAN_1
 62
     2
  6
CONTINUOUS
 10
-0.032953
 20
1.068772
  0
VERTEX
  8
PLAN_1
 62
     2
  6
CONTINUOUS
 10
-0.030016
 20
1.068772
  0
VERTEX
  8
PLAN_1
 62
     2
  6
CONTINUOUS
 10
0.002882
 20
1.068772
  0
VERTEX
  8
PLAN_1
 62
     2
  6
CONTINUOUS
 10
0.002882
 20
1.059374
  0
VERTEX
  8
PLAN_1
 62
     2
  6
CONTINUOUS
 10
-0.034717
 20
1.059374
  0
VERTEX
  8
PLAN_1
 62
     2
  6
CONTINUOUS
 10
-0.036476
 20
1.059374
  0
VERTEX
  8
PLAN_1
 62
     2
  6
CONTINUOUS
 10
-0.038240
 20
1.059374
  0
VERTEX
  8
PLAN_1
 62
     2
  6
CONTINUOUS
 10
-0.040004
 20
1.058783
  0
VERTEX
  8
PLAN_1
 62
     2
  6
CONTINUOUS
 10
-0.041177
 20
1.057610
  0
VERTEX
  8
PLAN_1
 62
     2
  6
CONTINUOUS
 10
-0.042941
 20
1.056437
  0
VERTEX
  8
PLAN_1
 62
     2
  6
CONTINUOUS
 10
-0.043528
 20
1.055260
  0
VERTEX
  8
PLAN_1
 62
     2
  6
CONTINUOUS
 10
-0.044114
 20
1.053496
  0
VERTEX
  8
PLAN_1
 62
     2
  6
CONTINUOUS
 10
-0.044701
 20
1.051150
  0
VERTEX
  8
PLAN_1
 62
     2
  6
CONTINUOUS
 10
-0.044701
 20
1.048799
  0
VERTEX
  8
PLAN_1
 62
     2
  6
CONTINUOUS
 10
-0.044114
 20
1.046449
  0
VERTEX
  8
PLAN_1
 62
     2
  6
CONTINUOUS
 10
-0.042941
 20
1.044098
  0
VERTEX
  8
PLAN_1
 62
     2
  6
CONTINUOUS
 10
-0.041177
 20
1.041748
  0
VERTEX
  8
PLAN_1
 62
     2
  6
CONTINUOUS
 10
-0.038827
 20
1.039988
  0
VERTEX
  8
PLAN_1
 62
     2
  6
CONTINUOUS
 10
-0.035890
 20
1.038224
  0
VERTEX
  8
PLAN_1
 62
     2
  6
CONTINUOUS
 10
-0.031780
 20
1.037047
  0
VERTEX
  8
PLAN_1
 62
     2
  6
CONTINUOUS
 10
-0.026492
 20
1.036461
  0
VERTEX
  8
PLAN_1
 62
     2
  6
CONTINUOUS
 10
0.002882
 20
1.036461
  0
VERTEX
  8
PLAN_1
 62
     2
  6
CONTINUOUS
 10
0.002882
 20
1.027650
  0
VERTEX
  8
PLAN_1
 62
     2
  6
CONTINUOUS
 10
-0.051165
 20
1.027650
  0
SEQEND
  8
0
  0
POLYLINE
  8
PLAN_1
 62
     2
  6
CONTINUOUS
 66
     1
 40
0.003000
 41
0.003000
  0
VERTEX
  8
PLAN_1
 62
     2
  6
CONTINUOUS
 10
-0.034717
 20
1.114004
  0
VERTEX
  8
PLAN_1
 62
     2
  6
CONTINUOUS
 10
-0.039417
 20
1.114594
  0
VERTEX
  8
PLAN_1
 62
     2
  6
CONTINUOUS
 10
-0.042941
 20
1.115768
  0
VERTEX
  8
PLAN_1
 62
     2
  6
CONTINUOUS
 10
-0.046465
 20
1.117531
  0
VERTEX
  8
PLAN_1
 62
     2
  6
CONTINUOUS
 10
-0.048815
 20
1.120469
  0
VERTEX
  8
PLAN_1
 62
     2
  6
CONTINUOUS
 10
-0.050579
 20
1.123406
  0
VERTEX
  8
PLAN_1
 62
     2
  6
CONTINUOUS
 10
-0.051752
 20
1.127516
  0
VERTEX
  8
PLAN_1
 62
     2
  6
CONTINUOUS
 10
-0.052339
 20
1.131630
  0
VERTEX
  8
PLAN_1
 62
     2
  6
CONTINUOUS
 10
-0.052925
 20
1.136331
  0
VERTEX
  8
PLAN_1
 62
     2
  6
CONTINUOUS
 10
-0.052925
 20
1.138677
  0
VERTEX
  8
PLAN_1
 62
     2
  6
CONTINUOUS
 10
-0.052339
 20
1.141614
  0
VERTEX
  8
PLAN_1
 62
     2
  6
CONTINUOUS
 10
-0.051752
 20
1.144555
  0
VERTEX
  8
PLAN_1
 62
     2
  6
CONTINUOUS
 10
-0.050579
 20
1.148079
  0
VERTEX
  8
PLAN_1
 62
     2
  6
CONTINUOUS
 10
-0.048815
 20
1.151602
  0
VERTEX
  8
PLAN_1
 62
     2
  6
CONTINUOUS
 10
-0.045878
 20
1.153953
  0
VERTEX
  8
PLAN_1
 62
     2
  6
CONTINUOUS
 10
-0.044114
 20
1.155126
  0
VERTEX
  8
PLAN_1
 62
     2
  6
CONTINUOUS
 10
-0.042354
 20
1.155717
  0
VERTEX
  8
PLAN_1
 62
     2
  6
CONTINUOUS
 10
-0.040004
 20
1.156303
  0
VERTEX
  8
PLAN_1
 62
     2
  6
CONTINUOUS
 10
-0.037654
 20
1.156303
  0
VERTEX
  8
PLAN_1
 62
     2
  6
CONTINUOUS
 10
-0.006520
 20
1.156303
  0
VERTEX
  8
PLAN_1
 62
     2
  6
CONTINUOUS
 10
-0.005343
 20
1.156890
  0
VERTEX
  8
PLAN_1
 62
     2
  6
CONTINUOUS
 10
-0.004756
 20
1.156890
  0
VERTEX
  8
PLAN_1
 62
     2
  6
CONTINUOUS
 10
-0.004169
 20
1.156890
  0
VERTEX
  8
PLAN_1
 62
     2
  6
CONTINUOUS
 10
-0.004169
 20
1.157476
  0
VERTEX
  8
PLAN_1
 62
     2
  6
CONTINUOUS
 10
-0.003583
 20
1.158063
  0
VERTEX
  8
PLAN_1
 62
     2
  6
CONTINUOUS
 10
-0.002992
 20
1.158654
  0
VERTEX
  8
PLAN_1
 62
     2
  6
CONTINUOUS
 10
-0.002992
 20
1.159827
  0
VERTEX
  8
PLAN_1
 62
     2
  6
CONTINUOUS
 10
-0.002992
 20
1.160413
  0
VERTEX
  8
PLAN_1
 62
     2
  6
CONTINUOUS
 10
-0.002992
 20
1.161000
  0
VERTEX
  8
PLAN_1
 62
     2
  6
CONTINUOUS
 10
-0.003583
 20
1.161591
  0
VERTEX
  8
PLAN_1
 62
     2
  6
CONTINUOUS
 10
-0.003583
 20
1.162177
  0
VERTEX
  8
PLAN_1
 62
     2
  6
CONTINUOUS
 10
-0.003583
 20
1.162764
  0
VERTEX
  8
PLAN_1
 62
     2
  6
CONTINUOUS
 10
0.002882
 20
1.162764
  0
VERTEX
  8
PLAN_1
 62
     2
  6
CONTINUOUS
 10
0.003469
 20
1.162177
  0
VERTEX
  8
PLAN_1
 62
     2
  6
CONTINUOUS
 10
0.003469
 20
1.161591
  0
VERTEX
  8
PLAN_1
 62
     2
  6
CONTINUOUS
 10
0.003469
 20
1.161000
  0
VERTEX
  8
PLAN_1
 62
     2
  6
CONTINUOUS
 10
0.004055
 20
1.160413
  0
VERTEX
  8
PLAN_1
 62
     2
  6
CONTINUOUS
 10
0.004055
 20
1.159827
  0
VERTEX
  8
PLAN_1
 62
     2
  6
CONTINUOUS
 10
0.004055
 20
1.159240
  0
VERTEX
  8
PLAN_1
 62
     2
  6
CONTINUOUS
 10
0.004055
 20
1.158063
  0
VERTEX
  8
PLAN_1
 62
     2
  6
CONTINUOUS
 10
0.004055
 20
1.157476
  0
VERTEX
  8
PLAN_1
 62
     2
  6
CONTINUOUS
 10
0.004055
 20
1.155126
  0
VERTEX
  8
PLAN_1
 62
     2
  6
CONTINUOUS
 10
0.003469
 20
1.152776
  0
VERTEX
  8
PLAN_1
 62
     2
  6
CONTINUOUS
 10
0.002882
 20
1.151016
  0
VERTEX
  8
PLAN_1
 62
     2
  6
CONTINUOUS
 10
0.001705
 20
1.149839
  0
VERTEX
  8
PLAN_1
 62
     2
  6
CONTINUOUS
 10
0.000531
 20
1.149252
  0
VERTEX
  8
PLAN_1
 62
     2
  6
CONTINUOUS
 10
-0.001232
 20
1.148665
  0
VERTEX
  8
PLAN_1
 62
     2
  6
CONTINUOUS
 10
-0.002406
 20
1.148079
  0
VERTEX
  8
PLAN_1
 62
     2
  6
CONTINUOUS
 10
-0.004169
 20
1.148079
  0
VERTEX
  8
PLAN_1
 62
     2
  6
CONTINUOUS
 10
-0.002406
 20
1.146315
  0
VERTEX
  8
PLAN_1
 62
     2
  6
CONTINUOUS
 10
-0.001232
 20
1.145142
  0
VERTEX
  8
PLAN_1
 62
     2
  6
CONTINUOUS
 10
0.000531
 20
1.142791
  0
VERTEX
  8
PLAN_1
 62
     2
  6
CONTINUOUS
 10
0.001705
 20
1.141028
  0
VERTEX
  8
PLAN_1
 62
     2
  6
CONTINUOUS
 10
0.002882
 20
1.138091
  0
VERTEX
  8
PLAN_1
 62
     2
  6
CONTINUOUS
 10
0.004055
 20
1.135154
  0
VERTEX
  8
PLAN_1
 62
     2
  6
CONTINUOUS
 10
0.004642
 20
1.132217
  0
VERTEX
  8
PLAN_1
 62
     2
  6
CONTINUOUS
 10
0.004642
 20
1.128106
  0
VERTEX
  8
PLAN_1
 62
     2
  6
CONTINUOUS
 10
0.004642
 20
1.124579
  0
VERTEX
  8
PLAN_1
 62
     2
  6
CONTINUOUS
 10
0.003469
 20
1.121642
  0
VERTEX
  8
PLAN_1
 62
     2
  6
CONTINUOUS
 10
0.002295
 20
1.118705
  0
VERTEX
  8
PLAN_1
 62
     2
  6
CONTINUOUS
 10
0.000531
 20
1.115768
  0
VERTEX
  8
PLAN_1
 62
     2
  6
CONTINUOUS
 10
-0.001819
 20
1.114004
  0
VERTEX
  8
PLAN_1
 62
     2
  6
CONTINUOUS
 10
-0.004756
 20
1.112244
  0
VERTEX
  8
PLAN_1
 62
     2
  6
CONTINUOUS
 10
-0.007693
 20
1.111657
  0
VERTEX
  8
PLAN_1
 62
     2
  6
CONTINUOUS
 10
-0.011217
 20
1.111067
  0
VERTEX
  8
PLAN_1
 62
     2
  6
CONTINUOUS
 10
-0.012980
 20
1.111067
  0
VERTEX
  8
PLAN_1
 62
     2
  6
CONTINUOUS
 10
-0.015331
 20
1.111657
  0
VERTEX
  8
PLAN_1
 62
     2
  6
CONTINUOUS
 10
-0.017681
 20
1.112244
  0
VERTEX
  8
PLAN_1
 62
     2
  6
CONTINUOUS
 10
-0.020618
 20
1.114004
  0
VERTEX
  8
PLAN_1
 62
     2
  6
CONTINUOUS
 10
-0.022969
 20
1.115768
  0
VERTEX
  8
PLAN_1
 62
     2
  6
CONTINUOUS
 10
-0.025315
 20
1.118705
  0
VERTEX
  8
PLAN_1
 62
     2
  6
CONTINUOUS
 10
-0.027079
 20
1.122819
  0
VERTEX
  8
PLAN_1
 62
     2
  6
CONTINUOUS
 10
-0.028252
 20
1.127516
  0
VERTEX
  8
PLAN_1
 62
     2
  6
CONTINUOUS
 10
-0.030016
 20
1.142791
  0
VERTEX
  8
PLAN_1
 62
     2
  6
CONTINUOUS
 10
-0.030016
 20
1.143378
  0
VERTEX
  8
PLAN_1
 62
     2
  6
CONTINUOUS
 10
-0.030016
 20
1.144555
  0
VERTEX
  8
PLAN_1
 62
     2
  6
CONTINUOUS
 10
-0.030602
 20
1.145142
  0
VERTEX
  8
PLAN_1
 62
     2
  6
CONTINUOUS
 10
-0.031193
 20
1.146315
  0
VERTEX
  8
PLAN_1
 62
     2
  6
CONTINUOUS
 10
-0.031780
 20
1.146902
  0
VERTEX
  8
PLAN_1
 62
     2
  6
CONTINUOUS
 10
-0.032953
 20
1.146902
  0
VERTEX
  8
PLAN_1
 62
     2
  6
CONTINUOUS
 10
-0.034717
 20
1.147492
  0
VERTEX
  8
PLAN_1
 62
     2
  6
CONTINUOUS
 10
-0.036476
 20
1.147492
  0
VERTEX
  8
PLAN_1
 62
     2
  6
CONTINUOUS
 10
-0.038240
 20
1.147492
  0
VERTEX
  8
PLAN_1
 62
     2
  6
CONTINUOUS
 10
-0.040004
 20
1.146902
  0
VERTEX
  8
PLAN_1
 62
     2
  6
CONTINUOUS
 10
-0.041764
 20
1.145728
  0
VERTEX
  8
PLAN_1
 62
     2
  6
CONTINUOUS
 10
-0.042941
 20
1.144555
  0
VERTEX
  8
PLAN_1
 62
     2
  6
CONTINUOUS
 10
-0.044114
 20
1.142791
  0
VERTEX
  8
PLAN_1
 62
     2
  6
CONTINUOUS
 10
-0.044701
 20
1.140441
  0
VERTEX
  8
PLAN_1
 62
     2
  6
CONTINUOUS
 10
-0.045291
 20
1.138091
  0
VERTEX
  8
PLAN_1
 62
     2
  6
CONTINUOUS
 10
-0.045291
 20
1.134567
  0
VERTEX
  8
PLAN_1
 62
     2
  6
CONTINUOUS
 10
-0.044701
 20
1.131043
  0
VERTEX
  8
PLAN_1
 62
     2
  6
CONTINUOUS
 10
-0.044114
 20
1.128693
  0
VERTEX
  8
PLAN_1
 62
     2
  6
CONTINUOUS
 10
-0.042941
 20
1.126343
  0
VERTEX
  8
PLAN_1
 62
     2
  6
CONTINUOUS
 10
-0.041764
 20
1.125165
  0
VERTEX
  8
PLAN_1
 62
     2
  6
CONTINUOUS
 10
-0.040004
 20
1.123992
  0
VERTEX
  8
PLAN_1
 62
     2
  6
CONTINUOUS
 10
-0.038240
 20
1.122819
  0
VERTEX
  8
PLAN_1
 62
     2
  6
CONTINUOUS
 10
-0.036476
 20
1.122819
  0
VERTEX
  8
PLAN_1
 62
     2
  6
CONTINUOUS
 10
-0.034717
 20
1.122228
  0
VERTEX
  8
PLAN_1
 62
     2
  6
CONTINUOUS
 10
-0.034717
 20
1.114004
  0
SEQEND
  8
0
  0
POLYLINE
  8
PLAN_1
 62
     2
  6
CONTINUOUS
 66
     1
 40
0.003000
 41
0.003000
  0
VERTEX
  8
PLAN_1
 62
     2
  6
CONTINUOUS
 10
-0.024728
 20
1.147492
  0
VERTEX
  8
PLAN_1
 62
     2
  6
CONTINUOUS
 10
-0.024142
 20
1.146902
  0
VERTEX
  8
PLAN_1
 62
     2
  6
CONTINUOUS
 10
-0.024142
 20
1.146315
  0
VERTEX
  8
PLAN_1
 62
     2
  6
CONTINUOUS
 10
-0.023555
 20
1.145142
  0
VERTEX
  8
PLAN_1
 62
     2
  6
CONTINUOUS
 10
-0.022969
 20
1.143378
  0
VERTEX
  8
PLAN_1
 62
     2
  6
CONTINUOUS
 10
-0.022378
 20
1.141614
  0
VERTEX
  8
PLAN_1
 62
     2
  6
CONTINUOUS
 10
-0.022378
 20
1.139268
  0
VERTEX
  8
PLAN_1
 62
     2
  6
CONTINUOUS
 10
-0.021791
 20
1.136331
  0
VERTEX
  8
PLAN_1
 62
     2
  6
CONTINUOUS
 10
-0.021205
 20
1.132217
  0
VERTEX
  8
PLAN_1
 62
     2
  6
CONTINUOUS
 10
-0.021205
 20
1.130453
  0
VERTEX
  8
PLAN_1
 62
     2
  6
CONTINUOUS
 10
-0.020618
 20
1.128693
  0
VERTEX
  8
PLAN_1
 62
     2
  6
CONTINUOUS
 10
-0.020028
 20
1.126929
  0
VERTEX
  8
PLAN_1
 62
     2
  6
CONTINUOUS
 10
-0.019441
 20
1.124579
  0
VERTEX
  8
PLAN_1
 62
     2
  6
CONTINUOUS
 10
-0.018268
 20
1.123406
  0
VERTEX
  8
PLAN_1
 62
     2
  6
CONTINUOUS
 10
-0.016504
 20
1.121642
  0
VERTEX
  8
PLAN_1
 62
     2
  6
CONTINUOUS
 10
-0.014744
 20
1.121055
  0
VERTEX
  8
PLAN_1
 62
     2
  6
CONTINUOUS
 10
-0.012394
 20
1.120469
  0
VERTEX
  8
PLAN_1
 62
     2
  6
CONTINUOUS
 10
-0.010043
 20
1.121055
  0
VERTEX
  8
PLAN_1
 62
     2
  6
CONTINUOUS
 10
-0.008280
 20
1.121055
  0
VERTEX
  8
PLAN_1
 62
     2
  6
CONTINUOUS
 10
-0.006520
 20
1.122228
  0
VERTEX
  8
PLAN_1
 62
     2
  6
CONTINUOUS
 10
-0.005343
 20
1.122819
  0
VERTEX
  8
PLAN_1
 62
     2
  6
CONTINUOUS
 10
-0.004169
 20
1.124579
  0
VERTEX
  8
PLAN_1
 62
     2
  6
CONTINUOUS
 10
-0.003583
 20
1.126343
  0
VERTEX
  8
PLAN_1
 62
     2
  6
CONTINUOUS
 10
-0.002992
 20
1.128106
  0
VERTEX
  8
PLAN_1
 62
     2
  6
CONTINUOUS
 10
-0.002992
 20
1.130453
  0
VERTEX
  8
PLAN_1
 62
     2
  6
CONTINUOUS
 10
-0.002992
 20
1.133980
  0
VERTEX
  8
PLAN_1
 62
     2
  6
CONTINUOUS
 10
-0.004169
 20
1.136917
  0
VERTEX
  8
PLAN_1
 62
     2
  6
CONTINUOUS
 10
-0.005343
 20
1.139854
  0
VERTEX
  8
PLAN_1
 62
     2
  6
CONTINUOUS
 10
-0.006520
 20
1.142205
  0
VERTEX
  8
PLAN_1
 62
     2
  6
CONTINUOUS
 10
-0.008280
 20
1.144555
  0
VERTEX
  8
PLAN_1
 62
     2
  6
CONTINUOUS
 10
-0.010630
 20
1.145728
  0
VERTEX
  8
PLAN_1
 62
     2
  6
CONTINUOUS
 10
-0.012980
 20
1.146902
  0
VERTEX
  8
PLAN_1
 62
     2
  6
CONTINUOUS
 10
-0.015917
 20
1.147492
  0
VERTEX
  8
PLAN_1
 62
     2
  6
CONTINUOUS
 10
-0.024728
 20
1.147492
  0
SEQEND
  8
0
  0
POLYLINE
  8
PLAN_1
 62
     2
  6
CONTINUOUS
 66
     1
 40
0.003000
 41
0.003000
  0
VERTEX
  8
PLAN_1
 62
     2
  6
CONTINUOUS
 10
0.002882
 20
1.216224
  0
VERTEX
  8
PLAN_1
 62
     2
  6
CONTINUOUS
 10
0.002882
 20
1.204472
  0
VERTEX
  8
PLAN_1
 62
     2
  6
CONTINUOUS
 10
-0.017091
 20
1.190961
  0
VERTEX
  8
PLAN_1
 62
     2
  6
CONTINUOUS
 10
0.002882
 20
1.178039
  0
VERTEX
  8
PLAN_1
 62
     2
  6
CONTINUOUS
 10
0.002882
 20
1.166287
  0
VERTEX
  8
PLAN_1
 62
     2
  6
CONTINUOUS
 10
-0.024728
 20
1.185673
  0
VERTEX
  8
PLAN_1
 62
     2
  6
CONTINUOUS
 10
-0.051165
 20
1.167465
  0
VERTEX
  8
PLAN_1
 62
     2
  6
CONTINUOUS
 10
-0.051165
 20
1.179213
  0
VERTEX
  8
PLAN_1
 62
     2
  6
CONTINUOUS
 10
-0.032366
 20
1.191551
  0
VERTEX
  8
PLAN_1
 62
     2
  6
CONTINUOUS
 10
-0.051165
 20
1.204472
  0
VERTEX
  8
PLAN_1
 62
     2
  6
CONTINUOUS
 10
-0.051165
 20
1.215634
  0
VERTEX
  8
PLAN_1
 62
     2
  6
CONTINUOUS
 10
-0.024728
 20
1.197425
  0
VERTEX
  8
PLAN_1
 62
     2
  6
CONTINUOUS
 10
0.002882
 20
1.216224
  0
SEQEND
  8
0
  0
SOLID
  8
PLAN_1
 62
     2
 10
0.002882
 20
1.233846
 11
0.002882
 21
1.224449
 12
-0.051165
 22
1.233846
 13
-0.051165
 23
1.224449
  0
POLYLINE
  8
PLAN_1
 62
     2
  6
CONTINUOUS
 66
     1
 40
0.003000
 41
0.003000
  0
VERTEX
  8
PLAN_1
 62
     2
  6
CONTINUOUS
 10
0.002882
 20
1.233846
  0
VERTEX
  8
PLAN_1
 62
     2
  6
CONTINUOUS
 10
0.002882
 20
1.224449
  0
VERTEX
  8
PLAN_1
 62
     2
  6
CONTINUOUS
 10
-0.051165
 20
1.224449
  0
VERTEX
  8
PLAN_1
 62
     2
  6
CONTINUOUS
 10
-0.051165
 20
1.233846
  0
VERTEX
  8
PLAN_1
 62
     2
  6
CONTINUOUS
 10
0.002882
 20
1.233846
  0
SEQEND
  8
0
  0
SOLID
  8
PLAN_1
 62
     2
 10
-0.061150
 20
1.224449
 11
-0.071724
 21
1.224449
 12
-0.061150
 22
1.233846
 13
-0.071724
 23
1.233846
  0
POLYLINE
  8
PLAN_1
 62
     2
  6
CONTINUOUS
 66
     1
 40
0.003000
 41
0.003000
  0
VERTEX
  8
PLAN_1
 62
     2
  6
CONTINUOUS
 10
-0.061150
 20
1.224449
  0
VERTEX
  8
PLAN_1
 62
     2
  6
CONTINUOUS
 10
-0.071724
 20
1.224449
  0
VERTEX
  8
PLAN_1
 62
     2
  6
CONTINUOUS
 10
-0.071724
 20
1.233846
  0
VERTEX
  8
PLAN_1
 62
     2
  6
CONTINUOUS
 10
-0.061150
 20
1.233846
  0
VERTEX
  8
PLAN_1
 62
     2
  6
CONTINUOUS
 10
-0.061150
 20
1.224449
  0
SEQEND
  8
0
  0
POLYLINE
  8
PLAN_1
 62
     2
  6
CONTINUOUS
 66
     1
 40
0.003000
 41
0.003000
  0
VERTEX
  8
PLAN_1
 62
     2
  6
CONTINUOUS
 10
-2.093154
 20
4.628157
  0
VERTEX
  8
PLAN_1
 62
     2
  6
CONTINUOUS
 10
-2.093154
 20
4.619343
  0
SEQEND
  8
0
  0
POLYLINE
  8
PLAN_1
 62
     2
  6
CONTINUOUS
 66
     1
 40
0.003000
 41
0.003000
  0
VERTEX
  8
PLAN_1
 62
     2
  6
CONTINUOUS
 10
-2.093154
 20
4.611118
  0
VERTEX
  8
PLAN_1
 62
     2
  6
CONTINUOUS
 10
-2.093154
 20
4.602894
  0
SEQEND
  8
0
  0
POLYLINE
  8
PLAN_1
 62
     2
  6
CONTINUOUS
 66
     1
 40
0.003000
 41
0.003000
  0
VERTEX
  8
PLAN_1
 62
     2
  6
CONTINUOUS
 10
-2.093154
 20
4.594669
  0
VERTEX
  8
PLAN_1
 62
     2
  6
CONTINUOUS
 10
-2.093154
 20
4.586445
  0
SEQEND
  8
0
  0
POLYLINE
  8
PLAN_1
 62
     2
  6
CONTINUOUS
 66
     1
 40
0.003000
 41
0.003000
  0
VERTEX
  8
PLAN_1
 62
     2
  6
CONTINUOUS
 10
-2.093154
 20
4.577634
  0
VERTEX
  8
PLAN_1
 62
     2
  6
CONTINUOUS
 10
-2.093154
 20
4.569409
  0
SEQEND
  8
0
  0
POLYLINE
  8
PLAN_1
 62
     2
  6
CONTINUOUS
 66
     1
 40
0.003000
 41
0.003000
  0
VERTEX
  8
PLAN_1
 62
     2
  6
CONTINUOUS
 10
-2.093154
 20
4.561185
  0
VERTEX
  8
PLAN_1
 62
     2
  6
CONTINUOUS
 10
-2.093154
 20
4.552961
  0
SEQEND
  8
0
  0
POLYLINE
  8
PLAN_1
 62
     2
  6
CONTINUOUS
 66
     1
 40
0.003000
 41
0.003000
  0
VERTEX
  8
PLAN_1
 62
     2
  6
CONTINUOUS
 10
-2.093154
 20
4.544736
  0
VERTEX
  8
PLAN_1
 62
     2
  6
CONTINUOUS
 10
-2.093154
 20
4.536512
  0
SEQEND
  8
0
  0
POLYLINE
  8
PLAN_1
 62
     2
  6
CONTINUOUS
 66
     1
 40
0.003000
 41
0.003000
  0
VERTEX
  8
PLAN_1
 62
     2
  6
CONTINUOUS
 10
-2.093154
 20
4.527701
  0
VERTEX
  8
PLAN_1
 62
     2
  6
CONTINUOUS
 10
-2.093154
 20
4.519476
  0
SEQEND
  8
0
  0
POLYLINE
  8
PLAN_1
 62
     2
  6
CONTINUOUS
 66
     1
 40
0.003000
 41
0.003000
  0
VERTEX
  8
PLAN_1
 62
     2
  6
CONTINUOUS
 10
-2.093154
 20
4.511252
  0
VERTEX
  8
PLAN_1
 62
     2
  6
CONTINUOUS
 10
-2.093154
 20
4.503028
  0
SEQEND
  8
0
  0
POLYLINE
  8
PLAN_1
 62
     2
  6
CONTINUOUS
 66
     1
 40
0.003000
 41
0.003000
  0
VERTEX
  8
PLAN_1
 62
     2
  6
CONTINUOUS
 10
-2.093154
 20
4.494803
  0
VERTEX
  8
PLAN_1
 62
     2
  6
CONTINUOUS
 10
-2.093154
 20
4.485992
  0
SEQEND
  8
0
  0
POLYLINE
  8
PLAN_1
 62
     2
  6
CONTINUOUS
 66
     1
 40
0.003000
 41
0.003000
  0
VERTEX
  8
PLAN_1
 62
     2
  6
CONTINUOUS
 10
-2.093154
 20
4.477768
  0
VERTEX
  8
PLAN_1
 62
     2
  6
CONTINUOUS
 10
-2.093154
 20
4.469543
  0
SEQEND
  8
0
  0
POLYLINE
  8
PLAN_1
 62
     2
  6
CONTINUOUS
 66
     1
 40
0.003000
 41
0.003000
  0
VERTEX
  8
PLAN_1
 62
     2
  6
CONTINUOUS
 10
-2.093154
 20
4.461319
  0
VERTEX
  8
PLAN_1
 62
     2
  6
CONTINUOUS
 10
-2.093154
 20
4.453094
  0
SEQEND
  8
0
  0
POLYLINE
  8
PLAN_1
 62
     2
  6
CONTINUOUS
 66
     1
 40
0.003000
 41
0.003000
  0
VERTEX
  8
PLAN_1
 62
     2
  6
CONTINUOUS
 10
-2.093154
 20
4.444870
  0
VERTEX
  8
PLAN_1
 62
     2
  6
CONTINUOUS
 10
-2.093154
 20
4.436059
  0
SEQEND
  8
0
  0
POLYLINE
  8
PLAN_1
 62
     2
  6
CONTINUOUS
 66
     1
 40
0.003000
 41
0.003000
  0
VERTEX
  8
PLAN_1
 62
     2
  6
CONTINUOUS
 10
-2.093154
 20
4.427835
  0
VERTEX
  8
PLAN_1
 62
     2
  6
CONTINUOUS
 10
-2.093154
 20
4.419610
  0
SEQEND
  8
0
  0
POLYLINE
  8
PLAN_1
 62
     2
  6
CONTINUOUS
 66
     1
 40
0.003000
 41
0.003000
  0
VERTEX
  8
PLAN_1
 62
     2
  6
CONTINUOUS
 10
-2.093154
 20
4.411386
  0
VERTEX
  8
PLAN_1
 62
     2
  6
CONTINUOUS
 10
-2.093154
 20
4.403161
  0
SEQEND
  8
0
  0
POLYLINE
  8
PLAN_1
 62
     2
  6
CONTINUOUS
 66
     1
 40
0.003000
 41
0.003000
  0
VERTEX
  8
PLAN_1
 62
     2
  6
CONTINUOUS
 10
-2.093154
 20
4.394350
  0
VERTEX
  8
PLAN_1
 62
     2
  6
CONTINUOUS
 10
-2.093154
 20
4.386126
  0
SEQEND
  8
0
  0
POLYLINE
  8
PLAN_1
 62
     2
  6
CONTINUOUS
 66
     1
 40
0.003000
 41
0.003000
  0
VERTEX
  8
PLAN_1
 62
     2
  6
CONTINUOUS
 10
-2.093154
 20
4.377902
  0
VERTEX
  8
PLAN_1
 62
     2
  6
CONTINUOUS
 10
-2.093154
 20
4.369677
  0
SEQEND
  8
0
  0
POLYLINE
  8
PLAN_1
 62
     2
  6
CONTINUOUS
 66
     1
 40
0.003000
 41
0.003000
  0
VERTEX
  8
PLAN_1
 62
     2
  6
CONTINUOUS
 10
-2.093154
 20
4.361453
  0
VERTEX
  8
PLAN_1
 62
     2
  6
CONTINUOUS
 10
-2.093154
 20
4.353228
  0
SEQEND
  8
0
  0
POLYLINE
  8
PLAN_1
 62
     2
  6
CONTINUOUS
 66
     1
 40
0.003000
 41
0.003000
  0
VERTEX
  8
PLAN_1
 62
     2
  6
CONTINUOUS
 10
-2.093154
 20
4.344417
  0
VERTEX
  8
PLAN_1
 62
     2
  6
CONTINUOUS
 10
-2.093154
 20
4.336193
  0
SEQEND
  8
0
  0
POLYLINE
  8
PLAN_1
 62
     2
  6
CONTINUOUS
 66
     1
 40
0.003000
 41
0.003000
  0
VERTEX
  8
PLAN_1
 62
     2
  6
CONTINUOUS
 10
-2.093154
 20
4.327969
  0
VERTEX
  8
PLAN_1
 62
     2
  6
CONTINUOUS
 10
-2.093154
 20
4.319744
  0
SEQEND
  8
0
  0
POLYLINE
  8
PLAN_1
 62
     2
  6
CONTINUOUS
 66
     1
 40
0.003000
 41
0.003000
  0
VERTEX
  8
PLAN_1
 62
     2
  6
CONTINUOUS
 10
-2.093154
 20
4.311520
  0
VERTEX
  8
PLAN_1
 62
     2
  6
CONTINUOUS
 10
-2.093154
 20
4.303295
  0
SEQEND
  8
0
  0
POLYLINE
  8
PLAN_1
 62
     2
  6
CONTINUOUS
 66
     1
 40
0.003000
 41
0.003000
  0
VERTEX
  8
PLAN_1
 62
     2
  6
CONTINUOUS
 10
-2.093154
 20
4.294480
  0
VERTEX
  8
PLAN_1
 62
     2
  6
CONTINUOUS
 10
-2.093154
 20
4.286256
  0
SEQEND
  8
0
  0
POLYLINE
  8
PLAN_1
 62
     2
  6
CONTINUOUS
 66
     1
 40
0.003000
 41
0.003000
  0
VERTEX
  8
PLAN_1
 62
     2
  6
CONTINUOUS
 10
-2.093154
 20
4.278031
  0
VERTEX
  8
PLAN_1
 62
     2
  6
CONTINUOUS
 10
-2.093154
 20
4.269807
  0
SEQEND
  8
0
  0
POLYLINE
  8
PLAN_1
 62
     2
  6
CONTINUOUS
 66
     1
 40
0.003000
 41
0.003000
  0
VERTEX
  8
PLAN_1
 62
     2
  6
CONTINUOUS
 10
-2.093154
 20
4.261583
  0
VERTEX
  8
PLAN_1
 62
     2
  6
CONTINUOUS
 10
-2.093154
 20
4.252772
  0
SEQEND
  8
0
  0
POLYLINE
  8
PLAN_1
 62
     2
  6
CONTINUOUS
 66
     1
 40
0.003000
 41
0.003000
  0
VERTEX
  8
PLAN_1
 62
     2
  6
CONTINUOUS
 10
-2.093154
 20
4.244547
  0
VERTEX
  8
PLAN_1
 62
     2
  6
CONTINUOUS
 10
-2.093154
 20
4.236323
  0
SEQEND
  8
0
  0
POLYLINE
  8
PLAN_1
 62
     2
  6
CONTINUOUS
 66
     1
 40
0.003000
 41
0.003000
  0
VERTEX
  8
PLAN_1
 62
     2
  6
CONTINUOUS
 10
-2.093154
 20
4.228098
  0
VERTEX
  8
PLAN_1
 62
     2
  6
CONTINUOUS
 10
-2.093154
 20
4.219874
  0
SEQEND
  8
0
  0
POLYLINE
  8
PLAN_1
 62
     2
  6
CONTINUOUS
 66
     1
 40
0.003000
 41
0.003000
  0
VERTEX
  8
PLAN_1
 62
     2
  6
CONTINUOUS
 10
-2.093154
 20
4.211650
  0
VERTEX
  8
PLAN_1
 62
     2
  6
CONTINUOUS
 10
-2.093154
 20
4.202839
  0
SEQEND
  8
0
  0
POLYLINE
  8
PLAN_1
 62
     2
  6
CONTINUOUS
 66
     1
 40
0.003000
 41
0.003000
  0
VERTEX
  8
PLAN_1
 62
     2
  6
CONTINUOUS
 10
-2.093154
 20
4.194614
  0
VERTEX
  8
PLAN_1
 62
     2
  6
CONTINUOUS
 10
-2.093154
 20
4.186390
  0
SEQEND
  8
0
  0
POLYLINE
  8
PLAN_1
 62
     2
  6
CONTINUOUS
 66
     1
 40
0.003000
 41
0.003000
  0
VERTEX
  8
PLAN_1
 62
     2
  6
CONTINUOUS
 10
-2.093154
 20
4.178165
  0
VERTEX
  8
PLAN_1
 62
     2
  6
CONTINUOUS
 10
-2.093154
 20
4.169941
  0
SEQEND
  8
0
  0
POLYLINE
  8
PLAN_1
 62
     2
  6
CONTINUOUS
 66
     1
 40
0.003000
 41
0.003000
  0
VERTEX
  8
PLAN_1
 62
     2
  6
CONTINUOUS
 10
-2.093154
 20
4.161130
  0
VERTEX
  8
PLAN_1
 62
     2
  6
CONTINUOUS
 10
-2.093154
 20
4.152906
  0
SEQEND
  8
0
  0
POLYLINE
  8
PLAN_1
 62
     2
  6
CONTINUOUS
 66
     1
 40
0.003000
 41
0.003000
  0
VERTEX
  8
PLAN_1
 62
     2
  6
CONTINUOUS
 10
-2.093154
 20
4.144681
  0
VERTEX
  8
PLAN_1
 62
     2
  6
CONTINUOUS
 10
-2.093154
 20
4.136457
  0
SEQEND
  8
0
  0
POLYLINE
  8
PLAN_1
 62
     2
  6
CONTINUOUS
 66
     1
 40
0.003000
 41
0.003000
  0
VERTEX
  8
PLAN_1
 62
     2
  6
CONTINUOUS
 10
-2.093154
 20
4.128232
  0
VERTEX
  8
PLAN_1
 62
     2
  6
CONTINUOUS
 10
-2.093154
 20
4.120008
  0
SEQEND
  8
0
  0
POLYLINE
  8
PLAN_1
 62
     2
  6
CONTINUOUS
 66
     1
 40
0.003000
 41
0.003000
  0
VERTEX
  8
PLAN_1
 62
     2
  6
CONTINUOUS
 10
-2.093154
 20
4.111197
  0
VERTEX
  8
PLAN_1
 62
     2
  6
CONTINUOUS
 10
-2.093154
 20
4.102972
  0
SEQEND
  8
0
  0
POLYLINE
  8
PLAN_1
 62
     2
  6
CONTINUOUS
 66
     1
 40
0.003000
 41
0.003000
  0
VERTEX
  8
PLAN_1
 62
     2
  6
CONTINUOUS
 10
-2.093154
 20
4.094748
  0
VERTEX
  8
PLAN_1
 62
     2
  6
CONTINUOUS
 10
-2.093154
 20
4.086524
  0
SEQEND
  8
0
  0
POLYLINE
  8
PLAN_1
 62
     2
  6
CONTINUOUS
 66
     1
 40
0.003000
 41
0.003000
  0
VERTEX
  8
PLAN_1
 62
     2
  6
CONTINUOUS
 10
-2.093154
 20
4.078299
  0
VERTEX
  8
PLAN_1
 62
     2
  6
CONTINUOUS
 10
-2.093154
 20
4.070075
  0
SEQEND
  8
0
  0
POLYLINE
  8
PLAN_1
 62
     2
  6
CONTINUOUS
 66
     1
 40
0.003000
 41
0.003000
  0
VERTEX
  8
PLAN_1
 62
     2
  6
CONTINUOUS
 10
-2.093154
 20
4.061264
  0
VERTEX
  8
PLAN_1
 62
     2
  6
CONTINUOUS
 10
-2.093154
 20
4.053039
  0
SEQEND
  8
0
  0
POLYLINE
  8
PLAN_1
 62
     2
  6
CONTINUOUS
 66
     1
 40
0.003000
 41
0.003000
  0
VERTEX
  8
PLAN_1
 62
     2
  6
CONTINUOUS
 10
-2.093154
 20
4.044815
  0
VERTEX
  8
PLAN_1
 62
     2
  6
CONTINUOUS
 10
-2.093154
 20
4.036591
  0
SEQEND
  8
0
  0
POLYLINE
  8
PLAN_1
 62
     2
  6
CONTINUOUS
 66
     1
 40
0.003000
 41
0.003000
  0
VERTEX
  8
PLAN_1
 62
     2
  6
CONTINUOUS
 10
-2.093154
 20
4.028366
  0
VERTEX
  8
PLAN_1
 62
     2
  6
CONTINUOUS
 10
-2.093154
 20
4.019555
  0
SEQEND
  8
0
  0
POLYLINE
  8
PLAN_1
 62
     2
  6
CONTINUOUS
 66
     1
 40
0.003000
 41
0.003000
  0
VERTEX
  8
PLAN_1
 62
     2
  6
CONTINUOUS
 10
-2.093154
 20
4.011331
  0
VERTEX
  8
PLAN_1
 62
     2
  6
CONTINUOUS
 10
-2.093154
 20
4.003106
  0
SEQEND
  8
0
  0
POLYLINE
  8
PLAN_1
 62
     2
  6
CONTINUOUS
 66
     1
 40
0.003000
 41
0.003000
  0
VERTEX
  8
PLAN_1
 62
     2
  6
CONTINUOUS
 10
-2.093154
 20
3.994882
  0
VERTEX
  8
PLAN_1
 62
     2
  6
CONTINUOUS
 10
-2.093154
 20
3.986657
  0
SEQEND
  8
0
  0
POLYLINE
  8
PLAN_1
 62
     2
  6
CONTINUOUS
 66
     1
 40
0.003000
 41
0.003000
  0
VERTEX
  8
PLAN_1
 62
     2
  6
CONTINUOUS
 10
-2.093154
 20
3.978433
  0
VERTEX
  8
PLAN_1
 62
     2
  6
CONTINUOUS
 10
-2.093154
 20
3.969618
  0
SEQEND
  8
0
  0
POLYLINE
  8
PLAN_1
 62
     2
  6
CONTINUOUS
 66
     1
 40
0.003000
 41
0.003000
  0
VERTEX
  8
PLAN_1
 62
     2
  6
CONTINUOUS
 10
-2.093154
 20
3.961394
  0
VERTEX
  8
PLAN_1
 62
     2
  6
CONTINUOUS
 10
-2.093154
 20
3.953169
  0
SEQEND
  8
0
  0
POLYLINE
  8
PLAN_1
 62
     2
  6
CONTINUOUS
 66
     1
 40
0.003000
 41
0.003000
  0
VERTEX
  8
PLAN_1
 62
     2
  6
CONTINUOUS
 10
-2.093154
 20
3.944945
  0
VERTEX
  8
PLAN_1
 62
     2
  6
CONTINUOUS
 10
-2.093154
 20
3.936720
  0
SEQEND
  8
0
  0
POLYLINE
  8
PLAN_1
 62
     2
  6
CONTINUOUS
 66
     1
 40
0.003000
 41
0.003000
  0
VERTEX
  8
PLAN_1
 62
     2
  6
CONTINUOUS
 10
-2.093154
 20
3.927909
  0
VERTEX
  8
PLAN_1
 62
     2
  6
CONTINUOUS
 10
-2.093154
 20
3.919685
  0
SEQEND
  8
0
  0
POLYLINE
  8
PLAN_1
 62
     2
  6
CONTINUOUS
 66
     1
 40
0.003000
 41
0.003000
  0
VERTEX
  8
PLAN_1
 62
     2
  6
CONTINUOUS
 10
-2.093154
 20
3.911461
  0
VERTEX
  8
PLAN_1
 62
     2
  6
CONTINUOUS
 10
-2.093154
 20
3.903236
  0
SEQEND
  8
0
  0
POLYLINE
  8
PLAN_1
 62
     2
  6
CONTINUOUS
 66
     1
 40
0.003000
 41
0.003000
  0
VERTEX
  8
PLAN_1
 62
     2
  6
CONTINUOUS
 10
-2.093154
 20
3.895012
  0
VERTEX
  8
PLAN_1
 62
     2
  6
CONTINUOUS
 10
-2.093154
 20
3.886787
  0
SEQEND
  8
0
  0
POLYLINE
  8
PLAN_1
 62
     2
  6
CONTINUOUS
 66
     1
 40
0.003000
 41
0.003000
  0
VERTEX
  8
PLAN_1
 62
     2
  6
CONTINUOUS
 10
-2.093154
 20
3.877976
  0
VERTEX
  8
PLAN_1
 62
     2
  6
CONTINUOUS
 10
-2.093154
 20
3.869752
  0
SEQEND
  8
0
  0
POLYLINE
  8
PLAN_1
 62
     2
  6
CONTINUOUS
 66
     1
 40
0.003000
 41
0.003000
  0
VERTEX
  8
PLAN_1
 62
     2
  6
CONTINUOUS
 10
-2.093154
 20
3.861528
  0
VERTEX
  8
PLAN_1
 62
     2
  6
CONTINUOUS
 10
-2.093154
 20
3.853303
  0
SEQEND
  8
0
  0
POLYLINE
  8
PLAN_1
 62
     2
  6
CONTINUOUS
 66
     1
 40
0.003000
 41
0.003000
  0
VERTEX
  8
PLAN_1
 62
     2
  6
CONTINUOUS
 10
-2.093154
 20
3.845079
  0
VERTEX
  8
PLAN_1
 62
     2
  6
CONTINUOUS
 10
-2.093154
 20
3.836854
  0
SEQEND
  8
0
  0
POLYLINE
  8
PLAN_1
 62
     2
  6
CONTINUOUS
 66
     1
 40
0.003000
 41
0.003000
  0
VERTEX
  8
PLAN_1
 62
     2
  6
CONTINUOUS
 10
-2.093154
 20
3.828043
  0
VERTEX
  8
PLAN_1
 62
     2
  6
CONTINUOUS
 10
-2.093154
 20
3.819819
  0
SEQEND
  8
0
  0
POLYLINE
  8
PLAN_1
 62
     2
  6
CONTINUOUS
 66
     1
 40
0.003000
 41
0.003000
  0
VERTEX
  8
PLAN_1
 62
     2
  6
CONTINUOUS
 10
-2.093154
 20
3.811594
  0
VERTEX
  8
PLAN_1
 62
     2
  6
CONTINUOUS
 10
-2.093154
 20
3.803370
  0
SEQEND
  8
0
  0
POLYLINE
  8
PLAN_1
 62
     2
  6
CONTINUOUS
 66
     1
 40
0.003000
 41
0.003000
  0
VERTEX
  8
PLAN_1
 62
     2
  6
CONTINUOUS
 10
-2.093154
 20
3.795146
  0
VERTEX
  8
PLAN_1
 62
     2
  6
CONTINUOUS
 10
-2.093154
 20
3.786335
  0
SEQEND
  8
0
  0
POLYLINE
  8
PLAN_1
 62
     2
  6
CONTINUOUS
 66
     1
 40
0.003000
 41
0.003000
  0
VERTEX
  8
PLAN_1
 62
     2
  6
CONTINUOUS
 10
-2.093154
 20
3.778110
  0
VERTEX
  8
PLAN_1
 62
     2
  6
CONTINUOUS
 10
-2.093154
 20
3.769886
  0
SEQEND
  8
0
  0
POLYLINE
  8
PLAN_1
 62
     2
  6
CONTINUOUS
 66
     1
 40
0.003000
 41
0.003000
  0
VERTEX
  8
PLAN_1
 62
     2
  6
CONTINUOUS
 10
-2.093154
 20
3.761661
  0
VERTEX
  8
PLAN_1
 62
     2
  6
CONTINUOUS
 10
-2.093154
 20
3.753437
  0
SEQEND
  8
0
  0
POLYLINE
  8
PLAN_1
 62
     2
  6
CONTINUOUS
 66
     1
 40
0.003000
 41
0.003000
  0
VERTEX
  8
PLAN_1
 62
     2
  6
CONTINUOUS
 10
-2.093154
 20
3.745213
  0
VERTEX
  8
PLAN_1
 62
     2
  6
CONTINUOUS
 10
-2.093154
 20
3.736402
  0
SEQEND
  8
0
  0
POLYLINE
  8
PLAN_1
 62
     2
  6
CONTINUOUS
 66
     1
 40
0.003000
 41
0.003000
  0
VERTEX
  8
PLAN_1
 62
     2
  6
CONTINUOUS
 10
-2.093154
 20
3.728177
  0
VERTEX
  8
PLAN_1
 62
     2
  6
CONTINUOUS
 10
-2.093154
 20
3.719953
  0
SEQEND
  8
0
  0
POLYLINE
  8
PLAN_1
 62
     2
  6
CONTINUOUS
 66
     1
 40
0.003000
 41
0.003000
  0
VERTEX
  8
PLAN_1
 62
     2
  6
CONTINUOUS
 10
-2.093154
 20
3.711728
  0
VERTEX
  8
PLAN_1
 62
     2
  6
CONTINUOUS
 10
-2.093154
 20
3.703504
  0
SEQEND
  8
0
  0
POLYLINE
  8
PLAN_1
 62
     2
  6
CONTINUOUS
 66
     1
 40
0.003000
 41
0.003000
  0
VERTEX
  8
PLAN_1
 62
     2
  6
CONTINUOUS
 10
-2.093154
 20
3.694693
  0
VERTEX
  8
PLAN_1
 62
     2
  6
CONTINUOUS
 10
-2.093154
 20
3.686469
  0
SEQEND
  8
0
  0
POLYLINE
  8
PLAN_1
 62
     2
  6
CONTINUOUS
 66
     1
 40
0.003000
 41
0.003000
  0
VERTEX
  8
PLAN_1
 62
     2
  6
CONTINUOUS
 10
-2.093154
 20
3.678244
  0
VERTEX
  8
PLAN_1
 62
     2
  6
CONTINUOUS
 10
-2.093154
 20
3.670020
  0
SEQEND
  8
0
  0
POLYLINE
  8
PLAN_1
 62
     2
  6
CONTINUOUS
 66
     1
 40
0.003000
 41
0.003000
  0
VERTEX
  8
PLAN_1
 62
     2
  6
CONTINUOUS
 10
-2.093154
 20
3.661795
  0
VERTEX
  8
PLAN_1
 62
     2
  6
CONTINUOUS
 10
-2.093154
 20
3.653571
  0
SEQEND
  8
0
  0
POLYLINE
  8
PLAN_1
 62
     2
  6
CONTINUOUS
 66
     1
 40
0.003000
 41
0.003000
  0
VERTEX
  8
PLAN_1
 62
     2
  6
CONTINUOUS
 10
-2.093154
 20
3.644756
  0
VERTEX
  8
PLAN_1
 62
     2
  6
CONTINUOUS
 10
-2.093154
 20
3.636531
  0
SEQEND
  8
0
  0
POLYLINE
  8
PLAN_1
 62
     2
  6
CONTINUOUS
 66
     1
 40
0.003000
 41
0.003000
  0
VERTEX
  8
PLAN_1
 62
     2
  6
CONTINUOUS
 10
-2.093154
 20
3.628307
  0
VERTEX
  8
PLAN_1
 62
     2
  6
CONTINUOUS
 10
-2.093154
 20
3.620083
  0
SEQEND
  8
0
  0
POLYLINE
  8
PLAN_1
 62
     2
  6
CONTINUOUS
 66
     1
 40
0.003000
 41
0.003000
  0
VERTEX
  8
PLAN_1
 62
     2
  6
CONTINUOUS
 10
-2.093154
 20
3.611858
  0
VERTEX
  8
PLAN_1
 62
     2
  6
CONTINUOUS
 10
-2.093154
 20
3.603638
  0
SEQEND
  8
0
  0
POLYLINE
  8
PLAN_1
 62
     2
  6
CONTINUOUS
 66
     1
 40
0.003000
 41
0.003000
  0
VERTEX
  8
PLAN_1
 62
     2
  6
CONTINUOUS
 10
-2.093154
 20
3.594823
  0
VERTEX
  8
PLAN_1
 62
     2
  6
CONTINUOUS
 10
-2.093154
 20
3.586598
  0
SEQEND
  8
0
  0
POLYLINE
  8
PLAN_1
 62
     2
  6
CONTINUOUS
 66
     1
 40
0.003000
 41
0.003000
  0
VERTEX
  8
PLAN_1
 62
     2
  6
CONTINUOUS
 10
-2.093154
 20
3.578374
  0
VERTEX
  8
PLAN_1
 62
     2
  6
CONTINUOUS
 10
-2.093154
 20
3.570150
  0
SEQEND
  8
0
  0
POLYLINE
  8
PLAN_1
 62
     2
  6
CONTINUOUS
 66
     1
 40
0.003000
 41
0.003000
  0
VERTEX
  8
PLAN_1
 62
     2
  6
CONTINUOUS
 10
-2.093154
 20
3.561925
  0
VERTEX
  8
PLAN_1
 62
     2
  6
CONTINUOUS
 10
-2.093154
 20
3.553114
  0
SEQEND
  8
0
  0
POLYLINE
  8
PLAN_1
 62
     2
  6
CONTINUOUS
 66
     1
 40
0.003000
 41
0.003000
  0
VERTEX
  8
PLAN_1
 62
     2
  6
CONTINUOUS
 10
-2.093154
 20
3.544890
  0
VERTEX
  8
PLAN_1
 62
     2
  6
CONTINUOUS
 10
-2.093154
 20
3.536665
  0
SEQEND
  8
0
  0
POLYLINE
  8
PLAN_1
 62
     2
  6
CONTINUOUS
 66
     1
 40
0.003000
 41
0.003000
  0
VERTEX
  8
PLAN_1
 62
     2
  6
CONTINUOUS
 10
-2.093154
 20
3.528441
  0
VERTEX
  8
PLAN_1
 62
     2
  6
CONTINUOUS
 10
-2.093154
 20
3.520217
  0
SEQEND
  8
0
  0
POLYLINE
  8
PLAN_1
 62
     2
  6
CONTINUOUS
 66
     1
 40
0.003000
 41
0.003000
  0
VERTEX
  8
PLAN_1
 62
     2
  6
CONTINUOUS
 10
-2.093154
 20
3.511992
  0
VERTEX
  8
PLAN_1
 62
     2
  6
CONTINUOUS
 10
-2.093154
 20
3.503181
  0
SEQEND
  8
0
  0
POLYLINE
  8
PLAN_1
 62
     2
  6
CONTINUOUS
 66
     1
 40
0.003000
 41
0.003000
  0
VERTEX
  8
PLAN_1
 62
     2
  6
CONTINUOUS
 10
-2.093154
 20
3.494957
  0
VERTEX
  8
PLAN_1
 62
     2
  6
CONTINUOUS
 10
-2.093154
 20
3.486732
  0
SEQEND
  8
0
  0
POLYLINE
  8
PLAN_1
 62
     2
  6
CONTINUOUS
 66
     1
 40
0.003000
 41
0.003000
  0
VERTEX
  8
PLAN_1
 62
     2
  6
CONTINUOUS
 10
-2.093154
 20
3.478508
  0
VERTEX
  8
PLAN_1
 62
     2
  6
CONTINUOUS
 10
-2.093154
 20
3.470283
  0
SEQEND
  8
0
  0
POLYLINE
  8
PLAN_1
 62
     2
  6
CONTINUOUS
 66
     1
 40
0.003000
 41
0.003000
  0
VERTEX
  8
PLAN_1
 62
     2
  6
CONTINUOUS
 10
-2.093154
 20
3.461472
  0
VERTEX
  8
PLAN_1
 62
     2
  6
CONTINUOUS
 10
-2.093154
 20
3.453248
  0
SEQEND
  8
0
  0
POLYLINE
  8
PLAN_1
 62
     2
  6
CONTINUOUS
 66
     1
 40
0.003000
 41
0.003000
  0
VERTEX
  8
PLAN_1
 62
     2
  6
CONTINUOUS
 10
-2.093154
 20
3.445024
  0
VERTEX
  8
PLAN_1
 62
     2
  6
CONTINUOUS
 10
-2.093154
 20
3.436799
  0
SEQEND
  8
0
  0
POLYLINE
  8
PLAN_1
 62
     2
  6
CONTINUOUS
 66
     1
 40
0.003000
 41
0.003000
  0
VERTEX
  8
PLAN_1
 62
     2
  6
CONTINUOUS
 10
-2.093154
 20
3.428575
  0
VERTEX
  8
PLAN_1
 62
     2
  6
CONTINUOUS
 10
-2.093154
 20
3.420350
  0
SEQEND
  8
0
  0
POLYLINE
  8
PLAN_1
 62
     2
  6
CONTINUOUS
 66
     1
 40
0.003000
 41
0.003000
  0
VERTEX
  8
PLAN_1
 62
     2
  6
CONTINUOUS
 10
-2.093154
 20
3.411539
  0
VERTEX
  8
PLAN_1
 62
     2
  6
CONTINUOUS
 10
-2.093154
 20
3.403315
  0
SEQEND
  8
0
  0
POLYLINE
  8
PLAN_1
 62
     2
  6
CONTINUOUS
 66
     1
 40
0.003000
 41
0.003000
  0
VERTEX
  8
PLAN_1
 62
     2
  6
CONTINUOUS
 10
-2.093154
 20
3.395091
  0
VERTEX
  8
PLAN_1
 62
     2
  6
CONTINUOUS
 10
-2.093154
 20
3.386866
  0
SEQEND
  8
0
  0
POLYLINE
  8
PLAN_1
 62
     2
  6
CONTINUOUS
 66
     1
 40
0.003000
 41
0.003000
  0
VERTEX
  8
PLAN_1
 62
     2
  6
CONTINUOUS
 10
-2.093154
 20
3.378642
  0
VERTEX
  8
PLAN_1
 62
     2
  6
CONTINUOUS
 10
-2.093154
 20
3.370417
  0
SEQEND
  8
0
  0
POLYLINE
  8
PLAN_1
 62
     2
  6
CONTINUOUS
 66
     1
 40
0.003000
 41
0.003000
  0
VERTEX
  8
PLAN_1
 62
     2
  6
CONTINUOUS
 10
-2.093154
 20
3.361606
  0
VERTEX
  8
PLAN_1
 62
     2
  6
CONTINUOUS
 10
-2.093154
 20
3.353382
  0
SEQEND
  8
0
  0
POLYLINE
  8
PLAN_1
 62
     2
  6
CONTINUOUS
 66
     1
 40
0.003000
 41
0.003000
  0
VERTEX
  8
PLAN_1
 62
     2
  6
CONTINUOUS
 10
-2.093154
 20
3.345157
  0
VERTEX
  8
PLAN_1
 62
     2
  6
CONTINUOUS
 10
-2.093154
 20
3.336933
  0
SEQEND
  8
0
  0
POLYLINE
  8
PLAN_1
 62
     2
  6
CONTINUOUS
 66
     1
 40
0.003000
 41
0.003000
  0
VERTEX
  8
PLAN_1
 62
     2
  6
CONTINUOUS
 10
-2.093154
 20
3.328709
  0
VERTEX
  8
PLAN_1
 62
     2
  6
CONTINUOUS
 10
-2.093154
 20
3.319894
  0
SEQEND
  8
0
  0
POLYLINE
  8
PLAN_1
 62
     2
  6
CONTINUOUS
 66
     1
 40
0.003000
 41
0.003000
  0
VERTEX
  8
PLAN_1
 62
     2
  6
CONTINUOUS
 10
-2.093154
 20
3.311669
  0
VERTEX
  8
PLAN_1
 62
     2
  6
CONTINUOUS
 10
-2.093154
 20
3.303445
  0
SEQEND
  8
0
  0
POLYLINE
  8
PLAN_1
 62
     2
  6
CONTINUOUS
 66
     1
 40
0.003000
 41
0.003000
  0
VERTEX
  8
PLAN_1
 62
     2
  6
CONTINUOUS
 10
-2.093154
 20
3.295224
  0
VERTEX
  8
PLAN_1
 62
     2
  6
CONTINUOUS
 10
-2.093154
 20
3.287000
  0
SEQEND
  8
0
  0
POLYLINE
  8
PLAN_1
 62
     2
  6
CONTINUOUS
 66
     1
 40
0.003000
 41
0.003000
  0
VERTEX
  8
PLAN_1
 62
     2
  6
CONTINUOUS
 10
-2.093154
 20
3.278776
  0
VERTEX
  8
PLAN_1
 62
     2
  6
CONTINUOUS
 10
-2.093154
 20
3.269961
  0
SEQEND
  8
0
  0
POLYLINE
  8
PLAN_1
 62
     2
  6
CONTINUOUS
 66
     1
 40
0.003000
 41
0.003000
  0
VERTEX
  8
PLAN_1
 62
     2
  6
CONTINUOUS
 10
-2.093154
 20
3.261736
  0
VERTEX
  8
PLAN_1
 62
     2
  6
CONTINUOUS
 10
-2.093154
 20
3.253512
  0
SEQEND
  8
0
  0
POLYLINE
  8
PLAN_1
 62
     2
  6
CONTINUOUS
 66
     1
 40
0.003000
 41
0.003000
  0
VERTEX
  8
PLAN_1
 62
     2
  6
CONTINUOUS
 10
-2.093154
 20
3.245287
  0
VERTEX
  8
PLAN_1
 62
     2
  6
CONTINUOUS
 10
-2.093154
 20
3.237063
  0
SEQEND
  8
0
  0
POLYLINE
  8
PLAN_1
 62
     2
  6
CONTINUOUS
 66
     1
 40
0.003000
 41
0.003000
  0
VERTEX
  8
PLAN_1
 62
     2
  6
CONTINUOUS
 10
-2.093154
 20
3.228252
  0
VERTEX
  8
PLAN_1
 62
     2
  6
CONTINUOUS
 10
-2.093154
 20
3.220028
  0
SEQEND
  8
0
  0
POLYLINE
  8
PLAN_1
 62
     2
  6
CONTINUOUS
 66
     1
 40
0.003000
 41
0.003000
  0
VERTEX
  8
PLAN_1
 62
     2
  6
CONTINUOUS
 10
-2.093154
 20
3.211803
  0
VERTEX
  8
PLAN_1
 62
     2
  6
CONTINUOUS
 10
-2.093154
 20
3.203579
  0
SEQEND
  8
0
  0
POLYLINE
  8
PLAN_1
 62
     2
  6
CONTINUOUS
 66
     1
 40
0.003000
 41
0.003000
  0
VERTEX
  8
PLAN_1
 62
     2
  6
CONTINUOUS
 10
-2.093154
 20
3.195354
  0
VERTEX
  8
PLAN_1
 62
     2
  6
CONTINUOUS
 10
-2.093154
 20
3.187130
  0
SEQEND
  8
0
  0
POLYLINE
  8
PLAN_1
 62
     2
  6
CONTINUOUS
 66
     1
 40
0.003000
 41
0.003000
  0
VERTEX
  8
PLAN_1
 62
     2
  6
CONTINUOUS
 10
-2.093154
 20
3.178319
  0
VERTEX
  8
PLAN_1
 62
     2
  6
CONTINUOUS
 10
-2.093154
 20
3.170094
  0
SEQEND
  8
0
  0
POLYLINE
  8
PLAN_1
 62
     2
  6
CONTINUOUS
 66
     1
 40
0.003000
 41
0.003000
  0
VERTEX
  8
PLAN_1
 62
     2
  6
CONTINUOUS
 10
-2.093154
 20
3.161870
  0
VERTEX
  8
PLAN_1
 62
     2
  6
CONTINUOUS
 10
-2.093154
 20
3.153646
  0
SEQEND
  8
0
  0
POLYLINE
  8
PLAN_1
 62
     2
  6
CONTINUOUS
 66
     1
 40
0.003000
 41
0.003000
  0
VERTEX
  8
PLAN_1
 62
     2
  6
CONTINUOUS
 10
-2.093154
 20
3.145421
  0
VERTEX
  8
PLAN_1
 62
     2
  6
CONTINUOUS
 10
-2.093154
 20
3.137197
  0
SEQEND
  8
0
  0
POLYLINE
  8
PLAN_1
 62
     2
  6
CONTINUOUS
 66
     1
 40
0.003000
 41
0.003000
  0
VERTEX
  8
PLAN_1
 62
     2
  6
CONTINUOUS
 10
-2.093154
 20
3.128386
  0
VERTEX
  8
PLAN_1
 62
     2
  6
CONTINUOUS
 10
-2.093154
 20
3.120161
  0
SEQEND
  8
0
  0
POLYLINE
  8
PLAN_1
 62
     2
  6
CONTINUOUS
 66
     1
 40
0.003000
 41
0.003000
  0
VERTEX
  8
PLAN_1
 62
     2
  6
CONTINUOUS
 10
-2.093154
 20
3.111937
  0
VERTEX
  8
PLAN_1
 62
     2
  6
CONTINUOUS
 10
-2.093154
 20
3.103713
  0
SEQEND
  8
0
  0
POLYLINE
  8
PLAN_1
 62
     2
  6
CONTINUOUS
 66
     1
 40
0.003000
 41
0.003000
  0
VERTEX
  8
PLAN_1
 62
     2
  6
CONTINUOUS
 10
-2.093154
 20
3.095488
  0
VERTEX
  8
PLAN_1
 62
     2
  6
CONTINUOUS
 10
-2.093154
 20
3.086677
  0
SEQEND
  8
0
  0
POLYLINE
  8
PLAN_1
 62
     2
  6
CONTINUOUS
 66
     1
 40
0.003000
 41
0.003000
  0
VERTEX
  8
PLAN_1
 62
     2
  6
CONTINUOUS
 10
-2.093154
 20
3.078453
  0
VERTEX
  8
PLAN_1
 62
     2
  6
CONTINUOUS
 10
-2.093154
 20
3.070228
  0
SEQEND
  8
0
  0
POLYLINE
  8
PLAN_1
 62
     2
  6
CONTINUOUS
 66
     1
 40
0.003000
 41
0.003000
  0
VERTEX
  8
PLAN_1
 62
     2
  6
CONTINUOUS
 10
-2.093154
 20
3.062004
  0
VERTEX
  8
PLAN_1
 62
     2
  6
CONTINUOUS
 10
-2.093154
 20
3.053780
  0
SEQEND
  8
0
  0
POLYLINE
  8
PLAN_1
 62
     2
  6
CONTINUOUS
 66
     1
 40
0.003000
 41
0.003000
  0
VERTEX
  8
PLAN_1
 62
     2
  6
CONTINUOUS
 10
-2.093154
 20
3.045555
  0
VERTEX
  8
PLAN_1
 62
     2
  6
CONTINUOUS
 10
-2.093154
 20
3.036744
  0
SEQEND
  8
0
  0
POLYLINE
  8
PLAN_1
 62
     2
  6
CONTINUOUS
 66
     1
 40
0.003000
 41
0.003000
  0
VERTEX
  8
PLAN_1
 62
     2
  6
CONTINUOUS
 10
-2.093154
 20
3.028520
  0
VERTEX
  8
PLAN_1
 62
     2
  6
CONTINUOUS
 10
-2.093154
 20
3.020295
  0
SEQEND
  8
0
  0
POLYLINE
  8
PLAN_1
 62
     2
  6
CONTINUOUS
 66
     1
 40
0.003000
 41
0.003000
  0
VERTEX
  8
PLAN_1
 62
     2
  6
CONTINUOUS
 10
-2.093154
 20
3.012071
  0
VERTEX
  8
PLAN_1
 62
     2
  6
CONTINUOUS
 10
-2.093154
 20
3.003846
  0
SEQEND
  8
0
  0
POLYLINE
  8
PLAN_1
 62
     2
  6
CONTINUOUS
 66
     1
 40
0.003000
 41
0.003000
  0
VERTEX
  8
PLAN_1
 62
     2
  6
CONTINUOUS
 10
-2.093154
 20
2.995031
  0
VERTEX
  8
PLAN_1
 62
     2
  6
CONTINUOUS
 10
-2.093154
 20
2.986811
  0
SEQEND
  8
0
  0
POLYLINE
  8
PLAN_1
 62
     2
  6
CONTINUOUS
 66
     1
 40
0.003000
 41
0.003000
  0
VERTEX
  8
PLAN_1
 62
     2
  6
CONTINUOUS
 10
-2.093154
 20
2.978587
  0
VERTEX
  8
PLAN_1
 62
     2
  6
CONTINUOUS
 10
-2.093154
 20
2.970362
  0
SEQEND
  8
0
  0
POLYLINE
  8
PLAN_1
 62
     2
  6
CONTINUOUS
 66
     1
 40
0.003000
 41
0.003000
  0
VERTEX
  8
PLAN_1
 62
     2
  6
CONTINUOUS
 10
-2.093154
 20
2.962138
  0
VERTEX
  8
PLAN_1
 62
     2
  6
CONTINUOUS
 10
-2.093154
 20
2.953913
  0
SEQEND
  8
0
  0
POLYLINE
  8
PLAN_1
 62
     2
  6
CONTINUOUS
 66
     1
 40
0.003000
 41
0.003000
  0
VERTEX
  8
PLAN_1
 62
     2
  6
CONTINUOUS
 10
-2.093154
 20
2.945098
  0
VERTEX
  8
PLAN_1
 62
     2
  6
CONTINUOUS
 10
-2.093154
 20
2.936874
  0
SEQEND
  8
0
  0
POLYLINE
  8
PLAN_1
 62
     2
  6
CONTINUOUS
 66
     1
 40
0.003000
 41
0.003000
  0
VERTEX
  8
PLAN_1
 62
     2
  6
CONTINUOUS
 10
-2.093154
 20
2.928650
  0
VERTEX
  8
PLAN_1
 62
     2
  6
CONTINUOUS
 10
-2.093154
 20
2.920425
  0
SEQEND
  8
0
  0
POLYLINE
  8
PLAN_1
 62
     2
  6
CONTINUOUS
 66
     1
 40
0.003000
 41
0.003000
  0
VERTEX
  8
PLAN_1
 62
     2
  6
CONTINUOUS
 10
-2.093154
 20
2.912201
  0
VERTEX
  8
PLAN_1
 62
     2
  6
CONTINUOUS
 10
-2.093154
 20
2.903976
  0
SEQEND
  8
0
  0
POLYLINE
  8
PLAN_1
 62
     2
  6
CONTINUOUS
 66
     1
 40
0.003000
 41
0.003000
  0
VERTEX
  8
PLAN_1
 62
     2
  6
CONTINUOUS
 10
-2.093154
 20
2.895165
  0
VERTEX
  8
PLAN_1
 62
     2
  6
CONTINUOUS
 10
-2.093154
 20
2.886941
  0
SEQEND
  8
0
  0
POLYLINE
  8
PLAN_1
 62
     2
  6
CONTINUOUS
 66
     1
 40
0.003000
 41
0.003000
  0
VERTEX
  8
PLAN_1
 62
     2
  6
CONTINUOUS
 10
-2.093154
 20
2.878717
  0
VERTEX
  8
PLAN_1
 62
     2
  6
CONTINUOUS
 10
-2.093154
 20
2.870492
  0
SEQEND
  8
0
  0
POLYLINE
  8
PLAN_1
 62
     2
  6
CONTINUOUS
 66
     1
 40
0.003000
 41
0.003000
  0
VERTEX
  8
PLAN_1
 62
     2
  6
CONTINUOUS
 10
-2.093154
 20
2.862268
  0
VERTEX
  8
PLAN_1
 62
     2
  6
CONTINUOUS
 10
-2.093154
 20
2.853457
  0
SEQEND
  8
0
  0
POLYLINE
  8
PLAN_1
 62
     2
  6
CONTINUOUS
 66
     1
 40
0.003000
 41
0.003000
  0
VERTEX
  8
PLAN_1
 62
     2
  6
CONTINUOUS
 10
-2.093154
 20
2.845232
  0
VERTEX
  8
PLAN_1
 62
     2
  6
CONTINUOUS
 10
-2.093154
 20
2.837008
  0
SEQEND
  8
0
  0
POLYLINE
  8
PLAN_1
 62
     2
  6
CONTINUOUS
 66
     1
 40
0.003000
 41
0.003000
  0
VERTEX
  8
PLAN_1
 62
     2
  6
CONTINUOUS
 10
-2.093154
 20
2.828783
  0
VERTEX
  8
PLAN_1
 62
     2
  6
CONTINUOUS
 10
-2.093154
 20
2.820559
  0
SEQEND
  8
0
  0
POLYLINE
  8
PLAN_1
 62
     2
  6
CONTINUOUS
 66
     1
 40
0.003000
 41
0.003000
  0
VERTEX
  8
PLAN_1
 62
     2
  6
CONTINUOUS
 10
-2.093154
 20
2.812335
  0
VERTEX
  8
PLAN_1
 62
     2
  6
CONTINUOUS
 10
-2.093154
 20
2.803524
  0
SEQEND
  8
0
  0
POLYLINE
  8
PLAN_1
 62
     2
  6
CONTINUOUS
 66
     1
 40
0.003000
 41
0.003000
  0
VERTEX
  8
PLAN_1
 62
     2
  6
CONTINUOUS
 10
-2.093154
 20
2.795299
  0
VERTEX
  8
PLAN_1
 62
     2
  6
CONTINUOUS
 10
-2.093154
 20
2.787075
  0
SEQEND
  8
0
  0
POLYLINE
  8
PLAN_1
 62
     2
  6
CONTINUOUS
 66
     1
 40
0.003000
 41
0.003000
  0
VERTEX
  8
PLAN_1
 62
     2
  6
CONTINUOUS
 10
-2.093154
 20
2.778850
  0
VERTEX
  8
PLAN_1
 62
     2
  6
CONTINUOUS
 10
-2.093154
 20
2.770626
  0
SEQEND
  8
0
  0
POLYLINE
  8
PLAN_1
 62
     2
  6
CONTINUOUS
 66
     1
 40
0.003000
 41
0.003000
  0
VERTEX
  8
PLAN_1
 62
     2
  6
CONTINUOUS
 10
-2.093154
 20
2.761815
  0
VERTEX
  8
PLAN_1
 62
     2
  6
CONTINUOUS
 10
-2.093154
 20
2.753591
  0
SEQEND
  8
0
  0
POLYLINE
  8
PLAN_1
 62
     2
  6
CONTINUOUS
 66
     1
 40
0.003000
 41
0.003000
  0
VERTEX
  8
PLAN_1
 62
     2
  6
CONTINUOUS
 10
-2.093154
 20
2.745366
  0
VERTEX
  8
PLAN_1
 62
     2
  6
CONTINUOUS
 10
-2.093154
 20
2.737142
  0
SEQEND
  8
0
  0
POLYLINE
  8
PLAN_1
 62
     2
  6
CONTINUOUS
 66
     1
 40
0.003000
 41
0.003000
  0
VERTEX
  8
PLAN_1
 62
     2
  6
CONTINUOUS
 10
-2.093154
 20
2.728917
  0
VERTEX
  8
PLAN_1
 62
     2
  6
CONTINUOUS
 10
-2.093154
 20
2.720693
  0
SEQEND
  8
0
  0
POLYLINE
  8
PLAN_1
 62
     2
  6
CONTINUOUS
 66
     1
 40
0.003000
 41
0.003000
  0
VERTEX
  8
PLAN_1
 62
     2
  6
CONTINUOUS
 10
-2.093154
 20
2.711882
  0
VERTEX
  8
PLAN_1
 62
     2
  6
CONTINUOUS
 10
-2.093154
 20
2.703657
  0
SEQEND
  8
0
  0
POLYLINE
  8
PLAN_1
 62
     2
  6
CONTINUOUS
 66
     1
 40
0.003000
 41
0.003000
  0
VERTEX
  8
PLAN_1
 62
     2
  6
CONTINUOUS
 10
-2.093154
 20
2.695433
  0
VERTEX
  8
PLAN_1
 62
     2
  6
CONTINUOUS
 10
-2.093154
 20
2.687209
  0
SEQEND
  8
0
  0
POLYLINE
  8
PLAN_1
 62
     2
  6
CONTINUOUS
 66
     1
 40
0.003000
 41
0.003000
  0
VERTEX
  8
PLAN_1
 62
     2
  6
CONTINUOUS
 10
-2.093154
 20
2.678984
  0
VERTEX
  8
PLAN_1
 62
     2
  6
CONTINUOUS
 10
-2.093154
 20
2.670760
  0
SEQEND
  8
0
  0
POLYLINE
  8
PLAN_1
 62
     2
  6
CONTINUOUS
 66
     1
 40
0.003000
 41
0.003000
  0
VERTEX
  8
PLAN_1
 62
     2
  6
CONTINUOUS
 10
-2.093154
 20
2.661949
  0
VERTEX
  8
PLAN_1
 62
     2
  6
CONTINUOUS
 10
-2.093154
 20
2.653724
  0
SEQEND
  8
0
  0
POLYLINE
  8
PLAN_1
 62
     2
  6
CONTINUOUS
 66
     1
 40
0.003000
 41
0.003000
  0
VERTEX
  8
PLAN_1
 62
     2
  6
CONTINUOUS
 10
-2.093154
 20
2.645500
  0
VERTEX
  8
PLAN_1
 62
     2
  6
CONTINUOUS
 10
-2.093154
 20
2.637276
  0
SEQEND
  8
0
  0
POLYLINE
  8
PLAN_1
 62
     2
  6
CONTINUOUS
 66
     1
 40
0.003000
 41
0.003000
  0
VERTEX
  8
PLAN_1
 62
     2
  6
CONTINUOUS
 10
-2.093154
 20
2.629051
  0
VERTEX
  8
PLAN_1
 62
     2
  6
CONTINUOUS
 10
-2.093154
 20
2.620236
  0
SEQEND
  8
0
  0
POLYLINE
  8
PLAN_1
 62
     2
  6
CONTINUOUS
 66
     1
 40
0.003000
 41
0.003000
  0
VERTEX
  8
PLAN_1
 62
     2
  6
CONTINUOUS
 10
-2.093154
 20
2.612012
  0
VERTEX
  8
PLAN_1
 62
     2
  6
CONTINUOUS
 10
-2.093154
 20
2.603787
  0
SEQEND
  8
0
  0
POLYLINE
  8
PLAN_1
 62
     2
  6
CONTINUOUS
 66
     1
 40
0.003000
 41
0.003000
  0
VERTEX
  8
PLAN_1
 62
     2
  6
CONTINUOUS
 10
-2.093154
 20
2.595563
  0
VERTEX
  8
PLAN_1
 62
     2
  6
CONTINUOUS
 10
-2.093154
 20
2.587339
  0
SEQEND
  8
0
  0
POLYLINE
  8
PLAN_1
 62
     2
  6
CONTINUOUS
 66
     1
 40
0.003000
 41
0.003000
  0
VERTEX
  8
PLAN_1
 62
     2
  6
CONTINUOUS
 10
-2.093154
 20
2.579114
  0
VERTEX
  8
PLAN_1
 62
     2
  6
CONTINUOUS
 10
-2.093154
 20
2.570303
  0
SEQEND
  8
0
  0
POLYLINE
  8
PLAN_1
 62
     2
  6
CONTINUOUS
 66
     1
 40
0.003000
 41
0.003000
  0
VERTEX
  8
PLAN_1
 62
     2
  6
CONTINUOUS
 10
-2.093154
 20
2.562079
  0
VERTEX
  8
PLAN_1
 62
     2
  6
CONTINUOUS
 10
-2.093154
 20
2.553854
  0
SEQEND
  8
0
  0
POLYLINE
  8
PLAN_1
 62
     2
  6
CONTINUOUS
 66
     1
 40
0.003000
 41
0.003000
  0
VERTEX
  8
PLAN_1
 62
     2
  6
CONTINUOUS
 10
-2.093154
 20
2.545630
  0
VERTEX
  8
PLAN_1
 62
     2
  6
CONTINUOUS
 10
-2.093154
 20
2.537406
  0
SEQEND
  8
0
  0
POLYLINE
  8
PLAN_1
 62
     2
  6
CONTINUOUS
 66
     1
 40
0.003000
 41
0.003000
  0
VERTEX
  8
PLAN_1
 62
     2
  6
CONTINUOUS
 10
-2.093154
 20
2.528594
  0
VERTEX
  8
PLAN_1
 62
     2
  6
CONTINUOUS
 10
-2.093154
 20
2.520370
  0
SEQEND
  8
0
  0
POLYLINE
  8
PLAN_1
 62
     2
  6
CONTINUOUS
 66
     1
 40
0.003000
 41
0.003000
  0
VERTEX
  8
PLAN_1
 62
     2
  6
CONTINUOUS
 10
-2.093154
 20
2.512146
  0
VERTEX
  8
PLAN_1
 62
     2
  6
CONTINUOUS
 10
-2.093154
 20
2.503921
  0
SEQEND
  8
0
  0
POLYLINE
  8
PLAN_1
 62
     2
  6
CONTINUOUS
 66
     1
 40
0.003000
 41
0.003000
  0
VERTEX
  8
PLAN_1
 62
     2
  6
CONTINUOUS
 10
-2.093154
 20
2.495697
  0
VERTEX
  8
PLAN_1
 62
     2
  6
CONTINUOUS
 10
-2.093154
 20
2.487472
  0
SEQEND
  8
0
  0
POLYLINE
  8
PLAN_1
 62
     2
  6
CONTINUOUS
 66
     1
 40
0.003000
 41
0.003000
  0
VERTEX
  8
PLAN_1
 62
     2
  6
CONTINUOUS
 10
-2.093154
 20
2.478661
  0
VERTEX
  8
PLAN_1
 62
     2
  6
CONTINUOUS
 10
-2.093154
 20
2.470437
  0
SEQEND
  8
0
  0
POLYLINE
  8
PLAN_1
 62
     2
  6
CONTINUOUS
 66
     1
 40
0.003000
 41
0.003000
  0
VERTEX
  8
PLAN_1
 62
     2
  6
CONTINUOUS
 10
-2.093154
 20
2.462213
  0
VERTEX
  8
PLAN_1
 62
     2
  6
CONTINUOUS
 10
-2.093154
 20
2.453988
  0
SEQEND
  8
0
  0
POLYLINE
  8
PLAN_1
 62
     2
  6
CONTINUOUS
 66
     1
 40
0.003000
 41
0.003000
  0
VERTEX
  8
PLAN_1
 62
     2
  6
CONTINUOUS
 10
-2.093154
 20
2.445764
  0
VERTEX
  8
PLAN_1
 62
     2
  6
CONTINUOUS
 10
-2.093154
 20
2.437539
  0
SEQEND
  8
0
  0
POLYLINE
  8
PLAN_1
 62
     2
  6
CONTINUOUS
 66
     1
 40
0.003000
 41
0.003000
  0
VERTEX
  8
PLAN_1
 62
     2
  6
CONTINUOUS
 10
-2.093154
 20
2.428728
  0
VERTEX
  8
PLAN_1
 62
     2
  6
CONTINUOUS
 10
-2.093154
 20
2.420504
  0
SEQEND
  8
0
  0
POLYLINE
  8
PLAN_1
 62
     2
  6
CONTINUOUS
 66
     1
 40
0.003000
 41
0.003000
  0
VERTEX
  8
PLAN_1
 62
     2
  6
CONTINUOUS
 10
-2.093154
 20
2.412280
  0
VERTEX
  8
PLAN_1
 62
     2
  6
CONTINUOUS
 10
-2.093154
 20
2.404055
  0
SEQEND
  8
0
  0
POLYLINE
  8
PLAN_1
 62
     2
  6
CONTINUOUS
 66
     1
 40
0.003000
 41
0.003000
  0
VERTEX
  8
PLAN_1
 62
     2
  6
CONTINUOUS
 10
-2.093154
 20
2.395831
  0
VERTEX
  8
PLAN_1
 62
     2
  6
CONTINUOUS
 10
-2.093154
 20
2.387020
  0
SEQEND
  8
0
  0
POLYLINE
  8
PLAN_1
 62
     2
  6
CONTINUOUS
 66
     1
 40
0.003000
 41
0.003000
  0
VERTEX
  8
PLAN_1
 62
     2
  6
CONTINUOUS
 10
-2.093154
 20
2.378795
  0
VERTEX
  8
PLAN_1
 62
     2
  6
CONTINUOUS
 10
-2.093154
 20
2.370571
  0
SEQEND
  8
0
  0
POLYLINE
  8
PLAN_1
 62
     2
  6
CONTINUOUS
 66
     1
 40
0.003000
 41
0.003000
  0
VERTEX
  8
PLAN_1
 62
     2
  6
CONTINUOUS
 10
-2.093154
 20
2.362346
  0
VERTEX
  8
PLAN_1
 62
     2
  6
CONTINUOUS
 10
-2.093154
 20
2.354122
  0
SEQEND
  8
0
  0
POLYLINE
  8
PLAN_1
 62
     2
  6
CONTINUOUS
 66
     1
 40
0.003000
 41
0.003000
  0
VERTEX
  8
PLAN_1
 62
     2
  6
CONTINUOUS
 10
-2.093154
 20
2.345898
  0
VERTEX
  8
PLAN_1
 62
     2
  6
CONTINUOUS
 10
-2.093154
 20
2.337087
  0
SEQEND
  8
0
  0
POLYLINE
  8
PLAN_1
 62
     2
  6
CONTINUOUS
 66
     1
 40
0.003000
 41
0.003000
  0
VERTEX
  8
PLAN_1
 62
     2
  6
CONTINUOUS
 10
-2.093154
 20
2.328862
  0
VERTEX
  8
PLAN_1
 62
     2
  6
CONTINUOUS
 10
-2.093154
 20
2.320638
  0
SEQEND
  8
0
  0
POLYLINE
  8
PLAN_1
 62
     2
  6
CONTINUOUS
 66
     1
 40
0.003000
 41
0.003000
  0
VERTEX
  8
PLAN_1
 62
     2
  6
CONTINUOUS
 10
-2.093154
 20
2.312413
  0
VERTEX
  8
PLAN_1
 62
     2
  6
CONTINUOUS
 10
-2.093154
 20
2.304189
  0
SEQEND
  8
0
  0
POLYLINE
  8
PLAN_1
 62
     2
  6
CONTINUOUS
 66
     1
 40
0.003000
 41
0.003000
  0
VERTEX
  8
PLAN_1
 62
     2
  6
CONTINUOUS
 10
-2.093154
 20
2.295374
  0
VERTEX
  8
PLAN_1
 62
     2
  6
CONTINUOUS
 10
-2.093154
 20
2.287150
  0
SEQEND
  8
0
  0
POLYLINE
  8
PLAN_1
 62
     2
  6
CONTINUOUS
 66
     1
 40
0.003000
 41
0.003000
  0
VERTEX
  8
PLAN_1
 62
     2
  6
CONTINUOUS
 10
-2.093154
 20
2.278925
  0
VERTEX
  8
PLAN_1
 62
     2
  6
CONTINUOUS
 10
-2.093154
 20
2.270701
  0
SEQEND
  8
0
  0
POLYLINE
  8
PLAN_1
 62
     2
  6
CONTINUOUS
 66
     1
 40
0.003000
 41
0.003000
  0
VERTEX
  8
PLAN_1
 62
     2
  6
CONTINUOUS
 10
-2.093154
 20
2.262476
  0
VERTEX
  8
PLAN_1
 62
     2
  6
CONTINUOUS
 10
-2.093154
 20
2.254252
  0
SEQEND
  8
0
  0
POLYLINE
  8
PLAN_1
 62
     2
  6
CONTINUOUS
 66
     1
 40
0.003000
 41
0.003000
  0
VERTEX
  8
PLAN_1
 62
     2
  6
CONTINUOUS
 10
-2.093154
 20
2.245441
  0
VERTEX
  8
PLAN_1
 62
     2
  6
CONTINUOUS
 10
-2.093154
 20
2.237217
  0
SEQEND
  8
0
  0
POLYLINE
  8
PLAN_1
 62
     2
  6
CONTINUOUS
 66
     1
 40
0.003000
 41
0.003000
  0
VERTEX
  8
PLAN_1
 62
     2
  6
CONTINUOUS
 10
-2.093154
 20
2.228992
  0
VERTEX
  8
PLAN_1
 62
     2
  6
CONTINUOUS
 10
-2.093154
 20
2.220768
  0
SEQEND
  8
0
  0
POLYLINE
  8
PLAN_1
 62
     2
  6
CONTINUOUS
 66
     1
 40
0.003000
 41
0.003000
  0
VERTEX
  8
PLAN_1
 62
     2
  6
CONTINUOUS
 10
-2.093154
 20
2.212543
  0
VERTEX
  8
PLAN_1
 62
     2
  6
CONTINUOUS
 10
-2.093154
 20
2.204319
  0
SEQEND
  8
0
  0
POLYLINE
  8
PLAN_1
 62
     2
  6
CONTINUOUS
 66
     1
 40
0.003000
 41
0.003000
  0
VERTEX
  8
PLAN_1
 62
     2
  6
CONTINUOUS
 10
-2.093154
 20
2.195508
  0
VERTEX
  8
PLAN_1
 62
     2
  6
CONTINUOUS
 10
-2.093154
 20
2.187283
  0
SEQEND
  8
0
  0
POLYLINE
  8
PLAN_1
 62
     2
  6
CONTINUOUS
 66
     1
 40
0.003000
 41
0.003000
  0
VERTEX
  8
PLAN_1
 62
     2
  6
CONTINUOUS
 10
-2.093154
 20
2.179059
  0
VERTEX
  8
PLAN_1
 62
     2
  6
CONTINUOUS
 10
-2.093154
 20
2.170835
  0
SEQEND
  8
0
  0
POLYLINE
  8
PLAN_1
 62
     2
  6
CONTINUOUS
 66
     1
 40
0.003000
 41
0.003000
  0
VERTEX
  8
PLAN_1
 62
     2
  6
CONTINUOUS
 10
-2.093154
 20
2.162610
  0
VERTEX
  8
PLAN_1
 62
     2
  6
CONTINUOUS
 10
-2.093154
 20
2.153799
  0
SEQEND
  8
0
  0
POLYLINE
  8
PLAN_1
 62
     2
  6
CONTINUOUS
 66
     1
 40
0.003000
 41
0.003000
  0
VERTEX
  8
PLAN_1
 62
     2
  6
CONTINUOUS
 10
-2.093154
 20
2.145575
  0
VERTEX
  8
PLAN_1
 62
     2
  6
CONTINUOUS
 10
-2.093154
 20
2.137350
  0
SEQEND
  8
0
  0
POLYLINE
  8
PLAN_1
 62
     2
  6
CONTINUOUS
 66
     1
 40
0.003000
 41
0.003000
  0
VERTEX
  8
PLAN_1
 62
     2
  6
CONTINUOUS
 10
-2.093154
 20
2.129126
  0
VERTEX
  8
PLAN_1
 62
     2
  6
CONTINUOUS
 10
-2.093154
 20
2.120902
  0
SEQEND
  8
0
  0
POLYLINE
  8
PLAN_1
 62
     2
  6
CONTINUOUS
 66
     1
 40
0.003000
 41
0.003000
  0
VERTEX
  8
PLAN_1
 62
     2
  6
CONTINUOUS
 10
-2.093154
 20
2.112677
  0
VERTEX
  8
PLAN_1
 62
     2
  6
CONTINUOUS
 10
-2.093154
 20
2.103866
  0
SEQEND
  8
0
  0
POLYLINE
  8
PLAN_1
 62
     2
  6
CONTINUOUS
 66
     1
 40
0.003000
 41
0.003000
  0
VERTEX
  8
PLAN_1
 62
     2
  6
CONTINUOUS
 10
-2.093154
 20
2.095642
  0
VERTEX
  8
PLAN_1
 62
     2
  6
CONTINUOUS
 10
-2.093154
 20
2.087417
  0
SEQEND
  8
0
  0
POLYLINE
  8
PLAN_1
 62
     2
  6
CONTINUOUS
 66
     1
 40
0.003000
 41
0.003000
  0
VERTEX
  8
PLAN_1
 62
     2
  6
CONTINUOUS
 10
0.033429
 20
-2.489437
  0
VERTEX
  8
PLAN_1
 62
     2
  6
CONTINUOUS
 10
0.024028
 20
-2.489437
  0
VERTEX
  8
PLAN_1
 62
     2
  6
CONTINUOUS
 10
0.024028
 20
-2.437740
  0
VERTEX
  8
PLAN_1
 62
     2
  6
CONTINUOUS
 10
0.006992
 20
-2.437740
  0
VERTEX
  8
PLAN_1
 62
     2
  6
CONTINUOUS
 10
0.006992
 20
-2.430106
  0
VERTEX
  8
PLAN_1
 62
     2
  6
CONTINUOUS
 10
0.011106
 20
-2.430106
  0
VERTEX
  8
PLAN_1
 62
     2
  6
CONTINUOUS
 10
0.014630
 20
-2.429516
  0
VERTEX
  8
PLAN_1
 62
     2
  6
CONTINUOUS
 10
0.017567
 20
-2.428343
  0
VERTEX
  8
PLAN_1
 62
     2
  6
CONTINUOUS
 10
0.019917
 20
-2.427169
  0
VERTEX
  8
PLAN_1
 62
     2
  6
CONTINUOUS
 10
0.022268
 20
-2.425992
  0
VERTEX
  8
PLAN_1
 62
     2
  6
CONTINUOUS
 10
0.024028
 20
-2.423642
  0
VERTEX
  8
PLAN_1
 62
     2
  6
CONTINUOUS
 10
0.025205
 20
-2.420118
  0
VERTEX
  8
PLAN_1
 62
     2
  6
CONTINUOUS
 10
0.026378
 20
-2.416004
  0
VERTEX
  8
PLAN_1
 62
     2
  6
CONTINUOUS
 10
0.033429
 20
-2.416004
  0
VERTEX
  8
PLAN_1
 62
     2
  6
CONTINUOUS
 10
0.033429
 20
-2.489437
  0
SEQEND
  8
0
  0
POLYLINE
  8
PLAN_1
 62
     2
  6
CONTINUOUS
 66
     1
 40
0.003000
 41
0.003000
  0
VERTEX
  8
PLAN_1
 62
     2
  6
CONTINUOUS
 10
0.100984
 20
-2.442441
  0
VERTEX
  8
PLAN_1
 62
     2
  6
CONTINUOUS
 10
0.100984
 20
-2.477689
  0
VERTEX
  8
PLAN_1
 62
     2
  6
CONTINUOUS
 10
0.100984
 20
-2.479453
  0
VERTEX
  8
PLAN_1
 62
     2
  6
CONTINUOUS
 10
0.101575
 20
-2.480626
  0
VERTEX
  8
PLAN_1
 62
     2
  6
CONTINUOUS
 10
0.102161
 20
-2.481213
  0
VERTEX
  8
PLAN_1
 62
     2
  6
CONTINUOUS
 10
0.103335
 20
-2.481799
  0
VERTEX
  8
PLAN_1
 62
     2
  6
CONTINUOUS
 10
0.103925
 20
-2.481799
  0
VERTEX
  8
PLAN_1
 62
     2
  6
CONTINUOUS
 10
0.105098
 20
-2.482390
  0
VERTEX
  8
PLAN_1
 62
     2
  6
CONTINUOUS
 10
0.105685
 20
-2.482390
  0
VERTEX
  8
PLAN_1
 62
     2
  6
CONTINUOUS
 10
0.106272
 20
-2.482390
  0
VERTEX
  8
PLAN_1
 62
     2
  6
CONTINUOUS
 10
0.109799
 20
-2.482390
  0
VERTEX
  8
PLAN_1
 62
     2
  6
CONTINUOUS
 10
0.109799
 20
-2.489437
  0
VERTEX
  8
PLAN_1
 62
     2
  6
CONTINUOUS
 10
0.108622
 20
-2.489437
  0
VERTEX
  8
PLAN_1
 62
     2
  6
CONTINUOUS
 10
0.107449
 20
-2.489437
  0
VERTEX
  8
PLAN_1
 62
     2
  6
CONTINUOUS
 10
0.106272
 20
-2.490024
  0
VERTEX
  8
PLAN_1
 62
     2
  6
CONTINUOUS
 10
0.105685
 20
-2.490024
  0
VERTEX
  8
PLAN_1
 62
     2
  6
CONTINUOUS
 10
0.104512
 20
-2.490024
  0
VERTEX
  8
PLAN_1
 62
     2
  6
CONTINUOUS
 10
0.103925
 20
-2.490024
  0
VERTEX
  8
PLAN_1
 62
     2
  6
CONTINUOUS
 10
0.103335
 20
-2.490024
  0
VERTEX
  8
PLAN_1
 62
     2
  6
CONTINUOUS
 10
0.102748
 20
-2.490024
  0
VERTEX
  8
PLAN_1
 62
     2
  6
CONTINUOUS
 10
0.099811
 20
-2.490024
  0
VERTEX
  8
PLAN_1
 62
     2
  6
CONTINUOUS
 10
0.097461
 20
-2.489437
  0
VERTEX
  8
PLAN_1
 62
     2
  6
CONTINUOUS
 10
0.095701
 20
-2.488264
  0
VERTEX
  8
PLAN_1
 62
     2
  6
CONTINUOUS
 10
0.093937
 20
-2.486500
  0
VERTEX
  8
PLAN_1
 62
     2
  6
CONTINUOUS
 10
0.092760
 20
-2.484736
  0
VERTEX
  8
PLAN_1
 62
     2
  6
CONTINUOUS
 10
0.092173
 20
-2.482976
  0
VERTEX
  8
PLAN_1
 62
     2
  6
CONTINUOUS
 10
0.092173
 20
-2.480626
  0
VERTEX
  8
PLAN_1
 62
     2
  6
CONTINUOUS
 10
0.092173
 20
-2.478276
  0
VERTEX
  8
PLAN_1
 62
     2
  6
CONTINUOUS
 10
0.092173
 20
-2.442441
  0
VERTEX
  8
PLAN_1
 62
     2
  6
CONTINUOUS
 10
0.084535
 20
-2.442441
  0
VERTEX
  8
PLAN_1
 62
     2
  6
CONTINUOUS
 10
0.084535
 20
-2.434803
  0
VERTEX
  8
PLAN_1
 62
     2
  6
CONTINUOUS
 10
0.092173
 20
-2.434803
  0
VERTEX
  8
PLAN_1
 62
     2
  6
CONTINUOUS
 10
0.092173
 20
-2.419531
  0
VERTEX
  8
PLAN_1
 62
     2
  6
CONTINUOUS
 10
0.100984
 20
-2.419531
  0
VERTEX
  8
PLAN_1
 62
     2
  6
CONTINUOUS
 10
0.100984
 20
-2.434803
  0
VERTEX
  8
PLAN_1
 62
     2
  6
CONTINUOUS
 10
0.109799
 20
-2.434803
  0
VERTEX
  8
PLAN_1
 62
     2
  6
CONTINUOUS
 10
0.109799
 20
-2.442441
  0
VERTEX
  8
PLAN_1
 62
     2
  6
CONTINUOUS
 10
0.100984
 20
-2.442441
  0
SEQEND
  8
0
  0
POLYLINE
  8
PLAN_1
 62
     2
  6
CONTINUOUS
 66
     1
 40
0.003000
 41
0.003000
  0
VERTEX
  8
PLAN_1
 62
     2
  6
CONTINUOUS
 10
0.129185
 20
-2.489437
  0
VERTEX
  8
PLAN_1
 62
     2
  6
CONTINUOUS
 10
0.119783
 20
-2.489437
  0
VERTEX
  8
PLAN_1
 62
     2
  6
CONTINUOUS
 10
0.119783
 20
-2.434803
  0
VERTEX
  8
PLAN_1
 62
     2
  6
CONTINUOUS
 10
0.128594
 20
-2.434803
  0
VERTEX
  8
PLAN_1
 62
     2
  6
CONTINUOUS
 10
0.128594
 20
-2.444205
  0
VERTEX
  8
PLAN_1
 62
     2
  6
CONTINUOUS
 10
0.130358
 20
-2.441854
  0
VERTEX
  8
PLAN_1
 62
     2
  6
CONTINUOUS
 10
0.131535
 20
-2.439504
  0
VERTEX
  8
PLAN_1
 62
     2
  6
CONTINUOUS
 10
0.133295
 20
-2.437740
  0
VERTEX
  8
PLAN_1
 62
     2
  6
CONTINUOUS
 10
0.135059
 20
-2.436567
  0
VERTEX
  8
PLAN_1
 62
     2
  6
CONTINUOUS
 10
0.137409
 20
-2.435394
  0
VERTEX
  8
PLAN_1
 62
     2
  6
CONTINUOUS
 10
0.139169
 20
-2.434217
  0
VERTEX
  8
PLAN_1
 62
     2
  6
CONTINUOUS
 10
0.141520
 20
-2.433630
  0
VERTEX
  8
PLAN_1
 62
     2
  6
CONTINUOUS
 10
0.143870
 20
-2.433630
  0
VERTEX
  8
PLAN_1
 62
     2
  6
CONTINUOUS
 10
0.144457
 20
-2.433630
  0
VERTEX
  8
PLAN_1
 62
     2
  6
CONTINUOUS
 10
0.145043
 20
-2.433630
  0
VERTEX
  8
PLAN_1
 62
     2
  6
CONTINUOUS
 10
0.145634
 20
-2.433630
  0
VERTEX
  8
PLAN_1
 62
     2
  6
CONTINUOUS
 10
0.146220
 20
-2.433630
  0
VERTEX
  8
PLAN_1
 62
     2
  6
CONTINUOUS
 10
0.146807
 20
-2.433630
  0
VERTEX
  8
PLAN_1
 62
     2
  6
CONTINUOUS
 10
0.146807
 20
-2.443028
  0
VERTEX
  8
PLAN_1
 62
     2
  6
CONTINUOUS
 10
0.143283
 20
-2.443028
  0
VERTEX
  8
PLAN_1
 62
     2
  6
CONTINUOUS
 10
0.139760
 20
-2.443618
  0
VERTEX
  8
PLAN_1
 62
     2
  6
CONTINUOUS
 10
0.137409
 20
-2.444205
  0
VERTEX
  8
PLAN_1
 62
     2
  6
CONTINUOUS
 10
0.135059
 20
-2.445965
  0
VERTEX
  8
PLAN_1
 62
     2
  6
CONTINUOUS
 10
0.132709
 20
-2.447728
  0
VERTEX
  8
PLAN_1
 62
     2
  6
CONTINUOUS
 10
0.131535
 20
-2.449492
  0
VERTEX
  8
PLAN_1
 62
     2
  6
CONTINUOUS
 10
0.130358
 20
-2.452429
  0
VERTEX
  8
PLAN_1
 62
     2
  6
CONTINUOUS
 10
0.129185
 20
-2.454780
  0
VERTEX
  8
PLAN_1
 62
     2
  6
CONTINUOUS
 10
0.129185
 20
-2.457717
  0
VERTEX
  8
PLAN_1
 62
     2
  6
CONTINUOUS
 10
0.129185
 20
-2.489437
  0
SEQEND
  8
0
  0
POLYLINE
  8
PLAN_1
 62
     2
  6
CONTINUOUS
 66
     1
 40
0.003000
 41
0.003000
  0
VERTEX
  8
PLAN_1
 62
     2
  6
CONTINUOUS
 10
0.175594
 20
-2.433630
  0
VERTEX
  8
PLAN_1
 62
     2
  6
CONTINUOUS
 10
0.178531
 20
-2.433630
  0
VERTEX
  8
PLAN_1
 62
     2
  6
CONTINUOUS
 10
0.181469
 20
-2.434217
  0
VERTEX
  8
PLAN_1
 62
     2
  6
CONTINUOUS
 10
0.184406
 20
-2.434803
  0
VERTEX
  8
PLAN_1
 62
     2
  6
CONTINUOUS
 10
0.186756
 20
-2.435980
  0
VERTEX
  8
PLAN_1
 62
     2
  6
CONTINUOUS
 10
0.191453
 20
-2.438917
  0
VERTEX
  8
PLAN_1
 62
     2
  6
CONTINUOUS
 10
0.194980
 20
-2.442441
  0
VERTEX
  8
PLAN_1
 62
     2
  6
CONTINUOUS
 10
0.197327
 20
-2.447142
  0
VERTEX
  8
PLAN_1
 62
     2
  6
CONTINUOUS
 10
0.199091
 20
-2.451839
  0
VERTEX
  8
PLAN_1
 62
     2
  6
CONTINUOUS
 10
0.200264
 20
-2.457126
  0
VERTEX
  8
PLAN_1
 62
     2
  6
CONTINUOUS
 10
0.200854
 20
-2.462413
  0
VERTEX
  8
PLAN_1
 62
     2
  6
CONTINUOUS
 10
0.200264
 20
-2.467114
  0
VERTEX
  8
PLAN_1
 62
     2
  6
CONTINUOUS
 10
0.199091
 20
-2.472402
  0
VERTEX
  8
PLAN_1
 62
     2
  6
CONTINUOUS
 10
0.197327
 20
-2.477102
  0
VERTEX
  8
PLAN_1
 62
     2
  6
CONTINUOUS
 10
0.194980
 20
-2.481799
  0
VERTEX
  8
PLAN_1
 62
     2
  6
CONTINUOUS
 10
0.193217
 20
-2.483563
  0
VERTEX
  8
PLAN_1
 62
     2
  6
CONTINUOUS
 10
0.191453
 20
-2.485327
  0
VERTEX
  8
PLAN_1
 62
     2
  6
CONTINUOUS
 10
0.189102
 20
-2.487087
  0
VERTEX
  8
PLAN_1
 62
     2
  6
CONTINUOUS
 10
0.186756
 20
-2.488264
  0
VERTEX
  8
PLAN_1
 62
     2
  6
CONTINUOUS
 10
0.184406
 20
-2.489437
  0
VERTEX
  8
PLAN_1
 62
     2
  6
CONTINUOUS
 10
0.181469
 20
-2.490024
  0
VERTEX
  8
PLAN_1
 62
     2
  6
CONTINUOUS
 10
0.178531
 20
-2.490614
  0
VERTEX
  8
PLAN_1
 62
     2
  6
CONTINUOUS
 10
0.175594
 20
-2.490614
  0
VERTEX
  8
PLAN_1
 62
     2
  6
CONTINUOUS
 10
0.172654
 20
-2.490614
  0
VERTEX
  8
PLAN_1
 62
     2
  6
CONTINUOUS
 10
0.169717
 20
-2.490024
  0
VERTEX
  8
PLAN_1
 62
     2
  6
CONTINUOUS
 10
0.166780
 20
-2.489437
  0
VERTEX
  8
PLAN_1
 62
     2
  6
CONTINUOUS
 10
0.164429
 20
-2.488264
  0
VERTEX
  8
PLAN_1
 62
     2
  6
CONTINUOUS
 10
0.162083
 20
-2.487087
  0
VERTEX
  8
PLAN_1
 62
     2
  6
CONTINUOUS
 10
0.159732
 20
-2.485327
  0
VERTEX
  8
PLAN_1
 62
     2
  6
CONTINUOUS
 10
0.157969
 20
-2.483563
  0
VERTEX
  8
PLAN_1
 62
     2
  6
CONTINUOUS
 10
0.156205
 20
-2.481799
  0
VERTEX
  8
PLAN_1
 62
     2
  6
CONTINUOUS
 10
0.153858
 20
-2.477102
  0
VERTEX
  8
PLAN_1
 62
     2
  6
CONTINUOUS
 10
0.151508
 20
-2.472402
  0
VERTEX
  8
PLAN_1
 62
     2
  6
CONTINUOUS
 10
0.150921
 20
-2.467114
  0
VERTEX
  8
PLAN_1
 62
     2
  6
CONTINUOUS
 10
0.150331
 20
-2.462413
  0
VERTEX
  8
PLAN_1
 62
     2
  6
CONTINUOUS
 10
0.150921
 20
-2.457126
  0
VERTEX
  8
PLAN_1
 62
     2
  6
CONTINUOUS
 10
0.151508
 20
-2.451839
  0
VERTEX
  8
PLAN_1
 62
     2
  6
CONTINUOUS
 10
0.153858
 20
-2.447142
  0
VERTEX
  8
PLAN_1
 62
     2
  6
CONTINUOUS
 10
0.156205
 20
-2.442441
  0
VERTEX
  8
PLAN_1
 62
     2
  6
CONTINUOUS
 10
0.157969
 20
-2.440677
  0
VERTEX
  8
PLAN_1
 62
     2
  6
CONTINUOUS
 10
0.159732
 20
-2.438917
  0
VERTEX
  8
PLAN_1
 62
     2
  6
CONTINUOUS
 10
0.162083
 20
-2.437154
  0
VERTEX
  8
PLAN_1
 62
     2
  6
CONTINUOUS
 10
0.164429
 20
-2.435980
  0
VERTEX
  8
PLAN_1
 62
     2
  6
CONTINUOUS
 10
0.166780
 20
-2.434803
  0
VERTEX
  8
PLAN_1
 62
     2
  6
CONTINUOUS
 10
0.169717
 20
-2.434217
  0
VERTEX
  8
PLAN_1
 62
     2
  6
CONTINUOUS
 10
0.172654
 20
-2.433630
  0
VERTEX
  8
PLAN_1
 62
     2
  6
CONTINUOUS
 10
0.175594
 20
-2.433630
  0
SEQEND
  8
0
  0
POLYLINE
  8
PLAN_1
 62
     2
  6
CONTINUOUS
 66
     1
 40
0.003000
 41
0.003000
  0
VERTEX
  8
PLAN_1
 62
     2
  6
CONTINUOUS
 10
0.175594
 20
-2.482976
  0
VERTEX
  8
PLAN_1
 62
     2
  6
CONTINUOUS
 10
0.177941
 20
-2.482976
  0
VERTEX
  8
PLAN_1
 62
     2
  6
CONTINUOUS
 10
0.180291
 20
-2.482390
  0
VERTEX
  8
PLAN_1
 62
     2
  6
CONTINUOUS
 10
0.182055
 20
-2.481799
  0
VERTEX
  8
PLAN_1
 62
     2
  6
CONTINUOUS
 10
0.183819
 20
-2.480626
  0
VERTEX
  8
PLAN_1
 62
     2
  6
CONTINUOUS
 10
0.186165
 20
-2.478276
  0
VERTEX
  8
PLAN_1
 62
     2
  6
CONTINUOUS
 10
0.188516
 20
-2.475339
  0
VERTEX
  8
PLAN_1
 62
     2
  6
CONTINUOUS
 10
0.189693
 20
-2.471815
  0
VERTEX
  8
PLAN_1
 62
     2
  6
CONTINUOUS
 10
0.190866
 20
-2.468287
  0
VERTEX
  8
PLAN_1
 62
     2
  6
CONTINUOUS
 10
0.191453
 20
-2.465350
  0
VERTEX
  8
PLAN_1
 62
     2
  6
CONTINUOUS
 10
0.191453
 20
-2.462413
  0
VERTEX
  8
PLAN_1
 62
     2
  6
CONTINUOUS
 10
0.191453
 20
-2.458890
  0
VERTEX
  8
PLAN_1
 62
     2
  6
CONTINUOUS
 10
0.190866
 20
-2.455953
  0
VERTEX
  8
PLAN_1
 62
     2
  6
CONTINUOUS
 10
0.189693
 20
-2.452429
  0
VERTEX
  8
PLAN_1
 62
     2
  6
CONTINUOUS
 10
0.188516
 20
-2.448902
  0
VERTEX
  8
PLAN_1
 62
     2
  6
CONTINUOUS
 10
0.186165
 20
-2.445965
  0
VERTEX
  8
PLAN_1
 62
     2
  6
CONTINUOUS
 10
0.183819
 20
-2.443618
  0
VERTEX
  8
PLAN_1
 62
     2
  6
CONTINUOUS
 10
0.182055
 20
-2.442441
  0
VERTEX
  8
PLAN_1
 62
     2
  6
CONTINUOUS
 10
0.180291
 20
-2.441854
  0
VERTEX
  8
PLAN_1
 62
     2
  6
CONTINUOUS
 10
0.177941
 20
-2.441268
  0
VERTEX
  8
PLAN_1
 62
     2
  6
CONTINUOUS
 10
0.175594
 20
-2.441268
  0
VERTEX
  8
PLAN_1
 62
     2
  6
CONTINUOUS
 10
0.173244
 20
-2.441268
  0
VERTEX
  8
PLAN_1
 62
     2
  6
CONTINUOUS
 10
0.170894
 20
-2.441854
  0
VERTEX
  8
PLAN_1
 62
     2
  6
CONTINUOUS
 10
0.169130
 20
-2.442441
  0
VERTEX
  8
PLAN_1
 62
     2
  6
CONTINUOUS
 10
0.167370
 20
-2.443618
  0
VERTEX
  8
PLAN_1
 62
     2
  6
CONTINUOUS
 10
0.165020
 20
-2.445965
  0
VERTEX
  8
PLAN_1
 62
     2
  6
CONTINUOUS
 10
0.162669
 20
-2.448902
  0
VERTEX
  8
PLAN_1
 62
     2
  6
CONTINUOUS
 10
0.161492
 20
-2.452429
  0
VERTEX
  8
PLAN_1
 62
     2
  6
CONTINUOUS
 10
0.160319
 20
-2.455953
  0
VERTEX
  8
PLAN_1
 62
     2
  6
CONTINUOUS
 10
0.159732
 20
-2.458890
  0
VERTEX
  8
PLAN_1
 62
     2
  6
CONTINUOUS
 10
0.159732
 20
-2.462413
  0
VERTEX
  8
PLAN_1
 62
     2
  6
CONTINUOUS
 10
0.159732
 20
-2.465350
  0
VERTEX
  8
PLAN_1
 62
     2
  6
CONTINUOUS
 10
0.160319
 20
-2.468287
  0
VERTEX
  8
PLAN_1
 62
     2
  6
CONTINUOUS
 10
0.161492
 20
-2.471815
  0
VERTEX
  8
PLAN_1
 62
     2
  6
CONTINUOUS
 10
0.162669
 20
-2.475339
  0
VERTEX
  8
PLAN_1
 62
     2
  6
CONTINUOUS
 10
0.165020
 20
-2.478276
  0
VERTEX
  8
PLAN_1
 62
     2
  6
CONTINUOUS
 10
0.167370
 20
-2.480626
  0
VERTEX
  8
PLAN_1
 62
     2
  6
CONTINUOUS
 10
0.169130
 20
-2.481799
  0
VERTEX
  8
PLAN_1
 62
     2
  6
CONTINUOUS
 10
0.170894
 20
-2.482390
  0
VERTEX
  8
PLAN_1
 62
     2
  6
CONTINUOUS
 10
0.173244
 20
-2.482976
  0
VERTEX
  8
PLAN_1
 62
     2
  6
CONTINUOUS
 10
0.175594
 20
-2.482976
  0
SEQEND
  8
0
  0
POLYLINE
  8
PLAN_1
 62
     2
  6
CONTINUOUS
 66
     1
 40
0.003000
 41
0.003000
  0
VERTEX
  8
PLAN_1
 62
     2
  6
CONTINUOUS
 10
0.246673
 20
-2.489437
  0
VERTEX
  8
PLAN_1
 62
     2
  6
CONTINUOUS
 10
0.246673
 20
-2.481213
  0
VERTEX
  8
PLAN_1
 62
     2
  6
CONTINUOUS
 10
0.244913
 20
-2.483563
  0
VERTEX
  8
PLAN_1
 62
     2
  6
CONTINUOUS
 10
0.243736
 20
-2.485327
  0
VERTEX
  8
PLAN_1
 62
     2
  6
CONTINUOUS
 10
0.241976
 20
-2.487087
  0
VERTEX
  8
PLAN_1
 62
     2
  6
CONTINUOUS
 10
0.239626
 20
-2.488264
  0
VERTEX
  8
PLAN_1
 62
     2
  6
CONTINUOUS
 10
0.237862
 20
-2.489437
  0
VERTEX
  8
PLAN_1
 62
     2
  6
CONTINUOUS
 10
0.234925
 20
-2.490614
  0
VERTEX
  8
PLAN_1
 62
     2
  6
CONTINUOUS
 10
0.232575
 20
-2.490614
  0
VERTEX
  8
PLAN_1
 62
     2
  6
CONTINUOUS
 10
0.229051
 20
-2.491201
  0
VERTEX
  8
PLAN_1
 62
     2
  6
CONTINUOUS
 10
0.226114
 20
-2.490614
  0
VERTEX
  8
PLAN_1
 62
     2
  6
CONTINUOUS
 10
0.223177
 20
-2.490024
  0
VERTEX
  8
PLAN_1
 62
     2
  6
CONTINUOUS
 10
0.220240
 20
-2.488850
  0
VERTEX
  8
PLAN_1
 62
     2
  6
CONTINUOUS
 10
0.217303
 20
-2.487677
  0
VERTEX
  8
PLAN_1
 62
     2
  6
CONTINUOUS
 10
0.214953
 20
-2.485327
  0
VERTEX
  8
PLAN_1
 62
     2
  6
CONTINUOUS
 10
0.213189
 20
-2.482390
  0
VERTEX
  8
PLAN_1
 62
     2
  6
CONTINUOUS
 10
0.212016
 20
-2.478276
  0
VERTEX
  8
PLAN_1
 62
     2
  6
CONTINUOUS
 10
0.211429
 20
-2.474165
  0
VERTEX
  8
PLAN_1
 62
     2
  6
CONTINUOUS
 10
0.211429
 20
-2.434803
  0
VERTEX
  8
PLAN_1
 62
     2
  6
CONTINUOUS
 10
0.220827
 20
-2.434803
  0
VERTEX
  8
PLAN_1
 62
     2
  6
CONTINUOUS
 10
0.220827
 20
-2.471228
  0
VERTEX
  8
PLAN_1
 62
     2
  6
CONTINUOUS
 10
0.220827
 20
-2.474165
  0
VERTEX
  8
PLAN_1
 62
     2
  6
CONTINUOUS
 10
0.221413
 20
-2.476512
  0
VERTEX
  8
PLAN_1
 62
     2
  6
CONTINUOUS
 10
0.222591
 20
-2.478862
  0
VERTEX
  8
PLAN_1
 62
     2
  6
CONTINUOUS
 10
0.223764
 20
-2.480626
  0
VERTEX
  8
PLAN_1
 62
     2
  6
CONTINUOUS
 10
0.225528
 20
-2.481799
  0
VERTEX
  8
PLAN_1
 62
     2
  6
CONTINUOUS
 10
0.227287
 20
-2.482390
  0
VERTEX
  8
PLAN_1
 62
     2
  6
CONTINUOUS
 10
0.229051
 20
-2.482976
  0
VERTEX
  8
PLAN_1
 62
     2
  6
CONTINUOUS
 10
0.231402
 20
-2.482976
  0
VERTEX
  8
PLAN_1
 62
     2
  6
CONTINUOUS
 10
0.235512
 20
-2.482390
  0
VERTEX
  8
PLAN_1
 62
     2
  6
CONTINUOUS
 10
0.238449
 20
-2.481213
  0
VERTEX
  8
PLAN_1
 62
     2
  6
CONTINUOUS
 10
0.240799
 20
-2.479453
  0
VERTEX
  8
PLAN_1
 62
     2
  6
CONTINUOUS
 10
0.243150
 20
-2.477102
  0
VERTEX
  8
PLAN_1
 62
     2
  6
CONTINUOUS
 10
0.244323
 20
-2.474165
  0
VERTEX
  8
PLAN_1
 62
     2
  6
CONTINUOUS
 10
0.245500
 20
-2.471228
  0
VERTEX
  8
PLAN_1
 62
     2
  6
CONTINUOUS
 10
0.246087
 20
-2.467701
  0
VERTEX
  8
PLAN_1
 62
     2
  6
CONTINUOUS
 10
0.246087
 20
-2.464764
  0
VERTEX
  8
PLAN_1
 62
     2
  6
CONTINUOUS
 10
0.246087
 20
-2.434803
  0
VERTEX
  8
PLAN_1
 62
     2
  6
CONTINUOUS
 10
0.255488
 20
-2.434803
  0
VERTEX
  8
PLAN_1
 62
     2
  6
CONTINUOUS
 10
0.255488
 20
-2.489437
  0
VERTEX
  8
PLAN_1
 62
     2
  6
CONTINUOUS
 10
0.246673
 20
-2.489437
  0
SEQEND
  8
0
  0
POLYLINE
  8
PLAN_1
 62
     2
  6
CONTINUOUS
 66
     1
 40
0.003000
 41
0.003000
  0
VERTEX
  8
PLAN_1
 62
     2
  6
CONTINUOUS
 10
0.309531
 20
-2.442441
  0
VERTEX
  8
PLAN_1
 62
     2
  6
CONTINUOUS
 10
0.309531
 20
-2.477689
  0
VERTEX
  8
PLAN_1
 62
     2
  6
CONTINUOUS
 10
0.309531
 20
-2.479453
  0
VERTEX
  8
PLAN_1
 62
     2
  6
CONTINUOUS
 10
0.310118
 20
-2.480626
  0
VERTEX
  8
PLAN_1
 62
     2
  6
CONTINUOUS
 10
0.310709
 20
-2.481213
  0
VERTEX
  8
PLAN_1
 62
     2
  6
CONTINUOUS
 10
0.311295
 20
-2.481799
  0
VERTEX
  8
PLAN_1
 62
     2
  6
CONTINUOUS
 10
0.312469
 20
-2.481799
  0
VERTEX
  8
PLAN_1
 62
     2
  6
CONTINUOUS
 10
0.313055
 20
-2.482390
  0
VERTEX
  8
PLAN_1
 62
     2
  6
CONTINUOUS
 10
0.314232
 20
-2.482390
  0
VERTEX
  8
PLAN_1
 62
     2
  6
CONTINUOUS
 10
0.314819
 20
-2.482390
  0
VERTEX
  8
PLAN_1
 62
     2
  6
CONTINUOUS
 10
0.318343
 20
-2.482390
  0
VERTEX
  8
PLAN_1
 62
     2
  6
CONTINUOUS
 10
0.318343
 20
-2.489437
  0
VERTEX
  8
PLAN_1
 62
     2
  6
CONTINUOUS
 10
0.317169
 20
-2.489437
  0
VERTEX
  8
PLAN_1
 62
     2
  6
CONTINUOUS
 10
0.315996
 20
-2.489437
  0
VERTEX
  8
PLAN_1
 62
     2
  6
CONTINUOUS
 10
0.314819
 20
-2.490024
  0
VERTEX
  8
PLAN_1
 62
     2
  6
CONTINUOUS
 10
0.313646
 20
-2.490024
  0
VERTEX
  8
PLAN_1
 62
     2
  6
CONTINUOUS
 10
0.313055
 20
-2.490024
  0
VERTEX
  8
PLAN_1
 62
     2
  6
CONTINUOUS
 10
0.312469
 20
-2.490024
  0
VERTEX
  8
PLAN_1
 62
     2
  6
CONTINUOUS
 10
0.311882
 20
-2.490024
  0
VERTEX
  8
PLAN_1
 62
     2
  6
CONTINUOUS
 10
0.311295
 20
-2.490024
  0
VERTEX
  8
PLAN_1
 62
     2
  6
CONTINUOUS
 10
0.308358
 20
-2.490024
  0
VERTEX
  8
PLAN_1
 62
     2
  6
CONTINUOUS
 10
0.305421
 20
-2.489437
  0
VERTEX
  8
PLAN_1
 62
     2
  6
CONTINUOUS
 10
0.303657
 20
-2.488264
  0
VERTEX
  8
PLAN_1
 62
     2
  6
CONTINUOUS
 10
0.302484
 20
-2.486500
  0
VERTEX
  8
PLAN_1
 62
     2
  6
CONTINUOUS
 10
0.301307
 20
-2.484736
  0
VERTEX
  8
PLAN_1
 62
     2
  6
CONTINUOUS
 10
0.300720
 20
-2.482976
  0
VERTEX
  8
PLAN_1
 62
     2
  6
CONTINUOUS
 10
0.300134
 20
-2.480626
  0
VERTEX
  8
PLAN_1
 62
     2
  6
CONTINUOUS
 10
0.300134
 20
-2.478276
  0
VERTEX
  8
PLAN_1
 62
     2
  6
CONTINUOUS
 10
0.300134
 20
-2.442441
  0
VERTEX
  8
PLAN_1
 62
     2
  6
CONTINUOUS
 10
0.293083
 20
-2.442441
  0
VERTEX
  8
PLAN_1
 62
     2
  6
CONTINUOUS
 10
0.293083
 20
-2.434803
  0
VERTEX
  8
PLAN_1
 62
     2
  6
CONTINUOUS
 10
0.300134
 20
-2.434803
  0
VERTEX
  8
PLAN_1
 62
     2
  6
CONTINUOUS
 10
0.300134
 20
-2.419531
  0
VERTEX
  8
PLAN_1
 62
     2
  6
CONTINUOUS
 10
0.309531
 20
-2.419531
  0
VERTEX
  8
PLAN_1
 62
     2
  6
CONTINUOUS
 10
0.309531
 20
-2.434803
  0
VERTEX
  8
PLAN_1
 62
     2
  6
CONTINUOUS
 10
0.318343
 20
-2.434803
  0
VERTEX
  8
PLAN_1
 62
     2
  6
CONTINUOUS
 10
0.318343
 20
-2.442441
  0
VERTEX
  8
PLAN_1
 62
     2
  6
CONTINUOUS
 10
0.309531
 20
-2.442441
  0
SEQEND
  8
0
  0
POLYLINE
  8
PLAN_1
 62
     2
  6
CONTINUOUS
 66
     1
 40
0.003000
 41
0.003000
  0
VERTEX
  8
PLAN_1
 62
     2
  6
CONTINUOUS
 10
0.326567
 20
-2.451252
  0
VERTEX
  8
PLAN_1
 62
     2
  6
CONTINUOUS
 10
0.327157
 20
-2.447142
  0
VERTEX
  8
PLAN_1
 62
     2
  6
CONTINUOUS
 10
0.328331
 20
-2.443028
  0
VERTEX
  8
PLAN_1
 62
     2
  6
CONTINUOUS
 10
0.330681
 20
-2.440091
  0
VERTEX
  8
PLAN_1
 62
     2
  6
CONTINUOUS
 10
0.333031
 20
-2.437740
  0
VERTEX
  8
PLAN_1
 62
     2
  6
CONTINUOUS
 10
0.336555
 20
-2.435980
  0
VERTEX
  8
PLAN_1
 62
     2
  6
CONTINUOUS
 10
0.340079
 20
-2.434217
  0
VERTEX
  8
PLAN_1
 62
     2
  6
CONTINUOUS
 10
0.344193
 20
-2.433630
  0
VERTEX
  8
PLAN_1
 62
     2
  6
CONTINUOUS
 10
0.349480
 20
-2.433630
  0
VERTEX
  8
PLAN_1
 62
     2
  6
CONTINUOUS
 10
0.351240
 20
-2.433630
  0
VERTEX
  8
PLAN_1
 62
     2
  6
CONTINUOUS
 10
0.354177
 20
-2.433630
  0
VERTEX
  8
PLAN_1
 62
     2
  6
CONTINUOUS
 10
0.357705
 20
-2.434803
  0
VERTEX
  8
PLAN_1
 62
     2
  6
CONTINUOUS
 10
0.361228
 20
-2.435980
  0
VERTEX
  8
PLAN_1
 62
     2
  6
CONTINUOUS
 10
0.364165
 20
-2.437740
  0
VERTEX
  8
PLAN_1
 62
     2
  6
CONTINUOUS
 10
0.367102
 20
-2.440091
  0
VERTEX
  8
PLAN_1
 62
     2
  6
CONTINUOUS
 10
0.367689
 20
-2.441854
  0
VERTEX
  8
PLAN_1
 62
     2
  6
CONTINUOUS
 10
0.368866
 20
-2.444205
  0
VERTEX
  8
PLAN_1
 62
     2
  6
CONTINUOUS
 10
0.369453
 20
-2.445965
  0
VERTEX
  8
PLAN_1
 62
     2
  6
CONTINUOUS
 10
0.369453
 20
-2.448315
  0
VERTEX
  8
PLAN_1
 62
     2
  6
CONTINUOUS
 10
0.369453
 20
-2.480039
  0
VERTEX
  8
PLAN_1
 62
     2
  6
CONTINUOUS
 10
0.369453
 20
-2.480626
  0
VERTEX
  8
PLAN_1
 62
     2
  6
CONTINUOUS
 10
0.369453
 20
-2.481213
  0
VERTEX
  8
PLAN_1
 62
     2
  6
CONTINUOUS
 10
0.370039
 20
-2.481799
  0
VERTEX
  8
PLAN_1
 62
     2
  6
CONTINUOUS
 10
0.370039
 20
-2.482390
  0
VERTEX
  8
PLAN_1
 62
     2
  6
CONTINUOUS
 10
0.370626
 20
-2.482976
  0
VERTEX
  8
PLAN_1
 62
     2
  6
CONTINUOUS
 10
0.371217
 20
-2.482976
  0
VERTEX
  8
PLAN_1
 62
     2
  6
CONTINUOUS
 10
0.371803
 20
-2.482976
  0
VERTEX
  8
PLAN_1
 62
     2
  6
CONTINUOUS
 10
0.372390
 20
-2.482976
  0
VERTEX
  8
PLAN_1
 62
     2
  6
CONTINUOUS
 10
0.372976
 20
-2.482976
  0
VERTEX
  8
PLAN_1
 62
     2
  6
CONTINUOUS
 10
0.373563
 20
-2.482976
  0
VERTEX
  8
PLAN_1
 62
     2
  6
CONTINUOUS
 10
0.374154
 20
-2.482976
  0
VERTEX
  8
PLAN_1
 62
     2
  6
CONTINUOUS
 10
0.374740
 20
-2.482976
  0
VERTEX
  8
PLAN_1
 62
     2
  6
CONTINUOUS
 10
0.375327
 20
-2.482976
  0
VERTEX
  8
PLAN_1
 62
     2
  6
CONTINUOUS
 10
0.375327
 20
-2.489437
  0
VERTEX
  8
PLAN_1
 62
     2
  6
CONTINUOUS
 10
0.374740
 20
-2.489437
  0
VERTEX
  8
PLAN_1
 62
     2
  6
CONTINUOUS
 10
0.374154
 20
-2.489437
  0
VERTEX
  8
PLAN_1
 62
     2
  6
CONTINUOUS
 10
0.373563
 20
-2.490024
  0
VERTEX
  8
PLAN_1
 62
     2
  6
CONTINUOUS
 10
0.372976
 20
-2.490024
  0
VERTEX
  8
PLAN_1
 62
     2
  6
CONTINUOUS
 10
0.372390
 20
-2.490024
  0
VERTEX
  8
PLAN_1
 62
     2
  6
CONTINUOUS
 10
0.371803
 20
-2.490614
  0
VERTEX
  8
PLAN_1
 62
     2
  6
CONTINUOUS
 10
0.371217
 20
-2.490614
  0
VERTEX
  8
PLAN_1
 62
     2
  6
CONTINUOUS
 10
0.370626
 20
-2.490614
  0
VERTEX
  8
PLAN_1
 62
     2
  6
CONTINUOUS
 10
0.367689
 20
-2.490024
  0
VERTEX
  8
PLAN_1
 62
     2
  6
CONTINUOUS
 10
0.365339
 20
-2.489437
  0
VERTEX
  8
PLAN_1
 62
     2
  6
CONTINUOUS
 10
0.364165
 20
-2.488850
  0
VERTEX
  8
PLAN_1
 62
     2
  6
CONTINUOUS
 10
0.362402
 20
-2.487677
  0
VERTEX
  8
PLAN_1
 62
     2
  6
CONTINUOUS
 10
0.361815
 20
-2.486500
  0
VERTEX
  8
PLAN_1
 62
     2
  6
CONTINUOUS
 10
0.361228
 20
-2.485327
  0
VERTEX
  8
PLAN_1
 62
     2
  6
CONTINUOUS
 10
0.361228
 20
-2.483563
  0
VERTEX
  8
PLAN_1
 62
     2
  6
CONTINUOUS
 10
0.360642
 20
-2.482390
  0
VERTEX
  8
PLAN_1
 62
     2
  6
CONTINUOUS
 10
0.359465
 20
-2.483563
  0
VERTEX
  8
PLAN_1
 62
     2
  6
CONTINUOUS
 10
0.357705
 20
-2.485327
  0
VERTEX
  8
PLAN_1
 62
     2
  6
CONTINUOUS
 10
0.355941
 20
-2.486500
  0
VERTEX
  8
PLAN_1
 62
     2
  6
CONTINUOUS
 10
0.353591
 20
-2.487677
  0
VERTEX
  8
PLAN_1
 62
     2
  6
CONTINUOUS
 10
0.351240
 20
-2.489437
  0
VERTEX
  8
PLAN_1
 62
     2
  6
CONTINUOUS
 10
0.348303
 20
-2.490024
  0
VERTEX
  8
PLAN_1
 62
     2
  6
CONTINUOUS
 10
0.344780
 20
-2.490614
  0
VERTEX
  8
PLAN_1
 62
     2
  6
CONTINUOUS
 10
0.341256
 20
-2.491201
  0
VERTEX
  8
PLAN_1
 62
     2
  6
CONTINUOUS
 10
0.337728
 20
-2.490614
  0
VERTEX
  8
PLAN_1
 62
     2
  6
CONTINUOUS
 10
0.334205
 20
-2.490024
  0
VERTEX
  8
PLAN_1
 62
     2
  6
CONTINUOUS
 10
0.331268
 20
-2.488264
  0
VERTEX
  8
PLAN_1
 62
     2
  6
CONTINUOUS
 10
0.328917
 20
-2.486500
  0
VERTEX
  8
PLAN_1
 62
     2
  6
CONTINUOUS
 10
0.326567
 20
-2.484150
  0
VERTEX
  8
PLAN_1
 62
     2
  6
CONTINUOUS
 10
0.325394
 20
-2.481799
  0
VERTEX
  8
PLAN_1
 62
     2
  6
CONTINUOUS
 10
0.324220
 20
-2.478862
  0
VERTEX
  8
PLAN_1
 62
     2
  6
CONTINUOUS
 10
0.324220
 20
-2.475339
  0
VERTEX
  8
PLAN_1
 62
     2
  6
CONTINUOUS
 10
0.324220
 20
-2.472988
  0
VERTEX
  8
PLAN_1
 62
     2
  6
CONTINUOUS
 10
0.324220
 20
-2.470638
  0
VERTEX
  8
PLAN_1
 62
     2
  6
CONTINUOUS
 10
0.325394
 20
-2.468287
  0
VERTEX
  8
PLAN_1
 62
     2
  6
CONTINUOUS
 10
0.326567
 20
-2.465941
  0
VERTEX
  8
PLAN_1
 62
     2
  6
CONTINUOUS
 10
0.328917
 20
-2.463004
  0
VERTEX
  8
PLAN_1
 62
     2
  6
CONTINUOUS
 10
0.331854
 20
-2.461240
  0
VERTEX
  8
PLAN_1
 62
     2
  6
CONTINUOUS
 10
0.335382
 20
-2.459476
  0
VERTEX
  8
PLAN_1
 62
     2
  6
CONTINUOUS
 10
0.340665
 20
-2.458303
  0
VERTEX
  8
PLAN_1
 62
     2
  6
CONTINUOUS
 10
0.355941
 20
-2.456539
  0
VERTEX
  8
PLAN_1
 62
     2
  6
CONTINUOUS
 10
0.356528
 20
-2.455953
  0
VERTEX
  8
PLAN_1
 62
     2
  6
CONTINUOUS
 10
0.357114
 20
-2.455953
  0
VERTEX
  8
PLAN_1
 62
     2
  6
CONTINUOUS
 10
0.358291
 20
-2.455366
  0
VERTEX
  8
PLAN_1
 62
     2
  6
CONTINUOUS
 10
0.358878
 20
-2.454780
  0
VERTEX
  8
PLAN_1
 62
     2
  6
CONTINUOUS
 10
0.359465
 20
-2.454189
  0
VERTEX
  8
PLAN_1
 62
     2
  6
CONTINUOUS
 10
0.360055
 20
-2.453016
  0
VERTEX
  8
PLAN_1
 62
     2
  6
CONTINUOUS
 10
0.360055
 20
-2.451839
  0
VERTEX
  8
PLAN_1
 62
     2
  6
CONTINUOUS
 10
0.360642
 20
-2.450079
  0
VERTEX
  8
PLAN_1
 62
     2
  6
CONTINUOUS
 10
0.360055
 20
-2.447728
  0
VERTEX
  8
PLAN_1
 62
     2
  6
CONTINUOUS
 10
0.359465
 20
-2.445965
  0
VERTEX
  8
PLAN_1
 62
     2
  6
CONTINUOUS
 10
0.358878
 20
-2.444791
  0
VERTEX
  8
PLAN_1
 62
     2
  6
CONTINUOUS
 10
0.357114
 20
-2.443028
  0
VERTEX
  8
PLAN_1
 62
     2
  6
CONTINUOUS
 10
0.355354
 20
-2.442441
  0
VERTEX
  8
PLAN_1
 62
     2
  6
CONTINUOUS
 10
0.353591
 20
-2.441854
  0
VERTEX
  8
PLAN_1
 62
     2
  6
CONTINUOUS
 10
0.350654
 20
-2.441268
  0
VERTEX
  8
PLAN_1
 62
     2
  6
CONTINUOUS
 10
0.347717
 20
-2.441268
  0
VERTEX
  8
PLAN_1
 62
     2
  6
CONTINUOUS
 10
0.344193
 20
-2.441268
  0
VERTEX
  8
PLAN_1
 62
     2
  6
CONTINUOUS
 10
0.341256
 20
-2.441854
  0
VERTEX
  8
PLAN_1
 62
     2
  6
CONTINUOUS
 10
0.339492
 20
-2.443028
  0
VERTEX
  8
PLAN_1
 62
     2
  6
CONTINUOUS
 10
0.337728
 20
-2.444791
  0
VERTEX
  8
PLAN_1
 62
     2
  6
CONTINUOUS
 10
0.336555
 20
-2.446555
  0
VERTEX
  8
PLAN_1
 62
     2
  6
CONTINUOUS
 10
0.335969
 20
-2.448315
  0
VERTEX
  8
PLAN_1
 62
     2
  6
CONTINUOUS
 10
0.335382
 20
-2.450079
  0
VERTEX
  8
PLAN_1
 62
     2
  6
CONTINUOUS
 10
0.335382
 20
-2.451252
  0
VERTEX
  8
PLAN_1
 62
     2
  6
CONTINUOUS
 10
0.326567
 20
-2.451252
  0
SEQEND
  8
0
  0
POLYLINE
  8
PLAN_1
 62
     2
  6
CONTINUOUS
 66
     1
 40
0.003000
 41
0.003000
  0
VERTEX
  8
PLAN_1
 62
     2
  6
CONTINUOUS
 10
0.360055
 20
-2.461827
  0
VERTEX
  8
PLAN_1
 62
     2
  6
CONTINUOUS
 10
0.359465
 20
-2.461827
  0
VERTEX
  8
PLAN_1
 62
     2
  6
CONTINUOUS
 10
0.358878
 20
-2.462413
  0
VERTEX
  8
PLAN_1
 62
     2
  6
CONTINUOUS
 10
0.357705
 20
-2.463004
  0
VERTEX
  8
PLAN_1
 62
     2
  6
CONTINUOUS
 10
0.356528
 20
-2.463004
  0
VERTEX
  8
PLAN_1
 62
     2
  6
CONTINUOUS
 10
0.354768
 20
-2.463591
  0
VERTEX
  8
PLAN_1
 62
     2
  6
CONTINUOUS
 10
0.351831
 20
-2.464177
  0
VERTEX
  8
PLAN_1
 62
     2
  6
CONTINUOUS
 10
0.348890
 20
-2.464764
  0
VERTEX
  8
PLAN_1
 62
     2
  6
CONTINUOUS
 10
0.345366
 20
-2.464764
  0
VERTEX
  8
PLAN_1
 62
     2
  6
CONTINUOUS
 10
0.343606
 20
-2.465350
  0
VERTEX
  8
PLAN_1
 62
     2
  6
CONTINUOUS
 10
0.341256
 20
-2.465941
  0
VERTEX
  8
PLAN_1
 62
     2
  6
CONTINUOUS
 10
0.339492
 20
-2.466528
  0
VERTEX
  8
PLAN_1
 62
     2
  6
CONTINUOUS
 10
0.337728
 20
-2.467114
  0
VERTEX
  8
PLAN_1
 62
     2
  6
CONTINUOUS
 10
0.335969
 20
-2.468287
  0
VERTEX
  8
PLAN_1
 62
     2
  6
CONTINUOUS
 10
0.334791
 20
-2.469465
  0
VERTEX
  8
PLAN_1
 62
     2
  6
CONTINUOUS
 10
0.333618
 20
-2.471815
  0
VERTEX
  8
PLAN_1
 62
     2
  6
CONTINUOUS
 10
0.333618
 20
-2.474165
  0
VERTEX
  8
PLAN_1
 62
     2
  6
CONTINUOUS
 10
0.333618
 20
-2.475925
  0
VERTEX
  8
PLAN_1
 62
     2
  6
CONTINUOUS
 10
0.334205
 20
-2.477689
  0
VERTEX
  8
PLAN_1
 62
     2
  6
CONTINUOUS
 10
0.334791
 20
-2.479453
  0
VERTEX
  8
PLAN_1
 62
     2
  6
CONTINUOUS
 10
0.335969
 20
-2.480626
  0
VERTEX
  8
PLAN_1
 62
     2
  6
CONTINUOUS
 10
0.337142
 20
-2.481799
  0
VERTEX
  8
PLAN_1
 62
     2
  6
CONTINUOUS
 10
0.338906
 20
-2.482976
  0
VERTEX
  8
PLAN_1
 62
     2
  6
CONTINUOUS
 10
0.341256
 20
-2.482976
  0
VERTEX
  8
PLAN_1
 62
     2
  6
CONTINUOUS
 10
0.343606
 20
-2.483563
  0
VERTEX
  8
PLAN_1
 62
     2
  6
CONTINUOUS
 10
0.346543
 20
-2.482976
  0
VERTEX
  8
PLAN_1
 62
     2
  6
CONTINUOUS
 10
0.349480
 20
-2.482390
  0
VERTEX
  8
PLAN_1
 62
     2
  6
CONTINUOUS
 10
0.352417
 20
-2.481213
  0
VERTEX
  8
PLAN_1
 62
     2
  6
CONTINUOUS
 10
0.354768
 20
-2.479453
  0
VERTEX
  8
PLAN_1
 62
     2
  6
CONTINUOUS
 10
0.357114
 20
-2.477689
  0
VERTEX
  8
PLAN_1
 62
     2
  6
CONTINUOUS
 10
0.358878
 20
-2.475339
  0
VERTEX
  8
PLAN_1
 62
     2
  6
CONTINUOUS
 10
0.360055
 20
-2.472988
  0
VERTEX
  8
PLAN_1
 62
     2
  6
CONTINUOUS
 10
0.360055
 20
-2.470638
  0
VERTEX
  8
PLAN_1
 62
     2
  6
CONTINUOUS
 10
0.360055
 20
-2.461827
  0
SEQEND
  8
0
  0
POLYLINE
  8
PLAN_1
 62
     2
  6
CONTINUOUS
 66
     1
 40
0.003000
 41
0.003000
  0
VERTEX
  8
PLAN_1
 62
     2
  6
CONTINUOUS
 10
0.395299
 20
-2.489437
  0
VERTEX
  8
PLAN_1
 62
     2
  6
CONTINUOUS
 10
0.386488
 20
-2.489437
  0
VERTEX
  8
PLAN_1
 62
     2
  6
CONTINUOUS
 10
0.386488
 20
-2.434803
  0
VERTEX
  8
PLAN_1
 62
     2
  6
CONTINUOUS
 10
0.394713
 20
-2.434803
  0
VERTEX
  8
PLAN_1
 62
     2
  6
CONTINUOUS
 10
0.394713
 20
-2.444205
  0
VERTEX
  8
PLAN_1
 62
     2
  6
CONTINUOUS
 10
0.395299
 20
-2.444205
  0
VERTEX
  8
PLAN_1
 62
     2
  6
CONTINUOUS
 10
0.396476
 20
-2.441854
  0
VERTEX
  8
PLAN_1
 62
     2
  6
CONTINUOUS
 10
0.398236
 20
-2.439504
  0
VERTEX
  8
PLAN_1
 62
     2
  6
CONTINUOUS
 10
0.399413
 20
-2.437740
  0
VERTEX
  8
PLAN_1
 62
     2
  6
CONTINUOUS
 10
0.401764
 20
-2.436567
  0
VERTEX
  8
PLAN_1
 62
     2
  6
CONTINUOUS
 10
0.403524
 20
-2.435394
  0
VERTEX
  8
PLAN_1
 62
     2
  6
CONTINUOUS
 10
0.405287
 20
-2.434217
  0
VERTEX
  8
PLAN_1
 62
     2
  6
CONTINUOUS
 10
0.407638
 20
-2.433630
  0
VERTEX
  8
PLAN_1
 62
     2
  6
CONTINUOUS
 10
0.410575
 20
-2.433630
  0
VERTEX
  8
PLAN_1
 62
     2
  6
CONTINUOUS
 10
0.411161
 20
-2.433630
  0
VERTEX
  8
PLAN_1
 62
     2
  6
CONTINUOUS
 10
0.411748
 20
-2.433630
  0
VERTEX
  8
PLAN_1
 62
     2
  6
CONTINUOUS
 10
0.412339
 20
-2.433630
  0
VERTEX
  8
PLAN_1
 62
     2
  6
CONTINUOUS
 10
0.412925
 20
-2.433630
  0
VERTEX
  8
PLAN_1
 62
     2
  6
CONTINUOUS
 10
0.412925
 20
-2.443028
  0
VERTEX
  8
PLAN_1
 62
     2
  6
CONTINUOUS
 10
0.409398
 20
-2.443028
  0
VERTEX
  8
PLAN_1
 62
     2
  6
CONTINUOUS
 10
0.406461
 20
-2.443618
  0
VERTEX
  8
PLAN_1
 62
     2
  6
CONTINUOUS
 10
0.403524
 20
-2.444205
  0
VERTEX
  8
PLAN_1
 62
     2
  6
CONTINUOUS
 10
0.401173
 20
-2.445965
  0
VERTEX
  8
PLAN_1
 62
     2
  6
CONTINUOUS
 10
0.399413
 20
-2.447728
  0
VERTEX
  8
PLAN_1
 62
     2
  6
CONTINUOUS
 10
0.397650
 20
-2.449492
  0
VERTEX
  8
PLAN_1
 62
     2
  6
CONTINUOUS
 10
0.396476
 20
-2.452429
  0
VERTEX
  8
PLAN_1
 62
     2
  6
CONTINUOUS
 10
0.395890
 20
-2.454780
  0
VERTEX
  8
PLAN_1
 62
     2
  6
CONTINUOUS
 10
0.395299
 20
-2.457717
  0
VERTEX
  8
PLAN_1
 62
     2
  6
CONTINUOUS
 10
0.395299
 20
-2.489437
  0
SEQEND
  8
0
  0
POLYLINE
  8
PLAN_1
 62
     2
  6
CONTINUOUS
 66
     1
 40
0.003000
 41
0.003000
  0
VERTEX
  8
PLAN_1
 62
     2
  6
CONTINUOUS
 10
0.418213
 20
-2.451252
  0
VERTEX
  8
PLAN_1
 62
     2
  6
CONTINUOUS
 10
0.418799
 20
-2.447142
  0
VERTEX
  8
PLAN_1
 62
     2
  6
CONTINUOUS
 10
0.419972
 20
-2.443028
  0
VERTEX
  8
PLAN_1
 62
     2
  6
CONTINUOUS
 10
0.422323
 20
-2.440091
  0
VERTEX
  8
PLAN_1
 62
     2
  6
CONTINUOUS
 10
0.424673
 20
-2.437740
  0
VERTEX
  8
PLAN_1
 62
     2
  6
CONTINUOUS
 10
0.427610
 20
-2.435980
  0
VERTEX
  8
PLAN_1
 62
     2
  6
CONTINUOUS
 10
0.431724
 20
-2.434217
  0
VERTEX
  8
PLAN_1
 62
     2
  6
CONTINUOUS
 10
0.435835
 20
-2.433630
  0
VERTEX
  8
PLAN_1
 62
     2
  6
CONTINUOUS
 10
0.440535
 20
-2.433630
  0
VERTEX
  8
PLAN_1
 62
     2
  6
CONTINUOUS
 10
0.442886
 20
-2.433630
  0
VERTEX
  8
PLAN_1
 62
     2
  6
CONTINUOUS
 10
0.445823
 20
-2.433630
  0
VERTEX
  8
PLAN_1
 62
     2
  6
CONTINUOUS
 10
0.449346
 20
-2.434803
  0
VERTEX
  8
PLAN_1
 62
     2
  6
CONTINUOUS
 10
0.452283
 20
-2.435980
  0
VERTEX
  8
PLAN_1
 62
     2
  6
CONTINUOUS
 10
0.455807
 20
-2.437740
  0
VERTEX
  8
PLAN_1
 62
     2
  6
CONTINUOUS
 10
0.458157
 20
-2.440091
  0
VERTEX
  8
PLAN_1
 62
     2
  6
CONTINUOUS
 10
0.459335
 20
-2.441854
  0
VERTEX
  8
PLAN_1
 62
     2
  6
CONTINUOUS
 10
0.460508
 20
-2.444205
  0
VERTEX
  8
PLAN_1
 62
     2
  6
CONTINUOUS
 10
0.460508
 20
-2.445965
  0
VERTEX
  8
PLAN_1
 62
     2
  6
CONTINUOUS
 10
0.461094
 20
-2.448315
  0
VERTEX
  8
PLAN_1
 62
     2
  6
CONTINUOUS
 10
0.461094
 20
-2.480039
  0
VERTEX
  8
PLAN_1
 62
     2
  6
CONTINUOUS
 10
0.461094
 20
-2.480626
  0
VERTEX
  8
PLAN_1
 62
     2
  6
CONTINUOUS
 10
0.461094
 20
-2.481213
  0
VERTEX
  8
PLAN_1
 62
     2
  6
CONTINUOUS
 10
0.461681
 20
-2.481799
  0
VERTEX
  8
PLAN_1
 62
     2
  6
CONTINUOUS
 10
0.461681
 20
-2.482390
  0
VERTEX
  8
PLAN_1
 62
     2
  6
CONTINUOUS
 10
0.462272
 20
-2.482976
  0
VERTEX
  8
PLAN_1
 62
     2
  6
CONTINUOUS
 10
0.462858
 20
-2.482976
  0
VERTEX
  8
PLAN_1
 62
     2
  6
CONTINUOUS
 10
0.463445
 20
-2.482976
  0
VERTEX
  8
PLAN_1
 62
     2
  6
CONTINUOUS
 10
0.464031
 20
-2.482976
  0
VERTEX
  8
PLAN_1
 62
     2
  6
CONTINUOUS
 10
0.464618
 20
-2.482976
  0
VERTEX
  8
PLAN_1
 62
     2
  6
CONTINUOUS
 10
0.465209
 20
-2.482976
  0
VERTEX
  8
PLAN_1
 62
     2
  6
CONTINUOUS
 10
0.465795
 20
-2.482976
  0
VERTEX
  8
PLAN_1
 62
     2
  6
CONTINUOUS
 10
0.466382
 20
-2.482976
  0
VERTEX
  8
PLAN_1
 62
     2
  6
CONTINUOUS
 10
0.466969
 20
-2.482976
  0
VERTEX
  8
PLAN_1
 62
     2
  6
CONTINUOUS
 10
0.466969
 20
-2.489437
  0
VERTEX
  8
PLAN_1
 62
     2
  6
CONTINUOUS
 10
0.466382
 20
-2.489437
  0
VERTEX
  8
PLAN_1
 62
     2
  6
CONTINUOUS
 10
0.465795
 20
-2.489437
  0
VERTEX
  8
PLAN_1
 62
     2
  6
CONTINUOUS
 10
0.465209
 20
-2.490024
  0
VERTEX
  8
PLAN_1
 62
     2
  6
CONTINUOUS
 10
0.464618
 20
-2.490024
  0
VERTEX
  8
PLAN_1
 62
     2
  6
CONTINUOUS
 10
0.464031
 20
-2.490024
  0
VERTEX
  8
PLAN_1
 62
     2
  6
CONTINUOUS
 10
0.463445
 20
-2.490614
  0
VERTEX
  8
PLAN_1
 62
     2
  6
CONTINUOUS
 10
0.462858
 20
-2.490614
  0
VERTEX
  8
PLAN_1
 62
     2
  6
CONTINUOUS
 10
0.462272
 20
-2.490614
  0
VERTEX
  8
PLAN_1
 62
     2
  6
CONTINUOUS
 10
0.459335
 20
-2.490024
  0
VERTEX
  8
PLAN_1
 62
     2
  6
CONTINUOUS
 10
0.456984
 20
-2.489437
  0
VERTEX
  8
PLAN_1
 62
     2
  6
CONTINUOUS
 10
0.455220
 20
-2.488850
  0
VERTEX
  8
PLAN_1
 62
     2
  6
CONTINUOUS
 10
0.454047
 20
-2.487677
  0
VERTEX
  8
PLAN_1
 62
     2
  6
CONTINUOUS
 10
0.453457
 20
-2.486500
  0
VERTEX
  8
PLAN_1
 62
     2
  6
CONTINUOUS
 10
0.452870
 20
-2.485327
  0
VERTEX
  8
PLAN_1
 62
     2
  6
CONTINUOUS
 10
0.452283
 20
-2.483563
  0
VERTEX
  8
PLAN_1
 62
     2
  6
CONTINUOUS
 10
0.452283
 20
-2.482390
  0
VERTEX
  8
PLAN_1
 62
     2
  6
CONTINUOUS
 10
0.451110
 20
-2.483563
  0
VERTEX
  8
PLAN_1
 62
     2
  6
CONTINUOUS
 10
0.449346
 20
-2.485327
  0
VERTEX
  8
PLAN_1
 62
     2
  6
CONTINUOUS
 10
0.447583
 20
-2.486500
  0
VERTEX
  8
PLAN_1
 62
     2
  6
CONTINUOUS
 10
0.445232
 20
-2.487677
  0
VERTEX
  8
PLAN_1
 62
     2
  6
CONTINUOUS
 10
0.442886
 20
-2.489437
  0
VERTEX
  8
PLAN_1
 62
     2
  6
CONTINUOUS
 10
0.439949
 20
-2.490024
  0
VERTEX
  8
PLAN_1
 62
     2
  6
CONTINUOUS
 10
0.436421
 20
-2.490614
  0
VERTEX
  8
PLAN_1
 62
     2
  6
CONTINUOUS
 10
0.432898
 20
-2.491201
  0
VERTEX
  8
PLAN_1
 62
     2
  6
CONTINUOUS
 10
0.428783
 20
-2.490614
  0
VERTEX
  8
PLAN_1
 62
     2
  6
CONTINUOUS
 10
0.425846
 20
-2.490024
  0
VERTEX
  8
PLAN_1
 62
     2
  6
CONTINUOUS
 10
0.422909
 20
-2.488264
  0
VERTEX
  8
PLAN_1
 62
     2
  6
CONTINUOUS
 10
0.420559
 20
-2.486500
  0
VERTEX
  8
PLAN_1
 62
     2
  6
CONTINUOUS
 10
0.418213
 20
-2.484150
  0
VERTEX
  8
PLAN_1
 62
     2
  6
CONTINUOUS
 10
0.417035
 20
-2.481799
  0
VERTEX
  8
PLAN_1
 62
     2
  6
CONTINUOUS
 10
0.415862
 20
-2.478862
  0
VERTEX
  8
PLAN_1
 62
     2
  6
CONTINUOUS
 10
0.415862
 20
-2.475339
  0
VERTEX
  8
PLAN_1
 62
     2
  6
CONTINUOUS
 10
0.415862
 20
-2.472988
  0
VERTEX
  8
PLAN_1
 62
     2
  6
CONTINUOUS
 10
0.415862
 20
-2.470638
  0
VERTEX
  8
PLAN_1
 62
     2
  6
CONTINUOUS
 10
0.417035
 20
-2.468287
  0
VERTEX
  8
PLAN_1
 62
     2
  6
CONTINUOUS
 10
0.418213
 20
-2.465941
  0
VERTEX
  8
PLAN_1
 62
     2
  6
CONTINUOUS
 10
0.419972
 20
-2.463004
  0
VERTEX
  8
PLAN_1
 62
     2
  6
CONTINUOUS
 10
0.422909
 20
-2.461240
  0
VERTEX
  8
PLAN_1
 62
     2
  6
CONTINUOUS
 10
0.427024
 20
-2.459476
  0
VERTEX
  8
PLAN_1
 62
     2
  6
CONTINUOUS
 10
0.432311
 20
-2.458303
  0
VERTEX
  8
PLAN_1
 62
     2
  6
CONTINUOUS
 10
0.446996
 20
-2.456539
  0
VERTEX
  8
PLAN_1
 62
     2
  6
CONTINUOUS
 10
0.448173
 20
-2.455953
  0
VERTEX
  8
PLAN_1
 62
     2
  6
CONTINUOUS
 10
0.448760
 20
-2.455953
  0
VERTEX
  8
PLAN_1
 62
     2
  6
CONTINUOUS
 10
0.449933
 20
-2.455366
  0
VERTEX
  8
PLAN_1
 62
     2
  6
CONTINUOUS
 10
0.450520
 20
-2.454780
  0
VERTEX
  8
PLAN_1
 62
     2
  6
CONTINUOUS
 10
0.451110
 20
-2.454189
  0
VERTEX
  8
PLAN_1
 62
     2
  6
CONTINUOUS
 10
0.451697
 20
-2.453016
  0
VERTEX
  8
PLAN_1
 62
     2
  6
CONTINUOUS
 10
0.451697
 20
-2.451839
  0
VERTEX
  8
PLAN_1
 62
     2
  6
CONTINUOUS
 10
0.452283
 20
-2.450079
  0
VERTEX
  8
PLAN_1
 62
     2
  6
CONTINUOUS
 10
0.451697
 20
-2.447728
  0
VERTEX
  8
PLAN_1
 62
     2
  6
CONTINUOUS
 10
0.451110
 20
-2.445965
  0
VERTEX
  8
PLAN_1
 62
     2
  6
CONTINUOUS
 10
0.449933
 20
-2.444791
  0
VERTEX
  8
PLAN_1
 62
     2
  6
CONTINUOUS
 10
0.448760
 20
-2.443028
  0
VERTEX
  8
PLAN_1
 62
     2
  6
CONTINUOUS
 10
0.446996
 20
-2.442441
  0
VERTEX
  8
PLAN_1
 62
     2
  6
CONTINUOUS
 10
0.444646
 20
-2.441854
  0
VERTEX
  8
PLAN_1
 62
     2
  6
CONTINUOUS
 10
0.442295
 20
-2.441268
  0
VERTEX
  8
PLAN_1
 62
     2
  6
CONTINUOUS
 10
0.439358
 20
-2.441268
  0
VERTEX
  8
PLAN_1
 62
     2
  6
CONTINUOUS
 10
0.435835
 20
-2.441268
  0
VERTEX
  8
PLAN_1
 62
     2
  6
CONTINUOUS
 10
0.432898
 20
-2.441854
  0
VERTEX
  8
PLAN_1
 62
     2
  6
CONTINUOUS
 10
0.430547
 20
-2.443028
  0
VERTEX
  8
PLAN_1
 62
     2
  6
CONTINUOUS
 10
0.429374
 20
-2.444791
  0
VERTEX
  8
PLAN_1
 62
     2
  6
CONTINUOUS
 10
0.428197
 20
-2.446555
  0
VERTEX
  8
PLAN_1
 62
     2
  6
CONTINUOUS
 10
0.427610
 20
-2.448315
  0
VERTEX
  8
PLAN_1
 62
     2
  6
CONTINUOUS
 10
0.427024
 20
-2.450079
  0
VERTEX
  8
PLAN_1
 62
     2
  6
CONTINUOUS
 10
0.426437
 20
-2.451252
  0
VERTEX
  8
PLAN_1
 62
     2
  6
CONTINUOUS
 10
0.418213
 20
-2.451252
  0
SEQEND
  8
0
  0
POLYLINE
  8
PLAN_1
 62
     2
  6
CONTINUOUS
 66
     1
 40
0.003000
 41
0.003000
  0
VERTEX
  8
PLAN_1
 62
     2
  6
CONTINUOUS
 10
0.451697
 20
-2.461827
  0
VERTEX
  8
PLAN_1
 62
     2
  6
CONTINUOUS
 10
0.451110
 20
-2.461827
  0
VERTEX
  8
PLAN_1
 62
     2
  6
CONTINUOUS
 10
0.450520
 20
-2.462413
  0
VERTEX
  8
PLAN_1
 62
     2
  6
CONTINUOUS
 10
0.449346
 20
-2.463004
  0
VERTEX
  8
PLAN_1
 62
     2
  6
CONTINUOUS
 10
0.448173
 20
-2.463004
  0
VERTEX
  8
PLAN_1
 62
     2
  6
CONTINUOUS
 10
0.445823
 20
-2.463591
  0
VERTEX
  8
PLAN_1
 62
     2
  6
CONTINUOUS
 10
0.443472
 20
-2.464177
  0
VERTEX
  8
PLAN_1
 62
     2
  6
CONTINUOUS
 10
0.440535
 20
-2.464764
  0
VERTEX
  8
PLAN_1
 62
     2
  6
CONTINUOUS
 10
0.436421
 20
-2.464764
  0
VERTEX
  8
PLAN_1
 62
     2
  6
CONTINUOUS
 10
0.434661
 20
-2.465350
  0
VERTEX
  8
PLAN_1
 62
     2
  6
CONTINUOUS
 10
0.432898
 20
-2.465941
  0
VERTEX
  8
PLAN_1
 62
     2
  6
CONTINUOUS
 10
0.431134
 20
-2.466528
  0
VERTEX
  8
PLAN_1
 62
     2
  6
CONTINUOUS
 10
0.429374
 20
-2.467114
  0
VERTEX
  8
PLAN_1
 62
     2
  6
CONTINUOUS
 10
0.427610
 20
-2.468287
  0
VERTEX
  8
PLAN_1
 62
     2
  6
CONTINUOUS
 10
0.426437
 20
-2.469465
  0
VERTEX
  8
PLAN_1
 62
     2
  6
CONTINUOUS
 10
0.425260
 20
-2.471815
  0
VERTEX
  8
PLAN_1
 62
     2
  6
CONTINUOUS
 10
0.425260
 20
-2.474165
  0
VERTEX
  8
PLAN_1
 62
     2
  6
CONTINUOUS
 10
0.425260
 20
-2.475925
  0
VERTEX
  8
PLAN_1
 62
     2
  6
CONTINUOUS
 10
0.425846
 20
-2.477689
  0
VERTEX
  8
PLAN_1
 62
     2
  6
CONTINUOUS
 10
0.426437
 20
-2.479453
  0
VERTEX
  8
PLAN_1
 62
     2
  6
CONTINUOUS
 10
0.427610
 20
-2.480626
  0
VERTEX
  8
PLAN_1
 62
     2
  6
CONTINUOUS
 10
0.428783
 20
-2.481799
  0
VERTEX
  8
PLAN_1
 62
     2
  6
CONTINUOUS
 10
0.430547
 20
-2.482976
  0
VERTEX
  8
PLAN_1
 62
     2
  6
CONTINUOUS
 10
0.432311
 20
-2.482976
  0
VERTEX
  8
PLAN_1
 62
     2
  6
CONTINUOUS
 10
0.434661
 20
-2.483563
  0
VERTEX
  8
PLAN_1
 62
     2
  6
CONTINUOUS
 10
0.438185
 20
-2.482976
  0
VERTEX
  8
PLAN_1
 62
     2
  6
CONTINUOUS
 10
0.441122
 20
-2.482390
  0
VERTEX
  8
PLAN_1
 62
     2
  6
CONTINUOUS
 10
0.444059
 20
-2.481213
  0
VERTEX
  8
PLAN_1
 62
     2
  6
CONTINUOUS
 10
0.446409
 20
-2.479453
  0
VERTEX
  8
PLAN_1
 62
     2
  6
CONTINUOUS
 10
0.448760
 20
-2.477689
  0
VERTEX
  8
PLAN_1
 62
     2
  6
CONTINUOUS
 10
0.450520
 20
-2.475339
  0
VERTEX
  8
PLAN_1
 62
     2
  6
CONTINUOUS
 10
0.451697
 20
-2.472988
  0
VERTEX
  8
PLAN_1
 62
     2
  6
CONTINUOUS
 10
0.451697
 20
-2.470638
  0
VERTEX
  8
PLAN_1
 62
     2
  6
CONTINUOUS
 10
0.451697
 20
-2.461827
  0
SEQEND
  8
0
  0
POLYLINE
  8
PLAN_1
 62
     2
  6
CONTINUOUS
 66
     1
 40
0.003000
 41
0.003000
  0
VERTEX
  8
PLAN_1
 62
     2
  6
CONTINUOUS
 10
0.512205
 20
-2.489437
  0
VERTEX
  8
PLAN_1
 62
     2
  6
CONTINUOUS
 10
0.512205
 20
-2.481213
  0
VERTEX
  8
PLAN_1
 62
     2
  6
CONTINUOUS
 10
0.511618
 20
-2.481213
  0
VERTEX
  8
PLAN_1
 62
     2
  6
CONTINUOUS
 10
0.510441
 20
-2.483563
  0
VERTEX
  8
PLAN_1
 62
     2
  6
CONTINUOUS
 10
0.508677
 20
-2.485327
  0
VERTEX
  8
PLAN_1
 62
     2
  6
CONTINUOUS
 10
0.506917
 20
-2.487087
  0
VERTEX
  8
PLAN_1
 62
     2
  6
CONTINUOUS
 10
0.505154
 20
-2.488264
  0
VERTEX
  8
PLAN_1
 62
     2
  6
CONTINUOUS
 10
0.502803
 20
-2.489437
  0
VERTEX
  8
PLAN_1
 62
     2
  6
CONTINUOUS
 10
0.500457
 20
-2.490614
  0
VERTEX
  8
PLAN_1
 62
     2
  6
CONTINUOUS
 10
0.497516
 20
-2.490614
  0
VERTEX
  8
PLAN_1
 62
     2
  6
CONTINUOUS
 10
0.494579
 20
-2.491201
  0
VERTEX
  8
PLAN_1
 62
     2
  6
CONTINUOUS
 10
0.491642
 20
-2.490614
  0
VERTEX
  8
PLAN_1
 62
     2
  6
CONTINUOUS
 10
0.488118
 20
-2.490024
  0
VERTEX
  8
PLAN_1
 62
     2
  6
CONTINUOUS
 10
0.485181
 20
-2.488850
  0
VERTEX
  8
PLAN_1
 62
     2
  6
CONTINUOUS
 10
0.482831
 20
-2.487677
  0
VERTEX
  8
PLAN_1
 62
     2
  6
CONTINUOUS
 10
0.480480
 20
-2.485327
  0
VERTEX
  8
PLAN_1
 62
     2
  6
CONTINUOUS
 10
0.478720
 20
-2.482390
  0
VERTEX
  8
PLAN_1
 62
     2
  6
CONTINUOUS
 10
0.476957
 20
-2.478276
  0
VERTEX
  8
PLAN_1
 62
     2
  6
CONTINUOUS
 10
0.476957
 20
-2.474165
  0
VERTEX
  8
PLAN_1
 62
     2
  6
CONTINUOUS
 10
0.476957
 20
-2.434803
  0
VERTEX
  8
PLAN_1
 62
     2
  6
CONTINUOUS
 10
0.485768
 20
-2.434803
  0
VERTEX
  8
PLAN_1
 62
     2
  6
CONTINUOUS
 10
0.485768
 20
-2.471228
  0
VERTEX
  8
PLAN_1
 62
     2
  6
CONTINUOUS
 10
0.486354
 20
-2.474165
  0
VERTEX
  8
PLAN_1
 62
     2
  6
CONTINUOUS
 10
0.486945
 20
-2.476512
  0
VERTEX
  8
PLAN_1
 62
     2
  6
CONTINUOUS
 10
0.487531
 20
-2.478862
  0
VERTEX
  8
PLAN_1
 62
     2
  6
CONTINUOUS
 10
0.488705
 20
-2.480626
  0
VERTEX
  8
PLAN_1
 62
     2
  6
CONTINUOUS
 10
0.490469
 20
-2.481799
  0
VERTEX
  8
PLAN_1
 62
     2
  6
CONTINUOUS
 10
0.492232
 20
-2.482390
  0
VERTEX
  8
PLAN_1
 62
     2
  6
CONTINUOUS
 10
0.494579
 20
-2.482976
  0
VERTEX
  8
PLAN_1
 62
     2
  6
CONTINUOUS
 10
0.496343
 20
-2.482976
  0
VERTEX
  8
PLAN_1
 62
     2
  6
CONTINUOUS
 10
0.500457
 20
-2.482390
  0
VERTEX
  8
PLAN_1
 62
     2
  6
CONTINUOUS
 10
0.503394
 20
-2.481213
  0
VERTEX
  8
PLAN_1
 62
     2
  6
CONTINUOUS
 10
0.506331
 20
-2.479453
  0
VERTEX
  8
PLAN_1
 62
     2
  6
CONTINUOUS
 10
0.508091
 20
-2.477102
  0
VERTEX
  8
PLAN_1
 62
     2
  6
CONTINUOUS
 10
0.509854
 20
-2.474165
  0
VERTEX
  8
PLAN_1
 62
     2
  6
CONTINUOUS
 10
0.510441
 20
-2.471228
  0
VERTEX
  8
PLAN_1
 62
     2
  6
CONTINUOUS
 10
0.511028
 20
-2.467701
  0
VERTEX
  8
PLAN_1
 62
     2
  6
CONTINUOUS
 10
0.511618
 20
-2.464764
  0
VERTEX
  8
PLAN_1
 62
     2
  6
CONTINUOUS
 10
0.511618
 20
-2.434803
  0
VERTEX
  8
PLAN_1
 62
     2
  6
CONTINUOUS
 10
0.520429
 20
-2.434803
  0
VERTEX
  8
PLAN_1
 62
     2
  6
CONTINUOUS
 10
0.520429
 20
-2.489437
  0
VERTEX
  8
PLAN_1
 62
     2
  6
CONTINUOUS
 10
0.512205
 20
-2.489437
  0
SEQEND
  8
0
  0
POLYLINE
  8
PLAN_1
 62
     2
  6
CONTINUOUS
 66
     1
 40
0.003000
 41
0.003000
  0
VERTEX
  8
PLAN_1
 62
     2
  6
CONTINUOUS
 10
0.579760
 20
-2.489437
  0
VERTEX
  8
PLAN_1
 62
     2
  6
CONTINUOUS
 10
0.570949
 20
-2.489437
  0
VERTEX
  8
PLAN_1
 62
     2
  6
CONTINUOUS
 10
0.570949
 20
-2.481799
  0
VERTEX
  8
PLAN_1
 62
     2
  6
CONTINUOUS
 10
0.569185
 20
-2.484150
  0
VERTEX
  8
PLAN_1
 62
     2
  6
CONTINUOUS
 10
0.567425
 20
-2.486500
  0
VERTEX
  8
PLAN_1
 62
     2
  6
CONTINUOUS
 10
0.565661
 20
-2.488264
  0
VERTEX
  8
PLAN_1
 62
     2
  6
CONTINUOUS
 10
0.563311
 20
-2.489437
  0
VERTEX
  8
PLAN_1
 62
     2
  6
CONTINUOUS
 10
0.561551
 20
-2.490024
  0
VERTEX
  8
PLAN_1
 62
     2
  6
CONTINUOUS
 10
0.559201
 20
-2.490614
  0
VERTEX
  8
PLAN_1
 62
     2
  6
CONTINUOUS
 10
0.557437
 20
-2.490614
  0
VERTEX
  8
PLAN_1
 62
     2
  6
CONTINUOUS
 10
0.555087
 20
-2.491201
  0
VERTEX
  8
PLAN_1
 62
     2
  6
CONTINUOUS
 10
0.552150
 20
-2.490614
  0
VERTEX
  8
PLAN_1
 62
     2
  6
CONTINUOUS
 10
0.548626
 20
-2.490024
  0
VERTEX
  8
PLAN_1
 62
     2
  6
CONTINUOUS
 10
0.546276
 20
-2.489437
  0
VERTEX
  8
PLAN_1
 62
     2
  6
CONTINUOUS
 10
0.543925
 20
-2.488264
  0
VERTEX
  8
PLAN_1
 62
     2
  6
CONTINUOUS
 10
0.541575
 20
-2.486500
  0
VERTEX
  8
PLAN_1
 62
     2
  6
CONTINUOUS
 10
0.539228
 20
-2.484736
  0
VERTEX
  8
PLAN_1
 62
     2
  6
CONTINUOUS
 10
0.538051
 20
-2.482976
  0
VERTEX
  8
PLAN_1
 62
     2
  6
CONTINUOUS
 10
0.536291
 20
-2.480626
  0
VERTEX
  8
PLAN_1
 62
     2
  6
CONTINUOUS
 10
0.533941
 20
-2.475925
  0
VERTEX
  8
PLAN_1
 62
     2
  6
CONTINUOUS
 10
0.532177
 20
-2.470638
  0
VERTEX
  8
PLAN_1
 62
     2
  6
CONTINUOUS
 10
0.531591
 20
-2.465350
  0
VERTEX
  8
PLAN_1
 62
     2
  6
CONTINUOUS
 10
0.531004
 20
-2.460654
  0
VERTEX
  8
PLAN_1
 62
     2
  6
CONTINUOUS
 10
0.531591
 20
-2.454780
  0
VERTEX
  8
PLAN_1
 62
     2
  6
CONTINUOUS
 10
0.532764
 20
-2.450079
  0
VERTEX
  8
PLAN_1
 62
     2
  6
CONTINUOUS
 10
0.534528
 20
-2.445378
  0
VERTEX
  8
PLAN_1
 62
     2
  6
CONTINUOUS
 10
0.537465
 20
-2.441268
  0
VERTEX
  8
PLAN_1
 62
     2
  6
CONTINUOUS
 10
0.540402
 20
-2.437740
  0
VERTEX
  8
PLAN_1
 62
     2
  6
CONTINUOUS
 10
0.544516
 20
-2.435394
  0
VERTEX
  8
PLAN_1
 62
     2
  6
CONTINUOUS
 10
0.548626
 20
-2.434217
  0
VERTEX
  8
PLAN_1
 62
     2
  6
CONTINUOUS
 10
0.553913
 20
-2.433630
  0
VERTEX
  8
PLAN_1
 62
     2
  6
CONTINUOUS
 10
0.557437
 20
-2.433630
  0
VERTEX
  8
PLAN_1
 62
     2
  6
CONTINUOUS
 10
0.560374
 20
-2.434217
  0
VERTEX
  8
PLAN_1
 62
     2
  6
CONTINUOUS
 10
0.562724
 20
-2.435394
  0
VERTEX
  8
PLAN_1
 62
     2
  6
CONTINUOUS
 10
0.565075
 20
-2.437154
  0
VERTEX
  8
PLAN_1
 62
     2
  6
CONTINUOUS
 10
0.566839
 20
-2.438331
  0
VERTEX
  8
PLAN_1
 62
     2
  6
CONTINUOUS
 10
0.568012
 20
-2.440091
  0
VERTEX
  8
PLAN_1
 62
     2
  6
CONTINUOUS
 10
0.569185
 20
-2.441268
  0
VERTEX
  8
PLAN_1
 62
     2
  6
CONTINUOUS
 10
0.570362
 20
-2.442441
  0
VERTEX
  8
PLAN_1
 62
     2
  6
CONTINUOUS
 10
0.570362
 20
-2.441854
  0
VERTEX
  8
PLAN_1
 62
     2
  6
CONTINUOUS
 10
0.570362
 20
-2.414831
  0
VERTEX
  8
PLAN_1
 62
     2
  6
CONTINUOUS
 10
0.579760
 20
-2.414831
  0
VERTEX
  8
PLAN_1
 62
     2
  6
CONTINUOUS
 10
0.579760
 20
-2.489437
  0
SEQEND
  8
0
  0
POLYLINE
  8
PLAN_1
 62
     2
  6
CONTINUOUS
 66
     1
 40
0.003000
 41
0.003000
  0
VERTEX
  8
PLAN_1
 62
     2
  6
CONTINUOUS
 10
0.555677
 20
-2.482976
  0
VERTEX
  8
PLAN_1
 62
     2
  6
CONTINUOUS
 10
0.557437
 20
-2.482976
  0
VERTEX
  8
PLAN_1
 62
     2
  6
CONTINUOUS
 10
0.560374
 20
-2.482390
  0
VERTEX
  8
PLAN_1
 62
     2
  6
CONTINUOUS
 10
0.562724
 20
-2.481213
  0
VERTEX
  8
PLAN_1
 62
     2
  6
CONTINUOUS
 10
0.565075
 20
-2.479453
  0
VERTEX
  8
PLAN_1
 62
     2
  6
CONTINUOUS
 10
0.566839
 20
-2.477102
  0
VERTEX
  8
PLAN_1
 62
     2
  6
CONTINUOUS
 10
0.568598
 20
-2.473575
  0
VERTEX
  8
PLAN_1
 62
     2
  6
CONTINUOUS
 10
0.569776
 20
-2.469465
  0
VERTEX
  8
PLAN_1
 62
     2
  6
CONTINUOUS
 10
0.570362
 20
-2.464764
  0
VERTEX
  8
PLAN_1
 62
     2
  6
CONTINUOUS
 10
0.570362
 20
-2.461240
  0
VERTEX
  8
PLAN_1
 62
     2
  6
CONTINUOUS
 10
0.569776
 20
-2.457126
  0
VERTEX
  8
PLAN_1
 62
     2
  6
CONTINUOUS
 10
0.569185
 20
-2.453602
  0
VERTEX
  8
PLAN_1
 62
     2
  6
CONTINUOUS
 10
0.568012
 20
-2.450079
  0
VERTEX
  8
PLAN_1
 62
     2
  6
CONTINUOUS
 10
0.566248
 20
-2.446555
  0
VERTEX
  8
PLAN_1
 62
     2
  6
CONTINUOUS
 10
0.563311
 20
-2.444205
  0
VERTEX
  8
PLAN_1
 62
     2
  6
CONTINUOUS
 10
0.562138
 20
-2.443028
  0
VERTEX
  8
PLAN_1
 62
     2
  6
CONTINUOUS
 10
0.559787
 20
-2.442441
  0
VERTEX
  8
PLAN_1
 62
     2
  6
CONTINUOUS
 10
0.558024
 20
-2.441854
  0
VERTEX
  8
PLAN_1
 62
     2
  6
CONTINUOUS
 10
0.555677
 20
-2.441854
  0
VERTEX
  8
PLAN_1
 62
     2
  6
CONTINUOUS
 10
0.553327
 20
-2.441854
  0
VERTEX
  8
PLAN_1
 62
     2
  6
CONTINUOUS
 10
0.550976
 20
-2.442441
  0
VERTEX
  8
PLAN_1
 62
     2
  6
CONTINUOUS
 10
0.549213
 20
-2.443028
  0
VERTEX
  8
PLAN_1
 62
     2
  6
CONTINUOUS
 10
0.547453
 20
-2.443618
  0
VERTEX
  8
PLAN_1
 62
     2
  6
CONTINUOUS
 10
0.544516
 20
-2.445965
  0
VERTEX
  8
PLAN_1
 62
     2
  6
CONTINUOUS
 10
0.542752
 20
-2.449492
  0
VERTEX
  8
PLAN_1
 62
     2
  6
CONTINUOUS
 10
0.541575
 20
-2.452429
  0
VERTEX
  8
PLAN_1
 62
     2
  6
CONTINUOUS
 10
0.540988
 20
-2.455953
  0
VERTEX
  8
PLAN_1
 62
     2
  6
CONTINUOUS
 10
0.540988
 20
-2.458890
  0
VERTEX
  8
PLAN_1
 62
     2
  6
CONTINUOUS
 10
0.540988
 20
-2.461827
  0
VERTEX
  8
PLAN_1
 62
     2
  6
CONTINUOUS
 10
0.540988
 20
-2.466528
  0
VERTEX
  8
PLAN_1
 62
     2
  6
CONTINUOUS
 10
0.541575
 20
-2.470638
  0
VERTEX
  8
PLAN_1
 62
     2
  6
CONTINUOUS
 10
0.542752
 20
-2.474165
  0
VERTEX
  8
PLAN_1
 62
     2
  6
CONTINUOUS
 10
0.544516
 20
-2.477102
  0
VERTEX
  8
PLAN_1
 62
     2
  6
CONTINUOUS
 10
0.546276
 20
-2.479453
  0
VERTEX
  8
PLAN_1
 62
     2
  6
CONTINUOUS
 10
0.548626
 20
-2.481213
  0
VERTEX
  8
PLAN_1
 62
     2
  6
CONTINUOUS
 10
0.552150
 20
-2.482390
  0
VERTEX
  8
PLAN_1
 62
     2
  6
CONTINUOUS
 10
0.555677
 20
-2.482976
  0
SEQEND
  8
0
  0
SOLID
  8
PLAN_1
 62
     2
 10
0.616772
 20
-2.427756
 11
0.609720
 21
-2.427756
 12
0.630283
 22
-2.413067
 13
0.619122
 23
-2.413067
  0
POLYLINE
  8
PLAN_1
 62
     2
  6
CONTINUOUS
 66
     1
 40
0.003000
 41
0.003000
  0
VERTEX
  8
PLAN_1
 62
     2
  6
CONTINUOUS
 10
0.616772
 20
-2.427756
  0
VERTEX
  8
PLAN_1
 62
     2
  6
CONTINUOUS
 10
0.609720
 20
-2.427756
  0
VERTEX
  8
PLAN_1
 62
     2
  6
CONTINUOUS
 10
0.619122
 20
-2.413067
  0
VERTEX
  8
PLAN_1
 62
     2
  6
CONTINUOUS
 10
0.630283
 20
-2.413067
  0
VERTEX
  8
PLAN_1
 62
     2
  6
CONTINUOUS
 10
0.616772
 20
-2.427756
  0
SEQEND
  8
0
  0
POLYLINE
  8
PLAN_1
 62
     2
  6
CONTINUOUS
 66
     1
 40
0.003000
 41
0.003000
  0
VERTEX
  8
PLAN_1
 62
     2
  6
CONTINUOUS
 10
0.638508
 20
-2.472402
  0
VERTEX
  8
PLAN_1
 62
     2
  6
CONTINUOUS
 10
0.638508
 20
-2.473575
  0
VERTEX
  8
PLAN_1
 62
     2
  6
CONTINUOUS
 10
0.637917
 20
-2.475339
  0
VERTEX
  8
PLAN_1
 62
     2
  6
CONTINUOUS
 10
0.637331
 20
-2.477102
  0
VERTEX
  8
PLAN_1
 62
     2
  6
CONTINUOUS
 10
0.636157
 20
-2.478862
  0
VERTEX
  8
PLAN_1
 62
     2
  6
CONTINUOUS
 10
0.634980
 20
-2.481213
  0
VERTEX
  8
PLAN_1
 62
     2
  6
CONTINUOUS
 10
0.633220
 20
-2.483563
  0
VERTEX
  8
PLAN_1
 62
     2
  6
CONTINUOUS
 10
0.631457
 20
-2.485327
  0
VERTEX
  8
PLAN_1
 62
     2
  6
CONTINUOUS
 10
0.628520
 20
-2.487087
  0
VERTEX
  8
PLAN_1
 62
     2
  6
CONTINUOUS
 10
0.627933
 20
-2.487677
  0
VERTEX
  8
PLAN_1
 62
     2
  6
CONTINUOUS
 10
0.626756
 20
-2.488264
  0
VERTEX
  8
PLAN_1
 62
     2
  6
CONTINUOUS
 10
0.625583
 20
-2.488850
  0
VERTEX
  8
PLAN_1
 62
     2
  6
CONTINUOUS
 10
0.623819
 20
-2.489437
  0
VERTEX
  8
PLAN_1
 62
     2
  6
CONTINUOUS
 10
0.622059
 20
-2.490024
  0
VERTEX
  8
PLAN_1
 62
     2
  6
CONTINUOUS
 10
0.619709
 20
-2.490614
  0
VERTEX
  8
PLAN_1
 62
     2
  6
CONTINUOUS
 10
0.617358
 20
-2.490614
  0
VERTEX
  8
PLAN_1
 62
     2
  6
CONTINUOUS
 10
0.613835
 20
-2.491201
  0
VERTEX
  8
PLAN_1
 62
     2
  6
CONTINUOUS
 10
0.608547
 20
-2.490614
  0
VERTEX
  8
PLAN_1
 62
     2
  6
CONTINUOUS
 10
0.603846
 20
-2.488850
  0
VERTEX
  8
PLAN_1
 62
     2
  6
CONTINUOUS
 10
0.599736
 20
-2.486500
  0
VERTEX
  8
PLAN_1
 62
     2
  6
CONTINUOUS
 10
0.596209
 20
-2.482976
  0
VERTEX
  8
PLAN_1
 62
     2
  6
CONTINUOUS
 10
0.593272
 20
-2.479453
  0
VERTEX
  8
PLAN_1
 62
     2
  6
CONTINUOUS
 10
0.591512
 20
-2.474752
  0
VERTEX
  8
PLAN_1
 62
     2
  6
CONTINUOUS
 10
0.590335
 20
-2.469465
  0
VERTEX
  8
PLAN_1
 62
     2
  6
CONTINUOUS
 10
0.589748
 20
-2.463591
  0
VERTEX
  8
PLAN_1
 62
     2
  6
CONTINUOUS
 10
0.590335
 20
-2.457717
  0
VERTEX
  8
PLAN_1
 62
     2
  6
CONTINUOUS
 10
0.591512
 20
-2.451839
  0
VERTEX
  8
PLAN_1
 62
     2
  6
CONTINUOUS
 10
0.593272
 20
-2.446555
  0
VERTEX
  8
PLAN_1
 62
     2
  6
CONTINUOUS
 10
0.596209
 20
-2.442441
  0
VERTEX
  8
PLAN_1
 62
     2
  6
CONTINUOUS
 10
0.597972
 20
-2.440091
  0
VERTEX
  8
PLAN_1
 62
     2
  6
CONTINUOUS
 10
0.599736
 20
-2.438331
  0
VERTEX
  8
PLAN_1
 62
     2
  6
CONTINUOUS
 10
0.601496
 20
-2.437154
  0
VERTEX
  8
PLAN_1
 62
     2
  6
CONTINUOUS
 10
0.603846
 20
-2.435980
  0
VERTEX
  8
PLAN_1
 62
     2
  6
CONTINUOUS
 10
0.606783
 20
-2.434803
  0
VERTEX
  8
PLAN_1
 62
     2
  6
CONTINUOUS
 10
0.609720
 20
-2.434217
  0
VERTEX
  8
PLAN_1
 62
     2
  6
CONTINUOUS
 10
0.612657
 20
-2.433630
  0
VERTEX
  8
PLAN_1
 62
     2
  6
CONTINUOUS
 10
0.615594
 20
-2.433630
  0
VERTEX
  8
PLAN_1
 62
     2
  6
CONTINUOUS
 10
0.618531
 20
-2.433630
  0
VERTEX
  8
PLAN_1
 62
     2
  6
CONTINUOUS
 10
0.621469
 20
-2.434217
  0
VERTEX
  8
PLAN_1
 62
     2
  6
CONTINUOUS
 10
0.623819
 20
-2.434803
  0
VERTEX
  8
PLAN_1
 62
     2
  6
CONTINUOUS
 10
0.626169
 20
-2.435394
  0
VERTEX
  8
PLAN_1
 62
     2
  6
CONTINUOUS
 10
0.627933
 20
-2.437154
  0
VERTEX
  8
PLAN_1
 62
     2
  6
CONTINUOUS
 10
0.630283
 20
-2.438331
  0
VERTEX
  8
PLAN_1
 62
     2
  6
CONTINUOUS
 10
0.632043
 20
-2.440091
  0
VERTEX
  8
PLAN_1
 62
     2
  6
CONTINUOUS
 10
0.633220
 20
-2.441854
  0
VERTEX
  8
PLAN_1
 62
     2
  6
CONTINUOUS
 10
0.636157
 20
-2.446555
  0
VERTEX
  8
PLAN_1
 62
     2
  6
CONTINUOUS
 10
0.637917
 20
-2.451839
  0
VERTEX
  8
PLAN_1
 62
     2
  6
CONTINUOUS
 10
0.639094
 20
-2.458303
  0
VERTEX
  8
PLAN_1
 62
     2
  6
CONTINUOUS
 10
0.639094
 20
-2.465350
  0
VERTEX
  8
PLAN_1
 62
     2
  6
CONTINUOUS
 10
0.599736
 20
-2.465350
  0
VERTEX
  8
PLAN_1
 62
     2
  6
CONTINUOUS
 10
0.599736
 20
-2.469465
  0
VERTEX
  8
PLAN_1
 62
     2
  6
CONTINUOUS
 10
0.600323
 20
-2.472988
  0
VERTEX
  8
PLAN_1
 62
     2
  6
CONTINUOUS
 10
0.601496
 20
-2.475925
  0
VERTEX
  8
PLAN_1
 62
     2
  6
CONTINUOUS
 10
0.603260
 20
-2.478276
  0
VERTEX
  8
PLAN_1
 62
     2
  6
CONTINUOUS
 10
0.605610
 20
-2.480626
  0
VERTEX
  8
PLAN_1
 62
     2
  6
CONTINUOUS
 10
0.608547
 20
-2.481799
  0
VERTEX
  8
PLAN_1
 62
     2
  6
CONTINUOUS
 10
0.611484
 20
-2.482976
  0
VERTEX
  8
PLAN_1
 62
     2
  6
CONTINUOUS
 10
0.615008
 20
-2.482976
  0
VERTEX
  8
PLAN_1
 62
     2
  6
CONTINUOUS
 10
0.618531
 20
-2.482976
  0
VERTEX
  8
PLAN_1
 62
     2
  6
CONTINUOUS
 10
0.620882
 20
-2.481799
  0
VERTEX
  8
PLAN_1
 62
     2
  6
CONTINUOUS
 10
0.623232
 20
-2.480626
  0
VERTEX
  8
PLAN_1
 62
     2
  6
CONTINUOUS
 10
0.625583
 20
-2.479453
  0
VERTEX
  8
PLAN_1
 62
     2
  6
CONTINUOUS
 10
0.626756
 20
-2.477689
  0
VERTEX
  8
PLAN_1
 62
     2
  6
CONTINUOUS
 10
0.627933
 20
-2.475925
  0
VERTEX
  8
PLAN_1
 62
     2
  6
CONTINUOUS
 10
0.629106
 20
-2.474165
  0
VERTEX
  8
PLAN_1
 62
     2
  6
CONTINUOUS
 10
0.629106
 20
-2.472402
  0
VERTEX
  8
PLAN_1
 62
     2
  6
CONTINUOUS
 10
0.638508
 20
-2.472402
  0
SEQEND
  8
0
  0
POLYLINE
  8
PLAN_1
 62
     2
  6
CONTINUOUS
 66
     1
 40
0.003000
 41
0.003000
  0
VERTEX
  8
PLAN_1
 62
     2
  6
CONTINUOUS
 10
0.629693
 20
-2.457717
  0
VERTEX
  8
PLAN_1
 62
     2
  6
CONTINUOUS
 10
0.629106
 20
-2.454780
  0
VERTEX
  8
PLAN_1
 62
     2
  6
CONTINUOUS
 10
0.628520
 20
-2.451839
  0
VERTEX
  8
PLAN_1
 62
     2
  6
CONTINUOUS
 10
0.627933
 20
-2.448902
  0
VERTEX
  8
PLAN_1
 62
     2
  6
CONTINUOUS
 10
0.626169
 20
-2.446555
  0
VERTEX
  8
PLAN_1
 62
     2
  6
CONTINUOUS
 10
0.623819
 20
-2.444791
  0
VERTEX
  8
PLAN_1
 62
     2
  6
CONTINUOUS
 10
0.621469
 20
-2.443028
  0
VERTEX
  8
PLAN_1
 62
     2
  6
CONTINUOUS
 10
0.618531
 20
-2.441854
  0
VERTEX
  8
PLAN_1
 62
     2
  6
CONTINUOUS
 10
0.614421
 20
-2.441854
  0
VERTEX
  8
PLAN_1
 62
     2
  6
CONTINUOUS
 10
0.611484
 20
-2.441854
  0
VERTEX
  8
PLAN_1
 62
     2
  6
CONTINUOUS
 10
0.608547
 20
-2.443028
  0
VERTEX
  8
PLAN_1
 62
     2
  6
CONTINUOUS
 10
0.606197
 20
-2.444791
  0
VERTEX
  8
PLAN_1
 62
     2
  6
CONTINUOUS
 10
0.603846
 20
-2.446555
  0
VERTEX
  8
PLAN_1
 62
     2
  6
CONTINUOUS
 10
0.602083
 20
-2.448902
  0
VERTEX
  8
PLAN_1
 62
     2
  6
CONTINUOUS
 10
0.600909
 20
-2.451839
  0
VERTEX
  8
PLAN_1
 62
     2
  6
CONTINUOUS
 10
0.599736
 20
-2.454780
  0
VERTEX
  8
PLAN_1
 62
     2
  6
CONTINUOUS
 10
0.599736
 20
-2.457717
  0
VERTEX
  8
PLAN_1
 62
     2
  6
CONTINUOUS
 10
0.629693
 20
-2.457717
  0
SEQEND
  8
0
  0
POLYLINE
  8
PLAN_1
 62
     2
  6
CONTINUOUS
 66
     1
 40
0.003000
 41
0.003000
  0
VERTEX
  8
PLAN_1
 62
     2
  6
CONTINUOUS
 10
0.002295
 20
-2.559933
  0
VERTEX
  8
PLAN_1
 62
     2
  6
CONTINUOUS
 10
0.011106
 20
-2.559933
  0
VERTEX
  8
PLAN_1
 62
     2
  6
CONTINUOUS
 10
0.011106
 20
-2.567571
  0
VERTEX
  8
PLAN_1
 62
     2
  6
CONTINUOUS
 10
0.012280
 20
-2.566394
  0
VERTEX
  8
PLAN_1
 62
     2
  6
CONTINUOUS
 10
0.012866
 20
-2.564630
  0
VERTEX
  8
PLAN_1
 62
     2
  6
CONTINUOUS
 10
0.014630
 20
-2.563457
  0
VERTEX
  8
PLAN_1
 62
     2
  6
CONTINUOUS
 10
0.016394
 20
-2.561693
  0
VERTEX
  8
PLAN_1
 62
     2
  6
CONTINUOUS
 10
0.018154
 20
-2.560520
  0
VERTEX
  8
PLAN_1
 62
     2
  6
CONTINUOUS
 10
0.021091
 20
-2.559346
  0
VERTEX
  8
PLAN_1
 62
     2
  6
CONTINUOUS
 10
0.024028
 20
-2.558756
  0
VERTEX
  8
PLAN_1
 62
     2
  6
CONTINUOUS
 10
0.027555
 20
-2.558169
  0
VERTEX
  8
PLAN_1
 62
     2
  6
CONTINUOUS
 10
0.032252
 20
-2.558756
  0
VERTEX
  8
PLAN_1
 62
     2
  6
CONTINUOUS
 10
0.036953
 20
-2.560520
  0
VERTEX
  8
PLAN_1
 62
     2
  6
CONTINUOUS
 10
0.041067
 20
-2.562870
  0
VERTEX
  8
PLAN_1
 62
     2
  6
CONTINUOUS
 10
0.044004
 20
-2.566394
  0
VERTEX
  8
PLAN_1
 62
     2
  6
CONTINUOUS
 10
0.046354
 20
-2.570508
  0
VERTEX
  8
PLAN_1
 62
     2
  6
CONTINUOUS
 10
0.048701
 20
-2.574618
  0
VERTEX
  8
PLAN_1
 62
     2
  6
CONTINUOUS
 10
0.049878
 20
-2.579906
  0
VERTEX
  8
PLAN_1
 62
     2
  6
CONTINUOUS
 10
0.049878
 20
-2.585780
  0
VERTEX
  8
PLAN_1
 62
     2
  6
CONTINUOUS
 10
0.049878
 20
-2.590480
  0
VERTEX
  8
PLAN_1
 62
     2
  6
CONTINUOUS
 10
0.048701
 20
-2.595768
  0
VERTEX
  8
PLAN_1
 62
     2
  6
CONTINUOUS
 10
0.047528
 20
-2.601055
  0
VERTEX
  8
PLAN_1
 62
     2
  6
CONTINUOUS
 10
0.045177
 20
-2.605752
  0
VERTEX
  8
PLAN_1
 62
     2
  6
CONTINUOUS
 10
0.043417
 20
-2.607516
  0
VERTEX
  8
PLAN_1
 62
     2
  6
CONTINUOUS
 10
0.041654
 20
-2.609866
  0
VERTEX
  8
PLAN_1
 62
     2
  6
CONTINUOUS
 10
0.039890
 20
-2.611630
  0
VERTEX
  8
PLAN_1
 62
     2
  6
CONTINUOUS
 10
0.037539
 20
-2.612803
  0
VERTEX
  8
PLAN_1
 62
     2
  6
CONTINUOUS
 10
0.035193
 20
-2.613976
  0
VERTEX
  8
PLAN_1
 62
     2
  6
CONTINUOUS
 10
0.032252
 20
-2.615154
  0
VERTEX
  8
PLAN_1
 62
     2
  6
CONTINUOUS
 10
0.029315
 20
-2.615740
  0
VERTEX
  8
PLAN_1
 62
     2
  6
CONTINUOUS
 10
0.025791
 20
-2.615740
  0
VERTEX
  8
PLAN_1
 62
     2
  6
CONTINUOUS
 10
0.023441
 20
-2.615740
  0
VERTEX
  8
PLAN_1
 62
     2
  6
CONTINUOUS
 10
0.021091
 20
-2.615154
  0
VERTEX
  8
PLAN_1
 62
     2
  6
CONTINUOUS
 10
0.018744
 20
-2.614567
  0
VERTEX
  8
PLAN_1
 62
     2
  6
CONTINUOUS
 10
0.016980
 20
-2.613976
  0
VERTEX
  8
PLAN_1
 62
     2
  6
CONTINUOUS
 10
0.015217
 20
-2.612803
  0
VERTEX
  8
PLAN_1
 62
     2
  6
CONTINUOUS
 10
0.014043
 20
-2.611630
  0
VERTEX
  8
PLAN_1
 62
     2
  6
CONTINUOUS
 10
0.012866
 20
-2.609866
  0
VERTEX
  8
PLAN_1
 62
     2
  6
CONTINUOUS
 10
0.011693
 20
-2.608689
  0
VERTEX
  8
PLAN_1
 62
     2
  6
CONTINUOUS
 10
0.011693
 20
-2.635713
  0
VERTEX
  8
PLAN_1
 62
     2
  6
CONTINUOUS
 10
0.002295
 20
-2.635713
  0
VERTEX
  8
PLAN_1
 62
     2
  6
CONTINUOUS
 10
0.002295
 20
-2.559933
  0
SEQEND
  8
0
  0
POLYLINE
  8
PLAN_1
 62
     2
  6
CONTINUOUS
 66
     1
 40
0.003000
 41
0.003000
  0
VERTEX
  8
PLAN_1
 62
     2
  6
CONTINUOUS
 10
0.025791
 20
-2.608102
  0
VERTEX
  8
PLAN_1
 62
     2
  6
CONTINUOUS
 10
0.029315
 20
-2.607516
  0
VERTEX
  8
PLAN_1
 62
     2
  6
CONTINUOUS
 10
0.032252
 20
-2.606343
  0
VERTEX
  8
PLAN_1
 62
     2
  6
CONTINUOUS
 10
0.034602
 20
-2.604579
  0
VERTEX
  8
PLAN_1
 62
     2
  6
CONTINUOUS
 10
0.036953
 20
-2.602228
  0
VERTEX
  8
PLAN_1
 62
     2
  6
CONTINUOUS
 10
0.038717
 20
-2.598705
  0
VERTEX
  8
PLAN_1
 62
     2
  6
CONTINUOUS
 10
0.039890
 20
-2.595181
  0
VERTEX
  8
PLAN_1
 62
     2
  6
CONTINUOUS
 10
0.040476
 20
-2.591067
  0
VERTEX
  8
PLAN_1
 62
     2
  6
CONTINUOUS
 10
0.040476
 20
-2.586957
  0
VERTEX
  8
PLAN_1
 62
     2
  6
CONTINUOUS
 10
0.040476
 20
-2.584016
  0
VERTEX
  8
PLAN_1
 62
     2
  6
CONTINUOUS
 10
0.040476
 20
-2.581079
  0
VERTEX
  8
PLAN_1
 62
     2
  6
CONTINUOUS
 10
0.039303
 20
-2.577555
  0
VERTEX
  8
PLAN_1
 62
     2
  6
CONTINUOUS
 10
0.038130
 20
-2.574031
  0
VERTEX
  8
PLAN_1
 62
     2
  6
CONTINUOUS
 10
0.036366
 20
-2.571094
  0
VERTEX
  8
PLAN_1
 62
     2
  6
CONTINUOUS
 10
0.034016
 20
-2.568744
  0
VERTEX
  8
PLAN_1
 62
     2
  6
CONTINUOUS
 10
0.032252
 20
-2.568157
  0
VERTEX
  8
PLAN_1
 62
     2
  6
CONTINUOUS
 10
0.030492
 20
-2.566980
  0
VERTEX
  8
PLAN_1
 62
     2
  6
CONTINUOUS
 10
0.028142
 20
-2.566980
  0
VERTEX
  8
PLAN_1
 62
     2
  6
CONTINUOUS
 10
0.025791
 20
-2.566394
  0
VERTEX
  8
PLAN_1
 62
     2
  6
CONTINUOUS
 10
0.023441
 20
-2.566980
  0
VERTEX
  8
PLAN_1
 62
     2
  6
CONTINUOUS
 10
0.021091
 20
-2.566980
  0
VERTEX
  8
PLAN_1
 62
     2
  6
CONTINUOUS
 10
0.019331
 20
-2.568157
  0
VERTEX
  8
PLAN_1
 62
     2
  6
CONTINUOUS
 10
0.017567
 20
-2.568744
  0
VERTEX
  8
PLAN_1
 62
     2
  6
CONTINUOUS
 10
0.015217
 20
-2.571681
  0
VERTEX
  8
PLAN_1
 62
     2
  6
CONTINUOUS
 10
0.013457
 20
-2.574618
  0
VERTEX
  8
PLAN_1
 62
     2
  6
CONTINUOUS
 10
0.012280
 20
-2.578732
  0
VERTEX
  8
PLAN_1
 62
     2
  6
CONTINUOUS
 10
0.011693
 20
-2.582256
  0
VERTEX
  8
PLAN_1
 62
     2
  6
CONTINUOUS
 10
0.011106
 20
-2.586366
  0
VERTEX
  8
PLAN_1
 62
     2
  6
CONTINUOUS
 10
0.011106
 20
-2.589894
  0
VERTEX
  8
PLAN_1
 62
     2
  6
CONTINUOUS
 10
0.011106
 20
-2.594591
  0
VERTEX
  8
PLAN_1
 62
     2
  6
CONTINUOUS
 10
0.012280
 20
-2.598705
  0
VERTEX
  8
PLAN_1
 62
     2
  6
CONTINUOUS
 10
0.014043
 20
-2.601642
  0
VERTEX
  8
PLAN_1
 62
     2
  6
CONTINUOUS
 10
0.016394
 20
-2.603992
  0
VERTEX
  8
PLAN_1
 62
     2
  6
CONTINUOUS
 10
0.018744
 20
-2.605752
  0
VERTEX
  8
PLAN_1
 62
     2
  6
CONTINUOUS
 10
0.021091
 20
-2.606929
  0
VERTEX
  8
PLAN_1
 62
     2
  6
CONTINUOUS
 10
0.023441
 20
-2.608102
  0
VERTEX
  8
PLAN_1
 62
     2
  6
CONTINUOUS
 10
0.025791
 20
-2.608102
  0
SEQEND
  8
0
  0
POLYLINE
  8
PLAN_1
 62
     2
  6
CONTINUOUS
 66
     1
 40
0.003000
 41
0.003000
  0
VERTEX
  8
PLAN_1
 62
     2
  6
CONTINUOUS
 10
0.082776
 20
-2.558169
  0
VERTEX
  8
PLAN_1
 62
     2
  6
CONTINUOUS
 10
0.086299
 20
-2.558756
  0
VERTEX
  8
PLAN_1
 62
     2
  6
CONTINUOUS
 10
0.089236
 20
-2.559346
  0
VERTEX
  8
PLAN_1
 62
     2
  6
CONTINUOUS
 10
0.091587
 20
-2.559933
  0
VERTEX
  8
PLAN_1
 62
     2
  6
CONTINUOUS
 10
0.094524
 20
-2.561106
  0
VERTEX
  8
PLAN_1
 62
     2
  6
CONTINUOUS
 10
0.098638
 20
-2.564043
  0
VERTEX
  8
PLAN_1
 62
     2
  6
CONTINUOUS
 10
0.102161
 20
-2.567571
  0
VERTEX
  8
PLAN_1
 62
     2
  6
CONTINUOUS
 10
0.105098
 20
-2.571681
  0
VERTEX
  8
PLAN_1
 62
     2
  6
CONTINUOUS
 10
0.106862
 20
-2.576969
  0
VERTEX
  8
PLAN_1
 62
     2
  6
CONTINUOUS
 10
0.108035
 20
-2.581669
  0
VERTEX
  8
PLAN_1
 62
     2
  6
CONTINUOUS
 10
0.108035
 20
-2.586957
  0
VERTEX
  8
PLAN_1
 62
     2
  6
CONTINUOUS
 10
0.108035
 20
-2.592240
  0
VERTEX
  8
PLAN_1
 62
     2
  6
CONTINUOUS
 10
0.106862
 20
-2.597528
  0
VERTEX
  8
PLAN_1
 62
     2
  6
CONTINUOUS
 10
0.105098
 20
-2.602228
  0
VERTEX
  8
PLAN_1
 62
     2
  6
CONTINUOUS
 10
0.102161
 20
-2.606929
  0
VERTEX
  8
PLAN_1
 62
     2
  6
CONTINUOUS
 10
0.100398
 20
-2.608689
  0
VERTEX
  8
PLAN_1
 62
     2
  6
CONTINUOUS
 10
0.098638
 20
-2.610453
  0
VERTEX
  8
PLAN_1
 62
     2
  6
CONTINUOUS
 10
0.096874
 20
-2.612217
  0
VERTEX
  8
PLAN_1
 62
     2
  6
CONTINUOUS
 10
0.094524
 20
-2.613390
  0
VERTEX
  8
PLAN_1
 62
     2
  6
CONTINUOUS
 10
0.091587
 20
-2.614567
  0
VERTEX
  8
PLAN_1
 62
     2
  6
CONTINUOUS
 10
0.089236
 20
-2.615154
  0
VERTEX
  8
PLAN_1
 62
     2
  6
CONTINUOUS
 10
0.086299
 20
-2.615740
  0
VERTEX
  8
PLAN_1
 62
     2
  6
CONTINUOUS
 10
0.082776
 20
-2.615740
  0
VERTEX
  8
PLAN_1
 62
     2
  6
CONTINUOUS
 10
0.079839
 20
-2.615740
  0
VERTEX
  8
PLAN_1
 62
     2
  6
CONTINUOUS
 10
0.076902
 20
-2.615154
  0
VERTEX
  8
PLAN_1
 62
     2
  6
CONTINUOUS
 10
0.073965
 20
-2.614567
  0
VERTEX
  8
PLAN_1
 62
     2
  6
CONTINUOUS
 10
0.071614
 20
-2.613390
  0
VERTEX
  8
PLAN_1
 62
     2
  6
CONTINUOUS
 10
0.069264
 20
-2.612217
  0
VERTEX
  8
PLAN_1
 62
     2
  6
CONTINUOUS
 10
0.067500
 20
-2.610453
  0
VERTEX
  8
PLAN_1
 62
     2
  6
CONTINUOUS
 10
0.065740
 20
-2.608689
  0
VERTEX
  8
PLAN_1
 62
     2
  6
CONTINUOUS
 10
0.063976
 20
-2.606929
  0
VERTEX
  8
PLAN_1
 62
     2
  6
CONTINUOUS
 10
0.061039
 20
-2.602228
  0
VERTEX
  8
PLAN_1
 62
     2
  6
CONTINUOUS
 10
0.059276
 20
-2.597528
  0
VERTEX
  8
PLAN_1
 62
     2
  6
CONTINUOUS
 10
0.058102
 20
-2.592240
  0
VERTEX
  8
PLAN_1
 62
     2
  6
CONTINUOUS
 10
0.057516
 20
-2.586957
  0
VERTEX
  8
PLAN_1
 62
     2
  6
CONTINUOUS
 10
0.058102
 20
-2.581669
  0
VERTEX
  8
PLAN_1
 62
     2
  6
CONTINUOUS
 10
0.059276
 20
-2.576969
  0
VERTEX
  8
PLAN_1
 62
     2
  6
CONTINUOUS
 10
0.061039
 20
-2.571681
  0
VERTEX
  8
PLAN_1
 62
     2
  6
CONTINUOUS
 10
0.063976
 20
-2.567571
  0
VERTEX
  8
PLAN_1
 62
     2
  6
CONTINUOUS
 10
0.065740
 20
-2.565807
  0
VERTEX
  8
PLAN_1
 62
     2
  6
CONTINUOUS
 10
0.067500
 20
-2.564043
  0
VERTEX
  8
PLAN_1
 62
     2
  6
CONTINUOUS
 10
0.069264
 20
-2.562283
  0
VERTEX
  8
PLAN_1
 62
     2
  6
CONTINUOUS
 10
0.071614
 20
-2.561106
  0
VERTEX
  8
PLAN_1
 62
     2
  6
CONTINUOUS
 10
0.073965
 20
-2.559933
  0
VERTEX
  8
PLAN_1
 62
     2
  6
CONTINUOUS
 10
0.076902
 20
-2.559346
  0
VERTEX
  8
PLAN_1
 62
     2
  6
CONTINUOUS
 10
0.079839
 20
-2.558756
  0
VERTEX
  8
PLAN_1
 62
     2
  6
CONTINUOUS
 10
0.082776
 20
-2.558169
  0
SEQEND
  8
0
  0
POLYLINE
  8
PLAN_1
 62
     2
  6
CONTINUOUS
 66
     1
 40
0.003000
 41
0.003000
  0
VERTEX
  8
PLAN_1
 62
     2
  6
CONTINUOUS
 10
0.082776
 20
-2.608102
  0
VERTEX
  8
PLAN_1
 62
     2
  6
CONTINUOUS
 10
0.085126
 20
-2.607516
  0
VERTEX
  8
PLAN_1
 62
     2
  6
CONTINUOUS
 10
0.087476
 20
-2.607516
  0
VERTEX
  8
PLAN_1
 62
     2
  6
CONTINUOUS
 10
0.089236
 20
-2.606343
  0
VERTEX
  8
PLAN_1
 62
     2
  6
CONTINUOUS
 10
0.091000
 20
-2.605752
  0
VERTEX
  8
PLAN_1
 62
     2
  6
CONTINUOUS
 10
0.093937
 20
-2.603406
  0
VERTEX
  8
PLAN_1
 62
     2
  6
CONTINUOUS
 10
0.095701
 20
-2.600465
  0
VERTEX
  8
PLAN_1
 62
     2
  6
CONTINUOUS
 10
0.097461
 20
-2.596941
  0
VERTEX
  8
PLAN_1
 62
     2
  6
CONTINUOUS
 10
0.098047
 20
-2.593417
  0
VERTEX
  8
PLAN_1
 62
     2
  6
CONTINUOUS
 10
0.098638
 20
-2.589894
  0
VERTEX
  8
PLAN_1
 62
     2
  6
CONTINUOUS
 10
0.098638
 20
-2.586957
  0
VERTEX
  8
PLAN_1
 62
     2
  6
CONTINUOUS
 10
0.098638
 20
-2.584016
  0
VERTEX
  8
PLAN_1
 62
     2
  6
CONTINUOUS
 10
0.098047
 20
-2.581079
  0
VERTEX
  8
PLAN_1
 62
     2
  6
CONTINUOUS
 10
0.097461
 20
-2.577555
  0
VERTEX
  8
PLAN_1
 62
     2
  6
CONTINUOUS
 10
0.095701
 20
-2.574031
  0
VERTEX
  8
PLAN_1
 62
     2
  6
CONTINUOUS
 10
0.093937
 20
-2.571094
  0
VERTEX
  8
PLAN_1
 62
     2
  6
CONTINUOUS
 10
0.091000
 20
-2.568744
  0
VERTEX
  8
PLAN_1
 62
     2
  6
CONTINUOUS
 10
0.089236
 20
-2.567571
  0
VERTEX
  8
PLAN_1
 62
     2
  6
CONTINUOUS
 10
0.087476
 20
-2.566980
  0
VERTEX
  8
PLAN_1
 62
     2
  6
CONTINUOUS
 10
0.085126
 20
-2.566394
  0
VERTEX
  8
PLAN_1
 62
     2
  6
CONTINUOUS
 10
0.082776
 20
-2.566394
  0
VERTEX
  8
PLAN_1
 62
     2
  6
CONTINUOUS
 10
0.080425
 20
-2.566394
  0
VERTEX
  8
PLAN_1
 62
     2
  6
CONTINUOUS
 10
0.078661
 20
-2.566980
  0
VERTEX
  8
PLAN_1
 62
     2
  6
CONTINUOUS
 10
0.076902
 20
-2.567571
  0
VERTEX
  8
PLAN_1
 62
     2
  6
CONTINUOUS
 10
0.075138
 20
-2.568744
  0
VERTEX
  8
PLAN_1
 62
     2
  6
CONTINUOUS
 10
0.072201
 20
-2.571094
  0
VERTEX
  8
PLAN_1
 62
     2
  6
CONTINUOUS
 10
0.070437
 20
-2.574031
  0
VERTEX
  8
PLAN_1
 62
     2
  6
CONTINUOUS
 10
0.068677
 20
-2.577555
  0
VERTEX
  8
PLAN_1
 62
     2
  6
CONTINUOUS
 10
0.068087
 20
-2.581079
  0
VERTEX
  8
PLAN_1
 62
     2
  6
CONTINUOUS
 10
0.067500
 20
-2.584016
  0
VERTEX
  8
PLAN_1
 62
     2
  6
CONTINUOUS
 10
0.067500
 20
-2.586957
  0
VERTEX
  8
PLAN_1
 62
     2
  6
CONTINUOUS
 10
0.067500
 20
-2.589894
  0
VERTEX
  8
PLAN_1
 62
     2
  6
CONTINUOUS
 10
0.068087
 20
-2.593417
  0
VERTEX
  8
PLAN_1
 62
     2
  6
CONTINUOUS
 10
0.068677
 20
-2.596941
  0
VERTEX
  8
PLAN_1
 62
     2
  6
CONTINUOUS
 10
0.070437
 20
-2.600465
  0
VERTEX
  8
PLAN_1
 62
     2
  6
CONTINUOUS
 10
0.072201
 20
-2.603406
  0
VERTEX
  8
PLAN_1
 62
     2
  6
CONTINUOUS
 10
0.075138
 20
-2.605752
  0
VERTEX
  8
PLAN_1
 62
     2
  6
CONTINUOUS
 10
0.076902
 20
-2.606343
  0
VERTEX
  8
PLAN_1
 62
     2
  6
CONTINUOUS
 10
0.078661
 20
-2.607516
  0
VERTEX
  8
PLAN_1
 62
     2
  6
CONTINUOUS
 10
0.080425
 20
-2.607516
  0
VERTEX
  8
PLAN_1
 62
     2
  6
CONTINUOUS
 10
0.082776
 20
-2.608102
  0
SEQEND
  8
0
  0
POLYLINE
  8
PLAN_1
 62
     2
  6
CONTINUOUS
 66
     1
 40
0.003000
 41
0.003000
  0
VERTEX
  8
PLAN_1
 62
     2
  6
CONTINUOUS
 10
0.154445
 20
-2.614567
  0
VERTEX
  8
PLAN_1
 62
     2
  6
CONTINUOUS
 10
0.154445
 20
-2.606343
  0
VERTEX
  8
PLAN_1
 62
     2
  6
CONTINUOUS
 10
0.153858
 20
-2.606343
  0
VERTEX
  8
PLAN_1
 62
     2
  6
CONTINUOUS
 10
0.152681
 20
-2.608689
  0
VERTEX
  8
PLAN_1
 62
     2
  6
CONTINUOUS
 10
0.150921
 20
-2.610453
  0
VERTEX
  8
PLAN_1
 62
     2
  6
CONTINUOUS
 10
0.149157
 20
-2.612217
  0
VERTEX
  8
PLAN_1
 62
     2
  6
CONTINUOUS
 10
0.147394
 20
-2.613390
  0
VERTEX
  8
PLAN_1
 62
     2
  6
CONTINUOUS
 10
0.145043
 20
-2.614567
  0
VERTEX
  8
PLAN_1
 62
     2
  6
CONTINUOUS
 10
0.142697
 20
-2.615154
  0
VERTEX
  8
PLAN_1
 62
     2
  6
CONTINUOUS
 10
0.139760
 20
-2.615740
  0
VERTEX
  8
PLAN_1
 62
     2
  6
CONTINUOUS
 10
0.136819
 20
-2.615740
  0
VERTEX
  8
PLAN_1
 62
     2
  6
CONTINUOUS
 10
0.133882
 20
-2.615740
  0
VERTEX
  8
PLAN_1
 62
     2
  6
CONTINUOUS
 10
0.130358
 20
-2.615154
  0
VERTEX
  8
PLAN_1
 62
     2
  6
CONTINUOUS
 10
0.127421
 20
-2.613976
  0
VERTEX
  8
PLAN_1
 62
     2
  6
CONTINUOUS
 10
0.125071
 20
-2.612217
  0
VERTEX
  8
PLAN_1
 62
     2
  6
CONTINUOUS
 10
0.122720
 20
-2.609866
  0
VERTEX
  8
PLAN_1
 62
     2
  6
CONTINUOUS
 10
0.120961
 20
-2.606929
  0
VERTEX
  8
PLAN_1
 62
     2
  6
CONTINUOUS
 10
0.119783
 20
-2.603406
  0
VERTEX
  8
PLAN_1
 62
     2
  6
CONTINUOUS
 10
0.119197
 20
-2.599291
  0
VERTEX
  8
PLAN_1
 62
     2
  6
CONTINUOUS
 10
0.119197
 20
-2.559933
  0
VERTEX
  8
PLAN_1
 62
     2
  6
CONTINUOUS
 10
0.128008
 20
-2.559933
  0
VERTEX
  8
PLAN_1
 62
     2
  6
CONTINUOUS
 10
0.128008
 20
-2.595768
  0
VERTEX
  8
PLAN_1
 62
     2
  6
CONTINUOUS
 10
0.128594
 20
-2.599291
  0
VERTEX
  8
PLAN_1
 62
     2
  6
CONTINUOUS
 10
0.129185
 20
-2.601642
  0
VERTEX
  8
PLAN_1
 62
     2
  6
CONTINUOUS
 10
0.129772
 20
-2.603992
  0
VERTEX
  8
PLAN_1
 62
     2
  6
CONTINUOUS
 10
0.131535
 20
-2.605165
  0
VERTEX
  8
PLAN_1
 62
     2
  6
CONTINUOUS
 10
0.132709
 20
-2.606343
  0
VERTEX
  8
PLAN_1
 62
     2
  6
CONTINUOUS
 10
0.134472
 20
-2.607516
  0
VERTEX
  8
PLAN_1
 62
     2
  6
CONTINUOUS
 10
0.136819
 20
-2.608102
  0
VERTEX
  8
PLAN_1
 62
     2
  6
CONTINUOUS
 10
0.138583
 20
-2.608102
  0
VERTEX
  8
PLAN_1
 62
     2
  6
CONTINUOUS
 10
0.142697
 20
-2.607516
  0
VERTEX
  8
PLAN_1
 62
     2
  6
CONTINUOUS
 10
0.146220
 20
-2.606343
  0
VERTEX
  8
PLAN_1
 62
     2
  6
CONTINUOUS
 10
0.148571
 20
-2.604579
  0
VERTEX
  8
PLAN_1
 62
     2
  6
CONTINUOUS
 10
0.150331
 20
-2.601642
  0
VERTEX
  8
PLAN_1
 62
     2
  6
CONTINUOUS
 10
0.152094
 20
-2.599291
  0
VERTEX
  8
PLAN_1
 62
     2
  6
CONTINUOUS
 10
0.153268
 20
-2.596354
  0
VERTEX
  8
PLAN_1
 62
     2
  6
CONTINUOUS
 10
0.153268
 20
-2.592831
  0
VERTEX
  8
PLAN_1
 62
     2
  6
CONTINUOUS
 10
0.153858
 20
-2.589894
  0
VERTEX
  8
PLAN_1
 62
     2
  6
CONTINUOUS
 10
0.153858
 20
-2.559933
  0
VERTEX
  8
PLAN_1
 62
     2
  6
CONTINUOUS
 10
0.162669
 20
-2.559933
  0
VERTEX
  8
PLAN_1
 62
     2
  6
CONTINUOUS
 10
0.162669
 20
-2.614567
  0
VERTEX
  8
PLAN_1
 62
     2
  6
CONTINUOUS
 10
0.154445
 20
-2.614567
  0
SEQEND
  8
0
  0
POLYLINE
  8
PLAN_1
 62
     2
  6
CONTINUOUS
 66
     1
 40
0.003000
 41
0.003000
  0
VERTEX
  8
PLAN_1
 62
     2
  6
CONTINUOUS
 10
0.187343
 20
-2.614567
  0
VERTEX
  8
PLAN_1
 62
     2
  6
CONTINUOUS
 10
0.177941
 20
-2.614567
  0
VERTEX
  8
PLAN_1
 62
     2
  6
CONTINUOUS
 10
0.177941
 20
-2.559933
  0
VERTEX
  8
PLAN_1
 62
     2
  6
CONTINUOUS
 10
0.186756
 20
-2.559933
  0
VERTEX
  8
PLAN_1
 62
     2
  6
CONTINUOUS
 10
0.186756
 20
-2.568744
  0
VERTEX
  8
PLAN_1
 62
     2
  6
CONTINUOUS
 10
0.187929
 20
-2.566980
  0
VERTEX
  8
PLAN_1
 62
     2
  6
CONTINUOUS
 10
0.189693
 20
-2.564630
  0
VERTEX
  8
PLAN_1
 62
     2
  6
CONTINUOUS
 10
0.191453
 20
-2.562870
  0
VERTEX
  8
PLAN_1
 62
     2
  6
CONTINUOUS
 10
0.193217
 20
-2.561106
  0
VERTEX
  8
PLAN_1
 62
     2
  6
CONTINUOUS
 10
0.194980
 20
-2.559933
  0
VERTEX
  8
PLAN_1
 62
     2
  6
CONTINUOUS
 10
0.197327
 20
-2.559346
  0
VERTEX
  8
PLAN_1
 62
     2
  6
CONTINUOUS
 10
0.199677
 20
-2.558756
  0
VERTEX
  8
PLAN_1
 62
     2
  6
CONTINUOUS
 10
0.202028
 20
-2.558169
  0
VERTEX
  8
PLAN_1
 62
     2
  6
CONTINUOUS
 10
0.202614
 20
-2.558169
  0
VERTEX
  8
PLAN_1
 62
     2
  6
CONTINUOUS
 10
0.203205
 20
-2.558169
  0
VERTEX
  8
PLAN_1
 62
     2
  6
CONTINUOUS
 10
0.203205
 20
-2.558756
  0
VERTEX
  8
PLAN_1
 62
     2
  6
CONTINUOUS
 10
0.203791
 20
-2.558756
  0
VERTEX
  8
PLAN_1
 62
     2
  6
CONTINUOUS
 10
0.204378
 20
-2.558756
  0
VERTEX
  8
PLAN_1
 62
     2
  6
CONTINUOUS
 10
0.204378
 20
-2.568157
  0
VERTEX
  8
PLAN_1
 62
     2
  6
CONTINUOUS
 10
0.200854
 20
-2.568157
  0
VERTEX
  8
PLAN_1
 62
     2
  6
CONTINUOUS
 10
0.197917
 20
-2.568744
  0
VERTEX
  8
PLAN_1
 62
     2
  6
CONTINUOUS
 10
0.194980
 20
-2.569331
  0
VERTEX
  8
PLAN_1
 62
     2
  6
CONTINUOUS
 10
0.192630
 20
-2.570508
  0
VERTEX
  8
PLAN_1
 62
     2
  6
CONTINUOUS
 10
0.190866
 20
-2.572268
  0
VERTEX
  8
PLAN_1
 62
     2
  6
CONTINUOUS
 10
0.189102
 20
-2.574618
  0
VERTEX
  8
PLAN_1
 62
     2
  6
CONTINUOUS
 10
0.187929
 20
-2.576969
  0
VERTEX
  8
PLAN_1
 62
     2
  6
CONTINUOUS
 10
0.187343
 20
-2.579906
  0
VERTEX
  8
PLAN_1
 62
     2
  6
CONTINUOUS
 10
0.187343
 20
-2.582843
  0
VERTEX
  8
PLAN_1
 62
     2
  6
CONTINUOUS
 10
0.187343
 20
-2.614567
  0
SEQEND
  8
0
  0
POLYLINE
  8
PLAN_1
 62
     2
  6
CONTINUOUS
 66
     1
 40
0.003000
 41
0.003000
  0
VERTEX
  8
PLAN_1
 62
     2
  6
CONTINUOUS
 10
0.251374
 20
-2.567571
  0
VERTEX
  8
PLAN_1
 62
     2
  6
CONTINUOUS
 10
0.251374
 20
-2.602815
  0
VERTEX
  8
PLAN_1
 62
     2
  6
CONTINUOUS
 10
0.251374
 20
-2.604579
  0
VERTEX
  8
PLAN_1
 62
     2
  6
CONTINUOUS
 10
0.251961
 20
-2.605165
  0
VERTEX
  8
PLAN_1
 62
     2
  6
CONTINUOUS
 10
0.252547
 20
-2.606343
  0
VERTEX
  8
PLAN_1
 62
     2
  6
CONTINUOUS
 10
0.253724
 20
-2.606929
  0
VERTEX
  8
PLAN_1
 62
     2
  6
CONTINUOUS
 10
0.254311
 20
-2.606929
  0
VERTEX
  8
PLAN_1
 62
     2
  6
CONTINUOUS
 10
0.255488
 20
-2.606929
  0
VERTEX
  8
PLAN_1
 62
     2
  6
CONTINUOUS
 10
0.256075
 20
-2.606929
  0
VERTEX
  8
PLAN_1
 62
     2
  6
CONTINUOUS
 10
0.257248
 20
-2.606929
  0
VERTEX
  8
PLAN_1
 62
     2
  6
CONTINUOUS
 10
0.260185
 20
-2.606929
  0
VERTEX
  8
PLAN_1
 62
     2
  6
CONTINUOUS
 10
0.260185
 20
-2.614567
  0
VERTEX
  8
PLAN_1
 62
     2
  6
CONTINUOUS
 10
0.259012
 20
-2.614567
  0
VERTEX
  8
PLAN_1
 62
     2
  6
CONTINUOUS
 10
0.257835
 20
-2.614567
  0
VERTEX
  8
PLAN_1
 62
     2
  6
CONTINUOUS
 10
0.256661
 20
-2.614567
  0
VERTEX
  8
PLAN_1
 62
     2
  6
CONTINUOUS
 10
0.256075
 20
-2.614567
  0
VERTEX
  8
PLAN_1
 62
     2
  6
CONTINUOUS
 10
0.254898
 20
-2.615154
  0
VERTEX
  8
PLAN_1
 62
     2
  6
CONTINUOUS
 10
0.254311
 20
-2.615154
  0
VERTEX
  8
PLAN_1
 62
     2
  6
CONTINUOUS
 10
0.253724
 20
-2.615154
  0
VERTEX
  8
PLAN_1
 62
     2
  6
CONTINUOUS
 10
0.253138
 20
-2.615154
  0
VERTEX
  8
PLAN_1
 62
     2
  6
CONTINUOUS
 10
0.250201
 20
-2.615154
  0
VERTEX
  8
PLAN_1
 62
     2
  6
CONTINUOUS
 10
0.247850
 20
-2.613976
  0
VERTEX
  8
PLAN_1
 62
     2
  6
CONTINUOUS
 10
0.246087
 20
-2.613390
  0
VERTEX
  8
PLAN_1
 62
     2
  6
CONTINUOUS
 10
0.244323
 20
-2.611630
  0
VERTEX
  8
PLAN_1
 62
     2
  6
CONTINUOUS
 10
0.243150
 20
-2.609866
  0
VERTEX
  8
PLAN_1
 62
     2
  6
CONTINUOUS
 10
0.242563
 20
-2.608102
  0
VERTEX
  8
PLAN_1
 62
     2
  6
CONTINUOUS
 10
0.242563
 20
-2.605752
  0
VERTEX
  8
PLAN_1
 62
     2
  6
CONTINUOUS
 10
0.242563
 20
-2.603406
  0
VERTEX
  8
PLAN_1
 62
     2
  6
CONTINUOUS
 10
0.242563
 20
-2.567571
  0
VERTEX
  8
PLAN_1
 62
     2
  6
CONTINUOUS
 10
0.234925
 20
-2.567571
  0
VERTEX
  8
PLAN_1
 62
     2
  6
CONTINUOUS
 10
0.234925
 20
-2.559933
  0
VERTEX
  8
PLAN_1
 62
     2
  6
CONTINUOUS
 10
0.242563
 20
-2.559933
  0
VERTEX
  8
PLAN_1
 62
     2
  6
CONTINUOUS
 10
0.242563
 20
-2.544657
  0
VERTEX
  8
PLAN_1
 62
     2
  6
CONTINUOUS
 10
0.251374
 20
-2.544657
  0
VERTEX
  8
PLAN_1
 62
     2
  6
CONTINUOUS
 10
0.251374
 20
-2.559933
  0
VERTEX
  8
PLAN_1
 62
     2
  6
CONTINUOUS
 10
0.260185
 20
-2.559933
  0
VERTEX
  8
PLAN_1
 62
     2
  6
CONTINUOUS
 10
0.260185
 20
-2.567571
  0
VERTEX
  8
PLAN_1
 62
     2
  6
CONTINUOUS
 10
0.251374
 20
-2.567571
  0
SEQEND
  8
0
  0
POLYLINE
  8
PLAN_1
 62
     2
  6
CONTINUOUS
 66
     1
 40
0.003000
 41
0.003000
  0
VERTEX
  8
PLAN_1
 62
     2
  6
CONTINUOUS
 10
0.304831
 20
-2.614567
  0
VERTEX
  8
PLAN_1
 62
     2
  6
CONTINUOUS
 10
0.304831
 20
-2.606343
  0
VERTEX
  8
PLAN_1
 62
     2
  6
CONTINUOUS
 10
0.304244
 20
-2.606343
  0
VERTEX
  8
PLAN_1
 62
     2
  6
CONTINUOUS
 10
0.303071
 20
-2.608689
  0
VERTEX
  8
PLAN_1
 62
     2
  6
CONTINUOUS
 10
0.301307
 20
-2.610453
  0
VERTEX
  8
PLAN_1
 62
     2
  6
CONTINUOUS
 10
0.299547
 20
-2.612217
  0
VERTEX
  8
PLAN_1
 62
     2
  6
CONTINUOUS
 10
0.297783
 20
-2.613390
  0
VERTEX
  8
PLAN_1
 62
     2
  6
CONTINUOUS
 10
0.295433
 20
-2.614567
  0
VERTEX
  8
PLAN_1
 62
     2
  6
CONTINUOUS
 10
0.293083
 20
-2.615154
  0
VERTEX
  8
PLAN_1
 62
     2
  6
CONTINUOUS
 10
0.290146
 20
-2.615740
  0
VERTEX
  8
PLAN_1
 62
     2
  6
CONTINUOUS
 10
0.287209
 20
-2.615740
  0
VERTEX
  8
PLAN_1
 62
     2
  6
CONTINUOUS
 10
0.284272
 20
-2.615740
  0
VERTEX
  8
PLAN_1
 62
     2
  6
CONTINUOUS
 10
0.281335
 20
-2.615154
  0
VERTEX
  8
PLAN_1
 62
     2
  6
CONTINUOUS
 10
0.277811
 20
-2.613976
  0
VERTEX
  8
PLAN_1
 62
     2
  6
CONTINUOUS
 10
0.275461
 20
-2.612217
  0
VERTEX
  8
PLAN_1
 62
     2
  6
CONTINUOUS
 10
0.273110
 20
-2.609866
  0
VERTEX
  8
PLAN_1
 62
     2
  6
CONTINUOUS
 10
0.271346
 20
-2.606929
  0
VERTEX
  8
PLAN_1
 62
     2
  6
CONTINUOUS
 10
0.270173
 20
-2.603406
  0
VERTEX
  8
PLAN_1
 62
     2
  6
CONTINUOUS
 10
0.269587
 20
-2.599291
  0
VERTEX
  8
PLAN_1
 62
     2
  6
CONTINUOUS
 10
0.269587
 20
-2.559933
  0
VERTEX
  8
PLAN_1
 62
     2
  6
CONTINUOUS
 10
0.278398
 20
-2.559933
  0
VERTEX
  8
PLAN_1
 62
     2
  6
CONTINUOUS
 10
0.278398
 20
-2.595768
  0
VERTEX
  8
PLAN_1
 62
     2
  6
CONTINUOUS
 10
0.278984
 20
-2.599291
  0
VERTEX
  8
PLAN_1
 62
     2
  6
CONTINUOUS
 10
0.279571
 20
-2.601642
  0
VERTEX
  8
PLAN_1
 62
     2
  6
CONTINUOUS
 10
0.280161
 20
-2.603992
  0
VERTEX
  8
PLAN_1
 62
     2
  6
CONTINUOUS
 10
0.281921
 20
-2.605165
  0
VERTEX
  8
PLAN_1
 62
     2
  6
CONTINUOUS
 10
0.283098
 20
-2.606343
  0
VERTEX
  8
PLAN_1
 62
     2
  6
CONTINUOUS
 10
0.284858
 20
-2.607516
  0
VERTEX
  8
PLAN_1
 62
     2
  6
CONTINUOUS
 10
0.287209
 20
-2.608102
  0
VERTEX
  8
PLAN_1
 62
     2
  6
CONTINUOUS
 10
0.288972
 20
-2.608102
  0
VERTEX
  8
PLAN_1
 62
     2
  6
CONTINUOUS
 10
0.293083
 20
-2.607516
  0
VERTEX
  8
PLAN_1
 62
     2
  6
CONTINUOUS
 10
0.296606
 20
-2.606343
  0
VERTEX
  8
PLAN_1
 62
     2
  6
CONTINUOUS
 10
0.298957
 20
-2.604579
  0
VERTEX
  8
PLAN_1
 62
     2
  6
CONTINUOUS
 10
0.300720
 20
-2.601642
  0
VERTEX
  8
PLAN_1
 62
     2
  6
CONTINUOUS
 10
0.302484
 20
-2.599291
  0
VERTEX
  8
PLAN_1
 62
     2
  6
CONTINUOUS
 10
0.303657
 20
-2.596354
  0
VERTEX
  8
PLAN_1
 62
     2
  6
CONTINUOUS
 10
0.304244
 20
-2.592831
  0
VERTEX
  8
PLAN_1
 62
     2
  6
CONTINUOUS
 10
0.304244
 20
-2.589894
  0
VERTEX
  8
PLAN_1
 62
     2
  6
CONTINUOUS
 10
0.304244
 20
-2.559933
  0
VERTEX
  8
PLAN_1
 62
     2
  6
CONTINUOUS
 10
0.313055
 20
-2.559933
  0
VERTEX
  8
PLAN_1
 62
     2
  6
CONTINUOUS
 10
0.313055
 20
-2.614567
  0
VERTEX
  8
PLAN_1
 62
     2
  6
CONTINUOUS
 10
0.304831
 20
-2.614567
  0
SEQEND
  8
0
  0
POLYLINE
  8
PLAN_1
 62
     2
  6
CONTINUOUS
 66
     1
 40
0.003000
 41
0.003000
  0
VERTEX
  8
PLAN_1
 62
     2
  6
CONTINUOUS
 10
0.326567
 20
-2.614567
  0
VERTEX
  8
PLAN_1
 62
     2
  6
CONTINUOUS
 10
0.326567
 20
-2.539370
  0
VERTEX
  8
PLAN_1
 62
     2
  6
CONTINUOUS
 10
0.335382
 20
-2.539370
  0
VERTEX
  8
PLAN_1
 62
     2
  6
CONTINUOUS
 10
0.335382
 20
-2.566980
  0
VERTEX
  8
PLAN_1
 62
     2
  6
CONTINUOUS
 10
0.335969
 20
-2.566980
  0
VERTEX
  8
PLAN_1
 62
     2
  6
CONTINUOUS
 10
0.337142
 20
-2.564630
  0
VERTEX
  8
PLAN_1
 62
     2
  6
CONTINUOUS
 10
0.338906
 20
-2.562870
  0
VERTEX
  8
PLAN_1
 62
     2
  6
CONTINUOUS
 10
0.340665
 20
-2.561693
  0
VERTEX
  8
PLAN_1
 62
     2
  6
CONTINUOUS
 10
0.342429
 20
-2.560520
  0
VERTEX
  8
PLAN_1
 62
     2
  6
CONTINUOUS
 10
0.344780
 20
-2.559346
  0
VERTEX
  8
PLAN_1
 62
     2
  6
CONTINUOUS
 10
0.347130
 20
-2.558756
  0
VERTEX
  8
PLAN_1
 62
     2
  6
CONTINUOUS
 10
0.348890
 20
-2.558756
  0
VERTEX
  8
PLAN_1
 62
     2
  6
CONTINUOUS
 10
0.351240
 20
-2.558169
  0
VERTEX
  8
PLAN_1
 62
     2
  6
CONTINUOUS
 10
0.356528
 20
-2.558756
  0
VERTEX
  8
PLAN_1
 62
     2
  6
CONTINUOUS
 10
0.361228
 20
-2.560520
  0
VERTEX
  8
PLAN_1
 62
     2
  6
CONTINUOUS
 10
0.364752
 20
-2.562870
  0
VERTEX
  8
PLAN_1
 62
     2
  6
CONTINUOUS
 10
0.368280
 20
-2.566394
  0
VERTEX
  8
PLAN_1
 62
     2
  6
CONTINUOUS
 10
0.370626
 20
-2.570508
  0
VERTEX
  8
PLAN_1
 62
     2
  6
CONTINUOUS
 10
0.372390
 20
-2.574618
  0
VERTEX
  8
PLAN_1
 62
     2
  6
CONTINUOUS
 10
0.373563
 20
-2.579906
  0
VERTEX
  8
PLAN_1
 62
     2
  6
CONTINUOUS
 10
0.374154
 20
-2.585780
  0
VERTEX
  8
PLAN_1
 62
     2
  6
CONTINUOUS
 10
0.373563
 20
-2.590480
  0
VERTEX
  8
PLAN_1
 62
     2
  6
CONTINUOUS
 10
0.372976
 20
-2.595768
  0
VERTEX
  8
PLAN_1
 62
     2
  6
CONTINUOUS
 10
0.371217
 20
-2.601055
  0
VERTEX
  8
PLAN_1
 62
     2
  6
CONTINUOUS
 10
0.368866
 20
-2.605752
  0
VERTEX
  8
PLAN_1
 62
     2
  6
CONTINUOUS
 10
0.367689
 20
-2.607516
  0
VERTEX
  8
PLAN_1
 62
     2
  6
CONTINUOUS
 10
0.365929
 20
-2.609866
  0
VERTEX
  8
PLAN_1
 62
     2
  6
CONTINUOUS
 10
0.364165
 20
-2.611630
  0
VERTEX
  8
PLAN_1
 62
     2
  6
CONTINUOUS
 10
0.361815
 20
-2.612803
  0
VERTEX
  8
PLAN_1
 62
     2
  6
CONTINUOUS
 10
0.359465
 20
-2.613976
  0
VERTEX
  8
PLAN_1
 62
     2
  6
CONTINUOUS
 10
0.356528
 20
-2.615154
  0
VERTEX
  8
PLAN_1
 62
     2
  6
CONTINUOUS
 10
0.353591
 20
-2.615740
  0
VERTEX
  8
PLAN_1
 62
     2
  6
CONTINUOUS
 10
0.350067
 20
-2.615740
  0
VERTEX
  8
PLAN_1
 62
     2
  6
CONTINUOUS
 10
0.347130
 20
-2.615740
  0
VERTEX
  8
PLAN_1
 62
     2
  6
CONTINUOUS
 10
0.344193
 20
-2.615154
  0
VERTEX
  8
PLAN_1
 62
     2
  6
CONTINUOUS
 10
0.341843
 20
-2.613976
  0
VERTEX
  8
PLAN_1
 62
     2
  6
CONTINUOUS
 10
0.340079
 20
-2.612803
  0
VERTEX
  8
PLAN_1
 62
     2
  6
CONTINUOUS
 10
0.338319
 20
-2.611630
  0
VERTEX
  8
PLAN_1
 62
     2
  6
CONTINUOUS
 10
0.337142
 20
-2.610453
  0
VERTEX
  8
PLAN_1
 62
     2
  6
CONTINUOUS
 10
0.335969
 20
-2.608689
  0
VERTEX
  8
PLAN_1
 62
     2
  6
CONTINUOUS
 10
0.335382
 20
-2.607516
  0
VERTEX
  8
PLAN_1
 62
     2
  6
CONTINUOUS
 10
0.334791
 20
-2.607516
  0
VERTEX
  8
PLAN_1
 62
     2
  6
CONTINUOUS
 10
0.334791
 20
-2.614567
  0
VERTEX
  8
PLAN_1
 62
     2
  6
CONTINUOUS
 10
0.326567
 20
-2.614567
  0
SEQEND
  8
0
  0
POLYLINE
  8
PLAN_1
 62
     2
  6
CONTINUOUS
 66
     1
 40
0.003000
 41
0.003000
  0
VERTEX
  8
PLAN_1
 62
     2
  6
CONTINUOUS
 10
0.349480
 20
-2.566394
  0
VERTEX
  8
PLAN_1
 62
     2
  6
CONTINUOUS
 10
0.347130
 20
-2.566980
  0
VERTEX
  8
PLAN_1
 62
     2
  6
CONTINUOUS
 10
0.345366
 20
-2.566980
  0
VERTEX
  8
PLAN_1
 62
     2
  6
CONTINUOUS
 10
0.343606
 20
-2.568157
  0
VERTEX
  8
PLAN_1
 62
     2
  6
CONTINUOUS
 10
0.341843
 20
-2.568744
  0
VERTEX
  8
PLAN_1
 62
     2
  6
CONTINUOUS
 10
0.339492
 20
-2.571681
  0
VERTEX
  8
PLAN_1
 62
     2
  6
CONTINUOUS
 10
0.337728
 20
-2.574618
  0
VERTEX
  8
PLAN_1
 62
     2
  6
CONTINUOUS
 10
0.335969
 20
-2.578732
  0
VERTEX
  8
PLAN_1
 62
     2
  6
CONTINUOUS
 10
0.335382
 20
-2.582256
  0
VERTEX
  8
PLAN_1
 62
     2
  6
CONTINUOUS
 10
0.335382
 20
-2.586366
  0
VERTEX
  8
PLAN_1
 62
     2
  6
CONTINUOUS
 10
0.335382
 20
-2.589894
  0
VERTEX
  8
PLAN_1
 62
     2
  6
CONTINUOUS
 10
0.335382
 20
-2.594591
  0
VERTEX
  8
PLAN_1
 62
     2
  6
CONTINUOUS
 10
0.336555
 20
-2.598705
  0
VERTEX
  8
PLAN_1
 62
     2
  6
CONTINUOUS
 10
0.338319
 20
-2.601642
  0
VERTEX
  8
PLAN_1
 62
     2
  6
CONTINUOUS
 10
0.340079
 20
-2.603992
  0
VERTEX
  8
PLAN_1
 62
     2
  6
CONTINUOUS
 10
0.342429
 20
-2.605752
  0
VERTEX
  8
PLAN_1
 62
     2
  6
CONTINUOUS
 10
0.345366
 20
-2.606929
  0
VERTEX
  8
PLAN_1
 62
     2
  6
CONTINUOUS
 10
0.347717
 20
-2.608102
  0
VERTEX
  8
PLAN_1
 62
     2
  6
CONTINUOUS
 10
0.350067
 20
-2.608102
  0
VERTEX
  8
PLAN_1
 62
     2
  6
CONTINUOUS
 10
0.353591
 20
-2.607516
  0
VERTEX
  8
PLAN_1
 62
     2
  6
CONTINUOUS
 10
0.356528
 20
-2.606343
  0
VERTEX
  8
PLAN_1
 62
     2
  6
CONTINUOUS
 10
0.358878
 20
-2.604579
  0
VERTEX
  8
PLAN_1
 62
     2
  6
CONTINUOUS
 10
0.361228
 20
-2.602228
  0
VERTEX
  8
PLAN_1
 62
     2
  6
CONTINUOUS
 10
0.362402
 20
-2.598705
  0
VERTEX
  8
PLAN_1
 62
     2
  6
CONTINUOUS
 10
0.363579
 20
-2.595181
  0
VERTEX
  8
PLAN_1
 62
     2
  6
CONTINUOUS
 10
0.364165
 20
-2.591067
  0
VERTEX
  8
PLAN_1
 62
     2
  6
CONTINUOUS
 10
0.364752
 20
-2.586957
  0
VERTEX
  8
PLAN_1
 62
     2
  6
CONTINUOUS
 10
0.364752
 20
-2.584016
  0
VERTEX
  8
PLAN_1
 62
     2
  6
CONTINUOUS
 10
0.364165
 20
-2.581079
  0
VERTEX
  8
PLAN_1
 62
     2
  6
CONTINUOUS
 10
0.363579
 20
-2.577555
  0
VERTEX
  8
PLAN_1
 62
     2
  6
CONTINUOUS
 10
0.362402
 20
-2.574031
  0
VERTEX
  8
PLAN_1
 62
     2
  6
CONTINUOUS
 10
0.360642
 20
-2.571094
  0
VERTEX
  8
PLAN_1
 62
     2
  6
CONTINUOUS
 10
0.358291
 20
-2.568744
  0
VERTEX
  8
PLAN_1
 62
     2
  6
CONTINUOUS
 10
0.356528
 20
-2.568157
  0
VERTEX
  8
PLAN_1
 62
     2
  6
CONTINUOUS
 10
0.354177
 20
-2.566980
  0
VERTEX
  8
PLAN_1
 62
     2
  6
CONTINUOUS
 10
0.352417
 20
-2.566980
  0
VERTEX
  8
PLAN_1
 62
     2
  6
CONTINUOUS
 10
0.349480
 20
-2.566394
  0
SEQEND
  8
0
  0
POLYLINE
  8
PLAN_1
 62
     2
  6
CONTINUOUS
 66
     1
 40
0.003000
 41
0.003000
  0
VERTEX
  8
PLAN_1
 62
     2
  6
CONTINUOUS
 10
0.431134
 20
-2.597528
  0
VERTEX
  8
PLAN_1
 62
     2
  6
CONTINUOUS
 10
0.431134
 20
-2.598705
  0
VERTEX
  8
PLAN_1
 62
     2
  6
CONTINUOUS
 10
0.430547
 20
-2.599878
  0
VERTEX
  8
PLAN_1
 62
     2
  6
CONTINUOUS
 10
0.429961
 20
-2.602228
  0
VERTEX
  8
PLAN_1
 62
     2
  6
CONTINUOUS
 10
0.428783
 20
-2.603992
  0
VERTEX
  8
PLAN_1
 62
     2
  6
CONTINUOUS
 10
0.427610
 20
-2.606343
  0
VERTEX
  8
PLAN_1
 62
     2
  6
CONTINUOUS
 10
0.425846
 20
-2.608102
  0
VERTEX
  8
PLAN_1
 62
     2
  6
CONTINUOUS
 10
0.424087
 20
-2.610453
  0
VERTEX
  8
PLAN_1
 62
     2
  6
CONTINUOUS
 10
0.421736
 20
-2.612217
  0
VERTEX
  8
PLAN_1
 62
     2
  6
CONTINUOUS
 10
0.420559
 20
-2.612803
  0
VERTEX
  8
PLAN_1
 62
     2
  6
CONTINUOUS
 10
0.419386
 20
-2.613390
  0
VERTEX
  8
PLAN_1
 62
     2
  6
CONTINUOUS
 10
0.418213
 20
-2.613976
  0
VERTEX
  8
PLAN_1
 62
     2
  6
CONTINUOUS
 10
0.416449
 20
-2.614567
  0
VERTEX
  8
PLAN_1
 62
     2
  6
CONTINUOUS
 10
0.414685
 20
-2.615154
  0
VERTEX
  8
PLAN_1
 62
     2
  6
CONTINUOUS
 10
0.412339
 20
-2.615740
  0
VERTEX
  8
PLAN_1
 62
     2
  6
CONTINUOUS
 10
0.409988
 20
-2.615740
  0
VERTEX
  8
PLAN_1
 62
     2
  6
CONTINUOUS
 10
0.406461
 20
-2.615740
  0
VERTEX
  8
PLAN_1
 62
     2
  6
CONTINUOUS
 10
0.401173
 20
-2.615154
  0
VERTEX
  8
PLAN_1
 62
     2
  6
CONTINUOUS
 10
0.396476
 20
-2.613976
  0
VERTEX
  8
PLAN_1
 62
     2
  6
CONTINUOUS
 10
0.392362
 20
-2.611630
  0
VERTEX
  8
PLAN_1
 62
     2
  6
CONTINUOUS
 10
0.388839
 20
-2.608102
  0
VERTEX
  8
PLAN_1
 62
     2
  6
CONTINUOUS
 10
0.385902
 20
-2.603992
  0
VERTEX
  8
PLAN_1
 62
     2
  6
CONTINUOUS
 10
0.384138
 20
-2.599291
  0
VERTEX
  8
PLAN_1
 62
     2
  6
CONTINUOUS
 10
0.382965
 20
-2.594591
  0
VERTEX
  8
PLAN_1
 62
     2
  6
CONTINUOUS
 10
0.382378
 20
-2.588717
  0
VERTEX
  8
PLAN_1
 62
     2
  6
CONTINUOUS
 10
0.382965
 20
-2.582256
  0
VERTEX
  8
PLAN_1
 62
     2
  6
CONTINUOUS
 10
0.384138
 20
-2.576969
  0
VERTEX
  8
PLAN_1
 62
     2
  6
CONTINUOUS
 10
0.385902
 20
-2.571681
  0
VERTEX
  8
PLAN_1
 62
     2
  6
CONTINUOUS
 10
0.388839
 20
-2.566980
  0
VERTEX
  8
PLAN_1
 62
     2
  6
CONTINUOUS
 10
0.390602
 20
-2.565220
  0
VERTEX
  8
PLAN_1
 62
     2
  6
CONTINUOUS
 10
0.392362
 20
-2.563457
  0
VERTEX
  8
PLAN_1
 62
     2
  6
CONTINUOUS
 10
0.394713
 20
-2.562283
  0
VERTEX
  8
PLAN_1
 62
     2
  6
CONTINUOUS
 10
0.397063
 20
-2.560520
  0
VERTEX
  8
PLAN_1
 62
     2
  6
CONTINUOUS
 10
0.399413
 20
-2.559933
  0
VERTEX
  8
PLAN_1
 62
     2
  6
CONTINUOUS
 10
0.402350
 20
-2.558756
  0
VERTEX
  8
PLAN_1
 62
     2
  6
CONTINUOUS
 10
0.405287
 20
-2.558756
  0
VERTEX
  8
PLAN_1
 62
     2
  6
CONTINUOUS
 10
0.408224
 20
-2.558169
  0
VERTEX
  8
PLAN_1
 62
     2
  6
CONTINUOUS
 10
0.411161
 20
-2.558756
  0
VERTEX
  8
PLAN_1
 62
     2
  6
CONTINUOUS
 10
0.414098
 20
-2.558756
  0
VERTEX
  8
PLAN_1
 62
     2
  6
CONTINUOUS
 10
0.416449
 20
-2.559933
  0
VERTEX
  8
PLAN_1
 62
     2
  6
CONTINUOUS
 10
0.418799
 20
-2.560520
  0
VERTEX
  8
PLAN_1
 62
     2
  6
CONTINUOUS
 10
0.421150
 20
-2.561693
  0
VERTEX
  8
PLAN_1
 62
     2
  6
CONTINUOUS
 10
0.422909
 20
-2.563457
  0
VERTEX
  8
PLAN_1
 62
     2
  6
CONTINUOUS
 10
0.424673
 20
-2.565220
  0
VERTEX
  8
PLAN_1
 62
     2
  6
CONTINUOUS
 10
0.425846
 20
-2.566980
  0
VERTEX
  8
PLAN_1
 62
     2
  6
CONTINUOUS
 10
0.428783
 20
-2.571681
  0
VERTEX
  8
PLAN_1
 62
     2
  6
CONTINUOUS
 10
0.430547
 20
-2.576969
  0
VERTEX
  8
PLAN_1
 62
     2
  6
CONTINUOUS
 10
0.431724
 20
-2.583429
  0
VERTEX
  8
PLAN_1
 62
     2
  6
CONTINUOUS
 10
0.431724
 20
-2.589894
  0
VERTEX
  8
PLAN_1
 62
     2
  6
CONTINUOUS
 10
0.392362
 20
-2.589894
  0
VERTEX
  8
PLAN_1
 62
     2
  6
CONTINUOUS
 10
0.392362
 20
-2.594004
  0
VERTEX
  8
PLAN_1
 62
     2
  6
CONTINUOUS
 10
0.392949
 20
-2.597528
  0
VERTEX
  8
PLAN_1
 62
     2
  6
CONTINUOUS
 10
0.394126
 20
-2.601055
  0
VERTEX
  8
PLAN_1
 62
     2
  6
CONTINUOUS
 10
0.395890
 20
-2.603406
  0
VERTEX
  8
PLAN_1
 62
     2
  6
CONTINUOUS
 10
0.398236
 20
-2.605165
  0
VERTEX
  8
PLAN_1
 62
     2
  6
CONTINUOUS
 10
0.401173
 20
-2.606929
  0
VERTEX
  8
PLAN_1
 62
     2
  6
CONTINUOUS
 10
0.404114
 20
-2.607516
  0
VERTEX
  8
PLAN_1
 62
     2
  6
CONTINUOUS
 10
0.408224
 20
-2.608102
  0
VERTEX
  8
PLAN_1
 62
     2
  6
CONTINUOUS
 10
0.411161
 20
-2.607516
  0
VERTEX
  8
PLAN_1
 62
     2
  6
CONTINUOUS
 10
0.413512
 20
-2.606929
  0
VERTEX
  8
PLAN_1
 62
     2
  6
CONTINUOUS
 10
0.415862
 20
-2.605752
  0
VERTEX
  8
PLAN_1
 62
     2
  6
CONTINUOUS
 10
0.418213
 20
-2.603992
  0
VERTEX
  8
PLAN_1
 62
     2
  6
CONTINUOUS
 10
0.419972
 20
-2.602228
  0
VERTEX
  8
PLAN_1
 62
     2
  6
CONTINUOUS
 10
0.421150
 20
-2.600465
  0
VERTEX
  8
PLAN_1
 62
     2
  6
CONTINUOUS
 10
0.421736
 20
-2.598705
  0
VERTEX
  8
PLAN_1
 62
     2
  6
CONTINUOUS
 10
0.422323
 20
-2.597528
  0
VERTEX
  8
PLAN_1
 62
     2
  6
CONTINUOUS
 10
0.431134
 20
-2.597528
  0
SEQEND
  8
0
  0
POLYLINE
  8
PLAN_1
 62
     2
  6
CONTINUOUS
 66
     1
 40
0.003000
 41
0.003000
  0
VERTEX
  8
PLAN_1
 62
     2
  6
CONTINUOUS
 10
0.422323
 20
-2.582843
  0
VERTEX
  8
PLAN_1
 62
     2
  6
CONTINUOUS
 10
0.422323
 20
-2.579906
  0
VERTEX
  8
PLAN_1
 62
     2
  6
CONTINUOUS
 10
0.421150
 20
-2.576969
  0
VERTEX
  8
PLAN_1
 62
     2
  6
CONTINUOUS
 10
0.420559
 20
-2.574031
  0
VERTEX
  8
PLAN_1
 62
     2
  6
CONTINUOUS
 10
0.418799
 20
-2.571681
  0
VERTEX
  8
PLAN_1
 62
     2
  6
CONTINUOUS
 10
0.417035
 20
-2.569331
  0
VERTEX
  8
PLAN_1
 62
     2
  6
CONTINUOUS
 10
0.414098
 20
-2.568157
  0
VERTEX
  8
PLAN_1
 62
     2
  6
CONTINUOUS
 10
0.411161
 20
-2.566980
  0
VERTEX
  8
PLAN_1
 62
     2
  6
CONTINUOUS
 10
0.407051
 20
-2.566394
  0
VERTEX
  8
PLAN_1
 62
     2
  6
CONTINUOUS
 10
0.404114
 20
-2.566980
  0
VERTEX
  8
PLAN_1
 62
     2
  6
CONTINUOUS
 10
0.401173
 20
-2.568157
  0
VERTEX
  8
PLAN_1
 62
     2
  6
CONTINUOUS
 10
0.398827
 20
-2.569331
  0
VERTEX
  8
PLAN_1
 62
     2
  6
CONTINUOUS
 10
0.396476
 20
-2.571681
  0
VERTEX
  8
PLAN_1
 62
     2
  6
CONTINUOUS
 10
0.394713
 20
-2.574031
  0
VERTEX
  8
PLAN_1
 62
     2
  6
CONTINUOUS
 10
0.393539
 20
-2.576969
  0
VERTEX
  8
PLAN_1
 62
     2
  6
CONTINUOUS
 10
0.392362
 20
-2.579906
  0
VERTEX
  8
PLAN_1
 62
     2
  6
CONTINUOUS
 10
0.392362
 20
-2.582843
  0
VERTEX
  8
PLAN_1
 62
     2
  6
CONTINUOUS
 10
0.422323
 20
-2.582843
  0
SEQEND
  8
0
  0
POLYLINE
  8
PLAN_1
 62
     2
  6
CONTINUOUS
 66
     1
 40
0.003000
 41
0.003000
  0
VERTEX
  8
PLAN_1
 62
     2
  6
CONTINUOUS
 10
0.502217
 20
-2.614567
  0
VERTEX
  8
PLAN_1
 62
     2
  6
CONTINUOUS
 10
0.492819
 20
-2.614567
  0
VERTEX
  8
PLAN_1
 62
     2
  6
CONTINUOUS
 10
0.492819
 20
-2.562283
  0
VERTEX
  8
PLAN_1
 62
     2
  6
CONTINUOUS
 10
0.475783
 20
-2.562283
  0
VERTEX
  8
PLAN_1
 62
     2
  6
CONTINUOUS
 10
0.475783
 20
-2.555232
  0
VERTEX
  8
PLAN_1
 62
     2
  6
CONTINUOUS
 10
0.479894
 20
-2.554646
  0
VERTEX
  8
PLAN_1
 62
     2
  6
CONTINUOUS
 10
0.483417
 20
-2.554059
  0
VERTEX
  8
PLAN_1
 62
     2
  6
CONTINUOUS
 10
0.486354
 20
-2.553469
  0
VERTEX
  8
PLAN_1
 62
     2
  6
CONTINUOUS
 10
0.488705
 20
-2.552295
  0
VERTEX
  8
PLAN_1
 62
     2
  6
CONTINUOUS
 10
0.491055
 20
-2.550531
  0
VERTEX
  8
PLAN_1
 62
     2
  6
CONTINUOUS
 10
0.492819
 20
-2.548181
  0
VERTEX
  8
PLAN_1
 62
     2
  6
CONTINUOUS
 10
0.493992
 20
-2.545244
  0
VERTEX
  8
PLAN_1
 62
     2
  6
CONTINUOUS
 10
0.495169
 20
-2.541134
  0
VERTEX
  8
PLAN_1
 62
     2
  6
CONTINUOUS
 10
0.502217
 20
-2.541134
  0
VERTEX
  8
PLAN_1
 62
     2
  6
CONTINUOUS
 10
0.502217
 20
-2.614567
  0
SEQEND
  8
0
  0
SOLID
  8
PLAN_1
 62
     2
 10
0.528067
 20
-2.616327
 11
0.521016
 21
-2.616327
 12
0.553913
 22
-2.537610
 13
0.546862
 23
-2.537610
  0
POLYLINE
  8
PLAN_1
 62
     2
  6
CONTINUOUS
 66
     1
 40
0.003000
 41
0.003000
  0
VERTEX
  8
PLAN_1
 62
     2
  6
CONTINUOUS
 10
0.528067
 20
-2.616327
  0
VERTEX
  8
PLAN_1
 62
     2
  6
CONTINUOUS
 10
0.521016
 20
-2.616327
  0
VERTEX
  8
PLAN_1
 62
     2
  6
CONTINUOUS
 10
0.546862
 20
-2.537610
  0
VERTEX
  8
PLAN_1
 62
     2
  6
CONTINUOUS
 10
0.553913
 20
-2.537610
  0
VERTEX
  8
PLAN_1
 62
     2
  6
CONTINUOUS
 10
0.528067
 20
-2.616327
  0
SEQEND
  8
0
  0
POLYLINE
  8
PLAN_1
 62
     2
  6
CONTINUOUS
 66
     1
 40
0.003000
 41
0.003000
  0
VERTEX
  8
PLAN_1
 62
     2
  6
CONTINUOUS
 10
0.556264
 20
-2.567571
  0
VERTEX
  8
PLAN_1
 62
     2
  6
CONTINUOUS
 10
0.556850
 20
-2.563457
  0
VERTEX
  8
PLAN_1
 62
     2
  6
CONTINUOUS
 10
0.557437
 20
-2.559346
  0
VERTEX
  8
PLAN_1
 62
     2
  6
CONTINUOUS
 10
0.558024
 20
-2.556406
  0
VERTEX
  8
PLAN_1
 62
     2
  6
CONTINUOUS
 10
0.559201
 20
-2.553469
  0
VERTEX
  8
PLAN_1
 62
     2
  6
CONTINUOUS
 10
0.560961
 20
-2.550531
  0
VERTEX
  8
PLAN_1
 62
     2
  6
CONTINUOUS
 10
0.562138
 20
-2.548772
  0
VERTEX
  8
PLAN_1
 62
     2
  6
CONTINUOUS
 10
0.563902
 20
-2.547008
  0
VERTEX
  8
PLAN_1
 62
     2
  6
CONTINUOUS
 10
0.566248
 20
-2.545244
  0
VERTEX
  8
PLAN_1
 62
     2
  6
CONTINUOUS
 10
0.570362
 20
-2.543484
  0
VERTEX
  8
PLAN_1
 62
     2
  6
CONTINUOUS
 10
0.574472
 20
-2.541720
  0
VERTEX
  8
PLAN_1
 62
     2
  6
CONTINUOUS
 10
0.578587
 20
-2.541134
  0
VERTEX
  8
PLAN_1
 62
     2
  6
CONTINUOUS
 10
0.581524
 20
-2.541134
  0
VERTEX
  8
PLAN_1
 62
     2
  6
CONTINUOUS
 10
0.586224
 20
-2.541720
  0
VERTEX
  8
PLAN_1
 62
     2
  6
CONTINUOUS
 10
0.590921
 20
-2.542898
  0
VERTEX
  8
PLAN_1
 62
     2
  6
CONTINUOUS
 10
0.594449
 20
-2.544657
  0
VERTEX
  8
PLAN_1
 62
     2
  6
CONTINUOUS
 10
0.597972
 20
-2.547008
  0
VERTEX
  8
PLAN_1
 62
     2
  6
CONTINUOUS
 10
0.600909
 20
-2.549945
  0
VERTEX
  8
PLAN_1
 62
     2
  6
CONTINUOUS
 10
0.602673
 20
-2.554059
  0
VERTEX
  8
PLAN_1
 62
     2
  6
CONTINUOUS
 10
0.604433
 20
-2.558169
  0
VERTEX
  8
PLAN_1
 62
     2
  6
CONTINUOUS
 10
0.604433
 20
-2.562870
  0
VERTEX
  8
PLAN_1
 62
     2
  6
CONTINUOUS
 10
0.604433
 20
-2.567571
  0
VERTEX
  8
PLAN_1
 62
     2
  6
CONTINUOUS
 10
0.603260
 20
-2.571681
  0
VERTEX
  8
PLAN_1
 62
     2
  6
CONTINUOUS
 10
0.601496
 20
-2.575205
  0
VERTEX
  8
PLAN_1
 62
     2
  6
CONTINUOUS
 10
0.599146
 20
-2.578142
  0
VERTEX
  8
PLAN_1
 62
     2
  6
CONTINUOUS
 10
0.596209
 20
-2.580492
  0
VERTEX
  8
PLAN_1
 62
     2
  6
CONTINUOUS
 10
0.592685
 20
-2.582843
  0
VERTEX
  8
PLAN_1
 62
     2
  6
CONTINUOUS
 10
0.589161
 20
-2.585193
  0
VERTEX
  8
PLAN_1
 62
     2
  6
CONTINUOUS
 10
0.585047
 20
-2.587543
  0
VERTEX
  8
PLAN_1
 62
     2
  6
CONTINUOUS
 10
0.577409
 20
-2.591654
  0
VERTEX
  8
PLAN_1
 62
     2
  6
CONTINUOUS
 10
0.573886
 20
-2.594004
  0
VERTEX
  8
PLAN_1
 62
     2
  6
CONTINUOUS
 10
0.571535
 20
-2.595768
  0
VERTEX
  8
PLAN_1
 62
     2
  6
CONTINUOUS
 10
0.569185
 20
-2.597528
  0
VERTEX
  8
PLAN_1
 62
     2
  6
CONTINUOUS
 10
0.567425
 20
-2.599878
  0
VERTEX
  8
PLAN_1
 62
     2
  6
CONTINUOUS
 10
0.566248
 20
-2.601642
  0
VERTEX
  8
PLAN_1
 62
     2
  6
CONTINUOUS
 10
0.565661
 20
-2.603406
  0
VERTEX
  8
PLAN_1
 62
     2
  6
CONTINUOUS
 10
0.565075
 20
-2.604579
  0
VERTEX
  8
PLAN_1
 62
     2
  6
CONTINUOUS
 10
0.565075
 20
-2.605752
  0
VERTEX
  8
PLAN_1
 62
     2
  6
CONTINUOUS
 10
0.604433
 20
-2.605752
  0
VERTEX
  8
PLAN_1
 62
     2
  6
CONTINUOUS
 10
0.604433
 20
-2.614567
  0
VERTEX
  8
PLAN_1
 62
     2
  6
CONTINUOUS
 10
0.554500
 20
-2.614567
  0
VERTEX
  8
PLAN_1
 62
     2
  6
CONTINUOUS
 10
0.555087
 20
-2.609280
  0
VERTEX
  8
PLAN_1
 62
     2
  6
CONTINUOUS
 10
0.556264
 20
-2.603992
  0
VERTEX
  8
PLAN_1
 62
     2
  6
CONTINUOUS
 10
0.557437
 20
-2.599878
  0
VERTEX
  8
PLAN_1
 62
     2
  6
CONTINUOUS
 10
0.559787
 20
-2.596354
  0
VERTEX
  8
PLAN_1
 62
     2
  6
CONTINUOUS
 10
0.562138
 20
-2.592831
  0
VERTEX
  8
PLAN_1
 62
     2
  6
CONTINUOUS
 10
0.565075
 20
-2.589894
  0
VERTEX
  8
PLAN_1
 62
     2
  6
CONTINUOUS
 10
0.568012
 20
-2.587543
  0
VERTEX
  8
PLAN_1
 62
     2
  6
CONTINUOUS
 10
0.571535
 20
-2.585193
  0
VERTEX
  8
PLAN_1
 62
     2
  6
CONTINUOUS
 10
0.581524
 20
-2.579906
  0
VERTEX
  8
PLAN_1
 62
     2
  6
CONTINUOUS
 10
0.584461
 20
-2.578142
  0
VERTEX
  8
PLAN_1
 62
     2
  6
CONTINUOUS
 10
0.586811
 20
-2.576382
  0
VERTEX
  8
PLAN_1
 62
     2
  6
CONTINUOUS
 10
0.589161
 20
-2.574618
  0
VERTEX
  8
PLAN_1
 62
     2
  6
CONTINUOUS
 10
0.590921
 20
-2.572854
  0
VERTEX
  8
PLAN_1
 62
     2
  6
CONTINUOUS
 10
0.592685
 20
-2.571094
  0
VERTEX
  8
PLAN_1
 62
     2
  6
CONTINUOUS
 10
0.593858
 20
-2.568744
  0
VERTEX
  8
PLAN_1
 62
     2
  6
CONTINUOUS
 10
0.594449
 20
-2.565807
  0
VERTEX
  8
PLAN_1
 62
     2
  6
CONTINUOUS
 10
0.595035
 20
-2.562870
  0
VERTEX
  8
PLAN_1
 62
     2
  6
CONTINUOUS
 10
0.594449
 20
-2.560520
  0
VERTEX
  8
PLAN_1
 62
     2
  6
CONTINUOUS
 10
0.593858
 20
-2.558169
  0
VERTEX
  8
PLAN_1
 62
     2
  6
CONTINUOUS
 10
0.593272
 20
-2.555819
  0
VERTEX
  8
PLAN_1
 62
     2
  6
CONTINUOUS
 10
0.591512
 20
-2.554059
  0
VERTEX
  8
PLAN_1
 62
     2
  6
CONTINUOUS
 10
0.589748
 20
-2.552295
  0
VERTEX
  8
PLAN_1
 62
     2
  6
CONTINUOUS
 10
0.587398
 20
-2.550531
  0
VERTEX
  8
PLAN_1
 62
     2
  6
CONTINUOUS
 10
0.583874
 20
-2.549945
  0
VERTEX
  8
PLAN_1
 62
     2
  6
CONTINUOUS
 10
0.580350
 20
-2.549358
  0
VERTEX
  8
PLAN_1
 62
     2
  6
CONTINUOUS
 10
0.578000
 20
-2.549358
  0
VERTEX
  8
PLAN_1
 62
     2
  6
CONTINUOUS
 10
0.575650
 20
-2.549945
  0
VERTEX
  8
PLAN_1
 62
     2
  6
CONTINUOUS
 10
0.573886
 20
-2.550531
  0
VERTEX
  8
PLAN_1
 62
     2
  6
CONTINUOUS
 10
0.572126
 20
-2.551709
  0
VERTEX
  8
PLAN_1
 62
     2
  6
CONTINUOUS
 10
0.569776
 20
-2.554059
  0
VERTEX
  8
PLAN_1
 62
     2
  6
CONTINUOUS
 10
0.568012
 20
-2.556406
  0
VERTEX
  8
PLAN_1
 62
     2
  6
CONTINUOUS
 10
0.566839
 20
-2.559346
  0
VERTEX
  8
PLAN_1
 62
     2
  6
CONTINUOUS
 10
0.566248
 20
-2.562283
  0
VERTEX
  8
PLAN_1
 62
     2
  6
CONTINUOUS
 10
0.565661
 20
-2.565220
  0
VERTEX
  8
PLAN_1
 62
     2
  6
CONTINUOUS
 10
0.565661
 20
-2.567571
  0
VERTEX
  8
PLAN_1
 62
     2
  6
CONTINUOUS
 10
0.556264
 20
-2.567571
  0
SEQEND
  8
0
  0
SOLID
  8
PLAN_1
 62
     2
 10
0.617358
 20
-2.539370
 11
0.624409
 21
-2.539370
 12
0.617358
 22
-2.566394
 13
0.624409
 23
-2.566394
  0
POLYLINE
  8
PLAN_1
 62
     2
  6
CONTINUOUS
 66
     1
 40
0.003000
 41
0.003000
  0
VERTEX
  8
PLAN_1
 62
     2
  6
CONTINUOUS
 10
0.617358
 20
-2.539370
  0
VERTEX
  8
PLAN_1
 62
     2
  6
CONTINUOUS
 10
0.624409
 20
-2.539370
  0
VERTEX
  8
PLAN_1
 62
     2
  6
CONTINUOUS
 10
0.624409
 20
-2.566394
  0
VERTEX
  8
PLAN_1
 62
     2
  6
CONTINUOUS
 10
0.617358
 20
-2.566394
  0
VERTEX
  8
PLAN_1
 62
     2
  6
CONTINUOUS
 10
0.617358
 20
-2.539370
  0
SEQEND
  8
0
  0
SOLID
  8
PLAN_1
 62
     2
 10
0.632043
 20
-2.539370
 11
0.639681
 21
-2.539370
 12
0.632043
 22
-2.566394
 13
0.639681
 23
-2.566394
  0
POLYLINE
  8
PLAN_1
 62
     2
  6
CONTINUOUS
 66
     1
 40
0.003000
 41
0.003000
  0
VERTEX
  8
PLAN_1
 62
     2
  6
CONTINUOUS
 10
0.632043
 20
-2.539370
  0
VERTEX
  8
PLAN_1
 62
     2
  6
CONTINUOUS
 10
0.639681
 20
-2.539370
  0
VERTEX
  8
PLAN_1
 62
     2
  6
CONTINUOUS
 10
0.639681
 20
-2.566394
  0
VERTEX
  8
PLAN_1
 62
     2
  6
CONTINUOUS
 10
0.632043
 20
-2.566394
  0
VERTEX
  8
PLAN_1
 62
     2
  6
CONTINUOUS
 10
0.632043
 20
-2.539370
  0
SEQEND
  8
0
  0
POLYLINE
  8
PLAN_1
 62
     2
  6
CONTINUOUS
 66
     1
 40
0.003000
 41
0.003000
  0
VERTEX
  8
PLAN_1
 62
     2
  6
CONTINUOUS
 10
0.733087
 20
-2.539370
  0
VERTEX
  8
PLAN_1
 62
     2
  6
CONTINUOUS
 10
0.743075
 20
-2.539370
  0
VERTEX
  8
PLAN_1
 62
     2
  6
CONTINUOUS
 10
0.743075
 20
-2.614567
  0
VERTEX
  8
PLAN_1
 62
     2
  6
CONTINUOUS
 10
0.731323
 20
-2.614567
  0
VERTEX
  8
PLAN_1
 62
     2
  6
CONTINUOUS
 10
0.693728
 20
-2.554059
  0
VERTEX
  8
PLAN_1
 62
     2
  6
CONTINUOUS
 10
0.693138
 20
-2.554059
  0
VERTEX
  8
PLAN_1
 62
     2
  6
CONTINUOUS
 10
0.693138
 20
-2.614567
  0
VERTEX
  8
PLAN_1
 62
     2
  6
CONTINUOUS
 10
0.683740
 20
-2.614567
  0
VERTEX
  8
PLAN_1
 62
     2
  6
CONTINUOUS
 10
0.683740
 20
-2.539370
  0
VERTEX
  8
PLAN_1
 62
     2
  6
CONTINUOUS
 10
0.695488
 20
-2.539370
  0
VERTEX
  8
PLAN_1
 62
     2
  6
CONTINUOUS
 10
0.733087
 20
-2.599878
  0
VERTEX
  8
PLAN_1
 62
     2
  6
CONTINUOUS
 10
0.733087
 20
-2.539370
  0
SEQEND
  8
0
  0
POLYLINE
  8
PLAN_1
 62
     2
  6
CONTINUOUS
 66
     1
 40
0.003000
 41
0.003000
  0
VERTEX
  8
PLAN_1
 62
     2
  6
CONTINUOUS
 10
0.770094
 20
-2.614567
  0
VERTEX
  8
PLAN_1
 62
     2
  6
CONTINUOUS
 10
0.760110
 20
-2.614567
  0
VERTEX
  8
PLAN_1
 62
     2
  6
CONTINUOUS
 10
0.760110
 20
-2.539370
  0
VERTEX
  8
PLAN_1
 62
     2
  6
CONTINUOUS
 10
0.793594
 20
-2.539370
  0
VERTEX
  8
PLAN_1
 62
     2
  6
CONTINUOUS
 10
0.798295
 20
-2.539957
  0
VERTEX
  8
PLAN_1
 62
     2
  6
CONTINUOUS
 10
0.802992
 20
-2.541134
  0
VERTEX
  8
PLAN_1
 62
     2
  6
CONTINUOUS
 10
0.806520
 20
-2.542898
  0
VERTEX
  8
PLAN_1
 62
     2
  6
CONTINUOUS
 10
0.809457
 20
-2.545835
  0
VERTEX
  8
PLAN_1
 62
     2
  6
CONTINUOUS
 10
0.812394
 20
-2.548772
  0
VERTEX
  8
PLAN_1
 62
     2
  6
CONTINUOUS
 10
0.814154
 20
-2.552295
  0
VERTEX
  8
PLAN_1
 62
     2
  6
CONTINUOUS
 10
0.815331
 20
-2.556406
  0
VERTEX
  8
PLAN_1
 62
     2
  6
CONTINUOUS
 10
0.815331
 20
-2.560520
  0
VERTEX
  8
PLAN_1
 62
     2
  6
CONTINUOUS
 10
0.815331
 20
-2.564630
  0
VERTEX
  8
PLAN_1
 62
     2
  6
CONTINUOUS
 10
0.814154
 20
-2.568744
  0
VERTEX
  8
PLAN_1
 62
     2
  6
CONTINUOUS
 10
0.812980
 20
-2.572268
  0
VERTEX
  8
PLAN_1
 62
     2
  6
CONTINUOUS
 10
0.810630
 20
-2.575795
  0
VERTEX
  8
PLAN_1
 62
     2
  6
CONTINUOUS
 10
0.807693
 20
-2.578732
  0
VERTEX
  8
PLAN_1
 62
     2
  6
CONTINUOUS
 10
0.803583
 20
-2.581079
  0
VERTEX
  8
PLAN_1
 62
     2
  6
CONTINUOUS
 10
0.798882
 20
-2.582256
  0
VERTEX
  8
PLAN_1
 62
     2
  6
CONTINUOUS
 10
0.793594
 20
-2.582843
  0
VERTEX
  8
PLAN_1
 62
     2
  6
CONTINUOUS
 10
0.770094
 20
-2.582843
  0
VERTEX
  8
PLAN_1
 62
     2
  6
CONTINUOUS
 10
0.770094
 20
-2.614567
  0
SEQEND
  8
0
  0
POLYLINE
  8
PLAN_1
 62
     2
  6
CONTINUOUS
 66
     1
 40
0.003000
 41
0.003000
  0
VERTEX
  8
PLAN_1
 62
     2
  6
CONTINUOUS
 10
0.770094
 20
-2.574031
  0
VERTEX
  8
PLAN_1
 62
     2
  6
CONTINUOUS
 10
0.790071
 20
-2.574031
  0
VERTEX
  8
PLAN_1
 62
     2
  6
CONTINUOUS
 10
0.793008
 20
-2.574031
  0
VERTEX
  8
PLAN_1
 62
     2
  6
CONTINUOUS
 10
0.795945
 20
-2.573445
  0
VERTEX
  8
PLAN_1
 62
     2
  6
CONTINUOUS
 10
0.798882
 20
-2.572854
  0
VERTEX
  8
PLAN_1
 62
     2
  6
CONTINUOUS
 10
0.801232
 20
-2.571094
  0
VERTEX
  8
PLAN_1
 62
     2
  6
CONTINUOUS
 10
0.802992
 20
-2.569331
  0
VERTEX
  8
PLAN_1
 62
     2
  6
CONTINUOUS
 10
0.804169
 20
-2.566980
  0
VERTEX
  8
PLAN_1
 62
     2
  6
CONTINUOUS
 10
0.804756
 20
-2.564043
  0
VERTEX
  8
PLAN_1
 62
     2
  6
CONTINUOUS
 10
0.805343
 20
-2.560520
  0
VERTEX
  8
PLAN_1
 62
     2
  6
CONTINUOUS
 10
0.804756
 20
-2.557583
  0
VERTEX
  8
PLAN_1
 62
     2
  6
CONTINUOUS
 10
0.804169
 20
-2.554646
  0
VERTEX
  8
PLAN_1
 62
     2
  6
CONTINUOUS
 10
0.802992
 20
-2.552882
  0
VERTEX
  8
PLAN_1
 62
     2
  6
CONTINUOUS
 10
0.800646
 20
-2.551122
  0
VERTEX
  8
PLAN_1
 62
     2
  6
CONTINUOUS
 10
0.798882
 20
-2.549945
  0
VERTEX
  8
PLAN_1
 62
     2
  6
CONTINUOUS
 10
0.795945
 20
-2.548772
  0
VERTEX
  8
PLAN_1
 62
     2
  6
CONTINUOUS
 10
0.793594
 20
-2.548181
  0
VERTEX
  8
PLAN_1
 62
     2
  6
CONTINUOUS
 10
0.790657
 20
-2.548181
  0
VERTEX
  8
PLAN_1
 62
     2
  6
CONTINUOUS
 10
0.770094
 20
-2.548181
  0
VERTEX
  8
PLAN_1
 62
     2
  6
CONTINUOUS
 10
0.770094
 20
-2.574031
  0
SEQEND
  8
0
  0
POLYLINE
  8
PLAN_1
 62
     2
  6
CONTINUOUS
 66
     1
 40
0.003000
 41
0.003000
  0
VERTEX
  8
PLAN_1
 62
     2
  6
CONTINUOUS
 10
0.821791
 20
-2.539370
  0
VERTEX
  8
PLAN_1
 62
     2
  6
CONTINUOUS
 10
0.882299
 20
-2.539370
  0
VERTEX
  8
PLAN_1
 62
     2
  6
CONTINUOUS
 10
0.882299
 20
-2.548772
  0
VERTEX
  8
PLAN_1
 62
     2
  6
CONTINUOUS
 10
0.857039
 20
-2.548772
  0
VERTEX
  8
PLAN_1
 62
     2
  6
CONTINUOUS
 10
0.857039
 20
-2.614567
  0
VERTEX
  8
PLAN_1
 62
     2
  6
CONTINUOUS
 10
0.847051
 20
-2.614567
  0
VERTEX
  8
PLAN_1
 62
     2
  6
CONTINUOUS
 10
0.847051
 20
-2.548772
  0
VERTEX
  8
PLAN_1
 62
     2
  6
CONTINUOUS
 10
0.821791
 20
-2.548772
  0
VERTEX
  8
PLAN_1
 62
     2
  6
CONTINUOUS
 10
0.821791
 20
-2.539370
  0
SEQEND
  8
0
  0
ENDSEC
  0
EOF
