  0
SECTION
  2
HEADER
  9
$ACADVER
  1
AC1006
  9
$EXTMIN
 10
-2.253000
 20
-4.441854
  9
$EXTMAX
 10
2.255000
 20
4.442000
  9
$LTSCALE
 40
0.000394
  9
$PDMODE
 70
    35
  9
$PDSIZE
 40
0.000315
  0
ENDSEC
  0
SECTION
  2
TABLES
  0
TABLE
  2
LTYPE
 70
     9
  0
LTYPE
  2
CONTINUOUS
 70
    64
  3
Solid line
 72
    65
 73
     0
 40
0.000000
  0
LTYPE
  2
DASHED
 70
    64
  3
__ __ __ __ __ __ __ __ __ __ __ __ __ __ __
 72
    65
 73
     2
 40
0.000003
 49
0.000002
 49
-0.000001
  0
LTYPE
  2
HIDDEN
 70
    64
  3
 _ _ _ _ _ _ _ _ _ _ _ _ _ _ _ _ _ _ _ _ _ _
 72
    65
 73
     2
 40
0.000001
 49
0.000001
 49
-0.000000
  0
LTYPE
  2
CENTER
 70
    64
  3
____ _ ____ _ ____ _ ____ _ ____ _ ____ _ ____
 72
    65
 73
     4
 40
0.000008
 49
0.000005
 49
-0.000001
 49
0.000001
 49
-0.000001
  0
LTYPE
  2
PHANTOM
 70
    64
  3
_____ _ _ _____ _ _ _____ _ _ _____ _ _ ____
 72
    65
 73
     6
 40
0.000010
 49
0.000005
 49
-0.000001
 49
0.000001
 49
-0.000001
 49
0.000001
 49
-0.000001
  0
LTYPE
  2
DOT
 70
    64
  3
...............................................
 72
    65
 73
     2
 40
0.000001
 49
0.000000
 49
-0.000001
  0
LTYPE
  2
DASHDOT
 70
    64
  3
__ . __ . __ . __ . __ . __ . __ . __ . __ . __
 72
    65
 73
     4
 40
0.000004
 49
0.000002
 49
-0.000001
 49
0.000000
 49
-0.000001
  0
LTYPE
  2
BORDER
 70
    64
  3
__ __ . __ __ . __ __ . __ __ . __ __ . __ __
 72
    65
 73
     6
 40
0.000007
 49
0.000002
 49
-0.000001
 49
0.000002
 49
-0.000001
 49
0.000000
 49
-0.000001
  0
LTYPE
  2
DIVIDE
 70
    64
  3
__ . . __ . . __ . . __ . . __ . . __ . . __
 72
    65
 73
     6
 40
0.000005
 49
0.000002
 49
-0.000001
 49
0.000000
 49
-0.000001
 49
0.000000
 49
-0.000001
  0
LTYPE
  2
DOTDOT
 70
    64
  3
 . .  . .  . .  . .  . .  . . 
 72
    65
 73
     5
 40
0.000002
 49
-0.000001
 49
0.000000
 49
-0.000001
 49
0.000000
 49
-0.000001
  0
ENDTAB
  0
TABLE
  2
STYLE
 70
     0
  0
ENDTAB
  0
TABLE
  2
LAYER
 70
     3
  0
LAYER
  2
FOREGROUND
 70
    64
 62
     7
  6
CONTINUOUS
  0
LAYER
  2
BACKGROUND
 70
    65
 62
    -7
  6
CONTINUOUS
  0
LAYER
  2
PLAN_1
 70
    64
 62
     7
  6
CONTINUOUS
  0
ENDTAB
  0
ENDSEC
  0
SECTION
  2
ENTITIES
  0
POLYLINE
  8
PLAN_1
  6
CONTINUOUS
 66
     1
 40
0.003000
 41
0.003000
  0
VERTEX
  8
PLAN_1
  6
CONTINUOUS
 10
0.221709
 20
-4.436854
  0
VERTEX
  8
PLAN_1
  6
CONTINUOUS
 10
0.188394
 20
-4.436854
  0
VERTEX
  8
PLAN_1
  6
CONTINUOUS
 10
0.135091
 20
-4.354681
  0
VERTEX
  8
PLAN_1
  6
CONTINUOUS
 10
0.080122
 20
-4.436854
  0
VERTEX
  8
PLAN_1
  6
CONTINUOUS
 10
0.047362
 20
-4.436854
  0
VERTEX
  8
PLAN_1
  6
CONTINUOUS
 10
0.118988
 20
-4.334693
  0
VERTEX
  8
PLAN_1
  6
CONTINUOUS
 10
0.051803
 20
-4.237524
  0
VERTEX
  8
PLAN_1
  6
CONTINUOUS
 10
0.085673
 20
-4.237524
  0
VERTEX
  8
PLAN_1
  6
CONTINUOUS
 10
0.136201
 20
-4.313591
  0
VERTEX
  8
PLAN_1
  6
CONTINUOUS
 10
0.186728
 20
-4.237524
  0
VERTEX
  8
PLAN_1
  6
CONTINUOUS
 10
0.218933
 20
-4.237524
  0
VERTEX
  8
PLAN_1
  6
CONTINUOUS
 10
0.151748
 20
-4.334693
  0
VERTEX
  8
PLAN_1
  6
CONTINUOUS
 10
0.221709
 20
-4.436854
  0
SEQEND
  8
0
  0
POLYLINE
  8
PLAN_1
  6
CONTINUOUS
 66
     1
 40
0.003000
 41
0.003000
  0
VERTEX
  8
PLAN_1
  6
CONTINUOUS
 10
0.388280
 20
-4.297488
  0
VERTEX
  8
PLAN_1
  6
CONTINUOUS
 10
0.386614
 20
-4.290827
  0
VERTEX
  8
PLAN_1
  6
CONTINUOUS
 10
0.384394
 20
-4.285276
  0
VERTEX
  8
PLAN_1
  6
CONTINUOUS
 10
0.382173
 20
-4.280280
  0
VERTEX
  8
PLAN_1
  6
CONTINUOUS
 10
0.379398
 20
-4.275835
  0
VERTEX
  8
PLAN_1
  6
CONTINUOUS
 10
0.376067
 20
-4.271949
  0
VERTEX
  8
PLAN_1
  6
CONTINUOUS
 10
0.372177
 20
-4.268618
  0
VERTEX
  8
PLAN_1
  6
CONTINUOUS
 10
0.368846
 20
-4.265843
  0
VERTEX
  8
PLAN_1
  6
CONTINUOUS
 10
0.364961
 20
-4.263622
  0
VERTEX
  8
PLAN_1
  6
CONTINUOUS
 10
0.360520
 20
-4.261398
  0
VERTEX
  8
PLAN_1
  6
CONTINUOUS
 10
0.356630
 20
-4.259732
  0
VERTEX
  8
PLAN_1
  6
CONTINUOUS
 10
0.352189
 20
-4.258622
  0
VERTEX
  8
PLAN_1
  6
CONTINUOUS
 10
0.348303
 20
-4.257512
  0
VERTEX
  8
PLAN_1
  6
CONTINUOUS
 10
0.339976
 20
-4.256402
  0
VERTEX
  8
PLAN_1
  6
CONTINUOUS
 10
0.332756
 20
-4.255846
  0
VERTEX
  8
PLAN_1
  6
CONTINUOUS
 10
0.326094
 20
-4.256402
  0
VERTEX
  8
PLAN_1
  6
CONTINUOUS
 10
0.319429
 20
-4.256957
  0
VERTEX
  8
PLAN_1
  6
CONTINUOUS
 10
0.313323
 20
-4.258622
  0
VERTEX
  8
PLAN_1
  6
CONTINUOUS
 10
0.307217
 20
-4.260843
  0
VERTEX
  8
PLAN_1
  6
CONTINUOUS
 10
0.301661
 20
-4.263622
  0
VERTEX
  8
PLAN_1
  6
CONTINUOUS
 10
0.296110
 20
-4.266953
  0
VERTEX
  8
PLAN_1
  6
CONTINUOUS
 10
0.291114
 20
-4.271394
  0
VERTEX
  8
PLAN_1
  6
CONTINUOUS
 10
0.286673
 20
-4.275835
  0
VERTEX
  8
PLAN_1
  6
CONTINUOUS
 10
0.282228
 20
-4.280835
  0
VERTEX
  8
PLAN_1
  6
CONTINUOUS
 10
0.278343
 20
-4.286941
  0
VERTEX
  8
PLAN_1
  6
CONTINUOUS
 10
0.275012
 20
-4.293602
  0
VERTEX
  8
PLAN_1
  6
CONTINUOUS
 10
0.272236
 20
-4.300268
  0
VERTEX
  8
PLAN_1
  6
CONTINUOUS
 10
0.270016
 20
-4.308039
  0
VERTEX
  8
PLAN_1
  6
CONTINUOUS
 10
0.268906
 20
-4.316370
  0
VERTEX
  8
PLAN_1
  6
CONTINUOUS
 10
0.267791
 20
-4.325252
  0
VERTEX
  8
PLAN_1
  6
CONTINUOUS
 10
0.267236
 20
-4.335248
  0
VERTEX
  8
PLAN_1
  6
CONTINUOUS
 10
0.267236
 20
-4.343575
  0
VERTEX
  8
PLAN_1
  6
CONTINUOUS
 10
0.268350
 20
-4.351906
  0
VERTEX
  8
PLAN_1
  6
CONTINUOUS
 10
0.268906
 20
-4.360232
  0
VERTEX
  8
PLAN_1
  6
CONTINUOUS
 10
0.270571
 20
-4.368004
  0
VERTEX
  8
PLAN_1
  6
CONTINUOUS
 10
0.272791
 20
-4.375224
  0
VERTEX
  8
PLAN_1
  6
CONTINUOUS
 10
0.275012
 20
-4.381886
  0
VERTEX
  8
PLAN_1
  6
CONTINUOUS
 10
0.278343
 20
-4.387996
  0
VERTEX
  8
PLAN_1
  6
CONTINUOUS
 10
0.281673
 20
-4.394102
  0
VERTEX
  8
PLAN_1
  6
CONTINUOUS
 10
0.286118
 20
-4.399654
  0
VERTEX
  8
PLAN_1
  6
CONTINUOUS
 10
0.290559
 20
-4.404094
  0
VERTEX
  8
PLAN_1
  6
CONTINUOUS
 10
0.296110
 20
-4.407984
  0
VERTEX
  8
PLAN_1
  6
CONTINUOUS
 10
0.302217
 20
-4.411870
  0
VERTEX
  8
PLAN_1
  6
CONTINUOUS
 10
0.308882
 20
-4.414091
  0
VERTEX
  8
PLAN_1
  6
CONTINUOUS
 10
0.316098
 20
-4.416311
  0
VERTEX
  8
PLAN_1
  6
CONTINUOUS
 10
0.324429
 20
-4.417421
  0
VERTEX
  8
PLAN_1
  6
CONTINUOUS
 10
0.333311
 20
-4.417976
  0
VERTEX
  8
PLAN_1
  6
CONTINUOUS
 10
0.340531
 20
-4.417421
  0
VERTEX
  8
PLAN_1
  6
CONTINUOUS
 10
0.348303
 20
-4.415756
  0
VERTEX
  8
PLAN_1
  6
CONTINUOUS
 10
0.352744
 20
-4.414646
  0
VERTEX
  8
PLAN_1
  6
CONTINUOUS
 10
0.356630
 20
-4.412980
  0
VERTEX
  8
PLAN_1
  6
CONTINUOUS
 10
0.361075
 20
-4.410760
  0
VERTEX
  8
PLAN_1
  6
CONTINUOUS
 10
0.364961
 20
-4.407984
  0
VERTEX
  8
PLAN_1
  6
CONTINUOUS
 10
0.368846
 20
-4.404650
  0
VERTEX
  8
PLAN_1
  6
CONTINUOUS
 10
0.372732
 20
-4.400764
  0
VERTEX
  8
PLAN_1
  6
CONTINUOUS
 10
0.376622
 20
-4.396323
  0
VERTEX
  8
PLAN_1
  6
CONTINUOUS
 10
0.379953
 20
-4.391327
  0
VERTEX
  8
PLAN_1
  6
CONTINUOUS
 10
0.383283
 20
-4.385772
  0
VERTEX
  8
PLAN_1
  6
CONTINUOUS
 10
0.386059
 20
-4.379110
  0
VERTEX
  8
PLAN_1
  6
CONTINUOUS
 10
0.388280
 20
-4.371339
  0
VERTEX
  8
PLAN_1
  6
CONTINUOUS
 10
0.390500
 20
-4.363563
  0
VERTEX
  8
PLAN_1
  6
CONTINUOUS
 10
0.416598
 20
-4.363563
  0
VERTEX
  8
PLAN_1
  6
CONTINUOUS
 10
0.414933
 20
-4.370228
  0
VERTEX
  8
PLAN_1
  6
CONTINUOUS
 10
0.413823
 20
-4.376335
  0
VERTEX
  8
PLAN_1
  6
CONTINUOUS
 10
0.412157
 20
-4.382441
  0
VERTEX
  8
PLAN_1
  6
CONTINUOUS
 10
0.409933
 20
-4.387996
  0
VERTEX
  8
PLAN_1
  6
CONTINUOUS
 10
0.407713
 20
-4.393547
  0
VERTEX
  8
PLAN_1
  6
CONTINUOUS
 10
0.405492
 20
-4.398543
  0
VERTEX
  8
PLAN_1
  6
CONTINUOUS
 10
0.402717
 20
-4.402984
  0
VERTEX
  8
PLAN_1
  6
CONTINUOUS
 10
0.399941
 20
-4.407429
  0
VERTEX
  8
PLAN_1
  6
CONTINUOUS
 10
0.397165
 20
-4.411315
  0
VERTEX
  8
PLAN_1
  6
CONTINUOUS
 10
0.394390
 20
-4.414646
  0
VERTEX
  8
PLAN_1
  6
CONTINUOUS
 10
0.391055
 20
-4.417976
  0
VERTEX
  8
PLAN_1
  6
CONTINUOUS
 10
0.387724
 20
-4.421307
  0
VERTEX
  8
PLAN_1
  6
CONTINUOUS
 10
0.381063
 20
-4.426307
  0
VERTEX
  8
PLAN_1
  6
CONTINUOUS
 10
0.374398
 20
-4.430748
  0
VERTEX
  8
PLAN_1
  6
CONTINUOUS
 10
0.367181
 20
-4.434079
  0
VERTEX
  8
PLAN_1
  6
CONTINUOUS
 10
0.360520
 20
-4.436854
  0
VERTEX
  8
PLAN_1
  6
CONTINUOUS
 10
0.353854
 20
-4.438520
  0
VERTEX
  8
PLAN_1
  6
CONTINUOUS
 10
0.347748
 20
-4.440185
  0
VERTEX
  8
PLAN_1
  6
CONTINUOUS
 10
0.336642
 20
-4.441299
  0
VERTEX
  8
PLAN_1
  6
CONTINUOUS
 10
0.329425
 20
-4.441854
  0
VERTEX
  8
PLAN_1
  6
CONTINUOUS
 10
0.320539
 20
-4.441299
  0
VERTEX
  8
PLAN_1
  6
CONTINUOUS
 10
0.312213
 20
-4.440185
  0
VERTEX
  8
PLAN_1
  6
CONTINUOUS
 10
0.303882
 20
-4.438520
  0
VERTEX
  8
PLAN_1
  6
CONTINUOUS
 10
0.296110
 20
-4.436299
  0
VERTEX
  8
PLAN_1
  6
CONTINUOUS
 10
0.288339
 20
-4.432969
  0
VERTEX
  8
PLAN_1
  6
CONTINUOUS
 10
0.281118
 20
-4.428528
  0
VERTEX
  8
PLAN_1
  6
CONTINUOUS
 10
0.273902
 20
-4.423531
  0
VERTEX
  8
PLAN_1
  6
CONTINUOUS
 10
0.267236
 20
-4.417421
  0
VERTEX
  8
PLAN_1
  6
CONTINUOUS
 10
0.261130
 20
-4.410760
  0
VERTEX
  8
PLAN_1
  6
CONTINUOUS
 10
0.256134
 20
-4.402984
  0
VERTEX
  8
PLAN_1
  6
CONTINUOUS
 10
0.251138
 20
-4.394102
  0
VERTEX
  8
PLAN_1
  6
CONTINUOUS
 10
0.247248
 20
-4.384661
  0
VERTEX
  8
PLAN_1
  6
CONTINUOUS
 10
0.243917
 20
-4.374114
  0
VERTEX
  8
PLAN_1
  6
CONTINUOUS
 10
0.241697
 20
-4.362453
  0
VERTEX
  8
PLAN_1
  6
CONTINUOUS
 10
0.240031
 20
-4.349681
  0
VERTEX
  8
PLAN_1
  6
CONTINUOUS
 10
0.239476
 20
-4.335803
  0
VERTEX
  8
PLAN_1
  6
CONTINUOUS
 10
0.240031
 20
-4.324697
  0
VERTEX
  8
PLAN_1
  6
CONTINUOUS
 10
0.241142
 20
-4.313591
  0
VERTEX
  8
PLAN_1
  6
CONTINUOUS
 10
0.243362
 20
-4.303598
  0
VERTEX
  8
PLAN_1
  6
CONTINUOUS
 10
0.246138
 20
-4.293602
  0
VERTEX
  8
PLAN_1
  6
CONTINUOUS
 10
0.249469
 20
-4.284720
  0
VERTEX
  8
PLAN_1
  6
CONTINUOUS
 10
0.253913
 20
-4.275835
  0
VERTEX
  8
PLAN_1
  6
CONTINUOUS
 10
0.258909
 20
-4.268063
  0
VERTEX
  8
PLAN_1
  6
CONTINUOUS
 10
0.264461
 20
-4.260843
  0
VERTEX
  8
PLAN_1
  6
CONTINUOUS
 10
0.270571
 20
-4.254181
  0
VERTEX
  8
PLAN_1
  6
CONTINUOUS
 10
0.277787
 20
-4.248630
  0
VERTEX
  8
PLAN_1
  6
CONTINUOUS
 10
0.285004
 20
-4.243630
  0
VERTEX
  8
PLAN_1
  6
CONTINUOUS
 10
0.293335
 20
-4.239744
  0
VERTEX
  8
PLAN_1
  6
CONTINUOUS
 10
0.302217
 20
-4.236413
  0
VERTEX
  8
PLAN_1
  6
CONTINUOUS
 10
0.311657
 20
-4.234193
  0
VERTEX
  8
PLAN_1
  6
CONTINUOUS
 10
0.322209
 20
-4.232528
  0
VERTEX
  8
PLAN_1
  6
CONTINUOUS
 10
0.332756
 20
-4.231972
  0
VERTEX
  8
PLAN_1
  6
CONTINUOUS
 10
0.341642
 20
-4.232528
  0
VERTEX
  8
PLAN_1
  6
CONTINUOUS
 10
0.350524
 20
-4.233638
  0
VERTEX
  8
PLAN_1
  6
CONTINUOUS
 10
0.358854
 20
-4.235303
  0
VERTEX
  8
PLAN_1
  6
CONTINUOUS
 10
0.366626
 20
-4.237524
  0
VERTEX
  8
PLAN_1
  6
CONTINUOUS
 10
0.373287
 20
-4.240299
  0
VERTEX
  8
PLAN_1
  6
CONTINUOUS
 10
0.379953
 20
-4.243630
  0
VERTEX
  8
PLAN_1
  6
CONTINUOUS
 10
0.386059
 20
-4.247520
  0
VERTEX
  8
PLAN_1
  6
CONTINUOUS
 10
0.391055
 20
-4.251961
  0
VERTEX
  8
PLAN_1
  6
CONTINUOUS
 10
0.396055
 20
-4.256957
  0
VERTEX
  8
PLAN_1
  6
CONTINUOUS
 10
0.400496
 20
-4.261953
  0
VERTEX
  8
PLAN_1
  6
CONTINUOUS
 10
0.403827
 20
-4.267508
  0
VERTEX
  8
PLAN_1
  6
CONTINUOUS
 10
0.407157
 20
-4.273059
  0
VERTEX
  8
PLAN_1
  6
CONTINUOUS
 10
0.409933
 20
-4.278610
  0
VERTEX
  8
PLAN_1
  6
CONTINUOUS
 10
0.412157
 20
-4.284720
  0
VERTEX
  8
PLAN_1
  6
CONTINUOUS
 10
0.413268
 20
-4.290827
  0
VERTEX
  8
PLAN_1
  6
CONTINUOUS
 10
0.414378
 20
-4.297488
  0
VERTEX
  8
PLAN_1
  6
CONTINUOUS
 10
0.388280
 20
-4.297488
  0
SEQEND
  8
0
  0
POLYLINE
  8
PLAN_1
  6
CONTINUOUS
 66
     1
 40
0.003000
 41
0.003000
  0
VERTEX
  8
PLAN_1
  6
CONTINUOUS
 10
0.476008
 20
-4.436854
  0
VERTEX
  8
PLAN_1
  6
CONTINUOUS
 10
0.448803
 20
-4.436854
  0
VERTEX
  8
PLAN_1
  6
CONTINUOUS
 10
0.448803
 20
-4.237524
  0
VERTEX
  8
PLAN_1
  6
CONTINUOUS
 10
0.476008
 20
-4.237524
  0
VERTEX
  8
PLAN_1
  6
CONTINUOUS
 10
0.476008
 20
-4.334138
  0
VERTEX
  8
PLAN_1
  6
CONTINUOUS
 10
0.572622
 20
-4.237524
  0
VERTEX
  8
PLAN_1
  6
CONTINUOUS
 10
0.609823
 20
-4.237524
  0
VERTEX
  8
PLAN_1
  6
CONTINUOUS
 10
0.526535
 20
-4.318035
  0
VERTEX
  8
PLAN_1
  6
CONTINUOUS
 10
0.612043
 20
-4.436854
  0
VERTEX
  8
PLAN_1
  6
CONTINUOUS
 10
0.577063
 20
-4.436854
  0
VERTEX
  8
PLAN_1
  6
CONTINUOUS
 10
0.507102
 20
-4.336913
  0
VERTEX
  8
PLAN_1
  6
CONTINUOUS
 10
0.476008
 20
-4.366894
  0
VERTEX
  8
PLAN_1
  6
CONTINUOUS
 10
0.476008
 20
-4.436854
  0
SEQEND
  8
0
  0
POLYLINE
  8
PLAN_1
  6
CONTINUOUS
 66
     1
 40
0.003000
 41
0.003000
  0
VERTEX
  8
PLAN_1
  6
CONTINUOUS
 10
0.643138
 20
-4.372449
  0
VERTEX
  8
PLAN_1
  6
CONTINUOUS
 10
0.643138
 20
-4.386327
  0
VERTEX
  8
PLAN_1
  6
CONTINUOUS
 10
0.643138
 20
-4.390772
  0
VERTEX
  8
PLAN_1
  6
CONTINUOUS
 10
0.643693
 20
-4.394657
  0
VERTEX
  8
PLAN_1
  6
CONTINUOUS
 10
0.644248
 20
-4.397988
  0
VERTEX
  8
PLAN_1
  6
CONTINUOUS
 10
0.645358
 20
-4.401319
  0
VERTEX
  8
PLAN_1
  6
CONTINUOUS
 10
0.646469
 20
-4.404650
  0
VERTEX
  8
PLAN_1
  6
CONTINUOUS
 10
0.647579
 20
-4.406874
  0
VERTEX
  8
PLAN_1
  6
CONTINUOUS
 10
0.649244
 20
-4.409650
  0
VERTEX
  8
PLAN_1
  6
CONTINUOUS
 10
0.650909
 20
-4.411315
  0
VERTEX
  8
PLAN_1
  6
CONTINUOUS
 10
0.653130
 20
-4.413535
  0
VERTEX
  8
PLAN_1
  6
CONTINUOUS
 10
0.655350
 20
-4.414646
  0
VERTEX
  8
PLAN_1
  6
CONTINUOUS
 10
0.657571
 20
-4.416311
  0
VERTEX
  8
PLAN_1
  6
CONTINUOUS
 10
0.660350
 20
-4.416866
  0
VERTEX
  8
PLAN_1
  6
CONTINUOUS
 10
0.666457
 20
-4.418531
  0
VERTEX
  8
PLAN_1
  6
CONTINUOUS
 10
0.673118
 20
-4.418531
  0
VERTEX
  8
PLAN_1
  6
CONTINUOUS
 10
0.677559
 20
-4.418531
  0
VERTEX
  8
PLAN_1
  6
CONTINUOUS
 10
0.681449
 20
-4.417976
  0
VERTEX
  8
PLAN_1
  6
CONTINUOUS
 10
0.685335
 20
-4.417421
  0
VERTEX
  8
PLAN_1
  6
CONTINUOUS
 10
0.688665
 20
-4.416311
  0
VERTEX
  8
PLAN_1
  6
CONTINUOUS
 10
0.691441
 20
-4.414646
  0
VERTEX
  8
PLAN_1
  6
CONTINUOUS
 10
0.694217
 20
-4.412980
  0
VERTEX
  8
PLAN_1
  6
CONTINUOUS
 10
0.696441
 20
-4.411315
  0
VERTEX
  8
PLAN_1
  6
CONTINUOUS
 10
0.698106
 20
-4.409094
  0
VERTEX
  8
PLAN_1
  6
CONTINUOUS
 10
0.699772
 20
-4.406319
  0
VERTEX
  8
PLAN_1
  6
CONTINUOUS
 10
0.701437
 20
-4.404094
  0
VERTEX
  8
PLAN_1
  6
CONTINUOUS
 10
0.702547
 20
-4.400764
  0
VERTEX
  8
PLAN_1
  6
CONTINUOUS
 10
0.703657
 20
-4.397988
  0
VERTEX
  8
PLAN_1
  6
CONTINUOUS
 10
0.704768
 20
-4.391327
  0
VERTEX
  8
PLAN_1
  6
CONTINUOUS
 10
0.704768
 20
-4.384661
  0
VERTEX
  8
PLAN_1
  6
CONTINUOUS
 10
0.704768
 20
-4.237524
  0
VERTEX
  8
PLAN_1
  6
CONTINUOUS
 10
0.731976
 20
-4.237524
  0
VERTEX
  8
PLAN_1
  6
CONTINUOUS
 10
0.731976
 20
-4.382996
  0
VERTEX
  8
PLAN_1
  6
CONTINUOUS
 10
0.731417
 20
-4.391327
  0
VERTEX
  8
PLAN_1
  6
CONTINUOUS
 10
0.730307
 20
-4.398543
  0
VERTEX
  8
PLAN_1
  6
CONTINUOUS
 10
0.728642
 20
-4.405764
  0
VERTEX
  8
PLAN_1
  6
CONTINUOUS
 10
0.726421
 20
-4.411870
  0
VERTEX
  8
PLAN_1
  6
CONTINUOUS
 10
0.724201
 20
-4.416866
  0
VERTEX
  8
PLAN_1
  6
CONTINUOUS
 10
0.720870
 20
-4.421862
  0
VERTEX
  8
PLAN_1
  6
CONTINUOUS
 10
0.716984
 20
-4.426307
  0
VERTEX
  8
PLAN_1
  6
CONTINUOUS
 10
0.713094
 20
-4.429638
  0
VERTEX
  8
PLAN_1
  6
CONTINUOUS
 10
0.709209
 20
-4.432969
  0
VERTEX
  8
PLAN_1
  6
CONTINUOUS
 10
0.704213
 20
-4.435189
  0
VERTEX
  8
PLAN_1
  6
CONTINUOUS
 10
0.699772
 20
-4.437409
  0
VERTEX
  8
PLAN_1
  6
CONTINUOUS
 10
0.694772
 20
-4.439075
  0
VERTEX
  8
PLAN_1
  6
CONTINUOUS
 10
0.689776
 20
-4.440185
  0
VERTEX
  8
PLAN_1
  6
CONTINUOUS
 10
0.684780
 20
-4.441299
  0
VERTEX
  8
PLAN_1
  6
CONTINUOUS
 10
0.679228
 20
-4.441854
  0
VERTEX
  8
PLAN_1
  6
CONTINUOUS
 10
0.674228
 20
-4.441854
  0
VERTEX
  8
PLAN_1
  6
CONTINUOUS
 10
0.665902
 20
-4.441299
  0
VERTEX
  8
PLAN_1
  6
CONTINUOUS
 10
0.658681
 20
-4.440744
  0
VERTEX
  8
PLAN_1
  6
CONTINUOUS
 10
0.652020
 20
-4.439075
  0
VERTEX
  8
PLAN_1
  6
CONTINUOUS
 10
0.645913
 20
-4.436854
  0
VERTEX
  8
PLAN_1
  6
CONTINUOUS
 10
0.640913
 20
-4.434079
  0
VERTEX
  8
PLAN_1
  6
CONTINUOUS
 10
0.635917
 20
-4.431303
  0
VERTEX
  8
PLAN_1
  6
CONTINUOUS
 10
0.632031
 20
-4.427417
  0
VERTEX
  8
PLAN_1
  6
CONTINUOUS
 10
0.628701
 20
-4.424087
  0
VERTEX
  8
PLAN_1
  6
CONTINUOUS
 10
0.625925
 20
-4.420197
  0
VERTEX
  8
PLAN_1
  6
CONTINUOUS
 10
0.623701
 20
-4.416311
  0
VERTEX
  8
PLAN_1
  6
CONTINUOUS
 10
0.621480
 20
-4.411870
  0
VERTEX
  8
PLAN_1
  6
CONTINUOUS
 10
0.620370
 20
-4.407984
  0
VERTEX
  8
PLAN_1
  6
CONTINUOUS
 10
0.619260
 20
-4.403539
  0
VERTEX
  8
PLAN_1
  6
CONTINUOUS
 10
0.618150
 20
-4.399654
  0
VERTEX
  8
PLAN_1
  6
CONTINUOUS
 10
0.618150
 20
-4.395768
  0
VERTEX
  8
PLAN_1
  6
CONTINUOUS
 10
0.617594
 20
-4.392437
  0
VERTEX
  8
PLAN_1
  6
CONTINUOUS
 10
0.617594
 20
-4.372449
  0
VERTEX
  8
PLAN_1
  6
CONTINUOUS
 10
0.643138
 20
-4.372449
  0
SEQEND
  8
0
  0
POLYLINE
  8
PLAN_1
  6
CONTINUOUS
 66
     1
 40
0.003000
 41
0.003000
  0
VERTEX
  8
PLAN_1
  6
CONTINUOUS
 10
0.935748
 20
-4.282500
  0
VERTEX
  8
PLAN_1
  6
CONTINUOUS
 10
0.954626
 20
-4.282500
  0
VERTEX
  8
PLAN_1
  6
CONTINUOUS
 10
0.950185
 20
-4.296933
  0
VERTEX
  8
PLAN_1
  6
CONTINUOUS
 10
0.946299
 20
-4.311925
  0
VERTEX
  8
PLAN_1
  6
CONTINUOUS
 10
0.941854
 20
-4.325807
  0
VERTEX
  8
PLAN_1
  6
CONTINUOUS
 10
0.937969
 20
-4.339134
  0
VERTEX
  8
PLAN_1
  6
CONTINUOUS
 10
0.934638
 20
-4.350791
  0
VERTEX
  8
PLAN_1
  6
CONTINUOUS
 10
0.931862
 20
-4.360787
  0
VERTEX
  8
PLAN_1
  6
CONTINUOUS
 10
0.930197
 20
-4.368559
  0
VERTEX
  8
PLAN_1
  6
CONTINUOUS
 10
0.929642
 20
-4.373004
  0
VERTEX
  8
PLAN_1
  6
CONTINUOUS
 10
0.929642
 20
-4.374669
  0
VERTEX
  8
PLAN_1
  6
CONTINUOUS
 10
0.929642
 20
-4.376335
  0
VERTEX
  8
PLAN_1
  6
CONTINUOUS
 10
0.930197
 20
-4.377445
  0
VERTEX
  8
PLAN_1
  6
CONTINUOUS
 10
0.930752
 20
-4.378555
  0
VERTEX
  8
PLAN_1
  6
CONTINUOUS
 10
0.931862
 20
-4.379665
  0
VERTEX
  8
PLAN_1
  6
CONTINUOUS
 10
0.932417
 20
-4.380220
  0
VERTEX
  8
PLAN_1
  6
CONTINUOUS
 10
0.934083
 20
-4.380776
  0
VERTEX
  8
PLAN_1
  6
CONTINUOUS
 10
0.935193
 20
-4.380776
  0
VERTEX
  8
PLAN_1
  6
CONTINUOUS
 10
0.939079
 20
-4.380220
  0
VERTEX
  8
PLAN_1
  6
CONTINUOUS
 10
0.942409
 20
-4.379665
  0
VERTEX
  8
PLAN_1
  6
CONTINUOUS
 10
0.946299
 20
-4.378000
  0
VERTEX
  8
PLAN_1
  6
CONTINUOUS
 10
0.949630
 20
-4.375780
  0
VERTEX
  8
PLAN_1
  6
CONTINUOUS
 10
0.952961
 20
-4.373004
  0
VERTEX
  8
PLAN_1
  6
CONTINUOUS
 10
0.956291
 20
-4.369673
  0
VERTEX
  8
PLAN_1
  6
CONTINUOUS
 10
0.959067
 20
-4.365783
  0
VERTEX
  8
PLAN_1
  6
CONTINUOUS
 10
0.962398
 20
-4.361898
  0
VERTEX
  8
PLAN_1
  6
CONTINUOUS
 10
0.964622
 20
-4.357457
  0
VERTEX
  8
PLAN_1
  6
CONTINUOUS
 10
0.967398
 20
-4.353016
  0
VERTEX
  8
PLAN_1
  6
CONTINUOUS
 10
0.969618
 20
-4.348016
  0
VERTEX
  8
PLAN_1
  6
CONTINUOUS
 10
0.971283
 20
-4.342465
  0
VERTEX
  8
PLAN_1
  6
CONTINUOUS
 10
0.972949
 20
-4.337469
  0
VERTEX
  8
PLAN_1
  6
CONTINUOUS
 10
0.974059
 20
-4.331913
  0
VERTEX
  8
PLAN_1
  6
CONTINUOUS
 10
0.974614
 20
-4.326362
  0
VERTEX
  8
PLAN_1
  6
CONTINUOUS
 10
0.974614
 20
-4.320811
  0
VERTEX
  8
PLAN_1
  6
CONTINUOUS
 10
0.974614
 20
-4.312480
  0
VERTEX
  8
PLAN_1
  6
CONTINUOUS
 10
0.972949
 20
-4.305264
  0
VERTEX
  8
PLAN_1
  6
CONTINUOUS
 10
0.971283
 20
-4.297488
  0
VERTEX
  8
PLAN_1
  6
CONTINUOUS
 10
0.968508
 20
-4.290827
  0
VERTEX
  8
PLAN_1
  6
CONTINUOUS
 10
0.965177
 20
-4.284720
  0
VERTEX
  8
PLAN_1
  6
CONTINUOUS
 10
0.961287
 20
-4.278610
  0
VERTEX
  8
PLAN_1
  6
CONTINUOUS
 10
0.956846
 20
-4.273059
  0
VERTEX
  8
PLAN_1
  6
CONTINUOUS
 10
0.951850
 20
-4.268618
  0
VERTEX
  8
PLAN_1
  6
CONTINUOUS
 10
0.946299
 20
-4.264177
  0
VERTEX
  8
PLAN_1
  6
CONTINUOUS
 10
0.940189
 20
-4.260287
  0
VERTEX
  8
PLAN_1
  6
CONTINUOUS
 10
0.934083
 20
-4.256957
  0
VERTEX
  8
PLAN_1
  6
CONTINUOUS
 10
0.927417
 20
-4.254181
  0
VERTEX
  8
PLAN_1
  6
CONTINUOUS
 10
0.920201
 20
-4.251961
  0
VERTEX
  8
PLAN_1
  6
CONTINUOUS
 10
0.912984
 20
-4.250295
  0
VERTEX
  8
PLAN_1
  6
CONTINUOUS
 10
0.905209
 20
-4.249740
  0
VERTEX
  8
PLAN_1
  6
CONTINUOUS
 10
0.897437
 20
-4.249185
  0
VERTEX
  8
PLAN_1
  6
CONTINUOUS
 10
0.888551
 20
-4.249740
  0
VERTEX
  8
PLAN_1
  6
CONTINUOUS
 10
0.879669
 20
-4.250850
  0
VERTEX
  8
PLAN_1
  6
CONTINUOUS
 10
0.871339
 20
-4.253071
  0
VERTEX
  8
PLAN_1
  6
CONTINUOUS
 10
0.863567
 20
-4.256402
  0
VERTEX
  8
PLAN_1
  6
CONTINUOUS
 10
0.855791
 20
-4.259732
  0
VERTEX
  8
PLAN_1
  6
CONTINUOUS
 10
0.849130
 20
-4.264177
  0
VERTEX
  8
PLAN_1
  6
CONTINUOUS
 10
0.842469
 20
-4.269728
  0
VERTEX
  8
PLAN_1
  6
CONTINUOUS
 10
0.836913
 20
-4.275280
  0
VERTEX
  8
PLAN_1
  6
CONTINUOUS
 10
0.831362
 20
-4.281390
  0
VERTEX
  8
PLAN_1
  6
CONTINUOUS
 10
0.826921
 20
-4.288606
  0
VERTEX
  8
PLAN_1
  6
CONTINUOUS
 10
0.822480
 20
-4.295823
  0
VERTEX
  8
PLAN_1
  6
CONTINUOUS
 10
0.819146
 20
-4.303598
  0
VERTEX
  8
PLAN_1
  6
CONTINUOUS
 10
0.816370
 20
-4.311370
  0
VERTEX
  8
PLAN_1
  6
CONTINUOUS
 10
0.814705
 20
-4.320256
  0
VERTEX
  8
PLAN_1
  6
CONTINUOUS
 10
0.813594
 20
-4.329138
  0
VERTEX
  8
PLAN_1
  6
CONTINUOUS
 10
0.813039
 20
-4.338024
  0
VERTEX
  8
PLAN_1
  6
CONTINUOUS
 10
0.813594
 20
-4.346906
  0
VERTEX
  8
PLAN_1
  6
CONTINUOUS
 10
0.814705
 20
-4.355791
  0
VERTEX
  8
PLAN_1
  6
CONTINUOUS
 10
0.816925
 20
-4.364118
  0
VERTEX
  8
PLAN_1
  6
CONTINUOUS
 10
0.819701
 20
-4.372449
  0
VERTEX
  8
PLAN_1
  6
CONTINUOUS
 10
0.823035
 20
-4.379665
  0
VERTEX
  8
PLAN_1
  6
CONTINUOUS
 10
0.827476
 20
-4.386882
  0
VERTEX
  8
PLAN_1
  6
CONTINUOUS
 10
0.832472
 20
-4.393547
  0
VERTEX
  8
PLAN_1
  6
CONTINUOUS
 10
0.838024
 20
-4.399654
  0
VERTEX
  8
PLAN_1
  6
CONTINUOUS
 10
0.844134
 20
-4.405209
  0
VERTEX
  8
PLAN_1
  6
CONTINUOUS
 10
0.850795
 20
-4.410205
  0
VERTEX
  8
PLAN_1
  6
CONTINUOUS
 10
0.858016
 20
-4.414646
  0
VERTEX
  8
PLAN_1
  6
CONTINUOUS
 10
0.865232
 20
-4.417976
  0
VERTEX
  8
PLAN_1
  6
CONTINUOUS
 10
0.873559
 20
-4.420752
  0
VERTEX
  8
PLAN_1
  6
CONTINUOUS
 10
0.881890
 20
-4.422976
  0
VERTEX
  8
PLAN_1
  6
CONTINUOUS
 10
0.890217
 20
-4.424087
  0
VERTEX
  8
PLAN_1
  6
CONTINUOUS
 10
0.899102
 20
-4.424642
  0
VERTEX
  8
PLAN_1
  6
CONTINUOUS
 10
0.909094
 20
-4.424087
  0
VERTEX
  8
PLAN_1
  6
CONTINUOUS
 10
0.918535
 20
-4.422417
  0
VERTEX
  8
PLAN_1
  6
CONTINUOUS
 10
0.927976
 20
-4.419642
  0
VERTEX
  8
PLAN_1
  6
CONTINUOUS
 10
0.936858
 20
-4.416311
  0
VERTEX
  8
PLAN_1
  6
CONTINUOUS
 10
0.945185
 20
-4.411315
  0
VERTEX
  8
PLAN_1
  6
CONTINUOUS
 10
0.952961
 20
-4.406319
  0
VERTEX
  8
PLAN_1
  6
CONTINUOUS
 10
0.960177
 20
-4.400209
  0
VERTEX
  8
PLAN_1
  6
CONTINUOUS
 10
0.966843
 20
-4.392992
  0
VERTEX
  8
PLAN_1
  6
CONTINUOUS
 10
0.985165
 20
-4.392992
  0
VERTEX
  8
PLAN_1
  6
CONTINUOUS
 10
0.981835
 20
-4.398543
  0
VERTEX
  8
PLAN_1
  6
CONTINUOUS
 10
0.977945
 20
-4.403539
  0
VERTEX
  8
PLAN_1
  6
CONTINUOUS
 10
0.973504
 20
-4.408539
  0
VERTEX
  8
PLAN_1
  6
CONTINUOUS
 10
0.969063
 20
-4.413535
  0
VERTEX
  8
PLAN_1
  6
CONTINUOUS
 10
0.964622
 20
-4.417976
  0
VERTEX
  8
PLAN_1
  6
CONTINUOUS
 10
0.959622
 20
-4.421862
  0
VERTEX
  8
PLAN_1
  6
CONTINUOUS
 10
0.954071
 20
-4.425197
  0
VERTEX
  8
PLAN_1
  6
CONTINUOUS
 10
0.948520
 20
-4.428528
  0
VERTEX
  8
PLAN_1
  6
CONTINUOUS
 10
0.942965
 20
-4.431858
  0
VERTEX
  8
PLAN_1
  6
CONTINUOUS
 10
0.936858
 20
-4.434634
  0
VERTEX
  8
PLAN_1
  6
CONTINUOUS
 10
0.930752
 20
-4.436854
  0
VERTEX
  8
PLAN_1
  6
CONTINUOUS
 10
0.924642
 20
-4.438520
  0
VERTEX
  8
PLAN_1
  6
CONTINUOUS
 10
0.918535
 20
-4.440185
  0
VERTEX
  8
PLAN_1
  6
CONTINUOUS
 10
0.911874
 20
-4.440744
  0
VERTEX
  8
PLAN_1
  6
CONTINUOUS
 10
0.905209
 20
-4.441854
  0
VERTEX
  8
PLAN_1
  6
CONTINUOUS
 10
0.898547
 20
-4.441854
  0
VERTEX
  8
PLAN_1
  6
CONTINUOUS
 10
0.887996
 20
-4.441299
  0
VERTEX
  8
PLAN_1
  6
CONTINUOUS
 10
0.876894
 20
-4.439630
  0
VERTEX
  8
PLAN_1
  6
CONTINUOUS
 10
0.866898
 20
-4.437409
  0
VERTEX
  8
PLAN_1
  6
CONTINUOUS
 10
0.856906
 20
-4.433524
  0
VERTEX
  8
PLAN_1
  6
CONTINUOUS
 10
0.848020
 20
-4.429083
  0
VERTEX
  8
PLAN_1
  6
CONTINUOUS
 10
0.839138
 20
-4.424087
  0
VERTEX
  8
PLAN_1
  6
CONTINUOUS
 10
0.830807
 20
-4.417976
  0
VERTEX
  8
PLAN_1
  6
CONTINUOUS
 10
0.823591
 20
-4.411315
  0
VERTEX
  8
PLAN_1
  6
CONTINUOUS
 10
0.816925
 20
-4.404094
  0
VERTEX
  8
PLAN_1
  6
CONTINUOUS
 10
0.810819
 20
-4.395768
  0
VERTEX
  8
PLAN_1
  6
CONTINUOUS
 10
0.805268
 20
-4.386882
  0
VERTEX
  8
PLAN_1
  6
CONTINUOUS
 10
0.800823
 20
-4.378000
  0
VERTEX
  8
PLAN_1
  6
CONTINUOUS
 10
0.797492
 20
-4.368004
  0
VERTEX
  8
PLAN_1
  6
CONTINUOUS
 10
0.794717
 20
-4.358012
  0
VERTEX
  8
PLAN_1
  6
CONTINUOUS
 10
0.793051
 20
-4.347461
  0
VERTEX
  8
PLAN_1
  6
CONTINUOUS
 10
0.792496
 20
-4.336358
  0
VERTEX
  8
PLAN_1
  6
CONTINUOUS
 10
0.793051
 20
-4.325807
  0
VERTEX
  8
PLAN_1
  6
CONTINUOUS
 10
0.794717
 20
-4.315256
  0
VERTEX
  8
PLAN_1
  6
CONTINUOUS
 10
0.797492
 20
-4.305264
  0
VERTEX
  8
PLAN_1
  6
CONTINUOUS
 10
0.800823
 20
-4.295823
  0
VERTEX
  8
PLAN_1
  6
CONTINUOUS
 10
0.805268
 20
-4.286386
  0
VERTEX
  8
PLAN_1
  6
CONTINUOUS
 10
0.810819
 20
-4.278055
  0
VERTEX
  8
PLAN_1
  6
CONTINUOUS
 10
0.816925
 20
-4.269728
  0
VERTEX
  8
PLAN_1
  6
CONTINUOUS
 10
0.823591
 20
-4.262512
  0
VERTEX
  8
PLAN_1
  6
CONTINUOUS
 10
0.830807
 20
-4.255846
  0
VERTEX
  8
PLAN_1
  6
CONTINUOUS
 10
0.839138
 20
-4.249740
  0
VERTEX
  8
PLAN_1
  6
CONTINUOUS
 10
0.848020
 20
-4.244744
  0
VERTEX
  8
PLAN_1
  6
CONTINUOUS
 10
0.856906
 20
-4.240299
  0
VERTEX
  8
PLAN_1
  6
CONTINUOUS
 10
0.866343
 20
-4.236413
  0
VERTEX
  8
PLAN_1
  6
CONTINUOUS
 10
0.876339
 20
-4.234193
  0
VERTEX
  8
PLAN_1
  6
CONTINUOUS
 10
0.886886
 20
-4.232528
  0
VERTEX
  8
PLAN_1
  6
CONTINUOUS
 10
0.897437
 20
-4.231972
  0
VERTEX
  8
PLAN_1
  6
CONTINUOUS
 10
0.906874
 20
-4.232528
  0
VERTEX
  8
PLAN_1
  6
CONTINUOUS
 10
0.916315
 20
-4.233638
  0
VERTEX
  8
PLAN_1
  6
CONTINUOUS
 10
0.925197
 20
-4.235858
  0
VERTEX
  8
PLAN_1
  6
CONTINUOUS
 10
0.934083
 20
-4.238634
  0
VERTEX
  8
PLAN_1
  6
CONTINUOUS
 10
0.942409
 20
-4.241965
  0
VERTEX
  8
PLAN_1
  6
CONTINUOUS
 10
0.950185
 20
-4.245854
  0
VERTEX
  8
PLAN_1
  6
CONTINUOUS
 10
0.957402
 20
-4.250850
  0
VERTEX
  8
PLAN_1
  6
CONTINUOUS
 10
0.964622
 20
-4.256402
  0
VERTEX
  8
PLAN_1
  6
CONTINUOUS
 10
0.970728
 20
-4.262512
  0
VERTEX
  8
PLAN_1
  6
CONTINUOUS
 10
0.976280
 20
-4.269173
  0
VERTEX
  8
PLAN_1
  6
CONTINUOUS
 10
0.981280
 20
-4.276390
  0
VERTEX
  8
PLAN_1
  6
CONTINUOUS
 10
0.985165
 20
-4.283610
  0
VERTEX
  8
PLAN_1
  6
CONTINUOUS
 10
0.988496
 20
-4.291937
  0
VERTEX
  8
PLAN_1
  6
CONTINUOUS
 10
0.990717
 20
-4.300268
  0
VERTEX
  8
PLAN_1
  6
CONTINUOUS
 10
0.992382
 20
-4.309150
  0
VERTEX
  8
PLAN_1
  6
CONTINUOUS
 10
0.992937
 20
-4.318591
  0
VERTEX
  8
PLAN_1
  6
CONTINUOUS
 10
0.992382
 20
-4.328028
  0
VERTEX
  8
PLAN_1
  6
CONTINUOUS
 10
0.991272
 20
-4.336358
  0
VERTEX
  8
PLAN_1
  6
CONTINUOUS
 10
0.989051
 20
-4.344685
  0
VERTEX
  8
PLAN_1
  6
CONTINUOUS
 10
0.985720
 20
-4.352461
  0
VERTEX
  8
PLAN_1
  6
CONTINUOUS
 10
0.982390
 20
-4.359677
  0
VERTEX
  8
PLAN_1
  6
CONTINUOUS
 10
0.978500
 20
-4.366339
  0
VERTEX
  8
PLAN_1
  6
CONTINUOUS
 10
0.974059
 20
-4.371894
  0
VERTEX
  8
PLAN_1
  6
CONTINUOUS
 10
0.969063
 20
-4.377445
  0
VERTEX
  8
PLAN_1
  6
CONTINUOUS
 10
0.963512
 20
-4.382441
  0
VERTEX
  8
PLAN_1
  6
CONTINUOUS
 10
0.958512
 20
-4.386882
  0
VERTEX
  8
PLAN_1
  6
CONTINUOUS
 10
0.952961
 20
-4.390217
  0
VERTEX
  8
PLAN_1
  6
CONTINUOUS
 10
0.947409
 20
-4.393547
  0
VERTEX
  8
PLAN_1
  6
CONTINUOUS
 10
0.941854
 20
-4.395768
  0
VERTEX
  8
PLAN_1
  6
CONTINUOUS
 10
0.936303
 20
-4.397433
  0
VERTEX
  8
PLAN_1
  6
CONTINUOUS
 10
0.931307
 20
-4.398543
  0
VERTEX
  8
PLAN_1
  6
CONTINUOUS
 10
0.926307
 20
-4.399098
  0
VERTEX
  8
PLAN_1
  6
CONTINUOUS
 10
0.922976
 20
-4.398543
  0
VERTEX
  8
PLAN_1
  6
CONTINUOUS
 10
0.919646
 20
-4.397988
  0
VERTEX
  8
PLAN_1
  6
CONTINUOUS
 10
0.916870
 20
-4.396323
  0
VERTEX
  8
PLAN_1
  6
CONTINUOUS
 10
0.914094
 20
-4.394657
  0
VERTEX
  8
PLAN_1
  6
CONTINUOUS
 10
0.911874
 20
-4.391882
  0
VERTEX
  8
PLAN_1
  6
CONTINUOUS
 10
0.910209
 20
-4.389106
  0
VERTEX
  8
PLAN_1
  6
CONTINUOUS
 10
0.909094
 20
-4.385772
  0
VERTEX
  8
PLAN_1
  6
CONTINUOUS
 10
0.908539
 20
-4.381331
  0
VERTEX
  8
PLAN_1
  6
CONTINUOUS
 10
0.907984
 20
-4.381886
  0
VERTEX
  8
PLAN_1
  6
CONTINUOUS
 10
0.905209
 20
-4.384661
  0
VERTEX
  8
PLAN_1
  6
CONTINUOUS
 10
0.901323
 20
-4.387996
  0
VERTEX
  8
PLAN_1
  6
CONTINUOUS
 10
0.897437
 20
-4.390772
  0
VERTEX
  8
PLAN_1
  6
CONTINUOUS
 10
0.893551
 20
-4.393547
  0
VERTEX
  8
PLAN_1
  6
CONTINUOUS
 10
0.889106
 20
-4.395768
  0
VERTEX
  8
PLAN_1
  6
CONTINUOUS
 10
0.884665
 20
-4.397433
  0
VERTEX
  8
PLAN_1
  6
CONTINUOUS
 10
0.879669
 20
-4.398543
  0
VERTEX
  8
PLAN_1
  6
CONTINUOUS
 10
0.874673
 20
-4.399098
  0
VERTEX
  8
PLAN_1
  6
CONTINUOUS
 10
0.870228
 20
-4.398543
  0
VERTEX
  8
PLAN_1
  6
CONTINUOUS
 10
0.866343
 20
-4.397988
  0
VERTEX
  8
PLAN_1
  6
CONTINUOUS
 10
0.862457
 20
-4.396878
  0
VERTEX
  8
PLAN_1
  6
CONTINUOUS
 10
0.858571
 20
-4.395213
  0
VERTEX
  8
PLAN_1
  6
CONTINUOUS
 10
0.854681
 20
-4.393547
  0
VERTEX
  8
PLAN_1
  6
CONTINUOUS
 10
0.851350
 20
-4.391327
  0
VERTEX
  8
PLAN_1
  6
CONTINUOUS
 10
0.848575
 20
-4.388551
  0
VERTEX
  8
PLAN_1
  6
CONTINUOUS
 10
0.845799
 20
-4.385772
  0
VERTEX
  8
PLAN_1
  6
CONTINUOUS
 10
0.843024
 20
-4.382441
  0
VERTEX
  8
PLAN_1
  6
CONTINUOUS
 10
0.840803
 20
-4.379110
  0
VERTEX
  8
PLAN_1
  6
CONTINUOUS
 10
0.838583
 20
-4.375224
  0
VERTEX
  8
PLAN_1
  6
CONTINUOUS
 10
0.836913
 20
-4.371339
  0
VERTEX
  8
PLAN_1
  6
CONTINUOUS
 10
0.835803
 20
-4.367449
  0
VERTEX
  8
PLAN_1
  6
CONTINUOUS
 10
0.834693
 20
-4.363008
  0
VERTEX
  8
PLAN_1
  6
CONTINUOUS
 10
0.834138
 20
-4.359122
  0
VERTEX
  8
PLAN_1
  6
CONTINUOUS
 10
0.834138
 20
-4.354681
  0
VERTEX
  8
PLAN_1
  6
CONTINUOUS
 10
0.834138
 20
-4.347461
  0
VERTEX
  8
PLAN_1
  6
CONTINUOUS
 10
0.835248
 20
-4.340244
  0
VERTEX
  8
PLAN_1
  6
CONTINUOUS
 10
0.836913
 20
-4.333583
  0
VERTEX
  8
PLAN_1
  6
CONTINUOUS
 10
0.838583
 20
-4.326917
  0
VERTEX
  8
PLAN_1
  6
CONTINUOUS
 10
0.841358
 20
-4.320256
  0
VERTEX
  8
PLAN_1
  6
CONTINUOUS
 10
0.844134
 20
-4.313591
  0
VERTEX
  8
PLAN_1
  6
CONTINUOUS
 10
0.847465
 20
-4.307484
  0
VERTEX
  8
PLAN_1
  6
CONTINUOUS
 10
0.851906
 20
-4.301933
  0
VERTEX
  8
PLAN_1
  6
CONTINUOUS
 10
0.856350
 20
-4.296933
  0
VERTEX
  8
PLAN_1
  6
CONTINUOUS
 10
0.860791
 20
-4.291937
  0
VERTEX
  8
PLAN_1
  6
CONTINUOUS
 10
0.866343
 20
-4.288051
  0
VERTEX
  8
PLAN_1
  6
CONTINUOUS
 10
0.871894
 20
-4.284720
  0
VERTEX
  8
PLAN_1
  6
CONTINUOUS
 10
0.878004
 20
-4.281945
  0
VERTEX
  8
PLAN_1
  6
CONTINUOUS
 10
0.884110
 20
-4.279720
  0
VERTEX
  8
PLAN_1
  6
CONTINUOUS
 10
0.891327
 20
-4.278055
  0
VERTEX
  8
PLAN_1
  6
CONTINUOUS
 10
0.897992
 20
-4.278055
  0
VERTEX
  8
PLAN_1
  6
CONTINUOUS
 10
0.902988
 20
-4.278055
  0
VERTEX
  8
PLAN_1
  6
CONTINUOUS
 10
0.907984
 20
-4.279165
  0
VERTEX
  8
PLAN_1
  6
CONTINUOUS
 10
0.912429
 20
-4.280835
  0
VERTEX
  8
PLAN_1
  6
CONTINUOUS
 10
0.916315
 20
-4.283055
  0
VERTEX
  8
PLAN_1
  6
CONTINUOUS
 10
0.920201
 20
-4.285831
  0
VERTEX
  8
PLAN_1
  6
CONTINUOUS
 10
0.924087
 20
-4.289717
  0
VERTEX
  8
PLAN_1
  6
CONTINUOUS
 10
0.927417
 20
-4.294157
  0
VERTEX
  8
PLAN_1
  6
CONTINUOUS
 10
0.930197
 20
-4.299713
  0
VERTEX
  8
PLAN_1
  6
CONTINUOUS
 10
0.935748
 20
-4.282500
  0
SEQEND
  8
0
  0
POLYLINE
  8
PLAN_1
  6
CONTINUOUS
 66
     1
 40
0.003000
 41
0.003000
  0
VERTEX
  8
PLAN_1
  6
CONTINUOUS
 10
0.898547
 20
-4.298047
  0
VERTEX
  8
PLAN_1
  6
CONTINUOUS
 10
0.894106
 20
-4.298047
  0
VERTEX
  8
PLAN_1
  6
CONTINUOUS
 10
0.889661
 20
-4.299157
  0
VERTEX
  8
PLAN_1
  6
CONTINUOUS
 10
0.885776
 20
-4.300823
  0
VERTEX
  8
PLAN_1
  6
CONTINUOUS
 10
0.881890
 20
-4.303043
  0
VERTEX
  8
PLAN_1
  6
CONTINUOUS
 10
0.878004
 20
-4.305819
  0
VERTEX
  8
PLAN_1
  6
CONTINUOUS
 10
0.874673
 20
-4.308594
  0
VERTEX
  8
PLAN_1
  6
CONTINUOUS
 10
0.871339
 20
-4.312480
  0
VERTEX
  8
PLAN_1
  6
CONTINUOUS
 10
0.868563
 20
-4.316370
  0
VERTEX
  8
PLAN_1
  6
CONTINUOUS
 10
0.865787
 20
-4.320256
  0
VERTEX
  8
PLAN_1
  6
CONTINUOUS
 10
0.863567
 20
-4.324697
  0
VERTEX
  8
PLAN_1
  6
CONTINUOUS
 10
0.861346
 20
-4.329138
  0
VERTEX
  8
PLAN_1
  6
CONTINUOUS
 10
0.859681
 20
-4.333583
  0
VERTEX
  8
PLAN_1
  6
CONTINUOUS
 10
0.858571
 20
-4.338579
  0
VERTEX
  8
PLAN_1
  6
CONTINUOUS
 10
0.857461
 20
-4.343020
  0
VERTEX
  8
PLAN_1
  6
CONTINUOUS
 10
0.856906
 20
-4.347461
  0
VERTEX
  8
PLAN_1
  6
CONTINUOUS
 10
0.856906
 20
-4.351906
  0
VERTEX
  8
PLAN_1
  6
CONTINUOUS
 10
0.857461
 20
-4.357457
  0
VERTEX
  8
PLAN_1
  6
CONTINUOUS
 10
0.858571
 20
-4.363008
  0
VERTEX
  8
PLAN_1
  6
CONTINUOUS
 10
0.860791
 20
-4.367449
  0
VERTEX
  8
PLAN_1
  6
CONTINUOUS
 10
0.863567
 20
-4.371339
  0
VERTEX
  8
PLAN_1
  6
CONTINUOUS
 10
0.866898
 20
-4.374669
  0
VERTEX
  8
PLAN_1
  6
CONTINUOUS
 10
0.870783
 20
-4.376890
  0
VERTEX
  8
PLAN_1
  6
CONTINUOUS
 10
0.875228
 20
-4.378555
  0
VERTEX
  8
PLAN_1
  6
CONTINUOUS
 10
0.880224
 20
-4.379110
  0
VERTEX
  8
PLAN_1
  6
CONTINUOUS
 10
0.884665
 20
-4.378555
  0
VERTEX
  8
PLAN_1
  6
CONTINUOUS
 10
0.888551
 20
-4.377445
  0
VERTEX
  8
PLAN_1
  6
CONTINUOUS
 10
0.892996
 20
-4.375780
  0
VERTEX
  8
PLAN_1
  6
CONTINUOUS
 10
0.896327
 20
-4.373559
  0
VERTEX
  8
PLAN_1
  6
CONTINUOUS
 10
0.900213
 20
-4.370228
  0
VERTEX
  8
PLAN_1
  6
CONTINUOUS
 10
0.903543
 20
-4.366894
  0
VERTEX
  8
PLAN_1
  6
CONTINUOUS
 10
0.906874
 20
-4.363563
  0
VERTEX
  8
PLAN_1
  6
CONTINUOUS
 10
0.909650
 20
-4.359677
  0
VERTEX
  8
PLAN_1
  6
CONTINUOUS
 10
0.912429
 20
-4.355236
  0
VERTEX
  8
PLAN_1
  6
CONTINUOUS
 10
0.914650
 20
-4.350791
  0
VERTEX
  8
PLAN_1
  6
CONTINUOUS
 10
0.916870
 20
-4.345795
  0
VERTEX
  8
PLAN_1
  6
CONTINUOUS
 10
0.918535
 20
-4.341354
  0
VERTEX
  8
PLAN_1
  6
CONTINUOUS
 10
0.919646
 20
-4.336913
  0
VERTEX
  8
PLAN_1
  6
CONTINUOUS
 10
0.920756
 20
-4.331913
  0
VERTEX
  8
PLAN_1
  6
CONTINUOUS
 10
0.921311
 20
-4.327472
  0
VERTEX
  8
PLAN_1
  6
CONTINUOUS
 10
0.921311
 20
-4.323587
  0
VERTEX
  8
PLAN_1
  6
CONTINUOUS
 10
0.921311
 20
-4.318591
  0
VERTEX
  8
PLAN_1
  6
CONTINUOUS
 10
0.919646
 20
-4.313591
  0
VERTEX
  8
PLAN_1
  6
CONTINUOUS
 10
0.917425
 20
-4.309150
  0
VERTEX
  8
PLAN_1
  6
CONTINUOUS
 10
0.914650
 20
-4.305264
  0
VERTEX
  8
PLAN_1
  6
CONTINUOUS
 10
0.911319
 20
-4.302488
  0
VERTEX
  8
PLAN_1
  6
CONTINUOUS
 10
0.907429
 20
-4.299713
  0
VERTEX
  8
PLAN_1
  6
CONTINUOUS
 10
0.902988
 20
-4.298602
  0
VERTEX
  8
PLAN_1
  6
CONTINUOUS
 10
0.898547
 20
-4.298047
  0
SEQEND
  8
0
  0
POLYLINE
  8
PLAN_1
  6
CONTINUOUS
 66
     1
 40
0.003000
 41
0.003000
  0
VERTEX
  8
PLAN_1
  6
CONTINUOUS
 10
1.186161
 20
-4.237524
  0
VERTEX
  8
PLAN_1
  6
CONTINUOUS
 10
1.213370
 20
-4.237524
  0
VERTEX
  8
PLAN_1
  6
CONTINUOUS
 10
1.213370
 20
-4.436854
  0
VERTEX
  8
PLAN_1
  6
CONTINUOUS
 10
1.186161
 20
-4.436854
  0
VERTEX
  8
PLAN_1
  6
CONTINUOUS
 10
1.186161
 20
-4.343575
  0
VERTEX
  8
PLAN_1
  6
CONTINUOUS
 10
1.082331
 20
-4.343575
  0
VERTEX
  8
PLAN_1
  6
CONTINUOUS
 10
1.082331
 20
-4.436854
  0
VERTEX
  8
PLAN_1
  6
CONTINUOUS
 10
1.055126
 20
-4.436854
  0
VERTEX
  8
PLAN_1
  6
CONTINUOUS
 10
1.055126
 20
-4.237524
  0
VERTEX
  8
PLAN_1
  6
CONTINUOUS
 10
1.082331
 20
-4.237524
  0
VERTEX
  8
PLAN_1
  6
CONTINUOUS
 10
1.082331
 20
-4.319701
  0
VERTEX
  8
PLAN_1
  6
CONTINUOUS
 10
1.186161
 20
-4.319701
  0
VERTEX
  8
PLAN_1
  6
CONTINUOUS
 10
1.186161
 20
-4.237524
  0
SEQEND
  8
0
  0
POLYLINE
  8
PLAN_1
  6
CONTINUOUS
 66
     1
 40
0.003000
 41
0.003000
  0
VERTEX
  8
PLAN_1
  6
CONTINUOUS
 10
1.256677
 20
-4.237524
  0
VERTEX
  8
PLAN_1
  6
CONTINUOUS
 10
1.337744
 20
-4.237524
  0
VERTEX
  8
PLAN_1
  6
CONTINUOUS
 10
1.347181
 20
-4.237524
  0
VERTEX
  8
PLAN_1
  6
CONTINUOUS
 10
1.356067
 20
-4.239189
  0
VERTEX
  8
PLAN_1
  6
CONTINUOUS
 10
1.364394
 20
-4.241409
  0
VERTEX
  8
PLAN_1
  6
CONTINUOUS
 10
1.372720
 20
-4.244185
  0
VERTEX
  8
PLAN_1
  6
CONTINUOUS
 10
1.379941
 20
-4.248075
  0
VERTEX
  8
PLAN_1
  6
CONTINUOUS
 10
1.386602
 20
-4.252516
  0
VERTEX
  8
PLAN_1
  6
CONTINUOUS
 10
1.393268
 20
-4.258067
  0
VERTEX
  8
PLAN_1
  6
CONTINUOUS
 10
1.398819
 20
-4.264177
  0
VERTEX
  8
PLAN_1
  6
CONTINUOUS
 10
1.403815
 20
-4.270839
  0
VERTEX
  8
PLAN_1
  6
CONTINUOUS
 10
1.408256
 20
-4.278055
  0
VERTEX
  8
PLAN_1
  6
CONTINUOUS
 10
1.412146
 20
-4.286386
  0
VERTEX
  8
PLAN_1
  6
CONTINUOUS
 10
1.415476
 20
-4.294713
  0
VERTEX
  8
PLAN_1
  6
CONTINUOUS
 10
1.418252
 20
-4.304154
  0
VERTEX
  8
PLAN_1
  6
CONTINUOUS
 10
1.419917
 20
-4.313591
  0
VERTEX
  8
PLAN_1
  6
CONTINUOUS
 10
1.421028
 20
-4.323587
  0
VERTEX
  8
PLAN_1
  6
CONTINUOUS
 10
1.421583
 20
-4.334138
  0
VERTEX
  8
PLAN_1
  6
CONTINUOUS
 10
1.421028
 20
-4.342465
  0
VERTEX
  8
PLAN_1
  6
CONTINUOUS
 10
1.420472
 20
-4.351350
  0
VERTEX
  8
PLAN_1
  6
CONTINUOUS
 10
1.419362
 20
-4.360232
  0
VERTEX
  8
PLAN_1
  6
CONTINUOUS
 10
1.417142
 20
-4.369118
  0
VERTEX
  8
PLAN_1
  6
CONTINUOUS
 10
1.414921
 20
-4.377445
  0
VERTEX
  8
PLAN_1
  6
CONTINUOUS
 10
1.411591
 20
-4.386327
  0
VERTEX
  8
PLAN_1
  6
CONTINUOUS
 10
1.407701
 20
-4.394102
  0
VERTEX
  8
PLAN_1
  6
CONTINUOUS
 10
1.403260
 20
-4.401874
  0
VERTEX
  8
PLAN_1
  6
CONTINUOUS
 10
1.398264
 20
-4.409094
  0
VERTEX
  8
PLAN_1
  6
CONTINUOUS
 10
1.392157
 20
-4.415756
  0
VERTEX
  8
PLAN_1
  6
CONTINUOUS
 10
1.388823
 20
-4.419087
  0
VERTEX
  8
PLAN_1
  6
CONTINUOUS
 10
1.384937
 20
-4.421862
  0
VERTEX
  8
PLAN_1
  6
CONTINUOUS
 10
1.381606
 20
-4.424642
  0
VERTEX
  8
PLAN_1
  6
CONTINUOUS
 10
1.377165
 20
-4.426862
  0
VERTEX
  8
PLAN_1
  6
CONTINUOUS
 10
1.373280
 20
-4.429083
  0
VERTEX
  8
PLAN_1
  6
CONTINUOUS
 10
1.368835
 20
-4.430748
  0
VERTEX
  8
PLAN_1
  6
CONTINUOUS
 10
1.363839
 20
-4.432413
  0
VERTEX
  8
PLAN_1
  6
CONTINUOUS
 10
1.358843
 20
-4.434079
  0
VERTEX
  8
PLAN_1
  6
CONTINUOUS
 10
1.353843
 20
-4.435189
  0
VERTEX
  8
PLAN_1
  6
CONTINUOUS
 10
1.348291
 20
-4.435744
  0
VERTEX
  8
PLAN_1
  6
CONTINUOUS
 10
1.342185
 20
-4.436299
  0
VERTEX
  8
PLAN_1
  6
CONTINUOUS
 10
1.336630
 20
-4.436854
  0
VERTEX
  8
PLAN_1
  6
CONTINUOUS
 10
1.256677
 20
-4.436854
  0
VERTEX
  8
PLAN_1
  6
CONTINUOUS
 10
1.256677
 20
-4.237524
  0
SEQEND
  8
0
  0
POLYLINE
  8
PLAN_1
  6
CONTINUOUS
 66
     1
 40
0.003000
 41
0.003000
  0
VERTEX
  8
PLAN_1
  6
CONTINUOUS
 10
1.283882
 20
-4.413535
  0
VERTEX
  8
PLAN_1
  6
CONTINUOUS
 10
1.336075
 20
-4.413535
  0
VERTEX
  8
PLAN_1
  6
CONTINUOUS
 10
1.342185
 20
-4.412980
  0
VERTEX
  8
PLAN_1
  6
CONTINUOUS
 10
1.348291
 20
-4.412425
  0
VERTEX
  8
PLAN_1
  6
CONTINUOUS
 10
1.354398
 20
-4.410760
  0
VERTEX
  8
PLAN_1
  6
CONTINUOUS
 10
1.359398
 20
-4.408539
  0
VERTEX
  8
PLAN_1
  6
CONTINUOUS
 10
1.364949
 20
-4.405764
  0
VERTEX
  8
PLAN_1
  6
CONTINUOUS
 10
1.369390
 20
-4.402429
  0
VERTEX
  8
PLAN_1
  6
CONTINUOUS
 10
1.373835
 20
-4.397988
  0
VERTEX
  8
PLAN_1
  6
CONTINUOUS
 10
1.377720
 20
-4.393547
  0
VERTEX
  8
PLAN_1
  6
CONTINUOUS
 10
1.381606
 20
-4.388551
  0
VERTEX
  8
PLAN_1
  6
CONTINUOUS
 10
1.384382
 20
-4.382441
  0
VERTEX
  8
PLAN_1
  6
CONTINUOUS
 10
1.387157
 20
-4.376335
  0
VERTEX
  8
PLAN_1
  6
CONTINUOUS
 10
1.389378
 20
-4.369118
  0
VERTEX
  8
PLAN_1
  6
CONTINUOUS
 10
1.391047
 20
-4.361898
  0
VERTEX
  8
PLAN_1
  6
CONTINUOUS
 10
1.392713
 20
-4.353571
  0
VERTEX
  8
PLAN_1
  6
CONTINUOUS
 10
1.393268
 20
-4.345240
  0
VERTEX
  8
PLAN_1
  6
CONTINUOUS
 10
1.393823
 20
-4.335803
  0
VERTEX
  8
PLAN_1
  6
CONTINUOUS
 10
1.393268
 20
-4.326917
  0
VERTEX
  8
PLAN_1
  6
CONTINUOUS
 10
1.392713
 20
-4.318035
  0
VERTEX
  8
PLAN_1
  6
CONTINUOUS
 10
1.391047
 20
-4.310260
  0
VERTEX
  8
PLAN_1
  6
CONTINUOUS
 10
1.389378
 20
-4.303043
  0
VERTEX
  8
PLAN_1
  6
CONTINUOUS
 10
1.387157
 20
-4.295823
  0
VERTEX
  8
PLAN_1
  6
CONTINUOUS
 10
1.384382
 20
-4.289717
  0
VERTEX
  8
PLAN_1
  6
CONTINUOUS
 10
1.381051
 20
-4.284165
  0
VERTEX
  8
PLAN_1
  6
CONTINUOUS
 10
1.377720
 20
-4.279165
  0
VERTEX
  8
PLAN_1
  6
CONTINUOUS
 10
1.373280
 20
-4.274724
  0
VERTEX
  8
PLAN_1
  6
CONTINUOUS
 10
1.368835
 20
-4.270839
  0
VERTEX
  8
PLAN_1
  6
CONTINUOUS
 10
1.363839
 20
-4.267508
  0
VERTEX
  8
PLAN_1
  6
CONTINUOUS
 10
1.358843
 20
-4.265287
  0
VERTEX
  8
PLAN_1
  6
CONTINUOUS
 10
1.353287
 20
-4.263067
  0
VERTEX
  8
PLAN_1
  6
CONTINUOUS
 10
1.347181
 20
-4.261398
  0
VERTEX
  8
PLAN_1
  6
CONTINUOUS
 10
1.340520
 20
-4.260843
  0
VERTEX
  8
PLAN_1
  6
CONTINUOUS
 10
1.333854
 20
-4.260287
  0
VERTEX
  8
PLAN_1
  6
CONTINUOUS
 10
1.283882
 20
-4.260287
  0
VERTEX
  8
PLAN_1
  6
CONTINUOUS
 10
1.283882
 20
-4.413535
  0
SEQEND
  8
0
  0
POLYLINE
  8
PLAN_1
  6
CONTINUOUS
 66
     1
 40
0.003000
 41
0.003000
  0
VERTEX
  8
PLAN_1
  6
CONTINUOUS
 10
1.485992
 20
-4.436854
  0
VERTEX
  8
PLAN_1
  6
CONTINUOUS
 10
1.459339
 20
-4.436854
  0
VERTEX
  8
PLAN_1
  6
CONTINUOUS
 10
1.459339
 20
-4.237524
  0
VERTEX
  8
PLAN_1
  6
CONTINUOUS
 10
1.551512
 20
-4.237524
  0
VERTEX
  8
PLAN_1
  6
CONTINUOUS
 10
1.557618
 20
-4.237524
  0
VERTEX
  8
PLAN_1
  6
CONTINUOUS
 10
1.563724
 20
-4.238079
  0
VERTEX
  8
PLAN_1
  6
CONTINUOUS
 10
1.569835
 20
-4.238634
  0
VERTEX
  8
PLAN_1
  6
CONTINUOUS
 10
1.575386
 20
-4.239744
  0
VERTEX
  8
PLAN_1
  6
CONTINUOUS
 10
1.580937
 20
-4.241409
  0
VERTEX
  8
PLAN_1
  6
CONTINUOUS
 10
1.586488
 20
-4.243075
  0
VERTEX
  8
PLAN_1
  6
CONTINUOUS
 10
1.591488
 20
-4.245299
  0
VERTEX
  8
PLAN_1
  6
CONTINUOUS
 10
1.596484
 20
-4.248075
  0
VERTEX
  8
PLAN_1
  6
CONTINUOUS
 10
1.600925
 20
-4.251406
  0
VERTEX
  8
PLAN_1
  6
CONTINUOUS
 10
1.604815
 20
-4.255291
  0
VERTEX
  8
PLAN_1
  6
CONTINUOUS
 10
1.608146
 20
-4.259732
  0
VERTEX
  8
PLAN_1
  6
CONTINUOUS
 10
1.611476
 20
-4.264732
  0
VERTEX
  8
PLAN_1
  6
CONTINUOUS
 10
1.613697
 20
-4.270283
  0
VERTEX
  8
PLAN_1
  6
CONTINUOUS
 10
1.615362
 20
-4.276390
  0
VERTEX
  8
PLAN_1
  6
CONTINUOUS
 10
1.616472
 20
-4.283055
  0
VERTEX
  8
PLAN_1
  6
CONTINUOUS
 10
1.617028
 20
-4.290827
  0
VERTEX
  8
PLAN_1
  6
CONTINUOUS
 10
1.616472
 20
-4.296378
  0
VERTEX
  8
PLAN_1
  6
CONTINUOUS
 10
1.615917
 20
-4.300823
  0
VERTEX
  8
PLAN_1
  6
CONTINUOUS
 10
1.615362
 20
-4.305819
  0
VERTEX
  8
PLAN_1
  6
CONTINUOUS
 10
1.614252
 20
-4.309705
  0
VERTEX
  8
PLAN_1
  6
CONTINUOUS
 10
1.613142
 20
-4.313591
  0
VERTEX
  8
PLAN_1
  6
CONTINUOUS
 10
1.611476
 20
-4.316925
  0
VERTEX
  8
PLAN_1
  6
CONTINUOUS
 10
1.609811
 20
-4.320256
  0
VERTEX
  8
PLAN_1
  6
CONTINUOUS
 10
1.607591
 20
-4.323031
  0
VERTEX
  8
PLAN_1
  6
CONTINUOUS
 10
1.603701
 20
-4.328028
  0
VERTEX
  8
PLAN_1
  6
CONTINUOUS
 10
1.598705
 20
-4.331913
  0
VERTEX
  8
PLAN_1
  6
CONTINUOUS
 10
1.593709
 20
-4.335803
  0
VERTEX
  8
PLAN_1
  6
CONTINUOUS
 10
1.589268
 20
-4.338579
  0
VERTEX
  8
PLAN_1
  6
CONTINUOUS
 10
1.593154
 20
-4.340244
  0
VERTEX
  8
PLAN_1
  6
CONTINUOUS
 10
1.597594
 20
-4.342465
  0
VERTEX
  8
PLAN_1
  6
CONTINUOUS
 10
1.601480
 20
-4.345240
  0
VERTEX
  8
PLAN_1
  6
CONTINUOUS
 10
1.604815
 20
-4.348571
  0
VERTEX
  8
PLAN_1
  6
CONTINUOUS
 10
1.606480
 20
-4.350791
  0
VERTEX
  8
PLAN_1
  6
CONTINUOUS
 10
1.608146
 20
-4.353016
  0
VERTEX
  8
PLAN_1
  6
CONTINUOUS
 10
1.609256
 20
-4.355791
  0
VERTEX
  8
PLAN_1
  6
CONTINUOUS
 10
1.610366
 20
-4.359122
  0
VERTEX
  8
PLAN_1
  6
CONTINUOUS
 10
1.611476
 20
-4.362453
  0
VERTEX
  8
PLAN_1
  6
CONTINUOUS
 10
1.612031
 20
-4.366894
  0
VERTEX
  8
PLAN_1
  6
CONTINUOUS
 10
1.612587
 20
-4.371339
  0
VERTEX
  8
PLAN_1
  6
CONTINUOUS
 10
1.613142
 20
-4.376335
  0
VERTEX
  8
PLAN_1
  6
CONTINUOUS
 10
1.614807
 20
-4.412425
  0
VERTEX
  8
PLAN_1
  6
CONTINUOUS
 10
1.614807
 20
-4.415756
  0
VERTEX
  8
PLAN_1
  6
CONTINUOUS
 10
1.615362
 20
-4.419087
  0
VERTEX
  8
PLAN_1
  6
CONTINUOUS
 10
1.615917
 20
-4.421862
  0
VERTEX
  8
PLAN_1
  6
CONTINUOUS
 10
1.616472
 20
-4.424642
  0
VERTEX
  8
PLAN_1
  6
CONTINUOUS
 10
1.618138
 20
-4.426862
  0
VERTEX
  8
PLAN_1
  6
CONTINUOUS
 10
1.619803
 20
-4.428528
  0
VERTEX
  8
PLAN_1
  6
CONTINUOUS
 10
1.622024
 20
-4.430193
  0
VERTEX
  8
PLAN_1
  6
CONTINUOUS
 10
1.624803
 20
-4.431858
  0
VERTEX
  8
PLAN_1
  6
CONTINUOUS
 10
1.624803
 20
-4.436854
  0
VERTEX
  8
PLAN_1
  6
CONTINUOUS
 10
1.591488
 20
-4.436854
  0
VERTEX
  8
PLAN_1
  6
CONTINUOUS
 10
1.590378
 20
-4.431303
  0
VERTEX
  8
PLAN_1
  6
CONTINUOUS
 10
1.589268
 20
-4.424642
  0
VERTEX
  8
PLAN_1
  6
CONTINUOUS
 10
1.588157
 20
-4.417421
  0
VERTEX
  8
PLAN_1
  6
CONTINUOUS
 10
1.587602
 20
-4.409650
  0
VERTEX
  8
PLAN_1
  6
CONTINUOUS
 10
1.587602
 20
-4.402429
  0
VERTEX
  8
PLAN_1
  6
CONTINUOUS
 10
1.587047
 20
-4.395768
  0
VERTEX
  8
PLAN_1
  6
CONTINUOUS
 10
1.587047
 20
-4.390217
  0
VERTEX
  8
PLAN_1
  6
CONTINUOUS
 10
1.587047
 20
-4.386882
  0
VERTEX
  8
PLAN_1
  6
CONTINUOUS
 10
1.586488
 20
-4.380220
  0
VERTEX
  8
PLAN_1
  6
CONTINUOUS
 10
1.585933
 20
-4.374114
  0
VERTEX
  8
PLAN_1
  6
CONTINUOUS
 10
1.585378
 20
-4.371339
  0
VERTEX
  8
PLAN_1
  6
CONTINUOUS
 10
1.584268
 20
-4.368004
  0
VERTEX
  8
PLAN_1
  6
CONTINUOUS
 10
1.582602
 20
-4.365228
  0
VERTEX
  8
PLAN_1
  6
CONTINUOUS
 10
1.580937
 20
-4.362453
  0
VERTEX
  8
PLAN_1
  6
CONTINUOUS
 10
1.579272
 20
-4.360232
  0
VERTEX
  8
PLAN_1
  6
CONTINUOUS
 10
1.576496
 20
-4.358012
  0
VERTEX
  8
PLAN_1
  6
CONTINUOUS
 10
1.573720
 20
-4.355791
  0
VERTEX
  8
PLAN_1
  6
CONTINUOUS
 10
1.570390
 20
-4.354126
  0
VERTEX
  8
PLAN_1
  6
CONTINUOUS
 10
1.566500
 20
-4.353016
  0
VERTEX
  8
PLAN_1
  6
CONTINUOUS
 10
1.562059
 20
-4.351906
  0
VERTEX
  8
PLAN_1
  6
CONTINUOUS
 10
1.557063
 20
-4.351350
  0
VERTEX
  8
PLAN_1
  6
CONTINUOUS
 10
1.551512
 20
-4.351350
  0
VERTEX
  8
PLAN_1
  6
CONTINUOUS
 10
1.485992
 20
-4.351350
  0
VERTEX
  8
PLAN_1
  6
CONTINUOUS
 10
1.485992
 20
-4.436854
  0
SEQEND
  8
0
  0
POLYLINE
  8
PLAN_1
  6
CONTINUOUS
 66
     1
 40
0.003000
 41
0.003000
  0
VERTEX
  8
PLAN_1
  6
CONTINUOUS
 10
1.485992
 20
-4.328028
  0
VERTEX
  8
PLAN_1
  6
CONTINUOUS
 10
1.548732
 20
-4.328028
  0
VERTEX
  8
PLAN_1
  6
CONTINUOUS
 10
1.555953
 20
-4.328028
  0
VERTEX
  8
PLAN_1
  6
CONTINUOUS
 10
1.563169
 20
-4.326917
  0
VERTEX
  8
PLAN_1
  6
CONTINUOUS
 10
1.566500
 20
-4.325807
  0
VERTEX
  8
PLAN_1
  6
CONTINUOUS
 10
1.569835
 20
-4.324697
  0
VERTEX
  8
PLAN_1
  6
CONTINUOUS
 10
1.573165
 20
-4.323587
  0
VERTEX
  8
PLAN_1
  6
CONTINUOUS
 10
1.576496
 20
-4.321921
  0
VERTEX
  8
PLAN_1
  6
CONTINUOUS
 10
1.578717
 20
-4.319701
  0
VERTEX
  8
PLAN_1
  6
CONTINUOUS
 10
1.581492
 20
-4.317480
  0
VERTEX
  8
PLAN_1
  6
CONTINUOUS
 10
1.583713
 20
-4.314701
  0
VERTEX
  8
PLAN_1
  6
CONTINUOUS
 10
1.585378
 20
-4.311370
  0
VERTEX
  8
PLAN_1
  6
CONTINUOUS
 10
1.587047
 20
-4.307484
  0
VERTEX
  8
PLAN_1
  6
CONTINUOUS
 10
1.588157
 20
-4.303598
  0
VERTEX
  8
PLAN_1
  6
CONTINUOUS
 10
1.588713
 20
-4.298602
  0
VERTEX
  8
PLAN_1
  6
CONTINUOUS
 10
1.589268
 20
-4.293602
  0
VERTEX
  8
PLAN_1
  6
CONTINUOUS
 10
1.588713
 20
-4.288051
  0
VERTEX
  8
PLAN_1
  6
CONTINUOUS
 10
1.588157
 20
-4.283610
  0
VERTEX
  8
PLAN_1
  6
CONTINUOUS
 10
1.587047
 20
-4.279165
  0
VERTEX
  8
PLAN_1
  6
CONTINUOUS
 10
1.585378
 20
-4.275280
  0
VERTEX
  8
PLAN_1
  6
CONTINUOUS
 10
1.583713
 20
-4.272504
  0
VERTEX
  8
PLAN_1
  6
CONTINUOUS
 10
1.581492
 20
-4.269728
  0
VERTEX
  8
PLAN_1
  6
CONTINUOUS
 10
1.578717
 20
-4.267508
  0
VERTEX
  8
PLAN_1
  6
CONTINUOUS
 10
1.575941
 20
-4.265287
  0
VERTEX
  8
PLAN_1
  6
CONTINUOUS
 10
1.573165
 20
-4.264177
  0
VERTEX
  8
PLAN_1
  6
CONTINUOUS
 10
1.570390
 20
-4.262512
  0
VERTEX
  8
PLAN_1
  6
CONTINUOUS
 10
1.567610
 20
-4.261953
  0
VERTEX
  8
PLAN_1
  6
CONTINUOUS
 10
1.564280
 20
-4.261398
  0
VERTEX
  8
PLAN_1
  6
CONTINUOUS
 10
1.558728
 20
-4.260287
  0
VERTEX
  8
PLAN_1
  6
CONTINUOUS
 10
1.553177
 20
-4.260287
  0
VERTEX
  8
PLAN_1
  6
CONTINUOUS
 10
1.485992
 20
-4.260287
  0
VERTEX
  8
PLAN_1
  6
CONTINUOUS
 10
1.485992
 20
-4.328028
  0
SEQEND
  8
0
  0
SOLID
  8
PLAN_1
 10
1.688098
 20
-4.436854
 11
1.659228
 21
-4.436854
 12
1.688098
 22
-4.407429
 13
1.659228
 23
-4.407429
  0
POLYLINE
  8
PLAN_1
  6
CONTINUOUS
 66
     1
 40
0.003000
 41
0.003000
  0
VERTEX
  8
PLAN_1
  6
CONTINUOUS
 10
1.688098
 20
-4.436854
  0
VERTEX
  8
PLAN_1
  6
CONTINUOUS
 10
1.659228
 20
-4.436854
  0
VERTEX
  8
PLAN_1
  6
CONTINUOUS
 10
1.659228
 20
-4.407429
  0
VERTEX
  8
PLAN_1
  6
CONTINUOUS
 10
1.688098
 20
-4.407429
  0
VERTEX
  8
PLAN_1
  6
CONTINUOUS
 10
1.688098
 20
-4.436854
  0
SEQEND
  8
0
  0
POLYLINE
  8
PLAN_1
  6
CONTINUOUS
 66
     1
 40
0.003000
 41
0.003000
  0
VERTEX
  8
PLAN_1
  6
CONTINUOUS
 10
1.883543
 20
-4.436854
  0
VERTEX
  8
PLAN_1
  6
CONTINUOUS
 10
1.736406
 20
-4.436854
  0
VERTEX
  8
PLAN_1
  6
CONTINUOUS
 10
1.736406
 20
-4.237524
  0
VERTEX
  8
PLAN_1
  6
CONTINUOUS
 10
1.881323
 20
-4.237524
  0
VERTEX
  8
PLAN_1
  6
CONTINUOUS
 10
1.881323
 20
-4.261398
  0
VERTEX
  8
PLAN_1
  6
CONTINUOUS
 10
1.763055
 20
-4.261398
  0
VERTEX
  8
PLAN_1
  6
CONTINUOUS
 10
1.763055
 20
-4.322476
  0
VERTEX
  8
PLAN_1
  6
CONTINUOUS
 10
1.872441
 20
-4.322476
  0
VERTEX
  8
PLAN_1
  6
CONTINUOUS
 10
1.872441
 20
-4.346350
  0
VERTEX
  8
PLAN_1
  6
CONTINUOUS
 10
1.763055
 20
-4.346350
  0
VERTEX
  8
PLAN_1
  6
CONTINUOUS
 10
1.763055
 20
-4.412980
  0
VERTEX
  8
PLAN_1
  6
CONTINUOUS
 10
1.883543
 20
-4.412980
  0
VERTEX
  8
PLAN_1
  6
CONTINUOUS
 10
1.883543
 20
-4.436854
  0
SEQEND
  8
0
  0
POLYLINE
  8
PLAN_1
  6
CONTINUOUS
 66
     1
 40
0.003000
 41
0.003000
  0
VERTEX
  8
PLAN_1
  6
CONTINUOUS
 10
1.948508
 20
-4.436854
  0
VERTEX
  8
PLAN_1
  6
CONTINUOUS
 10
1.921299
 20
-4.436854
  0
VERTEX
  8
PLAN_1
  6
CONTINUOUS
 10
1.921299
 20
-4.237524
  0
VERTEX
  8
PLAN_1
  6
CONTINUOUS
 10
2.011248
 20
-4.237524
  0
VERTEX
  8
PLAN_1
  6
CONTINUOUS
 10
2.017913
 20
-4.237524
  0
VERTEX
  8
PLAN_1
  6
CONTINUOUS
 10
2.024575
 20
-4.238634
  0
VERTEX
  8
PLAN_1
  6
CONTINUOUS
 10
2.030126
 20
-4.239744
  0
VERTEX
  8
PLAN_1
  6
CONTINUOUS
 10
2.036236
 20
-4.241409
  0
VERTEX
  8
PLAN_1
  6
CONTINUOUS
 10
2.041232
 20
-4.243630
  0
VERTEX
  8
PLAN_1
  6
CONTINUOUS
 10
2.046228
 20
-4.246409
  0
VERTEX
  8
PLAN_1
  6
CONTINUOUS
 10
2.050673
 20
-4.249740
  0
VERTEX
  8
PLAN_1
  6
CONTINUOUS
 10
2.054559
 20
-4.253071
  0
VERTEX
  8
PLAN_1
  6
CONTINUOUS
 10
2.058445
 20
-4.256957
  0
VERTEX
  8
PLAN_1
  6
CONTINUOUS
 10
2.061220
 20
-4.261398
  0
VERTEX
  8
PLAN_1
  6
CONTINUOUS
 10
2.063996
 20
-4.265843
  0
VERTEX
  8
PLAN_1
  6
CONTINUOUS
 10
2.066217
 20
-4.270839
  0
VERTEX
  8
PLAN_1
  6
CONTINUOUS
 10
2.067882
 20
-4.276390
  0
VERTEX
  8
PLAN_1
  6
CONTINUOUS
 10
2.069551
 20
-4.281945
  0
VERTEX
  8
PLAN_1
  6
CONTINUOUS
 10
2.070106
 20
-4.287496
  0
VERTEX
  8
PLAN_1
  6
CONTINUOUS
 10
2.070106
 20
-4.293602
  0
VERTEX
  8
PLAN_1
  6
CONTINUOUS
 10
2.070106
 20
-4.298602
  0
VERTEX
  8
PLAN_1
  6
CONTINUOUS
 10
2.069551
 20
-4.303598
  0
VERTEX
  8
PLAN_1
  6
CONTINUOUS
 10
2.068441
 20
-4.309150
  0
VERTEX
  8
PLAN_1
  6
CONTINUOUS
 10
2.067327
 20
-4.314146
  0
VERTEX
  8
PLAN_1
  6
CONTINUOUS
 10
2.065106
 20
-4.319146
  0
VERTEX
  8
PLAN_1
  6
CONTINUOUS
 10
2.062886
 20
-4.324142
  0
VERTEX
  8
PLAN_1
  6
CONTINUOUS
 10
2.060110
 20
-4.329138
  0
VERTEX
  8
PLAN_1
  6
CONTINUOUS
 10
2.056780
 20
-4.333583
  0
VERTEX
  8
PLAN_1
  6
CONTINUOUS
 10
2.053449
 20
-4.337469
  0
VERTEX
  8
PLAN_1
  6
CONTINUOUS
 10
2.049004
 20
-4.341354
  0
VERTEX
  8
PLAN_1
  6
CONTINUOUS
 10
2.044008
 20
-4.344130
  0
VERTEX
  8
PLAN_1
  6
CONTINUOUS
 10
2.038457
 20
-4.346906
  0
VERTEX
  8
PLAN_1
  6
CONTINUOUS
 10
2.032906
 20
-4.349126
  0
VERTEX
  8
PLAN_1
  6
CONTINUOUS
 10
2.026240
 20
-4.351350
  0
VERTEX
  8
PLAN_1
  6
CONTINUOUS
 10
2.019024
 20
-4.351906
  0
VERTEX
  8
PLAN_1
  6
CONTINUOUS
 10
2.011248
 20
-4.352461
  0
VERTEX
  8
PLAN_1
  6
CONTINUOUS
 10
1.948508
 20
-4.352461
  0
VERTEX
  8
PLAN_1
  6
CONTINUOUS
 10
1.948508
 20
-4.436854
  0
SEQEND
  8
0
  0
POLYLINE
  8
PLAN_1
  6
CONTINUOUS
 66
     1
 40
0.003000
 41
0.003000
  0
VERTEX
  8
PLAN_1
  6
CONTINUOUS
 10
1.948508
 20
-4.329693
  0
VERTEX
  8
PLAN_1
  6
CONTINUOUS
 10
2.001811
 20
-4.329693
  0
VERTEX
  8
PLAN_1
  6
CONTINUOUS
 10
2.010693
 20
-4.329138
  0
VERTEX
  8
PLAN_1
  6
CONTINUOUS
 10
2.018469
 20
-4.327472
  0
VERTEX
  8
PLAN_1
  6
CONTINUOUS
 10
2.022354
 20
-4.326362
  0
VERTEX
  8
PLAN_1
  6
CONTINUOUS
 10
2.025685
 20
-4.325252
  0
VERTEX
  8
PLAN_1
  6
CONTINUOUS
 10
2.028461
 20
-4.323587
  0
VERTEX
  8
PLAN_1
  6
CONTINUOUS
 10
2.031236
 20
-4.321366
  0
VERTEX
  8
PLAN_1
  6
CONTINUOUS
 10
2.034016
 20
-4.319146
  0
VERTEX
  8
PLAN_1
  6
CONTINUOUS
 10
2.036236
 20
-4.316925
  0
VERTEX
  8
PLAN_1
  6
CONTINUOUS
 10
2.037902
 20
-4.313591
  0
VERTEX
  8
PLAN_1
  6
CONTINUOUS
 10
2.039567
 20
-4.310815
  0
VERTEX
  8
PLAN_1
  6
CONTINUOUS
 10
2.040677
 20
-4.306929
  0
VERTEX
  8
PLAN_1
  6
CONTINUOUS
 10
2.041787
 20
-4.303043
  0
VERTEX
  8
PLAN_1
  6
CONTINUOUS
 10
2.042343
 20
-4.298602
  0
VERTEX
  8
PLAN_1
  6
CONTINUOUS
 10
2.042343
 20
-4.293602
  0
VERTEX
  8
PLAN_1
  6
CONTINUOUS
 10
2.042343
 20
-4.289161
  0
VERTEX
  8
PLAN_1
  6
CONTINUOUS
 10
2.041787
 20
-4.284720
  0
VERTEX
  8
PLAN_1
  6
CONTINUOUS
 10
2.040677
 20
-4.281390
  0
VERTEX
  8
PLAN_1
  6
CONTINUOUS
 10
2.039567
 20
-4.277500
  0
VERTEX
  8
PLAN_1
  6
CONTINUOUS
 10
2.037902
 20
-4.274724
  0
VERTEX
  8
PLAN_1
  6
CONTINUOUS
 10
2.035681
 20
-4.271949
  0
VERTEX
  8
PLAN_1
  6
CONTINUOUS
 10
2.033461
 20
-4.269728
  0
VERTEX
  8
PLAN_1
  6
CONTINUOUS
 10
2.031236
 20
-4.267508
  0
VERTEX
  8
PLAN_1
  6
CONTINUOUS
 10
2.028461
 20
-4.265843
  0
VERTEX
  8
PLAN_1
  6
CONTINUOUS
 10
2.025130
 20
-4.264177
  0
VERTEX
  8
PLAN_1
  6
CONTINUOUS
 10
2.022354
 20
-4.263067
  0
VERTEX
  8
PLAN_1
  6
CONTINUOUS
 10
2.018469
 20
-4.261953
  0
VERTEX
  8
PLAN_1
  6
CONTINUOUS
 10
2.011248
 20
-4.260843
  0
VERTEX
  8
PLAN_1
  6
CONTINUOUS
 10
2.002921
 20
-4.260287
  0
VERTEX
  8
PLAN_1
  6
CONTINUOUS
 10
1.948508
 20
-4.260287
  0
VERTEX
  8
PLAN_1
  6
CONTINUOUS
 10
1.948508
 20
-4.329693
  0
SEQEND
  8
0
  0
POLYLINE
  8
PLAN_1
  6
CONTINUOUS
 66
     1
 40
0.003000
 41
0.003000
  0
VERTEX
  8
PLAN_1
  6
CONTINUOUS
 10
2.224461
 20
-4.295823
  0
VERTEX
  8
PLAN_1
  6
CONTINUOUS
 10
2.223906
 20
-4.290272
  0
VERTEX
  8
PLAN_1
  6
CONTINUOUS
 10
2.222795
 20
-4.284720
  0
VERTEX
  8
PLAN_1
  6
CONTINUOUS
 10
2.221130
 20
-4.280280
  0
VERTEX
  8
PLAN_1
  6
CONTINUOUS
 10
2.218909
 20
-4.276390
  0
VERTEX
  8
PLAN_1
  6
CONTINUOUS
 10
2.216689
 20
-4.272504
  0
VERTEX
  8
PLAN_1
  6
CONTINUOUS
 10
2.213913
 20
-4.269173
  0
VERTEX
  8
PLAN_1
  6
CONTINUOUS
 10
2.210583
 20
-4.266398
  0
VERTEX
  8
PLAN_1
  6
CONTINUOUS
 10
2.207248
 20
-4.263622
  0
VERTEX
  8
PLAN_1
  6
CONTINUOUS
 10
2.203917
 20
-4.261398
  0
VERTEX
  8
PLAN_1
  6
CONTINUOUS
 10
2.200031
 20
-4.259732
  0
VERTEX
  8
PLAN_1
  6
CONTINUOUS
 10
2.196146
 20
-4.258067
  0
VERTEX
  8
PLAN_1
  6
CONTINUOUS
 10
2.191701
 20
-4.256957
  0
VERTEX
  8
PLAN_1
  6
CONTINUOUS
 10
2.183374
 20
-4.255291
  0
VERTEX
  8
PLAN_1
  6
CONTINUOUS
 10
2.175047
 20
-4.255291
  0
VERTEX
  8
PLAN_1
  6
CONTINUOUS
 10
2.167827
 20
-4.255291
  0
VERTEX
  8
PLAN_1
  6
CONTINUOUS
 10
2.160610
 20
-4.256402
  0
VERTEX
  8
PLAN_1
  6
CONTINUOUS
 10
2.156720
 20
-4.256957
  0
VERTEX
  8
PLAN_1
  6
CONTINUOUS
 10
2.152835
 20
-4.258067
  0
VERTEX
  8
PLAN_1
  6
CONTINUOUS
 10
2.148949
 20
-4.259732
  0
VERTEX
  8
PLAN_1
  6
CONTINUOUS
 10
2.145618
 20
-4.261398
  0
VERTEX
  8
PLAN_1
  6
CONTINUOUS
 10
2.142287
 20
-4.263067
  0
VERTEX
  8
PLAN_1
  6
CONTINUOUS
 10
2.138953
 20
-4.265843
  0
VERTEX
  8
PLAN_1
  6
CONTINUOUS
 10
2.136177
 20
-4.268618
  0
VERTEX
  8
PLAN_1
  6
CONTINUOUS
 10
2.133957
 20
-4.271949
  0
VERTEX
  8
PLAN_1
  6
CONTINUOUS
 10
2.131736
 20
-4.275835
  0
VERTEX
  8
PLAN_1
  6
CONTINUOUS
 10
2.130626
 20
-4.279720
  0
VERTEX
  8
PLAN_1
  6
CONTINUOUS
 10
2.129516
 20
-4.284720
  0
VERTEX
  8
PLAN_1
  6
CONTINUOUS
 10
2.129516
 20
-4.290272
  0
VERTEX
  8
PLAN_1
  6
CONTINUOUS
 10
2.129516
 20
-4.293047
  0
VERTEX
  8
PLAN_1
  6
CONTINUOUS
 10
2.129516
 20
-4.295823
  0
VERTEX
  8
PLAN_1
  6
CONTINUOUS
 10
2.130626
 20
-4.298602
  0
VERTEX
  8
PLAN_1
  6
CONTINUOUS
 10
2.131181
 20
-4.300823
  0
VERTEX
  8
PLAN_1
  6
CONTINUOUS
 10
2.133402
 20
-4.304709
  0
VERTEX
  8
PLAN_1
  6
CONTINUOUS
 10
2.136732
 20
-4.308039
  0
VERTEX
  8
PLAN_1
  6
CONTINUOUS
 10
2.140067
 20
-4.310260
  0
VERTEX
  8
PLAN_1
  6
CONTINUOUS
 10
2.144508
 20
-4.312480
  0
VERTEX
  8
PLAN_1
  6
CONTINUOUS
 10
2.148394
 20
-4.314146
  0
VERTEX
  8
PLAN_1
  6
CONTINUOUS
 10
2.152835
 20
-4.315256
  0
VERTEX
  8
PLAN_1
  6
CONTINUOUS
 10
2.210024
 20
-4.328583
  0
VERTEX
  8
PLAN_1
  6
CONTINUOUS
 10
2.214469
 20
-4.329693
  0
VERTEX
  8
PLAN_1
  6
CONTINUOUS
 10
2.218909
 20
-4.330803
  0
VERTEX
  8
PLAN_1
  6
CONTINUOUS
 10
2.223350
 20
-4.333024
  0
VERTEX
  8
PLAN_1
  6
CONTINUOUS
 10
2.227791
 20
-4.334693
  0
VERTEX
  8
PLAN_1
  6
CONTINUOUS
 10
2.231681
 20
-4.336913
  0
VERTEX
  8
PLAN_1
  6
CONTINUOUS
 10
2.235567
 20
-4.339689
  0
VERTEX
  8
PLAN_1
  6
CONTINUOUS
 10
2.238898
 20
-4.342465
  0
VERTEX
  8
PLAN_1
  6
CONTINUOUS
 10
2.242228
 20
-4.345240
  0
VERTEX
  8
PLAN_1
  6
CONTINUOUS
 10
2.245004
 20
-4.348571
  0
VERTEX
  8
PLAN_1
  6
CONTINUOUS
 10
2.247228
 20
-4.352461
  0
VERTEX
  8
PLAN_1
  6
CONTINUOUS
 10
2.249449
 20
-4.356346
  0
VERTEX
  8
PLAN_1
  6
CONTINUOUS
 10
2.251669
 20
-4.360787
  0
VERTEX
  8
PLAN_1
  6
CONTINUOUS
 10
2.252780
 20
-4.365228
  0
VERTEX
  8
PLAN_1
  6
CONTINUOUS
 10
2.253890
 20
-4.370228
  0
VERTEX
  8
PLAN_1
  6
CONTINUOUS
 10
2.255000
 20
-4.375780
  0
VERTEX
  8
PLAN_1
  6
CONTINUOUS
 10
2.255000
 20
-4.381886
  0
VERTEX
  8
PLAN_1
  6
CONTINUOUS
 10
2.254445
 20
-4.390217
  0
VERTEX
  8
PLAN_1
  6
CONTINUOUS
 10
2.252780
 20
-4.397988
  0
VERTEX
  8
PLAN_1
  6
CONTINUOUS
 10
2.250559
 20
-4.404650
  0
VERTEX
  8
PLAN_1
  6
CONTINUOUS
 10
2.247783
 20
-4.410760
  0
VERTEX
  8
PLAN_1
  6
CONTINUOUS
 10
2.243894
 20
-4.416311
  0
VERTEX
  8
PLAN_1
  6
CONTINUOUS
 10
2.239453
 20
-4.421307
  0
VERTEX
  8
PLAN_1
  6
CONTINUOUS
 10
2.234457
 20
-4.425752
  0
VERTEX
  8
PLAN_1
  6
CONTINUOUS
 10
2.228906
 20
-4.429638
  0
VERTEX
  8
PLAN_1
  6
CONTINUOUS
 10
2.222795
 20
-4.432413
  0
VERTEX
  8
PLAN_1
  6
CONTINUOUS
 10
2.216689
 20
-4.435189
  0
VERTEX
  8
PLAN_1
  6
CONTINUOUS
 10
2.210024
 20
-4.437409
  0
VERTEX
  8
PLAN_1
  6
CONTINUOUS
 10
2.203362
 20
-4.439075
  0
VERTEX
  8
PLAN_1
  6
CONTINUOUS
 10
2.196701
 20
-4.440185
  0
VERTEX
  8
PLAN_1
  6
CONTINUOUS
 10
2.190035
 20
-4.441299
  0
VERTEX
  8
PLAN_1
  6
CONTINUOUS
 10
2.183374
 20
-4.441854
  0
VERTEX
  8
PLAN_1
  6
CONTINUOUS
 10
2.177268
 20
-4.441854
  0
VERTEX
  8
PLAN_1
  6
CONTINUOUS
 10
2.163941
 20
-4.441299
  0
VERTEX
  8
PLAN_1
  6
CONTINUOUS
 10
2.153390
 20
-4.440185
  0
VERTEX
  8
PLAN_1
  6
CONTINUOUS
 10
2.143953
 20
-4.437965
  0
VERTEX
  8
PLAN_1
  6
CONTINUOUS
 10
2.136177
 20
-4.435189
  0
VERTEX
  8
PLAN_1
  6
CONTINUOUS
 10
2.130071
 20
-4.432413
  0
VERTEX
  8
PLAN_1
  6
CONTINUOUS
 10
2.124520
 20
-4.429083
  0
VERTEX
  8
PLAN_1
  6
CONTINUOUS
 10
2.120630
 20
-4.425752
  0
VERTEX
  8
PLAN_1
  6
CONTINUOUS
 10
2.116744
 20
-4.422417
  0
VERTEX
  8
PLAN_1
  6
CONTINUOUS
 10
2.111193
 20
-4.416866
  0
VERTEX
  8
PLAN_1
  6
CONTINUOUS
 10
2.106197
 20
-4.410760
  0
VERTEX
  8
PLAN_1
  6
CONTINUOUS
 10
2.102862
 20
-4.404650
  0
VERTEX
  8
PLAN_1
  6
CONTINUOUS
 10
2.100087
 20
-4.398543
  0
VERTEX
  8
PLAN_1
  6
CONTINUOUS
 10
2.098421
 20
-4.392437
  0
VERTEX
  8
PLAN_1
  6
CONTINUOUS
 10
2.097311
 20
-4.385772
  0
VERTEX
  8
PLAN_1
  6
CONTINUOUS
 10
2.096756
 20
-4.379110
  0
VERTEX
  8
PLAN_1
  6
CONTINUOUS
 10
2.096756
 20
-4.372449
  0
VERTEX
  8
PLAN_1
  6
CONTINUOUS
 10
2.121744
 20
-4.372449
  0
VERTEX
  8
PLAN_1
  6
CONTINUOUS
 10
2.122299
 20
-4.378555
  0
VERTEX
  8
PLAN_1
  6
CONTINUOUS
 10
2.122854
 20
-4.384661
  0
VERTEX
  8
PLAN_1
  6
CONTINUOUS
 10
2.124520
 20
-4.389661
  0
VERTEX
  8
PLAN_1
  6
CONTINUOUS
 10
2.126740
 20
-4.394657
  0
VERTEX
  8
PLAN_1
  6
CONTINUOUS
 10
2.129516
 20
-4.399098
  0
VERTEX
  8
PLAN_1
  6
CONTINUOUS
 10
2.132291
 20
-4.402984
  0
VERTEX
  8
PLAN_1
  6
CONTINUOUS
 10
2.135622
 20
-4.406319
  0
VERTEX
  8
PLAN_1
  6
CONTINUOUS
 10
2.139512
 20
-4.409094
  0
VERTEX
  8
PLAN_1
  6
CONTINUOUS
 10
2.143953
 20
-4.411315
  0
VERTEX
  8
PLAN_1
  6
CONTINUOUS
 10
2.147839
 20
-4.413535
  0
VERTEX
  8
PLAN_1
  6
CONTINUOUS
 10
2.152835
 20
-4.415201
  0
VERTEX
  8
PLAN_1
  6
CONTINUOUS
 10
2.157280
 20
-4.416866
  0
VERTEX
  8
PLAN_1
  6
CONTINUOUS
 10
2.162276
 20
-4.417421
  0
VERTEX
  8
PLAN_1
  6
CONTINUOUS
 10
2.167272
 20
-4.418531
  0
VERTEX
  8
PLAN_1
  6
CONTINUOUS
 10
2.171713
 20
-4.418531
  0
VERTEX
  8
PLAN_1
  6
CONTINUOUS
 10
2.176713
 20
-4.418531
  0
VERTEX
  8
PLAN_1
  6
CONTINUOUS
 10
2.184484
 20
-4.418531
  0
VERTEX
  8
PLAN_1
  6
CONTINUOUS
 10
2.192815
 20
-4.417421
  0
VERTEX
  8
PLAN_1
  6
CONTINUOUS
 10
2.197256
 20
-4.416866
  0
VERTEX
  8
PLAN_1
  6
CONTINUOUS
 10
2.201697
 20
-4.415756
  0
VERTEX
  8
PLAN_1
  6
CONTINUOUS
 10
2.206138
 20
-4.414646
  0
VERTEX
  8
PLAN_1
  6
CONTINUOUS
 10
2.210024
 20
-4.412980
  0
VERTEX
  8
PLAN_1
  6
CONTINUOUS
 10
2.213913
 20
-4.410760
  0
VERTEX
  8
PLAN_1
  6
CONTINUOUS
 10
2.217244
 20
-4.408539
  0
VERTEX
  8
PLAN_1
  6
CONTINUOUS
 10
2.220575
 20
-4.405764
  0
VERTEX
  8
PLAN_1
  6
CONTINUOUS
 10
2.223350
 20
-4.402429
  0
VERTEX
  8
PLAN_1
  6
CONTINUOUS
 10
2.225571
 20
-4.399098
  0
VERTEX
  8
PLAN_1
  6
CONTINUOUS
 10
2.227236
 20
-4.394657
  0
VERTEX
  8
PLAN_1
  6
CONTINUOUS
 10
2.228350
 20
-4.390217
  0
VERTEX
  8
PLAN_1
  6
CONTINUOUS
 10
2.228906
 20
-4.385217
  0
VERTEX
  8
PLAN_1
  6
CONTINUOUS
 10
2.228906
 20
-4.381331
  0
VERTEX
  8
PLAN_1
  6
CONTINUOUS
 10
2.228350
 20
-4.378000
  0
VERTEX
  8
PLAN_1
  6
CONTINUOUS
 10
2.227791
 20
-4.374669
  0
VERTEX
  8
PLAN_1
  6
CONTINUOUS
 10
2.226681
 20
-4.371894
  0
VERTEX
  8
PLAN_1
  6
CONTINUOUS
 10
2.225571
 20
-4.369673
  0
VERTEX
  8
PLAN_1
  6
CONTINUOUS
 10
2.223906
 20
-4.366894
  0
VERTEX
  8
PLAN_1
  6
CONTINUOUS
 10
2.222240
 20
-4.364673
  0
VERTEX
  8
PLAN_1
  6
CONTINUOUS
 10
2.220020
 20
-4.362453
  0
VERTEX
  8
PLAN_1
  6
CONTINUOUS
 10
2.217244
 20
-4.360787
  0
VERTEX
  8
PLAN_1
  6
CONTINUOUS
 10
2.214469
 20
-4.359122
  0
VERTEX
  8
PLAN_1
  6
CONTINUOUS
 10
2.210583
 20
-4.357457
  0
VERTEX
  8
PLAN_1
  6
CONTINUOUS
 10
2.206693
 20
-4.355791
  0
VERTEX
  8
PLAN_1
  6
CONTINUOUS
 10
2.197811
 20
-4.353016
  0
VERTEX
  8
PLAN_1
  6
CONTINUOUS
 10
2.186705
 20
-4.350236
  0
VERTEX
  8
PLAN_1
  6
CONTINUOUS
 10
2.145618
 20
-4.340799
  0
VERTEX
  8
PLAN_1
  6
CONTINUOUS
 10
2.140067
 20
-4.339134
  0
VERTEX
  8
PLAN_1
  6
CONTINUOUS
 10
2.133402
 20
-4.336913
  0
VERTEX
  8
PLAN_1
  6
CONTINUOUS
 10
2.130071
 20
-4.335248
  0
VERTEX
  8
PLAN_1
  6
CONTINUOUS
 10
2.126740
 20
-4.333583
  0
VERTEX
  8
PLAN_1
  6
CONTINUOUS
 10
2.122854
 20
-4.331358
  0
VERTEX
  8
PLAN_1
  6
CONTINUOUS
 10
2.119520
 20
-4.329138
  0
VERTEX
  8
PLAN_1
  6
CONTINUOUS
 10
2.116189
 20
-4.326362
  0
VERTEX
  8
PLAN_1
  6
CONTINUOUS
 10
2.113413
 20
-4.323031
  0
VERTEX
  8
PLAN_1
  6
CONTINUOUS
 10
2.110638
 20
-4.319146
  0
VERTEX
  8
PLAN_1
  6
CONTINUOUS
 10
2.107862
 20
-4.315256
  0
VERTEX
  8
PLAN_1
  6
CONTINUOUS
 10
2.106197
 20
-4.310815
  0
VERTEX
  8
PLAN_1
  6
CONTINUOUS
 10
2.104531
 20
-4.305264
  0
VERTEX
  8
PLAN_1
  6
CONTINUOUS
 10
2.103417
 20
-4.299713
  0
VERTEX
  8
PLAN_1
  6
CONTINUOUS
 10
2.103417
 20
-4.293602
  0
VERTEX
  8
PLAN_1
  6
CONTINUOUS
 10
2.103417
 20
-4.288051
  0
VERTEX
  8
PLAN_1
  6
CONTINUOUS
 10
2.103976
 20
-4.281945
  0
VERTEX
  8
PLAN_1
  6
CONTINUOUS
 10
2.105087
 20
-4.276390
  0
VERTEX
  8
PLAN_1
  6
CONTINUOUS
 10
2.107307
 20
-4.270839
  0
VERTEX
  8
PLAN_1
  6
CONTINUOUS
 10
2.109528
 20
-4.265287
  0
VERTEX
  8
PLAN_1
  6
CONTINUOUS
 10
2.112303
 20
-4.260287
  0
VERTEX
  8
PLAN_1
  6
CONTINUOUS
 10
2.115634
 20
-4.255846
  0
VERTEX
  8
PLAN_1
  6
CONTINUOUS
 10
2.119520
 20
-4.251406
  0
VERTEX
  8
PLAN_1
  6
CONTINUOUS
 10
2.123965
 20
-4.246965
  0
VERTEX
  8
PLAN_1
  6
CONTINUOUS
 10
2.128961
 20
-4.243075
  0
VERTEX
  8
PLAN_1
  6
CONTINUOUS
 10
2.134512
 20
-4.240299
  0
VERTEX
  8
PLAN_1
  6
CONTINUOUS
 10
2.140622
 20
-4.237524
  0
VERTEX
  8
PLAN_1
  6
CONTINUOUS
 10
2.147283
 20
-4.235303
  0
VERTEX
  8
PLAN_1
  6
CONTINUOUS
 10
2.155055
 20
-4.233638
  0
VERTEX
  8
PLAN_1
  6
CONTINUOUS
 10
2.162831
 20
-4.232528
  0
VERTEX
  8
PLAN_1
  6
CONTINUOUS
 10
2.171713
 20
-4.231972
  0
VERTEX
  8
PLAN_1
  6
CONTINUOUS
 10
2.183929
 20
-4.232528
  0
VERTEX
  8
PLAN_1
  6
CONTINUOUS
 10
2.195035
 20
-4.233638
  0
VERTEX
  8
PLAN_1
  6
CONTINUOUS
 10
2.204472
 20
-4.235858
  0
VERTEX
  8
PLAN_1
  6
CONTINUOUS
 10
2.213358
 20
-4.238634
  0
VERTEX
  8
PLAN_1
  6
CONTINUOUS
 10
2.220575
 20
-4.242520
  0
VERTEX
  8
PLAN_1
  6
CONTINUOUS
 10
2.226681
 20
-4.246409
  0
VERTEX
  8
PLAN_1
  6
CONTINUOUS
 10
2.231681
 20
-4.250850
  0
VERTEX
  8
PLAN_1
  6
CONTINUOUS
 10
2.236122
 20
-4.255291
  0
VERTEX
  8
PLAN_1
  6
CONTINUOUS
 10
2.240008
 20
-4.260843
  0
VERTEX
  8
PLAN_1
  6
CONTINUOUS
 10
2.242783
 20
-4.265843
  0
VERTEX
  8
PLAN_1
  6
CONTINUOUS
 10
2.245004
 20
-4.271394
  0
VERTEX
  8
PLAN_1
  6
CONTINUOUS
 10
2.246673
 20
-4.276390
  0
VERTEX
  8
PLAN_1
  6
CONTINUOUS
 10
2.248894
 20
-4.286386
  0
VERTEX
  8
PLAN_1
  6
CONTINUOUS
 10
2.249449
 20
-4.295823
  0
VERTEX
  8
PLAN_1
  6
CONTINUOUS
 10
2.224461
 20
-4.295823
  0
SEQEND
  8
0
  0
POLYLINE
  8
PLAN_1
  6
CONTINUOUS
 66
     1
 40
0.008327
 41
0.008327
  0
VERTEX
  8
PLAN_1
  6
CONTINUOUS
 10
-1.974268
 20
1.570850
  0
VERTEX
  8
PLAN_1
  6
CONTINUOUS
 10
-1.974268
 20
2.010047
  0
VERTEX
  8
PLAN_1
  6
CONTINUOUS
 10
-2.077543
 20
2.010047
  0
VERTEX
  8
PLAN_1
  6
CONTINUOUS
 10
-2.077543
 20
1.570850
  0
VERTEX
  8
PLAN_1
  6
CONTINUOUS
 10
-1.974268
 20
1.570850
  0
SEQEND
  8
0
  0
POLYLINE
  8
PLAN_1
  6
CONTINUOUS
 66
     1
 40
0.008327
 41
0.008327
  0
VERTEX
  8
PLAN_1
  6
CONTINUOUS
 10
-2.076988
 20
1.897886
  0
VERTEX
  8
PLAN_1
  6
CONTINUOUS
 10
-1.974268
 20
1.897886
  0
SEQEND
  8
0
  0
POLYLINE
  8
PLAN_1
  6
CONTINUOUS
 66
     1
 40
0.008327
 41
0.008327
  0
VERTEX
  8
PLAN_1
  6
CONTINUOUS
 10
-2.076988
 20
1.683008
  0
VERTEX
  8
PLAN_1
  6
CONTINUOUS
 10
-1.974268
 20
1.683008
  0
SEQEND
  8
0
  0
POLYLINE
  8
PLAN_1
  6
CONTINUOUS
 66
     1
 40
0.008327
 41
0.008327
  0
VERTEX
  8
PLAN_1
  6
CONTINUOUS
 10
-2.065327
 20
2.010047
  0
VERTEX
  8
PLAN_1
  6
CONTINUOUS
 10
-2.066441
 20
2.007268
  0
VERTEX
  8
PLAN_1
  6
CONTINUOUS
 10
-2.069217
 20
2.000051
  0
VERTEX
  8
PLAN_1
  6
CONTINUOUS
 10
-2.071437
 20
1.995055
  0
VERTEX
  8
PLAN_1
  6
CONTINUOUS
 10
-2.073102
 20
1.988945
  0
VERTEX
  8
PLAN_1
  6
CONTINUOUS
 10
-2.074768
 20
1.982283
  0
VERTEX
  8
PLAN_1
  6
CONTINUOUS
 10
-2.075878
 20
1.974512
  0
VERTEX
  8
PLAN_1
  6
CONTINUOUS
 10
-2.076988
 20
1.966181
  0
VERTEX
  8
PLAN_1
  6
CONTINUOUS
 10
-2.077543
 20
1.957299
  0
VERTEX
  8
PLAN_1
  6
CONTINUOUS
 10
-2.077543
 20
1.948413
  0
VERTEX
  8
PLAN_1
  6
CONTINUOUS
 10
-2.076988
 20
1.938417
  0
VERTEX
  8
PLAN_1
  6
CONTINUOUS
 10
-2.074768
 20
1.928425
  0
VERTEX
  8
PLAN_1
  6
CONTINUOUS
 10
-2.071992
 20
1.918429
  0
VERTEX
  8
PLAN_1
  6
CONTINUOUS
 10
-2.070327
 20
1.913433
  0
VERTEX
  8
PLAN_1
  6
CONTINUOUS
 10
-2.068106
 20
1.907882
  0
VERTEX
  8
PLAN_1
  6
CONTINUOUS
 10
-2.065882
 20
1.902882
  0
VERTEX
  8
PLAN_1
  6
CONTINUOUS
 10
-2.063106
 20
1.897886
  0
VERTEX
  8
PLAN_1
  6
CONTINUOUS
 10
-2.064217
 20
1.894000
  0
VERTEX
  8
PLAN_1
  6
CONTINUOUS
 10
-2.067551
 20
1.882339
  0
VERTEX
  8
PLAN_1
  6
CONTINUOUS
 10
-2.069217
 20
1.874012
  0
VERTEX
  8
PLAN_1
  6
CONTINUOUS
 10
-2.071437
 20
1.863461
  0
VERTEX
  8
PLAN_1
  6
CONTINUOUS
 10
-2.073102
 20
1.851803
  0
VERTEX
  8
PLAN_1
  6
CONTINUOUS
 10
-2.075323
 20
1.838476
  0
VERTEX
  8
PLAN_1
  6
CONTINUOUS
 10
-2.076433
 20
1.823484
  0
VERTEX
  8
PLAN_1
  6
CONTINUOUS
 10
-2.077543
 20
1.807382
  0
VERTEX
  8
PLAN_1
  6
CONTINUOUS
 10
-2.077543
 20
1.789614
  0
VERTEX
  8
PLAN_1
  6
CONTINUOUS
 10
-2.077543
 20
1.770736
  0
VERTEX
  8
PLAN_1
  6
CONTINUOUS
 10
-2.075878
 20
1.750193
  0
VERTEX
  8
PLAN_1
  6
CONTINUOUS
 10
-2.073657
 20
1.729094
  0
VERTEX
  8
PLAN_1
  6
CONTINUOUS
 10
-2.070327
 20
1.706327
  0
VERTEX
  8
PLAN_1
  6
CONTINUOUS
 10
-2.065882
 20
1.683008
  0
VERTEX
  8
PLAN_1
  6
CONTINUOUS
 10
-2.066996
 20
1.680232
  0
VERTEX
  8
PLAN_1
  6
CONTINUOUS
 10
-2.069772
 20
1.673571
  0
VERTEX
  8
PLAN_1
  6
CONTINUOUS
 10
-2.071437
 20
1.668016
  0
VERTEX
  8
PLAN_1
  6
CONTINUOUS
 10
-2.073102
 20
1.662465
  0
VERTEX
  8
PLAN_1
  6
CONTINUOUS
 10
-2.074768
 20
1.655803
  0
VERTEX
  8
PLAN_1
  6
CONTINUOUS
 10
-2.076433
 20
1.648028
  0
VERTEX
  8
PLAN_1
  6
CONTINUOUS
 10
-2.077543
 20
1.640256
  0
VERTEX
  8
PLAN_1
  6
CONTINUOUS
 10
-2.078098
 20
1.631370
  0
VERTEX
  8
PLAN_1
  6
CONTINUOUS
 10
-2.078098
 20
1.622488
  0
VERTEX
  8
PLAN_1
  6
CONTINUOUS
 10
-2.076988
 20
1.613047
  0
VERTEX
  8
PLAN_1
  6
CONTINUOUS
 10
-2.075323
 20
1.603055
  0
VERTEX
  8
PLAN_1
  6
CONTINUOUS
 10
-2.072547
 20
1.593059
  0
VERTEX
  8
PLAN_1
  6
CONTINUOUS
 10
-2.070882
 20
1.587508
  0
VERTEX
  8
PLAN_1
  6
CONTINUOUS
 10
-2.068661
 20
1.582512
  0
VERTEX
  8
PLAN_1
  6
CONTINUOUS
 10
-2.065882
 20
1.577512
  0
VERTEX
  8
PLAN_1
  6
CONTINUOUS
 10
-2.063106
 20
1.571961
  0
SEQEND
  8
0
  0
POLYLINE
  8
PLAN_1
  6
CONTINUOUS
 66
     1
 40
0.008327
 41
0.008327
  0
VERTEX
  8
PLAN_1
  6
CONTINUOUS
 10
-1.248571
 20
2.172732
  0
VERTEX
  8
PLAN_1
  6
CONTINUOUS
 10
-1.248571
 20
1.382067
  0
SEQEND
  8
0
  0
POLYLINE
  8
PLAN_1
  6
CONTINUOUS
 66
     1
 40
0.008327
 41
0.008327
  0
VERTEX
  8
PLAN_1
  6
CONTINUOUS
 10
-1.350177
 20
2.172732
  0
VERTEX
  8
PLAN_1
  6
CONTINUOUS
 10
-1.350177
 20
1.365965
  0
SEQEND
  8
0
  0
POLYLINE
  8
PLAN_1
  6
CONTINUOUS
 66
     1
 40
0.008327
 41
0.008327
  0
VERTEX
  8
PLAN_1
  6
CONTINUOUS
 10
-1.601701
 20
1.415937
  0
VERTEX
  8
PLAN_1
  6
CONTINUOUS
 10
-1.601701
 20
2.102217
  0
SEQEND
  8
0
  0
POLYLINE
  8
PLAN_1
  6
CONTINUOUS
 66
     1
 40
0.008327
 41
0.008327
  0
VERTEX
  8
PLAN_1
  6
CONTINUOUS
 10
-2.126406
 20
1.913988
  0
VERTEX
  8
PLAN_1
  6
CONTINUOUS
 10
-2.126406
 20
1.664685
  0
SEQEND
  8
0
  0
POLYLINE
  8
PLAN_1
  6
CONTINUOUS
 66
     1
 40
0.008327
 41
0.008327
  0
VERTEX
  8
PLAN_1
  6
CONTINUOUS
 10
-2.126406
 20
1.664685
  0
VERTEX
  8
PLAN_1
  6
CONTINUOUS
 10
-2.134732
 20
1.673571
  0
VERTEX
  8
PLAN_1
  6
CONTINUOUS
 10
-2.134732
 20
1.904551
  0
VERTEX
  8
PLAN_1
  6
CONTINUOUS
 10
-2.126406
 20
1.912878
  0
VERTEX
  8
PLAN_1
  6
CONTINUOUS
 10
-2.078098
 20
1.913988
  0
VERTEX
  8
PLAN_1
  6
CONTINUOUS
 10
-2.078098
 20
1.664685
  0
VERTEX
  8
PLAN_1
  6
CONTINUOUS
 10
-2.126406
 20
1.664685
  0
SEQEND
  8
0
  0
POLYLINE
  8
PLAN_1
  6
CONTINUOUS
 66
     1
 40
0.008327
 41
0.008327
  0
VERTEX
  8
PLAN_1
  6
CONTINUOUS
 10
-1.905417
 20
3.303201
  0
VERTEX
  8
PLAN_1
  6
CONTINUOUS
 10
-1.905417
 20
4.045559
  0
VERTEX
  8
PLAN_1
  6
CONTINUOUS
 10
-2.069772
 20
4.045559
  0
VERTEX
  8
PLAN_1
  6
CONTINUOUS
 10
-2.069772
 20
3.303201
  0
VERTEX
  8
PLAN_1
  6
CONTINUOUS
 10
-1.905417
 20
3.303201
  0
SEQEND
  8
0
  0
POLYLINE
  8
PLAN_1
  6
CONTINUOUS
 66
     1
 40
0.008327
 41
0.008327
  0
VERTEX
  8
PLAN_1
  6
CONTINUOUS
 10
-2.095866
 20
3.464220
  0
VERTEX
  8
PLAN_1
  6
CONTINUOUS
 10
-2.095866
 20
3.876209
  0
VERTEX
  8
PLAN_1
  6
CONTINUOUS
 10
-2.193591
 20
3.876209
  0
VERTEX
  8
PLAN_1
  6
CONTINUOUS
 10
-2.193591
 20
3.464220
  0
VERTEX
  8
PLAN_1
  6
CONTINUOUS
 10
-2.095866
 20
3.464220
  0
SEQEND
  8
0
  0
POLYLINE
  8
PLAN_1
  6
CONTINUOUS
 66
     1
 40
0.008327
 41
0.008327
  0
VERTEX
  8
PLAN_1
  6
CONTINUOUS
 10
-2.192480
 20
3.770713
  0
VERTEX
  8
PLAN_1
  6
CONTINUOUS
 10
-2.098642
 20
3.770713
  0
SEQEND
  8
0
  0
POLYLINE
  8
PLAN_1
  6
CONTINUOUS
 66
     1
 40
0.008327
 41
0.008327
  0
VERTEX
  8
PLAN_1
  6
CONTINUOUS
 10
-2.192480
 20
3.569161
  0
VERTEX
  8
PLAN_1
  6
CONTINUOUS
 10
-2.098642
 20
3.569161
  0
SEQEND
  8
0
  0
POLYLINE
  8
PLAN_1
  6
CONTINUOUS
 66
     1
 40
0.008327
 41
0.008327
  0
VERTEX
  8
PLAN_1
  6
CONTINUOUS
 10
-2.095866
 20
3.498646
  0
VERTEX
  8
PLAN_1
  6
CONTINUOUS
 10
-2.095866
 20
3.846783
  0
VERTEX
  8
PLAN_1
  6
CONTINUOUS
 10
-2.069772
 20
3.846783
  0
VERTEX
  8
PLAN_1
  6
CONTINUOUS
 10
-2.069772
 20
3.498646
  0
VERTEX
  8
PLAN_1
  6
CONTINUOUS
 10
-2.095866
 20
3.498646
  0
SEQEND
  8
0
  0
POLYLINE
  8
PLAN_1
  6
CONTINUOUS
 66
     1
 40
0.008327
 41
0.008327
  0
VERTEX
  8
PLAN_1
  6
CONTINUOUS
 10
-1.905417
 20
3.498091
  0
VERTEX
  8
PLAN_1
  6
CONTINUOUS
 10
-1.905417
 20
3.846228
  0
VERTEX
  8
PLAN_1
  6
CONTINUOUS
 10
-1.843787
 20
3.846228
  0
VERTEX
  8
PLAN_1
  6
CONTINUOUS
 10
-1.843787
 20
3.498091
  0
VERTEX
  8
PLAN_1
  6
CONTINUOUS
 10
-1.905417
 20
3.498091
  0
SEQEND
  8
0
  0
POLYLINE
  8
PLAN_1
  6
CONTINUOUS
 66
     1
 40
0.008327
 41
0.008327
  0
VERTEX
  8
PLAN_1
  6
CONTINUOUS
 10
-2.181374
 20
3.876209
  0
VERTEX
  8
PLAN_1
  6
CONTINUOUS
 10
-2.182484
 20
3.873433
  0
VERTEX
  8
PLAN_1
  6
CONTINUOUS
 10
-2.185260
 20
3.866772
  0
VERTEX
  8
PLAN_1
  6
CONTINUOUS
 10
-2.186925
 20
3.861772
  0
VERTEX
  8
PLAN_1
  6
CONTINUOUS
 10
-2.188591
 20
3.856220
  0
VERTEX
  8
PLAN_1
  6
CONTINUOUS
 10
-2.190256
 20
3.850114
  0
VERTEX
  8
PLAN_1
  6
CONTINUOUS
 10
-2.191925
 20
3.842894
  0
VERTEX
  8
PLAN_1
  6
CONTINUOUS
 10
-2.192480
 20
3.835122
  0
VERTEX
  8
PLAN_1
  6
CONTINUOUS
 10
-2.193035
 20
3.826791
  0
VERTEX
  8
PLAN_1
  6
CONTINUOUS
 10
-2.193035
 20
3.817909
  0
VERTEX
  8
PLAN_1
  6
CONTINUOUS
 10
-2.192480
 20
3.809024
  0
VERTEX
  8
PLAN_1
  6
CONTINUOUS
 10
-2.190815
 20
3.799587
  0
VERTEX
  8
PLAN_1
  6
CONTINUOUS
 10
-2.188035
 20
3.790146
  0
VERTEX
  8
PLAN_1
  6
CONTINUOUS
 10
-2.184150
 20
3.780709
  0
VERTEX
  8
PLAN_1
  6
CONTINUOUS
 10
-2.179154
 20
3.770713
  0
VERTEX
  8
PLAN_1
  6
CONTINUOUS
 10
-2.180819
 20
3.766827
  0
VERTEX
  8
PLAN_1
  6
CONTINUOUS
 10
-2.183594
 20
3.756280
  0
VERTEX
  8
PLAN_1
  6
CONTINUOUS
 10
-2.185260
 20
3.747949
  0
VERTEX
  8
PLAN_1
  6
CONTINUOUS
 10
-2.187480
 20
3.738512
  0
VERTEX
  8
PLAN_1
  6
CONTINUOUS
 10
-2.189146
 20
3.727406
  0
VERTEX
  8
PLAN_1
  6
CONTINUOUS
 10
-2.190815
 20
3.715189
  0
VERTEX
  8
PLAN_1
  6
CONTINUOUS
 10
-2.191925
 20
3.701307
  0
VERTEX
  8
PLAN_1
  6
CONTINUOUS
 10
-2.193035
 20
3.685764
  0
VERTEX
  8
PLAN_1
  6
CONTINUOUS
 10
-2.193591
 20
3.669106
  0
VERTEX
  8
PLAN_1
  6
CONTINUOUS
 10
-2.193035
 20
3.651339
  0
VERTEX
  8
PLAN_1
  6
CONTINUOUS
 10
-2.191925
 20
3.632461
  0
VERTEX
  8
PLAN_1
  6
CONTINUOUS
 10
-2.189701
 20
3.612469
  0
VERTEX
  8
PLAN_1
  6
CONTINUOUS
 10
-2.186370
 20
3.591370
  0
VERTEX
  8
PLAN_1
  6
CONTINUOUS
 10
-2.181929
 20
3.569161
  0
VERTEX
  8
PLAN_1
  6
CONTINUOUS
 10
-2.183039
 20
3.566941
  0
VERTEX
  8
PLAN_1
  6
CONTINUOUS
 10
-2.185815
 20
3.560280
  0
VERTEX
  8
PLAN_1
  6
CONTINUOUS
 10
-2.187480
 20
3.555280
  0
VERTEX
  8
PLAN_1
  6
CONTINUOUS
 10
-2.189146
 20
3.549728
  0
VERTEX
  8
PLAN_1
  6
CONTINUOUS
 10
-2.190815
 20
3.543622
  0
VERTEX
  8
PLAN_1
  6
CONTINUOUS
 10
-2.191925
 20
3.536402
  0
VERTEX
  8
PLAN_1
  6
CONTINUOUS
 10
-2.193035
 20
3.529185
  0
VERTEX
  8
PLAN_1
  6
CONTINUOUS
 10
-2.193591
 20
3.520854
  0
VERTEX
  8
PLAN_1
  6
CONTINUOUS
 10
-2.193591
 20
3.512528
  0
VERTEX
  8
PLAN_1
  6
CONTINUOUS
 10
-2.192480
 20
3.503087
  0
VERTEX
  8
PLAN_1
  6
CONTINUOUS
 10
-2.191370
 20
3.494205
  0
VERTEX
  8
PLAN_1
  6
CONTINUOUS
 10
-2.188591
 20
3.484764
  0
VERTEX
  8
PLAN_1
  6
CONTINUOUS
 10
-2.184705
 20
3.474772
  0
VERTEX
  8
PLAN_1
  6
CONTINUOUS
 10
-2.179709
 20
3.465331
  0
SEQEND
  8
0
  0
POLYLINE
  8
PLAN_1
 62
     5
  6
CONTINUOUS
 66
     1
 40
0.003000
 41
0.003000
  0
VERTEX
  8
PLAN_1
 62
     5
  6
CONTINUOUS
 10
-1.510642
 20
3.448673
  0
VERTEX
  8
PLAN_1
 62
     5
  6
CONTINUOUS
 10
-1.502315
 20
3.448673
  0
SEQEND
  8
0
  0
POLYLINE
  8
PLAN_1
 62
     5
  6
CONTINUOUS
 66
     1
 40
0.003000
 41
0.003000
  0
VERTEX
  8
PLAN_1
 62
     5
  6
CONTINUOUS
 10
-1.493984
 20
3.448673
  0
VERTEX
  8
PLAN_1
 62
     5
  6
CONTINUOUS
 10
-1.485657
 20
3.448673
  0
SEQEND
  8
0
  0
POLYLINE
  8
PLAN_1
 62
     5
  6
CONTINUOUS
 66
     1
 40
0.003000
 41
0.003000
  0
VERTEX
  8
PLAN_1
 62
     5
  6
CONTINUOUS
 10
-1.477327
 20
3.448673
  0
VERTEX
  8
PLAN_1
 62
     5
  6
CONTINUOUS
 10
-1.469000
 20
3.448673
  0
SEQEND
  8
0
  0
POLYLINE
  8
PLAN_1
 62
     5
  6
CONTINUOUS
 66
     1
 40
0.003000
 41
0.003000
  0
VERTEX
  8
PLAN_1
 62
     5
  6
CONTINUOUS
 10
-1.460673
 20
3.448673
  0
VERTEX
  8
PLAN_1
 62
     5
  6
CONTINUOUS
 10
-1.452343
 20
3.448673
  0
SEQEND
  8
0
  0
POLYLINE
  8
PLAN_1
 62
     5
  6
CONTINUOUS
 66
     1
 40
0.003000
 41
0.003000
  0
VERTEX
  8
PLAN_1
 62
     5
  6
CONTINUOUS
 10
-1.444016
 20
3.448673
  0
VERTEX
  8
PLAN_1
 62
     5
  6
CONTINUOUS
 10
-1.435685
 20
3.448673
  0
SEQEND
  8
0
  0
POLYLINE
  8
PLAN_1
 62
     5
  6
CONTINUOUS
 66
     1
 40
0.003000
 41
0.003000
  0
VERTEX
  8
PLAN_1
 62
     5
  6
CONTINUOUS
 10
-1.427358
 20
3.448673
  0
VERTEX
  8
PLAN_1
 62
     5
  6
CONTINUOUS
 10
-1.419028
 20
3.448673
  0
SEQEND
  8
0
  0
POLYLINE
  8
PLAN_1
 62
     5
  6
CONTINUOUS
 66
     1
 40
0.003000
 41
0.003000
  0
VERTEX
  8
PLAN_1
 62
     5
  6
CONTINUOUS
 10
-1.412921
 20
3.450894
  0
VERTEX
  8
PLAN_1
 62
     5
  6
CONTINUOUS
 10
-1.412921
 20
3.459224
  0
SEQEND
  8
0
  0
POLYLINE
  8
PLAN_1
 62
     5
  6
CONTINUOUS
 66
     1
 40
0.003000
 41
0.003000
  0
VERTEX
  8
PLAN_1
 62
     5
  6
CONTINUOUS
 10
-1.412921
 20
3.467551
  0
VERTEX
  8
PLAN_1
 62
     5
  6
CONTINUOUS
 10
-1.412921
 20
3.475882
  0
SEQEND
  8
0
  0
POLYLINE
  8
PLAN_1
 62
     5
  6
CONTINUOUS
 66
     1
 40
0.003000
 41
0.003000
  0
VERTEX
  8
PLAN_1
 62
     5
  6
CONTINUOUS
 10
-1.412921
 20
3.484209
  0
VERTEX
  8
PLAN_1
 62
     5
  6
CONTINUOUS
 10
-1.412921
 20
3.492539
  0
SEQEND
  8
0
  0
POLYLINE
  8
PLAN_1
 62
     5
  6
CONTINUOUS
 66
     1
 40
0.003000
 41
0.003000
  0
VERTEX
  8
PLAN_1
 62
     5
  6
CONTINUOUS
 10
-1.412921
 20
3.500866
  0
VERTEX
  8
PLAN_1
 62
     5
  6
CONTINUOUS
 10
-1.412921
 20
3.509197
  0
SEQEND
  8
0
  0
POLYLINE
  8
PLAN_1
 62
     5
  6
CONTINUOUS
 66
     1
 40
0.003000
 41
0.003000
  0
VERTEX
  8
PLAN_1
 62
     5
  6
CONTINUOUS
 10
-1.412921
 20
3.517524
  0
VERTEX
  8
PLAN_1
 62
     5
  6
CONTINUOUS
 10
-1.412921
 20
3.525854
  0
SEQEND
  8
0
  0
POLYLINE
  8
PLAN_1
 62
     5
  6
CONTINUOUS
 66
     1
 40
0.003000
 41
0.003000
  0
VERTEX
  8
PLAN_1
 62
     5
  6
CONTINUOUS
 10
-1.412921
 20
3.534181
  0
VERTEX
  8
PLAN_1
 62
     5
  6
CONTINUOUS
 10
-1.412921
 20
3.542512
  0
SEQEND
  8
0
  0
POLYLINE
  8
PLAN_1
 62
     5
  6
CONTINUOUS
 66
     1
 40
0.003000
 41
0.003000
  0
VERTEX
  8
PLAN_1
 62
     5
  6
CONTINUOUS
 10
-1.412921
 20
3.550839
  0
VERTEX
  8
PLAN_1
 62
     5
  6
CONTINUOUS
 10
-1.412921
 20
3.559165
  0
SEQEND
  8
0
  0
POLYLINE
  8
PLAN_1
 62
     5
  6
CONTINUOUS
 66
     1
 40
0.003000
 41
0.003000
  0
VERTEX
  8
PLAN_1
 62
     5
  6
CONTINUOUS
 10
-1.412921
 20
3.567496
  0
VERTEX
  8
PLAN_1
 62
     5
  6
CONTINUOUS
 10
-1.412921
 20
3.575823
  0
SEQEND
  8
0
  0
POLYLINE
  8
PLAN_1
 62
     5
  6
CONTINUOUS
 66
     1
 40
0.003000
 41
0.003000
  0
VERTEX
  8
PLAN_1
 62
     5
  6
CONTINUOUS
 10
-1.412921
 20
3.584154
  0
VERTEX
  8
PLAN_1
 62
     5
  6
CONTINUOUS
 10
-1.412921
 20
3.592480
  0
SEQEND
  8
0
  0
POLYLINE
  8
PLAN_1
 62
     5
  6
CONTINUOUS
 66
     1
 40
0.003000
 41
0.003000
  0
VERTEX
  8
PLAN_1
 62
     5
  6
CONTINUOUS
 10
-1.412921
 20
3.600811
  0
VERTEX
  8
PLAN_1
 62
     5
  6
CONTINUOUS
 10
-1.412921
 20
3.609138
  0
SEQEND
  8
0
  0
POLYLINE
  8
PLAN_1
 62
     5
  6
CONTINUOUS
 66
     1
 40
0.003000
 41
0.003000
  0
VERTEX
  8
PLAN_1
 62
     5
  6
CONTINUOUS
 10
-1.412921
 20
3.617469
  0
VERTEX
  8
PLAN_1
 62
     5
  6
CONTINUOUS
 10
-1.412921
 20
3.625795
  0
SEQEND
  8
0
  0
POLYLINE
  8
PLAN_1
 62
     5
  6
CONTINUOUS
 66
     1
 40
0.003000
 41
0.003000
  0
VERTEX
  8
PLAN_1
 62
     5
  6
CONTINUOUS
 10
-1.412921
 20
3.634126
  0
VERTEX
  8
PLAN_1
 62
     5
  6
CONTINUOUS
 10
-1.412921
 20
3.642453
  0
SEQEND
  8
0
  0
POLYLINE
  8
PLAN_1
 62
     5
  6
CONTINUOUS
 66
     1
 40
0.003000
 41
0.003000
  0
VERTEX
  8
PLAN_1
 62
     5
  6
CONTINUOUS
 10
-1.412921
 20
3.650783
  0
VERTEX
  8
PLAN_1
 62
     5
  6
CONTINUOUS
 10
-1.412921
 20
3.659110
  0
SEQEND
  8
0
  0
POLYLINE
  8
PLAN_1
 62
     5
  6
CONTINUOUS
 66
     1
 40
0.003000
 41
0.003000
  0
VERTEX
  8
PLAN_1
 62
     5
  6
CONTINUOUS
 10
-1.412921
 20
3.667441
  0
VERTEX
  8
PLAN_1
 62
     5
  6
CONTINUOUS
 10
-1.412921
 20
3.675768
  0
SEQEND
  8
0
  0
POLYLINE
  8
PLAN_1
 62
     5
  6
CONTINUOUS
 66
     1
 40
0.003000
 41
0.003000
  0
VERTEX
  8
PLAN_1
 62
     5
  6
CONTINUOUS
 10
-1.412921
 20
3.684094
  0
VERTEX
  8
PLAN_1
 62
     5
  6
CONTINUOUS
 10
-1.412921
 20
3.692425
  0
SEQEND
  8
0
  0
POLYLINE
  8
PLAN_1
 62
     5
  6
CONTINUOUS
 66
     1
 40
0.003000
 41
0.003000
  0
VERTEX
  8
PLAN_1
 62
     5
  6
CONTINUOUS
 10
-1.412921
 20
3.700752
  0
VERTEX
  8
PLAN_1
 62
     5
  6
CONTINUOUS
 10
-1.412921
 20
3.709083
  0
SEQEND
  8
0
  0
POLYLINE
  8
PLAN_1
 62
     5
  6
CONTINUOUS
 66
     1
 40
0.003000
 41
0.003000
  0
VERTEX
  8
PLAN_1
 62
     5
  6
CONTINUOUS
 10
-1.412921
 20
3.717409
  0
VERTEX
  8
PLAN_1
 62
     5
  6
CONTINUOUS
 10
-1.412921
 20
3.725740
  0
SEQEND
  8
0
  0
POLYLINE
  8
PLAN_1
 62
     5
  6
CONTINUOUS
 66
     1
 40
0.003000
 41
0.003000
  0
VERTEX
  8
PLAN_1
 62
     5
  6
CONTINUOUS
 10
-1.412921
 20
3.734067
  0
VERTEX
  8
PLAN_1
 62
     5
  6
CONTINUOUS
 10
-1.412921
 20
3.742398
  0
SEQEND
  8
0
  0
POLYLINE
  8
PLAN_1
 62
     5
  6
CONTINUOUS
 66
     1
 40
0.003000
 41
0.003000
  0
VERTEX
  8
PLAN_1
 62
     5
  6
CONTINUOUS
 10
-1.412921
 20
3.750724
  0
VERTEX
  8
PLAN_1
 62
     5
  6
CONTINUOUS
 10
-1.412921
 20
3.759055
  0
SEQEND
  8
0
  0
POLYLINE
  8
PLAN_1
 62
     5
  6
CONTINUOUS
 66
     1
 40
0.003000
 41
0.003000
  0
VERTEX
  8
PLAN_1
 62
     5
  6
CONTINUOUS
 10
-1.412921
 20
3.767382
  0
VERTEX
  8
PLAN_1
 62
     5
  6
CONTINUOUS
 10
-1.412921
 20
3.775713
  0
SEQEND
  8
0
  0
POLYLINE
  8
PLAN_1
 62
     5
  6
CONTINUOUS
 66
     1
 40
0.003000
 41
0.003000
  0
VERTEX
  8
PLAN_1
 62
     5
  6
CONTINUOUS
 10
-1.412921
 20
3.784039
  0
VERTEX
  8
PLAN_1
 62
     5
  6
CONTINUOUS
 10
-1.412921
 20
3.792370
  0
SEQEND
  8
0
  0
POLYLINE
  8
PLAN_1
 62
     5
  6
CONTINUOUS
 66
     1
 40
0.003000
 41
0.003000
  0
VERTEX
  8
PLAN_1
 62
     5
  6
CONTINUOUS
 10
-1.412921
 20
3.800697
  0
VERTEX
  8
PLAN_1
 62
     5
  6
CONTINUOUS
 10
-1.412921
 20
3.809024
  0
SEQEND
  8
0
  0
POLYLINE
  8
PLAN_1
 62
     5
  6
CONTINUOUS
 66
     1
 40
0.003000
 41
0.003000
  0
VERTEX
  8
PLAN_1
 62
     5
  6
CONTINUOUS
 10
-1.412921
 20
3.817354
  0
VERTEX
  8
PLAN_1
 62
     5
  6
CONTINUOUS
 10
-1.412921
 20
3.825681
  0
SEQEND
  8
0
  0
POLYLINE
  8
PLAN_1
 62
     5
  6
CONTINUOUS
 66
     1
 40
0.003000
 41
0.003000
  0
VERTEX
  8
PLAN_1
 62
     5
  6
CONTINUOUS
 10
-1.412921
 20
3.834012
  0
VERTEX
  8
PLAN_1
 62
     5
  6
CONTINUOUS
 10
-1.412921
 20
3.842339
  0
SEQEND
  8
0
  0
POLYLINE
  8
PLAN_1
 62
     5
  6
CONTINUOUS
 66
     1
 40
0.003000
 41
0.003000
  0
VERTEX
  8
PLAN_1
 62
     5
  6
CONTINUOUS
 10
-1.412921
 20
3.850669
  0
VERTEX
  8
PLAN_1
 62
     5
  6
CONTINUOUS
 10
-1.412921
 20
3.858996
  0
SEQEND
  8
0
  0
POLYLINE
  8
PLAN_1
 62
     5
  6
CONTINUOUS
 66
     1
 40
0.003000
 41
0.003000
  0
VERTEX
  8
PLAN_1
 62
     5
  6
CONTINUOUS
 10
-1.419583
 20
3.860661
  0
VERTEX
  8
PLAN_1
 62
     5
  6
CONTINUOUS
 10
-1.427913
 20
3.860661
  0
SEQEND
  8
0
  0
POLYLINE
  8
PLAN_1
 62
     5
  6
CONTINUOUS
 66
     1
 40
0.003000
 41
0.003000
  0
VERTEX
  8
PLAN_1
 62
     5
  6
CONTINUOUS
 10
-1.436240
 20
3.860661
  0
VERTEX
  8
PLAN_1
 62
     5
  6
CONTINUOUS
 10
-1.444571
 20
3.860661
  0
SEQEND
  8
0
  0
POLYLINE
  8
PLAN_1
 62
     5
  6
CONTINUOUS
 66
     1
 40
0.003000
 41
0.003000
  0
VERTEX
  8
PLAN_1
 62
     5
  6
CONTINUOUS
 10
-1.452898
 20
3.860661
  0
VERTEX
  8
PLAN_1
 62
     5
  6
CONTINUOUS
 10
-1.461228
 20
3.860661
  0
SEQEND
  8
0
  0
POLYLINE
  8
PLAN_1
 62
     5
  6
CONTINUOUS
 66
     1
 40
0.003000
 41
0.003000
  0
VERTEX
  8
PLAN_1
 62
     5
  6
CONTINUOUS
 10
-1.469555
 20
3.860661
  0
VERTEX
  8
PLAN_1
 62
     5
  6
CONTINUOUS
 10
-1.477882
 20
3.860661
  0
SEQEND
  8
0
  0
POLYLINE
  8
PLAN_1
 62
     5
  6
CONTINUOUS
 66
     1
 40
0.003000
 41
0.003000
  0
VERTEX
  8
PLAN_1
 62
     5
  6
CONTINUOUS
 10
-1.486213
 20
3.860661
  0
VERTEX
  8
PLAN_1
 62
     5
  6
CONTINUOUS
 10
-1.494539
 20
3.860661
  0
SEQEND
  8
0
  0
POLYLINE
  8
PLAN_1
 62
     5
  6
CONTINUOUS
 66
     1
 40
0.003000
 41
0.003000
  0
VERTEX
  8
PLAN_1
 62
     5
  6
CONTINUOUS
 10
-1.502870
 20
3.860661
  0
VERTEX
  8
PLAN_1
 62
     5
  6
CONTINUOUS
 10
-1.510642
 20
3.860661
  0
VERTEX
  8
PLAN_1
 62
     5
  6
CONTINUOUS
 10
-1.510642
 20
3.860106
  0
SEQEND
  8
0
  0
POLYLINE
  8
PLAN_1
 62
     5
  6
CONTINUOUS
 66
     1
 40
0.003000
 41
0.003000
  0
VERTEX
  8
PLAN_1
 62
     5
  6
CONTINUOUS
 10
-1.510642
 20
3.851780
  0
VERTEX
  8
PLAN_1
 62
     5
  6
CONTINUOUS
 10
-1.510642
 20
3.843449
  0
SEQEND
  8
0
  0
POLYLINE
  8
PLAN_1
 62
     5
  6
CONTINUOUS
 66
     1
 40
0.003000
 41
0.003000
  0
VERTEX
  8
PLAN_1
 62
     5
  6
CONTINUOUS
 10
-1.510642
 20
3.835122
  0
VERTEX
  8
PLAN_1
 62
     5
  6
CONTINUOUS
 10
-1.510642
 20
3.828461
  0
VERTEX
  8
PLAN_1
 62
     5
  6
CONTINUOUS
 10
-1.512862
 20
3.828461
  0
SEQEND
  8
0
  0
POLYLINE
  8
PLAN_1
 62
     5
  6
CONTINUOUS
 66
     1
 40
0.003000
 41
0.003000
  0
VERTEX
  8
PLAN_1
 62
     5
  6
CONTINUOUS
 10
-1.521193
 20
3.828461
  0
VERTEX
  8
PLAN_1
 62
     5
  6
CONTINUOUS
 10
-1.529520
 20
3.828461
  0
SEQEND
  8
0
  0
POLYLINE
  8
PLAN_1
 62
     5
  6
CONTINUOUS
 66
     1
 40
0.003000
 41
0.003000
  0
VERTEX
  8
PLAN_1
 62
     5
  6
CONTINUOUS
 10
-1.537850
 20
3.828461
  0
VERTEX
  8
PLAN_1
 62
     5
  6
CONTINUOUS
 10
-1.539516
 20
3.828461
  0
VERTEX
  8
PLAN_1
 62
     5
  6
CONTINUOUS
 10
-1.539516
 20
3.835122
  0
SEQEND
  8
0
  0
POLYLINE
  8
PLAN_1
 62
     5
  6
CONTINUOUS
 66
     1
 40
0.003000
 41
0.003000
  0
VERTEX
  8
PLAN_1
 62
     5
  6
CONTINUOUS
 10
-1.539516
 20
3.843449
  0
VERTEX
  8
PLAN_1
 62
     5
  6
CONTINUOUS
 10
-1.539516
 20
3.851780
  0
SEQEND
  8
0
  0
POLYLINE
  8
PLAN_1
 62
     5
  6
CONTINUOUS
 66
     1
 40
0.003000
 41
0.003000
  0
VERTEX
  8
PLAN_1
 62
     5
  6
CONTINUOUS
 10
-1.539516
 20
3.860106
  0
VERTEX
  8
PLAN_1
 62
     5
  6
CONTINUOUS
 10
-1.539516
 20
3.868437
  0
SEQEND
  8
0
  0
POLYLINE
  8
PLAN_1
 62
     5
  6
CONTINUOUS
 66
     1
 40
0.003000
 41
0.003000
  0
VERTEX
  8
PLAN_1
 62
     5
  6
CONTINUOUS
 10
-1.539516
 20
3.876764
  0
VERTEX
  8
PLAN_1
 62
     5
  6
CONTINUOUS
 10
-1.539516
 20
3.885094
  0
SEQEND
  8
0
  0
POLYLINE
  8
PLAN_1
 62
     5
  6
CONTINUOUS
 66
     1
 40
0.003000
 41
0.003000
  0
VERTEX
  8
PLAN_1
 62
     5
  6
CONTINUOUS
 10
-1.539516
 20
3.893421
  0
VERTEX
  8
PLAN_1
 62
     5
  6
CONTINUOUS
 10
-1.539516
 20
3.901752
  0
SEQEND
  8
0
  0
POLYLINE
  8
PLAN_1
 62
     5
  6
CONTINUOUS
 66
     1
 40
0.003000
 41
0.003000
  0
VERTEX
  8
PLAN_1
 62
     5
  6
CONTINUOUS
 10
-1.539516
 20
3.910079
  0
VERTEX
  8
PLAN_1
 62
     5
  6
CONTINUOUS
 10
-1.539516
 20
3.918409
  0
SEQEND
  8
0
  0
POLYLINE
  8
PLAN_1
 62
     5
  6
CONTINUOUS
 66
     1
 40
0.003000
 41
0.003000
  0
VERTEX
  8
PLAN_1
 62
     5
  6
CONTINUOUS
 10
-1.539516
 20
3.926736
  0
VERTEX
  8
PLAN_1
 62
     5
  6
CONTINUOUS
 10
-1.539516
 20
3.935067
  0
SEQEND
  8
0
  0
POLYLINE
  8
PLAN_1
 62
     5
  6
CONTINUOUS
 66
     1
 40
0.003000
 41
0.003000
  0
VERTEX
  8
PLAN_1
 62
     5
  6
CONTINUOUS
 10
-1.539516
 20
3.943394
  0
VERTEX
  8
PLAN_1
 62
     5
  6
CONTINUOUS
 10
-1.539516
 20
3.951720
  0
SEQEND
  8
0
  0
POLYLINE
  8
PLAN_1
 62
     5
  6
CONTINUOUS
 66
     1
 40
0.003000
 41
0.003000
  0
VERTEX
  8
PLAN_1
 62
     5
  6
CONTINUOUS
 10
-1.539516
 20
3.960051
  0
VERTEX
  8
PLAN_1
 62
     5
  6
CONTINUOUS
 10
-1.539516
 20
3.968378
  0
SEQEND
  8
0
  0
POLYLINE
  8
PLAN_1
 62
     5
  6
CONTINUOUS
 66
     1
 40
0.003000
 41
0.003000
  0
VERTEX
  8
PLAN_1
 62
     5
  6
CONTINUOUS
 10
-1.539516
 20
3.976709
  0
VERTEX
  8
PLAN_1
 62
     5
  6
CONTINUOUS
 10
-1.539516
 20
3.985035
  0
SEQEND
  8
0
  0
POLYLINE
  8
PLAN_1
 62
     5
  6
CONTINUOUS
 66
     1
 40
0.003000
 41
0.003000
  0
VERTEX
  8
PLAN_1
 62
     5
  6
CONTINUOUS
 10
-1.539516
 20
3.993366
  0
VERTEX
  8
PLAN_1
 62
     5
  6
CONTINUOUS
 10
-1.539516
 20
4.001693
  0
SEQEND
  8
0
  0
POLYLINE
  8
PLAN_1
 62
     5
  6
CONTINUOUS
 66
     1
 40
0.003000
 41
0.003000
  0
VERTEX
  8
PLAN_1
 62
     5
  6
CONTINUOUS
 10
-1.539516
 20
4.010024
  0
VERTEX
  8
PLAN_1
 62
     5
  6
CONTINUOUS
 10
-1.539516
 20
4.018350
  0
SEQEND
  8
0
  0
POLYLINE
  8
PLAN_1
 62
     5
  6
CONTINUOUS
 66
     1
 40
0.003000
 41
0.003000
  0
VERTEX
  8
PLAN_1
 62
     5
  6
CONTINUOUS
 10
-1.539516
 20
4.026681
  0
VERTEX
  8
PLAN_1
 62
     5
  6
CONTINUOUS
 10
-1.547843
 20
4.026681
  0
SEQEND
  8
0
  0
POLYLINE
  8
PLAN_1
 62
     5
  6
CONTINUOUS
 66
     1
 40
0.003000
 41
0.003000
  0
VERTEX
  8
PLAN_1
 62
     5
  6
CONTINUOUS
 10
-1.556173
 20
4.026681
  0
VERTEX
  8
PLAN_1
 62
     5
  6
CONTINUOUS
 10
-1.564500
 20
4.026681
  0
SEQEND
  8
0
  0
POLYLINE
  8
PLAN_1
 62
     5
  6
CONTINUOUS
 66
     1
 40
0.003000
 41
0.003000
  0
VERTEX
  8
PLAN_1
 62
     5
  6
CONTINUOUS
 10
-1.572831
 20
4.026681
  0
VERTEX
  8
PLAN_1
 62
     5
  6
CONTINUOUS
 10
-1.581157
 20
4.026681
  0
SEQEND
  8
0
  0
POLYLINE
  8
PLAN_1
 62
     5
  6
CONTINUOUS
 66
     1
 40
0.003000
 41
0.003000
  0
VERTEX
  8
PLAN_1
 62
     5
  6
CONTINUOUS
 10
-1.589488
 20
4.026681
  0
VERTEX
  8
PLAN_1
 62
     5
  6
CONTINUOUS
 10
-1.597815
 20
4.026681
  0
SEQEND
  8
0
  0
POLYLINE
  8
PLAN_1
 62
     5
  6
CONTINUOUS
 66
     1
 40
0.003000
 41
0.003000
  0
VERTEX
  8
PLAN_1
 62
     5
  6
CONTINUOUS
 10
-1.606146
 20
4.026681
  0
VERTEX
  8
PLAN_1
 62
     5
  6
CONTINUOUS
 10
-1.614472
 20
4.026681
  0
SEQEND
  8
0
  0
POLYLINE
  8
PLAN_1
 62
     5
  6
CONTINUOUS
 66
     1
 40
0.003000
 41
0.003000
  0
VERTEX
  8
PLAN_1
 62
     5
  6
CONTINUOUS
 10
-1.622803
 20
4.026681
  0
VERTEX
  8
PLAN_1
 62
     5
  6
CONTINUOUS
 10
-1.631130
 20
4.026681
  0
SEQEND
  8
0
  0
POLYLINE
  8
PLAN_1
 62
     5
  6
CONTINUOUS
 66
     1
 40
0.003000
 41
0.003000
  0
VERTEX
  8
PLAN_1
 62
     5
  6
CONTINUOUS
 10
-1.639461
 20
4.026681
  0
VERTEX
  8
PLAN_1
 62
     5
  6
CONTINUOUS
 10
-1.647787
 20
4.026681
  0
SEQEND
  8
0
  0
POLYLINE
  8
PLAN_1
 62
     5
  6
CONTINUOUS
 66
     1
 40
0.003000
 41
0.003000
  0
VERTEX
  8
PLAN_1
 62
     5
  6
CONTINUOUS
 10
-1.656118
 20
4.026681
  0
VERTEX
  8
PLAN_1
 62
     5
  6
CONTINUOUS
 10
-1.664445
 20
4.026681
  0
SEQEND
  8
0
  0
POLYLINE
  8
PLAN_1
 62
     5
  6
CONTINUOUS
 66
     1
 40
0.003000
 41
0.003000
  0
VERTEX
  8
PLAN_1
 62
     5
  6
CONTINUOUS
 10
-1.672772
 20
4.026681
  0
VERTEX
  8
PLAN_1
 62
     5
  6
CONTINUOUS
 10
-1.681102
 20
4.026681
  0
SEQEND
  8
0
  0
POLYLINE
  8
PLAN_1
 62
     5
  6
CONTINUOUS
 66
     1
 40
0.003000
 41
0.003000
  0
VERTEX
  8
PLAN_1
 62
     5
  6
CONTINUOUS
 10
-1.689429
 20
4.026681
  0
VERTEX
  8
PLAN_1
 62
     5
  6
CONTINUOUS
 10
-1.697760
 20
4.026681
  0
SEQEND
  8
0
  0
POLYLINE
  8
PLAN_1
 62
     5
  6
CONTINUOUS
 66
     1
 40
0.003000
 41
0.003000
  0
VERTEX
  8
PLAN_1
 62
     5
  6
CONTINUOUS
 10
-1.703866
 20
4.025016
  0
VERTEX
  8
PLAN_1
 62
     5
  6
CONTINUOUS
 10
-1.703866
 20
4.016685
  0
SEQEND
  8
0
  0
POLYLINE
  8
PLAN_1
 62
     5
  6
CONTINUOUS
 66
     1
 40
0.003000
 41
0.003000
  0
VERTEX
  8
PLAN_1
 62
     5
  6
CONTINUOUS
 10
-1.703866
 20
4.008358
  0
VERTEX
  8
PLAN_1
 62
     5
  6
CONTINUOUS
 10
-1.703866
 20
4.000028
  0
SEQEND
  8
0
  0
POLYLINE
  8
PLAN_1
 62
     5
  6
CONTINUOUS
 66
     1
 40
0.003000
 41
0.003000
  0
VERTEX
  8
PLAN_1
 62
     5
  6
CONTINUOUS
 10
-1.703866
 20
3.991701
  0
VERTEX
  8
PLAN_1
 62
     5
  6
CONTINUOUS
 10
-1.703866
 20
3.983370
  0
SEQEND
  8
0
  0
POLYLINE
  8
PLAN_1
 62
     5
  6
CONTINUOUS
 66
     1
 40
0.003000
 41
0.003000
  0
VERTEX
  8
PLAN_1
 62
     5
  6
CONTINUOUS
 10
-1.703866
 20
3.975043
  0
VERTEX
  8
PLAN_1
 62
     5
  6
CONTINUOUS
 10
-1.703866
 20
3.966713
  0
SEQEND
  8
0
  0
POLYLINE
  8
PLAN_1
 62
     5
  6
CONTINUOUS
 66
     1
 40
0.003000
 41
0.003000
  0
VERTEX
  8
PLAN_1
 62
     5
  6
CONTINUOUS
 10
-1.703866
 20
3.958386
  0
VERTEX
  8
PLAN_1
 62
     5
  6
CONTINUOUS
 10
-1.703866
 20
3.950055
  0
SEQEND
  8
0
  0
POLYLINE
  8
PLAN_1
 62
     5
  6
CONTINUOUS
 66
     1
 40
0.003000
 41
0.003000
  0
VERTEX
  8
PLAN_1
 62
     5
  6
CONTINUOUS
 10
-1.703866
 20
3.941728
  0
VERTEX
  8
PLAN_1
 62
     5
  6
CONTINUOUS
 10
-1.703866
 20
3.933398
  0
SEQEND
  8
0
  0
POLYLINE
  8
PLAN_1
 62
     5
  6
CONTINUOUS
 66
     1
 40
0.003000
 41
0.003000
  0
VERTEX
  8
PLAN_1
 62
     5
  6
CONTINUOUS
 10
-1.703866
 20
3.925071
  0
VERTEX
  8
PLAN_1
 62
     5
  6
CONTINUOUS
 10
-1.703866
 20
3.916744
  0
SEQEND
  8
0
  0
POLYLINE
  8
PLAN_1
 62
     5
  6
CONTINUOUS
 66
     1
 40
0.003000
 41
0.003000
  0
VERTEX
  8
PLAN_1
 62
     5
  6
CONTINUOUS
 10
-1.703866
 20
3.908413
  0
VERTEX
  8
PLAN_1
 62
     5
  6
CONTINUOUS
 10
-1.703866
 20
3.900087
  0
SEQEND
  8
0
  0
POLYLINE
  8
PLAN_1
 62
     5
  6
CONTINUOUS
 66
     1
 40
0.003000
 41
0.003000
  0
VERTEX
  8
PLAN_1
 62
     5
  6
CONTINUOUS
 10
-1.703866
 20
3.891756
  0
VERTEX
  8
PLAN_1
 62
     5
  6
CONTINUOUS
 10
-1.703866
 20
3.883429
  0
SEQEND
  8
0
  0
POLYLINE
  8
PLAN_1
 62
     5
  6
CONTINUOUS
 66
     1
 40
0.003000
 41
0.003000
  0
VERTEX
  8
PLAN_1
 62
     5
  6
CONTINUOUS
 10
-1.703866
 20
3.875098
  0
VERTEX
  8
PLAN_1
 62
     5
  6
CONTINUOUS
 10
-1.703866
 20
3.866772
  0
SEQEND
  8
0
  0
POLYLINE
  8
PLAN_1
 62
     5
  6
CONTINUOUS
 66
     1
 40
0.003000
 41
0.003000
  0
VERTEX
  8
PLAN_1
 62
     5
  6
CONTINUOUS
 10
-1.703866
 20
3.858441
  0
VERTEX
  8
PLAN_1
 62
     5
  6
CONTINUOUS
 10
-1.703866
 20
3.850114
  0
SEQEND
  8
0
  0
POLYLINE
  8
PLAN_1
 62
     5
  6
CONTINUOUS
 66
     1
 40
0.003000
 41
0.003000
  0
VERTEX
  8
PLAN_1
 62
     5
  6
CONTINUOUS
 10
-1.703866
 20
3.841783
  0
VERTEX
  8
PLAN_1
 62
     5
  6
CONTINUOUS
 10
-1.703866
 20
3.833457
  0
SEQEND
  8
0
  0
POLYLINE
  8
PLAN_1
 62
     5
  6
CONTINUOUS
 66
     1
 40
0.003000
 41
0.003000
  0
VERTEX
  8
PLAN_1
 62
     5
  6
CONTINUOUS
 10
-1.703866
 20
3.825126
  0
VERTEX
  8
PLAN_1
 62
     5
  6
CONTINUOUS
 10
-1.703866
 20
3.816799
  0
SEQEND
  8
0
  0
POLYLINE
  8
PLAN_1
 62
     5
  6
CONTINUOUS
 66
     1
 40
0.003000
 41
0.003000
  0
VERTEX
  8
PLAN_1
 62
     5
  6
CONTINUOUS
 10
-1.703866
 20
3.808469
  0
VERTEX
  8
PLAN_1
 62
     5
  6
CONTINUOUS
 10
-1.703866
 20
3.800142
  0
SEQEND
  8
0
  0
POLYLINE
  8
PLAN_1
 62
     5
  6
CONTINUOUS
 66
     1
 40
0.003000
 41
0.003000
  0
VERTEX
  8
PLAN_1
 62
     5
  6
CONTINUOUS
 10
-1.703866
 20
3.791815
  0
VERTEX
  8
PLAN_1
 62
     5
  6
CONTINUOUS
 10
-1.703866
 20
3.783484
  0
SEQEND
  8
0
  0
POLYLINE
  8
PLAN_1
 62
     5
  6
CONTINUOUS
 66
     1
 40
0.003000
 41
0.003000
  0
VERTEX
  8
PLAN_1
 62
     5
  6
CONTINUOUS
 10
-1.703866
 20
3.775157
  0
VERTEX
  8
PLAN_1
 62
     5
  6
CONTINUOUS
 10
-1.703866
 20
3.766827
  0
SEQEND
  8
0
  0
POLYLINE
  8
PLAN_1
 62
     5
  6
CONTINUOUS
 66
     1
 40
0.003000
 41
0.003000
  0
VERTEX
  8
PLAN_1
 62
     5
  6
CONTINUOUS
 10
-1.703866
 20
3.758500
  0
VERTEX
  8
PLAN_1
 62
     5
  6
CONTINUOUS
 10
-1.703866
 20
3.750169
  0
SEQEND
  8
0
  0
POLYLINE
  8
PLAN_1
 62
     5
  6
CONTINUOUS
 66
     1
 40
0.003000
 41
0.003000
  0
VERTEX
  8
PLAN_1
 62
     5
  6
CONTINUOUS
 10
-1.703866
 20
3.741843
  0
VERTEX
  8
PLAN_1
 62
     5
  6
CONTINUOUS
 10
-1.703866
 20
3.733512
  0
SEQEND
  8
0
  0
POLYLINE
  8
PLAN_1
 62
     5
  6
CONTINUOUS
 66
     1
 40
0.003000
 41
0.003000
  0
VERTEX
  8
PLAN_1
 62
     5
  6
CONTINUOUS
 10
-1.703866
 20
3.725185
  0
VERTEX
  8
PLAN_1
 62
     5
  6
CONTINUOUS
 10
-1.703866
 20
3.716854
  0
SEQEND
  8
0
  0
POLYLINE
  8
PLAN_1
 62
     5
  6
CONTINUOUS
 66
     1
 40
0.003000
 41
0.003000
  0
VERTEX
  8
PLAN_1
 62
     5
  6
CONTINUOUS
 10
-1.703866
 20
3.708528
  0
VERTEX
  8
PLAN_1
 62
     5
  6
CONTINUOUS
 10
-1.703866
 20
3.700197
  0
SEQEND
  8
0
  0
POLYLINE
  8
PLAN_1
 62
     5
  6
CONTINUOUS
 66
     1
 40
0.003000
 41
0.003000
  0
VERTEX
  8
PLAN_1
 62
     5
  6
CONTINUOUS
 10
-1.703866
 20
3.691870
  0
VERTEX
  8
PLAN_1
 62
     5
  6
CONTINUOUS
 10
-1.703866
 20
3.683539
  0
SEQEND
  8
0
  0
POLYLINE
  8
PLAN_1
 62
     5
  6
CONTINUOUS
 66
     1
 40
0.003000
 41
0.003000
  0
VERTEX
  8
PLAN_1
 62
     5
  6
CONTINUOUS
 10
-1.703866
 20
3.675213
  0
VERTEX
  8
PLAN_1
 62
     5
  6
CONTINUOUS
 10
-1.703866
 20
3.666882
  0
SEQEND
  8
0
  0
POLYLINE
  8
PLAN_1
 62
     5
  6
CONTINUOUS
 66
     1
 40
0.003000
 41
0.003000
  0
VERTEX
  8
PLAN_1
 62
     5
  6
CONTINUOUS
 10
-1.703866
 20
3.658555
  0
VERTEX
  8
PLAN_1
 62
     5
  6
CONTINUOUS
 10
-1.703866
 20
3.650228
  0
SEQEND
  8
0
  0
POLYLINE
  8
PLAN_1
 62
     5
  6
CONTINUOUS
 66
     1
 40
0.003000
 41
0.003000
  0
VERTEX
  8
PLAN_1
 62
     5
  6
CONTINUOUS
 10
-1.703866
 20
3.641898
  0
VERTEX
  8
PLAN_1
 62
     5
  6
CONTINUOUS
 10
-1.703866
 20
3.633571
  0
SEQEND
  8
0
  0
POLYLINE
  8
PLAN_1
 62
     5
  6
CONTINUOUS
 66
     1
 40
0.003000
 41
0.003000
  0
VERTEX
  8
PLAN_1
 62
     5
  6
CONTINUOUS
 10
-1.703866
 20
3.625240
  0
VERTEX
  8
PLAN_1
 62
     5
  6
CONTINUOUS
 10
-1.703866
 20
3.616913
  0
SEQEND
  8
0
  0
POLYLINE
  8
PLAN_1
 62
     5
  6
CONTINUOUS
 66
     1
 40
0.003000
 41
0.003000
  0
VERTEX
  8
PLAN_1
 62
     5
  6
CONTINUOUS
 10
-1.703866
 20
3.608583
  0
VERTEX
  8
PLAN_1
 62
     5
  6
CONTINUOUS
 10
-1.703866
 20
3.600256
  0
SEQEND
  8
0
  0
POLYLINE
  8
PLAN_1
 62
     5
  6
CONTINUOUS
 66
     1
 40
0.003000
 41
0.003000
  0
VERTEX
  8
PLAN_1
 62
     5
  6
CONTINUOUS
 10
-1.703866
 20
3.591925
  0
VERTEX
  8
PLAN_1
 62
     5
  6
CONTINUOUS
 10
-1.703866
 20
3.583598
  0
SEQEND
  8
0
  0
POLYLINE
  8
PLAN_1
 62
     5
  6
CONTINUOUS
 66
     1
 40
0.003000
 41
0.003000
  0
VERTEX
  8
PLAN_1
 62
     5
  6
CONTINUOUS
 10
-1.703866
 20
3.575268
  0
VERTEX
  8
PLAN_1
 62
     5
  6
CONTINUOUS
 10
-1.703866
 20
3.566941
  0
SEQEND
  8
0
  0
POLYLINE
  8
PLAN_1
 62
     5
  6
CONTINUOUS
 66
     1
 40
0.003000
 41
0.003000
  0
VERTEX
  8
PLAN_1
 62
     5
  6
CONTINUOUS
 10
-1.703866
 20
3.558610
  0
VERTEX
  8
PLAN_1
 62
     5
  6
CONTINUOUS
 10
-1.703866
 20
3.550283
  0
SEQEND
  8
0
  0
POLYLINE
  8
PLAN_1
 62
     5
  6
CONTINUOUS
 66
     1
 40
0.003000
 41
0.003000
  0
VERTEX
  8
PLAN_1
 62
     5
  6
CONTINUOUS
 10
-1.703866
 20
3.541953
  0
VERTEX
  8
PLAN_1
 62
     5
  6
CONTINUOUS
 10
-1.703866
 20
3.533626
  0
SEQEND
  8
0
  0
POLYLINE
  8
PLAN_1
 62
     5
  6
CONTINUOUS
 66
     1
 40
0.003000
 41
0.003000
  0
VERTEX
  8
PLAN_1
 62
     5
  6
CONTINUOUS
 10
-1.703866
 20
3.525299
  0
VERTEX
  8
PLAN_1
 62
     5
  6
CONTINUOUS
 10
-1.703866
 20
3.516969
  0
SEQEND
  8
0
  0
POLYLINE
  8
PLAN_1
 62
     5
  6
CONTINUOUS
 66
     1
 40
0.003000
 41
0.003000
  0
VERTEX
  8
PLAN_1
 62
     5
  6
CONTINUOUS
 10
-1.703866
 20
3.508642
  0
VERTEX
  8
PLAN_1
 62
     5
  6
CONTINUOUS
 10
-1.703866
 20
3.500311
  0
SEQEND
  8
0
  0
POLYLINE
  8
PLAN_1
 62
     5
  6
CONTINUOUS
 66
     1
 40
0.003000
 41
0.003000
  0
VERTEX
  8
PLAN_1
 62
     5
  6
CONTINUOUS
 10
-1.703866
 20
3.491984
  0
VERTEX
  8
PLAN_1
 62
     5
  6
CONTINUOUS
 10
-1.703866
 20
3.483654
  0
SEQEND
  8
0
  0
POLYLINE
  8
PLAN_1
 62
     5
  6
CONTINUOUS
 66
     1
 40
0.003000
 41
0.003000
  0
VERTEX
  8
PLAN_1
 62
     5
  6
CONTINUOUS
 10
-1.703866
 20
3.475327
  0
VERTEX
  8
PLAN_1
 62
     5
  6
CONTINUOUS
 10
-1.703866
 20
3.466996
  0
SEQEND
  8
0
  0
POLYLINE
  8
PLAN_1
 62
     5
  6
CONTINUOUS
 66
     1
 40
0.003000
 41
0.003000
  0
VERTEX
  8
PLAN_1
 62
     5
  6
CONTINUOUS
 10
-1.703866
 20
3.458669
  0
VERTEX
  8
PLAN_1
 62
     5
  6
CONTINUOUS
 10
-1.703866
 20
3.450339
  0
SEQEND
  8
0
  0
POLYLINE
  8
PLAN_1
 62
     5
  6
CONTINUOUS
 66
     1
 40
0.003000
 41
0.003000
  0
VERTEX
  8
PLAN_1
 62
     5
  6
CONTINUOUS
 10
-1.703866
 20
3.442012
  0
VERTEX
  8
PLAN_1
 62
     5
  6
CONTINUOUS
 10
-1.703866
 20
3.433681
  0
SEQEND
  8
0
  0
POLYLINE
  8
PLAN_1
 62
     5
  6
CONTINUOUS
 66
     1
 40
0.003000
 41
0.003000
  0
VERTEX
  8
PLAN_1
 62
     5
  6
CONTINUOUS
 10
-1.703866
 20
3.425354
  0
VERTEX
  8
PLAN_1
 62
     5
  6
CONTINUOUS
 10
-1.703866
 20
3.417024
  0
SEQEND
  8
0
  0
POLYLINE
  8
PLAN_1
 62
     5
  6
CONTINUOUS
 66
     1
 40
0.003000
 41
0.003000
  0
VERTEX
  8
PLAN_1
 62
     5
  6
CONTINUOUS
 10
-1.703866
 20
3.408697
  0
VERTEX
  8
PLAN_1
 62
     5
  6
CONTINUOUS
 10
-1.703866
 20
3.400370
  0
SEQEND
  8
0
  0
POLYLINE
  8
PLAN_1
 62
     5
  6
CONTINUOUS
 66
     1
 40
0.003000
 41
0.003000
  0
VERTEX
  8
PLAN_1
 62
     5
  6
CONTINUOUS
 10
-1.703866
 20
3.392039
  0
VERTEX
  8
PLAN_1
 62
     5
  6
CONTINUOUS
 10
-1.703866
 20
3.383713
  0
SEQEND
  8
0
  0
POLYLINE
  8
PLAN_1
 62
     5
  6
CONTINUOUS
 66
     1
 40
0.003000
 41
0.003000
  0
VERTEX
  8
PLAN_1
 62
     5
  6
CONTINUOUS
 10
-1.703866
 20
3.375382
  0
VERTEX
  8
PLAN_1
 62
     5
  6
CONTINUOUS
 10
-1.703866
 20
3.367055
  0
SEQEND
  8
0
  0
POLYLINE
  8
PLAN_1
 62
     5
  6
CONTINUOUS
 66
     1
 40
0.003000
 41
0.003000
  0
VERTEX
  8
PLAN_1
 62
     5
  6
CONTINUOUS
 10
-1.703866
 20
3.358724
  0
VERTEX
  8
PLAN_1
 62
     5
  6
CONTINUOUS
 10
-1.703866
 20
3.350398
  0
SEQEND
  8
0
  0
POLYLINE
  8
PLAN_1
 62
     5
  6
CONTINUOUS
 66
     1
 40
0.003000
 41
0.003000
  0
VERTEX
  8
PLAN_1
 62
     5
  6
CONTINUOUS
 10
-1.703866
 20
3.342067
  0
VERTEX
  8
PLAN_1
 62
     5
  6
CONTINUOUS
 10
-1.703866
 20
3.333740
  0
SEQEND
  8
0
  0
POLYLINE
  8
PLAN_1
 62
     5
  6
CONTINUOUS
 66
     1
 40
0.003000
 41
0.003000
  0
VERTEX
  8
PLAN_1
 62
     5
  6
CONTINUOUS
 10
-1.703866
 20
3.325409
  0
VERTEX
  8
PLAN_1
 62
     5
  6
CONTINUOUS
 10
-1.703866
 20
3.317083
  0
SEQEND
  8
0
  0
POLYLINE
  8
PLAN_1
 62
     5
  6
CONTINUOUS
 66
     1
 40
0.003000
 41
0.003000
  0
VERTEX
  8
PLAN_1
 62
     5
  6
CONTINUOUS
 10
-1.703866
 20
3.308752
  0
VERTEX
  8
PLAN_1
 62
     5
  6
CONTINUOUS
 10
-1.703866
 20
3.300425
  0
SEQEND
  8
0
  0
POLYLINE
  8
PLAN_1
 62
     5
  6
CONTINUOUS
 66
     1
 40
0.003000
 41
0.003000
  0
VERTEX
  8
PLAN_1
 62
     5
  6
CONTINUOUS
 10
-1.703866
 20
3.292094
  0
VERTEX
  8
PLAN_1
 62
     5
  6
CONTINUOUS
 10
-1.703866
 20
3.284323
  0
VERTEX
  8
PLAN_1
 62
     5
  6
CONTINUOUS
 10
-1.702756
 20
3.284323
  0
SEQEND
  8
0
  0
POLYLINE
  8
PLAN_1
 62
     5
  6
CONTINUOUS
 66
     1
 40
0.003000
 41
0.003000
  0
VERTEX
  8
PLAN_1
 62
     5
  6
CONTINUOUS
 10
-1.694429
 20
3.284323
  0
VERTEX
  8
PLAN_1
 62
     5
  6
CONTINUOUS
 10
-1.686098
 20
3.284323
  0
SEQEND
  8
0
  0
POLYLINE
  8
PLAN_1
 62
     5
  6
CONTINUOUS
 66
     1
 40
0.003000
 41
0.003000
  0
VERTEX
  8
PLAN_1
 62
     5
  6
CONTINUOUS
 10
-1.677772
 20
3.284323
  0
VERTEX
  8
PLAN_1
 62
     5
  6
CONTINUOUS
 10
-1.669441
 20
3.284323
  0
SEQEND
  8
0
  0
POLYLINE
  8
PLAN_1
 62
     5
  6
CONTINUOUS
 66
     1
 40
0.003000
 41
0.003000
  0
VERTEX
  8
PLAN_1
 62
     5
  6
CONTINUOUS
 10
-1.661114
 20
3.284323
  0
VERTEX
  8
PLAN_1
 62
     5
  6
CONTINUOUS
 10
-1.652783
 20
3.284323
  0
SEQEND
  8
0
  0
POLYLINE
  8
PLAN_1
 62
     5
  6
CONTINUOUS
 66
     1
 40
0.003000
 41
0.003000
  0
VERTEX
  8
PLAN_1
 62
     5
  6
CONTINUOUS
 10
-1.644457
 20
3.284323
  0
VERTEX
  8
PLAN_1
 62
     5
  6
CONTINUOUS
 10
-1.636126
 20
3.284323
  0
SEQEND
  8
0
  0
POLYLINE
  8
PLAN_1
 62
     5
  6
CONTINUOUS
 66
     1
 40
0.003000
 41
0.003000
  0
VERTEX
  8
PLAN_1
 62
     5
  6
CONTINUOUS
 10
-1.627799
 20
3.284323
  0
VERTEX
  8
PLAN_1
 62
     5
  6
CONTINUOUS
 10
-1.619469
 20
3.284323
  0
SEQEND
  8
0
  0
POLYLINE
  8
PLAN_1
 62
     5
  6
CONTINUOUS
 66
     1
 40
0.003000
 41
0.003000
  0
VERTEX
  8
PLAN_1
 62
     5
  6
CONTINUOUS
 10
-1.611142
 20
3.284323
  0
VERTEX
  8
PLAN_1
 62
     5
  6
CONTINUOUS
 10
-1.602815
 20
3.284323
  0
SEQEND
  8
0
  0
POLYLINE
  8
PLAN_1
 62
     5
  6
CONTINUOUS
 66
     1
 40
0.003000
 41
0.003000
  0
VERTEX
  8
PLAN_1
 62
     5
  6
CONTINUOUS
 10
-1.594484
 20
3.284323
  0
VERTEX
  8
PLAN_1
 62
     5
  6
CONTINUOUS
 10
-1.586157
 20
3.284323
  0
SEQEND
  8
0
  0
POLYLINE
  8
PLAN_1
 62
     5
  6
CONTINUOUS
 66
     1
 40
0.003000
 41
0.003000
  0
VERTEX
  8
PLAN_1
 62
     5
  6
CONTINUOUS
 10
-1.577827
 20
3.284323
  0
VERTEX
  8
PLAN_1
 62
     5
  6
CONTINUOUS
 10
-1.569500
 20
3.284323
  0
SEQEND
  8
0
  0
POLYLINE
  8
PLAN_1
 62
     5
  6
CONTINUOUS
 66
     1
 40
0.003000
 41
0.003000
  0
VERTEX
  8
PLAN_1
 62
     5
  6
CONTINUOUS
 10
-1.561169
 20
3.284323
  0
VERTEX
  8
PLAN_1
 62
     5
  6
CONTINUOUS
 10
-1.552843
 20
3.284323
  0
SEQEND
  8
0
  0
POLYLINE
  8
PLAN_1
 62
     5
  6
CONTINUOUS
 66
     1
 40
0.003000
 41
0.003000
  0
VERTEX
  8
PLAN_1
 62
     5
  6
CONTINUOUS
 10
-1.544512
 20
3.284323
  0
VERTEX
  8
PLAN_1
 62
     5
  6
CONTINUOUS
 10
-1.539516
 20
3.284323
  0
VERTEX
  8
PLAN_1
 62
     5
  6
CONTINUOUS
 10
-1.539516
 20
3.287654
  0
SEQEND
  8
0
  0
POLYLINE
  8
PLAN_1
 62
     5
  6
CONTINUOUS
 66
     1
 40
0.003000
 41
0.003000
  0
VERTEX
  8
PLAN_1
 62
     5
  6
CONTINUOUS
 10
-1.539516
 20
3.295984
  0
VERTEX
  8
PLAN_1
 62
     5
  6
CONTINUOUS
 10
-1.539516
 20
3.304311
  0
SEQEND
  8
0
  0
POLYLINE
  8
PLAN_1
 62
     5
  6
CONTINUOUS
 66
     1
 40
0.003000
 41
0.003000
  0
VERTEX
  8
PLAN_1
 62
     5
  6
CONTINUOUS
 10
-1.539516
 20
3.312642
  0
VERTEX
  8
PLAN_1
 62
     5
  6
CONTINUOUS
 10
-1.539516
 20
3.320969
  0
SEQEND
  8
0
  0
POLYLINE
  8
PLAN_1
 62
     5
  6
CONTINUOUS
 66
     1
 40
0.003000
 41
0.003000
  0
VERTEX
  8
PLAN_1
 62
     5
  6
CONTINUOUS
 10
-1.539516
 20
3.329299
  0
VERTEX
  8
PLAN_1
 62
     5
  6
CONTINUOUS
 10
-1.539516
 20
3.337626
  0
SEQEND
  8
0
  0
POLYLINE
  8
PLAN_1
 62
     5
  6
CONTINUOUS
 66
     1
 40
0.003000
 41
0.003000
  0
VERTEX
  8
PLAN_1
 62
     5
  6
CONTINUOUS
 10
-1.539516
 20
3.345953
  0
VERTEX
  8
PLAN_1
 62
     5
  6
CONTINUOUS
 10
-1.539516
 20
3.354283
  0
SEQEND
  8
0
  0
POLYLINE
  8
PLAN_1
 62
     5
  6
CONTINUOUS
 66
     1
 40
0.003000
 41
0.003000
  0
VERTEX
  8
PLAN_1
 62
     5
  6
CONTINUOUS
 10
-1.539516
 20
3.362610
  0
VERTEX
  8
PLAN_1
 62
     5
  6
CONTINUOUS
 10
-1.539516
 20
3.370941
  0
SEQEND
  8
0
  0
POLYLINE
  8
PLAN_1
 62
     5
  6
CONTINUOUS
 66
     1
 40
0.003000
 41
0.003000
  0
VERTEX
  8
PLAN_1
 62
     5
  6
CONTINUOUS
 10
-1.539516
 20
3.379268
  0
VERTEX
  8
PLAN_1
 62
     5
  6
CONTINUOUS
 10
-1.539516
 20
3.387598
  0
SEQEND
  8
0
  0
POLYLINE
  8
PLAN_1
 62
     5
  6
CONTINUOUS
 66
     1
 40
0.003000
 41
0.003000
  0
VERTEX
  8
PLAN_1
 62
     5
  6
CONTINUOUS
 10
-1.539516
 20
3.395925
  0
VERTEX
  8
PLAN_1
 62
     5
  6
CONTINUOUS
 10
-1.539516
 20
3.404256
  0
SEQEND
  8
0
  0
POLYLINE
  8
PLAN_1
 62
     5
  6
CONTINUOUS
 66
     1
 40
0.003000
 41
0.003000
  0
VERTEX
  8
PLAN_1
 62
     5
  6
CONTINUOUS
 10
-1.539516
 20
3.412583
  0
VERTEX
  8
PLAN_1
 62
     5
  6
CONTINUOUS
 10
-1.539516
 20
3.420913
  0
SEQEND
  8
0
  0
POLYLINE
  8
PLAN_1
 62
     5
  6
CONTINUOUS
 66
     1
 40
0.003000
 41
0.003000
  0
VERTEX
  8
PLAN_1
 62
     5
  6
CONTINUOUS
 10
-1.539516
 20
3.429240
  0
VERTEX
  8
PLAN_1
 62
     5
  6
CONTINUOUS
 10
-1.539516
 20
3.437571
  0
SEQEND
  8
0
  0
POLYLINE
  8
PLAN_1
 62
     5
  6
CONTINUOUS
 66
     1
 40
0.003000
 41
0.003000
  0
VERTEX
  8
PLAN_1
 62
     5
  6
CONTINUOUS
 10
-1.539516
 20
3.445898
  0
VERTEX
  8
PLAN_1
 62
     5
  6
CONTINUOUS
 10
-1.539516
 20
3.454228
  0
SEQEND
  8
0
  0
POLYLINE
  8
PLAN_1
 62
     5
  6
CONTINUOUS
 66
     1
 40
0.003000
 41
0.003000
  0
VERTEX
  8
PLAN_1
 62
     5
  6
CONTINUOUS
 10
-1.539516
 20
3.462555
  0
VERTEX
  8
PLAN_1
 62
     5
  6
CONTINUOUS
 10
-1.539516
 20
3.470882
  0
SEQEND
  8
0
  0
POLYLINE
  8
PLAN_1
 62
     5
  6
CONTINUOUS
 66
     1
 40
0.003000
 41
0.003000
  0
VERTEX
  8
PLAN_1
 62
     5
  6
CONTINUOUS
 10
-1.539516
 20
3.479213
  0
VERTEX
  8
PLAN_1
 62
     5
  6
CONTINUOUS
 10
-1.539516
 20
3.480878
  0
VERTEX
  8
PLAN_1
 62
     5
  6
CONTINUOUS
 10
-1.532854
 20
3.480878
  0
SEQEND
  8
0
  0
POLYLINE
  8
PLAN_1
 62
     5
  6
CONTINUOUS
 66
     1
 40
0.003000
 41
0.003000
  0
VERTEX
  8
PLAN_1
 62
     5
  6
CONTINUOUS
 10
-1.524524
 20
3.480878
  0
VERTEX
  8
PLAN_1
 62
     5
  6
CONTINUOUS
 10
-1.516197
 20
3.480878
  0
SEQEND
  8
0
  0
POLYLINE
  8
PLAN_1
 62
     5
  6
CONTINUOUS
 66
     1
 40
0.003000
 41
0.003000
  0
VERTEX
  8
PLAN_1
 62
     5
  6
CONTINUOUS
 10
-1.510642
 20
3.478102
  0
VERTEX
  8
PLAN_1
 62
     5
  6
CONTINUOUS
 10
-1.510642
 20
3.469772
  0
SEQEND
  8
0
  0
POLYLINE
  8
PLAN_1
 62
     5
  6
CONTINUOUS
 66
     1
 40
0.003000
 41
0.003000
  0
VERTEX
  8
PLAN_1
 62
     5
  6
CONTINUOUS
 10
-1.510642
 20
3.461445
  0
VERTEX
  8
PLAN_1
 62
     5
  6
CONTINUOUS
 10
-1.510642
 20
3.453118
  0
SEQEND
  8
0
  0
POLYLINE
  8
PLAN_1
  6
CONTINUOUS
 66
     1
 40
0.008327
 41
0.008327
  0
VERTEX
  8
PLAN_1
  6
CONTINUOUS
 10
-1.703866
 20
3.554724
  0
VERTEX
  8
PLAN_1
  6
CONTINUOUS
 10
-1.703866
 20
3.842894
  0
VERTEX
  8
PLAN_1
  6
CONTINUOUS
 10
-1.772161
 20
3.842894
  0
VERTEX
  8
PLAN_1
  6
CONTINUOUS
 10
-1.772161
 20
3.554724
  0
VERTEX
  8
PLAN_1
  6
CONTINUOUS
 10
-1.703866
 20
3.554724
  0
SEQEND
  8
0
  0
POLYLINE
  8
PLAN_1
  6
CONTINUOUS
 66
     1
 40
0.008327
 41
0.008327
  0
VERTEX
  8
PLAN_1
  6
CONTINUOUS
 10
-1.771606
 20
3.767937
  0
VERTEX
  8
PLAN_1
  6
CONTINUOUS
 10
-1.703866
 20
3.767937
  0
SEQEND
  8
0
  0
POLYLINE
  8
PLAN_1
  6
CONTINUOUS
 66
     1
 40
0.008327
 41
0.008327
  0
VERTEX
  8
PLAN_1
  6
CONTINUOUS
 10
-1.771606
 20
3.630236
  0
VERTEX
  8
PLAN_1
  6
CONTINUOUS
 10
-1.703866
 20
3.630236
  0
SEQEND
  8
0
  0
POLYLINE
  8
PLAN_1
  6
CONTINUOUS
 66
     1
 40
0.008327
 41
0.008327
  0
VERTEX
  8
PLAN_1
  6
CONTINUOUS
 10
-1.763835
 20
3.842339
  0
VERTEX
  8
PLAN_1
  6
CONTINUOUS
 10
-1.764390
 20
3.840673
  0
VERTEX
  8
PLAN_1
  6
CONTINUOUS
 10
-1.766055
 20
3.836232
  0
VERTEX
  8
PLAN_1
  6
CONTINUOUS
 10
-1.768276
 20
3.829016
  0
VERTEX
  8
PLAN_1
  6
CONTINUOUS
 10
-1.770496
 20
3.819575
  0
VERTEX
  8
PLAN_1
  6
CONTINUOUS
 10
-1.771051
 20
3.814024
  0
VERTEX
  8
PLAN_1
  6
CONTINUOUS
 10
-1.771606
 20
3.807913
  0
VERTEX
  8
PLAN_1
  6
CONTINUOUS
 10
-1.771606
 20
3.801807
  0
VERTEX
  8
PLAN_1
  6
CONTINUOUS
 10
-1.771606
 20
3.795701
  0
VERTEX
  8
PLAN_1
  6
CONTINUOUS
 10
-1.770496
 20
3.789035
  0
VERTEX
  8
PLAN_1
  6
CONTINUOUS
 10
-1.768831
 20
3.781819
  0
VERTEX
  8
PLAN_1
  6
CONTINUOUS
 10
-1.766610
 20
3.775157
  0
VERTEX
  8
PLAN_1
  6
CONTINUOUS
 10
-1.763835
 20
3.767937
  0
VERTEX
  8
PLAN_1
  6
CONTINUOUS
 10
-1.764390
 20
3.765161
  0
VERTEX
  8
PLAN_1
  6
CONTINUOUS
 10
-1.766055
 20
3.756835
  0
VERTEX
  8
PLAN_1
  6
CONTINUOUS
 10
-1.768276
 20
3.743508
  0
VERTEX
  8
PLAN_1
  6
CONTINUOUS
 10
-1.770496
 20
3.726295
  0
VERTEX
  8
PLAN_1
  6
CONTINUOUS
 10
-1.771051
 20
3.716299
  0
VERTEX
  8
PLAN_1
  6
CONTINUOUS
 10
-1.771606
 20
3.705752
  0
VERTEX
  8
PLAN_1
  6
CONTINUOUS
 10
-1.771606
 20
3.694091
  0
VERTEX
  8
PLAN_1
  6
CONTINUOUS
 10
-1.771051
 20
3.681874
  0
VERTEX
  8
PLAN_1
  6
CONTINUOUS
 10
-1.769941
 20
3.669661
  0
VERTEX
  8
PLAN_1
  6
CONTINUOUS
 10
-1.768831
 20
3.656335
  0
VERTEX
  8
PLAN_1
  6
CONTINUOUS
 10
-1.766610
 20
3.643008
  0
VERTEX
  8
PLAN_1
  6
CONTINUOUS
 10
-1.763280
 20
3.629126
  0
VERTEX
  8
PLAN_1
  6
CONTINUOUS
 10
-1.763835
 20
3.627461
  0
VERTEX
  8
PLAN_1
  6
CONTINUOUS
 10
-1.766055
 20
3.623020
  0
VERTEX
  8
PLAN_1
  6
CONTINUOUS
 10
-1.768276
 20
3.615248
  0
VERTEX
  8
PLAN_1
  6
CONTINUOUS
 10
-1.769941
 20
3.605807
  0
VERTEX
  8
PLAN_1
  6
CONTINUOUS
 10
-1.771051
 20
3.600256
  0
VERTEX
  8
PLAN_1
  6
CONTINUOUS
 10
-1.771051
 20
3.594701
  0
VERTEX
  8
PLAN_1
  6
CONTINUOUS
 10
-1.771606
 20
3.588594
  0
VERTEX
  8
PLAN_1
  6
CONTINUOUS
 10
-1.771051
 20
3.581933
  0
VERTEX
  8
PLAN_1
  6
CONTINUOUS
 10
-1.769941
 20
3.575268
  0
VERTEX
  8
PLAN_1
  6
CONTINUOUS
 10
-1.768276
 20
3.568606
  0
VERTEX
  8
PLAN_1
  6
CONTINUOUS
 10
-1.766055
 20
3.561390
  0
VERTEX
  8
PLAN_1
  6
CONTINUOUS
 10
-1.763280
 20
3.554724
  0
SEQEND
  8
0
  0
POLYLINE
  8
PLAN_1
  6
CONTINUOUS
 66
     1
 40
0.008327
 41
0.008327
  0
VERTEX
  8
PLAN_1
  6
CONTINUOUS
 10
-1.712197
 20
3.555280
  0
VERTEX
  8
PLAN_1
  6
CONTINUOUS
 10
-1.711642
 20
3.556945
  0
VERTEX
  8
PLAN_1
  6
CONTINUOUS
 10
-1.709417
 20
3.561945
  0
VERTEX
  8
PLAN_1
  6
CONTINUOUS
 10
-1.707197
 20
3.569161
  0
VERTEX
  8
PLAN_1
  6
CONTINUOUS
 10
-1.705531
 20
3.578602
  0
VERTEX
  8
PLAN_1
  6
CONTINUOUS
 10
-1.704421
 20
3.584154
  0
VERTEX
  8
PLAN_1
  6
CONTINUOUS
 10
-1.703866
 20
3.590260
  0
VERTEX
  8
PLAN_1
  6
CONTINUOUS
 10
-1.703866
 20
3.596370
  0
VERTEX
  8
PLAN_1
  6
CONTINUOUS
 10
-1.704421
 20
3.602476
  0
VERTEX
  8
PLAN_1
  6
CONTINUOUS
 10
-1.705531
 20
3.609138
  0
VERTEX
  8
PLAN_1
  6
CONTINUOUS
 10
-1.706642
 20
3.616358
  0
VERTEX
  8
PLAN_1
  6
CONTINUOUS
 10
-1.708862
 20
3.623020
  0
VERTEX
  8
PLAN_1
  6
CONTINUOUS
 10
-1.712197
 20
3.629681
  0
SEQEND
  8
0
  0
POLYLINE
  8
PLAN_1
  6
CONTINUOUS
 66
     1
 40
0.008327
 41
0.008327
  0
VERTEX
  8
PLAN_1
  6
CONTINUOUS
 10
-1.711642
 20
3.767937
  0
VERTEX
  8
PLAN_1
  6
CONTINUOUS
 10
-1.710531
 20
3.769602
  0
VERTEX
  8
PLAN_1
  6
CONTINUOUS
 10
-1.708862
 20
3.774602
  0
VERTEX
  8
PLAN_1
  6
CONTINUOUS
 10
-1.706642
 20
3.781819
  0
VERTEX
  8
PLAN_1
  6
CONTINUOUS
 10
-1.704421
 20
3.791256
  0
VERTEX
  8
PLAN_1
  6
CONTINUOUS
 10
-1.703866
 20
3.796811
  0
VERTEX
  8
PLAN_1
  6
CONTINUOUS
 10
-1.703311
 20
3.802917
  0
VERTEX
  8
PLAN_1
  6
CONTINUOUS
 10
-1.703311
 20
3.809024
  0
VERTEX
  8
PLAN_1
  6
CONTINUOUS
 10
-1.703866
 20
3.815134
  0
VERTEX
  8
PLAN_1
  6
CONTINUOUS
 10
-1.704421
 20
3.821795
  0
VERTEX
  8
PLAN_1
  6
CONTINUOUS
 10
-1.706087
 20
3.829016
  0
VERTEX
  8
PLAN_1
  6
CONTINUOUS
 10
-1.708307
 20
3.835677
  0
VERTEX
  8
PLAN_1
  6
CONTINUOUS
 10
-1.711642
 20
3.842339
  0
SEQEND
  8
0
  0
POLYLINE
  8
PLAN_1
  6
CONTINUOUS
 66
     1
 40
0.008327
 41
0.008327
  0
VERTEX
  8
PLAN_1
  6
CONTINUOUS
 10
-1.711642
 20
3.629681
  0
VERTEX
  8
PLAN_1
  6
CONTINUOUS
 10
-1.711087
 20
3.633016
  0
VERTEX
  8
PLAN_1
  6
CONTINUOUS
 10
-1.708862
 20
3.641343
  0
VERTEX
  8
PLAN_1
  6
CONTINUOUS
 10
-1.707197
 20
3.654669
  0
VERTEX
  8
PLAN_1
  6
CONTINUOUS
 10
-1.704976
 20
3.671882
  0
VERTEX
  8
PLAN_1
  6
CONTINUOUS
 10
-1.704421
 20
3.681874
  0
VERTEX
  8
PLAN_1
  6
CONTINUOUS
 10
-1.703866
 20
3.692425
  0
VERTEX
  8
PLAN_1
  6
CONTINUOUS
 10
-1.703866
 20
3.704087
  0
VERTEX
  8
PLAN_1
  6
CONTINUOUS
 10
-1.704421
 20
3.715744
  0
VERTEX
  8
PLAN_1
  6
CONTINUOUS
 10
-1.704976
 20
3.728516
  0
VERTEX
  8
PLAN_1
  6
CONTINUOUS
 10
-1.706642
 20
3.741843
  0
VERTEX
  8
PLAN_1
  6
CONTINUOUS
 10
-1.708862
 20
3.755165
  0
VERTEX
  8
PLAN_1
  6
CONTINUOUS
 10
-1.712197
 20
3.769047
  0
SEQEND
  8
0
  0
POLYLINE
  8
PLAN_1
  6
CONTINUOUS
 66
     1
 40
0.008327
 41
0.008327
  0
VERTEX
  8
PLAN_1
  6
CONTINUOUS
 10
-1.704421
 20
1.419268
  0
VERTEX
  8
PLAN_1
  6
CONTINUOUS
 10
-1.601701
 20
1.419823
  0
VERTEX
  8
PLAN_1
  6
CONTINUOUS
 10
-1.601701
 20
1.389843
  0
VERTEX
  8
PLAN_1
  6
CONTINUOUS
 10
-1.350732
 20
1.364299
  0
VERTEX
  8
PLAN_1
  6
CONTINUOUS
 10
-1.248571
 20
1.364299
  0
VERTEX
  8
PLAN_1
  6
CONTINUOUS
 10
-1.248571
 20
1.221047
  0
VERTEX
  8
PLAN_1
  6
CONTINUOUS
 10
0.049583
 20
1.221047
  0
VERTEX
  8
PLAN_1
  6
CONTINUOUS
 10
0.049583
 20
2.179394
  0
VERTEX
  8
PLAN_1
  6
CONTINUOUS
 10
-1.350177
 20
2.179394
  0
VERTEX
  8
PLAN_1
  6
CONTINUOUS
 10
-1.601701
 20
2.142193
  0
VERTEX
  8
PLAN_1
  6
CONTINUOUS
 10
-1.601701
 20
2.107768
  0
VERTEX
  8
PLAN_1
  6
CONTINUOUS
 10
-1.704976
 20
2.107768
  0
SEQEND
  8
0
  0
POLYLINE
  8
PLAN_1
  6
CONTINUOUS
 66
     1
 40
0.008327
 41
0.008327
  0
VERTEX
  8
PLAN_1
  6
CONTINUOUS
 10
-1.772717
 20
1.419268
  0
VERTEX
  8
PLAN_1
  6
CONTINUOUS
 10
-1.772161
 20
1.419268
  0
SEQEND
  8
0
  0
POLYLINE
  8
PLAN_1
  6
CONTINUOUS
 66
     1
 40
0.008327
 41
0.008327
  0
VERTEX
  8
PLAN_1
  6
CONTINUOUS
 10
-1.772161
 20
2.107768
  0
VERTEX
  8
PLAN_1
  6
CONTINUOUS
 10
-1.772717
 20
2.107768
  0
SEQEND
  8
0
  0
POLYLINE
  8
PLAN_1
  6
CONTINUOUS
 66
     1
 40
0.008327
 41
0.008327
  0
VERTEX
  8
PLAN_1
  6
CONTINUOUS
 10
-1.840457
 20
2.107768
  0
VERTEX
  8
PLAN_1
  6
CONTINUOUS
 10
-1.915969
 20
2.107768
  0
VERTEX
  8
PLAN_1
  6
CONTINUOUS
 10
-1.915969
 20
1.419268
  0
VERTEX
  8
PLAN_1
  6
CONTINUOUS
 10
-1.840457
 20
1.419268
  0
SEQEND
  8
0
  0
POLYLINE
  8
PLAN_1
  6
CONTINUOUS
 66
     1
 40
0.008327
 41
0.008327
  0
VERTEX
  8
PLAN_1
  6
CONTINUOUS
 10
-1.840457
 20
2.107768
  0
VERTEX
  8
PLAN_1
  6
CONTINUOUS
 10
-1.840457
 20
3.854555
  0
VERTEX
  8
PLAN_1
  6
CONTINUOUS
 10
-1.772717
 20
3.854555
  0
VERTEX
  8
PLAN_1
  6
CONTINUOUS
 10
-1.772717
 20
2.107768
  0
SEQEND
  8
0
  0
POLYLINE
  8
PLAN_1
  6
CONTINUOUS
 66
     1
 40
0.008327
 41
0.008327
  0
VERTEX
  8
PLAN_1
  6
CONTINUOUS
 10
-1.840457
 20
2.107768
  0
VERTEX
  8
PLAN_1
  6
CONTINUOUS
 10
-1.840457
 20
1.419268
  0
SEQEND
  8
0
  0
POLYLINE
  8
PLAN_1
  6
CONTINUOUS
 66
     1
 40
0.008327
 41
0.008327
  0
VERTEX
  8
PLAN_1
  6
CONTINUOUS
 10
-1.840457
 20
1.419268
  0
VERTEX
  8
PLAN_1
  6
CONTINUOUS
 10
-1.840457
 20
0.422610
  0
VERTEX
  8
PLAN_1
  6
CONTINUOUS
 10
-1.772717
 20
0.422610
  0
VERTEX
  8
PLAN_1
  6
CONTINUOUS
 10
-1.772717
 20
1.419268
  0
SEQEND
  8
0
  0
POLYLINE
  8
PLAN_1
  6
CONTINUOUS
 66
     1
 40
0.008327
 41
0.008327
  0
VERTEX
  8
PLAN_1
  6
CONTINUOUS
 10
-1.772717
 20
2.107768
  0
VERTEX
  8
PLAN_1
  6
CONTINUOUS
 10
-1.772717
 20
1.419268
  0
SEQEND
  8
0
  0
POLYLINE
  8
PLAN_1
  6
CONTINUOUS
 66
     1
 40
0.008327
 41
0.008327
  0
VERTEX
  8
PLAN_1
  6
CONTINUOUS
 10
-1.772161
 20
1.419268
  0
VERTEX
  8
PLAN_1
  6
CONTINUOUS
 10
-1.772161
 20
1.348752
  0
VERTEX
  8
PLAN_1
  6
CONTINUOUS
 10
-1.704421
 20
1.348752
  0
VERTEX
  8
PLAN_1
  6
CONTINUOUS
 10
-1.704421
 20
1.419268
  0
SEQEND
  8
0
  0
POLYLINE
  8
PLAN_1
  6
CONTINUOUS
 66
     1
 40
0.008327
 41
0.008327
  0
VERTEX
  8
PLAN_1
  6
CONTINUOUS
 10
-1.704976
 20
2.107768
  0
VERTEX
  8
PLAN_1
  6
CONTINUOUS
 10
-1.704976
 20
2.188835
  0
VERTEX
  8
PLAN_1
  6
CONTINUOUS
 10
-1.772161
 20
2.188835
  0
VERTEX
  8
PLAN_1
  6
CONTINUOUS
 10
-1.772161
 20
2.107768
  0
SEQEND
  8
0
  0
POLYLINE
  8
PLAN_1
  6
CONTINUOUS
 66
     1
 40
0.008327
 41
0.008327
  0
VERTEX
  8
PLAN_1
  6
CONTINUOUS
 10
-1.704976
 20
2.107768
  0
VERTEX
  8
PLAN_1
  6
CONTINUOUS
 10
-1.704421
 20
1.419268
  0
SEQEND
  8
0
  0
POLYLINE
  8
PLAN_1
  6
CONTINUOUS
 66
     1
 40
0.008327
 41
0.008327
  0
VERTEX
  8
PLAN_1
  6
CONTINUOUS
 10
-1.772161
 20
2.107768
  0
VERTEX
  8
PLAN_1
  6
CONTINUOUS
 10
-1.772161
 20
1.419268
  0
SEQEND
  8
0
  0
POLYLINE
  8
PLAN_1
  6
CONTINUOUS
 66
     1
 40
0.008327
 41
0.008327
  0
VERTEX
  8
PLAN_1
  6
CONTINUOUS
 10
-2.175268
 20
2.137197
  0
VERTEX
  8
PLAN_1
  6
CONTINUOUS
 10
-2.175268
 20
2.191610
  0
VERTEX
  8
PLAN_1
  6
CONTINUOUS
 10
-1.843787
 20
2.191610
  0
VERTEX
  8
PLAN_1
  6
CONTINUOUS
 10
-1.843787
 20
2.137197
  0
VERTEX
  8
PLAN_1
  6
CONTINUOUS
 10
-2.175268
 20
2.137197
  0
SEQEND
  8
0
  0
POLYLINE
  8
PLAN_1
  6
CONTINUOUS
 66
     1
 40
0.008327
 41
0.008327
  0
VERTEX
  8
PLAN_1
  6
CONTINUOUS
 10
-1.915969
 20
1.460358
  0
VERTEX
  8
PLAN_1
  6
CONTINUOUS
 10
-1.915969
 20
2.086669
  0
VERTEX
  8
PLAN_1
  6
CONTINUOUS
 10
-1.974268
 20
2.086669
  0
VERTEX
  8
PLAN_1
  6
CONTINUOUS
 10
-1.974268
 20
1.460358
  0
VERTEX
  8
PLAN_1
  6
CONTINUOUS
 10
-1.915969
 20
1.460358
  0
SEQEND
  8
0
  0
POLYLINE
  8
PLAN_1
  6
CONTINUOUS
 66
     1
 40
0.008327
 41
0.008327
  0
VERTEX
  8
PLAN_1
  6
CONTINUOUS
 10
0.053469
 20
-1.785024
  0
VERTEX
  8
PLAN_1
  6
CONTINUOUS
 10
0.053469
 20
1.221047
  0
VERTEX
  8
PLAN_1
  6
CONTINUOUS
 10
-1.558394
 20
1.221047
  0
VERTEX
  8
PLAN_1
  6
CONTINUOUS
 10
-1.558394
 20
-1.785024
  0
VERTEX
  8
PLAN_1
  6
CONTINUOUS
 10
0.053469
 20
-1.785024
  0
SEQEND
  8
0
  0
POLYLINE
  8
PLAN_1
  6
CONTINUOUS
 66
     1
 40
0.008327
 41
0.008327
  0
VERTEX
  8
PLAN_1
  6
CONTINUOUS
 10
-0.943185
 20
1.221047
  0
VERTEX
  8
PLAN_1
  6
CONTINUOUS
 10
-0.943185
 20
1.415937
  0
VERTEX
  8
PLAN_1
  6
CONTINUOUS
 10
-1.248571
 20
1.415937
  0
VERTEX
  8
PLAN_1
  6
CONTINUOUS
 10
-1.248571
 20
1.221047
  0
VERTEX
  8
PLAN_1
  6
CONTINUOUS
 10
-0.943185
 20
1.221047
  0
SEQEND
  8
0
  0
POLYLINE
  8
PLAN_1
  6
CONTINUOUS
 66
     1
 40
0.008327
 41
0.008327
  0
VERTEX
  8
PLAN_1
  6
CONTINUOUS
 10
0.048472
 20
1.221047
  0
VERTEX
  8
PLAN_1
  6
CONTINUOUS
 10
0.048472
 20
1.415937
  0
VERTEX
  8
PLAN_1
  6
CONTINUOUS
 10
-0.259130
 20
1.415937
  0
VERTEX
  8
PLAN_1
  6
CONTINUOUS
 10
-0.259130
 20
1.221047
  0
VERTEX
  8
PLAN_1
  6
CONTINUOUS
 10
0.048472
 20
1.221047
  0
SEQEND
  8
0
  0
POLYLINE
  8
PLAN_1
  6
CONTINUOUS
 66
     1
 40
0.008327
 41
0.008327
  0
VERTEX
  8
PLAN_1
  6
CONTINUOUS
 10
0.071236
 20
0.896232
  0
VERTEX
  8
PLAN_1
  6
CONTINUOUS
 10
0.071236
 20
1.188843
  0
VERTEX
  8
PLAN_1
  6
CONTINUOUS
 10
0.053469
 20
1.188843
  0
VERTEX
  8
PLAN_1
  6
CONTINUOUS
 10
0.053469
 20
0.896232
  0
VERTEX
  8
PLAN_1
  6
CONTINUOUS
 10
0.071236
 20
0.896232
  0
SEQEND
  8
0
  0
POLYLINE
  8
PLAN_1
  6
CONTINUOUS
 66
     1
 40
0.008327
 41
0.008327
  0
VERTEX
  8
PLAN_1
  6
CONTINUOUS
 10
0.071236
 20
-1.756709
  0
VERTEX
  8
PLAN_1
  6
CONTINUOUS
 10
0.071236
 20
-1.464094
  0
VERTEX
  8
PLAN_1
  6
CONTINUOUS
 10
0.053469
 20
-1.464094
  0
VERTEX
  8
PLAN_1
  6
CONTINUOUS
 10
0.053469
 20
-1.756709
  0
VERTEX
  8
PLAN_1
  6
CONTINUOUS
 10
0.071236
 20
-1.756709
  0
SEQEND
  8
0
  0
POLYLINE
  8
PLAN_1
  6
CONTINUOUS
 66
     1
 40
0.008327
 41
0.008327
  0
VERTEX
  8
PLAN_1
  6
CONTINUOUS
 10
-1.485102
 20
1.221047
  0
VERTEX
  8
PLAN_1
  6
CONTINUOUS
 10
-1.485102
 20
-1.785024
  0
SEQEND
  8
0
  0
POLYLINE
  8
PLAN_1
  6
CONTINUOUS
 66
     1
 40
0.008327
 41
0.008327
  0
VERTEX
  8
PLAN_1
  6
CONTINUOUS
 10
-1.404591
 20
1.221047
  0
VERTEX
  8
PLAN_1
  6
CONTINUOUS
 10
-1.404591
 20
-1.785024
  0
SEQEND
  8
0
  0
POLYLINE
  8
PLAN_1
  6
CONTINUOUS
 66
     1
 40
0.008327
 41
0.008327
  0
VERTEX
  8
PLAN_1
  6
CONTINUOUS
 10
-1.404591
 20
0.654146
  0
VERTEX
  8
PLAN_1
  6
CONTINUOUS
 10
-1.248571
 20
0.654146
  0
VERTEX
  8
PLAN_1
  6
CONTINUOUS
 10
-1.248571
 20
1.221047
  0
SEQEND
  8
0
  0
POLYLINE
  8
PLAN_1
  6
CONTINUOUS
 66
     1
 40
0.008327
 41
0.008327
  0
VERTEX
  8
PLAN_1
  6
CONTINUOUS
 10
-1.400705
 20
-1.251441
  0
VERTEX
  8
PLAN_1
  6
CONTINUOUS
 10
-1.246906
 20
-1.251441
  0
VERTEX
  8
PLAN_1
  6
CONTINUOUS
 10
-1.246906
 20
-1.786138
  0
SEQEND
  8
0
  0
POLYLINE
  8
PLAN_1
  6
CONTINUOUS
 66
     1
 40
0.008327
 41
0.008327
  0
VERTEX
  8
PLAN_1
  6
CONTINUOUS
 10
-1.558394
 20
-1.700630
  0
VERTEX
  8
PLAN_1
  6
CONTINUOUS
 10
-1.558394
 20
-1.451882
  0
VERTEX
  8
PLAN_1
  6
CONTINUOUS
 10
-1.653894
 20
-1.451882
  0
VERTEX
  8
PLAN_1
  6
CONTINUOUS
 10
-1.653894
 20
-1.700630
  0
VERTEX
  8
PLAN_1
  6
CONTINUOUS
 10
-1.558394
 20
-1.700630
  0
SEQEND
  8
0
  0
POLYLINE
  8
PLAN_1
  6
CONTINUOUS
 66
     1
 40
0.008327
 41
0.008327
  0
VERTEX
  8
PLAN_1
  6
CONTINUOUS
 10
-1.602256
 20
-1.678976
  0
VERTEX
  8
PLAN_1
  6
CONTINUOUS
 10
-1.602256
 20
-1.656764
  0
VERTEX
  8
PLAN_1
  6
CONTINUOUS
 10
-1.653894
 20
-1.656764
  0
VERTEX
  8
PLAN_1
  6
CONTINUOUS
 10
-1.653894
 20
-1.678976
  0
VERTEX
  8
PLAN_1
  6
CONTINUOUS
 10
-1.602256
 20
-1.678976
  0
SEQEND
  8
0
  0
POLYLINE
  8
PLAN_1
  6
CONTINUOUS
 66
     1
 40
0.008327
 41
0.008327
  0
VERTEX
  8
PLAN_1
  6
CONTINUOUS
 10
-1.558394
 20
1.139429
  0
VERTEX
  8
PLAN_1
  6
CONTINUOUS
 10
-1.558394
 20
0.890681
  0
VERTEX
  8
PLAN_1
  6
CONTINUOUS
 10
-1.653894
 20
0.890681
  0
VERTEX
  8
PLAN_1
  6
CONTINUOUS
 10
-1.653894
 20
1.139429
  0
VERTEX
  8
PLAN_1
  6
CONTINUOUS
 10
-1.558394
 20
1.139429
  0
SEQEND
  8
0
  0
POLYLINE
  8
PLAN_1
  6
CONTINUOUS
 66
     1
 40
0.008327
 41
0.008327
  0
VERTEX
  8
PLAN_1
  6
CONTINUOUS
 10
-1.602256
 20
1.117772
  0
VERTEX
  8
PLAN_1
  6
CONTINUOUS
 10
-1.602256
 20
1.095563
  0
VERTEX
  8
PLAN_1
  6
CONTINUOUS
 10
-1.653894
 20
1.095563
  0
VERTEX
  8
PLAN_1
  6
CONTINUOUS
 10
-1.653894
 20
1.117772
  0
VERTEX
  8
PLAN_1
  6
CONTINUOUS
 10
-1.602256
 20
1.117772
  0
SEQEND
  8
0
  0
POLYLINE
  8
PLAN_1
  6
CONTINUOUS
 66
     1
 40
0.008327
 41
0.008327
  0
VERTEX
  8
PLAN_1
  6
CONTINUOUS
 10
-0.104217
 20
-1.863870
  0
VERTEX
  8
PLAN_1
  6
CONTINUOUS
 10
-0.104217
 20
-1.785024
  0
VERTEX
  8
PLAN_1
  6
CONTINUOUS
 10
-0.969283
 20
-1.785024
  0
VERTEX
  8
PLAN_1
  6
CONTINUOUS
 10
-0.969283
 20
-1.863870
  0
VERTEX
  8
PLAN_1
  6
CONTINUOUS
 10
-0.104217
 20
-1.863870
  0
SEQEND
  8
0
  0
POLYLINE
  8
PLAN_1
  6
CONTINUOUS
 66
     1
 40
0.008327
 41
0.008327
  0
VERTEX
  8
PLAN_1
  6
CONTINUOUS
 10
-0.954291
 20
-1.785024
  0
VERTEX
  8
PLAN_1
  6
CONTINUOUS
 10
-0.954291
 20
-1.863870
  0
SEQEND
  8
0
  0
POLYLINE
  8
PLAN_1
  6
CONTINUOUS
 66
     1
 40
0.008327
 41
0.008327
  0
VERTEX
  8
PLAN_1
  6
CONTINUOUS
 10
-0.694441
 20
-2.256980
  0
VERTEX
  8
PLAN_1
  6
CONTINUOUS
 10
-0.379063
 20
-2.256980
  0
VERTEX
  8
PLAN_1
  6
CONTINUOUS
 10
-0.340197
 20
-2.217559
  0
VERTEX
  8
PLAN_1
  6
CONTINUOUS
 10
-0.340197
 20
-1.863870
  0
VERTEX
  8
PLAN_1
  6
CONTINUOUS
 10
-0.733862
 20
-1.863870
  0
VERTEX
  8
PLAN_1
  6
CONTINUOUS
 10
-0.733862
 20
-2.217559
  0
VERTEX
  8
PLAN_1
  6
CONTINUOUS
 10
-0.694441
 20
-2.256980
  0
SEQEND
  8
0
  0
POLYLINE
  8
PLAN_1
  6
CONTINUOUS
 66
     1
 40
0.004441
 41
0.004441
  0
VERTEX
  8
PLAN_1
  6
CONTINUOUS
 10
-0.694441
 20
-1.863870
  0
VERTEX
  8
PLAN_1
  6
CONTINUOUS
 10
-0.694441
 20
-2.256980
  0
SEQEND
  8
0
  0
POLYLINE
  8
PLAN_1
  6
CONTINUOUS
 66
     1
 40
0.004441
 41
0.004441
  0
VERTEX
  8
PLAN_1
  6
CONTINUOUS
 10
-0.379618
 20
-1.863870
  0
VERTEX
  8
PLAN_1
  6
CONTINUOUS
 10
-0.379618
 20
-2.256980
  0
SEQEND
  8
0
  0
POLYLINE
  8
PLAN_1
  6
CONTINUOUS
 66
     1
 40
0.008327
 41
0.008327
  0
VERTEX
  8
PLAN_1
  6
CONTINUOUS
 10
-0.340197
 20
-2.217559
  0
VERTEX
  8
PLAN_1
  6
CONTINUOUS
 10
-0.733862
 20
-2.217559
  0
SEQEND
  8
0
  0
POLYLINE
  8
PLAN_1
  6
CONTINUOUS
 66
     1
 40
0.008327
 41
0.008327
  0
VERTEX
  8
PLAN_1
  6
CONTINUOUS
 10
-0.120874
 20
-1.785024
  0
VERTEX
  8
PLAN_1
  6
CONTINUOUS
 10
-0.120874
 20
-1.863870
  0
SEQEND
  8
0
  0
POLYLINE
  8
PLAN_1
  6
CONTINUOUS
 66
     1
 40
0.008327
 41
0.008327
  0
VERTEX
  8
PLAN_1
  6
CONTINUOUS
 10
-0.605047
 20
-1.785024
  0
VERTEX
  8
PLAN_1
  6
CONTINUOUS
 10
-0.605047
 20
-1.863870
  0
SEQEND
  8
0
  0
POLYLINE
  8
PLAN_1
  6
CONTINUOUS
 66
     1
 40
0.008327
 41
0.008327
  0
VERTEX
  8
PLAN_1
  6
CONTINUOUS
 10
-0.469567
 20
-1.785024
  0
VERTEX
  8
PLAN_1
  6
CONTINUOUS
 10
-0.469567
 20
-1.863870
  0
SEQEND
  8
0
  0
POLYLINE
  8
PLAN_1
 62
     2
  6
CONTINUOUS
 66
     1
 40
0.004441
 41
0.004441
  0
VERTEX
  8
PLAN_1
 62
     2
  6
CONTINUOUS
 10
0.073461
 20
-2.318610
  0
VERTEX
  8
PLAN_1
 62
     2
  6
CONTINUOUS
 10
0.073461
 20
-2.591791
  0
SEQEND
  8
0
  0
POLYLINE
  8
PLAN_1
 62
     2
  6
CONTINUOUS
 66
     1
 40
0.004441
 41
0.004441
  0
VERTEX
  8
PLAN_1
 62
     2
  6
CONTINUOUS
 10
-1.246906
 20
-1.808902
  0
VERTEX
  8
PLAN_1
 62
     2
  6
CONTINUOUS
 10
-1.246906
 20
-2.434102
  0
SEQEND
  8
0
  0
POLYLINE
  8
PLAN_1
 62
     2
  6
CONTINUOUS
 66
     1
 40
0.004441
 41
0.004441
  0
VERTEX
  8
PLAN_1
 62
     2
  6
CONTINUOUS
 10
-1.217476
 20
-2.410783
  0
VERTEX
  8
PLAN_1
 62
     2
  6
CONTINUOUS
 10
0.044031
 20
-2.410783
  0
SEQEND
  8
0
  0
SOLID
  8
PLAN_1
 62
     2
 10
0.073461
 20
-2.410783
 11
0.014602
 21
-2.394681
 12
0.073461
 22
-2.410783
 13
0.014602
 23
-2.426327
  0
POLYLINE
  8
PLAN_1
 62
     2
  6
CONTINUOUS
 66
     1
 40
0.003000
 41
0.003000
  0
VERTEX
  8
PLAN_1
 62
     2
  6
CONTINUOUS
 10
0.073461
 20
-2.410783
  0
VERTEX
  8
PLAN_1
 62
     2
  6
CONTINUOUS
 10
0.014602
 20
-2.394681
  0
VERTEX
  8
PLAN_1
 62
     2
  6
CONTINUOUS
 10
0.014602
 20
-2.426327
  0
VERTEX
  8
PLAN_1
 62
     2
  6
CONTINUOUS
 10
0.073461
 20
-2.410783
  0
SEQEND
  8
0
  0
SOLID
  8
PLAN_1
 62
     2
 10
-1.246906
 20
-2.410783
 11
-1.188047
 21
-2.394681
 12
-1.246906
 22
-2.410783
 13
-1.188047
 23
-2.426327
  0
POLYLINE
  8
PLAN_1
 62
     2
  6
CONTINUOUS
 66
     1
 40
0.003000
 41
0.003000
  0
VERTEX
  8
PLAN_1
 62
     2
  6
CONTINUOUS
 10
-1.246906
 20
-2.410783
  0
VERTEX
  8
PLAN_1
 62
     2
  6
CONTINUOUS
 10
-1.188047
 20
-2.394681
  0
VERTEX
  8
PLAN_1
 62
     2
  6
CONTINUOUS
 10
-1.188047
 20
-2.426327
  0
VERTEX
  8
PLAN_1
 62
     2
  6
CONTINUOUS
 10
-1.246906
 20
-2.410783
  0
SEQEND
  8
0
  0
POLYLINE
  8
PLAN_1
 62
     2
  6
CONTINUOUS
 66
     1
 40
0.003000
 41
0.003000
  0
VERTEX
  8
PLAN_1
 62
     2
  6
CONTINUOUS
 10
-0.713874
 20
-2.345264
  0
VERTEX
  8
PLAN_1
 62
     2
  6
CONTINUOUS
 10
-0.713319
 20
-2.345264
  0
VERTEX
  8
PLAN_1
 62
     2
  6
CONTINUOUS
 10
-0.712764
 20
-2.345264
  0
VERTEX
  8
PLAN_1
 62
     2
  6
CONTINUOUS
 10
-0.712209
 20
-2.345264
  0
VERTEX
  8
PLAN_1
 62
     2
  6
CONTINUOUS
 10
-0.711650
 20
-2.345819
  0
VERTEX
  8
PLAN_1
 62
     2
  6
CONTINUOUS
 10
-0.711094
 20
-2.345819
  0
VERTEX
  8
PLAN_1
 62
     2
  6
CONTINUOUS
 10
-0.709984
 20
-2.345819
  0
VERTEX
  8
PLAN_1
 62
     2
  6
CONTINUOUS
 10
-0.709429
 20
-2.345819
  0
VERTEX
  8
PLAN_1
 62
     2
  6
CONTINUOUS
 10
-0.708874
 20
-2.345819
  0
VERTEX
  8
PLAN_1
 62
     2
  6
CONTINUOUS
 10
-0.706654
 20
-2.345264
  0
VERTEX
  8
PLAN_1
 62
     2
  6
CONTINUOUS
 10
-0.703878
 20
-2.345264
  0
VERTEX
  8
PLAN_1
 62
     2
  6
CONTINUOUS
 10
-0.701657
 20
-2.344154
  0
VERTEX
  8
PLAN_1
 62
     2
  6
CONTINUOUS
 10
-0.699437
 20
-2.343043
  0
VERTEX
  8
PLAN_1
 62
     2
  6
CONTINUOUS
 10
-0.697772
 20
-2.341378
  0
VERTEX
  8
PLAN_1
 62
     2
  6
CONTINUOUS
 10
-0.696106
 20
-2.339157
  0
VERTEX
  8
PLAN_1
 62
     2
  6
CONTINUOUS
 10
-0.695551
 20
-2.336933
  0
VERTEX
  8
PLAN_1
 62
     2
  6
CONTINUOUS
 10
-0.694996
 20
-2.333602
  0
VERTEX
  8
PLAN_1
 62
     2
  6
CONTINUOUS
 10
-0.694996
 20
-2.331937
  0
VERTEX
  8
PLAN_1
 62
     2
  6
CONTINUOUS
 10
-0.695551
 20
-2.330272
  0
VERTEX
  8
PLAN_1
 62
     2
  6
CONTINUOUS
 10
-0.696661
 20
-2.328051
  0
VERTEX
  8
PLAN_1
 62
     2
  6
CONTINUOUS
 10
-0.697772
 20
-2.326386
  0
VERTEX
  8
PLAN_1
 62
     2
  6
CONTINUOUS
 10
-0.699437
 20
-2.324720
  0
VERTEX
  8
PLAN_1
 62
     2
  6
CONTINUOUS
 10
-0.701657
 20
-2.323055
  0
VERTEX
  8
PLAN_1
 62
     2
  6
CONTINUOUS
 10
-0.704988
 20
-2.322500
  0
VERTEX
  8
PLAN_1
 62
     2
  6
CONTINUOUS
 10
-0.708874
 20
-2.321945
  0
VERTEX
  8
PLAN_1
 62
     2
  6
CONTINUOUS
 10
-0.712764
 20
-2.322500
  0
VERTEX
  8
PLAN_1
 62
     2
  6
CONTINUOUS
 10
-0.716094
 20
-2.323610
  0
VERTEX
  8
PLAN_1
 62
     2
  6
CONTINUOUS
 10
-0.718870
 20
-2.325831
  0
VERTEX
  8
PLAN_1
 62
     2
  6
CONTINUOUS
 10
-0.720535
 20
-2.328051
  0
VERTEX
  8
PLAN_1
 62
     2
  6
CONTINUOUS
 10
-0.721646
 20
-2.330827
  0
VERTEX
  8
PLAN_1
 62
     2
  6
CONTINUOUS
 10
-0.722201
 20
-2.333047
  0
VERTEX
  8
PLAN_1
 62
     2
  6
CONTINUOUS
 10
-0.722756
 20
-2.335823
  0
VERTEX
  8
PLAN_1
 62
     2
  6
CONTINUOUS
 10
-0.722756
 20
-2.338047
  0
VERTEX
  8
PLAN_1
 62
     2
  6
CONTINUOUS
 10
-0.731642
 20
-2.338047
  0
VERTEX
  8
PLAN_1
 62
     2
  6
CONTINUOUS
 10
-0.731642
 20
-2.333602
  0
VERTEX
  8
PLAN_1
 62
     2
  6
CONTINUOUS
 10
-0.731087
 20
-2.329717
  0
VERTEX
  8
PLAN_1
 62
     2
  6
CONTINUOUS
 10
-0.729417
 20
-2.325276
  0
VERTEX
  8
PLAN_1
 62
     2
  6
CONTINUOUS
 10
-0.727197
 20
-2.321945
  0
VERTEX
  8
PLAN_1
 62
     2
  6
CONTINUOUS
 10
-0.726087
 20
-2.320280
  0
VERTEX
  8
PLAN_1
 62
     2
  6
CONTINUOUS
 10
-0.724421
 20
-2.318610
  0
VERTEX
  8
PLAN_1
 62
     2
  6
CONTINUOUS
 10
-0.722201
 20
-2.317500
  0
VERTEX
  8
PLAN_1
 62
     2
  6
CONTINUOUS
 10
-0.719980
 20
-2.316390
  0
VERTEX
  8
PLAN_1
 62
     2
  6
CONTINUOUS
 10
-0.717760
 20
-2.315280
  0
VERTEX
  8
PLAN_1
 62
     2
  6
CONTINUOUS
 10
-0.714984
 20
-2.314724
  0
VERTEX
  8
PLAN_1
 62
     2
  6
CONTINUOUS
 10
-0.711650
 20
-2.314169
  0
VERTEX
  8
PLAN_1
 62
     2
  6
CONTINUOUS
 10
-0.708319
 20
-2.314169
  0
VERTEX
  8
PLAN_1
 62
     2
  6
CONTINUOUS
 10
-0.703323
 20
-2.314169
  0
VERTEX
  8
PLAN_1
 62
     2
  6
CONTINUOUS
 10
-0.698882
 20
-2.315280
  0
VERTEX
  8
PLAN_1
 62
     2
  6
CONTINUOUS
 10
-0.694996
 20
-2.316945
  0
VERTEX
  8
PLAN_1
 62
     2
  6
CONTINUOUS
 10
-0.691661
 20
-2.319165
  0
VERTEX
  8
PLAN_1
 62
     2
  6
CONTINUOUS
 10
-0.688886
 20
-2.321945
  0
VERTEX
  8
PLAN_1
 62
     2
  6
CONTINUOUS
 10
-0.687220
 20
-2.325276
  0
VERTEX
  8
PLAN_1
 62
     2
  6
CONTINUOUS
 10
-0.686110
 20
-2.329161
  0
VERTEX
  8
PLAN_1
 62
     2
  6
CONTINUOUS
 10
-0.685555
 20
-2.333047
  0
VERTEX
  8
PLAN_1
 62
     2
  6
CONTINUOUS
 10
-0.686110
 20
-2.336378
  0
VERTEX
  8
PLAN_1
 62
     2
  6
CONTINUOUS
 10
-0.686665
 20
-2.339157
  0
VERTEX
  8
PLAN_1
 62
     2
  6
CONTINUOUS
 10
-0.687776
 20
-2.341933
  0
VERTEX
  8
PLAN_1
 62
     2
  6
CONTINUOUS
 10
-0.688886
 20
-2.343598
  0
VERTEX
  8
PLAN_1
 62
     2
  6
CONTINUOUS
 10
-0.690551
 20
-2.345264
  0
VERTEX
  8
PLAN_1
 62
     2
  6
CONTINUOUS
 10
-0.691661
 20
-2.346929
  0
VERTEX
  8
PLAN_1
 62
     2
  6
CONTINUOUS
 10
-0.693327
 20
-2.347484
  0
VERTEX
  8
PLAN_1
 62
     2
  6
CONTINUOUS
 10
-0.694996
 20
-2.348039
  0
VERTEX
  8
PLAN_1
 62
     2
  6
CONTINUOUS
 10
-0.694996
 20
-2.348594
  0
VERTEX
  8
PLAN_1
 62
     2
  6
CONTINUOUS
 10
-0.692217
 20
-2.349150
  0
VERTEX
  8
PLAN_1
 62
     2
  6
CONTINUOUS
 10
-0.689996
 20
-2.350815
  0
VERTEX
  8
PLAN_1
 62
     2
  6
CONTINUOUS
 10
-0.687776
 20
-2.352480
  0
VERTEX
  8
PLAN_1
 62
     2
  6
CONTINUOUS
 10
-0.686110
 20
-2.354146
  0
VERTEX
  8
PLAN_1
 62
     2
  6
CONTINUOUS
 10
-0.685000
 20
-2.356370
  0
VERTEX
  8
PLAN_1
 62
     2
  6
CONTINUOUS
 10
-0.683890
 20
-2.359146
  0
VERTEX
  8
PLAN_1
 62
     2
  6
CONTINUOUS
 10
-0.683335
 20
-2.361921
  0
VERTEX
  8
PLAN_1
 62
     2
  6
CONTINUOUS
 10
-0.682780
 20
-2.365252
  0
VERTEX
  8
PLAN_1
 62
     2
  6
CONTINUOUS
 10
-0.683335
 20
-2.369693
  0
VERTEX
  8
PLAN_1
 62
     2
  6
CONTINUOUS
 10
-0.684445
 20
-2.374138
  0
VERTEX
  8
PLAN_1
 62
     2
  6
CONTINUOUS
 10
-0.686110
 20
-2.378024
  0
VERTEX
  8
PLAN_1
 62
     2
  6
CONTINUOUS
 10
-0.688886
 20
-2.381909
  0
VERTEX
  8
PLAN_1
 62
     2
  6
CONTINUOUS
 10
-0.692772
 20
-2.384685
  0
VERTEX
  8
PLAN_1
 62
     2
  6
CONTINUOUS
 10
-0.697217
 20
-2.386906
  0
VERTEX
  8
PLAN_1
 62
     2
  6
CONTINUOUS
 10
-0.702768
 20
-2.388571
  0
VERTEX
  8
PLAN_1
 62
     2
  6
CONTINUOUS
 10
-0.709429
 20
-2.389126
  0
VERTEX
  8
PLAN_1
 62
     2
  6
CONTINUOUS
 10
-0.711094
 20
-2.389126
  0
VERTEX
  8
PLAN_1
 62
     2
  6
CONTINUOUS
 10
-0.713319
 20
-2.388571
  0
VERTEX
  8
PLAN_1
 62
     2
  6
CONTINUOUS
 10
-0.714984
 20
-2.388571
  0
VERTEX
  8
PLAN_1
 62
     2
  6
CONTINUOUS
 10
-0.716650
 20
-2.388016
  0
VERTEX
  8
PLAN_1
 62
     2
  6
CONTINUOUS
 10
-0.718315
 20
-2.387461
  0
VERTEX
  8
PLAN_1
 62
     2
  6
CONTINUOUS
 10
-0.719980
 20
-2.386906
  0
VERTEX
  8
PLAN_1
 62
     2
  6
CONTINUOUS
 10
-0.721091
 20
-2.386350
  0
VERTEX
  8
PLAN_1
 62
     2
  6
CONTINUOUS
 10
-0.722756
 20
-2.385795
  0
VERTEX
  8
PLAN_1
 62
     2
  6
CONTINUOUS
 10
-0.725531
 20
-2.384130
  0
VERTEX
  8
PLAN_1
 62
     2
  6
CONTINUOUS
 10
-0.727752
 20
-2.381909
  0
VERTEX
  8
PLAN_1
 62
     2
  6
CONTINUOUS
 10
-0.729417
 20
-2.379689
  0
VERTEX
  8
PLAN_1
 62
     2
  6
CONTINUOUS
 10
-0.731087
 20
-2.376913
  0
VERTEX
  8
PLAN_1
 62
     2
  6
CONTINUOUS
 10
-0.732197
 20
-2.374138
  0
VERTEX
  8
PLAN_1
 62
     2
  6
CONTINUOUS
 10
-0.732752
 20
-2.370803
  0
VERTEX
  8
PLAN_1
 62
     2
  6
CONTINUOUS
 10
-0.733307
 20
-2.368028
  0
VERTEX
  8
PLAN_1
 62
     2
  6
CONTINUOUS
 10
-0.733862
 20
-2.364697
  0
VERTEX
  8
PLAN_1
 62
     2
  6
CONTINUOUS
 10
-0.723866
 20
-2.364697
  0
VERTEX
  8
PLAN_1
 62
     2
  6
CONTINUOUS
 10
-0.723866
 20
-2.367472
  0
VERTEX
  8
PLAN_1
 62
     2
  6
CONTINUOUS
 10
-0.723311
 20
-2.370248
  0
VERTEX
  8
PLAN_1
 62
     2
  6
CONTINUOUS
 10
-0.722756
 20
-2.373024
  0
VERTEX
  8
PLAN_1
 62
     2
  6
CONTINUOUS
 10
-0.721091
 20
-2.375248
  0
VERTEX
  8
PLAN_1
 62
     2
  6
CONTINUOUS
 10
-0.719425
 20
-2.377469
  0
VERTEX
  8
PLAN_1
 62
     2
  6
CONTINUOUS
 10
-0.716650
 20
-2.379134
  0
VERTEX
  8
PLAN_1
 62
     2
  6
CONTINUOUS
 10
-0.713319
 20
-2.380244
  0
VERTEX
  8
PLAN_1
 62
     2
  6
CONTINUOUS
 10
-0.708319
 20
-2.380799
  0
VERTEX
  8
PLAN_1
 62
     2
  6
CONTINUOUS
 10
-0.704988
 20
-2.380799
  0
VERTEX
  8
PLAN_1
 62
     2
  6
CONTINUOUS
 10
-0.702213
 20
-2.379689
  0
VERTEX
  8
PLAN_1
 62
     2
  6
CONTINUOUS
 10
-0.699437
 20
-2.378579
  0
VERTEX
  8
PLAN_1
 62
     2
  6
CONTINUOUS
 10
-0.697217
 20
-2.376913
  0
VERTEX
  8
PLAN_1
 62
     2
  6
CONTINUOUS
 10
-0.694996
 20
-2.374693
  0
VERTEX
  8
PLAN_1
 62
     2
  6
CONTINUOUS
 10
-0.693882
 20
-2.372469
  0
VERTEX
  8
PLAN_1
 62
     2
  6
CONTINUOUS
 10
-0.692772
 20
-2.369693
  0
VERTEX
  8
PLAN_1
 62
     2
  6
CONTINUOUS
 10
-0.692772
 20
-2.366917
  0
VERTEX
  8
PLAN_1
 62
     2
  6
CONTINUOUS
 10
-0.693327
 20
-2.362476
  0
VERTEX
  8
PLAN_1
 62
     2
  6
CONTINUOUS
 10
-0.694441
 20
-2.359146
  0
VERTEX
  8
PLAN_1
 62
     2
  6
CONTINUOUS
 10
-0.696106
 20
-2.356925
  0
VERTEX
  8
PLAN_1
 62
     2
  6
CONTINUOUS
 10
-0.698882
 20
-2.355256
  0
VERTEX
  8
PLAN_1
 62
     2
  6
CONTINUOUS
 10
-0.701657
 20
-2.354146
  0
VERTEX
  8
PLAN_1
 62
     2
  6
CONTINUOUS
 10
-0.704433
 20
-2.353591
  0
VERTEX
  8
PLAN_1
 62
     2
  6
CONTINUOUS
 10
-0.707209
 20
-2.353035
  0
VERTEX
  8
PLAN_1
 62
     2
  6
CONTINUOUS
 10
-0.709429
 20
-2.353035
  0
VERTEX
  8
PLAN_1
 62
     2
  6
CONTINUOUS
 10
-0.709984
 20
-2.353035
  0
VERTEX
  8
PLAN_1
 62
     2
  6
CONTINUOUS
 10
-0.710539
 20
-2.353035
  0
VERTEX
  8
PLAN_1
 62
     2
  6
CONTINUOUS
 10
-0.711094
 20
-2.353035
  0
VERTEX
  8
PLAN_1
 62
     2
  6
CONTINUOUS
 10
-0.711650
 20
-2.353035
  0
VERTEX
  8
PLAN_1
 62
     2
  6
CONTINUOUS
 10
-0.712209
 20
-2.353035
  0
VERTEX
  8
PLAN_1
 62
     2
  6
CONTINUOUS
 10
-0.712764
 20
-2.353035
  0
VERTEX
  8
PLAN_1
 62
     2
  6
CONTINUOUS
 10
-0.713319
 20
-2.353591
  0
VERTEX
  8
PLAN_1
 62
     2
  6
CONTINUOUS
 10
-0.713874
 20
-2.353591
  0
VERTEX
  8
PLAN_1
 62
     2
  6
CONTINUOUS
 10
-0.713874
 20
-2.345264
  0
SEQEND
  8
0
  0
POLYLINE
  8
PLAN_1
 62
     2
  6
CONTINUOUS
 66
     1
 40
0.003000
 41
0.003000
  0
VERTEX
  8
PLAN_1
 62
     2
  6
CONTINUOUS
 10
-0.656126
 20
-2.345264
  0
VERTEX
  8
PLAN_1
 62
     2
  6
CONTINUOUS
 10
-0.655571
 20
-2.345264
  0
VERTEX
  8
PLAN_1
 62
     2
  6
CONTINUOUS
 10
-0.655016
 20
-2.345264
  0
VERTEX
  8
PLAN_1
 62
     2
  6
CONTINUOUS
 10
-0.653906
 20
-2.345264
  0
VERTEX
  8
PLAN_1
 62
     2
  6
CONTINUOUS
 10
-0.653350
 20
-2.345819
  0
VERTEX
  8
PLAN_1
 62
     2
  6
CONTINUOUS
 10
-0.652795
 20
-2.345819
  0
VERTEX
  8
PLAN_1
 62
     2
  6
CONTINUOUS
 10
-0.652240
 20
-2.345819
  0
VERTEX
  8
PLAN_1
 62
     2
  6
CONTINUOUS
 10
-0.651685
 20
-2.345819
  0
VERTEX
  8
PLAN_1
 62
     2
  6
CONTINUOUS
 10
-0.651130
 20
-2.345819
  0
VERTEX
  8
PLAN_1
 62
     2
  6
CONTINUOUS
 10
-0.648354
 20
-2.345264
  0
VERTEX
  8
PLAN_1
 62
     2
  6
CONTINUOUS
 10
-0.646134
 20
-2.345264
  0
VERTEX
  8
PLAN_1
 62
     2
  6
CONTINUOUS
 10
-0.643913
 20
-2.344154
  0
VERTEX
  8
PLAN_1
 62
     2
  6
CONTINUOUS
 10
-0.641693
 20
-2.343043
  0
VERTEX
  8
PLAN_1
 62
     2
  6
CONTINUOUS
 10
-0.640024
 20
-2.341378
  0
VERTEX
  8
PLAN_1
 62
     2
  6
CONTINUOUS
 10
-0.638358
 20
-2.339157
  0
VERTEX
  8
PLAN_1
 62
     2
  6
CONTINUOUS
 10
-0.637803
 20
-2.336933
  0
VERTEX
  8
PLAN_1
 62
     2
  6
CONTINUOUS
 10
-0.637248
 20
-2.333602
  0
VERTEX
  8
PLAN_1
 62
     2
  6
CONTINUOUS
 10
-0.637248
 20
-2.331937
  0
VERTEX
  8
PLAN_1
 62
     2
  6
CONTINUOUS
 10
-0.637803
 20
-2.330272
  0
VERTEX
  8
PLAN_1
 62
     2
  6
CONTINUOUS
 10
-0.638358
 20
-2.328051
  0
VERTEX
  8
PLAN_1
 62
     2
  6
CONTINUOUS
 10
-0.640024
 20
-2.326386
  0
VERTEX
  8
PLAN_1
 62
     2
  6
CONTINUOUS
 10
-0.641693
 20
-2.324720
  0
VERTEX
  8
PLAN_1
 62
     2
  6
CONTINUOUS
 10
-0.643913
 20
-2.323055
  0
VERTEX
  8
PLAN_1
 62
     2
  6
CONTINUOUS
 10
-0.647244
 20
-2.322500
  0
VERTEX
  8
PLAN_1
 62
     2
  6
CONTINUOUS
 10
-0.650575
 20
-2.321945
  0
VERTEX
  8
PLAN_1
 62
     2
  6
CONTINUOUS
 10
-0.655016
 20
-2.322500
  0
VERTEX
  8
PLAN_1
 62
     2
  6
CONTINUOUS
 10
-0.658350
 20
-2.323610
  0
VERTEX
  8
PLAN_1
 62
     2
  6
CONTINUOUS
 10
-0.661126
 20
-2.325831
  0
VERTEX
  8
PLAN_1
 62
     2
  6
CONTINUOUS
 10
-0.662791
 20
-2.328051
  0
VERTEX
  8
PLAN_1
 62
     2
  6
CONTINUOUS
 10
-0.663902
 20
-2.330827
  0
VERTEX
  8
PLAN_1
 62
     2
  6
CONTINUOUS
 10
-0.664457
 20
-2.333047
  0
VERTEX
  8
PLAN_1
 62
     2
  6
CONTINUOUS
 10
-0.665012
 20
-2.335823
  0
VERTEX
  8
PLAN_1
 62
     2
  6
CONTINUOUS
 10
-0.665012
 20
-2.338047
  0
VERTEX
  8
PLAN_1
 62
     2
  6
CONTINUOUS
 10
-0.673894
 20
-2.338047
  0
VERTEX
  8
PLAN_1
 62
     2
  6
CONTINUOUS
 10
-0.673894
 20
-2.333602
  0
VERTEX
  8
PLAN_1
 62
     2
  6
CONTINUOUS
 10
-0.672783
 20
-2.329717
  0
VERTEX
  8
PLAN_1
 62
     2
  6
CONTINUOUS
 10
-0.671673
 20
-2.325276
  0
VERTEX
  8
PLAN_1
 62
     2
  6
CONTINUOUS
 10
-0.669453
 20
-2.321945
  0
VERTEX
  8
PLAN_1
 62
     2
  6
CONTINUOUS
 10
-0.667787
 20
-2.320280
  0
VERTEX
  8
PLAN_1
 62
     2
  6
CONTINUOUS
 10
-0.666122
 20
-2.318610
  0
VERTEX
  8
PLAN_1
 62
     2
  6
CONTINUOUS
 10
-0.664457
 20
-2.317500
  0
VERTEX
  8
PLAN_1
 62
     2
  6
CONTINUOUS
 10
-0.662236
 20
-2.316390
  0
VERTEX
  8
PLAN_1
 62
     2
  6
CONTINUOUS
 10
-0.659461
 20
-2.315280
  0
VERTEX
  8
PLAN_1
 62
     2
  6
CONTINUOUS
 10
-0.656681
 20
-2.314724
  0
VERTEX
  8
PLAN_1
 62
     2
  6
CONTINUOUS
 10
-0.653906
 20
-2.314169
  0
VERTEX
  8
PLAN_1
 62
     2
  6
CONTINUOUS
 10
-0.650575
 20
-2.314169
  0
VERTEX
  8
PLAN_1
 62
     2
  6
CONTINUOUS
 10
-0.645579
 20
-2.314169
  0
VERTEX
  8
PLAN_1
 62
     2
  6
CONTINUOUS
 10
-0.640583
 20
-2.315280
  0
VERTEX
  8
PLAN_1
 62
     2
  6
CONTINUOUS
 10
-0.637248
 20
-2.316945
  0
VERTEX
  8
PLAN_1
 62
     2
  6
CONTINUOUS
 10
-0.633917
 20
-2.319165
  0
VERTEX
  8
PLAN_1
 62
     2
  6
CONTINUOUS
 10
-0.631142
 20
-2.321945
  0
VERTEX
  8
PLAN_1
 62
     2
  6
CONTINUOUS
 10
-0.629476
 20
-2.325276
  0
VERTEX
  8
PLAN_1
 62
     2
  6
CONTINUOUS
 10
-0.628366
 20
-2.329161
  0
VERTEX
  8
PLAN_1
 62
     2
  6
CONTINUOUS
 10
-0.627811
 20
-2.333047
  0
VERTEX
  8
PLAN_1
 62
     2
  6
CONTINUOUS
 10
-0.627811
 20
-2.336378
  0
VERTEX
  8
PLAN_1
 62
     2
  6
CONTINUOUS
 10
-0.628921
 20
-2.339157
  0
VERTEX
  8
PLAN_1
 62
     2
  6
CONTINUOUS
 10
-0.629476
 20
-2.341933
  0
VERTEX
  8
PLAN_1
 62
     2
  6
CONTINUOUS
 10
-0.631142
 20
-2.343598
  0
VERTEX
  8
PLAN_1
 62
     2
  6
CONTINUOUS
 10
-0.632252
 20
-2.345264
  0
VERTEX
  8
PLAN_1
 62
     2
  6
CONTINUOUS
 10
-0.633917
 20
-2.346929
  0
VERTEX
  8
PLAN_1
 62
     2
  6
CONTINUOUS
 10
-0.635583
 20
-2.347484
  0
VERTEX
  8
PLAN_1
 62
     2
  6
CONTINUOUS
 10
-0.637248
 20
-2.348039
  0
VERTEX
  8
PLAN_1
 62
     2
  6
CONTINUOUS
 10
-0.637248
 20
-2.348594
  0
VERTEX
  8
PLAN_1
 62
     2
  6
CONTINUOUS
 10
-0.634472
 20
-2.349150
  0
VERTEX
  8
PLAN_1
 62
     2
  6
CONTINUOUS
 10
-0.632252
 20
-2.350815
  0
VERTEX
  8
PLAN_1
 62
     2
  6
CONTINUOUS
 10
-0.630031
 20
-2.352480
  0
VERTEX
  8
PLAN_1
 62
     2
  6
CONTINUOUS
 10
-0.628366
 20
-2.354146
  0
VERTEX
  8
PLAN_1
 62
     2
  6
CONTINUOUS
 10
-0.626701
 20
-2.356370
  0
VERTEX
  8
PLAN_1
 62
     2
  6
CONTINUOUS
 10
-0.625591
 20
-2.359146
  0
VERTEX
  8
PLAN_1
 62
     2
  6
CONTINUOUS
 10
-0.625035
 20
-2.361921
  0
VERTEX
  8
PLAN_1
 62
     2
  6
CONTINUOUS
 10
-0.625035
 20
-2.365252
  0
VERTEX
  8
PLAN_1
 62
     2
  6
CONTINUOUS
 10
-0.625591
 20
-2.369693
  0
VERTEX
  8
PLAN_1
 62
     2
  6
CONTINUOUS
 10
-0.626701
 20
-2.374138
  0
VERTEX
  8
PLAN_1
 62
     2
  6
CONTINUOUS
 10
-0.628366
 20
-2.378024
  0
VERTEX
  8
PLAN_1
 62
     2
  6
CONTINUOUS
 10
-0.631142
 20
-2.381909
  0
VERTEX
  8
PLAN_1
 62
     2
  6
CONTINUOUS
 10
-0.635028
 20
-2.384685
  0
VERTEX
  8
PLAN_1
 62
     2
  6
CONTINUOUS
 10
-0.639469
 20
-2.386906
  0
VERTEX
  8
PLAN_1
 62
     2
  6
CONTINUOUS
 10
-0.645024
 20
-2.388571
  0
VERTEX
  8
PLAN_1
 62
     2
  6
CONTINUOUS
 10
-0.651130
 20
-2.389126
  0
VERTEX
  8
PLAN_1
 62
     2
  6
CONTINUOUS
 10
-0.653350
 20
-2.389126
  0
VERTEX
  8
PLAN_1
 62
     2
  6
CONTINUOUS
 10
-0.655016
 20
-2.388571
  0
VERTEX
  8
PLAN_1
 62
     2
  6
CONTINUOUS
 10
-0.657236
 20
-2.388571
  0
VERTEX
  8
PLAN_1
 62
     2
  6
CONTINUOUS
 10
-0.658906
 20
-2.388016
  0
VERTEX
  8
PLAN_1
 62
     2
  6
CONTINUOUS
 10
-0.660571
 20
-2.387461
  0
VERTEX
  8
PLAN_1
 62
     2
  6
CONTINUOUS
 10
-0.661681
 20
-2.386906
  0
VERTEX
  8
PLAN_1
 62
     2
  6
CONTINUOUS
 10
-0.663346
 20
-2.386350
  0
VERTEX
  8
PLAN_1
 62
     2
  6
CONTINUOUS
 10
-0.665012
 20
-2.385795
  0
VERTEX
  8
PLAN_1
 62
     2
  6
CONTINUOUS
 10
-0.667787
 20
-2.384130
  0
VERTEX
  8
PLAN_1
 62
     2
  6
CONTINUOUS
 10
-0.670008
 20
-2.381909
  0
VERTEX
  8
PLAN_1
 62
     2
  6
CONTINUOUS
 10
-0.671673
 20
-2.379689
  0
VERTEX
  8
PLAN_1
 62
     2
  6
CONTINUOUS
 10
-0.672783
 20
-2.376913
  0
VERTEX
  8
PLAN_1
 62
     2
  6
CONTINUOUS
 10
-0.673894
 20
-2.374138
  0
VERTEX
  8
PLAN_1
 62
     2
  6
CONTINUOUS
 10
-0.675004
 20
-2.370803
  0
VERTEX
  8
PLAN_1
 62
     2
  6
CONTINUOUS
 10
-0.675559
 20
-2.368028
  0
VERTEX
  8
PLAN_1
 62
     2
  6
CONTINUOUS
 10
-0.675559
 20
-2.364697
  0
VERTEX
  8
PLAN_1
 62
     2
  6
CONTINUOUS
 10
-0.666122
 20
-2.364697
  0
VERTEX
  8
PLAN_1
 62
     2
  6
CONTINUOUS
 10
-0.666122
 20
-2.367472
  0
VERTEX
  8
PLAN_1
 62
     2
  6
CONTINUOUS
 10
-0.665567
 20
-2.370248
  0
VERTEX
  8
PLAN_1
 62
     2
  6
CONTINUOUS
 10
-0.665012
 20
-2.373024
  0
VERTEX
  8
PLAN_1
 62
     2
  6
CONTINUOUS
 10
-0.663346
 20
-2.375248
  0
VERTEX
  8
PLAN_1
 62
     2
  6
CONTINUOUS
 10
-0.661681
 20
-2.377469
  0
VERTEX
  8
PLAN_1
 62
     2
  6
CONTINUOUS
 10
-0.658906
 20
-2.379134
  0
VERTEX
  8
PLAN_1
 62
     2
  6
CONTINUOUS
 10
-0.655016
 20
-2.380244
  0
VERTEX
  8
PLAN_1
 62
     2
  6
CONTINUOUS
 10
-0.650575
 20
-2.380799
  0
VERTEX
  8
PLAN_1
 62
     2
  6
CONTINUOUS
 10
-0.647244
 20
-2.380799
  0
VERTEX
  8
PLAN_1
 62
     2
  6
CONTINUOUS
 10
-0.644469
 20
-2.379689
  0
VERTEX
  8
PLAN_1
 62
     2
  6
CONTINUOUS
 10
-0.641693
 20
-2.378579
  0
VERTEX
  8
PLAN_1
 62
     2
  6
CONTINUOUS
 10
-0.638913
 20
-2.376913
  0
VERTEX
  8
PLAN_1
 62
     2
  6
CONTINUOUS
 10
-0.637248
 20
-2.374693
  0
VERTEX
  8
PLAN_1
 62
     2
  6
CONTINUOUS
 10
-0.636138
 20
-2.372469
  0
VERTEX
  8
PLAN_1
 62
     2
  6
CONTINUOUS
 10
-0.635028
 20
-2.369693
  0
VERTEX
  8
PLAN_1
 62
     2
  6
CONTINUOUS
 10
-0.634472
 20
-2.366917
  0
VERTEX
  8
PLAN_1
 62
     2
  6
CONTINUOUS
 10
-0.635028
 20
-2.362476
  0
VERTEX
  8
PLAN_1
 62
     2
  6
CONTINUOUS
 10
-0.636693
 20
-2.359146
  0
VERTEX
  8
PLAN_1
 62
     2
  6
CONTINUOUS
 10
-0.638358
 20
-2.356925
  0
VERTEX
  8
PLAN_1
 62
     2
  6
CONTINUOUS
 10
-0.641138
 20
-2.355256
  0
VERTEX
  8
PLAN_1
 62
     2
  6
CONTINUOUS
 10
-0.643913
 20
-2.354146
  0
VERTEX
  8
PLAN_1
 62
     2
  6
CONTINUOUS
 10
-0.646689
 20
-2.353591
  0
VERTEX
  8
PLAN_1
 62
     2
  6
CONTINUOUS
 10
-0.649465
 20
-2.353035
  0
VERTEX
  8
PLAN_1
 62
     2
  6
CONTINUOUS
 10
-0.651685
 20
-2.353035
  0
VERTEX
  8
PLAN_1
 62
     2
  6
CONTINUOUS
 10
-0.652240
 20
-2.353035
  0
VERTEX
  8
PLAN_1
 62
     2
  6
CONTINUOUS
 10
-0.652795
 20
-2.353035
  0
VERTEX
  8
PLAN_1
 62
     2
  6
CONTINUOUS
 10
-0.653350
 20
-2.353035
  0
VERTEX
  8
PLAN_1
 62
     2
  6
CONTINUOUS
 10
-0.653906
 20
-2.353035
  0
VERTEX
  8
PLAN_1
 62
     2
  6
CONTINUOUS
 10
-0.654461
 20
-2.353035
  0
VERTEX
  8
PLAN_1
 62
     2
  6
CONTINUOUS
 10
-0.655016
 20
-2.353035
  0
VERTEX
  8
PLAN_1
 62
     2
  6
CONTINUOUS
 10
-0.655571
 20
-2.353591
  0
VERTEX
  8
PLAN_1
 62
     2
  6
CONTINUOUS
 10
-0.656126
 20
-2.353591
  0
VERTEX
  8
PLAN_1
 62
     2
  6
CONTINUOUS
 10
-0.656126
 20
-2.345264
  0
SEQEND
  8
0
  0
POLYLINE
  8
PLAN_1
 62
     2
  6
CONTINUOUS
 66
     1
 40
0.003000
 41
0.003000
  0
VERTEX
  8
PLAN_1
 62
     2
  6
CONTINUOUS
 10
-0.612264
 20
-2.375803
  0
VERTEX
  8
PLAN_1
 62
     2
  6
CONTINUOUS
 10
-0.601713
 20
-2.375803
  0
VERTEX
  8
PLAN_1
 62
     2
  6
CONTINUOUS
 10
-0.601713
 20
-2.386350
  0
VERTEX
  8
PLAN_1
 62
     2
  6
CONTINUOUS
 10
-0.601713
 20
-2.390791
  0
VERTEX
  8
PLAN_1
 62
     2
  6
CONTINUOUS
 10
-0.602823
 20
-2.394681
  0
VERTEX
  8
PLAN_1
 62
     2
  6
CONTINUOUS
 10
-0.604488
 20
-2.397457
  0
VERTEX
  8
PLAN_1
 62
     2
  6
CONTINUOUS
 10
-0.606157
 20
-2.399677
  0
VERTEX
  8
PLAN_1
 62
     2
  6
CONTINUOUS
 10
-0.607823
 20
-2.400787
  0
VERTEX
  8
PLAN_1
 62
     2
  6
CONTINUOUS
 10
-0.609488
 20
-2.401898
  0
VERTEX
  8
PLAN_1
 62
     2
  6
CONTINUOUS
 10
-0.611154
 20
-2.401898
  0
VERTEX
  8
PLAN_1
 62
     2
  6
CONTINUOUS
 10
-0.612264
 20
-2.402453
  0
VERTEX
  8
PLAN_1
 62
     2
  6
CONTINUOUS
 10
-0.612264
 20
-2.397457
  0
VERTEX
  8
PLAN_1
 62
     2
  6
CONTINUOUS
 10
-0.610598
 20
-2.396902
  0
VERTEX
  8
PLAN_1
 62
     2
  6
CONTINUOUS
 10
-0.609488
 20
-2.396346
  0
VERTEX
  8
PLAN_1
 62
     2
  6
CONTINUOUS
 10
-0.608378
 20
-2.395236
  0
VERTEX
  8
PLAN_1
 62
     2
  6
CONTINUOUS
 10
-0.607823
 20
-2.394126
  0
VERTEX
  8
PLAN_1
 62
     2
  6
CONTINUOUS
 10
-0.607268
 20
-2.392461
  0
VERTEX
  8
PLAN_1
 62
     2
  6
CONTINUOUS
 10
-0.607268
 20
-2.390791
  0
VERTEX
  8
PLAN_1
 62
     2
  6
CONTINUOUS
 10
-0.606713
 20
-2.389126
  0
VERTEX
  8
PLAN_1
 62
     2
  6
CONTINUOUS
 10
-0.606713
 20
-2.386906
  0
VERTEX
  8
PLAN_1
 62
     2
  6
CONTINUOUS
 10
-0.612264
 20
-2.386906
  0
VERTEX
  8
PLAN_1
 62
     2
  6
CONTINUOUS
 10
-0.612264
 20
-2.375803
  0
SEQEND
  8
0
  0
POLYLINE
  8
PLAN_1
 62
     2
  6
CONTINUOUS
 66
     1
 40
0.003000
 41
0.003000
  0
VERTEX
  8
PLAN_1
 62
     2
  6
CONTINUOUS
 10
-0.577283
 20
-2.344709
  0
VERTEX
  8
PLAN_1
 62
     2
  6
CONTINUOUS
 10
-0.575618
 20
-2.343598
  0
VERTEX
  8
PLAN_1
 62
     2
  6
CONTINUOUS
 10
-0.574508
 20
-2.342488
  0
VERTEX
  8
PLAN_1
 62
     2
  6
CONTINUOUS
 10
-0.572843
 20
-2.341933
  0
VERTEX
  8
PLAN_1
 62
     2
  6
CONTINUOUS
 10
-0.571177
 20
-2.341378
  0
VERTEX
  8
PLAN_1
 62
     2
  6
CONTINUOUS
 10
-0.569512
 20
-2.340823
  0
VERTEX
  8
PLAN_1
 62
     2
  6
CONTINUOUS
 10
-0.567287
 20
-2.340268
  0
VERTEX
  8
PLAN_1
 62
     2
  6
CONTINUOUS
 10
-0.565067
 20
-2.340268
  0
VERTEX
  8
PLAN_1
 62
     2
  6
CONTINUOUS
 10
-0.562846
 20
-2.339713
  0
VERTEX
  8
PLAN_1
 62
     2
  6
CONTINUOUS
 10
-0.558406
 20
-2.340268
  0
VERTEX
  8
PLAN_1
 62
     2
  6
CONTINUOUS
 10
-0.553965
 20
-2.341378
  0
VERTEX
  8
PLAN_1
 62
     2
  6
CONTINUOUS
 10
-0.550075
 20
-2.343598
  0
VERTEX
  8
PLAN_1
 62
     2
  6
CONTINUOUS
 10
-0.546744
 20
-2.345819
  0
VERTEX
  8
PLAN_1
 62
     2
  6
CONTINUOUS
 10
-0.543413
 20
-2.349150
  0
VERTEX
  8
PLAN_1
 62
     2
  6
CONTINUOUS
 10
-0.541193
 20
-2.353035
  0
VERTEX
  8
PLAN_1
 62
     2
  6
CONTINUOUS
 10
-0.539528
 20
-2.358035
  0
VERTEX
  8
PLAN_1
 62
     2
  6
CONTINUOUS
 10
-0.538972
 20
-2.363587
  0
VERTEX
  8
PLAN_1
 62
     2
  6
CONTINUOUS
 10
-0.538972
 20
-2.366917
  0
VERTEX
  8
PLAN_1
 62
     2
  6
CONTINUOUS
 10
-0.540083
 20
-2.370803
  0
VERTEX
  8
PLAN_1
 62
     2
  6
CONTINUOUS
 10
-0.541193
 20
-2.375248
  0
VERTEX
  8
PLAN_1
 62
     2
  6
CONTINUOUS
 10
-0.543413
 20
-2.379134
  0
VERTEX
  8
PLAN_1
 62
     2
  6
CONTINUOUS
 10
-0.545079
 20
-2.381354
  0
VERTEX
  8
PLAN_1
 62
     2
  6
CONTINUOUS
 10
-0.547299
 20
-2.383020
  0
VERTEX
  8
PLAN_1
 62
     2
  6
CONTINUOUS
 10
-0.548965
 20
-2.384685
  0
VERTEX
  8
PLAN_1
 62
     2
  6
CONTINUOUS
 10
-0.551744
 20
-2.386350
  0
VERTEX
  8
PLAN_1
 62
     2
  6
CONTINUOUS
 10
-0.554520
 20
-2.387461
  0
VERTEX
  8
PLAN_1
 62
     2
  6
CONTINUOUS
 10
-0.557850
 20
-2.388016
  0
VERTEX
  8
PLAN_1
 62
     2
  6
CONTINUOUS
 10
-0.561181
 20
-2.388571
  0
VERTEX
  8
PLAN_1
 62
     2
  6
CONTINUOUS
 10
-0.565622
 20
-2.389126
  0
VERTEX
  8
PLAN_1
 62
     2
  6
CONTINUOUS
 10
-0.568953
 20
-2.388571
  0
VERTEX
  8
PLAN_1
 62
     2
  6
CONTINUOUS
 10
-0.572843
 20
-2.388016
  0
VERTEX
  8
PLAN_1
 62
     2
  6
CONTINUOUS
 10
-0.576728
 20
-2.386906
  0
VERTEX
  8
PLAN_1
 62
     2
  6
CONTINUOUS
 10
-0.580059
 20
-2.385240
  0
VERTEX
  8
PLAN_1
 62
     2
  6
CONTINUOUS
 10
-0.583390
 20
-2.382465
  0
VERTEX
  8
PLAN_1
 62
     2
  6
CONTINUOUS
 10
-0.586165
 20
-2.379134
  0
VERTEX
  8
PLAN_1
 62
     2
  6
CONTINUOUS
 10
-0.587280
 20
-2.376913
  0
VERTEX
  8
PLAN_1
 62
     2
  6
CONTINUOUS
 10
-0.587835
 20
-2.374138
  0
VERTEX
  8
PLAN_1
 62
     2
  6
CONTINUOUS
 10
-0.588390
 20
-2.371913
  0
VERTEX
  8
PLAN_1
 62
     2
  6
CONTINUOUS
 10
-0.588945
 20
-2.368583
  0
VERTEX
  8
PLAN_1
 62
     2
  6
CONTINUOUS
 10
-0.579504
 20
-2.368583
  0
VERTEX
  8
PLAN_1
 62
     2
  6
CONTINUOUS
 10
-0.578949
 20
-2.371913
  0
VERTEX
  8
PLAN_1
 62
     2
  6
CONTINUOUS
 10
-0.577839
 20
-2.374138
  0
VERTEX
  8
PLAN_1
 62
     2
  6
CONTINUOUS
 10
-0.576728
 20
-2.376358
  0
VERTEX
  8
PLAN_1
 62
     2
  6
CONTINUOUS
 10
-0.574508
 20
-2.378024
  0
VERTEX
  8
PLAN_1
 62
     2
  6
CONTINUOUS
 10
-0.572287
 20
-2.379689
  0
VERTEX
  8
PLAN_1
 62
     2
  6
CONTINUOUS
 10
-0.570067
 20
-2.380244
  0
VERTEX
  8
PLAN_1
 62
     2
  6
CONTINUOUS
 10
-0.567287
 20
-2.380799
  0
VERTEX
  8
PLAN_1
 62
     2
  6
CONTINUOUS
 10
-0.563957
 20
-2.381354
  0
VERTEX
  8
PLAN_1
 62
     2
  6
CONTINUOUS
 10
-0.560626
 20
-2.380799
  0
VERTEX
  8
PLAN_1
 62
     2
  6
CONTINUOUS
 10
-0.557850
 20
-2.379689
  0
VERTEX
  8
PLAN_1
 62
     2
  6
CONTINUOUS
 10
-0.555075
 20
-2.378024
  0
VERTEX
  8
PLAN_1
 62
     2
  6
CONTINUOUS
 10
-0.552854
 20
-2.376358
  0
VERTEX
  8
PLAN_1
 62
     2
  6
CONTINUOUS
 10
-0.551185
 20
-2.373583
  0
VERTEX
  8
PLAN_1
 62
     2
  6
CONTINUOUS
 10
-0.550075
 20
-2.370803
  0
VERTEX
  8
PLAN_1
 62
     2
  6
CONTINUOUS
 10
-0.548965
 20
-2.367472
  0
VERTEX
  8
PLAN_1
 62
     2
  6
CONTINUOUS
 10
-0.548965
 20
-2.364142
  0
VERTEX
  8
PLAN_1
 62
     2
  6
CONTINUOUS
 10
-0.548965
 20
-2.360811
  0
VERTEX
  8
PLAN_1
 62
     2
  6
CONTINUOUS
 10
-0.550075
 20
-2.357480
  0
VERTEX
  8
PLAN_1
 62
     2
  6
CONTINUOUS
 10
-0.551744
 20
-2.354701
  0
VERTEX
  8
PLAN_1
 62
     2
  6
CONTINUOUS
 10
-0.553409
 20
-2.352480
  0
VERTEX
  8
PLAN_1
 62
     2
  6
CONTINUOUS
 10
-0.555630
 20
-2.350260
  0
VERTEX
  8
PLAN_1
 62
     2
  6
CONTINUOUS
 10
-0.558406
 20
-2.349150
  0
VERTEX
  8
PLAN_1
 62
     2
  6
CONTINUOUS
 10
-0.561736
 20
-2.348594
  0
VERTEX
  8
PLAN_1
 62
     2
  6
CONTINUOUS
 10
-0.565067
 20
-2.348039
  0
VERTEX
  8
PLAN_1
 62
     2
  6
CONTINUOUS
 10
-0.566732
 20
-2.348039
  0
VERTEX
  8
PLAN_1
 62
     2
  6
CONTINUOUS
 10
-0.568953
 20
-2.348594
  0
VERTEX
  8
PLAN_1
 62
     2
  6
CONTINUOUS
 10
-0.570622
 20
-2.349150
  0
VERTEX
  8
PLAN_1
 62
     2
  6
CONTINUOUS
 10
-0.572287
 20
-2.349705
  0
VERTEX
  8
PLAN_1
 62
     2
  6
CONTINUOUS
 10
-0.573953
 20
-2.350815
  0
VERTEX
  8
PLAN_1
 62
     2
  6
CONTINUOUS
 10
-0.575618
 20
-2.351925
  0
VERTEX
  8
PLAN_1
 62
     2
  6
CONTINUOUS
 10
-0.577283
 20
-2.353591
  0
VERTEX
  8
PLAN_1
 62
     2
  6
CONTINUOUS
 10
-0.578394
 20
-2.355256
  0
VERTEX
  8
PLAN_1
 62
     2
  6
CONTINUOUS
 10
-0.586165
 20
-2.354701
  0
VERTEX
  8
PLAN_1
 62
     2
  6
CONTINUOUS
 10
-0.580614
 20
-2.315280
  0
VERTEX
  8
PLAN_1
 62
     2
  6
CONTINUOUS
 10
-0.542858
 20
-2.315280
  0
VERTEX
  8
PLAN_1
 62
     2
  6
CONTINUOUS
 10
-0.542858
 20
-2.324165
  0
VERTEX
  8
PLAN_1
 62
     2
  6
CONTINUOUS
 10
-0.573953
 20
-2.324165
  0
VERTEX
  8
PLAN_1
 62
     2
  6
CONTINUOUS
 10
-0.577283
 20
-2.344709
  0
SEQEND
  8
0
  0
POLYLINE
  8
PLAN_1
 62
     2
  6
CONTINUOUS
 66
     1
 40
0.004441
 41
0.004441
  0
VERTEX
  8
PLAN_1
 62
     2
  6
CONTINUOUS
 10
-2.134732
 20
1.649693
  0
VERTEX
  8
PLAN_1
 62
     2
  6
CONTINUOUS
 10
-2.134732
 20
-2.600118
  0
SEQEND
  8
0
  0
POLYLINE
  8
PLAN_1
 62
     2
  6
CONTINUOUS
 66
     1
 40
0.004441
 41
0.004441
  0
VERTEX
  8
PLAN_1
 62
     2
  6
CONTINUOUS
 10
-2.105307
 20
-2.567913
  0
VERTEX
  8
PLAN_1
 62
     2
  6
CONTINUOUS
 10
0.044031
 20
-2.567913
  0
SEQEND
  8
0
  0
SOLID
  8
PLAN_1
 62
     2
 10
0.073461
 20
-2.567913
 11
0.014602
 21
-2.552370
 12
0.073461
 22
-2.567913
 13
0.014602
 23
-2.584016
  0
POLYLINE
  8
PLAN_1
 62
     2
  6
CONTINUOUS
 66
     1
 40
0.003000
 41
0.003000
  0
VERTEX
  8
PLAN_1
 62
     2
  6
CONTINUOUS
 10
0.073461
 20
-2.567913
  0
VERTEX
  8
PLAN_1
 62
     2
  6
CONTINUOUS
 10
0.014602
 20
-2.552370
  0
VERTEX
  8
PLAN_1
 62
     2
  6
CONTINUOUS
 10
0.014602
 20
-2.584016
  0
VERTEX
  8
PLAN_1
 62
     2
  6
CONTINUOUS
 10
0.073461
 20
-2.567913
  0
SEQEND
  8
0
  0
SOLID
  8
PLAN_1
 62
     2
 10
-2.134732
 20
-2.567913
 11
-2.075878
 21
-2.552370
 12
-2.134732
 22
-2.567913
 13
-2.075878
 23
-2.584016
  0
POLYLINE
  8
PLAN_1
 62
     2
  6
CONTINUOUS
 66
     1
 40
0.003000
 41
0.003000
  0
VERTEX
  8
PLAN_1
 62
     2
  6
CONTINUOUS
 10
-2.134732
 20
-2.567913
  0
VERTEX
  8
PLAN_1
 62
     2
  6
CONTINUOUS
 10
-2.075878
 20
-2.552370
  0
VERTEX
  8
PLAN_1
 62
     2
  6
CONTINUOUS
 10
-2.075878
 20
-2.584016
  0
VERTEX
  8
PLAN_1
 62
     2
  6
CONTINUOUS
 10
-2.134732
 20
-2.567913
  0
SEQEND
  8
0
  0
POLYLINE
  8
PLAN_1
 62
     2
  6
CONTINUOUS
 66
     1
 40
0.004441
 41
0.004441
  0
VERTEX
  8
PLAN_1
 62
     2
  6
CONTINUOUS
 10
0.252803
 20
-1.785024
  0
VERTEX
  8
PLAN_1
 62
     2
  6
CONTINUOUS
 10
0.071236
 20
-1.785024
  0
SEQEND
  8
0
  0
POLYLINE
  8
PLAN_1
 62
     2
  6
CONTINUOUS
 66
     1
 40
0.004441
 41
0.004441
  0
VERTEX
  8
PLAN_1
 62
     2
  6
CONTINUOUS
 10
0.055138
 20
4.026681
  0
VERTEX
  8
PLAN_1
 62
     2
  6
CONTINUOUS
 10
-1.515642
 20
4.026681
  0
SEQEND
  8
0
  0
POLYLINE
  8
PLAN_1
 62
     2
  6
CONTINUOUS
 66
     1
 40
0.004441
 41
0.004441
  0
VERTEX
  8
PLAN_1
 62
     2
  6
CONTINUOUS
 10
0.228925
 20
-1.755598
  0
VERTEX
  8
PLAN_1
 62
     2
  6
CONTINUOUS
 10
0.228925
 20
3.997252
  0
SEQEND
  8
0
  0
SOLID
  8
PLAN_1
 62
     2
 10
0.228925
 20
-1.785024
 11
0.213378
 21
-1.726169
 12
0.228925
 22
-1.785024
 13
0.244472
 23
-1.726169
  0
POLYLINE
  8
PLAN_1
 62
     2
  6
CONTINUOUS
 66
     1
 40
0.003000
 41
0.003000
  0
VERTEX
  8
PLAN_1
 62
     2
  6
CONTINUOUS
 10
0.228925
 20
-1.785024
  0
VERTEX
  8
PLAN_1
 62
     2
  6
CONTINUOUS
 10
0.213378
 20
-1.726169
  0
VERTEX
  8
PLAN_1
 62
     2
  6
CONTINUOUS
 10
0.244472
 20
-1.726169
  0
VERTEX
  8
PLAN_1
 62
     2
  6
CONTINUOUS
 10
0.228925
 20
-1.785024
  0
SEQEND
  8
0
  0
POLYLINE
  8
PLAN_1
 62
     2
  6
CONTINUOUS
 66
     1
 40
0.004441
 41
0.004441
  0
VERTEX
  8
PLAN_1
 62
     2
  6
CONTINUOUS
 10
0.252803
 20
4.026681
  0
VERTEX
  8
PLAN_1
 62
     2
  6
CONTINUOUS
 10
0.089004
 20
4.026681
  0
SEQEND
  8
0
  0
SOLID
  8
PLAN_1
 62
     2
 10
0.228925
 20
4.026681
 11
0.213378
 21
3.967823
 12
0.228925
 22
4.026681
 13
0.244472
 23
3.967823
  0
POLYLINE
  8
PLAN_1
 62
     2
  6
CONTINUOUS
 66
     1
 40
0.003000
 41
0.003000
  0
VERTEX
  8
PLAN_1
 62
     2
  6
CONTINUOUS
 10
0.228925
 20
4.026681
  0
VERTEX
  8
PLAN_1
 62
     2
  6
CONTINUOUS
 10
0.213378
 20
3.967823
  0
VERTEX
  8
PLAN_1
 62
     2
  6
CONTINUOUS
 10
0.244472
 20
3.967823
  0
VERTEX
  8
PLAN_1
 62
     2
  6
CONTINUOUS
 10
0.228925
 20
4.026681
  0
SEQEND
  8
0
  0
POLYLINE
  8
PLAN_1
 62
     2
  6
CONTINUOUS
 66
     1
 40
0.004441
 41
0.004441
  0
VERTEX
  8
PLAN_1
 62
     2
  6
CONTINUOUS
 10
-1.593929
 20
4.186035
  0
VERTEX
  8
PLAN_1
 62
     2
  6
CONTINUOUS
 10
0.041811
 20
4.186035
  0
SEQEND
  8
0
  0
SOLID
  8
PLAN_1
 62
     2
 10
0.071236
 20
4.186035
 11
0.012382
 21
4.202138
 12
0.071236
 22
4.186035
 13
0.012382
 23
4.170488
  0
POLYLINE
  8
PLAN_1
 62
     2
  6
CONTINUOUS
 66
     1
 40
0.003000
 41
0.003000
  0
VERTEX
  8
PLAN_1
 62
     2
  6
CONTINUOUS
 10
0.071236
 20
4.186035
  0
VERTEX
  8
PLAN_1
 62
     2
  6
CONTINUOUS
 10
0.012382
 20
4.202138
  0
VERTEX
  8
PLAN_1
 62
     2
  6
CONTINUOUS
 10
0.012382
 20
4.170488
  0
VERTEX
  8
PLAN_1
 62
     2
  6
CONTINUOUS
 10
0.071236
 20
4.186035
  0
SEQEND
  8
0
  0
SOLID
  8
PLAN_1
 62
     2
 10
-1.623358
 20
4.186035
 11
-1.564500
 21
4.202138
 12
-1.623358
 22
4.186035
 13
-1.564500
 23
4.170488
  0
POLYLINE
  8
PLAN_1
 62
     2
  6
CONTINUOUS
 66
     1
 40
0.003000
 41
0.003000
  0
VERTEX
  8
PLAN_1
 62
     2
  6
CONTINUOUS
 10
-1.623358
 20
4.186035
  0
VERTEX
  8
PLAN_1
 62
     2
  6
CONTINUOUS
 10
-1.564500
 20
4.202138
  0
VERTEX
  8
PLAN_1
 62
     2
  6
CONTINUOUS
 10
-1.564500
 20
4.170488
  0
VERTEX
  8
PLAN_1
 62
     2
  6
CONTINUOUS
 10
-1.623358
 20
4.186035
  0
SEQEND
  8
0
  0
POLYLINE
  8
PLAN_1
 62
     2
  6
CONTINUOUS
 66
     1
 40
0.003000
 41
0.003000
  0
VERTEX
  8
PLAN_1
 62
     2
  6
CONTINUOUS
 10
-0.789941
 20
4.227677
  0
VERTEX
  8
PLAN_1
 62
     2
  6
CONTINUOUS
 10
-0.789941
 20
4.209909
  0
VERTEX
  8
PLAN_1
 62
     2
  6
CONTINUOUS
 10
-0.799378
 20
4.209909
  0
VERTEX
  8
PLAN_1
 62
     2
  6
CONTINUOUS
 10
-0.799378
 20
4.227677
  0
VERTEX
  8
PLAN_1
 62
     2
  6
CONTINUOUS
 10
-0.831028
 20
4.227677
  0
VERTEX
  8
PLAN_1
 62
     2
  6
CONTINUOUS
 10
-0.831028
 20
4.236559
  0
VERTEX
  8
PLAN_1
 62
     2
  6
CONTINUOUS
 10
-0.797713
 20
4.283201
  0
VERTEX
  8
PLAN_1
 62
     2
  6
CONTINUOUS
 10
-0.789941
 20
4.283201
  0
VERTEX
  8
PLAN_1
 62
     2
  6
CONTINUOUS
 10
-0.789941
 20
4.235449
  0
VERTEX
  8
PLAN_1
 62
     2
  6
CONTINUOUS
 10
-0.779390
 20
4.235449
  0
VERTEX
  8
PLAN_1
 62
     2
  6
CONTINUOUS
 10
-0.779390
 20
4.227677
  0
VERTEX
  8
PLAN_1
 62
     2
  6
CONTINUOUS
 10
-0.789941
 20
4.227677
  0
SEQEND
  8
0
  0
SOLID
  8
PLAN_1
 62
     2
 10
-0.822701
 20
4.235449
 11
-0.799378
 21
4.235449
 12
-0.822701
 22
4.235449
 13
-0.799378
 23
4.268764
  0
POLYLINE
  8
PLAN_1
 62
     2
  6
CONTINUOUS
 66
     1
 40
0.003000
 41
0.003000
  0
VERTEX
  8
PLAN_1
 62
     2
  6
CONTINUOUS
 10
-0.822701
 20
4.235449
  0
VERTEX
  8
PLAN_1
 62
     2
  6
CONTINUOUS
 10
-0.799378
 20
4.235449
  0
VERTEX
  8
PLAN_1
 62
     2
  6
CONTINUOUS
 10
-0.799378
 20
4.268764
  0
VERTEX
  8
PLAN_1
 62
     2
  6
CONTINUOUS
 10
-0.822701
 20
4.235449
  0
SEQEND
  8
0
  0
POLYLINE
  8
PLAN_1
 62
     2
  6
CONTINUOUS
 66
     1
 40
0.003000
 41
0.003000
  0
VERTEX
  8
PLAN_1
 62
     2
  6
CONTINUOUS
 10
-0.732197
 20
4.227677
  0
VERTEX
  8
PLAN_1
 62
     2
  6
CONTINUOUS
 10
-0.732197
 20
4.209909
  0
VERTEX
  8
PLAN_1
 62
     2
  6
CONTINUOUS
 10
-0.741634
 20
4.209909
  0
VERTEX
  8
PLAN_1
 62
     2
  6
CONTINUOUS
 10
-0.741634
 20
4.227677
  0
VERTEX
  8
PLAN_1
 62
     2
  6
CONTINUOUS
 10
-0.773283
 20
4.227677
  0
VERTEX
  8
PLAN_1
 62
     2
  6
CONTINUOUS
 10
-0.773283
 20
4.236559
  0
VERTEX
  8
PLAN_1
 62
     2
  6
CONTINUOUS
 10
-0.739969
 20
4.283201
  0
VERTEX
  8
PLAN_1
 62
     2
  6
CONTINUOUS
 10
-0.732197
 20
4.283201
  0
VERTEX
  8
PLAN_1
 62
     2
  6
CONTINUOUS
 10
-0.732197
 20
4.235449
  0
VERTEX
  8
PLAN_1
 62
     2
  6
CONTINUOUS
 10
-0.721646
 20
4.235449
  0
VERTEX
  8
PLAN_1
 62
     2
  6
CONTINUOUS
 10
-0.721646
 20
4.227677
  0
VERTEX
  8
PLAN_1
 62
     2
  6
CONTINUOUS
 10
-0.732197
 20
4.227677
  0
SEQEND
  8
0
  0
SOLID
  8
PLAN_1
 62
     2
 10
-0.764953
 20
4.235449
 11
-0.741634
 21
4.235449
 12
-0.764953
 22
4.235449
 13
-0.741634
 23
4.268764
  0
POLYLINE
  8
PLAN_1
 62
     2
  6
CONTINUOUS
 66
     1
 40
0.003000
 41
0.003000
  0
VERTEX
  8
PLAN_1
 62
     2
  6
CONTINUOUS
 10
-0.764953
 20
4.235449
  0
VERTEX
  8
PLAN_1
 62
     2
  6
CONTINUOUS
 10
-0.741634
 20
4.235449
  0
VERTEX
  8
PLAN_1
 62
     2
  6
CONTINUOUS
 10
-0.741634
 20
4.268764
  0
VERTEX
  8
PLAN_1
 62
     2
  6
CONTINUOUS
 10
-0.764953
 20
4.235449
  0
SEQEND
  8
0
  0
POLYLINE
  8
PLAN_1
 62
     2
  6
CONTINUOUS
 66
     1
 40
0.004441
 41
0.004441
  0
VERTEX
  8
PLAN_1
 62
     2
  6
CONTINUOUS
 10
-1.957610
 20
4.345390
  0
VERTEX
  8
PLAN_1
 62
     2
  6
CONTINUOUS
 10
0.041811
 20
4.345390
  0
SEQEND
  8
0
  0
SOLID
  8
PLAN_1
 62
     2
 10
0.071236
 20
4.345390
 11
0.012382
 21
4.360933
 12
0.071236
 22
4.345390
 13
0.012382
 23
4.329287
  0
POLYLINE
  8
PLAN_1
 62
     2
  6
CONTINUOUS
 66
     1
 40
0.003000
 41
0.003000
  0
VERTEX
  8
PLAN_1
 62
     2
  6
CONTINUOUS
 10
0.071236
 20
4.345390
  0
VERTEX
  8
PLAN_1
 62
     2
  6
CONTINUOUS
 10
0.012382
 20
4.360933
  0
VERTEX
  8
PLAN_1
 62
     2
  6
CONTINUOUS
 10
0.012382
 20
4.329287
  0
VERTEX
  8
PLAN_1
 62
     2
  6
CONTINUOUS
 10
0.071236
 20
4.345390
  0
SEQEND
  8
0
  0
SOLID
  8
PLAN_1
 62
     2
 10
-1.987039
 20
4.345390
 11
-1.928185
 21
4.360933
 12
-1.987039
 22
4.345390
 13
-1.928185
 23
4.329287
  0
POLYLINE
  8
PLAN_1
 62
     2
  6
CONTINUOUS
 66
     1
 40
0.003000
 41
0.003000
  0
VERTEX
  8
PLAN_1
 62
     2
  6
CONTINUOUS
 10
-1.987039
 20
4.345390
  0
VERTEX
  8
PLAN_1
 62
     2
  6
CONTINUOUS
 10
-1.928185
 20
4.360933
  0
VERTEX
  8
PLAN_1
 62
     2
  6
CONTINUOUS
 10
-1.928185
 20
4.329287
  0
VERTEX
  8
PLAN_1
 62
     2
  6
CONTINUOUS
 10
-1.987039
 20
4.345390
  0
SEQEND
  8
0
  0
POLYLINE
  8
PLAN_1
 62
     2
  6
CONTINUOUS
 66
     1
 40
0.003000
 41
0.003000
  0
VERTEX
  8
PLAN_1
 62
     2
  6
CONTINUOUS
 10
-1.000378
 20
4.411461
  0
VERTEX
  8
PLAN_1
 62
     2
  6
CONTINUOUS
 10
-0.999268
 20
4.412571
  0
VERTEX
  8
PLAN_1
 62
     2
  6
CONTINUOUS
 10
-0.998157
 20
4.413126
  0
VERTEX
  8
PLAN_1
 62
     2
  6
CONTINUOUS
 10
-0.996488
 20
4.413681
  0
VERTEX
  8
PLAN_1
 62
     2
  6
CONTINUOUS
 10
-0.994823
 20
4.414791
  0
VERTEX
  8
PLAN_1
 62
     2
  6
CONTINUOUS
 10
-0.992602
 20
4.415350
  0
VERTEX
  8
PLAN_1
 62
     2
  6
CONTINUOUS
 10
-0.990937
 20
4.415350
  0
VERTEX
  8
PLAN_1
 62
     2
  6
CONTINUOUS
 10
-0.988717
 20
4.415906
  0
VERTEX
  8
PLAN_1
 62
     2
  6
CONTINUOUS
 10
-0.986496
 20
4.415906
  0
VERTEX
  8
PLAN_1
 62
     2
  6
CONTINUOUS
 10
-0.982055
 20
4.415350
  0
VERTEX
  8
PLAN_1
 62
     2
  6
CONTINUOUS
 10
-0.977610
 20
4.414236
  0
VERTEX
  8
PLAN_1
 62
     2
  6
CONTINUOUS
 10
-0.973724
 20
4.412571
  0
VERTEX
  8
PLAN_1
 62
     2
  6
CONTINUOUS
 10
-0.969839
 20
4.409795
  0
VERTEX
  8
PLAN_1
 62
     2
  6
CONTINUOUS
 10
-0.966508
 20
4.406465
  0
VERTEX
  8
PLAN_1
 62
     2
  6
CONTINUOUS
 10
-0.964287
 20
4.402579
  0
VERTEX
  8
PLAN_1
 62
     2
  6
CONTINUOUS
 10
-0.962622
 20
4.398138
  0
VERTEX
  8
PLAN_1
 62
     2
  6
CONTINUOUS
 10
-0.962067
 20
4.392583
  0
VERTEX
  8
PLAN_1
 62
     2
  6
CONTINUOUS
 10
-0.962622
 20
4.389252
  0
VERTEX
  8
PLAN_1
 62
     2
  6
CONTINUOUS
 10
-0.963177
 20
4.385366
  0
VERTEX
  8
PLAN_1
 62
     2
  6
CONTINUOUS
 10
-0.964843
 20
4.380925
  0
VERTEX
  8
PLAN_1
 62
     2
  6
CONTINUOUS
 10
-0.967063
 20
4.376480
  0
VERTEX
  8
PLAN_1
 62
     2
  6
CONTINUOUS
 10
-0.968728
 20
4.374815
  0
VERTEX
  8
PLAN_1
 62
     2
  6
CONTINUOUS
 10
-0.970394
 20
4.372594
  0
VERTEX
  8
PLAN_1
 62
     2
  6
CONTINUOUS
 10
-0.972614
 20
4.370929
  0
VERTEX
  8
PLAN_1
 62
     2
  6
CONTINUOUS
 10
-0.974835
 20
4.369819
  0
VERTEX
  8
PLAN_1
 62
     2
  6
CONTINUOUS
 10
-0.978165
 20
4.368709
  0
VERTEX
  8
PLAN_1
 62
     2
  6
CONTINUOUS
 10
-0.980945
 20
4.367598
  0
VERTEX
  8
PLAN_1
 62
     2
  6
CONTINUOUS
 10
-0.984831
 20
4.367043
  0
VERTEX
  8
PLAN_1
 62
     2
  6
CONTINUOUS
 10
-0.988717
 20
4.367043
  0
VERTEX
  8
PLAN_1
 62
     2
  6
CONTINUOUS
 10
-0.992602
 20
4.367043
  0
VERTEX
  8
PLAN_1
 62
     2
  6
CONTINUOUS
 10
-0.996488
 20
4.367598
  0
VERTEX
  8
PLAN_1
 62
     2
  6
CONTINUOUS
 10
-0.999823
 20
4.368709
  0
VERTEX
  8
PLAN_1
 62
     2
  6
CONTINUOUS
 10
-1.003709
 20
4.370929
  0
VERTEX
  8
PLAN_1
 62
     2
  6
CONTINUOUS
 10
-1.006484
 20
4.373705
  0
VERTEX
  8
PLAN_1
 62
     2
  6
CONTINUOUS
 10
-1.009260
 20
4.377035
  0
VERTEX
  8
PLAN_1
 62
     2
  6
CONTINUOUS
 10
-1.010370
 20
4.379256
  0
VERTEX
  8
PLAN_1
 62
     2
  6
CONTINUOUS
 10
-1.011480
 20
4.381480
  0
VERTEX
  8
PLAN_1
 62
     2
  6
CONTINUOUS
 10
-1.012035
 20
4.384256
  0
VERTEX
  8
PLAN_1
 62
     2
  6
CONTINUOUS
 10
-1.012591
 20
4.387031
  0
VERTEX
  8
PLAN_1
 62
     2
  6
CONTINUOUS
 10
-1.003154
 20
4.387031
  0
VERTEX
  8
PLAN_1
 62
     2
  6
CONTINUOUS
 10
-1.002598
 20
4.384256
  0
VERTEX
  8
PLAN_1
 62
     2
  6
CONTINUOUS
 10
-1.001488
 20
4.381480
  0
VERTEX
  8
PLAN_1
 62
     2
  6
CONTINUOUS
 10
-0.999823
 20
4.379256
  0
VERTEX
  8
PLAN_1
 62
     2
  6
CONTINUOUS
 10
-0.998157
 20
4.377591
  0
VERTEX
  8
PLAN_1
 62
     2
  6
CONTINUOUS
 10
-0.995933
 20
4.376480
  0
VERTEX
  8
PLAN_1
 62
     2
  6
CONTINUOUS
 10
-0.993157
 20
4.375370
  0
VERTEX
  8
PLAN_1
 62
     2
  6
CONTINUOUS
 10
-0.990382
 20
4.374815
  0
VERTEX
  8
PLAN_1
 62
     2
  6
CONTINUOUS
 10
-0.987606
 20
4.374815
  0
VERTEX
  8
PLAN_1
 62
     2
  6
CONTINUOUS
 10
-0.984276
 20
4.375370
  0
VERTEX
  8
PLAN_1
 62
     2
  6
CONTINUOUS
 10
-0.980945
 20
4.375925
  0
VERTEX
  8
PLAN_1
 62
     2
  6
CONTINUOUS
 10
-0.978720
 20
4.377591
  0
VERTEX
  8
PLAN_1
 62
     2
  6
CONTINUOUS
 10
-0.976500
 20
4.379815
  0
VERTEX
  8
PLAN_1
 62
     2
  6
CONTINUOUS
 10
-0.974280
 20
4.382035
  0
VERTEX
  8
PLAN_1
 62
     2
  6
CONTINUOUS
 10
-0.973169
 20
4.384811
  0
VERTEX
  8
PLAN_1
 62
     2
  6
CONTINUOUS
 10
-0.972614
 20
4.388142
  0
VERTEX
  8
PLAN_1
 62
     2
  6
CONTINUOUS
 10
-0.972059
 20
4.391472
  0
VERTEX
  8
PLAN_1
 62
     2
  6
CONTINUOUS
 10
-0.972614
 20
4.395358
  0
VERTEX
  8
PLAN_1
 62
     2
  6
CONTINUOUS
 10
-0.973169
 20
4.398693
  0
VERTEX
  8
PLAN_1
 62
     2
  6
CONTINUOUS
 10
-0.974835
 20
4.401469
  0
VERTEX
  8
PLAN_1
 62
     2
  6
CONTINUOUS
 10
-0.977055
 20
4.403689
  0
VERTEX
  8
PLAN_1
 62
     2
  6
CONTINUOUS
 10
-0.979280
 20
4.405354
  0
VERTEX
  8
PLAN_1
 62
     2
  6
CONTINUOUS
 10
-0.982055
 20
4.406465
  0
VERTEX
  8
PLAN_1
 62
     2
  6
CONTINUOUS
 10
-0.984831
 20
4.407575
  0
VERTEX
  8
PLAN_1
 62
     2
  6
CONTINUOUS
 10
-0.988161
 20
4.407575
  0
VERTEX
  8
PLAN_1
 62
     2
  6
CONTINUOUS
 10
-0.990382
 20
4.407575
  0
VERTEX
  8
PLAN_1
 62
     2
  6
CONTINUOUS
 10
-0.992047
 20
4.407575
  0
VERTEX
  8
PLAN_1
 62
     2
  6
CONTINUOUS
 10
-0.994268
 20
4.407020
  0
VERTEX
  8
PLAN_1
 62
     2
  6
CONTINUOUS
 10
-0.995933
 20
4.405909
  0
VERTEX
  8
PLAN_1
 62
     2
  6
CONTINUOUS
 10
-0.997602
 20
4.404799
  0
VERTEX
  8
PLAN_1
 62
     2
  6
CONTINUOUS
 10
-0.999268
 20
4.403689
  0
VERTEX
  8
PLAN_1
 62
     2
  6
CONTINUOUS
 10
-1.000378
 20
4.402579
  0
VERTEX
  8
PLAN_1
 62
     2
  6
CONTINUOUS
 10
-1.002043
 20
4.400913
  0
VERTEX
  8
PLAN_1
 62
     2
  6
CONTINUOUS
 10
-1.009815
 20
4.401469
  0
VERTEX
  8
PLAN_1
 62
     2
  6
CONTINUOUS
 10
-1.004264
 20
4.440335
  0
VERTEX
  8
PLAN_1
 62
     2
  6
CONTINUOUS
 10
-0.966508
 20
4.440335
  0
VERTEX
  8
PLAN_1
 62
     2
  6
CONTINUOUS
 10
-0.966508
 20
4.431449
  0
VERTEX
  8
PLAN_1
 62
     2
  6
CONTINUOUS
 10
-0.997602
 20
4.431449
  0
VERTEX
  8
PLAN_1
 62
     2
  6
CONTINUOUS
 10
-1.000378
 20
4.411461
  0
SEQEND
  8
0
  0
POLYLINE
  8
PLAN_1
 62
     2
  6
CONTINUOUS
 66
     1
 40
0.003000
 41
0.003000
  0
VERTEX
  8
PLAN_1
 62
     2
  6
CONTINUOUS
 10
-0.953181
 20
4.415906
  0
VERTEX
  8
PLAN_1
 62
     2
  6
CONTINUOUS
 10
-0.953181
 20
4.419791
  0
VERTEX
  8
PLAN_1
 62
     2
  6
CONTINUOUS
 10
-0.952626
 20
4.423677
  0
VERTEX
  8
PLAN_1
 62
     2
  6
CONTINUOUS
 10
-0.951516
 20
4.427008
  0
VERTEX
  8
PLAN_1
 62
     2
  6
CONTINUOUS
 10
-0.950406
 20
4.429783
  0
VERTEX
  8
PLAN_1
 62
     2
  6
CONTINUOUS
 10
-0.949295
 20
4.432559
  0
VERTEX
  8
PLAN_1
 62
     2
  6
CONTINUOUS
 10
-0.947630
 20
4.434783
  0
VERTEX
  8
PLAN_1
 62
     2
  6
CONTINUOUS
 10
-0.945409
 20
4.436449
  0
VERTEX
  8
PLAN_1
 62
     2
  6
CONTINUOUS
 10
-0.943744
 20
4.437559
  0
VERTEX
  8
PLAN_1
 62
     2
  6
CONTINUOUS
 10
-0.939299
 20
4.439780
  0
VERTEX
  8
PLAN_1
 62
     2
  6
CONTINUOUS
 10
-0.935413
 20
4.441445
  0
VERTEX
  8
PLAN_1
 62
     2
  6
CONTINUOUS
 10
-0.931528
 20
4.442000
  0
VERTEX
  8
PLAN_1
 62
     2
  6
CONTINUOUS
 10
-0.928197
 20
4.442000
  0
VERTEX
  8
PLAN_1
 62
     2
  6
CONTINUOUS
 10
-0.923197
 20
4.441445
  0
VERTEX
  8
PLAN_1
 62
     2
  6
CONTINUOUS
 10
-0.919311
 20
4.440335
  0
VERTEX
  8
PLAN_1
 62
     2
  6
CONTINUOUS
 10
-0.915425
 20
4.438669
  0
VERTEX
  8
PLAN_1
 62
     2
  6
CONTINUOUS
 10
-0.912094
 20
4.436449
  0
VERTEX
  8
PLAN_1
 62
     2
  6
CONTINUOUS
 10
-0.908764
 20
4.433118
  0
VERTEX
  8
PLAN_1
 62
     2
  6
CONTINUOUS
 10
-0.907094
 20
4.429228
  0
VERTEX
  8
PLAN_1
 62
     2
  6
CONTINUOUS
 10
-0.905429
 20
4.424787
  0
VERTEX
  8
PLAN_1
 62
     2
  6
CONTINUOUS
 10
-0.904874
 20
4.420346
  0
VERTEX
  8
PLAN_1
 62
     2
  6
CONTINUOUS
 10
-0.905429
 20
4.415350
  0
VERTEX
  8
PLAN_1
 62
     2
  6
CONTINUOUS
 10
-0.906539
 20
4.411461
  0
VERTEX
  8
PLAN_1
 62
     2
  6
CONTINUOUS
 10
-0.908209
 20
4.408130
  0
VERTEX
  8
PLAN_1
 62
     2
  6
CONTINUOUS
 10
-0.910984
 20
4.405354
  0
VERTEX
  8
PLAN_1
 62
     2
  6
CONTINUOUS
 10
-0.913760
 20
4.402579
  0
VERTEX
  8
PLAN_1
 62
     2
  6
CONTINUOUS
 10
-0.917091
 20
4.400358
  0
VERTEX
  8
PLAN_1
 62
     2
  6
CONTINUOUS
 10
-0.920976
 20
4.398138
  0
VERTEX
  8
PLAN_1
 62
     2
  6
CONTINUOUS
 10
-0.924862
 20
4.395913
  0
VERTEX
  8
PLAN_1
 62
     2
  6
CONTINUOUS
 10
-0.932083
 20
4.391472
  0
VERTEX
  8
PLAN_1
 62
     2
  6
CONTINUOUS
 10
-0.935413
 20
4.389252
  0
VERTEX
  8
PLAN_1
 62
     2
  6
CONTINUOUS
 10
-0.938189
 20
4.387587
  0
VERTEX
  8
PLAN_1
 62
     2
  6
CONTINUOUS
 10
-0.940409
 20
4.385366
  0
VERTEX
  8
PLAN_1
 62
     2
  6
CONTINUOUS
 10
-0.942075
 20
4.383701
  0
VERTEX
  8
PLAN_1
 62
     2
  6
CONTINUOUS
 10
-0.943185
 20
4.381480
  0
VERTEX
  8
PLAN_1
 62
     2
  6
CONTINUOUS
 10
-0.944299
 20
4.380370
  0
VERTEX
  8
PLAN_1
 62
     2
  6
CONTINUOUS
 10
-0.944854
 20
4.378701
  0
VERTEX
  8
PLAN_1
 62
     2
  6
CONTINUOUS
 10
-0.944854
 20
4.377591
  0
VERTEX
  8
PLAN_1
 62
     2
  6
CONTINUOUS
 10
-0.904874
 20
4.377591
  0
VERTEX
  8
PLAN_1
 62
     2
  6
CONTINUOUS
 10
-0.904874
 20
4.368709
  0
VERTEX
  8
PLAN_1
 62
     2
  6
CONTINUOUS
 10
-0.955402
 20
4.368709
  0
VERTEX
  8
PLAN_1
 62
     2
  6
CONTINUOUS
 10
-0.954846
 20
4.374260
  0
VERTEX
  8
PLAN_1
 62
     2
  6
CONTINUOUS
 10
-0.953736
 20
4.379256
  0
VERTEX
  8
PLAN_1
 62
     2
  6
CONTINUOUS
 10
-0.952071
 20
4.383146
  0
VERTEX
  8
PLAN_1
 62
     2
  6
CONTINUOUS
 10
-0.949850
 20
4.387031
  0
VERTEX
  8
PLAN_1
 62
     2
  6
CONTINUOUS
 10
-0.947630
 20
4.390362
  0
VERTEX
  8
PLAN_1
 62
     2
  6
CONTINUOUS
 10
-0.944854
 20
4.393138
  0
VERTEX
  8
PLAN_1
 62
     2
  6
CONTINUOUS
 10
-0.941520
 20
4.395358
  0
VERTEX
  8
PLAN_1
 62
     2
  6
CONTINUOUS
 10
-0.938189
 20
4.398138
  0
VERTEX
  8
PLAN_1
 62
     2
  6
CONTINUOUS
 10
-0.928197
 20
4.403689
  0
VERTEX
  8
PLAN_1
 62
     2
  6
CONTINUOUS
 10
-0.925417
 20
4.405354
  0
VERTEX
  8
PLAN_1
 62
     2
  6
CONTINUOUS
 10
-0.923197
 20
4.406465
  0
VERTEX
  8
PLAN_1
 62
     2
  6
CONTINUOUS
 10
-0.920421
 20
4.408130
  0
VERTEX
  8
PLAN_1
 62
     2
  6
CONTINUOUS
 10
-0.918756
 20
4.410350
  0
VERTEX
  8
PLAN_1
 62
     2
  6
CONTINUOUS
 10
-0.917091
 20
4.412016
  0
VERTEX
  8
PLAN_1
 62
     2
  6
CONTINUOUS
 10
-0.915980
 20
4.414236
  0
VERTEX
  8
PLAN_1
 62
     2
  6
CONTINUOUS
 10
-0.915425
 20
4.417016
  0
VERTEX
  8
PLAN_1
 62
     2
  6
CONTINUOUS
 10
-0.914870
 20
4.420346
  0
VERTEX
  8
PLAN_1
 62
     2
  6
CONTINUOUS
 10
-0.914870
 20
4.422567
  0
VERTEX
  8
PLAN_1
 62
     2
  6
CONTINUOUS
 10
-0.915425
 20
4.425343
  0
VERTEX
  8
PLAN_1
 62
     2
  6
CONTINUOUS
 10
-0.916535
 20
4.427563
  0
VERTEX
  8
PLAN_1
 62
     2
  6
CONTINUOUS
 10
-0.918201
 20
4.429228
  0
VERTEX
  8
PLAN_1
 62
     2
  6
CONTINUOUS
 10
-0.919866
 20
4.430894
  0
VERTEX
  8
PLAN_1
 62
     2
  6
CONTINUOUS
 10
-0.922642
 20
4.432559
  0
VERTEX
  8
PLAN_1
 62
     2
  6
CONTINUOUS
 10
-0.925417
 20
4.433673
  0
VERTEX
  8
PLAN_1
 62
     2
  6
CONTINUOUS
 10
-0.929307
 20
4.433673
  0
VERTEX
  8
PLAN_1
 62
     2
  6
CONTINUOUS
 10
-0.932083
 20
4.433673
  0
VERTEX
  8
PLAN_1
 62
     2
  6
CONTINUOUS
 10
-0.933748
 20
4.433118
  0
VERTEX
  8
PLAN_1
 62
     2
  6
CONTINUOUS
 10
-0.935969
 20
4.432559
  0
VERTEX
  8
PLAN_1
 62
     2
  6
CONTINUOUS
 10
-0.937634
 20
4.431449
  0
VERTEX
  8
PLAN_1
 62
     2
  6
CONTINUOUS
 10
-0.939854
 20
4.429228
  0
VERTEX
  8
PLAN_1
 62
     2
  6
CONTINUOUS
 10
-0.942075
 20
4.426453
  0
VERTEX
  8
PLAN_1
 62
     2
  6
CONTINUOUS
 10
-0.943185
 20
4.423677
  0
VERTEX
  8
PLAN_1
 62
     2
  6
CONTINUOUS
 10
-0.943744
 20
4.420902
  0
VERTEX
  8
PLAN_1
 62
     2
  6
CONTINUOUS
 10
-0.943744
 20
4.418126
  0
VERTEX
  8
PLAN_1
 62
     2
  6
CONTINUOUS
 10
-0.944299
 20
4.415906
  0
VERTEX
  8
PLAN_1
 62
     2
  6
CONTINUOUS
 10
-0.953181
 20
4.415906
  0
SEQEND
  8
0
  0
POLYLINE
  8
PLAN_1
 62
     2
  6
CONTINUOUS
 66
     1
 40
0.004441
 41
0.004441
  0
VERTEX
  8
PLAN_1
 62
     2
  6
CONTINUOUS
 10
-2.253000
 20
4.205469
  0
VERTEX
  8
PLAN_1
 62
     2
  6
CONTINUOUS
 10
-1.934846
 20
4.205469
  0
SEQEND
  8
0
  0
SOLID
  8
PLAN_1
 62
     2
 10
-1.905417
 20
4.205469
 11
-1.964831
 21
4.221571
 12
-1.905417
 22
4.205469
 13
-1.964831
 23
4.189921
  0
POLYLINE
  8
PLAN_1
 62
     2
  6
CONTINUOUS
 66
     1
 40
0.003000
 41
0.003000
  0
VERTEX
  8
PLAN_1
 62
     2
  6
CONTINUOUS
 10
-1.905417
 20
4.205469
  0
VERTEX
  8
PLAN_1
 62
     2
  6
CONTINUOUS
 10
-1.964831
 20
4.221571
  0
VERTEX
  8
PLAN_1
 62
     2
  6
CONTINUOUS
 10
-1.964831
 20
4.189921
  0
VERTEX
  8
PLAN_1
 62
     2
  6
CONTINUOUS
 10
-1.905417
 20
4.205469
  0
SEQEND
  8
0
  0
SOLID
  8
PLAN_1
 62
     2
 10
-2.069772
 20
4.205469
 11
-2.010913
 21
4.221571
 12
-2.069772
 22
4.205469
 13
-2.010913
 23
4.189921
  0
POLYLINE
  8
PLAN_1
 62
     2
  6
CONTINUOUS
 66
     1
 40
0.003000
 41
0.003000
  0
VERTEX
  8
PLAN_1
 62
     2
  6
CONTINUOUS
 10
-2.069772
 20
4.205469
  0
VERTEX
  8
PLAN_1
 62
     2
  6
CONTINUOUS
 10
-2.010913
 20
4.221571
  0
VERTEX
  8
PLAN_1
 62
     2
  6
CONTINUOUS
 10
-2.010913
 20
4.189921
  0
VERTEX
  8
PLAN_1
 62
     2
  6
CONTINUOUS
 10
-2.069772
 20
4.205469
  0
SEQEND
  8
0
  0
POLYLINE
  8
PLAN_1
 62
     2
  6
CONTINUOUS
 66
     1
 40
0.003000
 41
0.003000
  0
VERTEX
  8
PLAN_1
 62
     2
  6
CONTINUOUS
 10
-2.221906
 20
4.271539
  0
VERTEX
  8
PLAN_1
 62
     2
  6
CONTINUOUS
 10
-2.220795
 20
4.272650
  0
VERTEX
  8
PLAN_1
 62
     2
  6
CONTINUOUS
 10
-2.219685
 20
4.273764
  0
VERTEX
  8
PLAN_1
 62
     2
  6
CONTINUOUS
 10
-2.218020
 20
4.274319
  0
VERTEX
  8
PLAN_1
 62
     2
  6
CONTINUOUS
 10
-2.216354
 20
4.274874
  0
VERTEX
  8
PLAN_1
 62
     2
  6
CONTINUOUS
 10
-2.214689
 20
4.275429
  0
VERTEX
  8
PLAN_1
 62
     2
  6
CONTINUOUS
 10
-2.212469
 20
4.275984
  0
VERTEX
  8
PLAN_1
 62
     2
  6
CONTINUOUS
 10
-2.210248
 20
4.275984
  0
VERTEX
  8
PLAN_1
 62
     2
  6
CONTINUOUS
 10
-2.208024
 20
4.276539
  0
VERTEX
  8
PLAN_1
 62
     2
  6
CONTINUOUS
 10
-2.203583
 20
4.275984
  0
VERTEX
  8
PLAN_1
 62
     2
  6
CONTINUOUS
 10
-2.199142
 20
4.274874
  0
VERTEX
  8
PLAN_1
 62
     2
  6
CONTINUOUS
 10
-2.195256
 20
4.272650
  0
VERTEX
  8
PLAN_1
 62
     2
  6
CONTINUOUS
 10
-2.191370
 20
4.270429
  0
VERTEX
  8
PLAN_1
 62
     2
  6
CONTINUOUS
 10
-2.188591
 20
4.267098
  0
VERTEX
  8
PLAN_1
 62
     2
  6
CONTINUOUS
 10
-2.185815
 20
4.263213
  0
VERTEX
  8
PLAN_1
 62
     2
  6
CONTINUOUS
 10
-2.184705
 20
4.258217
  0
VERTEX
  8
PLAN_1
 62
     2
  6
CONTINUOUS
 10
-2.184150
 20
4.252661
  0
VERTEX
  8
PLAN_1
 62
     2
  6
CONTINUOUS
 10
-2.184150
 20
4.249331
  0
VERTEX
  8
PLAN_1
 62
     2
  6
CONTINUOUS
 10
-2.184705
 20
4.245445
  0
VERTEX
  8
PLAN_1
 62
     2
  6
CONTINUOUS
 10
-2.186370
 20
4.241004
  0
VERTEX
  8
PLAN_1
 62
     2
  6
CONTINUOUS
 10
-2.188591
 20
4.237118
  0
VERTEX
  8
PLAN_1
 62
     2
  6
CONTINUOUS
 10
-2.190256
 20
4.234894
  0
VERTEX
  8
PLAN_1
 62
     2
  6
CONTINUOUS
 10
-2.191925
 20
4.233228
  0
VERTEX
  8
PLAN_1
 62
     2
  6
CONTINUOUS
 10
-2.194146
 20
4.231563
  0
VERTEX
  8
PLAN_1
 62
     2
  6
CONTINUOUS
 10
-2.196921
 20
4.229898
  0
VERTEX
  8
PLAN_1
 62
     2
  6
CONTINUOUS
 10
-2.199697
 20
4.228787
  0
VERTEX
  8
PLAN_1
 62
     2
  6
CONTINUOUS
 10
-2.203028
 20
4.228232
  0
VERTEX
  8
PLAN_1
 62
     2
  6
CONTINUOUS
 10
-2.206358
 20
4.227677
  0
VERTEX
  8
PLAN_1
 62
     2
  6
CONTINUOUS
 10
-2.210248
 20
4.227122
  0
VERTEX
  8
PLAN_1
 62
     2
  6
CONTINUOUS
 10
-2.214134
 20
4.227677
  0
VERTEX
  8
PLAN_1
 62
     2
  6
CONTINUOUS
 10
-2.218020
 20
4.228232
  0
VERTEX
  8
PLAN_1
 62
     2
  6
CONTINUOUS
 10
-2.221906
 20
4.229343
  0
VERTEX
  8
PLAN_1
 62
     2
  6
CONTINUOUS
 10
-2.225236
 20
4.231008
  0
VERTEX
  8
PLAN_1
 62
     2
  6
CONTINUOUS
 10
-2.228571
 20
4.233783
  0
VERTEX
  8
PLAN_1
 62
     2
  6
CONTINUOUS
 10
-2.230791
 20
4.237118
  0
VERTEX
  8
PLAN_1
 62
     2
  6
CONTINUOUS
 10
-2.231902
 20
4.239339
  0
VERTEX
  8
PLAN_1
 62
     2
  6
CONTINUOUS
 10
-2.233012
 20
4.242114
  0
VERTEX
  8
PLAN_1
 62
     2
  6
CONTINUOUS
 10
-2.233567
 20
4.244335
  0
VERTEX
  8
PLAN_1
 62
     2
  6
CONTINUOUS
 10
-2.234122
 20
4.247665
  0
VERTEX
  8
PLAN_1
 62
     2
  6
CONTINUOUS
 10
-2.224681
 20
4.247665
  0
VERTEX
  8
PLAN_1
 62
     2
  6
CONTINUOUS
 10
-2.224126
 20
4.244335
  0
VERTEX
  8
PLAN_1
 62
     2
  6
CONTINUOUS
 10
-2.223016
 20
4.242114
  0
VERTEX
  8
PLAN_1
 62
     2
  6
CONTINUOUS
 10
-2.221350
 20
4.239894
  0
VERTEX
  8
PLAN_1
 62
     2
  6
CONTINUOUS
 10
-2.219685
 20
4.238228
  0
VERTEX
  8
PLAN_1
 62
     2
  6
CONTINUOUS
 10
-2.217465
 20
4.236559
  0
VERTEX
  8
PLAN_1
 62
     2
  6
CONTINUOUS
 10
-2.214689
 20
4.236004
  0
VERTEX
  8
PLAN_1
 62
     2
  6
CONTINUOUS
 10
-2.211913
 20
4.235449
  0
VERTEX
  8
PLAN_1
 62
     2
  6
CONTINUOUS
 10
-2.209138
 20
4.234894
  0
VERTEX
  8
PLAN_1
 62
     2
  6
CONTINUOUS
 10
-2.205803
 20
4.235449
  0
VERTEX
  8
PLAN_1
 62
     2
  6
CONTINUOUS
 10
-2.203028
 20
4.236559
  0
VERTEX
  8
PLAN_1
 62
     2
  6
CONTINUOUS
 10
-2.200252
 20
4.238228
  0
VERTEX
  8
PLAN_1
 62
     2
  6
CONTINUOUS
 10
-2.198031
 20
4.239894
  0
VERTEX
  8
PLAN_1
 62
     2
  6
CONTINUOUS
 10
-2.196366
 20
4.242669
  0
VERTEX
  8
PLAN_1
 62
     2
  6
CONTINUOUS
 10
-2.194701
 20
4.245445
  0
VERTEX
  8
PLAN_1
 62
     2
  6
CONTINUOUS
 10
-2.194146
 20
4.248776
  0
VERTEX
  8
PLAN_1
 62
     2
  6
CONTINUOUS
 10
-2.193591
 20
4.252106
  0
VERTEX
  8
PLAN_1
 62
     2
  6
CONTINUOUS
 10
-2.194146
 20
4.255441
  0
VERTEX
  8
PLAN_1
 62
     2
  6
CONTINUOUS
 10
-2.195256
 20
4.258772
  0
VERTEX
  8
PLAN_1
 62
     2
  6
CONTINUOUS
 10
-2.196366
 20
4.261547
  0
VERTEX
  8
PLAN_1
 62
     2
  6
CONTINUOUS
 10
-2.198587
 20
4.263768
  0
VERTEX
  8
PLAN_1
 62
     2
  6
CONTINUOUS
 10
-2.200807
 20
4.265988
  0
VERTEX
  8
PLAN_1
 62
     2
  6
CONTINUOUS
 10
-2.203583
 20
4.267098
  0
VERTEX
  8
PLAN_1
 62
     2
  6
CONTINUOUS
 10
-2.206913
 20
4.267654
  0
VERTEX
  8
PLAN_1
 62
     2
  6
CONTINUOUS
 10
-2.210248
 20
4.268209
  0
VERTEX
  8
PLAN_1
 62
     2
  6
CONTINUOUS
 10
-2.211913
 20
4.268209
  0
VERTEX
  8
PLAN_1
 62
     2
  6
CONTINUOUS
 10
-2.213579
 20
4.267654
  0
VERTEX
  8
PLAN_1
 62
     2
  6
CONTINUOUS
 10
-2.215799
 20
4.267098
  0
VERTEX
  8
PLAN_1
 62
     2
  6
CONTINUOUS
 10
-2.217465
 20
4.266543
  0
VERTEX
  8
PLAN_1
 62
     2
  6
CONTINUOUS
 10
-2.219130
 20
4.265433
  0
VERTEX
  8
PLAN_1
 62
     2
  6
CONTINUOUS
 10
-2.220795
 20
4.264323
  0
VERTEX
  8
PLAN_1
 62
     2
  6
CONTINUOUS
 10
-2.221906
 20
4.262657
  0
VERTEX
  8
PLAN_1
 62
     2
  6
CONTINUOUS
 10
-2.223571
 20
4.260992
  0
VERTEX
  8
PLAN_1
 62
     2
  6
CONTINUOUS
 10
-2.231346
 20
4.261547
  0
VERTEX
  8
PLAN_1
 62
     2
  6
CONTINUOUS
 10
-2.225791
 20
4.300969
  0
VERTEX
  8
PLAN_1
 62
     2
  6
CONTINUOUS
 10
-2.188035
 20
4.300969
  0
VERTEX
  8
PLAN_1
 62
     2
  6
CONTINUOUS
 10
-2.188035
 20
4.292087
  0
VERTEX
  8
PLAN_1
 62
     2
  6
CONTINUOUS
 10
-2.219130
 20
4.292087
  0
VERTEX
  8
PLAN_1
 62
     2
  6
CONTINUOUS
 10
-2.221906
 20
4.271539
  0
SEQEND
  8
0
  0
POLYLINE
  8
PLAN_1
 62
     2
  6
CONTINUOUS
 66
     1
 40
0.003000
 41
0.003000
  0
VERTEX
  8
PLAN_1
 62
     2
  6
CONTINUOUS
 10
-2.170268
 20
4.229343
  0
VERTEX
  8
PLAN_1
 62
     2
  6
CONTINUOUS
 10
-2.164717
 20
4.229343
  0
VERTEX
  8
PLAN_1
 62
     2
  6
CONTINUOUS
 10
-2.165272
 20
4.227122
  0
VERTEX
  8
PLAN_1
 62
     2
  6
CONTINUOUS
 10
-2.165272
 20
4.225457
  0
VERTEX
  8
PLAN_1
 62
     2
  6
CONTINUOUS
 10
-2.165827
 20
4.223791
  0
VERTEX
  8
PLAN_1
 62
     2
  6
CONTINUOUS
 10
-2.166382
 20
4.222126
  0
VERTEX
  8
PLAN_1
 62
     2
  6
CONTINUOUS
 10
-2.166937
 20
4.221016
  0
VERTEX
  8
PLAN_1
 62
     2
  6
CONTINUOUS
 10
-2.168047
 20
4.219906
  0
VERTEX
  8
PLAN_1
 62
     2
  6
CONTINUOUS
 10
-2.169157
 20
4.219350
  0
VERTEX
  8
PLAN_1
 62
     2
  6
CONTINUOUS
 10
-2.170268
 20
4.218791
  0
VERTEX
  8
PLAN_1
 62
     2
  6
CONTINUOUS
 10
-2.170268
 20
4.213795
  0
VERTEX
  8
PLAN_1
 62
     2
  6
CONTINUOUS
 10
-2.169713
 20
4.214350
  0
VERTEX
  8
PLAN_1
 62
     2
  6
CONTINUOUS
 10
-2.168047
 20
4.214350
  0
VERTEX
  8
PLAN_1
 62
     2
  6
CONTINUOUS
 10
-2.166382
 20
4.215461
  0
VERTEX
  8
PLAN_1
 62
     2
  6
CONTINUOUS
 10
-2.164161
 20
4.216571
  0
VERTEX
  8
PLAN_1
 62
     2
  6
CONTINUOUS
 10
-2.162496
 20
4.218791
  0
VERTEX
  8
PLAN_1
 62
     2
  6
CONTINUOUS
 10
-2.160831
 20
4.221571
  0
VERTEX
  8
PLAN_1
 62
     2
  6
CONTINUOUS
 10
-2.160276
 20
4.225457
  0
VERTEX
  8
PLAN_1
 62
     2
  6
CONTINUOUS
 10
-2.159720
 20
4.229898
  0
VERTEX
  8
PLAN_1
 62
     2
  6
CONTINUOUS
 10
-2.159720
 20
4.240449
  0
VERTEX
  8
PLAN_1
 62
     2
  6
CONTINUOUS
 10
-2.170268
 20
4.240449
  0
VERTEX
  8
PLAN_1
 62
     2
  6
CONTINUOUS
 10
-2.170268
 20
4.229343
  0
SEQEND
  8
0
  0
POLYLINE
  8
PLAN_1
 62
     2
  6
CONTINUOUS
 66
     1
 40
0.003000
 41
0.003000
  0
VERTEX
  8
PLAN_1
 62
     2
  6
CONTINUOUS
 10
-2.135287
 20
4.271539
  0
VERTEX
  8
PLAN_1
 62
     2
  6
CONTINUOUS
 10
-2.134177
 20
4.272650
  0
VERTEX
  8
PLAN_1
 62
     2
  6
CONTINUOUS
 10
-2.132512
 20
4.273764
  0
VERTEX
  8
PLAN_1
 62
     2
  6
CONTINUOUS
 10
-2.131402
 20
4.274319
  0
VERTEX
  8
PLAN_1
 62
     2
  6
CONTINUOUS
 10
-2.129736
 20
4.274874
  0
VERTEX
  8
PLAN_1
 62
     2
  6
CONTINUOUS
 10
-2.127516
 20
4.275429
  0
VERTEX
  8
PLAN_1
 62
     2
  6
CONTINUOUS
 10
-2.125850
 20
4.275984
  0
VERTEX
  8
PLAN_1
 62
     2
  6
CONTINUOUS
 10
-2.123630
 20
4.275984
  0
VERTEX
  8
PLAN_1
 62
     2
  6
CONTINUOUS
 10
-2.121409
 20
4.276539
  0
VERTEX
  8
PLAN_1
 62
     2
  6
CONTINUOUS
 10
-2.116965
 20
4.275984
  0
VERTEX
  8
PLAN_1
 62
     2
  6
CONTINUOUS
 10
-2.112524
 20
4.274874
  0
VERTEX
  8
PLAN_1
 62
     2
  6
CONTINUOUS
 10
-2.108638
 20
4.272650
  0
VERTEX
  8
PLAN_1
 62
     2
  6
CONTINUOUS
 10
-2.104752
 20
4.270429
  0
VERTEX
  8
PLAN_1
 62
     2
  6
CONTINUOUS
 10
-2.101417
 20
4.267098
  0
VERTEX
  8
PLAN_1
 62
     2
  6
CONTINUOUS
 10
-2.099197
 20
4.263213
  0
VERTEX
  8
PLAN_1
 62
     2
  6
CONTINUOUS
 10
-2.097531
 20
4.258217
  0
VERTEX
  8
PLAN_1
 62
     2
  6
CONTINUOUS
 10
-2.096976
 20
4.252661
  0
VERTEX
  8
PLAN_1
 62
     2
  6
CONTINUOUS
 10
-2.097531
 20
4.249331
  0
VERTEX
  8
PLAN_1
 62
     2
  6
CONTINUOUS
 10
-2.098087
 20
4.245445
  0
VERTEX
  8
PLAN_1
 62
     2
  6
CONTINUOUS
 10
-2.099752
 20
4.241004
  0
VERTEX
  8
PLAN_1
 62
     2
  6
CONTINUOUS
 10
-2.101976
 20
4.237118
  0
VERTEX
  8
PLAN_1
 62
     2
  6
CONTINUOUS
 10
-2.103642
 20
4.234894
  0
VERTEX
  8
PLAN_1
 62
     2
  6
CONTINUOUS
 10
-2.105307
 20
4.233228
  0
VERTEX
  8
PLAN_1
 62
     2
  6
CONTINUOUS
 10
-2.107528
 20
4.231563
  0
VERTEX
  8
PLAN_1
 62
     2
  6
CONTINUOUS
 10
-2.109748
 20
4.229898
  0
VERTEX
  8
PLAN_1
 62
     2
  6
CONTINUOUS
 10
-2.112524
 20
4.228787
  0
VERTEX
  8
PLAN_1
 62
     2
  6
CONTINUOUS
 10
-2.115854
 20
4.228232
  0
VERTEX
  8
PLAN_1
 62
     2
  6
CONTINUOUS
 10
-2.119744
 20
4.227677
  0
VERTEX
  8
PLAN_1
 62
     2
  6
CONTINUOUS
 10
-2.123630
 20
4.227122
  0
VERTEX
  8
PLAN_1
 62
     2
  6
CONTINUOUS
 10
-2.127516
 20
4.227677
  0
VERTEX
  8
PLAN_1
 62
     2
  6
CONTINUOUS
 10
-2.131402
 20
4.228232
  0
VERTEX
  8
PLAN_1
 62
     2
  6
CONTINUOUS
 10
-2.134732
 20
4.229343
  0
VERTEX
  8
PLAN_1
 62
     2
  6
CONTINUOUS
 10
-2.138622
 20
4.231008
  0
VERTEX
  8
PLAN_1
 62
     2
  6
CONTINUOUS
 10
-2.141398
 20
4.233783
  0
VERTEX
  8
PLAN_1
 62
     2
  6
CONTINUOUS
 10
-2.144173
 20
4.237118
  0
VERTEX
  8
PLAN_1
 62
     2
  6
CONTINUOUS
 10
-2.145283
 20
4.239339
  0
VERTEX
  8
PLAN_1
 62
     2
  6
CONTINUOUS
 10
-2.146394
 20
4.242114
  0
VERTEX
  8
PLAN_1
 62
     2
  6
CONTINUOUS
 10
-2.146949
 20
4.244335
  0
VERTEX
  8
PLAN_1
 62
     2
  6
CONTINUOUS
 10
-2.147504
 20
4.247665
  0
VERTEX
  8
PLAN_1
 62
     2
  6
CONTINUOUS
 10
-2.138067
 20
4.247665
  0
VERTEX
  8
PLAN_1
 62
     2
  6
CONTINUOUS
 10
-2.137512
 20
4.244335
  0
VERTEX
  8
PLAN_1
 62
     2
  6
CONTINUOUS
 10
-2.136398
 20
4.242114
  0
VERTEX
  8
PLAN_1
 62
     2
  6
CONTINUOUS
 10
-2.134732
 20
4.239894
  0
VERTEX
  8
PLAN_1
 62
     2
  6
CONTINUOUS
 10
-2.133067
 20
4.238228
  0
VERTEX
  8
PLAN_1
 62
     2
  6
CONTINUOUS
 10
-2.130846
 20
4.236559
  0
VERTEX
  8
PLAN_1
 62
     2
  6
CONTINUOUS
 10
-2.128071
 20
4.236004
  0
VERTEX
  8
PLAN_1
 62
     2
  6
CONTINUOUS
 10
-2.125295
 20
4.235449
  0
VERTEX
  8
PLAN_1
 62
     2
  6
CONTINUOUS
 10
-2.122520
 20
4.234894
  0
VERTEX
  8
PLAN_1
 62
     2
  6
CONTINUOUS
 10
-2.119185
 20
4.235449
  0
VERTEX
  8
PLAN_1
 62
     2
  6
CONTINUOUS
 10
-2.115854
 20
4.236559
  0
VERTEX
  8
PLAN_1
 62
     2
  6
CONTINUOUS
 10
-2.113079
 20
4.238228
  0
VERTEX
  8
PLAN_1
 62
     2
  6
CONTINUOUS
 10
-2.110858
 20
4.239894
  0
VERTEX
  8
PLAN_1
 62
     2
  6
CONTINUOUS
 10
-2.109193
 20
4.242669
  0
VERTEX
  8
PLAN_1
 62
     2
  6
CONTINUOUS
 10
-2.108083
 20
4.245445
  0
VERTEX
  8
PLAN_1
 62
     2
  6
CONTINUOUS
 10
-2.106972
 20
4.248776
  0
VERTEX
  8
PLAN_1
 62
     2
  6
CONTINUOUS
 10
-2.106972
 20
4.252106
  0
VERTEX
  8
PLAN_1
 62
     2
  6
CONTINUOUS
 10
-2.107528
 20
4.255441
  0
VERTEX
  8
PLAN_1
 62
     2
  6
CONTINUOUS
 10
-2.108083
 20
4.258772
  0
VERTEX
  8
PLAN_1
 62
     2
  6
CONTINUOUS
 10
-2.109748
 20
4.261547
  0
VERTEX
  8
PLAN_1
 62
     2
  6
CONTINUOUS
 10
-2.111413
 20
4.263768
  0
VERTEX
  8
PLAN_1
 62
     2
  6
CONTINUOUS
 10
-2.114189
 20
4.265988
  0
VERTEX
  8
PLAN_1
 62
     2
  6
CONTINUOUS
 10
-2.116965
 20
4.267098
  0
VERTEX
  8
PLAN_1
 62
     2
  6
CONTINUOUS
 10
-2.119744
 20
4.267654
  0
VERTEX
  8
PLAN_1
 62
     2
  6
CONTINUOUS
 10
-2.123075
 20
4.268209
  0
VERTEX
  8
PLAN_1
 62
     2
  6
CONTINUOUS
 10
-2.125295
 20
4.268209
  0
VERTEX
  8
PLAN_1
 62
     2
  6
CONTINUOUS
 10
-2.126961
 20
4.267654
  0
VERTEX
  8
PLAN_1
 62
     2
  6
CONTINUOUS
 10
-2.128626
 20
4.267098
  0
VERTEX
  8
PLAN_1
 62
     2
  6
CONTINUOUS
 10
-2.130846
 20
4.266543
  0
VERTEX
  8
PLAN_1
 62
     2
  6
CONTINUOUS
 10
-2.132512
 20
4.265433
  0
VERTEX
  8
PLAN_1
 62
     2
  6
CONTINUOUS
 10
-2.133622
 20
4.264323
  0
VERTEX
  8
PLAN_1
 62
     2
  6
CONTINUOUS
 10
-2.135287
 20
4.262657
  0
VERTEX
  8
PLAN_1
 62
     2
  6
CONTINUOUS
 10
-2.136953
 20
4.260992
  0
VERTEX
  8
PLAN_1
 62
     2
  6
CONTINUOUS
 10
-2.144728
 20
4.261547
  0
VERTEX
  8
PLAN_1
 62
     2
  6
CONTINUOUS
 10
-2.139177
 20
4.300969
  0
VERTEX
  8
PLAN_1
 62
     2
  6
CONTINUOUS
 10
-2.101417
 20
4.300969
  0
VERTEX
  8
PLAN_1
 62
     2
  6
CONTINUOUS
 10
-2.101417
 20
4.292087
  0
VERTEX
  8
PLAN_1
 62
     2
  6
CONTINUOUS
 10
-2.131957
 20
4.292087
  0
VERTEX
  8
PLAN_1
 62
     2
  6
CONTINUOUS
 10
-2.135287
 20
4.271539
  0
SEQEND
  8
0
  0
POLYLINE
  8
PLAN_1
 62
     2
  6
CONTINUOUS
 66
     1
 40
0.004441
 41
0.004441
  0
VERTEX
  8
PLAN_1
 62
     2
  6
CONTINUOUS
 10
-1.987039
 20
4.027791
  0
VERTEX
  8
PLAN_1
 62
     2
  6
CONTINUOUS
 10
-1.987039
 20
4.184370
  0
SEQEND
  8
0
  0
POLYLINE
  8
PLAN_1
 62
     2
  6
CONTINUOUS
 66
     1
 40
0.004441
 41
0.004441
  0
VERTEX
  8
PLAN_1
 62
     2
  6
CONTINUOUS
 10
-2.069772
 20
4.229343
  0
VERTEX
  8
PLAN_1
 62
     2
  6
CONTINUOUS
 10
-2.069772
 20
4.069433
  0
SEQEND
  8
0
  0
POLYLINE
  8
PLAN_1
 62
     2
  6
CONTINUOUS
 66
     1
 40
0.004441
 41
0.004441
  0
VERTEX
  8
PLAN_1
 62
     2
  6
CONTINUOUS
 10
-1.905417
 20
4.229343
  0
VERTEX
  8
PLAN_1
 62
     2
  6
CONTINUOUS
 10
-1.905417
 20
4.069433
  0
SEQEND
  8
0
  0
POLYLINE
  8
PLAN_1
 62
     2
  6
CONTINUOUS
 66
     1
 40
0.004441
 41
0.004441
  0
VERTEX
  8
PLAN_1
 62
     2
  6
CONTINUOUS
 10
-1.623358
 20
4.209909
  0
VERTEX
  8
PLAN_1
 62
     2
  6
CONTINUOUS
 10
-1.623358
 20
4.053331
  0
SEQEND
  8
0
  0
POLYLINE
  8
PLAN_1
 62
     2
  6
CONTINUOUS
 66
     1
 40
0.004441
 41
0.004441
  0
VERTEX
  8
PLAN_1
 62
     2
  6
CONTINUOUS
 10
0.071236
 20
1.212720
  0
VERTEX
  8
PLAN_1
 62
     2
  6
CONTINUOUS
 10
0.071236
 20
4.368709
  0
SEQEND
  8
0
  0
POLYLINE
  8
PLAN_1
 62
     2
  6
CONTINUOUS
 66
     1
 40
0.004441
 41
0.004441
  0
VERTEX
  8
PLAN_1
 62
     2
  6
CONTINUOUS
 10
-1.987039
 20
4.226012
  0
VERTEX
  8
PLAN_1
 62
     2
  6
CONTINUOUS
 10
-1.987039
 20
4.368709
  0
SEQEND
  8
0
  0
POLYLINE
  8
PLAN_1
 62
     2
  6
CONTINUOUS
 66
     1
 40
0.003000
 41
0.003000
  0
VERTEX
  8
PLAN_1
 62
     2
  6
CONTINUOUS
 10
0.205606
 20
0.909004
  0
VERTEX
  8
PLAN_1
 62
     2
  6
CONTINUOUS
 10
0.205606
 20
0.899563
  0
VERTEX
  8
PLAN_1
 62
     2
  6
CONTINUOUS
 10
0.153413
 20
0.899563
  0
VERTEX
  8
PLAN_1
 62
     2
  6
CONTINUOUS
 10
0.153413
 20
0.882350
  0
VERTEX
  8
PLAN_1
 62
     2
  6
CONTINUOUS
 10
0.146197
 20
0.882350
  0
VERTEX
  8
PLAN_1
 62
     2
  6
CONTINUOUS
 10
0.145642
 20
0.886791
  0
VERTEX
  8
PLAN_1
 62
     2
  6
CONTINUOUS
 10
0.145087
 20
0.890126
  0
VERTEX
  8
PLAN_1
 62
     2
  6
CONTINUOUS
 10
0.144531
 20
0.892902
  0
VERTEX
  8
PLAN_1
 62
     2
  6
CONTINUOUS
 10
0.143417
 20
0.895677
  0
VERTEX
  8
PLAN_1
 62
     2
  6
CONTINUOUS
 10
0.141752
 20
0.897898
  0
VERTEX
  8
PLAN_1
 62
     2
  6
CONTINUOUS
 10
0.139531
 20
0.899563
  0
VERTEX
  8
PLAN_1
 62
     2
  6
CONTINUOUS
 10
0.136201
 20
0.900673
  0
VERTEX
  8
PLAN_1
 62
     2
  6
CONTINUOUS
 10
0.132315
 20
0.902339
  0
VERTEX
  8
PLAN_1
 62
     2
  6
CONTINUOUS
 10
0.132315
 20
0.909004
  0
VERTEX
  8
PLAN_1
 62
     2
  6
CONTINUOUS
 10
0.205606
 20
0.909004
  0
SEQEND
  8
0
  0
POLYLINE
  8
PLAN_1
 62
     2
  6
CONTINUOUS
 66
     1
 40
0.003000
 41
0.003000
  0
VERTEX
  8
PLAN_1
 62
     2
  6
CONTINUOUS
 10
0.163965
 20
0.952866
  0
VERTEX
  8
PLAN_1
 62
     2
  6
CONTINUOUS
 10
0.163965
 20
0.953421
  0
VERTEX
  8
PLAN_1
 62
     2
  6
CONTINUOUS
 10
0.163965
 20
0.954531
  0
VERTEX
  8
PLAN_1
 62
     2
  6
CONTINUOUS
 10
0.163965
 20
0.955087
  0
VERTEX
  8
PLAN_1
 62
     2
  6
CONTINUOUS
 10
0.163965
 20
0.955642
  0
VERTEX
  8
PLAN_1
 62
     2
  6
CONTINUOUS
 10
0.163965
 20
0.956197
  0
VERTEX
  8
PLAN_1
 62
     2
  6
CONTINUOUS
 10
0.163965
 20
0.956752
  0
VERTEX
  8
PLAN_1
 62
     2
  6
CONTINUOUS
 10
0.163965
 20
0.957307
  0
VERTEX
  8
PLAN_1
 62
     2
  6
CONTINUOUS
 10
0.163965
 20
0.957862
  0
VERTEX
  8
PLAN_1
 62
     2
  6
CONTINUOUS
 10
0.163965
 20
0.960642
  0
VERTEX
  8
PLAN_1
 62
     2
  6
CONTINUOUS
 10
0.163409
 20
0.962862
  0
VERTEX
  8
PLAN_1
 62
     2
  6
CONTINUOUS
 10
0.162299
 20
0.965638
  0
VERTEX
  8
PLAN_1
 62
     2
  6
CONTINUOUS
 10
0.161185
 20
0.967303
  0
VERTEX
  8
PLAN_1
 62
     2
  6
CONTINUOUS
 10
0.159520
 20
0.969524
  0
VERTEX
  8
PLAN_1
 62
     2
  6
CONTINUOUS
 10
0.157854
 20
0.970634
  0
VERTEX
  8
PLAN_1
 62
     2
  6
CONTINUOUS
 10
0.155079
 20
0.971744
  0
VERTEX
  8
PLAN_1
 62
     2
  6
CONTINUOUS
 10
0.151748
 20
0.971744
  0
VERTEX
  8
PLAN_1
 62
     2
  6
CONTINUOUS
 10
0.150083
 20
0.971744
  0
VERTEX
  8
PLAN_1
 62
     2
  6
CONTINUOUS
 10
0.148417
 20
0.971189
  0
VERTEX
  8
PLAN_1
 62
     2
  6
CONTINUOUS
 10
0.146197
 20
0.970634
  0
VERTEX
  8
PLAN_1
 62
     2
  6
CONTINUOUS
 10
0.144531
 20
0.968969
  0
VERTEX
  8
PLAN_1
 62
     2
  6
CONTINUOUS
 10
0.142862
 20
0.967303
  0
VERTEX
  8
PLAN_1
 62
     2
  6
CONTINUOUS
 10
0.141752
 20
0.965083
  0
VERTEX
  8
PLAN_1
 62
     2
  6
CONTINUOUS
 10
0.140642
 20
0.961752
  0
VERTEX
  8
PLAN_1
 62
     2
  6
CONTINUOUS
 10
0.140642
 20
0.958417
  0
VERTEX
  8
PLAN_1
 62
     2
  6
CONTINUOUS
 10
0.140642
 20
0.953976
  0
VERTEX
  8
PLAN_1
 62
     2
  6
CONTINUOUS
 10
0.142307
 20
0.950646
  0
VERTEX
  8
PLAN_1
 62
     2
  6
CONTINUOUS
 10
0.143976
 20
0.948425
  0
VERTEX
  8
PLAN_1
 62
     2
  6
CONTINUOUS
 10
0.146197
 20
0.946205
  0
VERTEX
  8
PLAN_1
 62
     2
  6
CONTINUOUS
 10
0.148972
 20
0.945094
  0
VERTEX
  8
PLAN_1
 62
     2
  6
CONTINUOUS
 10
0.151748
 20
0.944539
  0
VERTEX
  8
PLAN_1
 62
     2
  6
CONTINUOUS
 10
0.153969
 20
0.943984
  0
VERTEX
  8
PLAN_1
 62
     2
  6
CONTINUOUS
 10
0.156189
 20
0.943984
  0
VERTEX
  8
PLAN_1
 62
     2
  6
CONTINUOUS
 10
0.156189
 20
0.935098
  0
VERTEX
  8
PLAN_1
 62
     2
  6
CONTINUOUS
 10
0.151748
 20
0.935098
  0
VERTEX
  8
PLAN_1
 62
     2
  6
CONTINUOUS
 10
0.147862
 20
0.936209
  0
VERTEX
  8
PLAN_1
 62
     2
  6
CONTINUOUS
 10
0.143976
 20
0.937319
  0
VERTEX
  8
PLAN_1
 62
     2
  6
CONTINUOUS
 10
0.140087
 20
0.939539
  0
VERTEX
  8
PLAN_1
 62
     2
  6
CONTINUOUS
 10
0.138421
 20
0.941209
  0
VERTEX
  8
PLAN_1
 62
     2
  6
CONTINUOUS
 10
0.136756
 20
0.942874
  0
VERTEX
  8
PLAN_1
 62
     2
  6
CONTINUOUS
 10
0.135646
 20
0.944539
  0
VERTEX
  8
PLAN_1
 62
     2
  6
CONTINUOUS
 10
0.134535
 20
0.946760
  0
VERTEX
  8
PLAN_1
 62
     2
  6
CONTINUOUS
 10
0.133425
 20
0.949535
  0
VERTEX
  8
PLAN_1
 62
     2
  6
CONTINUOUS
 10
0.132870
 20
0.952311
  0
VERTEX
  8
PLAN_1
 62
     2
  6
CONTINUOUS
 10
0.132315
 20
0.955087
  0
VERTEX
  8
PLAN_1
 62
     2
  6
CONTINUOUS
 10
0.132315
 20
0.958976
  0
VERTEX
  8
PLAN_1
 62
     2
  6
CONTINUOUS
 10
0.132315
 20
0.963972
  0
VERTEX
  8
PLAN_1
 62
     2
  6
CONTINUOUS
 10
0.133425
 20
0.968413
  0
VERTEX
  8
PLAN_1
 62
     2
  6
CONTINUOUS
 10
0.135091
 20
0.972299
  0
VERTEX
  8
PLAN_1
 62
     2
  6
CONTINUOUS
 10
0.137866
 20
0.975075
  0
VERTEX
  8
PLAN_1
 62
     2
  6
CONTINUOUS
 10
0.140642
 20
0.977854
  0
VERTEX
  8
PLAN_1
 62
     2
  6
CONTINUOUS
 10
0.143976
 20
0.979520
  0
VERTEX
  8
PLAN_1
 62
     2
  6
CONTINUOUS
 10
0.147307
 20
0.980630
  0
VERTEX
  8
PLAN_1
 62
     2
  6
CONTINUOUS
 10
0.151193
 20
0.981185
  0
VERTEX
  8
PLAN_1
 62
     2
  6
CONTINUOUS
 10
0.154524
 20
0.981185
  0
VERTEX
  8
PLAN_1
 62
     2
  6
CONTINUOUS
 10
0.157299
 20
0.980630
  0
VERTEX
  8
PLAN_1
 62
     2
  6
CONTINUOUS
 10
0.160075
 20
0.979520
  0
VERTEX
  8
PLAN_1
 62
     2
  6
CONTINUOUS
 10
0.162299
 20
0.977854
  0
VERTEX
  8
PLAN_1
 62
     2
  6
CONTINUOUS
 10
0.163409
 20
0.976744
  0
VERTEX
  8
PLAN_1
 62
     2
  6
CONTINUOUS
 10
0.165075
 20
0.975075
  0
VERTEX
  8
PLAN_1
 62
     2
  6
CONTINUOUS
 10
0.165630
 20
0.973409
  0
VERTEX
  8
PLAN_1
 62
     2
  6
CONTINUOUS
 10
0.166740
 20
0.971744
  0
VERTEX
  8
PLAN_1
 62
     2
  6
CONTINUOUS
 10
0.167850
 20
0.974520
  0
VERTEX
  8
PLAN_1
 62
     2
  6
CONTINUOUS
 10
0.168961
 20
0.976744
  0
VERTEX
  8
PLAN_1
 62
     2
  6
CONTINUOUS
 10
0.170626
 20
0.978965
  0
VERTEX
  8
PLAN_1
 62
     2
  6
CONTINUOUS
 10
0.172291
 20
0.980630
  0
VERTEX
  8
PLAN_1
 62
     2
  6
CONTINUOUS
 10
0.174512
 20
0.982295
  0
VERTEX
  8
PLAN_1
 62
     2
  6
CONTINUOUS
 10
0.177287
 20
0.983406
  0
VERTEX
  8
PLAN_1
 62
     2
  6
CONTINUOUS
 10
0.180622
 20
0.983961
  0
VERTEX
  8
PLAN_1
 62
     2
  6
CONTINUOUS
 10
0.183953
 20
0.983961
  0
VERTEX
  8
PLAN_1
 62
     2
  6
CONTINUOUS
 10
0.188394
 20
0.983961
  0
VERTEX
  8
PLAN_1
 62
     2
  6
CONTINUOUS
 10
0.192280
 20
0.982850
  0
VERTEX
  8
PLAN_1
 62
     2
  6
CONTINUOUS
 10
0.196720
 20
0.980630
  0
VERTEX
  8
PLAN_1
 62
     2
  6
CONTINUOUS
 10
0.200055
 20
0.977854
  0
VERTEX
  8
PLAN_1
 62
     2
  6
CONTINUOUS
 10
0.202831
 20
0.974520
  0
VERTEX
  8
PLAN_1
 62
     2
  6
CONTINUOUS
 10
0.205051
 20
0.969524
  0
VERTEX
  8
PLAN_1
 62
     2
  6
CONTINUOUS
 10
0.206717
 20
0.964528
  0
VERTEX
  8
PLAN_1
 62
     2
  6
CONTINUOUS
 10
0.207272
 20
0.957862
  0
VERTEX
  8
PLAN_1
 62
     2
  6
CONTINUOUS
 10
0.207272
 20
0.955642
  0
VERTEX
  8
PLAN_1
 62
     2
  6
CONTINUOUS
 10
0.207272
 20
0.953976
  0
VERTEX
  8
PLAN_1
 62
     2
  6
CONTINUOUS
 10
0.206717
 20
0.952311
  0
VERTEX
  8
PLAN_1
 62
     2
  6
CONTINUOUS
 10
0.206161
 20
0.950091
  0
VERTEX
  8
PLAN_1
 62
     2
  6
CONTINUOUS
 10
0.206161
 20
0.948425
  0
VERTEX
  8
PLAN_1
 62
     2
  6
CONTINUOUS
 10
0.205606
 20
0.947315
  0
VERTEX
  8
PLAN_1
 62
     2
  6
CONTINUOUS
 10
0.204496
 20
0.945650
  0
VERTEX
  8
PLAN_1
 62
     2
  6
CONTINUOUS
 10
0.203941
 20
0.944539
  0
VERTEX
  8
PLAN_1
 62
     2
  6
CONTINUOUS
 10
0.202276
 20
0.941209
  0
VERTEX
  8
PLAN_1
 62
     2
  6
CONTINUOUS
 10
0.200055
 20
0.938984
  0
VERTEX
  8
PLAN_1
 62
     2
  6
CONTINUOUS
 10
0.197835
 20
0.937319
  0
VERTEX
  8
PLAN_1
 62
     2
  6
CONTINUOUS
 10
0.195055
 20
0.936209
  0
VERTEX
  8
PLAN_1
 62
     2
  6
CONTINUOUS
 10
0.192280
 20
0.935098
  0
VERTEX
  8
PLAN_1
 62
     2
  6
CONTINUOUS
 10
0.188949
 20
0.933988
  0
VERTEX
  8
PLAN_1
 62
     2
  6
CONTINUOUS
 10
0.186173
 20
0.933433
  0
VERTEX
  8
PLAN_1
 62
     2
  6
CONTINUOUS
 10
0.182843
 20
0.933433
  0
VERTEX
  8
PLAN_1
 62
     2
  6
CONTINUOUS
 10
0.182843
 20
0.942874
  0
VERTEX
  8
PLAN_1
 62
     2
  6
CONTINUOUS
 10
0.185618
 20
0.942874
  0
VERTEX
  8
PLAN_1
 62
     2
  6
CONTINUOUS
 10
0.188394
 20
0.943429
  0
VERTEX
  8
PLAN_1
 62
     2
  6
CONTINUOUS
 10
0.191169
 20
0.944539
  0
VERTEX
  8
PLAN_1
 62
     2
  6
CONTINUOUS
 10
0.193390
 20
0.945650
  0
VERTEX
  8
PLAN_1
 62
     2
  6
CONTINUOUS
 10
0.195610
 20
0.947315
  0
VERTEX
  8
PLAN_1
 62
     2
  6
CONTINUOUS
 10
0.197280
 20
0.950091
  0
VERTEX
  8
PLAN_1
 62
     2
  6
CONTINUOUS
 10
0.198945
 20
0.953976
  0
VERTEX
  8
PLAN_1
 62
     2
  6
CONTINUOUS
 10
0.198945
 20
0.958417
  0
VERTEX
  8
PLAN_1
 62
     2
  6
CONTINUOUS
 10
0.198945
 20
0.961752
  0
VERTEX
  8
PLAN_1
 62
     2
  6
CONTINUOUS
 10
0.197835
 20
0.965083
  0
VERTEX
  8
PLAN_1
 62
     2
  6
CONTINUOUS
 10
0.196720
 20
0.967303
  0
VERTEX
  8
PLAN_1
 62
     2
  6
CONTINUOUS
 10
0.195055
 20
0.970079
  0
VERTEX
  8
PLAN_1
 62
     2
  6
CONTINUOUS
 10
0.193390
 20
0.971744
  0
VERTEX
  8
PLAN_1
 62
     2
  6
CONTINUOUS
 10
0.190614
 20
0.973409
  0
VERTEX
  8
PLAN_1
 62
     2
  6
CONTINUOUS
 10
0.187839
 20
0.973965
  0
VERTEX
  8
PLAN_1
 62
     2
  6
CONTINUOUS
 10
0.185063
 20
0.974520
  0
VERTEX
  8
PLAN_1
 62
     2
  6
CONTINUOUS
 10
0.180622
 20
0.973965
  0
VERTEX
  8
PLAN_1
 62
     2
  6
CONTINUOUS
 10
0.177843
 20
0.972299
  0
VERTEX
  8
PLAN_1
 62
     2
  6
CONTINUOUS
 10
0.175067
 20
0.970634
  0
VERTEX
  8
PLAN_1
 62
     2
  6
CONTINUOUS
 10
0.173402
 20
0.967858
  0
VERTEX
  8
PLAN_1
 62
     2
  6
CONTINUOUS
 10
0.172291
 20
0.965638
  0
VERTEX
  8
PLAN_1
 62
     2
  6
CONTINUOUS
 10
0.171736
 20
0.962307
  0
VERTEX
  8
PLAN_1
 62
     2
  6
CONTINUOUS
 10
0.171736
 20
0.959531
  0
VERTEX
  8
PLAN_1
 62
     2
  6
CONTINUOUS
 10
0.171736
 20
0.957307
  0
VERTEX
  8
PLAN_1
 62
     2
  6
CONTINUOUS
 10
0.171736
 20
0.956752
  0
VERTEX
  8
PLAN_1
 62
     2
  6
CONTINUOUS
 10
0.171736
 20
0.956197
  0
VERTEX
  8
PLAN_1
 62
     2
  6
CONTINUOUS
 10
0.171736
 20
0.955642
  0
VERTEX
  8
PLAN_1
 62
     2
  6
CONTINUOUS
 10
0.171736
 20
0.955087
  0
VERTEX
  8
PLAN_1
 62
     2
  6
CONTINUOUS
 10
0.171736
 20
0.954531
  0
VERTEX
  8
PLAN_1
 62
     2
  6
CONTINUOUS
 10
0.171736
 20
0.953976
  0
VERTEX
  8
PLAN_1
 62
     2
  6
CONTINUOUS
 10
0.171736
 20
0.953421
  0
VERTEX
  8
PLAN_1
 62
     2
  6
CONTINUOUS
 10
0.171736
 20
0.952866
  0
VERTEX
  8
PLAN_1
 62
     2
  6
CONTINUOUS
 10
0.163965
 20
0.952866
  0
SEQEND
  8
0
  0
POLYLINE
  8
PLAN_1
 62
     2
  6
CONTINUOUS
 66
     1
 40
0.003000
 41
0.003000
  0
VERTEX
  8
PLAN_1
 62
     2
  6
CONTINUOUS
 10
0.158409
 20
0.992287
  0
VERTEX
  8
PLAN_1
 62
     2
  6
CONTINUOUS
 10
0.153969
 20
0.992287
  0
VERTEX
  8
PLAN_1
 62
     2
  6
CONTINUOUS
 10
0.150638
 20
0.992843
  0
VERTEX
  8
PLAN_1
 62
     2
  6
CONTINUOUS
 10
0.147307
 20
0.993953
  0
VERTEX
  8
PLAN_1
 62
     2
  6
CONTINUOUS
 10
0.144531
 20
0.995067
  0
VERTEX
  8
PLAN_1
 62
     2
  6
CONTINUOUS
 10
0.141752
 20
0.996732
  0
VERTEX
  8
PLAN_1
 62
     2
  6
CONTINUOUS
 10
0.139531
 20
0.998398
  0
VERTEX
  8
PLAN_1
 62
     2
  6
CONTINUOUS
 10
0.137866
 20
1.000063
  0
VERTEX
  8
PLAN_1
 62
     2
  6
CONTINUOUS
 10
0.136201
 20
1.001728
  0
VERTEX
  8
PLAN_1
 62
     2
  6
CONTINUOUS
 10
0.133980
 20
1.006169
  0
VERTEX
  8
PLAN_1
 62
     2
  6
CONTINUOUS
 10
0.132870
 20
1.010055
  0
VERTEX
  8
PLAN_1
 62
     2
  6
CONTINUOUS
 10
0.132315
 20
1.013945
  0
VERTEX
  8
PLAN_1
 62
     2
  6
CONTINUOUS
 10
0.132315
 20
1.017831
  0
VERTEX
  8
PLAN_1
 62
     2
  6
CONTINUOUS
 10
0.132315
 20
1.022272
  0
VERTEX
  8
PLAN_1
 62
     2
  6
CONTINUOUS
 10
0.133425
 20
1.026713
  0
VERTEX
  8
PLAN_1
 62
     2
  6
CONTINUOUS
 10
0.135646
 20
1.030602
  0
VERTEX
  8
PLAN_1
 62
     2
  6
CONTINUOUS
 10
0.137866
 20
1.033933
  0
VERTEX
  8
PLAN_1
 62
     2
  6
CONTINUOUS
 10
0.141197
 20
1.036709
  0
VERTEX
  8
PLAN_1
 62
     2
  6
CONTINUOUS
 10
0.145087
 20
1.038374
  0
VERTEX
  8
PLAN_1
 62
     2
  6
CONTINUOUS
 10
0.148972
 20
1.040039
  0
VERTEX
  8
PLAN_1
 62
     2
  6
CONTINUOUS
 10
0.153969
 20
1.040594
  0
VERTEX
  8
PLAN_1
 62
     2
  6
CONTINUOUS
 10
0.158409
 20
1.040039
  0
VERTEX
  8
PLAN_1
 62
     2
  6
CONTINUOUS
 10
0.162299
 20
1.038929
  0
VERTEX
  8
PLAN_1
 62
     2
  6
CONTINUOUS
 10
0.166185
 20
1.037264
  0
VERTEX
  8
PLAN_1
 62
     2
  6
CONTINUOUS
 10
0.168961
 20
1.034488
  0
VERTEX
  8
PLAN_1
 62
     2
  6
CONTINUOUS
 10
0.171736
 20
1.031713
  0
VERTEX
  8
PLAN_1
 62
     2
  6
CONTINUOUS
 10
0.173957
 20
1.028378
  0
VERTEX
  8
PLAN_1
 62
     2
  6
CONTINUOUS
 10
0.176177
 20
1.025047
  0
VERTEX
  8
PLAN_1
 62
     2
  6
CONTINUOUS
 10
0.178398
 20
1.021161
  0
VERTEX
  8
PLAN_1
 62
     2
  6
CONTINUOUS
 10
0.182843
 20
1.013390
  0
VERTEX
  8
PLAN_1
 62
     2
  6
CONTINUOUS
 10
0.184508
 20
1.010055
  0
VERTEX
  8
PLAN_1
 62
     2
  6
CONTINUOUS
 10
0.186728
 20
1.007280
  0
VERTEX
  8
PLAN_1
 62
     2
  6
CONTINUOUS
 10
0.188949
 20
1.005059
  0
VERTEX
  8
PLAN_1
 62
     2
  6
CONTINUOUS
 10
0.190614
 20
1.003394
  0
VERTEX
  8
PLAN_1
 62
     2
  6
CONTINUOUS
 10
0.192280
 20
1.002283
  0
VERTEX
  8
PLAN_1
 62
     2
  6
CONTINUOUS
 10
0.193945
 20
1.001173
  0
VERTEX
  8
PLAN_1
 62
     2
  6
CONTINUOUS
 10
0.195610
 20
1.001173
  0
VERTEX
  8
PLAN_1
 62
     2
  6
CONTINUOUS
 10
0.196720
 20
1.000618
  0
VERTEX
  8
PLAN_1
 62
     2
  6
CONTINUOUS
 10
0.196720
 20
1.040594
  0
VERTEX
  8
PLAN_1
 62
     2
  6
CONTINUOUS
 10
0.205606
 20
1.040594
  0
VERTEX
  8
PLAN_1
 62
     2
  6
CONTINUOUS
 10
0.205606
 20
0.990622
  0
VERTEX
  8
PLAN_1
 62
     2
  6
CONTINUOUS
 10
0.200055
 20
0.990622
  0
VERTEX
  8
PLAN_1
 62
     2
  6
CONTINUOUS
 10
0.195055
 20
0.991732
  0
VERTEX
  8
PLAN_1
 62
     2
  6
CONTINUOUS
 10
0.191169
 20
0.993398
  0
VERTEX
  8
PLAN_1
 62
     2
  6
CONTINUOUS
 10
0.187283
 20
0.995622
  0
VERTEX
  8
PLAN_1
 62
     2
  6
CONTINUOUS
 10
0.183953
 20
0.997843
  0
VERTEX
  8
PLAN_1
 62
     2
  6
CONTINUOUS
 10
0.181177
 20
1.000618
  0
VERTEX
  8
PLAN_1
 62
     2
  6
CONTINUOUS
 10
0.178398
 20
1.003949
  0
VERTEX
  8
PLAN_1
 62
     2
  6
CONTINUOUS
 10
0.176177
 20
1.007835
  0
VERTEX
  8
PLAN_1
 62
     2
  6
CONTINUOUS
 10
0.170626
 20
1.017276
  0
VERTEX
  8
PLAN_1
 62
     2
  6
CONTINUOUS
 10
0.168961
 20
1.020051
  0
VERTEX
  8
PLAN_1
 62
     2
  6
CONTINUOUS
 10
0.167295
 20
1.022827
  0
VERTEX
  8
PLAN_1
 62
     2
  6
CONTINUOUS
 10
0.165630
 20
1.025047
  0
VERTEX
  8
PLAN_1
 62
     2
  6
CONTINUOUS
 10
0.163965
 20
1.026713
  0
VERTEX
  8
PLAN_1
 62
     2
  6
CONTINUOUS
 10
0.162299
 20
1.028378
  0
VERTEX
  8
PLAN_1
 62
     2
  6
CONTINUOUS
 10
0.159520
 20
1.029488
  0
VERTEX
  8
PLAN_1
 62
     2
  6
CONTINUOUS
 10
0.156744
 20
1.030602
  0
VERTEX
  8
PLAN_1
 62
     2
  6
CONTINUOUS
 10
0.153413
 20
1.030602
  0
VERTEX
  8
PLAN_1
 62
     2
  6
CONTINUOUS
 10
0.151193
 20
1.030602
  0
VERTEX
  8
PLAN_1
 62
     2
  6
CONTINUOUS
 10
0.148972
 20
1.030047
  0
VERTEX
  8
PLAN_1
 62
     2
  6
CONTINUOUS
 10
0.146752
 20
1.028933
  0
VERTEX
  8
PLAN_1
 62
     2
  6
CONTINUOUS
 10
0.145087
 20
1.027268
  0
VERTEX
  8
PLAN_1
 62
     2
  6
CONTINUOUS
 10
0.142862
 20
1.025602
  0
VERTEX
  8
PLAN_1
 62
     2
  6
CONTINUOUS
 10
0.141752
 20
1.022827
  0
VERTEX
  8
PLAN_1
 62
     2
  6
CONTINUOUS
 10
0.140642
 20
1.020051
  0
VERTEX
  8
PLAN_1
 62
     2
  6
CONTINUOUS
 10
0.140642
 20
1.016165
  0
VERTEX
  8
PLAN_1
 62
     2
  6
CONTINUOUS
 10
0.140642
 20
1.013945
  0
VERTEX
  8
PLAN_1
 62
     2
  6
CONTINUOUS
 10
0.141197
 20
1.011720
  0
VERTEX
  8
PLAN_1
 62
     2
  6
CONTINUOUS
 10
0.141752
 20
1.009500
  0
VERTEX
  8
PLAN_1
 62
     2
  6
CONTINUOUS
 10
0.142307
 20
1.007835
  0
VERTEX
  8
PLAN_1
 62
     2
  6
CONTINUOUS
 10
0.144531
 20
1.005614
  0
VERTEX
  8
PLAN_1
 62
     2
  6
CONTINUOUS
 10
0.147307
 20
1.003949
  0
VERTEX
  8
PLAN_1
 62
     2
  6
CONTINUOUS
 10
0.150638
 20
1.002839
  0
VERTEX
  8
PLAN_1
 62
     2
  6
CONTINUOUS
 10
0.153413
 20
1.001728
  0
VERTEX
  8
PLAN_1
 62
     2
  6
CONTINUOUS
 10
0.156189
 20
1.001728
  0
VERTEX
  8
PLAN_1
 62
     2
  6
CONTINUOUS
 10
0.158409
 20
1.001173
  0
VERTEX
  8
PLAN_1
 62
     2
  6
CONTINUOUS
 10
0.158409
 20
0.992287
  0
SEQEND
  8
0
  0
SOLID
  8
PLAN_1
 62
     2
 10
0.205606
 20
1.137764
 11
0.205606
 21
1.126657
 12
0.194500
 22
1.137764
 13
0.194500
 23
1.126657
  0
POLYLINE
  8
PLAN_1
 62
     2
  6
CONTINUOUS
 66
     1
 40
0.003000
 41
0.003000
  0
VERTEX
  8
PLAN_1
 62
     2
  6
CONTINUOUS
 10
0.205606
 20
1.137764
  0
VERTEX
  8
PLAN_1
 62
     2
  6
CONTINUOUS
 10
0.205606
 20
1.126657
  0
VERTEX
  8
PLAN_1
 62
     2
  6
CONTINUOUS
 10
0.194500
 20
1.126657
  0
VERTEX
  8
PLAN_1
 62
     2
  6
CONTINUOUS
 10
0.194500
 20
1.137764
  0
VERTEX
  8
PLAN_1
 62
     2
  6
CONTINUOUS
 10
0.205606
 20
1.137764
  0
SEQEND
  8
0
  0
SOLID
  8
PLAN_1
 62
     2
 10
0.205606
 20
1.068358
 11
0.205606
 21
1.057807
 12
0.194500
 22
1.068358
 13
0.194500
 23
1.057807
  0
POLYLINE
  8
PLAN_1
 62
     2
  6
CONTINUOUS
 66
     1
 40
0.003000
 41
0.003000
  0
VERTEX
  8
PLAN_1
 62
     2
  6
CONTINUOUS
 10
0.205606
 20
1.068358
  0
VERTEX
  8
PLAN_1
 62
     2
  6
CONTINUOUS
 10
0.205606
 20
1.057807
  0
VERTEX
  8
PLAN_1
 62
     2
  6
CONTINUOUS
 10
0.194500
 20
1.057807
  0
VERTEX
  8
PLAN_1
 62
     2
  6
CONTINUOUS
 10
0.194500
 20
1.068358
  0
VERTEX
  8
PLAN_1
 62
     2
  6
CONTINUOUS
 10
0.205606
 20
1.068358
  0
SEQEND
  8
0
  0
SOLID
  8
PLAN_1
 62
     2
 10
0.205606
 20
1.102783
 11
0.205606
 21
1.092232
 12
0.194500
 22
1.102783
 13
0.194500
 23
1.092232
  0
POLYLINE
  8
PLAN_1
 62
     2
  6
CONTINUOUS
 66
     1
 40
0.003000
 41
0.003000
  0
VERTEX
  8
PLAN_1
 62
     2
  6
CONTINUOUS
 10
0.205606
 20
1.102783
  0
VERTEX
  8
PLAN_1
 62
     2
  6
CONTINUOUS
 10
0.205606
 20
1.092232
  0
VERTEX
  8
PLAN_1
 62
     2
  6
CONTINUOUS
 10
0.194500
 20
1.092232
  0
VERTEX
  8
PLAN_1
 62
     2
  6
CONTINUOUS
 10
0.194500
 20
1.102783
  0
VERTEX
  8
PLAN_1
 62
     2
  6
CONTINUOUS
 10
0.205606
 20
1.102783
  0
SEQEND
  8
0
  0
POLYLINE
  8
PLAN_1
 62
     2
  6
CONTINUOUS
 66
     1
 40
0.003000
 41
0.003000
  0
VERTEX
  8
PLAN_1
 62
     2
  6
CONTINUOUS
 10
0.205606
 20
1.187177
  0
VERTEX
  8
PLAN_1
 62
     2
  6
CONTINUOUS
 10
0.205606
 20
1.177185
  0
VERTEX
  8
PLAN_1
 62
     2
  6
CONTINUOUS
 10
0.153413
 20
1.177185
  0
VERTEX
  8
PLAN_1
 62
     2
  6
CONTINUOUS
 10
0.153413
 20
1.159972
  0
VERTEX
  8
PLAN_1
 62
     2
  6
CONTINUOUS
 10
0.146197
 20
1.159972
  0
VERTEX
  8
PLAN_1
 62
     2
  6
CONTINUOUS
 10
0.145642
 20
1.164413
  0
VERTEX
  8
PLAN_1
 62
     2
  6
CONTINUOUS
 10
0.145087
 20
1.167744
  0
VERTEX
  8
PLAN_1
 62
     2
  6
CONTINUOUS
 10
0.144531
 20
1.171075
  0
VERTEX
  8
PLAN_1
 62
     2
  6
CONTINUOUS
 10
0.143417
 20
1.173299
  0
VERTEX
  8
PLAN_1
 62
     2
  6
CONTINUOUS
 10
0.141752
 20
1.175520
  0
VERTEX
  8
PLAN_1
 62
     2
  6
CONTINUOUS
 10
0.139531
 20
1.177185
  0
VERTEX
  8
PLAN_1
 62
     2
  6
CONTINUOUS
 10
0.136201
 20
1.178850
  0
VERTEX
  8
PLAN_1
 62
     2
  6
CONTINUOUS
 10
0.132315
 20
1.179961
  0
VERTEX
  8
PLAN_1
 62
     2
  6
CONTINUOUS
 10
0.132315
 20
1.187177
  0
VERTEX
  8
PLAN_1
 62
     2
  6
CONTINUOUS
 10
0.205606
 20
1.187177
  0
SEQEND
  8
0
  0
POLYLINE
  8
PLAN_1
 62
     2
  6
CONTINUOUS
 66
     1
 40
0.003000
 41
0.003000
  0
VERTEX
  8
PLAN_1
 62
     2
  6
CONTINUOUS
 10
0.133980
 20
1.211610
  0
VERTEX
  8
PLAN_1
 62
     2
  6
CONTINUOUS
 10
0.133980
 20
1.262138
  0
VERTEX
  8
PLAN_1
 62
     2
  6
CONTINUOUS
 10
0.141752
 20
1.262138
  0
VERTEX
  8
PLAN_1
 62
     2
  6
CONTINUOUS
 10
0.145087
 20
1.258803
  0
VERTEX
  8
PLAN_1
 62
     2
  6
CONTINUOUS
 10
0.150083
 20
1.254917
  0
VERTEX
  8
PLAN_1
 62
     2
  6
CONTINUOUS
 10
0.156744
 20
1.250476
  0
VERTEX
  8
PLAN_1
 62
     2
  6
CONTINUOUS
 10
0.163965
 20
1.246035
  0
VERTEX
  8
PLAN_1
 62
     2
  6
CONTINUOUS
 10
0.172846
 20
1.242146
  0
VERTEX
  8
PLAN_1
 62
     2
  6
CONTINUOUS
 10
0.182843
 20
1.237705
  0
VERTEX
  8
PLAN_1
 62
     2
  6
CONTINUOUS
 10
0.193390
 20
1.234374
  0
VERTEX
  8
PLAN_1
 62
     2
  6
CONTINUOUS
 10
0.205606
 20
1.232154
  0
VERTEX
  8
PLAN_1
 62
     2
  6
CONTINUOUS
 10
0.205606
 20
1.222157
  0
VERTEX
  8
PLAN_1
 62
     2
  6
CONTINUOUS
 10
0.197280
 20
1.223268
  0
VERTEX
  8
PLAN_1
 62
     2
  6
CONTINUOUS
 10
0.189504
 20
1.225488
  0
VERTEX
  8
PLAN_1
 62
     2
  6
CONTINUOUS
 10
0.181177
 20
1.228823
  0
VERTEX
  8
PLAN_1
 62
     2
  6
CONTINUOUS
 10
0.172846
 20
1.232709
  0
VERTEX
  8
PLAN_1
 62
     2
  6
CONTINUOUS
 10
0.164520
 20
1.236594
  0
VERTEX
  8
PLAN_1
 62
     2
  6
CONTINUOUS
 10
0.156744
 20
1.241591
  0
VERTEX
  8
PLAN_1
 62
     2
  6
CONTINUOUS
 10
0.149528
 20
1.246591
  0
VERTEX
  8
PLAN_1
 62
     2
  6
CONTINUOUS
 10
0.142862
 20
1.251587
  0
VERTEX
  8
PLAN_1
 62
     2
  6
CONTINUOUS
 10
0.142862
 20
1.211610
  0
VERTEX
  8
PLAN_1
 62
     2
  6
CONTINUOUS
 10
0.133980
 20
1.211610
  0
SEQEND
  8
0
  0
POLYLINE
  8
PLAN_1
 62
     2
  6
CONTINUOUS
 66
     1
 40
0.003000
 41
0.003000
  0
VERTEX
  8
PLAN_1
 62
     2
  6
CONTINUOUS
 10
0.133980
 20
1.269354
  0
VERTEX
  8
PLAN_1
 62
     2
  6
CONTINUOUS
 10
0.133980
 20
1.319882
  0
VERTEX
  8
PLAN_1
 62
     2
  6
CONTINUOUS
 10
0.141752
 20
1.319882
  0
VERTEX
  8
PLAN_1
 62
     2
  6
CONTINUOUS
 10
0.145087
 20
1.316551
  0
VERTEX
  8
PLAN_1
 62
     2
  6
CONTINUOUS
 10
0.150083
 20
1.312661
  0
VERTEX
  8
PLAN_1
 62
     2
  6
CONTINUOUS
 10
0.156744
 20
1.308776
  0
VERTEX
  8
PLAN_1
 62
     2
  6
CONTINUOUS
 10
0.163965
 20
1.304335
  0
VERTEX
  8
PLAN_1
 62
     2
  6
CONTINUOUS
 10
0.172846
 20
1.299894
  0
VERTEX
  8
PLAN_1
 62
     2
  6
CONTINUOUS
 10
0.182843
 20
1.296004
  0
VERTEX
  8
PLAN_1
 62
     2
  6
CONTINUOUS
 10
0.193390
 20
1.292118
  0
VERTEX
  8
PLAN_1
 62
     2
  6
CONTINUOUS
 10
0.205606
 20
1.289898
  0
VERTEX
  8
PLAN_1
 62
     2
  6
CONTINUOUS
 10
0.205606
 20
1.279906
  0
VERTEX
  8
PLAN_1
 62
     2
  6
CONTINUOUS
 10
0.197280
 20
1.281016
  0
VERTEX
  8
PLAN_1
 62
     2
  6
CONTINUOUS
 10
0.189504
 20
1.283791
  0
VERTEX
  8
PLAN_1
 62
     2
  6
CONTINUOUS
 10
0.181177
 20
1.286567
  0
VERTEX
  8
PLAN_1
 62
     2
  6
CONTINUOUS
 10
0.172846
 20
1.290453
  0
VERTEX
  8
PLAN_1
 62
     2
  6
CONTINUOUS
 10
0.164520
 20
1.294894
  0
VERTEX
  8
PLAN_1
 62
     2
  6
CONTINUOUS
 10
0.156744
 20
1.299339
  0
VERTEX
  8
PLAN_1
 62
     2
  6
CONTINUOUS
 10
0.149528
 20
1.304335
  0
VERTEX
  8
PLAN_1
 62
     2
  6
CONTINUOUS
 10
0.142862
 20
1.309886
  0
VERTEX
  8
PLAN_1
 62
     2
  6
CONTINUOUS
 10
0.142862
 20
1.269354
  0
VERTEX
  8
PLAN_1
 62
     2
  6
CONTINUOUS
 10
0.133980
 20
1.269354
  0
SEQEND
  8
0
  0
POLYLINE
  8
PLAN_1
 62
     2
  6
CONTINUOUS
 66
     1
 40
0.004441
 41
0.004441
  0
VERTEX
  8
PLAN_1
 62
     2
  6
CONTINUOUS
 10
0.073461
 20
-1.808902
  0
VERTEX
  8
PLAN_1
 62
     2
  6
CONTINUOUS
 10
0.073461
 20
-2.227551
  0
SEQEND
  8
0
  0
POLYLINE
  8
PLAN_1
 62
     2
  6
CONTINUOUS
 66
     1
 40
0.004441
 41
0.004441
  0
VERTEX
  8
PLAN_1
 62
     2
  6
CONTINUOUS
 10
0.228925
 20
-2.227551
  0
VERTEX
  8
PLAN_1
 62
     2
  6
CONTINUOUS
 10
0.228925
 20
-1.811122
  0
SEQEND
  8
0
  0
SOLID
  8
PLAN_1
 62
     2
 10
0.228925
 20
-1.781138
 11
0.212823
 21
-1.840551
 12
0.228925
 22
-1.781138
 13
0.244472
 23
-1.840551
  0
POLYLINE
  8
PLAN_1
 62
     2
  6
CONTINUOUS
 66
     1
 40
0.003000
 41
0.003000
  0
VERTEX
  8
PLAN_1
 62
     2
  6
CONTINUOUS
 10
0.228925
 20
-1.781138
  0
VERTEX
  8
PLAN_1
 62
     2
  6
CONTINUOUS
 10
0.212823
 20
-1.840551
  0
VERTEX
  8
PLAN_1
 62
     2
  6
CONTINUOUS
 10
0.244472
 20
-1.840551
  0
VERTEX
  8
PLAN_1
 62
     2
  6
CONTINUOUS
 10
0.228925
 20
-1.781138
  0
SEQEND
  8
0
  0
SOLID
  8
PLAN_1
 62
     2
 10
0.228925
 20
-2.256980
 11
0.212823
 21
-2.198126
 12
0.228925
 22
-2.256980
 13
0.244472
 23
-2.198126
  0
POLYLINE
  8
PLAN_1
 62
     2
  6
CONTINUOUS
 66
     1
 40
0.003000
 41
0.003000
  0
VERTEX
  8
PLAN_1
 62
     2
  6
CONTINUOUS
 10
0.228925
 20
-2.256980
  0
VERTEX
  8
PLAN_1
 62
     2
  6
CONTINUOUS
 10
0.212823
 20
-2.198126
  0
VERTEX
  8
PLAN_1
 62
     2
  6
CONTINUOUS
 10
0.244472
 20
-2.198126
  0
VERTEX
  8
PLAN_1
 62
     2
  6
CONTINUOUS
 10
0.228925
 20
-2.256980
  0
SEQEND
  8
0
  0
POLYLINE
  8
PLAN_1
 62
     2
  6
CONTINUOUS
 66
     1
 40
0.004441
 41
0.004441
  0
VERTEX
  8
PLAN_1
 62
     2
  6
CONTINUOUS
 10
-0.338531
 20
-2.256980
  0
VERTEX
  8
PLAN_1
 62
     2
  6
CONTINUOUS
 10
0.252248
 20
-2.256980
  0
SEQEND
  8
0
  0
POLYLINE
  8
PLAN_1
 62
     2
  6
CONTINUOUS
 66
     1
 40
0.003000
 41
0.003000
  0
VERTEX
  8
PLAN_1
 62
     2
  6
CONTINUOUS
 10
0.205051
 20
-2.039882
  0
VERTEX
  8
PLAN_1
 62
     2
  6
CONTINUOUS
 10
0.205051
 20
-2.049319
  0
VERTEX
  8
PLAN_1
 62
     2
  6
CONTINUOUS
 10
0.153413
 20
-2.049319
  0
VERTEX
  8
PLAN_1
 62
     2
  6
CONTINUOUS
 10
0.153413
 20
-2.066531
  0
VERTEX
  8
PLAN_1
 62
     2
  6
CONTINUOUS
 10
0.146197
 20
-2.066531
  0
VERTEX
  8
PLAN_1
 62
     2
  6
CONTINUOUS
 10
0.145642
 20
-2.062646
  0
VERTEX
  8
PLAN_1
 62
     2
  6
CONTINUOUS
 10
0.145087
 20
-2.058760
  0
VERTEX
  8
PLAN_1
 62
     2
  6
CONTINUOUS
 10
0.144531
 20
-2.055984
  0
VERTEX
  8
PLAN_1
 62
     2
  6
CONTINUOUS
 10
0.143417
 20
-2.053209
  0
VERTEX
  8
PLAN_1
 62
     2
  6
CONTINUOUS
 10
0.141752
 20
-2.050984
  0
VERTEX
  8
PLAN_1
 62
     2
  6
CONTINUOUS
 10
0.138976
 20
-2.049319
  0
VERTEX
  8
PLAN_1
 62
     2
  6
CONTINUOUS
 10
0.136201
 20
-2.048209
  0
VERTEX
  8
PLAN_1
 62
     2
  6
CONTINUOUS
 10
0.132315
 20
-2.047098
  0
VERTEX
  8
PLAN_1
 62
     2
  6
CONTINUOUS
 10
0.132315
 20
-2.039882
  0
VERTEX
  8
PLAN_1
 62
     2
  6
CONTINUOUS
 10
0.205051
 20
-2.039882
  0
SEQEND
  8
0
  0
POLYLINE
  8
PLAN_1
 62
     2
  6
CONTINUOUS
 66
     1
 40
0.003000
 41
0.003000
  0
VERTEX
  8
PLAN_1
 62
     2
  6
CONTINUOUS
 10
0.158409
 20
-2.014339
  0
VERTEX
  8
PLAN_1
 62
     2
  6
CONTINUOUS
 10
0.153969
 20
-2.014339
  0
VERTEX
  8
PLAN_1
 62
     2
  6
CONTINUOUS
 10
0.150083
 20
-2.013783
  0
VERTEX
  8
PLAN_1
 62
     2
  6
CONTINUOUS
 10
0.147307
 20
-2.012673
  0
VERTEX
  8
PLAN_1
 62
     2
  6
CONTINUOUS
 10
0.143976
 20
-2.011563
  0
VERTEX
  8
PLAN_1
 62
     2
  6
CONTINUOUS
 10
0.141752
 20
-2.010453
  0
VERTEX
  8
PLAN_1
 62
     2
  6
CONTINUOUS
 10
0.139531
 20
-2.008787
  0
VERTEX
  8
PLAN_1
 62
     2
  6
CONTINUOUS
 10
0.137866
 20
-2.007122
  0
VERTEX
  8
PLAN_1
 62
     2
  6
CONTINUOUS
 10
0.136201
 20
-2.004902
  0
VERTEX
  8
PLAN_1
 62
     2
  6
CONTINUOUS
 10
0.133980
 20
-2.001016
  0
VERTEX
  8
PLAN_1
 62
     2
  6
CONTINUOUS
 10
0.132870
 20
-1.996571
  0
VERTEX
  8
PLAN_1
 62
     2
  6
CONTINUOUS
 10
0.132315
 20
-1.992685
  0
VERTEX
  8
PLAN_1
 62
     2
  6
CONTINUOUS
 10
0.132315
 20
-1.989354
  0
VERTEX
  8
PLAN_1
 62
     2
  6
CONTINUOUS
 10
0.132315
 20
-1.984913
  0
VERTEX
  8
PLAN_1
 62
     2
  6
CONTINUOUS
 10
0.133425
 20
-1.980469
  0
VERTEX
  8
PLAN_1
 62
     2
  6
CONTINUOUS
 10
0.135646
 20
-1.976583
  0
VERTEX
  8
PLAN_1
 62
     2
  6
CONTINUOUS
 10
0.137866
 20
-1.973252
  0
VERTEX
  8
PLAN_1
 62
     2
  6
CONTINUOUS
 10
0.141197
 20
-1.970476
  0
VERTEX
  8
PLAN_1
 62
     2
  6
CONTINUOUS
 10
0.144531
 20
-1.968256
  0
VERTEX
  8
PLAN_1
 62
     2
  6
CONTINUOUS
 10
0.148972
 20
-1.967146
  0
VERTEX
  8
PLAN_1
 62
     2
  6
CONTINUOUS
 10
0.153969
 20
-1.966591
  0
VERTEX
  8
PLAN_1
 62
     2
  6
CONTINUOUS
 10
0.158409
 20
-1.966591
  0
VERTEX
  8
PLAN_1
 62
     2
  6
CONTINUOUS
 10
0.162299
 20
-1.967701
  0
VERTEX
  8
PLAN_1
 62
     2
  6
CONTINUOUS
 10
0.165630
 20
-1.969921
  0
VERTEX
  8
PLAN_1
 62
     2
  6
CONTINUOUS
 10
0.168961
 20
-1.972142
  0
VERTEX
  8
PLAN_1
 62
     2
  6
CONTINUOUS
 10
0.171736
 20
-1.974917
  0
VERTEX
  8
PLAN_1
 62
     2
  6
CONTINUOUS
 10
0.173957
 20
-1.978248
  0
VERTEX
  8
PLAN_1
 62
     2
  6
CONTINUOUS
 10
0.176177
 20
-1.982138
  0
VERTEX
  8
PLAN_1
 62
     2
  6
CONTINUOUS
 10
0.178398
 20
-1.986024
  0
VERTEX
  8
PLAN_1
 62
     2
  6
CONTINUOUS
 10
0.182287
 20
-1.993795
  0
VERTEX
  8
PLAN_1
 62
     2
  6
CONTINUOUS
 10
0.184508
 20
-1.997126
  0
VERTEX
  8
PLAN_1
 62
     2
  6
CONTINUOUS
 10
0.186728
 20
-1.999906
  0
VERTEX
  8
PLAN_1
 62
     2
  6
CONTINUOUS
 10
0.188394
 20
-2.001571
  0
VERTEX
  8
PLAN_1
 62
     2
  6
CONTINUOUS
 10
0.190614
 20
-2.003236
  0
VERTEX
  8
PLAN_1
 62
     2
  6
CONTINUOUS
 10
0.192280
 20
-2.004902
  0
VERTEX
  8
PLAN_1
 62
     2
  6
CONTINUOUS
 10
0.193945
 20
-2.005457
  0
VERTEX
  8
PLAN_1
 62
     2
  6
CONTINUOUS
 10
0.195610
 20
-2.006012
  0
VERTEX
  8
PLAN_1
 62
     2
  6
CONTINUOUS
 10
0.196720
 20
-2.006012
  0
VERTEX
  8
PLAN_1
 62
     2
  6
CONTINUOUS
 10
0.196720
 20
-1.966591
  0
VERTEX
  8
PLAN_1
 62
     2
  6
CONTINUOUS
 10
0.205051
 20
-1.966591
  0
VERTEX
  8
PLAN_1
 62
     2
  6
CONTINUOUS
 10
0.205051
 20
-2.016559
  0
VERTEX
  8
PLAN_1
 62
     2
  6
CONTINUOUS
 10
0.200055
 20
-2.016004
  0
VERTEX
  8
PLAN_1
 62
     2
  6
CONTINUOUS
 10
0.195055
 20
-2.014894
  0
VERTEX
  8
PLAN_1
 62
     2
  6
CONTINUOUS
 10
0.190614
 20
-2.013228
  0
VERTEX
  8
PLAN_1
 62
     2
  6
CONTINUOUS
 10
0.187283
 20
-2.011563
  0
VERTEX
  8
PLAN_1
 62
     2
  6
CONTINUOUS
 10
0.183953
 20
-2.008787
  0
VERTEX
  8
PLAN_1
 62
     2
  6
CONTINUOUS
 10
0.181177
 20
-2.006012
  0
VERTEX
  8
PLAN_1
 62
     2
  6
CONTINUOUS
 10
0.178398
 20
-2.002681
  0
VERTEX
  8
PLAN_1
 62
     2
  6
CONTINUOUS
 10
0.176177
 20
-1.999350
  0
VERTEX
  8
PLAN_1
 62
     2
  6
CONTINUOUS
 10
0.170626
 20
-1.989354
  0
VERTEX
  8
PLAN_1
 62
     2
  6
CONTINUOUS
 10
0.168961
 20
-1.986579
  0
VERTEX
  8
PLAN_1
 62
     2
  6
CONTINUOUS
 10
0.167295
 20
-1.984358
  0
VERTEX
  8
PLAN_1
 62
     2
  6
CONTINUOUS
 10
0.165630
 20
-1.982138
  0
VERTEX
  8
PLAN_1
 62
     2
  6
CONTINUOUS
 10
0.163965
 20
-1.979913
  0
VERTEX
  8
PLAN_1
 62
     2
  6
CONTINUOUS
 10
0.161744
 20
-1.978248
  0
VERTEX
  8
PLAN_1
 62
     2
  6
CONTINUOUS
 10
0.159520
 20
-1.977138
  0
VERTEX
  8
PLAN_1
 62
     2
  6
CONTINUOUS
 10
0.156744
 20
-1.976583
  0
VERTEX
  8
PLAN_1
 62
     2
  6
CONTINUOUS
 10
0.153413
 20
-1.976028
  0
VERTEX
  8
PLAN_1
 62
     2
  6
CONTINUOUS
 10
0.151193
 20
-1.976583
  0
VERTEX
  8
PLAN_1
 62
     2
  6
CONTINUOUS
 10
0.148972
 20
-1.977138
  0
VERTEX
  8
PLAN_1
 62
     2
  6
CONTINUOUS
 10
0.146752
 20
-1.977693
  0
VERTEX
  8
PLAN_1
 62
     2
  6
CONTINUOUS
 10
0.144531
 20
-1.979358
  0
VERTEX
  8
PLAN_1
 62
     2
  6
CONTINUOUS
 10
0.142862
 20
-1.981583
  0
VERTEX
  8
PLAN_1
 62
     2
  6
CONTINUOUS
 10
0.141752
 20
-1.983803
  0
VERTEX
  8
PLAN_1
 62
     2
  6
CONTINUOUS
 10
0.140642
 20
-1.987134
  0
VERTEX
  8
PLAN_1
 62
     2
  6
CONTINUOUS
 10
0.140087
 20
-1.990465
  0
VERTEX
  8
PLAN_1
 62
     2
  6
CONTINUOUS
 10
0.140642
 20
-1.993240
  0
VERTEX
  8
PLAN_1
 62
     2
  6
CONTINUOUS
 10
0.140642
 20
-1.995461
  0
VERTEX
  8
PLAN_1
 62
     2
  6
CONTINUOUS
 10
0.141752
 20
-1.997126
  0
VERTEX
  8
PLAN_1
 62
     2
  6
CONTINUOUS
 10
0.142307
 20
-1.998791
  0
VERTEX
  8
PLAN_1
 62
     2
  6
CONTINUOUS
 10
0.144531
 20
-2.001571
  0
VERTEX
  8
PLAN_1
 62
     2
  6
CONTINUOUS
 10
0.147307
 20
-2.003236
  0
VERTEX
  8
PLAN_1
 62
     2
  6
CONTINUOUS
 10
0.150638
 20
-2.004346
  0
VERTEX
  8
PLAN_1
 62
     2
  6
CONTINUOUS
 10
0.153413
 20
-2.004902
  0
VERTEX
  8
PLAN_1
 62
     2
  6
CONTINUOUS
 10
0.156189
 20
-2.005457
  0
VERTEX
  8
PLAN_1
 62
     2
  6
CONTINUOUS
 10
0.158409
 20
-2.005457
  0
VERTEX
  8
PLAN_1
 62
     2
  6
CONTINUOUS
 10
0.158409
 20
-2.014339
  0
SEQEND
  8
0
  0
POLYLINE
  8
PLAN_1
 62
     2
  6
CONTINUOUS
 66
     1
 40
0.003000
 41
0.003000
  0
VERTEX
  8
PLAN_1
 62
     2
  6
CONTINUOUS
 10
-1.067004
 20
-2.500732
  0
VERTEX
  8
PLAN_1
 62
     2
  6
CONTINUOUS
 10
-1.065339
 20
-2.499622
  0
VERTEX
  8
PLAN_1
 62
     2
  6
CONTINUOUS
 10
-1.064228
 20
-2.499067
  0
VERTEX
  8
PLAN_1
 62
     2
  6
CONTINUOUS
 10
-1.062563
 20
-2.497953
  0
VERTEX
  8
PLAN_1
 62
     2
  6
CONTINUOUS
 10
-1.060898
 20
-2.497398
  0
VERTEX
  8
PLAN_1
 62
     2
  6
CONTINUOUS
 10
-1.059232
 20
-2.496843
  0
VERTEX
  8
PLAN_1
 62
     2
  6
CONTINUOUS
 10
-1.057012
 20
-2.496287
  0
VERTEX
  8
PLAN_1
 62
     2
  6
CONTINUOUS
 10
-1.054791
 20
-2.496287
  0
VERTEX
  8
PLAN_1
 62
     2
  6
CONTINUOUS
 10
-1.052571
 20
-2.496287
  0
VERTEX
  8
PLAN_1
 62
     2
  6
CONTINUOUS
 10
-1.048126
 20
-2.496287
  0
VERTEX
  8
PLAN_1
 62
     2
  6
CONTINUOUS
 10
-1.043685
 20
-2.497398
  0
VERTEX
  8
PLAN_1
 62
     2
  6
CONTINUOUS
 10
-1.039799
 20
-2.499622
  0
VERTEX
  8
PLAN_1
 62
     2
  6
CONTINUOUS
 10
-1.035913
 20
-2.501843
  0
VERTEX
  8
PLAN_1
 62
     2
  6
CONTINUOUS
 10
-1.033138
 20
-2.505173
  0
VERTEX
  8
PLAN_1
 62
     2
  6
CONTINUOUS
 10
-1.030913
 20
-2.509614
  0
VERTEX
  8
PLAN_1
 62
     2
  6
CONTINUOUS
 10
-1.029248
 20
-2.514055
  0
VERTEX
  8
PLAN_1
 62
     2
  6
CONTINUOUS
 10
-1.028693
 20
-2.519610
  0
VERTEX
  8
PLAN_1
 62
     2
  6
CONTINUOUS
 10
-1.028693
 20
-2.522941
  0
VERTEX
  8
PLAN_1
 62
     2
  6
CONTINUOUS
 10
-1.029803
 20
-2.526827
  0
VERTEX
  8
PLAN_1
 62
     2
  6
CONTINUOUS
 10
-1.030913
 20
-2.531268
  0
VERTEX
  8
PLAN_1
 62
     2
  6
CONTINUOUS
 10
-1.033138
 20
-2.535157
  0
VERTEX
  8
PLAN_1
 62
     2
  6
CONTINUOUS
 10
-1.034803
 20
-2.537378
  0
VERTEX
  8
PLAN_1
 62
     2
  6
CONTINUOUS
 10
-1.036469
 20
-2.539043
  0
VERTEX
  8
PLAN_1
 62
     2
  6
CONTINUOUS
 10
-1.038689
 20
-2.540709
  0
VERTEX
  8
PLAN_1
 62
     2
  6
CONTINUOUS
 10
-1.041465
 20
-2.542374
  0
VERTEX
  8
PLAN_1
 62
     2
  6
CONTINUOUS
 10
-1.044240
 20
-2.543484
  0
VERTEX
  8
PLAN_1
 62
     2
  6
CONTINUOUS
 10
-1.047571
 20
-2.544594
  0
VERTEX
  8
PLAN_1
 62
     2
  6
CONTINUOUS
 10
-1.050906
 20
-2.545150
  0
VERTEX
  8
PLAN_1
 62
     2
  6
CONTINUOUS
 10
-1.055346
 20
-2.545150
  0
VERTEX
  8
PLAN_1
 62
     2
  6
CONTINUOUS
 10
-1.058677
 20
-2.545150
  0
VERTEX
  8
PLAN_1
 62
     2
  6
CONTINUOUS
 10
-1.062563
 20
-2.544039
  0
VERTEX
  8
PLAN_1
 62
     2
  6
CONTINUOUS
 10
-1.066449
 20
-2.542929
  0
VERTEX
  8
PLAN_1
 62
     2
  6
CONTINUOUS
 10
-1.069783
 20
-2.541264
  0
VERTEX
  8
PLAN_1
 62
     2
  6
CONTINUOUS
 10
-1.073114
 20
-2.538488
  0
VERTEX
  8
PLAN_1
 62
     2
  6
CONTINUOUS
 10
-1.075890
 20
-2.535157
  0
VERTEX
  8
PLAN_1
 62
     2
  6
CONTINUOUS
 10
-1.077000
 20
-2.532933
  0
VERTEX
  8
PLAN_1
 62
     2
  6
CONTINUOUS
 10
-1.077555
 20
-2.530713
  0
VERTEX
  8
PLAN_1
 62
     2
  6
CONTINUOUS
 10
-1.078110
 20
-2.527937
  0
VERTEX
  8
PLAN_1
 62
     2
  6
CONTINUOUS
 10
-1.078665
 20
-2.525161
  0
VERTEX
  8
PLAN_1
 62
     2
  6
CONTINUOUS
 10
-1.069228
 20
-2.525161
  0
VERTEX
  8
PLAN_1
 62
     2
  6
CONTINUOUS
 10
-1.068673
 20
-2.527937
  0
VERTEX
  8
PLAN_1
 62
     2
  6
CONTINUOUS
 10
-1.067559
 20
-2.530713
  0
VERTEX
  8
PLAN_1
 62
     2
  6
CONTINUOUS
 10
-1.065894
 20
-2.532378
  0
VERTEX
  8
PLAN_1
 62
     2
  6
CONTINUOUS
 10
-1.064228
 20
-2.534047
  0
VERTEX
  8
PLAN_1
 62
     2
  6
CONTINUOUS
 10
-1.062008
 20
-2.535713
  0
VERTEX
  8
PLAN_1
 62
     2
  6
CONTINUOUS
 10
-1.059787
 20
-2.536268
  0
VERTEX
  8
PLAN_1
 62
     2
  6
CONTINUOUS
 10
-1.057012
 20
-2.536823
  0
VERTEX
  8
PLAN_1
 62
     2
  6
CONTINUOUS
 10
-1.053681
 20
-2.537378
  0
VERTEX
  8
PLAN_1
 62
     2
  6
CONTINUOUS
 10
-1.050350
 20
-2.536823
  0
VERTEX
  8
PLAN_1
 62
     2
  6
CONTINUOUS
 10
-1.047571
 20
-2.535713
  0
VERTEX
  8
PLAN_1
 62
     2
  6
CONTINUOUS
 10
-1.044795
 20
-2.534602
  0
VERTEX
  8
PLAN_1
 62
     2
  6
CONTINUOUS
 10
-1.042575
 20
-2.532378
  0
VERTEX
  8
PLAN_1
 62
     2
  6
CONTINUOUS
 10
-1.040909
 20
-2.529602
  0
VERTEX
  8
PLAN_1
 62
     2
  6
CONTINUOUS
 10
-1.039244
 20
-2.526827
  0
VERTEX
  8
PLAN_1
 62
     2
  6
CONTINUOUS
 10
-1.038689
 20
-2.524051
  0
VERTEX
  8
PLAN_1
 62
     2
  6
CONTINUOUS
 10
-1.038134
 20
-2.520720
  0
VERTEX
  8
PLAN_1
 62
     2
  6
CONTINUOUS
 10
-1.038689
 20
-2.516835
  0
VERTEX
  8
PLAN_1
 62
     2
  6
CONTINUOUS
 10
-1.039799
 20
-2.513500
  0
VERTEX
  8
PLAN_1
 62
     2
  6
CONTINUOUS
 10
-1.040909
 20
-2.510724
  0
VERTEX
  8
PLAN_1
 62
     2
  6
CONTINUOUS
 10
-1.043130
 20
-2.508504
  0
VERTEX
  8
PLAN_1
 62
     2
  6
CONTINUOUS
 10
-1.045350
 20
-2.506839
  0
VERTEX
  8
PLAN_1
 62
     2
  6
CONTINUOUS
 10
-1.048126
 20
-2.505173
  0
VERTEX
  8
PLAN_1
 62
     2
  6
CONTINUOUS
 10
-1.051461
 20
-2.504618
  0
VERTEX
  8
PLAN_1
 62
     2
  6
CONTINUOUS
 10
-1.054791
 20
-2.504063
  0
VERTEX
  8
PLAN_1
 62
     2
  6
CONTINUOUS
 10
-1.056457
 20
-2.504618
  0
VERTEX
  8
PLAN_1
 62
     2
  6
CONTINUOUS
 10
-1.058677
 20
-2.504618
  0
VERTEX
  8
PLAN_1
 62
     2
  6
CONTINUOUS
 10
-1.060343
 20
-2.505173
  0
VERTEX
  8
PLAN_1
 62
     2
  6
CONTINUOUS
 10
-1.062008
 20
-2.506283
  0
VERTEX
  8
PLAN_1
 62
     2
  6
CONTINUOUS
 10
-1.063673
 20
-2.506839
  0
VERTEX
  8
PLAN_1
 62
     2
  6
CONTINUOUS
 10
-1.065339
 20
-2.508504
  0
VERTEX
  8
PLAN_1
 62
     2
  6
CONTINUOUS
 10
-1.067004
 20
-2.509614
  0
VERTEX
  8
PLAN_1
 62
     2
  6
CONTINUOUS
 10
-1.068118
 20
-2.511280
  0
VERTEX
  8
PLAN_1
 62
     2
  6
CONTINUOUS
 10
-1.075890
 20
-2.510724
  0
VERTEX
  8
PLAN_1
 62
     2
  6
CONTINUOUS
 10
-1.070339
 20
-2.471303
  0
VERTEX
  8
PLAN_1
 62
     2
  6
CONTINUOUS
 10
-1.032583
 20
-2.471303
  0
VERTEX
  8
PLAN_1
 62
     2
  6
CONTINUOUS
 10
-1.032583
 20
-2.480744
  0
VERTEX
  8
PLAN_1
 62
     2
  6
CONTINUOUS
 10
-1.063673
 20
-2.480744
  0
VERTEX
  8
PLAN_1
 62
     2
  6
CONTINUOUS
 10
-1.067004
 20
-2.500732
  0
SEQEND
  8
0
  0
POLYLINE
  8
PLAN_1
 62
     2
  6
CONTINUOUS
 66
     1
 40
0.003000
 41
0.003000
  0
VERTEX
  8
PLAN_1
 62
     2
  6
CONTINUOUS
 10
-1.019811
 20
-2.495177
  0
VERTEX
  8
PLAN_1
 62
     2
  6
CONTINUOUS
 10
-1.019256
 20
-2.490181
  0
VERTEX
  8
PLAN_1
 62
     2
  6
CONTINUOUS
 10
-1.018146
 20
-2.485740
  0
VERTEX
  8
PLAN_1
 62
     2
  6
CONTINUOUS
 10
-1.016480
 20
-2.481299
  0
VERTEX
  8
PLAN_1
 62
     2
  6
CONTINUOUS
 10
-1.013701
 20
-2.477409
  0
VERTEX
  8
PLAN_1
 62
     2
  6
CONTINUOUS
 10
-1.010370
 20
-2.474634
  0
VERTEX
  8
PLAN_1
 62
     2
  6
CONTINUOUS
 10
-1.006484
 20
-2.471858
  0
VERTEX
  8
PLAN_1
 62
     2
  6
CONTINUOUS
 10
-1.001488
 20
-2.470748
  0
VERTEX
  8
PLAN_1
 62
     2
  6
CONTINUOUS
 10
-0.996488
 20
-2.470193
  0
VERTEX
  8
PLAN_1
 62
     2
  6
CONTINUOUS
 10
-0.992047
 20
-2.470193
  0
VERTEX
  8
PLAN_1
 62
     2
  6
CONTINUOUS
 10
-0.988717
 20
-2.470748
  0
VERTEX
  8
PLAN_1
 62
     2
  6
CONTINUOUS
 10
-0.985386
 20
-2.471858
  0
VERTEX
  8
PLAN_1
 62
     2
  6
CONTINUOUS
 10
-0.982610
 20
-2.473524
  0
VERTEX
  8
PLAN_1
 62
     2
  6
CONTINUOUS
 10
-0.979835
 20
-2.475744
  0
VERTEX
  8
PLAN_1
 62
     2
  6
CONTINUOUS
 10
-0.978165
 20
-2.477409
  0
VERTEX
  8
PLAN_1
 62
     2
  6
CONTINUOUS
 10
-0.976500
 20
-2.480185
  0
VERTEX
  8
PLAN_1
 62
     2
  6
CONTINUOUS
 10
-0.974835
 20
-2.482409
  0
VERTEX
  8
PLAN_1
 62
     2
  6
CONTINUOUS
 10
-0.972614
 20
-2.487961
  0
VERTEX
  8
PLAN_1
 62
     2
  6
CONTINUOUS
 10
-0.971504
 20
-2.493512
  0
VERTEX
  8
PLAN_1
 62
     2
  6
CONTINUOUS
 10
-0.970949
 20
-2.499067
  0
VERTEX
  8
PLAN_1
 62
     2
  6
CONTINUOUS
 10
-0.970949
 20
-2.504063
  0
VERTEX
  8
PLAN_1
 62
     2
  6
CONTINUOUS
 10
-0.970949
 20
-2.507949
  0
VERTEX
  8
PLAN_1
 62
     2
  6
CONTINUOUS
 10
-0.971504
 20
-2.513500
  0
VERTEX
  8
PLAN_1
 62
     2
  6
CONTINUOUS
 10
-0.972614
 20
-2.520165
  0
VERTEX
  8
PLAN_1
 62
     2
  6
CONTINUOUS
 10
-0.974280
 20
-2.527382
  0
VERTEX
  8
PLAN_1
 62
     2
  6
CONTINUOUS
 10
-0.975945
 20
-2.530713
  0
VERTEX
  8
PLAN_1
 62
     2
  6
CONTINUOUS
 10
-0.977610
 20
-2.534047
  0
VERTEX
  8
PLAN_1
 62
     2
  6
CONTINUOUS
 10
-0.979835
 20
-2.537378
  0
VERTEX
  8
PLAN_1
 62
     2
  6
CONTINUOUS
 10
-0.982610
 20
-2.539598
  0
VERTEX
  8
PLAN_1
 62
     2
  6
CONTINUOUS
 10
-0.985386
 20
-2.541819
  0
VERTEX
  8
PLAN_1
 62
     2
  6
CONTINUOUS
 10
-0.988717
 20
-2.543484
  0
VERTEX
  8
PLAN_1
 62
     2
  6
CONTINUOUS
 10
-0.992602
 20
-2.544594
  0
VERTEX
  8
PLAN_1
 62
     2
  6
CONTINUOUS
 10
-0.997047
 20
-2.545150
  0
VERTEX
  8
PLAN_1
 62
     2
  6
CONTINUOUS
 10
-1.000378
 20
-2.545150
  0
VERTEX
  8
PLAN_1
 62
     2
  6
CONTINUOUS
 10
-1.003154
 20
-2.544594
  0
VERTEX
  8
PLAN_1
 62
     2
  6
CONTINUOUS
 10
-1.005374
 20
-2.544039
  0
VERTEX
  8
PLAN_1
 62
     2
  6
CONTINUOUS
 10
-1.008150
 20
-2.542929
  0
VERTEX
  8
PLAN_1
 62
     2
  6
CONTINUOUS
 10
-1.011480
 20
-2.540709
  0
VERTEX
  8
PLAN_1
 62
     2
  6
CONTINUOUS
 10
-1.014815
 20
-2.537933
  0
VERTEX
  8
PLAN_1
 62
     2
  6
CONTINUOUS
 10
-1.016480
 20
-2.535157
  0
VERTEX
  8
PLAN_1
 62
     2
  6
CONTINUOUS
 10
-1.018146
 20
-2.531823
  0
VERTEX
  8
PLAN_1
 62
     2
  6
CONTINUOUS
 10
-1.018701
 20
-2.528492
  0
VERTEX
  8
PLAN_1
 62
     2
  6
CONTINUOUS
 10
-1.019256
 20
-2.525717
  0
VERTEX
  8
PLAN_1
 62
     2
  6
CONTINUOUS
 10
-1.009815
 20
-2.525717
  0
VERTEX
  8
PLAN_1
 62
     2
  6
CONTINUOUS
 10
-1.009260
 20
-2.527937
  0
VERTEX
  8
PLAN_1
 62
     2
  6
CONTINUOUS
 10
-1.008705
 20
-2.530713
  0
VERTEX
  8
PLAN_1
 62
     2
  6
CONTINUOUS
 10
-1.007594
 20
-2.532378
  0
VERTEX
  8
PLAN_1
 62
     2
  6
CONTINUOUS
 10
-1.006484
 20
-2.534602
  0
VERTEX
  8
PLAN_1
 62
     2
  6
CONTINUOUS
 10
-1.004264
 20
-2.535713
  0
VERTEX
  8
PLAN_1
 62
     2
  6
CONTINUOUS
 10
-1.002598
 20
-2.536823
  0
VERTEX
  8
PLAN_1
 62
     2
  6
CONTINUOUS
 10
-1.000378
 20
-2.537378
  0
VERTEX
  8
PLAN_1
 62
     2
  6
CONTINUOUS
 10
-0.997602
 20
-2.537378
  0
VERTEX
  8
PLAN_1
 62
     2
  6
CONTINUOUS
 10
-0.993713
 20
-2.537378
  0
VERTEX
  8
PLAN_1
 62
     2
  6
CONTINUOUS
 10
-0.990937
 20
-2.535713
  0
VERTEX
  8
PLAN_1
 62
     2
  6
CONTINUOUS
 10
-0.988161
 20
-2.534047
  0
VERTEX
  8
PLAN_1
 62
     2
  6
CONTINUOUS
 10
-0.985941
 20
-2.530713
  0
VERTEX
  8
PLAN_1
 62
     2
  6
CONTINUOUS
 10
-0.983720
 20
-2.527382
  0
VERTEX
  8
PLAN_1
 62
     2
  6
CONTINUOUS
 10
-0.982055
 20
-2.522386
  0
VERTEX
  8
PLAN_1
 62
     2
  6
CONTINUOUS
 10
-0.980945
 20
-2.516835
  0
VERTEX
  8
PLAN_1
 62
     2
  6
CONTINUOUS
 10
-0.979835
 20
-2.510169
  0
VERTEX
  8
PLAN_1
 62
     2
  6
CONTINUOUS
 10
-0.981500
 20
-2.511835
  0
VERTEX
  8
PLAN_1
 62
     2
  6
CONTINUOUS
 10
-0.983165
 20
-2.513500
  0
VERTEX
  8
PLAN_1
 62
     2
  6
CONTINUOUS
 10
-0.984831
 20
-2.515165
  0
VERTEX
  8
PLAN_1
 62
     2
  6
CONTINUOUS
 10
-0.987051
 20
-2.516280
  0
VERTEX
  8
PLAN_1
 62
     2
  6
CONTINUOUS
 10
-0.989272
 20
-2.517390
  0
VERTEX
  8
PLAN_1
 62
     2
  6
CONTINUOUS
 10
-0.991492
 20
-2.517945
  0
VERTEX
  8
PLAN_1
 62
     2
  6
CONTINUOUS
 10
-0.994268
 20
-2.518500
  0
VERTEX
  8
PLAN_1
 62
     2
  6
CONTINUOUS
 10
-0.997047
 20
-2.518500
  0
VERTEX
  8
PLAN_1
 62
     2
  6
CONTINUOUS
 10
-1.001488
 20
-2.518500
  0
VERTEX
  8
PLAN_1
 62
     2
  6
CONTINUOUS
 10
-1.005929
 20
-2.516835
  0
VERTEX
  8
PLAN_1
 62
     2
  6
CONTINUOUS
 10
-1.009815
 20
-2.515165
  0
VERTEX
  8
PLAN_1
 62
     2
  6
CONTINUOUS
 10
-1.013146
 20
-2.512390
  0
VERTEX
  8
PLAN_1
 62
     2
  6
CONTINUOUS
 10
-1.015925
 20
-2.509059
  0
VERTEX
  8
PLAN_1
 62
     2
  6
CONTINUOUS
 10
-1.018146
 20
-2.505173
  0
VERTEX
  8
PLAN_1
 62
     2
  6
CONTINUOUS
 10
-1.019256
 20
-2.500177
  0
VERTEX
  8
PLAN_1
 62
     2
  6
CONTINUOUS
 10
-1.019811
 20
-2.495177
  0
SEQEND
  8
0
  0
POLYLINE
  8
PLAN_1
 62
     2
  6
CONTINUOUS
 66
     1
 40
0.003000
 41
0.003000
  0
VERTEX
  8
PLAN_1
 62
     2
  6
CONTINUOUS
 10
-0.981500
 20
-2.494067
  0
VERTEX
  8
PLAN_1
 62
     2
  6
CONTINUOUS
 10
-0.981500
 20
-2.490736
  0
VERTEX
  8
PLAN_1
 62
     2
  6
CONTINUOUS
 10
-0.982055
 20
-2.487961
  0
VERTEX
  8
PLAN_1
 62
     2
  6
CONTINUOUS
 10
-0.983165
 20
-2.485185
  0
VERTEX
  8
PLAN_1
 62
     2
  6
CONTINUOUS
 10
-0.984831
 20
-2.482965
  0
VERTEX
  8
PLAN_1
 62
     2
  6
CONTINUOUS
 10
-0.987051
 20
-2.480744
  0
VERTEX
  8
PLAN_1
 62
     2
  6
CONTINUOUS
 10
-0.989272
 20
-2.479630
  0
VERTEX
  8
PLAN_1
 62
     2
  6
CONTINUOUS
 10
-0.992602
 20
-2.478520
  0
VERTEX
  8
PLAN_1
 62
     2
  6
CONTINUOUS
 10
-0.995933
 20
-2.477965
  0
VERTEX
  8
PLAN_1
 62
     2
  6
CONTINUOUS
 10
-0.999268
 20
-2.478520
  0
VERTEX
  8
PLAN_1
 62
     2
  6
CONTINUOUS
 10
-1.002043
 20
-2.479630
  0
VERTEX
  8
PLAN_1
 62
     2
  6
CONTINUOUS
 10
-1.004264
 20
-2.480744
  0
VERTEX
  8
PLAN_1
 62
     2
  6
CONTINUOUS
 10
-1.006484
 20
-2.482965
  0
VERTEX
  8
PLAN_1
 62
     2
  6
CONTINUOUS
 10
-1.008150
 20
-2.485185
  0
VERTEX
  8
PLAN_1
 62
     2
  6
CONTINUOUS
 10
-1.009260
 20
-2.487961
  0
VERTEX
  8
PLAN_1
 62
     2
  6
CONTINUOUS
 10
-1.010370
 20
-2.491291
  0
VERTEX
  8
PLAN_1
 62
     2
  6
CONTINUOUS
 10
-1.010370
 20
-2.494622
  0
VERTEX
  8
PLAN_1
 62
     2
  6
CONTINUOUS
 10
-1.009815
 20
-2.499622
  0
VERTEX
  8
PLAN_1
 62
     2
  6
CONTINUOUS
 10
-1.008705
 20
-2.502953
  0
VERTEX
  8
PLAN_1
 62
     2
  6
CONTINUOUS
 10
-1.007039
 20
-2.505728
  0
VERTEX
  8
PLAN_1
 62
     2
  6
CONTINUOUS
 10
-1.005374
 20
-2.507949
  0
VERTEX
  8
PLAN_1
 62
     2
  6
CONTINUOUS
 10
-1.003154
 20
-2.509059
  0
VERTEX
  8
PLAN_1
 62
     2
  6
CONTINUOUS
 10
-1.000378
 20
-2.510169
  0
VERTEX
  8
PLAN_1
 62
     2
  6
CONTINUOUS
 10
-0.998157
 20
-2.510169
  0
VERTEX
  8
PLAN_1
 62
     2
  6
CONTINUOUS
 10
-0.995378
 20
-2.510724
  0
VERTEX
  8
PLAN_1
 62
     2
  6
CONTINUOUS
 10
-0.993713
 20
-2.510169
  0
VERTEX
  8
PLAN_1
 62
     2
  6
CONTINUOUS
 10
-0.991492
 20
-2.510169
  0
VERTEX
  8
PLAN_1
 62
     2
  6
CONTINUOUS
 10
-0.988717
 20
-2.509059
  0
VERTEX
  8
PLAN_1
 62
     2
  6
CONTINUOUS
 10
-0.986496
 20
-2.507394
  0
VERTEX
  8
PLAN_1
 62
     2
  6
CONTINUOUS
 10
-0.984831
 20
-2.505728
  0
VERTEX
  8
PLAN_1
 62
     2
  6
CONTINUOUS
 10
-0.983165
 20
-2.502398
  0
VERTEX
  8
PLAN_1
 62
     2
  6
CONTINUOUS
 10
-0.982055
 20
-2.498512
  0
VERTEX
  8
PLAN_1
 62
     2
  6
CONTINUOUS
 10
-0.981500
 20
-2.494067
  0
SEQEND
  8
0
  0
ENDSEC
  0
EOF
