999
DXF file: C:\Users\sesa63760\Dev\_Creo\CAD\MCADPD0004134_3D-CAD\drw0001_6.dxf
999
Pro/ENGINEER 2019471 by Parametric Technology Corporation
  0
SECTION
  2
HEADER
  9
$ACADVER
  1
AC1024
  9
$DWGCODEPAGE
  3
ANSI_1252
  9
$EXTMAX
 10
148.4009902084
 20
209.8814004377
 30
0.0
  9
$EXTMIN
 10
0.0
 20
0.0
 30
0.0
  9
$LIMMIN
 10
0.0
 20
0.0
  9
$LIMMAX
 10
148.4009902084
 20
209.8814004377
  9
$VIEWCTR
 10
74.2004951042
 20
104.9407002188
  9
$VIEWSIZE
 40
209.8814004377
  9
$CLAYER
  8
0
  9
$LTSCALE
 40
13.6811579545
  9
$CELTYPE
  6
BYLAYER
  9
$DIMSCALE
 40
1.0
  9
$DIMASZ
 40
1.7666784549
  9
$DIMEXO
 40
1.0
  9
$DIMDLI
 40
9.4524364049
  9
$DIMEXE
 40
1.0
  9
$DIMCEN
 40
2.238734938
  9
$DIMLFAC
 40
1.0
  9
$DIMBLK
  1
_FILLED
  9
$DIMALT
 70
0
  9
$DIMALTF
 40
0.0393700787
  9
$DIMTXT
 40
2.4733498368
  9
$DIMTOL
 70
1
  9
$DIMLIM
 70
0
  9
$DIMTFAC
 40
1.0
  9
$DIMTP
 40
0.01
  9
$DIMTM
 40
0.01
  9
$DIMGAP
 40
0.625
  9
$DIMDSEP
 70
46
  9
$AUNITS
 70
0
  9
$PDMODE
 70
3
  9
$PDSIZE
 40
0.3125
  9
$HANDSEED
  5
2A3
  9
$TILEMODE
 70
1
  9
$MEASUREMENT
 70
1
  9
$INSUNITS
 70
4
  0
ENDSEC
  0
SECTION
  2
CLASSES
  0
CLASS
  1
ACDBDICTIONARYWDFLT
  2
AcDbDictionaryWithDefault
  3
AutoCAD 2000
 90
0
 91
1
280
0
281
0
  0
CLASS
  1
ACDBPLACEHOLDER
  2
AcDbPlaceHolder
  3
AutoCAD 2000
 90
0
 91
1
280
0
281
0
  0
CLASS
  1
LAYOUT
  2
AcDbLayout
  3
AutoCAD 2000
 90
0
 91
0
280
0
281
0
  0
ENDSEC
  0
SECTION
  2
TABLES
  0
TABLE
  2
VPORT
  5
8
100
AcDbSymbolTable
 70
2
  0
VPORT
  5
1F4
100
AcDbSymbolTableRecord
100
AcDbViewportTableRecord
  2
*ACTIVE
 70
0
 10
0.0
 20
0.0
 11
1.0
 21
1.0
 12
74.2004951042
 22
104.9407002188
 13
0.0
 23
0.0
 14
1.0
 24
1.0
 15
0.0
 25
0.0
 16
0.0
 26
0.0
 36
1.0
 17
0.0
 27
0.0
 37
0.0
 40
209.8814004377
 41
0.7070707071
 42
50.0
 43
0.0
 44
0.0
 50
0.0
 51
0.0
 71
0
 72
100
 73
1
 74
1
 75
0
 76
0
 77
0
 78
0
  0
ENDTAB
  0
TABLE
  2
LTYPE
  5
5
100
AcDbSymbolTable
 70
6
  0
LTYPE
  5
14
100
AcDbSymbolTableRecord
100
AcDbLinetypeTableRecord
  2
BYBLOCK
 70
0
  3

 72
65
 73
0
 40
0.0
  0
LTYPE
  5
15
100
AcDbSymbolTableRecord
100
AcDbLinetypeTableRecord
  2
BYLAYER
 70
0
  3

 72
65
 73
0
 40
0.0
  0
LTYPE
  5
16
100
AcDbSymbolTableRecord
100
AcDbLinetypeTableRecord
  2
CONTINUOUS
 70
64
  3
Solid line
 72
65
 73
0
 40
0.0
  0
LTYPE
  5
1F5
100
AcDbSymbolTableRecord
100
AcDbLinetypeTableRecord
  2
CENTER
 70
64
  3
____ _ ____ _ ____ _ ____ _ ____ _ ____ _ ____
 72
65
 73
4
 40
0.6
 49
0.375
 74
0
 49
-0.075
 74
0
 49
0.075
 74
0
 49
-0.075
 74
0
  0
LTYPE
  5
1F6
100
AcDbSymbolTableRecord
100
AcDbLinetypeTableRecord
  2
HIDDEN
 70
64
  3
- - - - - - - - - - - - - - - - - - - -
 72
65
 73
2
 40
0.2
 49
0.1
 74
0
 49
-0.1
 74
0
  0
LTYPE
  5
1F7
100
AcDbSymbolTableRecord
100
AcDbLinetypeTableRecord
  2
PHANTOM
 70
64
  3
_____ _ _ _____ _ _ _____ _ _ _____
 72
65
 73
6
 40
0.8
 49
0.45
 74
0
 49
-0.05
 74
0
 49
0.1
 74
0
 49
-0.05
 74
0
 49
0.1
 74
0
 49
-0.05
 74
0
  0
LTYPE
  5
1F8
100
AcDbSymbolTableRecord
100
AcDbLinetypeTableRecord
  2
DOT
 70
64
  3
. . . . . . . . . . . . . . . . . . . .
 72
65
 73
2
 40
0.2
 49
0.1
 74
0
 49
-0.1
 74
0
  0
LTYPE
  5
1F9
100
AcDbSymbolTableRecord
100
AcDbLinetypeTableRecord
  2
DASHED
 70
64
  3
- - - - - - - - - - - - - - - - - - - -
 72
65
 73
2
 40
0.2
 49
0.1
 74
0
 49
-0.1
 74
0
  0
ENDTAB
  0
TABLE
  2
LAYER
  5
2
100
AcDbSymbolTable
 70
36
  0
LAYER
  5
10
100
AcDbSymbolTableRecord
100
AcDbLayerTableRecord
  2
0
 70
0
 62
7
  6
CONTINUOUS
370
-3
390
F
  0
LAYER
  5
1FA
100
AcDbSymbolTableRecord
100
AcDbLayerTableRecord
  2
DEFAULT_1
 70
0
 62
7
  6
CENTER
370
-3
390
F
  0
LAYER
  5
1FB
100
AcDbSymbolTableRecord
100
AcDbLayerTableRecord
  2
DEFAULT_2
 70
0
 62
7
  6
HIDDEN
370
-3
390
F
  0
LAYER
  5
1FC
100
AcDbSymbolTableRecord
100
AcDbLayerTableRecord
  2
DEFAULT_3
 70
0
 62
7
  6
PHANTOM
370
-3
390
F
  0
LAYER
  5
1FD
100
AcDbSymbolTableRecord
100
AcDbLayerTableRecord
  2
00_COMPONENTS
 70
0
 62
7
  6
CONTINUOUS
370
-3
390
F
  0
LAYER
  5
1FE
100
AcDbSymbolTableRecord
100
AcDbLayerTableRecord
  2
01_1_DEFAULT_DATUMS
 70
0
 62
7
  6
CONTINUOUS
370
-3
390
F
  0
LAYER
  5
1FF
100
AcDbSymbolTableRecord
100
AcDbLayerTableRecord
  2
01_PLANES
 70
0
 62
7
  6
CONTINUOUS
370
-3
390
F
  0
LAYER
  5
200
100
AcDbSymbolTableRecord
100
AcDbLayerTableRecord
  2
02_COORD_SYS
 70
0
 62
7
  6
CONTINUOUS
370
-3
390
F
  0
LAYER
  5
201
100
AcDbSymbolTableRecord
100
AcDbLayerTableRecord
  2
03_AXES
 70
0
 62
7
  6
CONTINUOUS
370
-3
390
F
  0
LAYER
  5
202
100
AcDbSymbolTableRecord
100
AcDbLayerTableRecord
  2
04_POINTS
 70
0
 62
7
  6
CONTINUOUS
370
-3
390
F
  0
LAYER
  5
203
100
AcDbSymbolTableRecord
100
AcDbLayerTableRecord
  2
05_CURVES
 70
0
 62
7
  6
CONTINUOUS
370
-3
390
F
  0
LAYER
  5
204
100
AcDbSymbolTableRecord
100
AcDbLayerTableRecord
  2
06_SURFS
 70
0
 62
7
  6
CONTINUOUS
370
-3
390
F
  0
LAYER
  5
205
100
AcDbSymbolTableRecord
100
AcDbLayerTableRecord
  2
07_COSMETICS
 70
0
 62
7
  6
CONTINUOUS
370
-3
390
F
  0
LAYER
  5
206
100
AcDbSymbolTableRecord
100
AcDbLayerTableRecord
  2
10_NOTES
 70
0
 62
7
  6
CONTINUOUS
370
-3
390
F
  0
LAYER
  5
207
100
AcDbSymbolTableRecord
100
AcDbLayerTableRecord
  2
11_NOTES_PUB
 70
0
 62
7
  6
CONTINUOUS
370
-3
390
F
  0
LAYER
  5
208
100
AcDbSymbolTableRecord
100
AcDbLayerTableRecord
  2
13_REF_GTOL
 70
0
 62
7
  6
CONTINUOUS
370
-3
390
F
  0
LAYER
  5
209
100
AcDbSymbolTableRecord
100
AcDbLayerTableRecord
  2
16_MISC
 70
0
 62
7
  6
CONTINUOUS
370
-3
390
F
  0
LAYER
  5
20A
100
AcDbSymbolTableRecord
100
AcDbLayerTableRecord
  2
17_NO_PRINT
 70
0
 62
7
  6
CONTINUOUS
370
-3
390
F
  0
LAYER
  5
20B
100
AcDbSymbolTableRecord
100
AcDbLayerTableRecord
  2
18_DATUM_CAMS_JOINTS
 70
0
 62
7
  6
CONTINUOUS
370
-3
390
F
  0
LAYER
  5
20C
100
AcDbSymbolTableRecord
100
AcDbLayerTableRecord
  2
19_DATUM_FUNCTIONAL
 70
0
 62
7
  6
CONTINUOUS
370
-3
390
F
  0
LAYER
  5
20D
100
AcDbSymbolTableRecord
100
AcDbLayerTableRecord
  2
20_DATUM_KINEMATIC_SCHEME
 70
0
 62
7
  6
CONTINUOUS
370
-3
390
F
  0
ENDTAB
  0
TABLE
  2
STYLE
  5
3
100
AcDbSymbolTable
 70
1
  0
STYLE
  5
11
100
AcDbSymbolTableRecord
100
AcDbTextStyleTableRecord
  2
STANDARD
 70
0
 40
0.0
 41
1.0
 50
0.0
 71
0
 42
0.2
  3
ARIAL.TTF
  4

  0
STYLE
  5
20E
100
AcDbSymbolTableRecord
100
AcDbTextStyleTableRecord
  2
TEXTSTYLE_1
 70
0
 40
0.0
 41
0.8
 50
0.0
 71
0
 42
0.2
  3
gdt
  4

  0
ENDTAB
  0
TABLE
  2
VIEW
  5
6
100
AcDbSymbolTable
 70
0
  0
ENDTAB
  0
TABLE
  2
UCS
  5
7
100
AcDbSymbolTable
 70
0
  0
ENDTAB
  0
TABLE
  2
APPID
  5
9
100
AcDbSymbolTable
 70
1
  0
APPID
  5
20F
100
AcDbSymbolTableRecord
100
AcDbRegAppTableRecord
  2
ACAD
 70
0
  0
ENDTAB
  0
TABLE
  2
BLOCK_RECORD
  5
1
100
AcDbSymbolTable
 70
0
  0
BLOCK_RECORD
  5
210
100
AcDbSymbolTableRecord
100
AcDbBlockTableRecord
  2
*Model_Space
  0
BLOCK_RECORD
  5
211
100
AcDbSymbolTableRecord
100
AcDbBlockTableRecord
  2
*Paper_Space
  0
BLOCK_RECORD
  5
212
100
AcDbSymbolTableRecord
100
AcDbBlockTableRecord
  2
_FILLED
  0
ENDTAB
  0
TABLE
  2
DIMSTYLE
  5
A
100
AcDbSymbolTable
 70
1
100
AcDbDimStyleTable
 71
0
  0
DIMSTYLE
105
213
100
AcDbSymbolTableRecord
100
AcDbDimStyleTableRecord
  2
STANDARD
 70
0
  3

  4

 40
1.0
 41
1.7666784549
 42
1.0
 43
0.38
 44
1.0
 45
0.0
 46
0.0
 47
0.01
 48
0.01
140
2.4733498368
141
0.09
142
0.0
143
25.4
144
1.0
145
0.0
146
1.0
147
0.625
 71
1
 72
0
 73
0
 74
0
 75
0
 76
0
 77
1
 78
8
 79
2
170
0
171
1
172
0
173
0
174
0
175
0
176
0
177
0
178
0
270
2
179
2
271
2
272
2
273
2
274
2
275
0
280
0
281
0
282
0
283
1
284
8
285
0
286
0
287
3
288
0
340
11
278
46
341
212
342
212
343
212
344
212
  0
ENDTAB
  0
ENDSEC
  0
SECTION
  2
BLOCKS
  0
BLOCK
  5
20
100
AcDbEntity
  8
0
100
AcDbBlockBegin
  2
*Model_Space
 70
0
 10
0.0
 20
0.0
 30
0.0
  3
*Model_Space
  1

  0
ENDBLK
  5
21
100
AcDbEntity
  8
0
100
AcDbBlockEnd
  0
BLOCK
  5
1C
100
AcDbEntity
  8
0
100
AcDbBlockBegin
  2
*Paper_Space
 70
0
 10
0.0
 20
0.0
 30
0.0
  3
*Paper_Space
  1

  0
ENDBLK
  5
1D
100
AcDbEntity
  8
0
100
AcDbBlockEnd
  0
BLOCK
  5
214
100
AcDbEntity
  8
0
100
AcDbBlockBegin
  2
_FILLED
 70
64
 10
0.0
 20
0.0
  3
_FILLED
  1

  0
SOLID
  5
215
100
AcDbEntity
  8
0
  6
BYBLOCK
 62
0
100
AcDbTrace
 10
0.0
 20
0.0
 11
-1.0
 21
0.25
 12
-1.0
 22
-0.25
 13
-1.0
 23
-0.25
  0
ENDBLK
  5
216
100
AcDbEntity
  8
0
  6
BYBLOCK
 62
0
100
AcDbBlockEnd
  0
ENDSEC
  0
SECTION
  2
ENTITIES
  0
LINE
  5
217
100
AcDbEntity
  8
0
100
AcDbLine
 62
7
  6
BYLAYER
 10
16.7849589992
 20
102.1907002188
 11
16.7849589992
 21
100.5907002188
  0
LINE
  5
218
100
AcDbEntity
  8
0
100
AcDbLine
 62
7
  6
BYLAYER
 10
17.1849589992
 20
121.1907002188
 11
17.1849589992
 21
112.1907002188
  0
LINE
  5
219
100
AcDbEntity
  8
0
100
AcDbLine
 62
7
  6
BYLAYER
 10
17.7849589992
 20
100.5907002188
 11
17.7849589992
 21
93.1407002188
  0
LINE
  5
21A
100
AcDbEntity
  8
0
100
AcDbLine
 62
7
  6
BYLAYER
 10
19.6849589992
 20
121.1907002188
 11
19.6849589992
 21
114.6907002188
  0
LINE
  5
21B
100
AcDbEntity
  8
0
100
AcDbLine
 62
7
  6
BYLAYER
 10
19.6849589992
 20
100.3407002188
 11
19.6849589992
 21
93.1407002188
  0
LINE
  5
21C
100
AcDbEntity
  8
0
100
AcDbLine
 62
7
  6
BYLAYER
 10
123.3849589992
 20
44.2907002188
 11
127.1849589992
 21
44.2907002188
  0
LINE
  5
21D
100
AcDbEntity
  8
0
100
AcDbLine
 62
7
  6
BYLAYER
 10
134.1849589992
 20
45.1632130044
 11
127.1849589992
 21
45.1632130044
  0
LINE
  5
21E
100
AcDbEntity
  8
0
100
AcDbLine
 62
7
  6
BYLAYER
 10
123.3849589992
 20
45.5157066258
 11
134.1849589992
 21
45.5157066258
  0
LINE
  5
21F
100
AcDbEntity
  8
0
100
AcDbLine
 62
7
  6
BYLAYER
 10
41.7484789912
 20
48.7907002188
 11
123.3849589992
 21
48.7907002188
  0
LINE
  5
220
100
AcDbEntity
  8
0
100
AcDbLine
 62
7
  6
BYLAYER
 10
21.8349589992
 20
92.4907002188
 11
21.8349589992
 21
121.8907002188
  0
LINE
  5
221
100
AcDbEntity
  8
0
100
AcDbLine
 62
7
  6
BYLAYER
 10
22.1349589992
 20
81.3907002188
 11
22.1349589992
 21
92.4907002188
  0
LINE
  5
222
100
AcDbEntity
  8
0
100
AcDbLine
 62
7
  6
BYLAYER
 10
22.1349589992
 20
121.8907002188
 11
22.1349589992
 21
132.9907002188
  0
LINE
  5
223
100
AcDbEntity
  8
0
100
AcDbLine
 62
7
  6
BYLAYER
 10
24.1349589992
 20
132.9907002188
 11
24.1349589992
 21
121.8907002188
  0
LINE
  5
224
100
AcDbEntity
  8
0
100
AcDbLine
 62
7
  6
BYLAYER
 10
24.1349589992
 20
92.4907002188
 11
24.1349589992
 21
81.3907002188
  0
LINE
  5
225
100
AcDbEntity
  8
0
100
AcDbLine
 62
7
  6
BYLAYER
 10
38.1850124974
 20
50.2907002188
 11
100.1849589992
 21
50.2907002188
  0
LINE
  5
226
100
AcDbEntity
  8
0
100
AcDbLine
 62
7
  6
BYLAYER
 10
100.1849589992
 20
57.2907002188
 11
134.1849589992
 21
57.2907002188
  0
LINE
  5
227
100
AcDbEntity
  8
0
100
AcDbLine
 62
7
  6
BYLAYER
 10
41.6849645577
 20
165.1157194733
 11
41.7484766012
 21
165.5907002189
  0
LINE
  5
228
100
AcDbEntity
  8
0
100
AcDbLine
 62
7
  6
BYLAYER
 10
100.1849589992
 20
62.6907002188
 11
101.6849589992
 21
62.6907002188
  0
LINE
  5
229
100
AcDbEntity
  8
0
100
AcDbLine
 62
7
  6
BYLAYER
 10
100.1849589992
 20
62.7907002188
 11
101.6849589992
 21
62.7907002188
  0
LINE
  5
22A
100
AcDbEntity
  8
0
100
AcDbLine
 62
7
  6
BYLAYER
 10
101.6849589992
 20
65.7907002188
 11
38.4501302212
 21
65.7907002188
  0
LINE
  5
22B
100
AcDbEntity
  8
0
100
AcDbLine
 62
7
  6
BYLAYER
 10
38.3340719216
 20
65.7907002188
 11
38.1849612982
 21
65.7907002188
  0
LINE
  5
22C
100
AcDbEntity
  8
0
100
AcDbLine
 62
7
  6
BYLAYER
 10
37.7849610065
 20
66.2907002188
 11
101.6849589992
 21
66.2907002188
  0
LINE
  5
22D
100
AcDbEntity
  8
0
100
AcDbLine
 62
7
  6
BYLAYER
 10
70.3049589992
 20
65.7907002188
 11
64.3049589992
 21
66.2907002188
  0
LINE
  5
22E
100
AcDbEntity
  8
0
100
AcDbLine
 62
7
  6
BYLAYER
 10
41.7484766279
 20
48.7907002188
 11
41.6849645577
 21
49.2656809643
  0
LINE
  5
22F
100
AcDbEntity
  8
0
100
AcDbLine
 62
7
  6
BYLAYER
 10
41.7484766279
 20
48.7907002188
 11
41.6920978628
 21
49.2127239203
  0
LINE
  5
230
100
AcDbEntity
  8
0
100
AcDbLine
 62
7
  6
BYLAYER
 10
37.7849589992
 20
66.2907002188
 11
37.7849589992
 21
78.3907002188
  0
LINE
  5
231
100
AcDbEntity
  8
0
100
AcDbLine
 62
7
  6
BYLAYER
 10
37.7849589992
 20
135.9907002188
 11
37.7849589992
 21
148.0907002188
  0
LINE
  5
232
100
AcDbEntity
  8
0
100
AcDbLine
 62
7
  6
BYLAYER
 10
37.9242931292
 20
148.0907002188
 11
37.9242931292
 21
145.4884755219
  0
LINE
  5
233
100
AcDbEntity
  8
0
100
AcDbLine
 62
7
  6
BYLAYER
 10
37.9242931292
 20
68.8929249157
 11
37.9242931292
 21
66.2907002188
  0
LINE
  5
234
100
AcDbEntity
  8
0
100
AcDbLine
 62
7
  6
BYLAYER
 10
38.0635644393
 20
66.2907002188
 11
38.0635644393
 21
68.8929249157
  0
LINE
  5
235
100
AcDbEntity
  8
0
100
AcDbLine
 62
7
  6
BYLAYER
 10
38.0635644393
 20
145.4884755219
 11
38.0635644393
 21
148.0907002188
  0
LINE
  5
236
100
AcDbEntity
  8
0
100
AcDbLine
 62
7
  6
BYLAYER
 10
38.1849589992
 20
65.7907002188
 11
38.1849589992
 21
62.1907002188
  0
LINE
  5
237
100
AcDbEntity
  8
0
100
AcDbLine
 62
7
  6
BYLAYER
 10
38.1849589992
 20
54.3907002188
 11
38.1849589992
 21
50.2907002188
  0
LINE
  5
238
100
AcDbEntity
  8
0
100
AcDbLine
 62
7
  6
BYLAYER
 10
38.1849589992
 20
148.5907002189
 11
38.1849589992
 21
152.1907002189
  0
LINE
  5
239
100
AcDbEntity
  8
0
100
AcDbLine
 62
7
  6
BYLAYER
 10
38.1849589992
 20
159.9907002189
 11
38.1849589992
 21
164.0907002189
  0
LINE
  5
23A
100
AcDbEntity
  8
0
100
AcDbLine
 62
7
  6
BYLAYER
 10
38.3340719216
 20
65.7907002188
 11
38.3340719216
 21
66.2907002188
  0
LINE
  5
23B
100
AcDbEntity
  8
0
100
AcDbLine
 62
7
  6
BYLAYER
 10
38.3340719216
 20
148.0907002188
 11
38.3340719216
 21
148.5907002189
  0
LINE
  5
23C
100
AcDbEntity
  8
0
100
AcDbLine
 62
7
  6
BYLAYER
 10
38.4501302212
 20
148.5907002189
 11
38.4501302212
 21
148.0907002188
  0
LINE
  5
23D
100
AcDbEntity
  8
0
100
AcDbLine
 62
7
  6
BYLAYER
 10
38.4501302212
 20
66.2907002188
 11
38.4501302212
 21
65.7907002188
  0
LINE
  5
23E
100
AcDbEntity
  8
0
100
AcDbLine
 62
7
  6
BYLAYER
 10
39.0368996302
 20
78.3907002188
 11
39.0368996302
 21
81.3907002188
  0
LINE
  5
23F
100
AcDbEntity
  8
0
100
AcDbLine
 62
7
  6
BYLAYER
 10
39.0368996302
 20
132.9907002188
 11
39.0368996302
 21
135.9907002188
  0
LINE
  5
240
100
AcDbEntity
  8
0
100
AcDbLine
 62
7
  6
BYLAYER
 10
39.7849589992
 20
148.0907002188
 11
39.7849589992
 21
66.2907002188
  0
LINE
  5
241
100
AcDbEntity
  8
0
100
AcDbLine
 62
7
  6
BYLAYER
 10
40.1849589992
 20
164.0907002189
 11
40.1849589992
 21
148.5907002189
  0
LINE
  5
242
100
AcDbEntity
  8
0
100
AcDbLine
 62
7
  6
BYLAYER
 10
40.1849589992
 20
65.7907002188
 11
40.1849589992
 21
50.2907002188
  0
LINE
  5
243
100
AcDbEntity
  8
0
100
AcDbLine
 62
7
  6
BYLAYER
 10
41.6849589987
 20
50.2907002188
 11
41.6849589987
 21
49.2656619925
  0
LINE
  5
244
100
AcDbEntity
  8
0
100
AcDbLine
 62
7
  6
BYLAYER
 10
41.6849589987
 20
164.0907002189
 11
41.6849589987
 21
165.1157384451
  0
LINE
  5
245
100
AcDbEntity
  8
0
100
AcDbLine
 62
7
  6
BYLAYER
 10
38.0635644393
 20
68.8929249157
 11
37.9242931292
 21
68.8929249157
  0
LINE
  5
246
100
AcDbEntity
  8
0
100
AcDbLine
 62
7
  6
BYLAYER
 10
42.8849589992
 20
148.5907002189
 11
42.8849589992
 21
148.0907002188
  0
LINE
  5
247
100
AcDbEntity
  8
0
100
AcDbLine
 62
7
  6
BYLAYER
 10
42.8849589992
 20
66.2907002188
 11
42.8849589992
 21
65.7907002188
  0
LINE
  5
248
100
AcDbEntity
  8
0
100
AcDbLine
 62
7
  6
BYLAYER
 10
43.3261205391
 20
165.5907002189
 11
43.3261205391
 21
164.0907002189
  0
LINE
  5
249
100
AcDbEntity
  8
0
100
AcDbLine
 62
7
  6
BYLAYER
 10
43.3261205391
 20
50.2907002188
 11
43.3261205391
 21
48.7907002188
  0
LINE
  5
24A
100
AcDbEntity
  8
0
100
AcDbLine
 62
7
  6
BYLAYER
 10
39.0368996302
 20
78.3907002188
 11
30.3849589992
 21
78.3907002188
  0
LINE
  5
24B
100
AcDbEntity
  8
0
100
AcDbLine
 62
7
  6
BYLAYER
 10
22.1350124974
 20
81.3907002188
 11
39.7849589992
 21
81.3907002188
  0
LINE
  5
24C
100
AcDbEntity
  8
0
100
AcDbLine
 62
7
  6
BYLAYER
 10
128.3849589992
 20
84.6913749758
 11
129.5849589992
 21
84.6913749758
  0
LINE
  5
24D
100
AcDbEntity
  8
0
100
AcDbLine
 62
7
  6
BYLAYER
 10
129.5849589992
 20
85.1913749758
 11
131.0849589992
 21
85.1913749758
  0
LINE
  5
24E
100
AcDbEntity
  8
0
100
AcDbLine
 62
7
  6
BYLAYER
 10
127.3849589992
 20
89.1913749758
 11
128.3849589992
 21
89.1913749758
  0
LINE
  5
24F
100
AcDbEntity
  8
0
100
AcDbLine
 62
7
  6
BYLAYER
 10
24.1349589992
 20
92.4907002188
 11
21.8349589992
 21
92.4907002188
  0
LINE
  5
250
100
AcDbEntity
  8
0
100
AcDbLine
 62
7
  6
BYLAYER
 10
17.7849589992
 20
93.1407002188
 11
21.8349589992
 21
93.1407002188
  0
LINE
  5
251
100
AcDbEntity
  8
0
100
AcDbLine
 62
7
  6
BYLAYER
 10
17.7849589992
 20
100.3407002188
 11
19.6849589992
 21
100.3407002188
  0
LINE
  5
252
100
AcDbEntity
  8
0
100
AcDbLine
 62
7
  6
BYLAYER
 10
16.7849589992
 20
100.5907002188
 11
17.7849589992
 21
100.5907002188
  0
LINE
  5
253
100
AcDbEntity
  8
0
100
AcDbLine
 62
7
  6
BYLAYER
 10
21.8349589992
 20
102.1907002188
 11
16.7849589992
 21
102.1907002188
  0
LINE
  5
254
100
AcDbEntity
  8
0
100
AcDbLine
 62
7
  6
BYLAYER
 10
82.3049589992
 20
148.5907002189
 11
82.3049589992
 21
148.0907002188
  0
LINE
  5
255
100
AcDbEntity
  8
0
100
AcDbLine
 62
7
  6
BYLAYER
 10
82.3049589992
 20
66.2907002188
 11
82.3049589992
 21
65.7907002188
  0
LINE
  5
256
100
AcDbEntity
  8
0
100
AcDbLine
 62
7
  6
BYLAYER
 10
134.1849589992
 20
124.5907002188
 11
130.1103958502
 21
122.6913749758
  0
LINE
  5
257
100
AcDbEntity
  8
0
100
AcDbLine
 62
7
  6
BYLAYER
 10
21.8349589992
 20
112.1907002188
 11
17.1849589992
 21
112.1907002188
  0
LINE
  5
258
100
AcDbEntity
  8
0
100
AcDbLine
 62
7
  6
BYLAYER
 10
19.6849589992
 20
114.6907002188
 11
21.8349589992
 21
114.6907002188
  0
LINE
  5
259
100
AcDbEntity
  8
0
100
AcDbLine
 62
7
  6
BYLAYER
 10
89.1849589992
 20
66.2907002188
 11
89.1849589992
 21
148.0907002188
  0
LINE
  5
25A
100
AcDbEntity
  8
0
100
AcDbLine
 62
7
  6
BYLAYER
 10
17.1849589992
 20
121.1907002188
 11
21.8349589992
 21
121.1907002188
  0
LINE
  5
25B
100
AcDbEntity
  8
0
100
AcDbLine
 62
7
  6
BYLAYER
 10
24.1349589992
 20
121.8907002188
 11
21.8349589992
 21
121.8907002188
  0
LINE
  5
25C
100
AcDbEntity
  8
0
100
AcDbLine
 62
7
  6
BYLAYER
 10
130.1103958502
 20
122.6913749758
 11
129.3849589992
 21
122.6913749758
  0
LINE
  5
25D
100
AcDbEntity
  8
0
100
AcDbLine
 62
7
  6
BYLAYER
 10
128.4849589992
 20
124.6913749758
 11
127.3849589992
 21
124.6913749758
  0
LINE
  5
25E
100
AcDbEntity
  8
0
100
AcDbLine
 62
7
  6
BYLAYER
 10
100.1849589992
 20
165.5907002189
 11
100.1849589992
 21
151.5907002189
  0
LINE
  5
25F
100
AcDbEntity
  8
0
100
AcDbLine
 62
7
  6
BYLAYER
 10
100.1849589992
 20
48.7907002188
 11
100.1849589992
 21
62.7907002188
  0
LINE
  5
260
100
AcDbEntity
  8
0
100
AcDbLine
 62
7
  6
BYLAYER
 10
39.7849589992
 20
132.9907002188
 11
22.1350124974
 21
132.9907002188
  0
LINE
  5
261
100
AcDbEntity
  8
0
100
AcDbLine
 62
7
  6
BYLAYER
 10
131.0849589992
 20
85.1913749758
 11
134.1849589992
 21
82.2961406581
  0
LINE
  5
262
100
AcDbEntity
  8
0
100
AcDbLine
 62
7
  6
BYLAYER
 10
39.0368996302
 20
135.9907002188
 11
30.3849589992
 21
135.9907002188
  0
LINE
  5
263
100
AcDbEntity
  8
0
100
AcDbLine
 62
7
  6
BYLAYER
 10
59.5049589986
 20
148.0907002188
 11
65.5049589992
 21
148.5907002189
  0
LINE
  5
264
100
AcDbEntity
  8
0
100
AcDbLine
 62
7
  6
BYLAYER
 10
37.9242931292
 20
145.4884755219
 11
38.0635644393
 21
145.4884755219
  0
LINE
  5
265
100
AcDbEntity
  8
0
100
AcDbLine
 62
7
  6
BYLAYER
 10
37.7849610065
 20
148.0907002188
 11
101.6849589992
 21
148.0907002188
  0
LINE
  5
266
100
AcDbEntity
  8
0
100
AcDbLine
 62
7
  6
BYLAYER
 10
38.1849612982
 20
148.5907002189
 11
38.3340719216
 21
148.5907002189
  0
LINE
  5
267
100
AcDbEntity
  8
0
100
AcDbLine
 62
7
  6
BYLAYER
 10
38.4501302212
 20
148.5907002189
 11
101.6849589992
 21
148.5907002189
  0
LINE
  5
268
100
AcDbEntity
  8
0
100
AcDbLine
 62
7
  6
BYLAYER
 10
123.3849589992
 20
44.2907071356
 11
123.3849589992
 21
48.7907002188
  0
LINE
  5
269
100
AcDbEntity
  8
0
100
AcDbLine
 62
7
  6
BYLAYER
 10
100.1849589992
 20
151.5907002189
 11
101.6849589992
 21
151.5907002189
  0
LINE
  5
26A
100
AcDbEntity
  8
0
100
AcDbLine
 62
7
  6
BYLAYER
 10
101.6849589992
 20
151.6907002188
 11
100.1849589992
 21
151.6907002188
  0
LINE
  5
26B
100
AcDbEntity
  8
0
100
AcDbLine
 62
7
  6
BYLAYER
 10
134.1849589992
 20
155.0907002188
 11
100.1849589992
 21
155.0907002188
  0
LINE
  5
26C
100
AcDbEntity
  8
0
100
AcDbLine
 62
7
  6
BYLAYER
 10
127.1849589992
 20
44.2909985545
 11
127.1849589992
 21
45.1632130044
  0
LINE
  5
26D
100
AcDbEntity
  8
0
100
AcDbLine
 62
7
  6
BYLAYER
 10
127.3849589992
 20
124.6913749758
 11
127.3849589992
 21
89.1913749758
  0
LINE
  5
26E
100
AcDbEntity
  8
0
100
AcDbLine
 62
7
  6
BYLAYER
 10
128.3849589992
 20
89.1913749758
 11
128.3849589992
 21
84.6913749758
  0
LINE
  5
26F
100
AcDbEntity
  8
0
100
AcDbLine
 62
7
  6
BYLAYER
 10
129.5849589992
 20
84.6913749758
 11
129.5849589992
 21
85.1913749758
  0
LINE
  5
270
100
AcDbEntity
  8
0
100
AcDbLine
 62
7
  6
BYLAYER
 10
100.1849589992
 20
157.0907002188
 11
134.1849589992
 21
157.0907002188
  0
LINE
  5
271
100
AcDbEntity
  8
0
100
AcDbLine
 62
7
  6
BYLAYER
 10
129.3849589992
 20
122.6913749758
 11
128.4849589992
 21
124.6913749758
  0
LINE
  5
272
100
AcDbEntity
  8
0
100
AcDbLine
 62
7
  6
BYLAYER
 10
134.1849589992
 20
45.1632130044
 11
134.1849589992
 21
82.2961406581
  0
LINE
  5
273
100
AcDbEntity
  8
0
100
AcDbLine
 62
7
  6
BYLAYER
 10
134.1849589992
 20
124.5907002188
 11
134.1849589992
 21
157.0906953555
  0
LINE
  5
274
100
AcDbEntity
  8
0
100
AcDbLine
 62
7
  6
BYLAYER
 10
100.1849589992
 20
164.0907002189
 11
38.1850124974
 21
164.0907002189
  0
LINE
  5
275
100
AcDbEntity
  8
0
100
AcDbLine
 62
7
  6
BYLAYER
 10
100.1849589992
 20
165.5907002189
 11
43.0385817494
 21
165.5907002189
  0
LINE
  5
276
100
AcDbEntity
  8
0
100
AcDbLine
 62
7
  6
BYLAYER
 10
41.748478991
 20
165.5907002189
 11
43.038247898
 21
165.5907002189
  0
ARC
  5
277
100
AcDbEntity
  8
0
100
AcDbCircle
 62
7
  6
BYLAYER
 10
-150.4587226473
 20
156.0907002189
 40
188.6839914385
100
AcDbArc
 50
358.8156416855
 51
1.1843583145
  0
ARC
  5
278
100
AcDbEntity
  8
0
100
AcDbCircle
 62
7
  6
BYLAYER
 10
-150.4587195274
 20
58.2907002188
 40
188.6839883192
100
AcDbArc
 50
358.8156416659
 51
1.1843583341
  0
ARC
  5
279
100
AcDbEntity
  8
0
100
AcDbCircle
 62
7
  6
BYLAYER
 10
129.8994506183
 20
107.1907002188
 40
103.3817125971
100
AcDbArc
 50
165.5484889839
 51
194.4515110161
  0
ARC
  5
27A
100
AcDbEntity
  8
0
100
AcDbCircle
 62
7
  6
BYLAYER
 10
129.8994506183
 20
107.1907002188
 40
100.0
100
AcDbArc
 50
165.04857775
 51
194.95142225
  0
ARC
  5
27B
100
AcDbEntity
  8
0
100
AcDbCircle
 62
7
  6
BYLAYER
 10
101.6849589992
 20
64.4907002188
 40
1.8
100
AcDbArc
 50
270.0
 51
90.0
  0
ARC
  5
27C
100
AcDbEntity
  8
0
100
AcDbCircle
 62
7
  6
BYLAYER
 10
101.6849589992
 20
149.8907002188
 40
1.8
100
AcDbArc
 50
270.0
 51
90.0
  0
ARC
  5
27D
100
AcDbEntity
  8
0
100
AcDbCircle
 62
7
  6
BYLAYER
 10
101.6849589992
 20
150.0907002189
 40
1.5
100
AcDbArc
 50
270.0
 51
90.0
  0
ARC
  5
27E
100
AcDbEntity
  8
0
100
AcDbCircle
 62
7
  6
BYLAYER
 10
101.6849589992
 20
64.2907002188
 40
1.5
100
AcDbArc
 50
270.0
 51
90.0
  0
SPLINE
  5
27F
100
AcDbEntity
  8
0
100
AcDbSpline
 62
7
  6
BYLAYER
 70
0
 71
3
 72
23
 73
19
 74
0
 42
0.0000001
 43
0.0000001
 44
0.0000000001
 40
0.0
 40
0.0
 40
0.0
 40
0.0
 40
0.00185434
 40
0.0057647968
 40
0.011970275
 40
0.0204971394
 40
0.0313375256
 40
0.0444732009
 40
0.0775378544
 40
0.1194890797
 40
0.1699537451
 40
0.228375155
 40
0.2941730713
 40
0.3667370528
 40
0.4454263029
 40
0.6180037867
 40
0.8052826633
 40
1.0
 40
1.0
 40
1.0
 40
1.0
 10
22.2094079471
 20
84.6405180475
 30
0.0
 10
22.2114210908
 20
84.6405214763
 30
0.0
 10
22.2157850401
 20
84.6468063086
 30
0.0
 10
22.2193766614
 20
84.6583915978
 30
0.0
 10
22.2242237239
 20
84.6785277433
 30
0.0
 10
22.2288067104
 20
84.7057251744
 30
0.0
 10
22.2337221211
 20
84.7407431869
 30
0.0
 10
22.2408702834
 20
84.8022254185
 30
0.0
 10
22.2496264313
 20
84.8975574508
 30
0.0
 10
22.2596200912
 20
85.0334114632
 30
0.0
 10
22.2695495746
 20
85.1968721982
 30
0.0
 10
22.2792489224
 20
85.3862689922
 30
0.0
 10
22.2885288565
 20
85.5997054536
 30
0.0
 10
22.2972120725
 20
85.8351863582
 30
0.0
 10
22.3080822801
 20
86.1865837138
 30
0.0
 10
22.3189087082
 20
86.6625724689
 30
0.0
 10
22.3269423526
 20
87.2645940693
 30
0.0
 10
22.3287691173
 20
87.6793071933
 30
0.0
 10
22.3287691173
 20
87.8907002188
 30
0.0
  0
SPLINE
  5
280
100
AcDbEntity
  8
0
100
AcDbSpline
 62
7
  6
BYLAYER
 70
0
 71
3
 72
20
 73
16
 74
0
 42
0.0000001
 43
0.0000001
 44
0.0000000001
 40
0.0
 40
0.0
 40
0.0
 40
0.0
 40
0.0095444016
 40
0.0168049138
 40
0.0260788896
 40
0.0509762682
 40
0.0844890366
 40
0.1265598295
 40
0.1768975639
 40
0.2350016609
 40
0.3003325943
 40
0.4503221743
 40
0.6213700176
 40
0.8069888435
 40
1.0
 40
1.0
 40
1.0
 40
1.0
 10
22.8060607542
 20
84.640520192
 30
0.0
 10
22.8165326652
 20
84.6405277039
 30
0.0
 10
22.8331609211
 20
84.6539160082
 30
0.0
 10
22.8484132738
 20
84.6773962381
 30
0.0
 10
22.8686721515
 20
84.7185173493
 30
0.0
 10
22.891908986
 20
84.7890949463
 30
0.0
 10
22.9183340491
 20
84.8962303238
 30
0.0
 10
22.9441419811
 20
85.0319906007
 30
0.0
 10
22.9692415019
 20
85.195238349
 30
0.0
 10
22.9932022539
 20
85.3844033956
 30
0.0
 10
23.0246624874
 20
85.6827622199
 30
0.0
 10
23.057783052
 20
86.1054557462
 30
0.0
 10
23.0868930691
 20
86.6606317212
 30
0.0
 10
23.1051168325
 20
87.2634956733
 30
0.0
 10
23.1092334992
 20
87.6789324989
 30
0.0
 10
23.1092334992
 20
87.8907002188
 30
0.0
  0
SPLINE
  5
281
100
AcDbEntity
  8
0
100
AcDbSpline
 62
7
  6
BYLAYER
 70
0
 71
3
 72
20
 73
16
 74
0
 42
0.0000001
 43
0.0000001
 44
0.0000000001
 40
0.0
 40
0.0
 40
0.0
 40
0.0
 40
0.0095444016
 40
0.0168049138
 40
0.0260788896
 40
0.0509762682
 40
0.0844890366
 40
0.1265598295
 40
0.1768975639
 40
0.2350016609
 40
0.3003325943
 40
0.4503221743
 40
0.6213700176
 40
0.8069888435
 40
1.0
 40
1.0
 40
1.0
 40
1.0
 10
22.8060607542
 20
123.240520192
 30
0.0
 10
22.8165326652
 20
123.2405277039
 30
0.0
 10
22.8331609211
 20
123.2539160082
 30
0.0
 10
22.8484132738
 20
123.2773962381
 30
0.0
 10
22.8686721515
 20
123.3185173493
 30
0.0
 10
22.891908986
 20
123.3890949463
 30
0.0
 10
22.9183340491
 20
123.4962303238
 30
0.0
 10
22.9441419811
 20
123.6319906007
 30
0.0
 10
22.9692415019
 20
123.795238349
 30
0.0
 10
22.9932022539
 20
123.9844033956
 30
0.0
 10
23.0246624874
 20
124.2827622199
 30
0.0
 10
23.057783052
 20
124.7054557462
 30
0.0
 10
23.0868930691
 20
125.2606317212
 30
0.0
 10
23.1051168325
 20
125.8634956733
 30
0.0
 10
23.1092334992
 20
126.2789324989
 30
0.0
 10
23.1092334992
 20
126.4907002188
 30
0.0
  0
SPLINE
  5
282
100
AcDbEntity
  8
0
100
AcDbSpline
 62
7
  6
BYLAYER
 70
0
 71
3
 72
23
 73
19
 74
0
 42
0.0000001
 43
0.0000001
 44
0.0000000001
 40
0.0
 40
0.0
 40
0.0
 40
0.0
 40
0.00185434
 40
0.0057647968
 40
0.011970275
 40
0.0204971394
 40
0.0313375256
 40
0.0444732009
 40
0.0775378544
 40
0.1194890797
 40
0.1699537451
 40
0.228375155
 40
0.2941730713
 40
0.3667370528
 40
0.4454263029
 40
0.6180037867
 40
0.8052826633
 40
1.0
 40
1.0
 40
1.0
 40
1.0
 10
22.2094079471
 20
123.2405180475
 30
0.0
 10
22.2114210908
 20
123.2405214763
 30
0.0
 10
22.2157850401
 20
123.2468063086
 30
0.0
 10
22.2193766614
 20
123.2583915978
 30
0.0
 10
22.2242237239
 20
123.2785277433
 30
0.0
 10
22.2288067104
 20
123.3057251744
 30
0.0
 10
22.2337221211
 20
123.3407431869
 30
0.0
 10
22.2408702834
 20
123.4022254185
 30
0.0
 10
22.2496264313
 20
123.4975574508
 30
0.0
 10
22.2596200912
 20
123.6334114632
 30
0.0
 10
22.2695495746
 20
123.7968721982
 30
0.0
 10
22.2792489224
 20
123.9862689922
 30
0.0
 10
22.2885288565
 20
124.1997054536
 30
0.0
 10
22.2972120725
 20
124.4351863582
 30
0.0
 10
22.3080822801
 20
124.7865837138
 30
0.0
 10
22.3189087082
 20
125.2625724689
 30
0.0
 10
22.3269423526
 20
125.8645940693
 30
0.0
 10
22.3287691173
 20
126.2793071933
 30
0.0
 10
22.3287691173
 20
126.4907002188
 30
0.0
  0
SPLINE
  5
283
100
AcDbEntity
  8
0
100
AcDbSpline
 62
7
  6
BYLAYER
 70
0
 71
3
 72
15
 73
11
 74
0
 42
0.0000001
 43
0.0000001
 44
0.0000000001
 40
0.0
 40
0.0
 40
0.0
 40
0.0
 40
0.1253999494
 40
0.2507998989
 40
0.3761998483
 40
0.5015997977
 40
0.6269997471
 40
0.7523996966
 40
0.877799646
 40
1.0
 40
1.0
 40
1.0
 40
1.0
 10
30.0849589992
 20
78.3907002188
 30
0.0
 10
29.8706732849
 20
78.3907002188
 30
0.0
 10
29.3708302461
 20
78.4219359379
 30
0.0
 10
28.4058382064
 20
78.6028037733
 30
0.0
 10
27.2882981961
 20
78.9428684637
 30
0.0
 10
26.1580400775
 20
79.427240758
 30
0.0
 10
25.189295489
 20
79.9923698173
 30
0.0
 10
24.5091661081
 20
80.5511398224
 30
0.0
 10
24.1505070144
 20
81.0295321935
 30
0.0
 10
24.0865820478
 20
81.2771689063
 30
0.0
 10
24.0850202278
 20
81.3824641271
 30
0.0
  0
SPLINE
  5
284
100
AcDbEntity
  8
0
100
AcDbSpline
 62
7
  6
BYLAYER
 70
0
 71
3
 72
15
 73
11
 74
0
 42
0.0000001
 43
0.0000001
 44
0.0000000001
 40
0.0
 40
0.0
 40
0.0
 40
0.0
 40
0.125
 40
0.25
 40
0.375
 40
0.5
 40
0.625
 40
0.75
 40
0.875
 40
1.0
 40
1.0
 40
1.0
 40
1.0
 10
31.2849589992
 20
78.3907002188
 30
0.0
 10
31.0706732849
 20
78.3907002188
 30
0.0
 10
30.5708302461
 20
78.4219359379
 30
0.0
 10
29.6058382064
 20
78.6028037733
 30
0.0
 10
28.4882981961
 20
78.9428684637
 30
0.0
 10
27.3580400775
 20
79.427240758
 30
0.0
 10
26.389295489
 20
79.9923698173
 30
0.0
 10
25.7091661081
 20
80.5511398224
 30
0.0
 10
25.3474304375
 20
81.0336358423
 30
0.0
 10
25.2849589992
 20
81.2835573617
 30
0.0
 10
25.2849589992
 20
81.3907002188
 30
0.0
  0
SPLINE
  5
285
100
AcDbEntity
  8
0
100
AcDbSpline
 62
7
  6
BYLAYER
 70
0
 71
3
 72
15
 73
11
 74
0
 42
0.0000001
 43
0.0000001
 44
0.0000000001
 40
0.0
 40
0.0
 40
0.0
 40
0.0
 40
0.1253999494
 40
0.2507998989
 40
0.3761998483
 40
0.5015997977
 40
0.6269997471
 40
0.7523996966
 40
0.877799646
 40
1.0
 40
1.0
 40
1.0
 40
1.0
 10
30.3849589992
 20
78.3907002188
 30
0.0
 10
30.1706732849
 20
78.3907002188
 30
0.0
 10
29.6708302461
 20
78.4219359379
 30
0.0
 10
28.7058382064
 20
78.6028037733
 30
0.0
 10
27.5882981961
 20
78.9428684637
 30
0.0
 10
26.4580400775
 20
79.427240758
 30
0.0
 10
25.489295489
 20
79.9923698173
 30
0.0
 10
24.8091661081
 20
80.5511398224
 30
0.0
 10
24.4505070144
 20
81.0295321935
 30
0.0
 10
24.3865820478
 20
81.2771689063
 30
0.0
 10
24.3850202278
 20
81.3824641271
 30
0.0
  0
SPLINE
  5
286
100
AcDbEntity
  8
0
100
AcDbSpline
 62
7
  6
BYLAYER
 70
0
 71
3
 72
15
 73
11
 74
0
 42
0.0000001
 43
0.0000001
 44
0.0000000001
 40
0.0
 40
0.0
 40
0.0
 40
0.0
 40
0.1221732323
 40
0.2475770563
 40
0.3729808802
 40
0.4983847042
 40
0.6237885281
 40
0.7491923521
 40
0.874596176
 40
1.0
 40
1.0
 40
1.0
 40
1.0
 10
24.3850214182
 20
132.9990161805
 30
0.0
 10
24.3865980041
 20
133.1042933343
 30
0.0
 10
24.450536723
 20
133.3519078704
 30
0.0
 10
24.8091661081
 20
133.8302606152
 30
0.0
 10
25.489295489
 20
134.3890306204
 30
0.0
 10
26.4580400775
 20
134.9541596796
 30
0.0
 10
27.5882981961
 20
135.4385319739
 30
0.0
 10
28.7058382064
 20
135.7785966644
 30
0.0
 10
29.6708302461
 20
135.9594644997
 30
0.0
 10
30.1706732849
 20
135.9907002188
 30
0.0
 10
30.3849589992
 20
135.9907002188
 30
0.0
  0
SPLINE
  5
287
100
AcDbEntity
  8
0
100
AcDbSpline
 62
7
  6
BYLAYER
 70
0
 71
3
 72
15
 73
11
 74
0
 42
0.0000001
 43
0.0000001
 44
0.0000000001
 40
0.0
 40
0.0
 40
0.0
 40
0.0
 40
0.1221732323
 40
0.2475770563
 40
0.3729808802
 40
0.4983847042
 40
0.6237885281
 40
0.7491923521
 40
0.874596176
 40
1.0
 40
1.0
 40
1.0
 40
1.0
 10
24.0850214182
 20
132.9990161805
 30
0.0
 10
24.0865980041
 20
133.1042933343
 30
0.0
 10
24.150536723
 20
133.3519078704
 30
0.0
 10
24.5091661081
 20
133.8302606152
 30
0.0
 10
25.189295489
 20
134.3890306204
 30
0.0
 10
26.1580400775
 20
134.9541596796
 30
0.0
 10
27.2882981961
 20
135.4385319739
 30
0.0
 10
28.4058382064
 20
135.7785966644
 30
0.0
 10
29.3708302461
 20
135.9594644997
 30
0.0
 10
29.8706732849
 20
135.9907002188
 30
0.0
 10
30.0849589992
 20
135.9907002188
 30
0.0
  0
SPLINE
  5
288
100
AcDbEntity
  8
0
100
AcDbSpline
 62
7
  6
BYLAYER
 70
0
 71
3
 72
20
 73
16
 74
0
 42
0.0000001
 43
0.0000001
 44
0.0000000001
 40
0.0
 40
0.0
 40
0.0
 40
0.0
 40
0.1930130205
 40
0.3786260898
 40
0.5496716503
 40
0.6996565778
 40
0.7649891469
 40
0.8230965105
 40
0.8734348942
 40
0.9155011343
 40
0.9490170432
 40
0.9739206078
 40
0.983196858
 40
0.9904582535
 40
1.0
 40
1.0
 40
1.0
 40
1.0
 10
23.1092334992
 20
87.8907002188
 30
0.0
 10
23.1092334992
 20
88.1024704473
 30
0.0
 10
23.1051181899
 20
88.5179039421
 30
0.0
 10
23.0868920916
 20
89.1207623421
 30
0.0
 10
23.0577856638
 20
89.6759257993
 30
0.0
 10
23.0246633306
 20
90.0986142652
 30
0.0
 10
22.9932048549
 20
90.3969742102
 30
0.0
 10
22.9692453088
 20
90.5861459255
 30
0.0
 10
22.9441481696
 20
90.7493938154
 30
0.0
 10
22.9183339111
 20
90.8851522898
 30
0.0
 10
22.891907425
 20
90.9922930167
 30
0.0
 10
22.8686737902
 20
91.0628844325
 30
0.0
 10
22.8484140136
 20
91.1040177751
 30
0.0
 10
22.8331670683
 20
91.1274994237
 30
0.0
 10
22.8165297735
 20
91.1408878865
 30
0.0
 10
22.8060607528
 20
91.1408803801
 30
0.0
  0
SPLINE
  5
289
100
AcDbEntity
  8
0
100
AcDbSpline
 62
7
  6
BYLAYER
 70
0
 71
3
 72
23
 73
19
 74
0
 42
0.0000001
 43
0.0000001
 44
0.0000000001
 40
0.0
 40
0.0
 40
0.0
 40
0.0
 40
0.1947184843
 40
0.3819916511
 40
0.5545676974
 40
0.6332545408
 40
0.705816915
 40
0.7716162481
 40
0.8300410616
 40
0.8805071145
 40
0.922454631
 40
0.9555216637
 40
0.9686599047
 40
0.9795028961
 40
0.9880318291
 40
0.9942382186
 40
0.998147865
 40
1.0
 40
1.0
 40
1.0
 40
1.0
 10
22.3287691173
 20
87.8907002188
 30
0.0
 10
22.3287691173
 20
88.102094731
 30
0.0
 10
22.3269429734
 20
88.5168033796
 30
0.0
 10
22.3189084018
 20
89.1188191386
 30
0.0
 10
22.3080830548
 20
89.594798083
 30
0.0
 10
22.2972130544
 20
89.9461899268
 30
0.0
 10
22.2885295182
 20
90.1816682653
 30
0.0
 10
22.279249863
 20
90.3951084743
 30
0.0
 10
22.2695509299
 20
90.5845122473
 30
0.0
 10
22.2596221889
 20
90.74797441
 30
0.0
 10
22.2496266945
 20
90.883828484
 30
0.0
 10
22.2408700377
 20
90.9791619804
 30
0.0
 10
22.2337223589
 20
91.0406524609
 30
0.0
 10
22.2288066303
 20
91.075678686
 30
0.0
 10
22.2242253275
 20
91.1028817979
 30
0.0
 10
22.2193748847
 20
91.1230216036
 30
0.0
 10
22.2157905846
 20
91.1346028864
 30
0.0
 10
22.2114186995
 20
91.1408858527
 30
0.0
 10
22.2094079473
 20
91.1408824221
 30
0.0
  0
SPLINE
  5
28A
100
AcDbEntity
  8
0
100
AcDbSpline
 62
7
  6
BYLAYER
 70
0
 71
3
 72
15
 73
11
 74
0
 42
0.0000001
 43
0.0000001
 44
0.0000000001
 40
0.0
 40
0.0
 40
0.0
 40
0.0
 40
0.125
 40
0.25
 40
0.375
 40
0.5
 40
0.625
 40
0.75
 40
0.875
 40
1.0
 40
1.0
 40
1.0
 40
1.0
 10
25.2849589992
 20
132.9907002188
 30
0.0
 10
25.2849589992
 20
133.0978430759
 30
0.0
 10
25.3474304375
 20
133.3477645953
 30
0.0
 10
25.7091661081
 20
133.8302606152
 30
0.0
 10
26.389295489
 20
134.3890306204
 30
0.0
 10
27.3580400775
 20
134.9541596796
 30
0.0
 10
28.4882981961
 20
135.4385319739
 30
0.0
 10
29.6058382064
 20
135.7785966644
 30
0.0
 10
30.5708302461
 20
135.9594644997
 30
0.0
 10
31.0706732849
 20
135.9907002188
 30
0.0
 10
31.2849589992
 20
135.9907002188
 30
0.0
  0
SPLINE
  5
28B
100
AcDbEntity
  8
0
100
AcDbSpline
 62
7
  6
BYLAYER
 70
0
 71
3
 72
23
 73
19
 74
0
 42
0.0000001
 43
0.0000001
 44
0.0000000001
 40
0.0
 40
0.0
 40
0.0
 40
0.0
 40
0.1947184843
 40
0.3819916511
 40
0.5545676974
 40
0.6332545408
 40
0.705816915
 40
0.7716162481
 40
0.8300410616
 40
0.8805071145
 40
0.922454631
 40
0.9555216637
 40
0.9686599047
 40
0.9795028961
 40
0.9880318291
 40
0.9942382186
 40
0.998147865
 40
1.0
 40
1.0
 40
1.0
 40
1.0
 10
22.3287691173
 20
126.4907002188
 30
0.0
 10
22.3287691173
 20
126.702094731
 30
0.0
 10
22.3269429734
 20
127.1168033796
 30
0.0
 10
22.3189084018
 20
127.7188191386
 30
0.0
 10
22.3080830548
 20
128.194798083
 30
0.0
 10
22.2972130544
 20
128.5461899268
 30
0.0
 10
22.2885295182
 20
128.7816682653
 30
0.0
 10
22.279249863
 20
128.9951084743
 30
0.0
 10
22.2695509299
 20
129.1845122473
 30
0.0
 10
22.2596221889
 20
129.34797441
 30
0.0
 10
22.2496266945
 20
129.483828484
 30
0.0
 10
22.2408700377
 20
129.5791619804
 30
0.0
 10
22.2337223589
 20
129.6406524609
 30
0.0
 10
22.2288066303
 20
129.675678686
 30
0.0
 10
22.2242253275
 20
129.7028817979
 30
0.0
 10
22.2193748847
 20
129.7230216036
 30
0.0
 10
22.2157905846
 20
129.7346028864
 30
0.0
 10
22.2114186995
 20
129.7408858527
 30
0.0
 10
22.2094079473
 20
129.7408824221
 30
0.0
  0
SPLINE
  5
28C
100
AcDbEntity
  8
0
100
AcDbSpline
 62
7
  6
BYLAYER
 70
0
 71
3
 72
20
 73
16
 74
0
 42
0.0000001
 43
0.0000001
 44
0.0000000001
 40
0.0
 40
0.0
 40
0.0
 40
0.0
 40
0.1930130205
 40
0.3786260898
 40
0.5496716503
 40
0.6996565778
 40
0.7649891469
 40
0.8230965105
 40
0.8734348942
 40
0.9155011343
 40
0.9490170432
 40
0.9739206078
 40
0.983196858
 40
0.9904582535
 40
1.0
 40
1.0
 40
1.0
 40
1.0
 10
23.1092334992
 20
126.4907002188
 30
0.0
 10
23.1092334992
 20
126.7024704473
 30
0.0
 10
23.1051181899
 20
127.1179039421
 30
0.0
 10
23.0868920916
 20
127.7207623421
 30
0.0
 10
23.0577856638
 20
128.2759257993
 30
0.0
 10
23.0246633306
 20
128.6986142652
 30
0.0
 10
22.9932048549
 20
128.9969742102
 30
0.0
 10
22.9692453088
 20
129.1861459255
 30
0.0
 10
22.9441481696
 20
129.3493938154
 30
0.0
 10
22.9183339111
 20
129.4851522898
 30
0.0
 10
22.891907425
 20
129.5922930167
 30
0.0
 10
22.8686737902
 20
129.6628844325
 30
0.0
 10
22.8484140136
 20
129.7040177751
 30
0.0
 10
22.8331670683
 20
129.7274994237
 30
0.0
 10
22.8165297735
 20
129.7408878865
 30
0.0
 10
22.8060607528
 20
129.7408803801
 30
0.0
  0
SPLINE
  5
28D
100
AcDbEntity
  8
0
100
AcDbSpline
 62
7
  6
BYLAYER
 70
0
 71
3
 72
23
 73
19
 74
0
 42
0.0000001
 43
0.0000001
 44
0.0000000001
 40
0.0
 40
0.0
 40
0.0
 40
0.0
 40
0.1948220947
 40
0.3821962846
 40
0.5548604636
 40
0.6335807854
 40
0.7061658267
 40
0.7719742853
 40
0.8303925345
 40
0.880835014
 40
0.9227411833
 40
0.955749726
 40
0.9688530902
 40
0.9796581166
 40
0.9881465943
 40
0.9943107988
 40
0.9981783052
 40
1.0
 40
1.0
 40
1.0
 40
1.0
 10
22.1460953181
 20
126.4907002188
 30
0.0
 10
22.1460953181
 20
126.2793485645
 30
0.0
 10
22.1465234664
 20
125.8647248846
 30
0.0
 10
22.14855582
 20
125.2627905221
 30
0.0
 10
22.1516770179
 20
124.7868143261
 30
0.0
 10
22.1553392921
 20
124.4353763507
 30
0.0
 10
22.1585682992
 20
124.1998633704
 30
0.0
 10
22.1623953579
 20
123.9863863144
 30
0.0
 10
22.1668596355
 20
123.7969499894
 30
0.0
 10
22.1719640544
 20
123.6334650202
 30
0.0
 10
22.1777286766
 20
123.4976008404
 30
0.0
 10
22.1833881261
 20
123.4022511425
 30
0.0
 10
22.18848463
 20
123.3407456299
 30
0.0
 10
22.1922284889
 20
123.3057242199
 30
0.0
 10
22.1958730899
 20
123.278533331
 30
0.0
 10
22.2000724216
 20
123.2583973953
 30
0.0
 10
22.2031901449
 20
123.2468272362
 30
0.0
 10
22.2074316946
 20
123.2405146816
 30
0.0
 10
22.2094079471
 20
123.2405180475
 30
0.0
  0
SPLINE
  5
28E
100
AcDbEntity
  8
0
100
AcDbSpline
 62
7
  6
BYLAYER
 70
0
 71
3
 72
21
 73
17
 74
0
 42
0.0000001
 43
0.0000001
 44
0.0000000001
 40
0.0
 40
0.0
 40
0.0
 40
0.0
 40
0.1932912649
 40
0.3791759968
 40
0.5504567914
 40
0.7005858551
 40
0.7659349155
 40
0.8240135095
 40
0.8742744644
 40
0.9162132336
 40
0.9495552925
 40
0.9629850107
 40
0.9742633868
 40
0.9834305757
 40
0.9905873627
 40
1.0
 40
1.0
 40
1.0
 40
1.0
 10
22.5594719868
 20
126.4907002188
 30
0.0
 10
22.5594719868
 20
126.279059928
 30
0.0
 10
22.562167929
 20
125.86388379
 30
0.0
 10
22.5743021305
 20
125.2612728237
 30
0.0
 10
22.5943124475
 20
124.706157506
 30
0.0
 10
22.6181255731
 20
124.2833026061
 30
0.0
 10
22.6418874221
 20
123.9847072227
 30
0.0
 10
22.6605818063
 20
123.7954380456
 30
0.0
 10
22.6807818122
 20
123.63211316
 30
0.0
 10
22.7024256368
 20
123.4963358124
 30
0.0
 10
22.7225186304
 20
123.4012301885
 30
0.0
 10
22.7399740638
 20
123.3400510275
 30
0.0
 10
22.7522280624
 20
123.3050884253
 30
0.0
 10
22.7649961802
 20
123.2773885675
 30
0.0
 10
22.7793873483
 20
123.2538697082
 30
0.0
 10
22.7957545834
 20
123.2405127991
 30
0.0
 10
22.8060607542
 20
123.240520192
 30
0.0
  0
SPLINE
  5
28F
100
AcDbEntity
  8
0
100
AcDbSpline
 62
7
  6
BYLAYER
 70
0
 71
3
 72
23
 73
19
 74
0
 42
0.0000001
 43
0.0000001
 44
0.0000000001
 40
0.0
 40
0.0
 40
0.0
 40
0.0
 40
0.0018238881
 40
0.0056922316
 40
0.0118555482
 40
0.0203419891
 40
0.0311444657
 40
0.0442453528
 40
0.0772516711
 40
0.1191615114
 40
0.1696025642
 40
0.2280174334
 40
0.2938245235
 40
0.3664111536
 40
0.4451337582
 40
0.6177991429
 40
0.8051789772
 40
1.0
 40
1.0
 40
1.0
 40
1.0
 10
22.2094079473
 20
129.7408824221
 30
0.0
 10
22.2074293176
 20
129.7408790463
 30
0.0
 10
22.2031959948
 20
129.7345644283
 30
0.0
 10
22.2000704148
 20
129.7229904745
 30
0.0
 10
22.1958744368
 20
129.7028580238
 30
0.0
 10
22.1922280185
 20
129.6756726917
 30
0.0
 10
22.1884850648
 20
129.6406591816
 30
0.0
 10
22.1833880159
 20
129.5791615696
 30
0.0
 10
22.1777284407
 20
129.4838131526
 30
0.0
 10
22.1719654733
 20
129.3479490112
 30
0.0
 10
22.166860151
 20
129.1844655019
 30
0.0
 10
22.1623957472
 20
128.9950360856
 30
0.0
 10
22.1585686237
 20
128.7815627
 30
0.0
 10
22.1553395476
 20
128.5460472677
 30
0.0
 10
22.1516773004
 20
128.1946041773
 30
0.0
 10
22.1485555982
 20
127.7186186091
 30
0.0
 10
22.1465236477
 20
127.1166786498
 30
0.0
 10
22.1460953181
 20
126.7020504739
 30
0.0
 10
22.1460953181
 20
126.4907002188
 30
0.0
  0
SPLINE
  5
290
100
AcDbEntity
  8
0
100
AcDbSpline
 62
7
  6
BYLAYER
 70
0
 71
3
 72
21
 73
17
 74
0
 42
0.0000001
 43
0.0000001
 44
0.0000000001
 40
0.0
 40
0.0
 40
0.0
 40
0.0
 40
0.0094153508
 40
0.0165713362
 40
0.0257363452
 40
0.0370118266
 40
0.050438661
 40
0.083778029
 40
0.1257212717
 40
0.1759814758
 40
0.2340568715
 40
0.2994044281
 40
0.4495377077
 40
0.6208200881
 40
0.8067103694
 40
1.0
 40
1.0
 40
1.0
 40
1.0
 10
22.8060607528
 20
129.7408803801
 30
0.0
 10
22.7957516327
 20
129.7408729883
 30
0.0
 10
22.779393411
 20
129.7275160632
 30
0.0
 10
22.7649962582
 20
129.7039986013
 30
0.0
 10
22.7522287613
 20
129.6763063738
 30
0.0
 10
22.7399744822
 20
129.6413529198
 30
0.0
 10
22.7225183506
 20
129.5801838188
 30
0.0
 10
22.7024245492
 20
129.4850795819
 30
0.0
 10
22.6807869118
 20
129.3493004415
 30
0.0
 10
22.6605841765
 20
129.18597574
 30
0.0
 10
22.6418890733
 20
128.9967129969
 30
0.0
 10
22.6181261828
 20
128.6981188666
 30
0.0
 10
22.5943141754
 20
128.2752600688
 30
0.0
 10
22.5743012804
 20
127.720133586
 30
0.0
 10
22.5621689108
 20
127.1175178121
 30
0.0
 10
22.5594719868
 20
126.7023382754
 30
0.0
 10
22.5594719868
 20
126.4907002188
 30
0.0
  0
SPLINE
  5
291
100
AcDbEntity
  8
0
100
AcDbSpline
 62
7
  6
BYLAYER
 70
0
 71
3
 72
21
 73
17
 74
0
 42
0.0000001
 43
0.0000001
 44
0.0000000001
 40
0.0
 40
0.0
 40
0.0
 40
0.0
 40
0.1932912649
 40
0.3791759968
 40
0.5504567914
 40
0.7005858551
 40
0.7659349155
 40
0.8240135095
 40
0.8742744644
 40
0.9162132336
 40
0.9495552925
 40
0.9629850107
 40
0.9742633868
 40
0.9834305757
 40
0.9905873627
 40
1.0
 40
1.0
 40
1.0
 40
1.0
 10
22.5594719868
 20
87.8907002188
 30
0.0
 10
22.5594719868
 20
87.679059928
 30
0.0
 10
22.562167929
 20
87.26388379
 30
0.0
 10
22.5743021305
 20
86.6612728237
 30
0.0
 10
22.5943124475
 20
86.106157506
 30
0.0
 10
22.6181255731
 20
85.6833026061
 30
0.0
 10
22.6418874221
 20
85.3847072227
 30
0.0
 10
22.6605818063
 20
85.1954380456
 30
0.0
 10
22.6807818122
 20
85.03211316
 30
0.0
 10
22.7024256368
 20
84.8963358124
 30
0.0
 10
22.7225186304
 20
84.8012301885
 30
0.0
 10
22.7399740638
 20
84.7400510275
 30
0.0
 10
22.7522280624
 20
84.7050884253
 30
0.0
 10
22.7649961802
 20
84.6773885675
 30
0.0
 10
22.7793873483
 20
84.6538697082
 30
0.0
 10
22.7957545834
 20
84.6405127991
 30
0.0
 10
22.8060607542
 20
84.640520192
 30
0.0
  0
SPLINE
  5
292
100
AcDbEntity
  8
0
100
AcDbSpline
 62
7
  6
BYLAYER
 70
0
 71
3
 72
23
 73
19
 74
0
 42
0.0000001
 43
0.0000001
 44
0.0000000001
 40
0.0
 40
0.0
 40
0.0
 40
0.0
 40
0.1948220947
 40
0.3821962846
 40
0.5548604636
 40
0.6335807854
 40
0.7061658267
 40
0.7719742853
 40
0.8303925345
 40
0.880835014
 40
0.9227411833
 40
0.955749726
 40
0.9688530902
 40
0.9796581166
 40
0.9881465943
 40
0.9943107988
 40
0.9981783052
 40
1.0
 40
1.0
 40
1.0
 40
1.0
 10
22.1460953181
 20
87.8907002188
 30
0.0
 10
22.1460953181
 20
87.6793485645
 30
0.0
 10
22.1465234664
 20
87.2647248846
 30
0.0
 10
22.14855582
 20
86.6627905221
 30
0.0
 10
22.1516770179
 20
86.1868143261
 30
0.0
 10
22.1553392921
 20
85.8353763507
 30
0.0
 10
22.1585682992
 20
85.5998633704
 30
0.0
 10
22.1623953579
 20
85.3863863144
 30
0.0
 10
22.1668596355
 20
85.1969499894
 30
0.0
 10
22.1719640544
 20
85.0334650202
 30
0.0
 10
22.1777286766
 20
84.8976008404
 30
0.0
 10
22.1833881261
 20
84.8022511425
 30
0.0
 10
22.18848463
 20
84.7407456299
 30
0.0
 10
22.1922284889
 20
84.7057242199
 30
0.0
 10
22.1958730899
 20
84.678533331
 30
0.0
 10
22.2000724216
 20
84.6583973953
 30
0.0
 10
22.2031901449
 20
84.6468272362
 30
0.0
 10
22.2074316946
 20
84.6405146816
 30
0.0
 10
22.2094079471
 20
84.6405180475
 30
0.0
  0
SPLINE
  5
293
100
AcDbEntity
  8
0
100
AcDbSpline
 62
7
  6
BYLAYER
 70
0
 71
3
 72
23
 73
19
 74
0
 42
0.0000001
 43
0.0000001
 44
0.0000000001
 40
0.0
 40
0.0
 40
0.0
 40
0.0
 40
0.0018238881
 40
0.0056922316
 40
0.0118555482
 40
0.0203419891
 40
0.0311444657
 40
0.0442453528
 40
0.0772516711
 40
0.1191615114
 40
0.1696025642
 40
0.2280174334
 40
0.2938245235
 40
0.3664111536
 40
0.4451337582
 40
0.6177991429
 40
0.8051789772
 40
1.0
 40
1.0
 40
1.0
 40
1.0
 10
22.2094079473
 20
91.1408824221
 30
0.0
 10
22.2074293176
 20
91.1408790463
 30
0.0
 10
22.2031959948
 20
91.1345644283
 30
0.0
 10
22.2000704148
 20
91.1229904745
 30
0.0
 10
22.1958744368
 20
91.1028580238
 30
0.0
 10
22.1922280185
 20
91.0756726917
 30
0.0
 10
22.1884850648
 20
91.0406591816
 30
0.0
 10
22.1833880159
 20
90.9791615696
 30
0.0
 10
22.1777284407
 20
90.8838131526
 30
0.0
 10
22.1719654733
 20
90.7479490112
 30
0.0
 10
22.166860151
 20
90.5844655019
 30
0.0
 10
22.1623957472
 20
90.3950360856
 30
0.0
 10
22.1585686237
 20
90.1815627
 30
0.0
 10
22.1553395476
 20
89.9460472677
 30
0.0
 10
22.1516773004
 20
89.5946041773
 30
0.0
 10
22.1485555982
 20
89.1186186091
 30
0.0
 10
22.1465236477
 20
88.5166786498
 30
0.0
 10
22.1460953181
 20
88.1020504739
 30
0.0
 10
22.1460953181
 20
87.8907002188
 30
0.0
  0
SPLINE
  5
294
100
AcDbEntity
  8
0
100
AcDbSpline
 62
7
  6
BYLAYER
 70
0
 71
3
 72
21
 73
17
 74
0
 42
0.0000001
 43
0.0000001
 44
0.0000000001
 40
0.0
 40
0.0
 40
0.0
 40
0.0
 40
0.0094153508
 40
0.0165713362
 40
0.0257363452
 40
0.0370118266
 40
0.050438661
 40
0.083778029
 40
0.1257212717
 40
0.1759814758
 40
0.2340568715
 40
0.2994044281
 40
0.4495377077
 40
0.6208200881
 40
0.8067103694
 40
1.0
 40
1.0
 40
1.0
 40
1.0
 10
22.8060607528
 20
91.1408803801
 30
0.0
 10
22.7957516327
 20
91.1408729883
 30
0.0
 10
22.779393411
 20
91.1275160632
 30
0.0
 10
22.7649962582
 20
91.1039986013
 30
0.0
 10
22.7522287613
 20
91.0763063738
 30
0.0
 10
22.7399744822
 20
91.0413529198
 30
0.0
 10
22.7225183506
 20
90.9801838188
 30
0.0
 10
22.7024245492
 20
90.8850795819
 30
0.0
 10
22.6807869118
 20
90.7493004415
 30
0.0
 10
22.6605841765
 20
90.58597574
 30
0.0
 10
22.6418890733
 20
90.3967129969
 30
0.0
 10
22.6181261828
 20
90.0981188666
 30
0.0
 10
22.5943141754
 20
89.6752600688
 30
0.0
 10
22.5743012804
 20
89.120133586
 30
0.0
 10
22.5621689108
 20
88.5175178121
 30
0.0
 10
22.5594719868
 20
88.1023382754
 30
0.0
 10
22.5594719868
 20
87.8907002188
 30
0.0
  0
SPLINE
  5
295
100
AcDbEntity
  8
0
100
AcDbSpline
 62
7
  6
BYLAYER
 70
0
 71
3
 72
12
 73
8
 74
0
 42
0.0000001
 43
0.0000001
 44
0.0000000001
 40
0.0
 40
0.0
 40
0.0
 40
0.0
 40
0.1687365454
 40
0.2686043074
 40
0.3822880583
 40
0.6568445889
 40
1.0
 40
1.0
 40
1.0
 40
1.0
 10
42.5136722111
 20
165.1157225694
 30
0.0
 10
42.5548365499
 20
165.1156207325
 30
0.0
 10
42.6205690237
 20
165.1344503884
 30
0.0
 10
42.7002306835
 20
165.1829753564
 30
0.0
 10
42.7926895008
 20
165.258668989
 30
0.0
 10
42.9104465866
 20
165.3939843853
 30
0.0
 10
42.9944086567
 20
165.5193815619
 30
0.0
 10
43.038247898
 20
165.5907002189
 30
0.0
  0
SPLINE
  5
296
100
AcDbEntity
  8
0
100
AcDbSpline
 62
7
  6
BYLAYER
 70
0
 71
3
 72
33
 73
29
 74
0
 42
0.0000001
 43
0.0000001
 44
0.0000000001
 40
0.0
 40
0.0
 40
0.0
 40
0.0
 40
0.0051161516
 40
0.0088527432
 40
0.013569201
 40
0.0261394877
 40
0.0429826026
 40
0.0640502372
 40
0.0892005436
 40
0.1182133225
 40
0.1508392112
 40
0.2257081019
 40
0.3110606823
 40
0.40367205
 40
0.4999977469
 40
0.596323135
 40
0.6889338428
 40
0.7742862648
 40
0.8491558081
 40
0.881782704
 40
0.9107966619
 40
0.9359481639
 40
0.9570160442
 40
0.9738594537
 40
0.9864300972
 40
0.991146817
 40
0.9948836667
 40
1.0
 40
1.0
 40
1.0
 40
1.0
 10
38.9982278694
 20
152.1907002189
 30
0.0
 10
39.0117326597
 20
152.1907002189
 30
0.0
 10
39.0335031054
 20
152.2059643575
 30
0.0
 10
39.0541990464
 20
152.2345134812
 30
0.0
 10
39.0809931435
 20
152.2835643309
 30
0.0
 10
39.1119367849
 20
152.3683443814
 30
0.0
 10
39.1470258266
 20
152.4969971193
 30
0.0
 10
39.181428536
 20
152.6599256622
 30
0.0
 10
39.2149304999
 20
152.8556953103
 30
0.0
 10
39.2469409929
 20
153.0825662312
 30
0.0
 10
39.2889643865
 20
153.4404628439
 30
0.0
 10
39.3333273476
 20
153.9476828927
 30
0.0
 10
39.3724019092
 20
154.6139937754
 30
0.0
 10
39.3968813527
 20
155.3376752229
 30
0.0
 10
39.4052277173
 20
156.0906807839
 30
0.0
 10
39.3968822444
 20
156.8436846134
 30
0.0
 10
39.3724040776
 20
157.5673631171
 30
0.0
 10
39.3333310195
 20
158.2336736668
 30
0.0
 10
39.288967812
 20
158.7408976526
 30
0.0
 10
39.2469451406
 20
159.0988019011
 30
0.0
 10
39.2149341803
 20
159.3256817523
 30
0.0
 10
39.1814331635
 20
159.5214586062
 30
0.0
 10
39.1470290188
 20
159.6843915171
 30
0.0
 10
39.1119389567
 20
159.8130465232
 30
0.0
 10
39.0809938448
 20
159.8978284349
 30
0.0
 10
39.0541993749
 20
159.9468818324
 30
0.0
 10
39.0335036645
 20
159.9754329537
 30
0.0
 10
39.0117331396
 20
159.9907002189
 30
0.0
 10
38.9982278694
 20
159.9907002189
 30
0.0
  0
SPLINE
  5
297
100
AcDbEntity
  8
0
100
AcDbSpline
 62
7
  6
BYLAYER
 70
0
 71
3
 72
12
 73
8
 74
0
 42
0.0000001
 43
0.0000001
 44
0.0000000001
 40
0.0
 40
0.0
 40
0.0
 40
0.0
 40
0.3435576198
 40
0.612886072
 40
0.8217255775
 40
0.91228507
 40
1.0
 40
1.0
 40
1.0
 40
1.0
 10
42.1173615601
 20
165.5907002189
 30
0.0
 10
42.1418583367
 20
165.5199335002
 30
0.0
 10
42.1916244258
 20
165.3954343804
 30
0.0
 10
42.2841618881
 20
165.2410469844
 30
0.0
 10
42.376880737
 20
165.1539088634
 30
0.0
 10
42.4555051223
 20
165.1209621427
 30
0.0
 10
42.4945526727
 20
165.1157698695
 30
0.0
 10
42.5136722111
 20
165.1157225694
 30
0.0
  0
SPLINE
  5
298
100
AcDbEntity
  8
0
100
AcDbSpline
 62
7
  6
BYLAYER
 70
0
 71
3
 72
37
 73
33
 74
0
 42
0.0000001
 43
0.0000001
 44
0.0000000001
 40
0.0
 40
0.0
 40
0.0
 40
0.0
 40
0.0023128912
 40
0.005147923
 40
0.0088170735
 40
0.0134620454
 40
0.0191477011
 40
0.0259016045
 40
0.0426270588
 40
0.0636055987
 40
0.0886983971
 40
0.1176848871
 40
0.1503134084
 40
0.2252581427
 40
0.3107443914
 40
0.4035111923
 40
0.4999967547
 40
0.5964820553
 40
0.6892484128
 40
0.7747348319
 40
0.8496806429
 40
0.8823104696
 40
0.9112983648
 40
0.9363925705
 40
0.9573714523
 40
0.9740972889
 40
0.9808513947
 40
0.9865372538
 40
0.9911824909
 40
0.9948518937
 40
0.9976870816
 40
1.0
 40
1.0
 40
1.0
 40
1.0
 10
38.9982278694
 20
159.9907002189
 30
0.0
 10
38.9921377169
 20
159.9907002189
 30
0.0
 10
38.9785238754
 20
159.9866084158
 30
0.0
 10
38.9608600226
 20
159.9709607358
 30
0.0
 10
38.9439210292
 20
159.946815851
 30
0.0
 10
38.9273593433
 20
159.9137828433
 30
0.0
 10
38.9110973986
 20
159.8717936076
 30
0.0
 10
38.8882232656
 20
159.7984405016
 30
0.0
 10
38.8618429233
 20
159.6842537553
 30
0.0
 10
38.8335009519
 20
159.5213126375
 30
0.0
 10
38.8070553069
 20
159.3254126457
 30
0.0
 10
38.7826497234
 20
159.0983888584
 30
0.0
 10
38.7517207539
 20
158.7401205602
 30
0.0
 10
38.7207986519
 20
158.2326376432
 30
0.0
 10
38.6948698711
 20
157.5664045553
 30
0.0
 10
38.6791921113
 20
156.8431191032
 30
0.0
 10
38.6739415486
 20
156.0907272676
 30
0.0
 10
38.6791914534
 20
155.3383365942
 30
0.0
 10
38.694868155
 20
154.6150525356
 30
0.0
 10
38.7207955271
 20
153.9488172635
 30
0.0
 10
38.7517177606
 20
153.4413276371
 30
0.0
 10
38.7826460859
 20
153.083049266
 30
0.0
 10
38.8070522281
 20
152.8560146511
 30
0.0
 10
38.8334966212
 20
152.6601060918
 30
0.0
 10
38.8618402462
 20
152.4971595415
 30
0.0
 10
38.8882212559
 20
152.3829704602
 30
0.0
 10
38.9110960446
 20
152.3096153727
 30
0.0
 10
38.927358798
 20
152.2676245664
 30
0.0
 10
38.9439207869
 20
152.2345896137
 30
0.0
 10
38.9608598481
 20
152.2104426648
 30
0.0
 10
38.9785234113
 20
152.1947929991
 30
0.0
 10
38.9921376452
 20
152.1907002189
 30
0.0
 10
38.9982278694
 20
152.1907002189
 30
0.0
  0
SPLINE
  5
299
100
AcDbEntity
  8
0
100
AcDbSpline
 62
7
  6
BYLAYER
 70
0
 71
3
 72
33
 73
29
 74
0
 42
0.0000001
 43
0.0000001
 44
0.0000000001
 40
0.0
 40
0.0
 40
0.0
 40
0.0
 40
0.0051161516
 40
0.0088527432
 40
0.013569201
 40
0.0261394877
 40
0.0429826026
 40
0.0640502372
 40
0.0892005436
 40
0.1182133225
 40
0.1508392112
 40
0.2257081019
 40
0.3110606823
 40
0.40367205
 40
0.4999977469
 40
0.596323135
 40
0.6889338428
 40
0.7742862648
 40
0.8491558081
 40
0.881782704
 40
0.9107966619
 40
0.9359481639
 40
0.9570160442
 40
0.9738594537
 40
0.9864300972
 40
0.991146817
 40
0.9948836667
 40
1.0
 40
1.0
 40
1.0
 40
1.0
 10
38.9982278694
 20
54.3907002188
 30
0.0
 10
39.0117326597
 20
54.3907002188
 30
0.0
 10
39.0335031054
 20
54.4059643575
 30
0.0
 10
39.0541990464
 20
54.4345134811
 30
0.0
 10
39.0809931435
 20
54.4835643309
 30
0.0
 10
39.1119367849
 20
54.5683443813
 30
0.0
 10
39.1470258266
 20
54.6969971192
 30
0.0
 10
39.181428536
 20
54.8599256621
 30
0.0
 10
39.2149304999
 20
55.0556953102
 30
0.0
 10
39.2469409929
 20
55.2825662311
 30
0.0
 10
39.2889643865
 20
55.6404628438
 30
0.0
 10
39.3333273476
 20
56.1476828926
 30
0.0
 10
39.3724019092
 20
56.8139937754
 30
0.0
 10
39.3968813527
 20
57.5376752229
 30
0.0
 10
39.4052277173
 20
58.2906807838
 30
0.0
 10
39.3968822444
 20
59.0436846133
 30
0.0
 10
39.3724040776
 20
59.767363117
 30
0.0
 10
39.3333310195
 20
60.4336736667
 30
0.0
 10
39.288967812
 20
60.9408976526
 30
0.0
 10
39.2469451406
 20
61.298801901
 30
0.0
 10
39.2149341803
 20
61.5256817523
 30
0.0
 10
39.1814331635
 20
61.7214586062
 30
0.0
 10
39.1470290188
 20
61.884391517
 30
0.0
 10
39.1119389567
 20
62.0130465231
 30
0.0
 10
39.0809938448
 20
62.0978284349
 30
0.0
 10
39.0541993749
 20
62.1468818324
 30
0.0
 10
39.0335036645
 20
62.1754329537
 30
0.0
 10
39.0117331396
 20
62.1907002188
 30
0.0
 10
38.9982278694
 20
62.1907002188
 30
0.0
  0
SPLINE
  5
29A
100
AcDbEntity
  8
0
100
AcDbSpline
 62
7
  6
BYLAYER
 70
0
 71
3
 72
12
 73
8
 74
0
 42
0.0000001
 43
0.0000001
 44
0.0000000001
 40
0.0
 40
0.0
 40
0.0
 40
0.0
 40
0.3431781487
 40
0.6177017432
 40
0.7313722498
 40
0.8312379692
 40
1.0
 40
1.0
 40
1.0
 40
1.0
 10
43.0383728023
 20
48.7907002188
 30
0.0
 10
42.994528656
 20
48.8620235275
 30
0.0
 10
42.9105532067
 20
48.9874123923
 30
0.0
 10
42.7927525336
 20
49.1226879034
 30
0.0
 10
42.7002683924
 20
49.1983340496
 30
0.0
 10
42.6205826722
 20
49.246827169
 30
0.0
 10
42.554843108
 20
49.2656399359
 30
0.0
 10
42.5136720666
 20
49.2655385573
 30
0.0
  0
SPLINE
  5
29B
100
AcDbEntity
  8
0
100
AcDbSpline
 62
7
  6
BYLAYER
 70
0
 71
3
 72
37
 73
33
 74
0
 42
0.0000001
 43
0.0000001
 44
0.0000000001
 40
0.0
 40
0.0
 40
0.0
 40
0.0
 40
0.0023128912
 40
0.005147923
 40
0.0088170735
 40
0.0134620454
 40
0.0191477011
 40
0.0259016045
 40
0.0426270588
 40
0.0636055987
 40
0.0886983971
 40
0.1176848871
 40
0.1503134084
 40
0.2252581427
 40
0.3107443914
 40
0.4035111923
 40
0.4999967547
 40
0.5964820553
 40
0.6892484128
 40
0.7747348319
 40
0.8496806429
 40
0.8823104696
 40
0.9112983648
 40
0.9363925705
 40
0.9573714523
 40
0.9740972889
 40
0.9808513947
 40
0.9865372538
 40
0.9911824909
 40
0.9948518937
 40
0.9976870816
 40
1.0
 40
1.0
 40
1.0
 40
1.0
 10
38.9982278694
 20
62.1907002188
 30
0.0
 10
38.9921377169
 20
62.1907002188
 30
0.0
 10
38.9785238754
 20
62.1866084157
 30
0.0
 10
38.9608600226
 20
62.1709607357
 30
0.0
 10
38.9439210292
 20
62.1468158509
 30
0.0
 10
38.9273593433
 20
62.1137828433
 30
0.0
 10
38.9110973986
 20
62.0717936075
 30
0.0
 10
38.8882232656
 20
61.9984405016
 30
0.0
 10
38.8618429233
 20
61.8842537552
 30
0.0
 10
38.8335009519
 20
61.7213126374
 30
0.0
 10
38.8070553069
 20
61.5254126457
 30
0.0
 10
38.7826497234
 20
61.2983888584
 30
0.0
 10
38.7517207539
 20
60.9401205602
 30
0.0
 10
38.7207986519
 20
60.4326376431
 30
0.0
 10
38.6948698711
 20
59.7664045553
 30
0.0
 10
38.6791921113
 20
59.0431191031
 30
0.0
 10
38.6739415486
 20
58.2907272675
 30
0.0
 10
38.6791914534
 20
57.5383365942
 30
0.0
 10
38.694868155
 20
56.8150525356
 30
0.0
 10
38.7207955271
 20
56.1488172635
 30
0.0
 10
38.7517177606
 20
55.641327637
 30
0.0
 10
38.7826460859
 20
55.2830492659
 30
0.0
 10
38.8070522281
 20
55.0560146511
 30
0.0
 10
38.8334966212
 20
54.8601060917
 30
0.0
 10
38.8618402462
 20
54.6971595415
 30
0.0
 10
38.8882212559
 20
54.5829704601
 30
0.0
 10
38.9110960446
 20
54.5096153727
 30
0.0
 10
38.927358798
 20
54.4676245664
 30
0.0
 10
38.9439207869
 20
54.4345896136
 30
0.0
 10
38.9608598481
 20
54.4104426648
 30
0.0
 10
38.9785234113
 20
54.3947929991
 30
0.0
 10
38.9921376452
 20
54.3907002188
 30
0.0
 10
38.9982278694
 20
54.3907002188
 30
0.0
  0
SPLINE
  5
29C
100
AcDbEntity
  8
0
100
AcDbSpline
 62
7
  6
BYLAYER
 70
0
 71
3
 72
12
 73
8
 74
0
 42
0.0000001
 43
0.0000001
 44
0.0000000001
 40
0.0
 40
0.0
 40
0.0
 40
0.0
 40
0.0877379561
 40
0.1783101846
 40
0.3871272307
 40
0.6564103626
 40
1.0
 40
1.0
 40
1.0
 40
1.0
 10
42.5136720666
 20
49.2655385573
 30
0.0
 10
42.4945487104
 20
49.2654914683
 30
0.0
 10
42.4554960024
 20
49.2603038778
 30
0.0
 10
42.3768633855
 20
49.2273863239
 30
0.0
 10
42.2841146804
 20
49.1403098781
 30
0.0
 10
42.1915462118
 20
48.9859578116
 30
0.0
 10
42.1417811724
 20
48.8614697525
 30
0.0
 10
42.1172855813
 20
48.7907002188
 30
0.0
  0
SPLINE
  5
29D
100
AcDbEntity
  8
0
100
AcDbSpline
 62
7
  6
BYLAYER
 70
0
 71
3
 72
19
 73
15
 74
0
 42
0.0000001
 43
0.0000001
 44
0.0000000001
 40
0.0
 40
0.0
 40
0.0
 40
0.0
 40
0.0072526015
 40
0.0194531623
 40
0.0381459998
 40
0.0642101627
 40
0.0986423845
 40
0.1428555181
 40
0.1990007152
 40
0.2704807165
 40
0.4808748434
 40
0.7342760042
 40
0.8990046423
 40
1.0
 40
1.0
 40
1.0
 40
1.0
 10
37.9879473028
 20
143.2906950939
 30
0.0
 10
37.99332404
 20
143.2906948846
 30
0.0
 10
38.0064426808
 20
143.3002152565
 30
0.0
 10
38.0195251687
 20
143.3250292907
 30
0.0
 10
38.0345587129
 20
143.364752951
 30
0.0
 10
38.0494813731
 20
143.4215302825
 30
0.0
 10
38.0650864741
 20
143.4976198295
 30
0.0
 10
38.0807805293
 20
143.5963265992
 30
0.0
 10
38.0964513225
 20
143.7227755314
 30
0.0
 10
38.1195645161
 20
143.9723334185
 30
0.0
 10
38.1367371908
 20
144.369051977
 30
0.0
 10
38.1304074438
 20
144.8352971778
 30
0.0
 10
38.1027232647
 20
145.2193098179
 30
0.0
 10
38.0770565964
 20
145.4148279964
 30
0.0
 10
38.0635644393
 20
145.4884755219
 30
0.0
  0
SPLINE
  5
29E
100
AcDbEntity
  8
0
100
AcDbSpline
 62
7
  6
BYLAYER
 70
0
 71
3
 72
19
 73
15
 74
0
 42
0.0000001
 43
0.0000001
 44
0.0000000001
 40
0.0
 40
0.0
 40
0.0
 40
0.0
 40
0.1009946421
 40
0.2657212301
 40
0.5191231947
 40
0.7295180059
 40
0.8009987028
 40
0.8571442406
 40
0.9013575256
 40
0.9357898489
 40
0.9618539977
 40
0.9805468302
 40
0.9927474081
 40
1.0
 40
1.0
 40
1.0
 40
1.0
 10
38.0635644393
 20
68.8929249157
 30
0.0
 10
38.0770565009
 20
68.9665719198
 30
0.0
 10
38.1027229838
 20
69.1620880522
 30
0.0
 10
38.130407243
 20
69.5460992263
 30
0.0
 10
38.136737338
 20
70.0123440158
 30
0.0
 10
38.1195646262
 20
70.4090641923
 30
0.0
 10
38.0964515334
 20
70.6586233717
 30
0.0
 10
38.0807806768
 20
70.7850731842
 30
0.0
 10
38.0650865389
 20
70.8837803901
 30
0.0
 10
38.0494814279
 20
70.9598701077
 30
0.0
 10
38.0345586983
 20
71.016647509
 30
0.0
 10
38.0195251247
 20
71.0563711021
 30
0.0
 10
38.0064427099
 20
71.0811852752
 30
0.0
 10
37.993324033
 20
71.090705496
 30
0.0
 10
37.987947303
 20
71.0907053432
 30
0.0
  0
SPLINE
  5
29F
100
AcDbEntity
  8
0
100
AcDbSpline
 62
7
  6
BYLAYER
 70
0
 71
3
 72
19
 73
15
 74
0
 42
0.0000001
 43
0.0000001
 44
0.0000000001
 40
0.0
 40
0.0
 40
0.0
 40
0.0
 40
0.1008131381
 40
0.2658446226
 40
0.5200212569
 40
0.7309606187
 40
0.8024983352
 40
0.8585846997
 40
0.9026466025
 40
0.9368556898
 40
0.9626430208
 40
0.9810256581
 40
0.9929191963
 40
1.0
 40
1.0
 40
1.0
 40
1.0
 10
37.9242931292
 20
145.4884755219
 30
0.0
 10
37.9147285248
 20
145.4146085068
 30
0.0
 10
37.8984034031
 20
145.2187276883
 30
0.0
 10
37.8830094979
 20
144.8347858865
 30
0.0
 10
37.8799244575
 20
144.3691314205
 30
0.0
 10
37.8887924722
 20
143.9726436645
 30
0.0
 10
37.9025037536
 20
143.7228600713
 30
0.0
 10
37.9124492004
 20
143.5963902906
 30
0.0
 10
37.923079593
 20
143.4976760363
 30
0.0
 10
37.934438624
 20
143.421606768
 30
0.0
 10
37.9459543659
 20
143.364831863
 30
0.0
 10
37.9585595891
 20
143.3251699307
 30
0.0
 10
37.9699790834
 20
143.3001824846
 30
0.0
 10
37.9827157995
 20
143.2906952974
 30
0.0
 10
37.9879473028
 20
143.2906950939
 30
0.0
  0
SPLINE
  5
2A0
100
AcDbEntity
  8
0
100
AcDbSpline
 62
7
  6
BYLAYER
 70
0
 71
3
 72
19
 73
15
 74
0
 42
0.0000001
 43
0.0000001
 44
0.0000000001
 40
0.0
 40
0.0
 40
0.0
 40
0.0
 40
0.0070808125
 40
0.018974334
 40
0.037356971
 40
0.0631443189
 40
0.0973533052
 40
0.1414150552
 40
0.1975010628
 40
0.2690380863
 40
0.4799767456
 40
0.7341525505
 40
0.8991861365
 40
1.0
 40
1.0
 40
1.0
 40
1.0
 10
37.987947303
 20
71.0907053432
 30
0.0
 10
37.9827157931
 20
71.0907051944
 30
0.0
 10
37.9699791104
 20
71.081217865
 30
0.0
 10
37.9585595564
 20
71.0562305475
 30
0.0
 10
37.9459543543
 20
71.0165685571
 30
0.0
 10
37.9344386663
 20
70.9597937282
 30
0.0
 10
37.9230796391
 20
70.8837246284
 30
0.0
 10
37.9124492986
 20
70.785010826
 30
0.0
 10
37.9025038784
 20
70.6585419348
 30
0.0
 10
37.8887925459
 20
70.4087596429
 30
0.0
 10
37.8799245258
 20
70.012273532
 30
0.0
 10
37.8830094018
 20
69.5466186491
 30
0.0
 10
37.8984032267
 20
69.1626753689
 30
0.0
 10
37.914728456
 20
68.9667924619
 30
0.0
 10
37.9242931292
 20
68.8929249157
 30
0.0
  0
ENDSEC
  0
SECTION
  2
OBJECTS
  0
DICTIONARY
  5
C
100
AcDbDictionary
280
0
281
1
  3
ACAD_GROUP
350
D
  3
ACAD_MLINESTYLE
350
17
  3
ACAD_LAYOUT
350
1A
  3
ACAD_PLOTSETTINGS
350
19
  3
ACAD_PLOTSTYLENAME
350
E
  0
DICTIONARY
  5
D
102
{ACAD_REACTORS
330
C
102
}
100
AcDbDictionary
280
0
281
1
  0
ACDBDICTIONARYWDFLT
  5
E
102
{ACAD_REACTORS
330
C
102
}
100
AcDbDictionary
281
1
  3
Normal
350
F
100
AcDbDictionaryWithDefault
340
F
  0
DICTIONARY
  5
17
102
{ACAD_REACTORS
330
C
102
}
100
AcDbDictionary
280
0
281
1
  3
Standard
350
18
  0
DICTIONARY
  5
19
102
{ACAD_REACTORS
330
C
102
}
100
AcDbDictionary
281
1
  0
DICTIONARY
  5
1A
102
{ACAD_REACTORS
330
C
102
}
100
AcDbDictionary
281
1
  3
Model
350
2A1
  3
Layout1
350
2A2
  0
ACDBPLACEHOLDER
  5
F
102
{ACAD_REACTORS
330
E
102
}
  0
MLINESTYLE
  5
18
102
{ACAD_REACTORS
330
17
102
}
100
AcDbMlineStyle
  2
STANDARD
 70
0
  3

 62
256
 51
90.0
 52
90.0
 71
2
 49
0.5
 62
256
  6
BYLAYER
 49
-0.5
 62
256
  6
BYLAYER
  0
LAYOUT
  5
2A1
102
{ACAD_REACTORS
330
1A
102
}
100
AcDbPlotSettings
  1

  2
none_device
  4

  6

 40
0.0
 41
0.0
 42
0.0
 43
0.0
 44
210.0
 45
297.0
 46
0.0
 47
0.0
 48
0.0
 49
0.0
140
0.0
141
0.0
142
1.0
143
1.0
 70
1024
 72
1
 73
0
 74
0
  7

 75
0
147
1.0
148
0.0
149
0.0
100
AcDbLayout
  1
Model
 70
0
 71
0
 10
0.0
 20
0.0
 11
210.0
 21
297.0
 12
0.0
 22
0.0
 32
0.0
 14
0.0
 24
0.0
 34
0.0
 15
0.0
 25
0.0
 35
0.0
146
0.0
 13
0.0
 23
0.0
 33
0.0
 16
1.0
 26
0.0
 36
0.0
 17
0.0
 27
1.0
 37
0.0
 76
0
330
210
345
0
346
0
  0
LAYOUT
  5
2A2
102
{ACAD_REACTORS
330
1A
102
}
100
AcDbPlotSettings
  1

  2
none_device
  4

  6

 40
0.0
 41
0.0
 42
0.0
 43
0.0
 44
210.0
 45
297.0
 46
0.0
 47
0.0
 48
0.0
 49
0.0
140
0.0
141
0.0
142
1.0
143
1.0
 70
0
 72
1
 73
0
 74
0
  7

 75
0
147
1.0
148
0.0
149
0.0
100
AcDbLayout
  1
Layout1
 70
0
 71
1
 10
0.0
 20
0.0
 11
210.0
 21
297.0
 12
0.0
 22
0.0
 32
0.0
 14
0.0
 24
0.0
 34
0.0
 15
0.0
 25
0.0
 35
0.0
146
0.0
 13
0.0
 23
0.0
 33
0.0
 16
1.0
 26
0.0
 36
0.0
 17
0.0
 27
1.0
 37
0.0
 76
0
330
211
345
0
346
0
  0
ENDSEC
  0
EOF
