999
DXF file: C:\Users\sesa63760\Dev\_Creo\CAD\MCADID0002409_3D-CAD\drw0001_1.dxf
999
Pro/ENGINEER 2019471 by Parametric Technology Corporation
  0
SECTION
  2
HEADER
  9
$ACADVER
  1
AC1024
  9
$DWGCODEPAGE
  3
ANSI_1252
  9
$EXTMAX
 10
49.6462684911
 20
70.2140082946
 30
0.0
  9
$EXTMIN
 10
0.0
 20
0.0
 30
0.0
  9
$LIMMIN
 10
0.0
 20
0.0
  9
$LIMMAX
 10
49.6462684911
 20
70.2140082946
  9
$VIEWCTR
 10
24.8231342456
 20
35.1070041473
  9
$VIEWSIZE
 40
70.2140082946
  9
$CLAYER
  8
0
  9
$LTSCALE
 40
4.5769131333
  9
$CELTYPE
  6
BYLAYER
  9
$DIMSCALE
 40
1.0
  9
$DIMASZ
 40
0.5910270058
  9
$DIMEXO
 40
1.0
  9
$DIMDLI
 40
3.1622308921
  9
$DIMEXE
 40
1.0
  9
$DIMCEN
 40
0.7489494218
  9
$DIMLFAC
 40
1.0
  9
$DIMBLK
  1
_FILLED
  9
$DIMALT
 70
0
  9
$DIMALTF
 40
0.0393700787
  9
$DIMTXT
 40
0.8274378082
  9
$DIMTOL
 70
1
  9
$DIMLIM
 70
0
  9
$DIMTFAC
 40
1.0
  9
$DIMTP
 40
0.01
  9
$DIMTM
 40
0.01
  9
$DIMGAP
 40
0.625
  9
$DIMDSEP
 70
46
  9
$AUNITS
 70
0
  9
$PDMODE
 70
3
  9
$PDSIZE
 40
0.3125
  9
$HANDSEED
  5
32C
  9
$TILEMODE
 70
1
  9
$MEASUREMENT
 70
1
  9
$INSUNITS
 70
4
  0
ENDSEC
  0
SECTION
  2
CLASSES
  0
CLASS
  1
ACDBDICTIONARYWDFLT
  2
AcDbDictionaryWithDefault
  3
AutoCAD 2000
 90
0
 91
1
280
0
281
0
  0
CLASS
  1
ACDBPLACEHOLDER
  2
AcDbPlaceHolder
  3
AutoCAD 2000
 90
0
 91
1
280
0
281
0
  0
CLASS
  1
LAYOUT
  2
AcDbLayout
  3
AutoCAD 2000
 90
0
 91
0
280
0
281
0
  0
ENDSEC
  0
SECTION
  2
TABLES
  0
TABLE
  2
VPORT
  5
8
100
AcDbSymbolTable
 70
2
  0
VPORT
  5
1F4
100
AcDbSymbolTableRecord
100
AcDbViewportTableRecord
  2
*ACTIVE
 70
0
 10
0.0
 20
0.0
 11
1.0
 21
1.0
 12
24.8231342456
 22
35.1070041473
 13
0.0
 23
0.0
 14
1.0
 24
1.0
 15
0.0
 25
0.0
 16
0.0
 26
0.0
 36
1.0
 17
0.0
 27
0.0
 37
0.0
 40
70.2140082946
 41
0.7070707071
 42
50.0
 43
0.0
 44
0.0
 50
0.0
 51
0.0
 71
0
 72
100
 73
1
 74
1
 75
0
 76
0
 77
0
 78
0
  0
ENDTAB
  0
TABLE
  2
LTYPE
  5
5
100
AcDbSymbolTable
 70
6
  0
LTYPE
  5
14
100
AcDbSymbolTableRecord
100
AcDbLinetypeTableRecord
  2
BYBLOCK
 70
0
  3

 72
65
 73
0
 40
0.0
  0
LTYPE
  5
15
100
AcDbSymbolTableRecord
100
AcDbLinetypeTableRecord
  2
BYLAYER
 70
0
  3

 72
65
 73
0
 40
0.0
  0
LTYPE
  5
16
100
AcDbSymbolTableRecord
100
AcDbLinetypeTableRecord
  2
CONTINUOUS
 70
64
  3
Solid line
 72
65
 73
0
 40
0.0
  0
LTYPE
  5
1F5
100
AcDbSymbolTableRecord
100
AcDbLinetypeTableRecord
  2
CENTER
 70
64
  3
____ _ ____ _ ____ _ ____ _ ____ _ ____ _ ____
 72
65
 73
4
 40
0.6
 49
0.375
 74
0
 49
-0.075
 74
0
 49
0.075
 74
0
 49
-0.075
 74
0
  0
LTYPE
  5
1F6
100
AcDbSymbolTableRecord
100
AcDbLinetypeTableRecord
  2
HIDDEN
 70
64
  3
- - - - - - - - - - - - - - - - - - - -
 72
65
 73
2
 40
0.2
 49
0.1
 74
0
 49
-0.1
 74
0
  0
LTYPE
  5
1F7
100
AcDbSymbolTableRecord
100
AcDbLinetypeTableRecord
  2
PHANTOM
 70
64
  3
_____ _ _ _____ _ _ _____ _ _ _____
 72
65
 73
6
 40
0.8
 49
0.45
 74
0
 49
-0.05
 74
0
 49
0.1
 74
0
 49
-0.05
 74
0
 49
0.1
 74
0
 49
-0.05
 74
0
  0
LTYPE
  5
1F8
100
AcDbSymbolTableRecord
100
AcDbLinetypeTableRecord
  2
DOT
 70
64
  3
. . . . . . . . . . . . . . . . . . . .
 72
65
 73
2
 40
0.2
 49
0.1
 74
0
 49
-0.1
 74
0
  0
LTYPE
  5
1F9
100
AcDbSymbolTableRecord
100
AcDbLinetypeTableRecord
  2
DASHED
 70
64
  3
- - - - - - - - - - - - - - - - - - - -
 72
65
 73
2
 40
0.2
 49
0.1
 74
0
 49
-0.1
 74
0
  0
ENDTAB
  0
TABLE
  2
LAYER
  5
2
100
AcDbSymbolTable
 70
36
  0
LAYER
  5
10
100
AcDbSymbolTableRecord
100
AcDbLayerTableRecord
  2
0
 70
0
 62
7
  6
CONTINUOUS
370
-3
390
F
  0
LAYER
  5
1FA
100
AcDbSymbolTableRecord
100
AcDbLayerTableRecord
  2
DEFAULT_1
 70
0
 62
7
  6
CENTER
370
-3
390
F
  0
LAYER
  5
1FB
100
AcDbSymbolTableRecord
100
AcDbLayerTableRecord
  2
DEFAULT_2
 70
0
 62
8
  6
HIDDEN
370
-3
390
F
  0
LAYER
  5
1FC
100
AcDbSymbolTableRecord
100
AcDbLayerTableRecord
  2
DEFAULT_3
 70
0
 62
7
  6
PHANTOM
370
-3
390
F
  0
LAYER
  5
1FD
100
AcDbSymbolTableRecord
100
AcDbLayerTableRecord
  2
00_COMPONENTS
 70
0
 62
7
  6
CONTINUOUS
370
-3
390
F
  0
LAYER
  5
1FE
100
AcDbSymbolTableRecord
100
AcDbLayerTableRecord
  2
01_1_DEFAULT_DATUMS
 70
0
 62
7
  6
CONTINUOUS
370
-3
390
F
  0
LAYER
  5
1FF
100
AcDbSymbolTableRecord
100
AcDbLayerTableRecord
  2
01_PLANES
 70
0
 62
7
  6
CONTINUOUS
370
-3
390
F
  0
LAYER
  5
200
100
AcDbSymbolTableRecord
100
AcDbLayerTableRecord
  2
02_COORD_SYS
 70
0
 62
7
  6
CONTINUOUS
370
-3
390
F
  0
LAYER
  5
201
100
AcDbSymbolTableRecord
100
AcDbLayerTableRecord
  2
03_AXES
 70
0
 62
7
  6
CONTINUOUS
370
-3
390
F
  0
LAYER
  5
202
100
AcDbSymbolTableRecord
100
AcDbLayerTableRecord
  2
04_POINTS
 70
0
 62
7
  6
CONTINUOUS
370
-3
390
F
  0
LAYER
  5
203
100
AcDbSymbolTableRecord
100
AcDbLayerTableRecord
  2
05_CURVES
 70
0
 62
7
  6
CONTINUOUS
370
-3
390
F
  0
LAYER
  5
204
100
AcDbSymbolTableRecord
100
AcDbLayerTableRecord
  2
06_SURFS
 70
0
 62
7
  6
CONTINUOUS
370
-3
390
F
  0
LAYER
  5
205
100
AcDbSymbolTableRecord
100
AcDbLayerTableRecord
  2
07_COSMETICS
 70
0
 62
7
  6
CONTINUOUS
370
-3
390
F
  0
LAYER
  5
206
100
AcDbSymbolTableRecord
100
AcDbLayerTableRecord
  2
10_NOTES
 70
0
 62
7
  6
CONTINUOUS
370
-3
390
F
  0
LAYER
  5
207
100
AcDbSymbolTableRecord
100
AcDbLayerTableRecord
  2
11_NOTES_PUB
 70
0
 62
7
  6
CONTINUOUS
370
-3
390
F
  0
LAYER
  5
208
100
AcDbSymbolTableRecord
100
AcDbLayerTableRecord
  2
13_REF_GTOL
 70
0
 62
7
  6
CONTINUOUS
370
-3
390
F
  0
LAYER
  5
209
100
AcDbSymbolTableRecord
100
AcDbLayerTableRecord
  2
16_MISC
 70
0
 62
7
  6
CONTINUOUS
370
-3
390
F
  0
LAYER
  5
20A
100
AcDbSymbolTableRecord
100
AcDbLayerTableRecord
  2
17_NO_PRINT
 70
0
 62
7
  6
CONTINUOUS
370
-3
390
F
  0
LAYER
  5
20B
100
AcDbSymbolTableRecord
100
AcDbLayerTableRecord
  2
18_DATUM_CAMS_JOINTS
 70
0
 62
7
  6
CONTINUOUS
370
-3
390
F
  0
LAYER
  5
20C
100
AcDbSymbolTableRecord
100
AcDbLayerTableRecord
  2
19_DATUM_FUNCTIONAL
 70
0
 62
7
  6
CONTINUOUS
370
-3
390
F
  0
LAYER
  5
20D
100
AcDbSymbolTableRecord
100
AcDbLayerTableRecord
  2
20_DATUM_KINEMATIC_SCHEME
 70
0
 62
7
  6
CONTINUOUS
370
-3
390
F
  0
ENDTAB
  0
TABLE
  2
STYLE
  5
3
100
AcDbSymbolTable
 70
1
  0
STYLE
  5
11
100
AcDbSymbolTableRecord
100
AcDbTextStyleTableRecord
  2
STANDARD
 70
0
 40
0.0
 41
0.8
 50
0.0
 71
0
 42
0.2
  3
txt
  4

  0
STYLE
  5
20E
100
AcDbSymbolTableRecord
100
AcDbTextStyleTableRecord
  2
TEXTSTYLE_1
 70
0
 40
0.0
 41
0.8
 50
0.0
 71
0
 42
0.2
  3
gdt
  4

  0
ENDTAB
  0
TABLE
  2
VIEW
  5
6
100
AcDbSymbolTable
 70
0
  0
ENDTAB
  0
TABLE
  2
UCS
  5
7
100
AcDbSymbolTable
 70
0
  0
ENDTAB
  0
TABLE
  2
APPID
  5
9
100
AcDbSymbolTable
 70
1
  0
APPID
  5
20F
100
AcDbSymbolTableRecord
100
AcDbRegAppTableRecord
  2
ACAD
 70
0
  0
ENDTAB
  0
TABLE
  2
BLOCK_RECORD
  5
1
100
AcDbSymbolTable
 70
0
  0
BLOCK_RECORD
  5
210
100
AcDbSymbolTableRecord
100
AcDbBlockTableRecord
  2
*Model_Space
  0
BLOCK_RECORD
  5
211
100
AcDbSymbolTableRecord
100
AcDbBlockTableRecord
  2
*Paper_Space
  0
BLOCK_RECORD
  5
212
100
AcDbSymbolTableRecord
100
AcDbBlockTableRecord
  2
_FILLED
  0
ENDTAB
  0
TABLE
  2
DIMSTYLE
  5
A
100
AcDbSymbolTable
 70
1
100
AcDbDimStyleTable
 71
0
  0
DIMSTYLE
105
213
100
AcDbSymbolTableRecord
100
AcDbDimStyleTableRecord
  2
STANDARD
 70
0
  3

  4

 40
1.0
 41
0.5910270058
 42
1.0
 43
0.38
 44
1.0
 45
0.0
 46
0.0
 47
0.01
 48
0.01
140
0.8274378082
141
0.09
142
0.0
143
25.4
144
1.0
145
0.0
146
1.0
147
0.625
 71
1
 72
0
 73
0
 74
0
 75
0
 76
0
 77
1
 78
8
 79
2
170
0
171
1
172
0
173
0
174
0
175
0
176
0
177
0
178
0
270
2
179
2
271
2
272
2
273
2
274
2
275
0
280
0
281
0
282
0
283
1
284
8
285
0
286
0
287
3
288
0
340
11
278
46
341
212
342
212
343
212
344
212
  0
ENDTAB
  0
ENDSEC
  0
SECTION
  2
BLOCKS
  0
BLOCK
  5
20
100
AcDbEntity
  8
0
100
AcDbBlockBegin
  2
*Model_Space
 70
0
 10
0.0
 20
0.0
 30
0.0
  3
*Model_Space
  1

  0
ENDBLK
  5
21
100
AcDbEntity
  8
0
100
AcDbBlockEnd
  0
BLOCK
  5
1C
100
AcDbEntity
  8
0
100
AcDbBlockBegin
  2
*Paper_Space
 70
0
 10
0.0
 20
0.0
 30
0.0
  3
*Paper_Space
  1

  0
ENDBLK
  5
1D
100
AcDbEntity
  8
0
100
AcDbBlockEnd
  0
BLOCK
  5
214
100
AcDbEntity
  8
0
100
AcDbBlockBegin
  2
_FILLED
 70
64
 10
0.0
 20
0.0
  3
_FILLED
  1

  0
SOLID
  5
215
100
AcDbEntity
  8
0
  6
BYBLOCK
 62
0
100
AcDbTrace
 10
0.0
 20
0.0
 11
-1.0
 21
0.25
 12
-1.0
 22
-0.25
 13
-1.0
 23
-0.25
  0
ENDBLK
  5
216
100
AcDbEntity
  8
0
  6
BYBLOCK
 62
0
100
AcDbBlockEnd
  0
ENDSEC
  0
SECTION
  2
ENTITIES
  0
LINE
  5
217
100
AcDbEntity
  8
0
100
AcDbLine
 62
7
  6
CONTINUOUS
 10
8.4883919686
 20
57.4730326503
 11
8.1021782499
 21
57.1671732192
  0
LINE
  5
218
100
AcDbEntity
  8
0
100
AcDbLine
 62
7
  6
CONTINUOUS
 10
13.9967283336
 20
60.6532589564
 11
8.4883894563
 21
57.4730370062
  0
LINE
  5
219
100
AcDbEntity
  8
0
100
AcDbLine
 62
7
  6
CONTINUOUS
 10
10.5819019539
 20
57.4868111842
 11
16.0370957289
 21
60.6363499785
  0
LINE
  5
21A
100
AcDbEntity
  8
0
100
AcDbLine
 62
7
  6
CONTINUOUS
 10
16.4441594583
 20
60.4527211955
 11
17.0396459061
 21
60.7965234042
  0
LINE
  5
21B
100
AcDbEntity
  8
0
100
AcDbLine
 62
7
  6
CONTINUOUS
 10
17.1924166674
 20
60.1151780769
 11
18.4782595861
 21
60.8575554007
  0
LINE
  5
21C
100
AcDbEntity
  8
0
100
AcDbLine
 62
7
  6
CONTINUOUS
 10
10.4221178711
 20
56.2010630929
 11
9.5225218588
 21
55.6816841933
  0
LINE
  5
21D
100
AcDbEntity
  8
0
100
AcDbLine
 62
7
  6
CONTINUOUS
 10
8.5465572622
 20
54.5908830308
 11
8.9672409093
 21
54.8337633979
  0
LINE
  5
21E
100
AcDbEntity
  8
0
100
AcDbLine
 62
7
  6
CONTINUOUS
 10
10.7213759809
 20
55.6782647771
 11
11.1083384871
 21
55.9016763506
  0
LINE
  5
21F
100
AcDbEntity
  8
0
100
AcDbLine
 62
7
  6
CONTINUOUS
 10
22.6485513967
 20
59.424645499
 11
20.8120859909
 21
58.3643680316
  0
LINE
  5
220
100
AcDbEntity
  8
0
100
AcDbLine
 62
7
  6
CONTINUOUS
 10
26.2001249867
 20
9.4108888123
 11
24.4771231701
 21
10.4056418707
  0
LINE
  5
221
100
AcDbEntity
  8
0
100
AcDbLine
 62
7
  6
CONTINUOUS
 10
5.7595383389
 20
33.5490690173
 11
5.7595383389
 21
21.3189707689
  0
LINE
  5
222
100
AcDbEntity
  8
0
100
AcDbLine
 62
7
  6
CONTINUOUS
 10
7.9019608241
 20
34.850689546
 11
7.9019608241
 21
56.6610363213
  0
LINE
  5
223
100
AcDbEntity
  8
0
100
AcDbLine
 62
7
  6
CONTINUOUS
 10
8.1021781321
 20
34.9662843726
 11
8.1021781216
 21
36.1914865654
  0
LINE
  5
224
100
AcDbEntity
  8
0
100
AcDbLine
 62
7
  6
CONTINUOUS
 10
8.1021781216
 20
42.2144846544
 11
8.1021782499
 21
57.1671732192
  0
LINE
  5
225
100
AcDbEntity
  8
0
100
AcDbLine
 62
7
  6
CONTINUOUS
 10
8.1948569609
 20
36.1300372712
 11
8.1948569609
 21
42.1525885494
  0
LINE
  5
226
100
AcDbEntity
  8
0
100
AcDbLine
 62
7
  6
CONTINUOUS
 10
8.5394861888
 20
41.9536211939
 11
8.5394861888
 21
35.9310699199
  0
LINE
  5
227
100
AcDbEntity
  8
0
100
AcDbLine
 62
7
  6
CONTINUOUS
 10
8.5465572622
 20
54.5908830308
 11
8.5465571538
 21
41.9579281046
  0
LINE
  5
228
100
AcDbEntity
  8
0
100
AcDbLine
 62
7
  6
CONTINUOUS
 10
8.5465571538
 20
35.9349300156
 11
8.5465571599
 21
35.2228451925
  0
LINE
  5
229
100
AcDbEntity
  8
0
100
AcDbLine
 62
7
  6
CONTINUOUS
 10
8.6968228652
 20
35.5746295968
 11
8.6968228652
 21
41.5229640799
  0
LINE
  5
22A
100
AcDbEntity
  8
0
100
AcDbLine
 62
7
  6
CONTINUOUS
 10
8.7126591518
 20
41.5229640799
 11
8.7126591518
 21
35.5479915971
  0
LINE
  5
22B
100
AcDbEntity
  8
0
100
AcDbLine
 62
7
  6
CONTINUOUS
 10
8.9061502972
 20
42.1118277154
 11
8.9061504021
 21
54.3419260243
  0
LINE
  5
22C
100
AcDbEntity
  8
0
100
AcDbLine
 62
7
  6
CONTINUOUS
 10
5.8023121931
 20
33.6384575128
 11
5.7595383389
 21
33.5490690173
  0
LINE
  5
22D
100
AcDbEntity
  8
0
100
AcDbLine
 62
7
  6
CONTINUOUS
 10
8.9159130123
 20
41.7362958959
 11
8.9215235088
 21
41.7414460761
  0
LINE
  5
22E
100
AcDbEntity
  8
0
100
AcDbLine
 62
7
  6
CONTINUOUS
 10
8.7311717241
 20
41.6158784781
 11
8.7262023142
 21
41.6116323549
  0
LINE
  5
22F
100
AcDbEntity
  8
0
100
AcDbLine
 62
7
  6
CONTINUOUS
 10
27.1013792632
 20
54.6470767506
 11
29.0125389231
 21
55.7504787083
  0
LINE
  5
230
100
AcDbEntity
  8
0
100
AcDbLine
 62
7
  6
CONTINUOUS
 10
16.1544476013
 20
16.4502615036
 11
17.0909203169
 21
16.6308454351
  0
LWPOLYLINE
  5
231
100
AcDbEntity
  8
0
100
AcDbPolyline
 62
7
  6
CONTINUOUS
 90
6
 70
0
 10
11.2712476809
 20
23.0438065193
 10
11.5407167438
 20
21.3249748213
 10
12.3051549345
 20
19.5620119469
 10
13.454292788
 20
18.0114760466
 10
14.8058784369
 20
16.9206285719
 10
16.1544476013
 20
16.4502615036
  0
LWPOLYLINE
  5
232
100
AcDbEntity
  8
0
100
AcDbPolyline
 62
7
  6
CONTINUOUS
 90
4
 70
0
 10
13.8332110698
 20
46.283647852
 10
14.1164735284
 20
47.7625962767
 10
14.9207838357
 20
48.6875279566
 10
16.1239397534
 20
48.9216122771
  0
LINE
  5
233
100
AcDbEntity
  8
0
100
AcDbLine
 62
7
  6
CONTINUOUS
 10
8.9159130123
 20
41.7362958959
 11
8.909368797
 21
41.7320302685
  0
LINE
  5
234
100
AcDbEntity
  8
0
100
AcDbLine
 62
7
  6
CONTINUOUS
 10
8.9159130123
 20
41.7362958959
 11
8.9093153215
 21
41.7320594186
  0
LINE
  5
235
100
AcDbEntity
  8
0
100
AcDbLine
 62
7
  6
CONTINUOUS
 10
8.9234606127
 20
41.742636842
 11
8.9215235088
 21
41.7414460761
  0
LINE
  5
236
100
AcDbEntity
  8
0
100
AcDbLine
 62
7
  6
CONTINUOUS
 10
8.5465571538
 20
41.9579281046
 11
8.5394861888
 21
41.9536211939
  0
LINE
  5
237
100
AcDbEntity
  8
0
100
AcDbLine
 62
7
  6
CONTINUOUS
 10
9.0917297861
 20
41.8398021634
 11
8.9234538508
 21
41.7426485868
  0
LINE
  5
238
100
AcDbEntity
  8
0
100
AcDbLine
 62
7
  6
CONTINUOUS
 10
8.975862789
 20
41.7366883673
 11
9.1221788981
 21
41.821163508
  0
LINE
  5
239
100
AcDbEntity
  8
0
100
AcDbLine
 62
7
  6
CONTINUOUS
 10
32.6792688528
 20
52.9591985707
 11
32.5188206601
 21
52.9066213077
  0
LINE
  5
23A
100
AcDbEntity
  8
0
100
AcDbLine
 62
7
  6
CONTINUOUS
 10
25.2899263132
 20
48.9954854712
 11
30.744978052
 21
52.1449422613
  0
LINE
  5
23B
100
AcDbEntity
  8
0
100
AcDbLine
 62
7
  6
CONTINUOUS
 10
33.1828307337
 20
52.3680593485
 11
31.5214505787
 21
51.4088667944
  0
LINE
  5
23C
100
AcDbEntity
  8
0
100
AcDbLine
 62
7
  6
CONTINUOUS
 10
25.0444270102
 20
47.4126221929
 11
25.3423520765
 21
47.5846282834
  0
LINE
  5
23D
100
AcDbEntity
  8
0
100
AcDbLine
 62
7
  6
CONTINUOUS
 10
16.0851069833
 20
30.4839971867
 11
16.0851069833
 21
35.8741811228
  0
LINE
  5
23E
100
AcDbEntity
  8
0
100
AcDbLine
 62
7
  6
CONTINUOUS
 10
17.2109434652
 20
40.6802695049
 11
16.844267605
 21
40.4685703619
  0
LINE
  5
23F
100
AcDbEntity
  8
0
100
AcDbLine
 62
7
  6
CONTINUOUS
 10
5.8023093527
 20
33.6384624398
 11
8.880067289
 21
35.415396206
  0
LINE
  5
240
100
AcDbEntity
  8
0
100
AcDbLine
 62
7
  6
CONTINUOUS
 10
8.5394861888
 20
35.9310699199
 11
8.5465571538
 21
35.9349300156
  0
LINE
  5
241
100
AcDbEntity
  8
0
100
AcDbLine
 62
7
  6
CONTINUOUS
 10
15.298085287
 20
30.9020346163
 11
18.0539377716
 21
29.3109784369
  0
LINE
  5
242
100
AcDbEntity
  8
0
100
AcDbLine
 62
7
  6
CONTINUOUS
 10
17.2293609547
 20
29.8233767935
 11
16.0851069833
 21
30.4839971867
  0
LINE
  5
243
100
AcDbEntity
  8
0
100
AcDbLine
 62
7
  6
CONTINUOUS
 10
17.2109434652
 20
48.4264929557
 11
17.2109434652
 21
40.6802695049
  0
LINE
  5
244
100
AcDbEntity
  8
0
100
AcDbLine
 62
7
  6
CONTINUOUS
 10
17.2293609547
 20
35.2135607296
 11
17.2293609547
 21
29.8233767935
  0
LINE
  5
245
100
AcDbEntity
  8
0
100
AcDbLine
 62
7
  6
CONTINUOUS
 10
8.9230817915
 20
35.3813266268
 11
5.8958294202
 21
33.6335520881
  0
LINE
  5
246
100
AcDbEntity
  8
0
100
AcDbLine
 62
7
  6
CONTINUOUS
 10
26.8592455703
 20
43.9769361836
 11
27.1869982114
 21
44.1661631297
  0
LINE
  5
247
100
AcDbEntity
  8
0
100
AcDbLine
 62
7
  6
CONTINUOUS
 10
8.5394861888
 20
35.9310699199
 11
8.1948568019
 21
36.1300373629
  0
LINE
  5
248
100
AcDbEntity
  8
0
100
AcDbLine
 62
7
  6
CONTINUOUS
 10
27.5563971579
 20
24.9518997098
 11
27.2117676374
 21
25.1508670799
  0
LINE
  5
249
100
AcDbEntity
  8
0
100
AcDbLine
 62
7
  6
CONTINUOUS
 10
26.8393301189
 20
25.3658890359
 11
26.8337008564
 21
25.3691390173
  0
LWPOLYLINE
  5
24A
100
AcDbEntity
  8
0
100
AcDbPolyline
 62
7
  6
CONTINUOUS
 90
4
 70
0
 10
21.2594463366
 20
41.9962059166
 10
20.976183878
 20
40.5172574919
 10
20.1718735706
 20
39.592325812
 10
18.9687176529
 20
39.3582414916
  0
LINE
  5
24B
100
AcDbEntity
  8
0
100
AcDbLine
 62
7
  6
CONTINUOUS
 10
33.7270696003
 20
46.970110658
 11
35.4484321541
 21
47.9639338595
  0
LWPOLYLINE
  5
24C
100
AcDbEntity
  8
0
100
AcDbPolyline
 62
7
  6
CONTINUOUS
 90
3
 70
0
 10
12.1617434838
 20
25.1663972021
 10
11.5433899323
 20
24.4573707619
 10
11.2712476809
 20
23.0438065193
  0
LINE
  5
24D
100
AcDbEntity
  8
0
100
AcDbLine
 62
7
  6
CONTINUOUS
 10
5.8958294202
 20
33.6335520881
 11
5.8023121931
 21
33.6384575128
  0
LINE
  5
24E
100
AcDbEntity
  8
0
100
AcDbLine
 62
7
  6
CONTINUOUS
 10
26.7229545008
 20
31.6623546857
 11
26.8176022229
 21
31.6556565259
  0
LINE
  5
24F
100
AcDbEntity
  8
0
100
AcDbLine
 62
7
  6
CONTINUOUS
 10
26.791362244
 20
31.451219223
 11
26.5858624553
 21
31.5606987958
  0
LINE
  5
250
100
AcDbEntity
  8
0
100
AcDbLine
 62
7
  6
CONTINUOUS
 10
26.253778921
 20
31.9141592934
 11
26.7229545008
 21
31.6623546857
  0
LINE
  5
251
100
AcDbEntity
  8
0
100
AcDbLine
 62
7
  6
CONTINUOUS
 10
26.2536975759
 20
31.9169498708
 11
26.7229545008
 21
31.6623546857
  0
LINE
  5
252
100
AcDbEntity
  8
0
100
AcDbLine
 62
7
  6
CONTINUOUS
 10
16.0851069833
 20
35.8741811228
 11
17.2293609547
 21
35.2135607296
  0
LINE
  5
253
100
AcDbEntity
  8
0
100
AcDbLine
 62
7
  6
CONTINUOUS
 10
18.5560701941
 20
34.5639413665
 11
14.8333944263
 21
36.7131806008
  0
LINE
  5
254
100
AcDbEntity
  8
0
100
AcDbLine
 62
7
  6
CONTINUOUS
 10
26.637295755
 20
31.2780068226
 11
25.8286442693
 21
31.7448714136
  0
LINE
  5
255
100
AcDbEntity
  8
0
100
AcDbLine
 62
7
  6
CONTINUOUS
 10
9.5398232248
 20
41.1490138783
 11
8.7311717241
 21
41.6158784781
  0
LINE
  5
256
100
AcDbEntity
  8
0
100
AcDbLine
 62
7
  6
CONTINUOUS
 10
8.1948568019
 20
42.1525886411
 11
8.5394861888
 21
41.9536211939
  0
LINE
  5
257
100
AcDbEntity
  8
0
100
AcDbLine
 62
7
  6
CONTINUOUS
 10
27.2117676374
 20
31.1734183538
 11
27.5563971579
 21
30.974450988
  0
LINE
  5
258
100
AcDbEntity
  8
0
100
AcDbLine
 62
7
  6
CONTINUOUS
 10
27.663217143
 20
30.9211689987
 11
27.2188386025
 21
31.1777252646
  0
LINE
  5
259
100
AcDbEntity
  8
0
100
AcDbLine
 62
7
  6
CONTINUOUS
 10
26.8441886824
 20
31.3940246035
 11
26.1785007989
 21
31.7783509876
  0
LINE
  5
25A
100
AcDbEntity
  8
0
100
AcDbLine
 62
7
  6
CONTINUOUS
 10
9.5868948423
 20
41.3573024481
 11
8.9215235088
 21
41.7414460761
  0
LINE
  5
25B
100
AcDbEntity
  8
0
100
AcDbLine
 62
7
  6
CONTINUOUS
 10
8.5465571538
 20
41.9579281046
 11
8.1021786133
 21
42.2144843705
  0
LINE
  5
25C
100
AcDbEntity
  8
0
100
AcDbLine
 62
7
  6
CONTINUOUS
 10
9.0424413771
 20
41.869972819
 11
9.6667766789
 21
41.4878017218
  0
LINE
  5
25D
100
AcDbEntity
  8
0
100
AcDbLine
 62
7
  6
CONTINUOUS
 10
9.0424413771
 20
41.869972819
 11
9.6666771068
 21
41.4844373765
  0
LWPOLYLINE
  5
25E
100
AcDbEntity
  8
0
100
AcDbPolyline
 62
7
  6
CONTINUOUS
 90
4
 70
0
 10
21.3647212695
 20
41.9354267807
 10
21.0737323405
 20
43.7916382158
 10
20.2482377654
 20
45.695528432
 10
19.0065348837
 20
47.3708687395
  0
LINE
  5
25F
100
AcDbEntity
  8
0
100
AcDbLine
 62
7
  6
CONTINUOUS
 10
23.712633507
 20
10.9539809282
 11
23.712633507
 21
23.1832349407
  0
LINE
  5
260
100
AcDbEntity
  8
0
100
AcDbLine
 62
7
  6
CONTINUOUS
 10
26.5071995306
 20
31.2495138195
 11
26.5071995306
 21
25.2745413364
  0
LINE
  5
261
100
AcDbEntity
  8
0
100
AcDbLine
 62
7
  6
CONTINUOUS
 10
26.6300388694
 20
25.2652564721
 11
26.6300388694
 21
31.2723364561
  0
LINE
  5
262
100
AcDbEntity
  8
0
100
AcDbLine
 62
7
  6
CONTINUOUS
 10
26.8559202449
 20
31.3241270448
 11
26.8559202449
 21
25.410986343
  0
LINE
  5
263
100
AcDbEntity
  8
0
100
AcDbLine
 62
7
  6
CONTINUOUS
 10
26.8592455703
 20
43.9769361836
 11
26.8592454653
 21
31.7468378746
  0
LINE
  5
264
100
AcDbEntity
  8
0
100
AcDbLine
 62
7
  6
CONTINUOUS
 10
27.2117676374
 20
25.1508670799
 11
27.2117676374
 21
31.1734183538
  0
LINE
  5
265
100
AcDbEntity
  8
0
100
AcDbLine
 62
7
  6
CONTINUOUS
 10
27.2188387109
 20
12.5217103997
 11
27.2188386025
 21
25.1547271756
  0
LINE
  5
266
100
AcDbEntity
  8
0
100
AcDbLine
 62
7
  6
CONTINUOUS
 10
27.2188386025
 20
31.1777252646
 11
27.2188387109
 21
43.8106801908
  0
LINE
  5
267
100
AcDbEntity
  8
0
100
AcDbLine
 62
7
  6
CONTINUOUS
 10
27.5563969741
 20
30.9744510941
 11
27.5563969741
 21
24.9518998159
  0
LINE
  5
268
100
AcDbEntity
  8
0
100
AcDbLine
 62
7
  6
CONTINUOUS
 10
26.8340368126
 20
31.3962629319
 11
26.8337008564
 21
25.3691390173
  0
LINE
  5
269
100
AcDbEntity
  8
0
100
AcDbLine
 62
7
  6
CONTINUOUS
 10
18.9687176529
 20
39.3582414916
 11
17.546328815
 21
39.8523752226
  0
LINE
  5
26A
100
AcDbEntity
  8
0
100
AcDbLine
 62
7
  6
CONTINUOUS
 10
17.2109434652
 20
40.6802695049
 11
18.3038834007
 21
40.0492746139
  0
LINE
  5
26B
100
AcDbEntity
  8
0
100
AcDbLine
 62
7
  6
CONTINUOUS
 10
27.6632176348
 20
24.8981706258
 11
27.6632177631
 21
9.9454202472
  0
LINE
  5
26C
100
AcDbEntity
  8
0
100
AcDbLine
 62
7
  6
CONTINUOUS
 10
27.6632177631
 20
45.8738572868
 11
27.6632176348
 21
30.9211687148
  0
LINE
  5
26D
100
AcDbEntity
  8
0
100
AcDbLine
 62
7
  6
CONTINUOUS
 10
28.9644127926
 20
11.7258239048
 11
28.9644127926
 21
44.1933806724
  0
LINE
  5
26E
100
AcDbEntity
  8
0
100
AcDbLine
 62
7
  6
CONTINUOUS
 10
26.8176022229
 20
31.6556565259
 11
26.8592454653
 21
31.7476821105
  0
LINE
  5
26F
100
AcDbEntity
  8
0
100
AcDbLine
 62
7
  6
CONTINUOUS
 10
26.6320585039
 20
31.2739145529
 11
26.637295755
 21
31.2780068226
  0
LINE
  5
270
100
AcDbEntity
  8
0
100
AcDbLine
 62
7
  6
CONTINUOUS
 10
27.2117676374
 20
31.1734183538
 11
27.2188386025
 21
31.1777252646
  0
LINE
  5
271
100
AcDbEntity
  8
0
100
AcDbLine
 62
7
  6
CONTINUOUS
 10
13.0568041412
 20
24.0336961833
 11
12.8222413331
 21
23.8982720912
  0
LINE
  5
272
100
AcDbEntity
  8
0
100
AcDbLine
 62
7
  6
CONTINUOUS
 10
27.2188386092
 20
31.9544478338
 11
26.8592454653
 21
31.7468378746
  0
LINE
  5
273
100
AcDbEntity
  8
0
100
AcDbLine
 62
7
  6
CONTINUOUS
 10
27.2188386086
 20
31.8873010442
 11
26.8176056972
 21
31.6556504975
  0
LINE
  5
274
100
AcDbEntity
  8
0
100
AcDbLine
 62
7
  6
CONTINUOUS
 10
26.7895329486
 20
31.452193776
 11
27.218838607
 21
31.7000520339
  0
LINE
  5
275
100
AcDbEntity
  8
0
100
AcDbLine
 62
7
  6
CONTINUOUS
 10
26.8559202449
 20
31.3241270448
 11
27.2188386055
 21
31.5336568073
  0
LINE
  5
276
100
AcDbEntity
  8
0
100
AcDbLine
 62
7
  6
CONTINUOUS
 10
33.8209053772
 20
35.2723949385
 11
35.6947255328
 21
36.354239052
  0
LINE
  5
277
100
AcDbEntity
  8
0
100
AcDbLine
 62
7
  6
CONTINUOUS
 10
26.637295755
 20
31.2780068226
 11
26.8354982288
 21
31.3906525971
  0
LINE
  5
278
100
AcDbEntity
  8
0
100
AcDbLine
 62
7
  6
CONTINUOUS
 10
26.8441886824
 20
31.3940246035
 11
26.8354982288
 21
31.3906525971
  0
LINE
  5
279
100
AcDbEntity
  8
0
100
AcDbLine
 62
7
  6
CONTINUOUS
 10
19.0065348837
 20
47.3708687395
 11
17.5464156857
 21
48.5489811614
  0
LWPOLYLINE
  5
27A
100
AcDbEntity
  8
0
100
AcDbPolyline
 62
7
  6
CONTINUOUS
 90
5
 70
0
 10
17.5463285913
 20
48.4274785461
 10
18.9687593294
 20
47.2791720258
 10
20.1719161866
 20
45.6558044744
 10
20.9762011645
 20
43.8021719125
 10
21.2594463366
 20
41.9962059166
  0
LINE
  5
27B
100
AcDbEntity
  8
0
100
AcDbLine
 62
7
  6
CONTINUOUS
 10
33.8209053996
 20
46.3212266315
 11
33.8209053363
 21
15.1087083105
  0
LINE
  5
27C
100
AcDbEntity
  8
0
100
AcDbLine
 62
7
  6
CONTINUOUS
 10
35.6947255328
 20
32.1775566488
 11
39.6910358645
 21
34.4848137221
  0
LINE
  5
27D
100
AcDbEntity
  8
0
100
AcDbLine
 62
7
  6
CONTINUOUS
 10
35.4484321541
 20
47.9639338595
 11
35.6947255328
 21
36.354239052
  0
LINE
  5
27E
100
AcDbEntity
  8
0
100
AcDbLine
 62
7
  6
CONTINUOUS
 10
35.6947255328
 20
28.5294362461
 11
35.6947255328
 21
36.354239052
  0
LINE
  5
27F
100
AcDbEntity
  8
0
100
AcDbLine
 62
7
  6
CONTINUOUS
 10
35.6947255328
 20
28.5294362461
 11
35.4484322188
 21
17.2041305394
  0
LINE
  5
280
100
AcDbEntity
  8
0
100
AcDbLine
 62
7
  6
CONTINUOUS
 10
42.0844054245
 20
36.6689269371
 11
42.2800520816
 21
36.8591815801
  0
LINE
  5
281
100
AcDbEntity
  8
0
100
AcDbLine
 62
7
  6
CONTINUOUS
 10
42.0844054245
 20
36.6689269371
 11
41.4291679246
 21
36.081918392
  0
LINE
  5
282
100
AcDbEntity
  8
0
100
AcDbLine
 62
7
  6
CONTINUOUS
 10
26.843078638
 20
25.3678003498
 11
26.8462336671
 21
25.3698458687
  0
LINE
  5
283
100
AcDbEntity
  8
0
100
AcDbLine
 62
7
  6
CONTINUOUS
 10
27.2117676374
 20
25.6164337045
 11
26.8559202449
 21
25.410986343
  0
LINE
  5
284
100
AcDbEntity
  8
0
100
AcDbLine
 62
7
  6
CONTINUOUS
 10
27.2117676374
 20
25.5248351807
 11
23.5763425438
 21
23.4259340531
  0
LINE
  5
285
100
AcDbEntity
  8
0
100
AcDbLine
 62
7
  6
CONTINUOUS
 10
23.712633507
 20
23.1840791766
 11
27.2117676374
 21
25.2042931497
  0
LINE
  5
286
100
AcDbEntity
  8
0
100
AcDbLine
 62
7
  6
CONTINUOUS
 10
16.5567884721
 20
17.9715093102
 11
16.322225664
 21
17.8360852182
  0
LINE
  5
287
100
AcDbEntity
  8
0
100
AcDbLine
 62
7
  6
CONTINUOUS
 10
33.8209053613
 20
27.4475921234
 11
35.6947255328
 21
28.5294362461
  0
LINE
  5
288
100
AcDbEntity
  8
0
100
AcDbLine
 62
7
  6
CONTINUOUS
 10
26.8393301189
 20
25.3658890359
 11
27.2117676374
 21
25.5806319657
  0
LINE
  5
289
100
AcDbEntity
  8
0
100
AcDbLine
 62
7
  6
CONTINUOUS
 10
26.8337008564
 20
25.3691390173
 11
26.637295755
 21
25.2675496979
  0
LINE
  5
28A
100
AcDbEntity
  8
0
100
AcDbLine
 62
7
  6
CONTINUOUS
 10
26.637295755
 20
25.2675496979
 11
26.6320588027
 21
25.265894785
  0
LINE
  5
28B
100
AcDbEntity
  8
0
100
AcDbLine
 62
7
  6
CONTINUOUS
 10
16.1239397534
 20
48.9216122771
 11
17.5463285913
 21
48.4274785461
  0
LWPOLYLINE
  5
28C
100
AcDbEntity
  8
0
100
AcDbPolyline
 62
7
  6
CONTINUOUS
 90
5
 70
0
 10
17.5464156857
 20
48.5489811614
 10
16.0897883593
 20
49.0565642895
 10
14.8512520927
 20
48.8192889367
 10
14.0217490256
 20
47.870855548
 10
13.7279361368
 20
46.3444269879
  0
LWPOLYLINE
  5
28D
100
AcDbEntity
  8
0
100
AcDbPolyline
 62
7
  6
CONTINUOUS
 90
3
 70
0
 10
41.180444118
 20
36.1412720372
 10
39.8970737507
 20
34.6139048881
 10
39.6909291354
 20
34.4849987411
  0
LINE
  5
28E
100
AcDbEntity
  8
0
100
AcDbLine
 62
7
  6
CONTINUOUS
 10
43.4929181993
 20
38.1377897436
 11
42.2800520816
 21
36.8591815801
  0
LINE
  5
28F
100
AcDbEntity
  8
0
100
AcDbLine
 62
7
  6
CONTINUOUS
 10
9.5652710684
 20
57.7017046437
 11
26.200124974
 21
48.097784533
  0
LINE
  5
290
100
AcDbEntity
  8
0
100
AcDbLine
 62
7
  6
CONTINUOUS
 10
20.7634838069
 20
52.862387834
 11
16.4037787829
 21
55.3794077606
  0
LINE
  5
291
100
AcDbEntity
  8
0
100
AcDbLine
 62
7
  6
CONTINUOUS
 10
32.9418579194
 20
53.033504867
 11
32.6792688528
 21
52.9591985707
  0
LINE
  5
292
100
AcDbEntity
  8
0
100
AcDbLine
 62
7
  6
CONTINUOUS
 10
34.6556002543
 20
53.4445647954
 11
32.9418579194
 21
53.033504867
  0
LINE
  5
293
100
AcDbEntity
  8
0
100
AcDbLine
 62
7
  6
CONTINUOUS
 10
23.3074761598
 20
56.9931248591
 11
23.4745976211
 21
56.8966394213
  0
LWPOLYLINE
  5
294
100
AcDbEntity
  8
0
100
AcDbPolyline
 62
7
  6
CONTINUOUS
 90
8
 70
0
 10
34.6410586694
 20
51.4783571043
 10
35.8148975488
 20
50.6885024728
 10
38.0406667302
 20
48.5213915717
 10
39.8970121146
 20
45.7805879456
 10
41.1867282705
 20
42.7510255254
 10
41.7596004983
 20
39.7868995698
 10
41.7575706266
 20
38.4296762624
 10
41.180444118
 20
36.1412720372
  0
LINE
  5
295
100
AcDbEntity
  8
0
100
AcDbLine
 62
7
  6
CONTINUOUS
 10
29.0125389231
 20
55.7504787083
 11
33.1828307337
 21
52.3680593485
  0
LINE
  5
296
100
AcDbEntity
  8
0
100
AcDbLine
 62
7
  6
CONTINUOUS
 10
27.2770040269
 20
9.6395607897
 11
27.6632177631
 21
9.9454202472
  0
LINE
  5
297
100
AcDbEntity
  8
0
100
AcDbLine
 62
7
  6
CONTINUOUS
 10
27.218838707
 20
12.9782773608
 11
23.712633507
 21
10.9539809282
  0
LINE
  5
298
100
AcDbEntity
  8
0
100
AcDbLine
 62
7
  6
CONTINUOUS
 10
35.4484322188
 20
17.2041305394
 11
33.8209053387
 21
16.264483066
  0
LINE
  5
299
100
AcDbEntity
  8
0
100
AcDbLine
 62
7
  6
CONTINUOUS
 10
23.0974388468
 20
9.60908551
 11
27.1676918073
 21
11.9590331252
  0
LINE
  5
29A
100
AcDbEntity
  8
0
100
AcDbLine
 62
7
  6
CONTINUOUS
 10
34.6214444337
 20
15.4770686233
 11
33.8028019179
 21
15.0044279678
  0
LINE
  5
29B
100
AcDbEntity
  8
0
100
AcDbLine
 62
7
  6
CONTINUOUS
 10
32.7853454207
 20
12.8197783865
 11
27.2770065434
 21
9.6395564362
  0
LINE
  5
29C
100
AcDbEntity
  8
0
100
AcDbLine
 62
7
  6
CONTINUOUS
 10
18.4782595861
 20
60.8575554007
 11
22.6485513967
 21
59.424645499
  0
ARC
  5
29D
100
AcDbEntity
  8
0
100
AcDbCircle
 62
7
  6
CONTINUOUS
 10
185.8414452486
 20
327.3818860037
 40
335.8197434061
100
AcDbArc
 50
238.3579329821
 51
239.9903707205
  0
ARC
  5
29E
100
AcDbEntity
  8
0
100
AcDbCircle
 62
7
  6
CONTINUOUS
 10
179.0218490247
 20
314.9283994737
 40
321.7908463997
100
AcDbArc
 50
238.0998555864
 51
238.2281938808
  0
ARC
  5
29F
100
AcDbEntity
  8
0
100
AcDbCircle
 62
7
  6
CONTINUOUS
 10
177.5172220145
 20
313.0417057668
 40
319.2386671483
100
AcDbArc
 50
239.9968519709
 51
241.717089549
  0
ARC
  5
2A0
100
AcDbEntity
  8
0
100
AcDbCircle
 62
7
  6
CONTINUOUS
 10
37.6151417442
 20
35.1771579976
 40
28.3133773417
100
AcDbArc
 50
241.7163673862
 51
244.1947108182
  0
ARC
  5
2A1
100
AcDbEntity
  8
0
100
AcDbCircle
 62
7
  6
CONTINUOUS
 10
25.4370487848
 20
35.0361881496
 40
10.2642090654
100
AcDbArc
 50
0.0001658868
 51
0.2483118949
  0
ARC
  5
2A2
100
AcDbEntity
  8
0
100
AcDbCircle
 62
7
  6
CONTINUOUS
 10
25.5079267023
 20
35.0361912059
 40
10.1933311479
100
AcDbArc
 50
359.7401758286
 51
0.0001498612
  0
ARC
  5
2A3
100
AcDbEntity
  8
0
100
AcDbCircle
 62
7
  6
CONTINUOUS
 10
12.2693444779
 20
36.5101425548
 40
6.2095258808
100
AcDbArc
 50
122.7591522496
 51
123.0693315117
  0
ARC
  5
2A4
100
AcDbEntity
  8
0
100
AcDbCircle
 62
7
  6
CONTINUOUS
 10
12.9018601177
 20
18.6338061712
 40
5.2463397658
100
AcDbArc
 50
0.1142528255
 51
1.4408883922
  0
ARC
  5
2A5
100
AcDbEntity
  8
0
100
AcDbCircle
 62
7
  6
CONTINUOUS
 10
39.2531437546
 20
38.505980429
 40
3.2574589607
100
AcDbArc
 50
300.0286294191
 51
311.9136298823
  0
ARC
  5
2A6
100
AcDbEntity
  8
0
100
AcDbCircle
 62
7
  6
CONTINUOUS
 10
24.0164288745
 20
12.497164084
 40
3.2025039082
100
AcDbArc
 50
0.0004860409
 51
0.4391607651
  0
ARC
  5
2A7
100
AcDbEntity
  8
0
100
AcDbCircle
 62
7
  6
CONTINUOUS
 10
8.7441358026
 20
41.5588298713
 40
0.0473378245
100
AcDbArc
 50
180.1414891249
 51
190.23748648
  0
SPLINE
  5
2A8
100
AcDbEntity
  8
0
100
AcDbSpline
 62
7
  6
CONTINUOUS
 70
0
 71
3
 72
14
 73
10
 74
0
 42
0.0000001
 43
0.0000001
 44
0.0000000001
 40
0.0
 40
0.0
 40
0.0
 40
0.0
 40
0.1083237891
 40
0.2186427327
 40
0.3327799799
 40
0.4522225437
 40
0.5781191069
 40
0.7112646335
 40
1.0
 40
1.0
 40
1.0
 40
1.0
 10
9.5225257995
 20
55.6816773883
 30
0.0
 10
9.4743150585
 20
55.6538375633
 30
0.0
 10
9.3815857813
 20
55.5892733528
 30
0.0
 10
9.2588102307
 20
55.469183325
 30
0.0
 10
9.1529710071
 20
55.3267837388
 30
0.0
 10
9.0649436846
 20
55.1637021578
 30
0.0
 10
8.9954805389
 20
54.9814604679
 30
0.0
 10
8.9264523824
 20
54.7080410803
 30
0.0
 10
8.9073663591
 20
54.4903129263
 30
0.0
 10
8.9061504021
 20
54.3419260243
 30
0.0
  0
SPLINE
  5
2A9
100
AcDbEntity
  8
0
100
AcDbSpline
 62
7
  6
CONTINUOUS
 70
0
 71
3
 72
9
 73
5
 74
0
 42
0.0000001
 43
0.0000001
 44
0.0000000001
 40
0.0
 40
0.0
 40
0.0
 40
0.0
 40
0.2643182229
 40
1.0
 40
1.0
 40
1.0
 40
1.0
 10
8.7262023142
 20
41.6116323549
 30
0.0
 10
8.7236343075
 20
41.6094381206
 30
0.0
 10
8.7142666683
 20
41.6007726713
 30
0.0
 10
8.7062281684
 20
41.5904126845
 30
0.0
 10
8.7022042632
 20
41.5819159424
 30
0.0
  0
SPLINE
  5
2AA
100
AcDbEntity
  8
0
100
AcDbSpline
 62
7
  6
CONTINUOUS
 70
0
 71
3
 72
9
 73
5
 74
0
 42
0.0000001
 43
0.0000001
 44
0.0000000001
 40
0.0
 40
0.0
 40
0.0
 40
0.0
 40
0.2603904071
 40
1.0
 40
1.0
 40
1.0
 40
1.0
 10
8.7022042632
 20
41.5819159424
 30
0.0
 10
8.7013151111
 20
41.5800384387
 30
0.0
 10
8.6982619481
 20
41.5726662615
 30
0.0
 10
8.6967810567
 20
41.564613583
 30
0.0
 10
8.6967981224
 20
41.558712973
 30
0.0
  0
SPLINE
  5
2AB
100
AcDbEntity
  8
0
100
AcDbSpline
 62
7
  6
CONTINUOUS
 70
0
 71
3
 72
8
 73
4
 74
0
 42
0.0000001
 43
0.0000001
 44
0.0000000001
 40
0.0
 40
0.0
 40
0.0
 40
0.0
 40
1.0
 40
1.0
 40
1.0
 40
1.0
 10
8.9174034713
 20
41.7402653366
 30
0.0
 10
8.9142588344
 20
41.7381425692
 30
0.0
 10
8.9113370215
 20
41.7356376001
 30
0.0
 10
8.9087868473
 20
41.7328284199
 30
0.0
  0
SPLINE
  5
2AC
100
AcDbEntity
  8
0
100
AcDbSpline
 62
7
  6
CONTINUOUS
 70
0
 71
3
 72
15
 73
11
 74
0
 42
0.0000001
 43
0.0000001
 44
0.0000000001
 40
0.0
 40
0.0
 40
0.0
 40
0.0
 40
0.1080132326
 40
0.21806454
 40
0.3320080066
 40
0.4513520154
 40
0.5772560744
 40
0.7105118026
 40
0.8514951588
 40
1.0
 40
1.0
 40
1.0
 40
1.0
 10
12.822245549
 20
23.8982647895
 30
0.0
 10
12.7648646663
 20
23.8651276275
 30
0.0
 10
12.6545301389
 20
23.7881481217
 30
0.0
 10
12.508744153
 20
23.6446733404
 30
0.0
 10
12.3833941699
 20
23.4743815422
 30
0.0
 10
12.2795524086
 20
23.2792390337
 30
0.0
 10
12.1981266108
 20
23.0611485427
 30
0.0
 10
12.1396665449
 20
22.8222175645
 30
0.0
 10
12.1047368275
 20
22.5648324284
 30
0.0
 10
12.0973494605
 20
22.3871231934
 30
0.0
 10
12.0973494605
 20
22.2960212955
 30
0.0
  0
SPLINE
  5
2AD
100
AcDbEntity
  8
0
100
AcDbSpline
 62
7
  6
CONTINUOUS
 70
0
 71
3
 72
9
 73
5
 74
0
 42
0.0000001
 43
0.0000001
 44
0.0000000001
 40
0.0
 40
0.0
 40
0.0
 40
0.0
 40
0.2993993698
 40
1.0
 40
1.0
 40
1.0
 40
1.0
 10
8.7126591518
 20
35.5479915971
 30
0.0
 10
8.7102455114
 20
35.5500029385
 30
0.0
 10
8.7026786297
 20
35.5570980714
 30
0.0
 10
8.6968305293
 20
35.5672807782
 30
0.0
 10
8.696797951
 20
35.5746326741
 30
0.0
  0
SPLINE
  5
2AE
100
AcDbEntity
  8
0
100
AcDbSpline
 62
7
  6
CONTINUOUS
 70
0
 71
3
 72
9
 73
5
 74
0
 42
0.0000001
 43
0.0000001
 44
0.0000000001
 40
0.0
 40
0.0
 40
0.0
 40
0.0
 40
0.5145167383
 40
1.0
 40
1.0
 40
1.0
 40
1.0
 10
14.4482177739
 20
31.4159832185
 30
0.0
 10
13.4218418945
 20
32.0624907762
 30
0.0
 10
11.4623393709
 20
33.3763544657
 30
0.0
 10
9.5924241405
 20
34.8158318251
 30
0.0
 10
8.7126591518
 20
35.5479915971
 30
0.0
  0
SPLINE
  5
2AF
100
AcDbEntity
  8
0
100
AcDbSpline
 62
7
  6
CONTINUOUS
 70
0
 71
3
 72
9
 73
5
 74
0
 42
0.0000001
 43
0.0000001
 44
0.0000000001
 40
0.0
 40
0.0
 40
0.0
 40
0.0
 40
0.5095653812
 40
1.0
 40
1.0
 40
1.0
 40
1.0
 10
26.5071995306
 20
25.2745413364
 30
0.0
 10
25.2024211686
 20
25.8141151337
 30
0.0
 10
22.6644450263
 20
26.9286960837
 30
0.0
 10
20.1818818995
 20
28.1623351002
 30
0.0
 10
18.9812566044
 20
28.798891236
 30
0.0
  0
SPLINE
  5
2B0
100
AcDbEntity
  8
0
100
AcDbSpline
 62
7
  6
CONTINUOUS
 70
0
 71
3
 72
10
 73
6
 74
0
 42
0.0000001
 43
0.0000001
 44
0.0000000001
 40
0.0
 40
0.0
 40
0.0
 40
0.0
 40
0.4717318294
 40
0.7412382534
 40
1.0
 40
1.0
 40
1.0
 40
1.0
 10
26.6320588027
 20
25.265894785
 30
0.0
 10
26.613013382
 20
25.2598761999
 30
0.0
 10
26.5807583535
 20
25.2576266941
 30
0.0
 10
26.5388778333
 20
25.2638442872
 30
0.0
 10
26.5173258949
 20
25.2703582991
 30
0.0
 10
26.5071995306
 20
25.2745413364
 30
0.0
  0
SPLINE
  5
2B1
100
AcDbEntity
  8
0
100
AcDbSpline
 62
7
  6
CONTINUOUS
 70
0
 71
3
 72
15
 73
11
 74
0
 42
0.0000001
 43
0.0000001
 44
0.0000000001
 40
0.0
 40
0.0
 40
0.0
 40
0.0
 40
0.1086127082
 40
0.219169364
 40
0.3334520184
 40
0.4529382249
 40
0.5787607563
 40
0.711660851
 40
0.8520479857
 40
1.0
 40
1.0
 40
1.0
 40
1.0
 10
11.9461925292
 20
25.1245363202
 30
0.0
 10
12.0260414942
 20
25.1706357878
 30
0.0
 10
12.1952808768
 20
25.2503094796
 30
0.0
 10
12.468702778
 20
25.3278919558
 30
0.0
 10
12.7599599233
 20
25.3632955544
 30
0.0
 10
13.0660822757
 20
25.3566176686
 30
0.0
 10
13.3842556502
 20
25.3080041522
 30
0.0
 10
13.7116686715
 20
25.218274349
 30
0.0
 10
14.0453688546
 20
25.0882284704
 30
0.0
 10
14.2645172466
 20
24.9783697359
 30
0.0
 10
14.3743882298
 20
24.917519796
 30
0.0
  0
SPLINE
  5
2B2
100
AcDbEntity
  8
0
100
AcDbSpline
 62
7
  6
CONTINUOUS
 70
0
 71
3
 72
19
 73
15
 74
0
 42
0.0000001
 43
0.0000001
 44
0.0000000001
 40
0.0
 40
0.0
 40
0.0
 40
0.0
 40
0.0554203127
 40
0.1134183572
 40
0.1737626941
 40
0.2361557785
 40
0.3656167807
 40
0.4987152972
 40
0.631993099
 40
0.7619785503
 40
0.8247421617
 40
0.885537964
 40
0.9440636862
 40
1.0
 40
1.0
 40
1.0
 40
1.0
 10
14.3743882298
 20
24.917519796
 30
0.0
 10
14.4944501389
 20
24.8510258069
 30
0.0
 10
14.734118685
 20
24.7038187202
 30
0.0
 10
15.0820970813
 20
24.4500249522
 30
0.0
 10
15.4237693933
 20
24.1603065094
 30
0.0
 10
15.8719351258
 20
23.7247541821
 30
0.0
 10
16.3936442397
 20
23.1091463717
 30
0.0
 10
16.9370962212
 20
22.2908078467
 30
0.0
 10
17.384886792
 20
21.414995227
 30
0.0
 10
17.6673639747
 20
20.6563065325
 30
0.0
 10
17.829438025
 20
20.0492990697
 30
0.0
 10
17.9164133743
 20
19.6064541404
 30
0.0
 10
17.9692109127
 20
19.175284746
 30
0.0
 10
17.9817299626
 20
18.8917223628
 30
0.0
 10
17.9817299626
 20
18.7531990671
 30
0.0
  0
SPLINE
  5
2B3
100
AcDbEntity
  8
0
100
AcDbSpline
 62
7
  6
CONTINUOUS
 70
0
 71
3
 72
25
 73
21
 74
0
 42
0.0000001
 43
0.0000001
 44
0.0000000001
 40
0.0
 40
0.0
 40
0.0
 40
0.0
 40
0.0216321683
 40
0.0438810297
 40
0.0906865739
 40
0.1154847306
 40
0.1412784971
 40
0.1959319507
 40
0.2546972154
 40
0.3173068185
 40
0.3832781197
 40
0.4519654065
 40
0.5226048743
 40
0.5943551293
 40
0.666332036
 40
0.7376427632
 40
0.807420822
 40
0.8748515607
 40
0.939245946
 40
1.0
 40
1.0
 40
1.0
 40
1.0
 10
43.4929058927
 20
38.1378069058
 30
0.0
 10
43.5772894551
 20
38.2267663126
 30
0.0
 10
43.7383707713
 20
38.4170839262
 30
0.0
 10
44.0271317682
 20
38.8432427338
 30
0.0
 10
44.2566705166
 20
39.3272827432
 30
0.0
 10
44.4279673521
 20
39.8524905184
 30
0.0
 10
44.5673331652
 20
40.4331546158
 30
0.0
 10
44.6643512886
 20
41.2189995119
 30
0.0
 10
44.6610811194
 20
42.2189315451
 30
0.0
 10
44.5408073333
 20
43.2759471479
 30
0.0
 10
44.3058885328
 20
44.3707910275
 30
0.0
 10
43.9606807873
 20
45.4835829451
 30
0.0
 10
43.5115607632
 20
46.593936174
 30
0.0
 10
42.9667909272
 20
47.6814523481
 30
0.0
 10
42.3364010929
 20
48.7261114166
 30
0.0
 10
41.6319807168
 20
49.7086790844
 30
0.0
 10
40.8664969606
 20
50.6110108171
 30
0.0
 10
40.0539672959
 20
51.4167221848
 30
0.0
 10
39.2093315303
 20
52.1107263282
 30
0.0
 10
38.616228596
 20
52.5030156422
 30
0.0
 10
38.3179989622
 20
52.6751947063
 30
0.0
  0
SPLINE
  5
2B4
100
AcDbEntity
  8
0
100
AcDbSpline
 62
7
  6
CONTINUOUS
 70
0
 71
3
 72
15
 73
11
 74
0
 42
0.0000001
 43
0.0000001
 44
0.0000000001
 40
0.0
 40
0.0
 40
0.0
 40
0.0
 40
0.119059371
 40
0.2449707894
 40
0.3753161479
 40
0.5074478223
 40
0.6385639043
 40
0.7659293162
 40
0.8870957377
 40
1.0
 40
1.0
 40
1.0
 40
1.0
 10
25.1267232807
 20
47.7695846462
 30
0.0
 10
25.2744074943
 20
47.6610275683
 30
0.0
 10
25.5628449324
 20
47.4161881508
 30
0.0
 10
25.9569513912
 20
46.9921281642
 30
0.0
 10
26.3150075714
 20
46.5118673365
 30
0.0
 10
26.625846195
 20
45.9905136829
 30
0.0
 10
26.8797554263
 20
45.4442189166
 30
0.0
 10
27.0689237786
 20
44.8899378473
 30
0.0
 10
27.1873501156
 20
44.3449844209
 30
0.0
 10
27.2179150169
 20
43.9844921536
 30
0.0
 10
27.2188387109
 20
43.8106801908
 30
0.0
  0
SPLINE
  5
2B5
100
AcDbEntity
  8
0
100
AcDbSpline
 62
7
  6
CONTINUOUS
 70
0
 71
3
 72
11
 73
7
 74
0
 42
0.0000001
 43
0.0000001
 44
0.0000000001
 40
0.0
 40
0.0
 40
0.0
 40
0.0
 40
0.237633857
 40
0.4836701382
 40
0.7378999934
 40
1.0
 40
1.0
 40
1.0
 40
1.0
 10
10.6394269829
 20
56.1369573706
 30
0.0
 10
11.8613938647
 20
55.6172559042
 30
0.0
 10
14.3140435484
 20
54.4767512207
 30
0.0
 10
17.9426731144
 20
52.5136983936
 30
0.0
 10
21.5705742822
 20
50.2766463999
 30
0.0
 10
23.943690333
 20
48.633010868
 30
0.0
 10
25.1267232807
 20
47.7695846462
 30
0.0
  0
SPLINE
  5
2B6
100
AcDbEntity
  8
0
100
AcDbSpline
 62
7
  6
CONTINUOUS
 70
0
 71
3
 72
9
 73
5
 74
0
 42
0.0000001
 43
0.0000001
 44
0.0000000001
 40
0.0
 40
0.0
 40
0.0
 40
0.0
 40
0.4914570599
 40
1.0
 40
1.0
 40
1.0
 40
1.0
 10
16.0370957289
 20
60.6363499785
 30
0.0
 10
17.2632897966
 20
60.1140636636
 30
0.0
 10
19.7242001727
 20
58.9698649451
 30
0.0
 10
22.1122280487
 20
57.6811474603
 30
0.0
 10
23.3074761598
 20
56.9931248591
 30
0.0
  0
SPLINE
  5
2B7
100
AcDbEntity
  8
0
100
AcDbSpline
 62
7
  6
CONTINUOUS
 70
0
 71
3
 72
9
 73
5
 74
0
 42
0.0000001
 43
0.0000001
 44
0.0000000001
 40
0.0
 40
0.0
 40
0.0
 40
0.0
 40
0.2428718502
 40
1.0
 40
1.0
 40
1.0
 40
1.0
 10
33.6009624197
 20
51.9909086449
 30
0.0
 10
33.6879341092
 20
51.9554715478
 30
0.0
 10
34.0432890996
 20
51.8028743463
 30
0.0
 10
34.3875129921
 20
51.6247384578
 30
0.0
 10
34.6410586694
 20
51.4783571043
 30
0.0
  0
SPLINE
  5
2B8
100
AcDbEntity
  8
0
100
AcDbSpline
 62
7
  6
CONTINUOUS
 70
0
 71
3
 72
15
 73
11
 74
0
 42
0.0000001
 43
0.0000001
 44
0.0000000001
 40
0.0
 40
0.0
 40
0.0
 40
0.0
 40
0.1485478885
 40
0.2895079271
 40
0.4227344567
 40
0.5486400939
 40
0.6679989199
 40
0.7819394056
 40
0.8919886269
 40
1.0
 40
1.0
 40
1.0
 40
1.0
 10
33.8209053363
 20
15.1087083105
 30
0.0
 10
33.8209053266
 20
14.9785248863
 30
0.0
 10
33.8103768165
 20
14.7246352255
 30
0.0
 10
33.7604467314
 20
14.3569538351
 30
0.0
 10
33.6769370314
 20
14.0156679195
 30
0.0
 10
33.5605946041
 20
13.7041317549
 30
0.0
 10
33.4122925275
 20
13.4253191763
 30
0.0
 10
33.2331870518
 20
13.1820563656
 30
0.0
 10
33.0249306024
 20
12.9770961051
 30
0.0
 10
32.8673158673
 20
12.8671180344
 30
0.0
 10
32.7853371003
 20
12.8197928266
 30
0.0
  0
SPLINE
  5
2B9
100
AcDbEntity
  8
0
100
AcDbSpline
 62
7
  6
CONTINUOUS
 70
0
 71
3
 72
15
 73
11
 74
0
 42
0.0000001
 43
0.0000001
 44
0.0000000001
 40
0.0
 40
0.0
 40
0.0
 40
0.0
 40
0.1189642441
 40
0.2448668605
 40
0.3753016683
 40
0.5075472552
 40
0.6387623042
 40
0.7661732429
 40
0.8872665887
 40
1.0
 40
1.0
 40
1.0
 40
1.0
 10
30.744978052
 20
52.1449422613
 30
0.0
 10
30.962805473
 20
51.9862041025
 30
0.0
 10
31.3883148946
 20
51.6273810615
 30
0.0
 10
31.9695241905
 20
51.004425997
 30
0.0
 10
32.4975137898
 20
50.2978235942
 30
0.0
 10
32.9554533482
 20
49.5300132604
 30
0.0
 10
33.3289118579
 20
48.7252615722
 30
0.0
 10
33.6060753902
 20
47.9089072138
 30
0.0
 10
33.7781882694
 20
47.1068599408
 30
0.0
 10
33.8209053804
 20
46.5766401098
 30
0.0
 10
33.8209053996
 20
46.3212266315
 30
0.0
  0
SPLINE
  5
2BA
100
AcDbEntity
  8
0
100
AcDbSpline
 62
7
  6
CONTINUOUS
 70
0
 71
3
 72
9
 73
5
 74
0
 42
0.0000001
 43
0.0000001
 44
0.0000000001
 40
0.0
 40
0.0
 40
0.0
 40
0.0
 40
0.492509292
 40
1.0
 40
1.0
 40
1.0
 40
1.0
 10
23.4745976211
 20
56.8966394213
 30
0.0
 10
24.7089712338
 20
56.1818842676
 30
0.0
 10
27.1746282208
 20
54.6595451776
 30
0.0
 10
29.5571511488
 20
53.0105514304
 30
0.0
 10
30.744978052
 20
52.1449422613
 30
0.0
  0
SPLINE
  5
2BB
100
AcDbEntity
  8
0
100
AcDbSpline
 62
7
  6
CONTINUOUS
 70
0
 71
3
 72
13
 73
9
 74
0
 42
0.0000001
 43
0.0000001
 44
0.0000000001
 40
0.0
 40
0.0
 40
0.0
 40
0.0
 40
0.1140472301
 40
0.2293005328
 40
0.3468925735
 40
0.467861508
 40
0.7230527145
 40
1.0
 40
1.0
 40
1.0
 40
1.0
 10
17.039648678
 20
60.796518605
 30
0.0
 10
17.088502847
 20
60.8247255811
 30
0.0
 10
17.1904701506
 20
60.8752125016
 30
0.0
 10
17.3529714757
 20
60.9315911434
 30
0.0
 10
17.5244796027
 20
60.9685189185
 30
0.0
 10
17.7680638775
 20
60.9919487149
 30
0.0
 10
18.0927168851
 20
60.9691042439
 30
0.0
 10
18.3487006767
 20
60.902059441
 30
0.0
 10
18.4782595861
 20
60.8575554007
 30
0.0
  0
SPLINE
  5
2BC
100
AcDbEntity
  8
0
100
AcDbSpline
 62
7
  6
CONTINUOUS
 70
0
 71
3
 72
13
 73
9
 74
0
 42
0.0000001
 43
0.0000001
 44
0.0000000001
 40
0.0
 40
0.0
 40
0.0
 40
0.0
 40
0.1121907051
 40
0.2258333377
 40
0.3422698599
 40
0.4626993324
 40
0.7189838386
 40
1.0
 40
1.0
 40
1.0
 40
1.0
 10
9.2569063832
 20
56.1412999393
 30
0.0
 10
9.3032643651
 20
56.1680698435
 30
0.0
 10
9.4005307568
 20
56.2154138833
 30
0.0
 10
9.5563295411
 20
56.2659699089
 30
0.0
 10
9.7213420792
 20
56.2960468926
 30
0.0
 10
9.9568494078
 20
56.3087861952
 30
0.0
 10
10.2708741357
 20
56.2694875272
 30
0.0
 10
10.5156917986
 20
56.1886209349
 30
0.0
 10
10.6394269829
 20
56.1369573706
 30
0.0
  0
SPLINE
  5
2BD
100
AcDbEntity
  8
0
100
AcDbSpline
 62
7
  6
CONTINUOUS
 70
0
 71
3
 72
11
 73
7
 74
0
 42
0.0000001
 43
0.0000001
 44
0.0000000001
 40
0.0
 40
0.0
 40
0.0
 40
0.0
 40
0.2356475507
 40
0.4743681186
 40
0.7254387342
 40
1.0
 40
1.0
 40
1.0
 40
1.0
 10
7.9019185646
 20
56.6610030332
 30
0.0
 10
7.9019080146
 20
56.7047391755
 30
0.0
 10
7.9094164629
 20
56.7930115453
 30
0.0
 10
7.9457715424
 20
56.923480777
 30
0.0
 10
8.0096846074
 20
57.0510567412
 30
0.0
 10
8.0688273582
 20
57.1293477772
 30
0.0
 10
8.1025430772
 20
57.1675580018
 30
0.0
  0
SPLINE
  5
2BE
100
AcDbEntity
  8
0
100
AcDbSpline
 62
7
  6
CONTINUOUS
 70
0
 71
3
 72
14
 73
10
 74
0
 42
0.0000001
 43
0.0000001
 44
0.0000000001
 40
0.0
 40
0.0
 40
0.0
 40
0.0
 40
0.1119441208
 40
0.2253687188
 40
0.3416534373
 40
0.461996883
 40
0.7182941897
 40
0.8559118236
 40
1.0
 40
1.0
 40
1.0
 40
1.0
 10
13.9967366539
 20
60.6532445164
 30
0.0
 10
14.0650654415
 20
60.69268978
 30
0.0
 10
14.2084878377
 20
60.7624038645
 30
0.0
 10
14.4383849109
 20
60.8364299568
 30
0.0
 10
14.681994292
 20
60.8798547627
 30
0.0
 10
15.0297449489
 20
60.8970597454
 30
0.0
 10
15.392473568
 20
60.8494471933
 30
0.0
 10
15.7577379287
 20
60.7467161603
 30
0.0
 10
15.943666041
 20
60.6761454964
 30
0.0
 10
16.0370957289
 20
60.6363499785
 30
0.0
  0
SPLINE
  5
2BF
100
AcDbEntity
  8
0
100
AcDbSpline
 62
7
  6
CONTINUOUS
 70
0
 71
3
 72
11
 73
7
 74
0
 42
0.0000001
 43
0.0000001
 44
0.0000000001
 40
0.0
 40
0.0
 40
0.0
 40
0.0
 40
0.263002492
 40
0.5152753383
 40
0.7596610764
 40
1.0
 40
1.0
 40
1.0
 40
1.0
 10
26.2001249867
 20
9.4108888123
 30
0.0
 10
26.2977612991
 20
9.4040379609
 30
0.0
 10
26.4901845441
 20
9.4026404372
 30
0.0
 10
26.771379955
 20
9.4401340575
 30
0.0
 10
27.0357191324
 20
9.5171626549
 30
0.0
 10
27.1995536539
 20
9.5948245297
 30
0.0
 10
27.2770013657
 20
9.639565398
 30
0.0
  0
SPLINE
  5
2C0
100
AcDbEntity
  8
0
100
AcDbSpline
 62
7
  6
CONTINUOUS
 70
0
 71
3
 72
15
 73
11
 74
0
 42
0.0000001
 43
0.0000001
 44
0.0000000001
 40
0.0
 40
0.0
 40
0.0
 40
0.0
 40
0.1485103876
 40
0.2894945654
 40
0.4227483473
 40
0.5486515956
 40
0.6679959131
 40
0.7819388611
 40
0.8919880059
 40
1.0
 40
1.0
 40
1.0
 40
1.0
 10
27.2189327826
 20
12.4971912509
 30
0.0
 10
27.2189327833
 20
12.4093594024
 30
0.0
 10
27.2118110972
 20
12.2380315288
 30
0.0
 10
27.178134096
 20
11.9898919082
 30
0.0
 10
27.1217717686
 20
11.7595477739
 30
0.0
 10
27.0432707223
 20
11.5492950587
 30
0.0
 10
26.943156375
 20
11.3611671382
 30
0.0
 10
26.8223142433
 20
11.1969923716
 30
0.0
 10
26.6817630459
 20
11.0586800706
 30
0.0
 10
26.5753991985
 20
10.9844610374
 30
0.0
 10
26.5200801087
 20
10.9525158449
 30
0.0
  0
SPLINE
  5
2C1
100
AcDbEntity
  8
0
100
AcDbSpline
 62
7
  6
CONTINUOUS
 70
0
 71
3
 72
11
 73
7
 74
0
 42
0.0000001
 43
0.0000001
 44
0.0000000001
 40
0.0
 40
0.0
 40
0.0
 40
0.0
 40
0.2397139659
 40
0.4824652385
 40
0.734507411
 40
1.0
 40
1.0
 40
1.0
 40
1.0
 10
26.1988064491
 20
9.4109809569
 30
0.0
 10
26.1226440779
 20
9.4163250452
 30
0.0
 10
25.9699530426
 20
9.437769634
 30
0.0
 10
25.7434657486
 20
9.4980016557
 30
0.0
 10
25.5161530285
 20
9.5822599848
 30
0.0
 10
25.3659238304
 20
9.6503628319
 30
0.0
 10
25.2897842404
 20
9.6871485678
 30
0.0
  0
SPLINE
  5
2C2
100
AcDbEntity
  8
0
100
AcDbSpline
 62
7
  6
CONTINUOUS
 70
0
 71
3
 72
9
 73
5
 74
0
 42
0.0000001
 43
0.0000001
 44
0.0000000001
 40
0.0
 40
0.0
 40
0.0
 40
0.0
 40
0.500257564
 40
1.0
 40
1.0
 40
1.0
 40
1.0
 10
18.0539377744
 20
29.3109785289
 30
0.0
 10
18.2068447354
 20
29.2226957412
 30
0.0
 10
18.5140544801
 20
29.0488989022
 30
0.0
 10
18.8245757015
 20
28.8810614574
 30
0.0
 10
18.9807810608
 20
28.7991462208
 30
0.0
  0
SPLINE
  5
2C3
100
AcDbEntity
  8
0
100
AcDbSpline
 62
7
  6
CONTINUOUS
 70
0
 71
3
 72
9
 73
5
 74
0
 42
0.0000001
 43
0.0000001
 44
0.0000000001
 40
0.0
 40
0.0
 40
0.0
 40
0.0
 40
0.4996009232
 40
1.0
 40
1.0
 40
1.0
 40
1.0
 10
15.2980836966
 20
30.9020355345
 30
0.0
 10
15.1548600955
 20
30.9847234805
 30
0.0
 10
14.8697230408
 20
31.1529112096
 30
0.0
 10
14.5881154838
 20
31.3269700401
 30
0.0
 10
14.4483667374
 20
31.4158972164
 30
0.0
  0
SPLINE
  5
2C4
100
AcDbEntity
  8
0
100
AcDbSpline
 62
7
  6
CONTINUOUS
 70
0
 71
3
 72
9
 73
5
 74
0
 42
0.0000001
 43
0.0000001
 44
0.0000000001
 40
0.0
 40
0.0
 40
0.0
 40
0.0
 40
0.7493869225
 40
1.0
 40
1.0
 40
1.0
 40
1.0
 10
8.8810950696
 20
41.7137929669
 30
0.0
 10
8.8436067969
 20
41.6893924726
 30
0.0
 10
8.793867452
 20
41.6563944017
 30
0.0
 10
8.7437652957
 20
41.6239509851
 30
0.0
 10
8.7311717241
 20
41.6158784781
 30
0.0
  0
SPLINE
  5
2C5
100
AcDbEntity
  8
0
100
AcDbSpline
 62
7
  6
CONTINUOUS
 70
0
 71
3
 72
9
 73
5
 74
0
 42
0.0000001
 43
0.0000001
 44
0.0000000001
 40
0.0
 40
0.0
 40
0.0
 40
0.0
 40
0.4988932106
 40
1.0
 40
1.0
 40
1.0
 40
1.0
 10
18.2584870553
 20
47.8171130242
 30
0.0
 10
18.1266965375
 20
47.895344861
 30
0.0
 10
17.8624105008
 20
48.0519559351
 30
0.0
 10
17.5967709586
 20
48.2062685232
 30
0.0
 10
17.4632837623
 20
48.2829433677
 30
0.0
  0
SPLINE
  5
2C6
100
AcDbEntity
  8
0
100
AcDbSpline
 62
7
  6
CONTINUOUS
 70
0
 71
3
 72
9
 73
5
 74
0
 42
0.0000001
 43
0.0000001
 44
0.0000000001
 40
0.0
 40
0.0
 40
0.0
 40
0.0
 40
0.2493972418
 40
1.0
 40
1.0
 40
1.0
 40
1.0
 10
17.4632837623
 20
48.2829433677
 30
0.0
 10
17.4119987079
 20
48.3124014257
 30
0.0
 10
17.2061471843
 20
48.4301438368
 30
0.0
 10
16.9994750127
 20
48.5464435733
 30
0.0
 10
16.844267605
 20
48.6335945332
 30
0.0
  0
SPLINE
  5
2C7
100
AcDbEntity
  8
0
100
AcDbSpline
 62
7
  6
CONTINUOUS
 70
0
 71
3
 72
15
 73
11
 74
0
 42
0.0000001
 43
0.0000001
 44
0.0000000001
 40
0.0
 40
0.0
 40
0.0
 40
0.0
 40
0.1474903775
 40
0.287652171
 40
0.4203884901
 40
0.5461372122
 40
0.6656956752
 40
0.7801839006
 40
0.8910381045
 40
1.0
 40
1.0
 40
1.0
 40
1.0
 10
35.4484322188
 20
17.2041305394
 30
0.0
 10
35.4456524611
 20
17.1058749278
 30
0.0
 10
35.4323326666
 20
16.9143424287
 30
0.0
 10
35.3871077908
 20
16.637412654
 30
0.0
 10
35.3172530871
 20
16.3805320306
 30
0.0
 10
35.2233963098
 20
16.1460490789
 30
0.0
 10
35.1061294125
 20
15.9360669634
 30
0.0
 10
34.9664326413
 20
15.7524651275
 30
0.0
 10
34.8053862636
 20
15.5972380336
 30
0.0
 10
34.6843298101
 20
15.5133832101
 30
0.0
 10
34.6214416618
 20
15.4770734225
 30
0.0
  0
SPLINE
  5
2C8
100
AcDbEntity
  8
0
100
AcDbSpline
 62
7
  6
CONTINUOUS
 70
0
 71
3
 72
15
 73
11
 74
0
 42
0.0000001
 43
0.0000001
 44
0.0000000001
 40
0.0
 40
0.0
 40
0.0
 40
0.0
 40
0.1208464438
 40
0.2474657933
 40
0.3776569235
 40
0.509074209
 40
0.6392679792
 40
0.7658593097
 40
0.8867128951
 40
1.0
 40
1.0
 40
1.0
 40
1.0
 10
33.1828307337
 20
52.3680593485
 30
0.0
 10
33.3420027693
 20
52.2389437471
 30
0.0
 10
33.6517429304
 20
51.9541176972
 30
0.0
 10
34.0746650264
 20
51.4716885574
 30
0.0
 10
34.457747852
 20
50.9348536394
 30
0.0
 10
34.7904671476
 20
50.3584829655
 30
0.0
 10
35.063666132
 20
49.7583062724
 30
0.0
 10
35.269942371
 20
49.1507265175
 30
0.0
 10
35.4035348774
 20
48.5524618013
 30
0.0
 10
35.4431703697
 20
48.1559962468
 30
0.0
 10
35.4484321541
 20
47.9639338595
 30
0.0
  0
SPLINE
  5
2C9
100
AcDbEntity
  8
0
100
AcDbSpline
 62
7
  6
CONTINUOUS
 70
0
 71
3
 72
11
 73
7
 74
0
 42
0.0000001
 43
0.0000001
 44
0.0000000001
 40
0.0
 40
0.0
 40
0.0
 40
0.0
 40
0.2360499314
 40
0.4820153146
 40
0.7370266113
 40
1.0
 40
1.0
 40
1.0
 40
1.0
 10
25.8305451599
 20
58.2635805877
 30
0.0
 10
26.1076406279
 20
58.1036446585
 30
0.0
 10
26.6605076077
 20
57.7541769347
 30
0.0
 10
27.4649330101
 20
57.1606085859
 30
0.0
 10
28.2557685224
 20
56.491138011
 30
0.0
 10
28.7626742998
 20
56.0046657603
 30
0.0
 10
29.0125389231
 20
55.7504787083
 30
0.0
  0
SPLINE
  5
2CA
100
AcDbEntity
  8
0
100
AcDbSpline
 62
7
  6
CONTINUOUS
 70
0
 71
3
 72
10
 73
6
 74
0
 42
0.0000001
 43
0.0000001
 44
0.0000000001
 40
0.0
 40
0.0
 40
0.0
 40
0.0
 40
0.4740577373
 40
0.7305830892
 40
1.0
 40
1.0
 40
1.0
 40
1.0
 10
22.6485513967
 20
59.424645499
 30
0.0
 10
23.1815316528
 20
59.3514271586
 30
0.0
 10
23.9907915955
 20
59.1364553122
 30
0.0
 10
25.0369539753
 20
58.6953229831
 30
0.0
 10
25.5657747783
 20
58.4164821252
 30
0.0
 10
25.8305451599
 20
58.2635805877
 30
0.0
  0
SPLINE
  5
2CB
100
AcDbEntity
  8
0
100
AcDbSpline
 62
7
  6
CONTINUOUS
 70
0
 71
3
 72
9
 73
5
 74
0
 42
0.0000001
 43
0.0000001
 44
0.0000000001
 40
0.0
 40
0.0
 40
0.0
 40
0.0
 40
0.2418003845
 40
1.0
 40
1.0
 40
1.0
 40
1.0
 10
18.3144349029
 20
47.4187570188
 30
0.0
 10
18.3072365695
 20
47.4503942209
 30
0.0
 10
18.2804519801
 20
47.5819058607
 30
0.0
 10
18.2649028874
 20
47.7156217099
 30
0.0
 10
18.258573642
 20
47.8171630147
 30
0.0
  0
SPLINE
  5
2CC
100
AcDbEntity
  8
0
100
AcDbSpline
 62
7
  6
CONTINUOUS
 70
0
 71
3
 72
9
 73
5
 74
0
 42
0.0000001
 43
0.0000001
 44
0.0000000001
 40
0.0
 40
0.0
 40
0.0
 40
0.0
 40
0.2437802294
 40
1.0
 40
1.0
 40
1.0
 40
1.0
 10
18.258573642
 20
39.6521388434
 30
0.0
 10
18.2607738003
 20
39.6899769173
 30
0.0
 10
18.272334475
 20
39.8450374327
 30
0.0
 10
18.2935855555
 20
39.9993386659
 30
0.0
 10
18.3144351952
 20
40.1150493042
 30
0.0
  0
SPLINE
  5
2CD
100
AcDbEntity
  8
0
100
AcDbSpline
 62
7
  6
CONTINUOUS
 70
0
 71
3
 72
11
 73
7
 74
0
 42
0.0000001
 43
0.0000001
 44
0.0000000001
 40
0.0
 40
0.0
 40
0.0
 40
0.0
 40
0.2452108073
 40
0.4938627141
 40
0.7455028372
 40
1.0
 40
1.0
 40
1.0
 40
1.0
 10
18.4965583937
 20
43.8720506694
 30
0.0
 10
18.4965583937
 20
43.5645151732
 30
0.0
 10
18.486525169
 20
42.9451160682
 30
0.0
 10
18.4498416662
 20
42.0107901767
 30
0.0
 10
18.3932991406
 20
41.0657843864
 30
0.0
 10
18.3428466426
 20
40.4329644357
 30
0.0
 10
18.3144351952
 20
40.1150493042
 30
0.0
  0
SPLINE
  5
2CE
100
AcDbEntity
  8
0
100
AcDbSpline
 62
7
  6
CONTINUOUS
 70
0
 71
3
 72
11
 73
7
 74
0
 42
0.0000001
 43
0.0000001
 44
0.0000000001
 40
0.0
 40
0.0
 40
0.0
 40
0.0
 40
0.2449196131
 40
0.493126993
 40
0.7446872823
 40
1.0
 40
1.0
 40
1.0
 40
1.0
 10
18.3144349029
 20
47.4187570188
 30
0.0
 10
18.3431952871
 20
47.1301468287
 30
0.0
 10
18.394115431
 20
46.5483340134
 30
0.0
 10
18.4504311441
 20
45.6681803776
 30
0.0
 10
18.4869168585
 20
44.7746681353
 30
0.0
 10
18.4965583937
 20
44.1743980872
 30
0.0
 10
18.4965583937
 20
43.8720506694
 30
0.0
  0
SPLINE
  5
2CF
100
AcDbEntity
  8
0
100
AcDbSpline
 62
7
  6
CONTINUOUS
 70
0
 71
3
 72
11
 73
7
 74
0
 42
0.0000001
 43
0.0000001
 44
0.0000000001
 40
0.0
 40
0.0
 40
0.0
 40
0.0
 40
0.2372229192
 40
0.497850528
 40
0.759634752
 40
1.0
 40
1.0
 40
1.0
 40
1.0
 10
8.9061502972
 20
42.1118277154
 30
0.0
 10
8.906761749
 20
42.0891917858
 30
0.0
 10
8.9157053233
 20
42.0418461605
 30
0.0
 10
8.9448994951
 20
41.9749460522
 30
0.0
 10
8.9872084417
 20
41.915097741
 30
0.0
 10
9.0232547149
 20
41.8825547696
 30
0.0
 10
9.0424413771
 20
41.869972819
 30
0.0
  0
SPLINE
  5
2D0
100
AcDbEntity
  8
0
100
AcDbSpline
 62
7
  6
CONTINUOUS
 70
0
 71
3
 72
14
 73
10
 74
0
 42
0.0000001
 43
0.0000001
 44
0.0000000001
 40
0.0
 40
0.0
 40
0.0
 40
0.0
 40
0.1441967998
 40
0.2827042719
 40
0.5419402671
 40
0.6633073331
 40
0.779658932
 40
0.8916198528
 40
1.0
 40
1.0
 40
1.0
 40
1.0
 10
38.3179989622
 20
52.6751947063
 30
0.0
 10
38.1585860403
 20
52.7672297176
 30
0.0
 10
37.8399608311
 20
52.93751989
 30
0.0
 10
37.2077348372
 20
53.219145298
 30
0.0
 10
36.5717516559
 20
53.4188892051
 30
0.0
 10
35.9447242029
 20
53.5208963811
 30
0.0
 10
35.4982426369
 20
53.5472696141
 30
0.0
 10
35.0681255105
 20
53.5249700609
 30
0.0
 10
34.7901436413
 20
53.4768172653
 30
0.0
 10
34.655607742
 20
53.4445482554
 30
0.0
  0
SPLINE
  5
2D1
100
AcDbEntity
  8
0
100
AcDbSpline
 62
7
  6
CONTINUOUS
 70
0
 71
3
 72
8
 73
4
 74
0
 42
0.0000001
 43
0.0000001
 44
0.0000000001
 40
0.0
 40
0.0
 40
0.0
 40
0.0
 40
1.0
 40
1.0
 40
1.0
 40
1.0
 10
26.8352925027
 20
25.3645423261
 30
0.0
 10
26.8380087532
 20
25.3652805266
 30
0.0
 10
26.8406567399
 20
25.3663656529
 30
0.0
 10
26.8430942695
 20
25.3677732772
 30
0.0
  0
SPLINE
  5
2D2
100
AcDbEntity
  8
0
100
AcDbSpline
 62
7
  6
CONTINUOUS
 70
0
 71
3
 72
13
 73
9
 74
0
 42
0.0000001
 43
0.0000001
 44
0.0000000001
 40
0.0
 40
0.0
 40
0.0
 40
0.0
 40
0.2810874249
 40
0.5373922912
 40
0.6578125448
 40
0.7742286481
 40
0.8878425403
 40
1.0
 40
1.0
 40
1.0
 40
1.0
 10
21.8978149231
 20
9.6138195216
 30
0.0
 10
22.0051670069
 20
9.5688561561
 30
0.0
 10
22.2175757403
 20
9.4984390338
 30
0.0
 10
22.4900859833
 20
9.4640733706
 30
0.0
 10
22.6944598382
 20
9.4749774124
 30
0.0
 10
22.8376462899
 20
9.5009927532
 30
0.0
 10
22.9728296795
 20
9.5448056016
 30
0.0
 10
23.057218357
 20
9.5858688093
 30
0.0
 10
23.0974349083
 20
9.6090923113
 30
0.0
  0
SPLINE
  5
2D3
100
AcDbEntity
  8
0
100
AcDbSpline
 62
7
  6
CONTINUOUS
 70
0
 71
3
 72
11
 73
7
 74
0
 42
0.0000001
 43
0.0000001
 44
0.0000000001
 40
0.0
 40
0.0
 40
0.0
 40
0.0
 40
0.2620587969
 40
0.5162735259
 40
0.7623231462
 40
1.0
 40
1.0
 40
1.0
 40
1.0
 10
7.574763905
 20
17.8866375027
 30
0.0
 10
8.7444793068
 20
17.0335279212
 30
0.0
 10
11.0908353327
 20
15.409322428
 30
0.0
 10
14.6775633541
 20
13.1980802822
 30
0.0
 10
18.2650087212
 20
11.2567934009
 30
0.0
 10
20.6897300542
 20
10.1282862559
 30
0.0
 10
21.8978149231
 20
9.6138195216
 30
0.0
  0
SPLINE
  5
2D4
100
AcDbEntity
  8
0
100
AcDbSpline
 62
7
  6
CONTINUOUS
 70
0
 71
3
 72
15
 73
11
 74
0
 42
0.0000001
 43
0.0000001
 44
0.0000000001
 40
0.0
 40
0.0
 40
0.0
 40
0.0
 40
0.1130044605
 40
0.2342115663
 40
0.3615674076
 40
0.4926401844
 40
0.624715828
 40
0.755014786
 40
0.8809100091
 40
1.0
 40
1.0
 40
1.0
 40
1.0
 10
5.7595383389
 20
21.3189707689
 30
0.0
 10
5.7607625659
 20
21.1681609023
 30
0.0
 10
5.7879716283
 20
20.8555350777
 30
0.0
 10
5.8913755997
 20
20.3831030503
 30
0.0
 10
6.0558117604
 20
19.9027714628
 30
0.0
 10
6.2761025413
 20
19.4294340362
 30
0.0
 10
6.5455206434
 20
18.9776730996
 30
0.0
 10
6.8557108135
 20
18.5613807636
 30
0.0
 10
7.1970702333
 20
18.1935555422
 30
0.0
 10
7.4468587877
 20
17.9809831602
 30
0.0
 10
7.574763905
 20
17.8866375027
 30
0.0
  0
SPLINE
  5
2D5
100
AcDbEntity
  8
0
100
AcDbSpline
 62
7
  6
CONTINUOUS
 70
0
 71
3
 72
15
 73
11
 74
0
 42
0.0000001
 43
0.0000001
 44
0.0000000001
 40
0.0
 40
0.0
 40
0.0
 40
0.0
 40
0.1485252085
 40
0.2894991395
 40
0.422739189
 40
0.5486427654
 40
0.667993806
 40
0.7819382499
 40
0.8919874144
 40
1.0
 40
1.0
 40
1.0
 40
1.0
 10
17.9817299626
 20
18.7531990671
 30
0.0
 10
17.9817299626
 20
18.623035449
 30
0.0
 10
17.9711873262
 20
18.3691545947
 30
0.0
 10
17.9212790439
 20
18.0014655353
 30
0.0
 10
17.8377584626
 20
17.660160309
 30
0.0
 10
17.7214403241
 20
17.3486085241
 30
0.0
 10
17.5730940129
 20
17.0698280973
 30
0.0
 10
17.3940390616
 20
16.8265307642
 30
0.0
 10
17.1857403586
 20
16.6216061355
 30
0.0
 10
17.028148202
 20
16.5115980228
 30
0.0
 10
16.9461701445
 20
16.4642693592
 30
0.0
  0
SPLINE
  5
2D6
100
AcDbEntity
  8
0
100
AcDbSpline
 62
7
  6
CONTINUOUS
 70
0
 71
3
 72
25
 73
21
 74
0
 42
0.0000001
 43
0.0000001
 44
0.0000000001
 40
0.0
 40
0.0
 40
0.0
 40
0.0
 40
0.0623687644
 40
0.1287296335
 40
0.198313865
 40
0.2702910451
 40
0.3436690129
 40
0.4173996926
 40
0.4904243892
 40
0.561710424
 40
0.630307293
 40
0.6953957341
 40
0.7563431131
 40
0.8127800716
 40
0.864681734
 40
0.9124572373
 40
0.9351018716
 40
0.9571072055
 40
0.9786681079
 40
1.0
 40
1.0
 40
1.0
 40
1.0
 10
12.0973494605
 20
22.2960212955
 30
0.0
 10
12.0973494605
 20
22.1508535332
 30
0.0
 10
12.1170565842
 20
21.8510295684
 30
0.0
 10
12.1979474188
 20
21.3958020496
 30
0.0
 10
12.3295801262
 20
20.9293199385
 30
0.0
 10
12.509012419
 20
20.4616212755
 30
0.0
 10
12.7324828764
 20
20.0025653303
 30
0.0
 10
12.995198331
 20
19.5619567279
 30
0.0
 10
13.2915600316
 20
19.1491946402
 30
0.0
 10
13.615278832
 20
18.7730915891
 30
0.0
 10
13.9594552681
 20
18.4416194553
 30
0.0
 10
14.3168520938
 20
18.1618009839
 30
0.0
 10
14.6800617381
 20
17.9395997665
 30
0.0
 10
15.0417260299
 20
17.7797877106
 30
0.0
 10
15.3945101071
 20
17.6859988131
 30
0.0
 10
15.6806440442
 20
17.6650013982
 30
0.0
 10
15.8952472999
 20
17.6851369898
 30
0.0
 10
16.0463344073
 20
17.7173870129
 30
0.0
 10
16.189461841
 20
17.7668295925
 30
0.0
 10
16.2792246742
 20
17.8112621062
 30
0.0
 10
16.322221448
 20
17.8360925199
 30
0.0
  0
SPLINE
  5
2D7
100
AcDbEntity
  8
0
100
AcDbSpline
 62
7
  6
CONTINUOUS
 70
0
 71
3
 72
11
 73
7
 74
0
 42
0.0000001
 43
0.0000001
 44
0.0000000001
 40
0.0
 40
0.0
 40
0.0
 40
0.0
 40
0.2899711572
 40
0.5491101729
 40
0.7822862622
 40
1.0
 40
1.0
 40
1.0
 40
1.0
 10
8.9745414483
 20
41.7375101442
 30
0.0
 10
8.9701018581
 20
41.7401850297
 30
0.0
 10
8.9611491515
 20
41.7444099118
 30
0.0
 10
8.9474331125
 20
41.747642053
 30
0.0
 10
8.9345727972
 20
41.7474160191
 30
0.0
 10
8.9268182935
 20
41.7446042678
 30
0.0
 10
8.9234511851
 20
41.7426531513
 30
0.0
  0
LINE
  5
2D8
100
AcDbEntity
  8
0
100
AcDbLine
 62
7
  6
CONTINUOUS
 10
26.5858624553
 20
31.5606987958
 11
26.1785007989
 21
31.7783509876
  0
SPLINE
  5
2D9
100
AcDbEntity
  8
0
100
AcDbSpline
 62
7
  6
CONTINUOUS
 70
0
 71
3
 72
10
 73
6
 74
0
 42
0.0000001
 43
0.0000001
 44
0.0000000001
 40
0.0
 40
0.0
 40
0.0
 40
0.0
 40
0.524581062
 40
0.77227745
 40
1.0
 40
1.0
 40
1.0
 40
1.0
 10
26.8441886824
 20
31.3940246035
 30
0.0
 10
26.8376183725
 20
31.4061071361
 30
0.0
 10
26.8257397483
 20
31.4228541324
 30
0.0
 10
26.8067850208
 20
31.4410080479
 30
0.0
 10
26.7966087585
 20
31.4483696828
 30
0.0
 10
26.791362244
 20
31.451219223
 30
0.0
  0
SPLINE
  5
2DA
100
AcDbEntity
  8
0
100
AcDbSpline
 62
7
  6
CONTINUOUS
 70
0
 71
3
 72
11
 73
7
 74
0
 42
0.0000001
 43
0.0000001
 44
0.0000000001
 40
0.0
 40
0.0
 40
0.0
 40
0.0
 40
0.2299158325
 40
0.4687064729
 40
0.7237269763
 40
1.0
 40
1.0
 40
1.0
 40
1.0
 10
26.5200801087
 20
10.9525158449
 30
0.0
 10
26.4396718204
 20
10.9060823578
 30
0.0
 10
26.2631038262
 20
10.8318264156
 30
0.0
 10
25.9720707762
 20
10.7854877227
 30
0.0
 10
25.6595416007
 20
10.802996838
 30
0.0
 10
25.4499688714
 20
10.8541923896
 30
0.0
 10
25.3438317513
 20
10.888596522
 30
0.0
  0
SPLINE
  5
2DB
100
AcDbEntity
  8
0
100
AcDbSpline
 62
7
  6
CONTINUOUS
 70
0
 71
3
 72
25
 73
21
 74
0
 42
0.0000001
 43
0.0000001
 44
0.0000000001
 40
0.0
 40
0.0
 40
0.0
 40
0.0
 40
0.1340368631
 40
0.2666949052
 40
0.3976117015
 40
0.526242908
 40
0.5894530601
 40
0.6517248954
 40
0.7128448378
 40
0.7725215452
 40
0.801710444
 40
0.830391382
 40
0.8585148008
 40
0.886062807
 40
0.9131234458
 40
0.9400937048
 40
0.9539042279
 40
0.9682449344
 40
0.9834809648
 40
1.0
 40
1.0
 40
1.0
 40
1.0
 10
20.7634838069
 20
52.862387834
 30
0.0
 10
20.9322887861
 20
53.0190403245
 30
0.0
 10
21.26565011
 20
53.3334586256
 30
0.0
 10
21.7531787518
 20
53.8120959536
 30
0.0
 10
22.221592704
 20
54.2966526852
 30
0.0
 10
22.5928131477
 20
54.7088869852
 30
0.0
 10
22.8719454315
 20
55.044679472
 30
0.0
 10
23.0685659937
 20
55.2980212694
 30
0.0
 10
23.2504167022
 20
55.5547980618
 30
0.0
 10
23.3866465048
 20
55.7738579709
 30
0.0
 10
23.4815965603
 20
55.9521972307
 30
0.0
 10
23.543585427
 20
56.0864232908
 30
0.0
 10
23.5946525229
 20
56.2222314793
 30
0.0
 10
23.631527735
 20
56.3598364857
 30
0.0
 10
23.6492698386
 20
56.4994166601
 30
0.0
 10
23.6409720428
 20
56.6169287889
 30
0.0
 10
23.6146824917
 20
56.7082721181
 30
0.0
 10
23.5825828603
 20
56.7759668417
 30
0.0
 10
23.5361900893
 20
56.8406805593
 30
0.0
 10
23.4965980391
 20
56.8787158761
 30
0.0
 10
23.4745935537
 20
56.8966417695
 30
0.0
  0
SPLINE
  5
2DC
100
AcDbEntity
  8
0
100
AcDbSpline
 62
7
  6
CONTINUOUS
 70
0
 71
3
 72
39
 73
35
 74
0
 42
0.0000001
 43
0.0000001
 44
0.0000000001
 40
0.0
 40
0.0
 40
0.0
 40
0.0
 40
0.0015901411
 40
0.0030856772
 40
0.0045964895
 40
0.0060930578
 40
0.0075969329
 40
0.0091308347
 40
0.0123169363
 40
0.0156044107
 40
0.0189333177
 40
0.0257286014
 40
0.0326817048
 40
0.039754047
 40
0.0469019833
 40
0.0541044157
 40
0.0686489223
 40
0.0833487886
 40
0.1130850303
 40
0.1431217397
 40
0.1733946305
 40
0.2038574915
 40
0.2344700145
 40
0.2652216425
 40
0.2961013689
 40
0.3582100639
 40
0.4207398241
 40
0.4836498794
 40
0.5469284425
 40
0.6105716934
 40
0.6745757422
 40
0.7389383176
 40
0.8687400838
 40
1.0
 40
1.0
 40
1.0
 40
1.0
 10
20.7618959892
 20
52.8608907399
 30
0.0
 10
20.7595729728
 20
52.8587348826
 30
0.0
 10
20.7559653262
 20
52.8533909711
 30
0.0
 10
20.7547756655
 20
52.8441234284
 30
0.0
 10
20.7556666444
 20
52.8351736918
 30
0.0
 10
20.7575004788
 20
52.826353521
 30
0.0
 10
20.7603172035
 20
52.8177495612
 30
0.0
 10
20.7652153718
 20
52.8063390562
 30
0.0
 10
20.7730614041
 20
52.7924010434
 30
0.0
 10
20.7837898586
 20
52.7760713683
 30
0.0
 10
20.799186722
 20
52.7542140692
 30
0.0
 10
20.8202239936
 20
52.7274297533
 30
0.0
 10
20.847402824
 20
52.6960580662
 30
0.0
 10
20.8761719351
 20
52.6651771577
 30
0.0
 10
20.905858698
 20
52.6344882917
 30
0.0
 10
20.9464578468
 20
52.5936421035
 30
0.0
 10
20.9986060216
 20
52.5430640833
 30
0.0
 10
21.0844763501
 20
52.4627783985
 30
0.0
 10
21.1949046039
 20
52.3635824661
 30
0.0
 10
21.3298474216
 20
52.245263715
 30
0.0
 10
21.4670556263
 20
52.127343846
 30
0.0
 10
21.6059129641
 20
52.0095915485
 30
0.0
 10
21.7459100142
 20
51.8917098673
 30
0.0
 10
21.8869545516
 20
51.7737840996
 30
0.0
 10
22.0765650597
 20
51.6160817107
 30
0.0
 10
22.3154752901
 20
51.4186084371
 30
0.0
 10
22.6041644834
 20
51.1811602014
 30
0.0
 10
22.8948965877
 20
50.9425256356
 30
0.0
 10
23.1875710806
 20
50.7027598602
 30
0.0
 10
23.4821595656
 20
50.4618900811
 30
0.0
 10
23.7786402735
 20
50.2199216136
 30
0.0
 10
24.1775818398
 20
49.894956389
 30
0.0
 10
24.6811088767
 20
49.4861408093
 30
0.0
 10
25.0859617886
 20
49.1593076021
 30
0.0
 10
25.2899263132
 20
48.9954854712
 30
0.0
  0
SPLINE
  5
2DD
100
AcDbEntity
  8
0
100
AcDbSpline
 62
7
  6
CONTINUOUS
 70
0
 71
3
 72
9
 73
5
 74
0
 42
0.0000001
 43
0.0000001
 44
0.0000000001
 40
0.0
 40
0.0
 40
0.0
 40
0.0
 40
0.477393074
 40
1.0
 40
1.0
 40
1.0
 40
1.0
 10
9.5665203824
 20
57.7016173486
 30
0.0
 10
9.7316959062
 20
57.6900323464
 30
0.0
 10
10.0765560594
 20
57.6446559572
 30
0.0
 10
10.4121573403
 20
57.5503974833
 30
0.0
 10
10.5819019539
 20
57.4868111842
 30
0.0
  0
SPLINE
  5
2DE
100
AcDbEntity
  8
0
100
AcDbSpline
 62
7
  6
CONTINUOUS
 70
0
 71
3
 72
21
 73
17
 74
0
 42
0.0000001
 43
0.0000001
 44
0.0000000001
 40
0.0
 40
0.0
 40
0.0
 40
0.0
 40
0.1203909773
 40
0.2415614234
 40
0.3636961902
 40
0.4870630454
 40
0.6120732871
 40
0.6753930066
 40
0.7394041764
 40
0.8042502852
 40
0.8370317183
 40
0.8700525751
 40
0.9032623537
 40
0.9364769285
 40
0.9691588588
 40
1.0
 40
1.0
 40
1.0
 40
1.0
 10
16.4037787829
 20
55.3794077606
 30
0.0
 10
16.6732776784
 20
55.479801119
 30
0.0
 10
17.2150965404
 20
55.6783681273
 30
0.0
 10
18.034597295
 20
55.9669486817
 30
0.0
 10
18.8653611385
 20
56.2446820549
 30
0.0
 10
19.7104958381
 20
56.5078218222
 30
0.0
 10
20.4276042068
 20
56.7088780874
 30
0.0
 10
21.0130360431
 20
56.8527675965
 30
0.0
 10
21.4618419884
 20
56.9496480238
 30
0.0
 10
21.8422815477
 20
57.0166095417
 30
0.0
 10
22.1517243953
 20
57.0575804691
 30
0.0
 10
22.3872433858
 20
57.0800694746
 30
0.0
 10
22.6246397694
 20
57.0913499269
 30
0.0
 10
22.8616199233
 20
57.0869960361
 30
0.0
 10
23.091576757
 20
57.0606784559
 30
0.0
 10
23.2392833157
 20
57.0209967173
 30
0.0
 10
23.3074802272
 20
56.9931225109
 30
0.0
  0
SPLINE
  5
2DF
100
AcDbEntity
  8
0
100
AcDbSpline
 62
7
  6
CONTINUOUS
 70
0
 71
3
 72
36
 73
32
 74
0
 42
0.0000001
 43
0.0000001
 44
0.0000000001
 40
0.0
 40
0.0
 40
0.0
 40
0.0
 40
0.118976449
 40
0.2395280787
 40
0.3003584459
 40
0.3615455638
 40
0.423083142
 40
0.4849668989
 40
0.5471925103
 40
0.6097642078
 40
0.6727162412
 40
0.704348984
 40
0.7360960659
 40
0.7679667463
 40
0.7999693714
 40
0.8321408526
 40
0.8645218378
 40
0.8808040328
 40
0.8971670715
 40
0.9136373768
 40
0.930242071
 40
0.9470117697
 40
0.9554825403
 40
0.9640512793
 40
0.9727408989
 40
0.977139034
 40
0.9815893613
 40
0.9860858513
 40
0.990641951
 40
0.9954067681
 40
1.0
 40
1.0
 40
1.0
 40
1.0
 10
10.5820439902
 20
57.4868931884
 30
0.0
 10
10.8122155233
 20
57.4006709279
 30
0.0
 10
11.2756860726
 20
57.2272989221
 30
0.0
 10
11.856623013
 20
57.0092664103
 30
0.0
 10
12.3255708896
 20
56.8326092953
 30
0.0
 10
12.6803063753
 20
56.698604043
 30
0.0
 10
13.036950244
 20
56.5634930467
 30
0.0
 10
13.3954766605
 20
56.4272959124
 30
0.0
 10
13.7558763291
 20
56.2900144514
 30
0.0
 10
14.1182218757
 20
56.1516421377
 30
0.0
 10
14.4215565299
 20
56.0358995649
 30
0.0
 10
14.6655016729
 20
55.9431381719
 30
0.0
 10
14.8495107099
 20
55.8734135325
 30
0.0
 10
15.0343626601
 20
55.8037578535
 30
0.0
 10
15.2201605997
 20
55.7341266227
 30
0.0
 10
15.4072336506
 20
55.6648968365
 30
0.0
 10
15.5642116793
 20
55.6079262201
 30
0.0
 10
15.6907642268
 20
55.5628615719
 30
0.0
 10
15.7865528586
 20
55.5293918581
 30
0.0
 10
15.8832665584
 20
55.4965588763
 30
0.0
 10
15.9811625201
 20
55.4646152922
 30
0.0
 10
16.0637283711
 20
55.4389879114
 30
0.0
 10
16.1307632511
 20
55.4193624722
 30
0.0
 10
16.1820827507
 20
55.4055039432
 30
0.0
 10
16.2255742414
 20
55.3949747667
 30
0.0
 10
16.2609974816
 20
55.3873606609
 30
0.0
 10
16.2880422726
 20
55.3819906904
 30
0.0
 10
16.3155606102
 20
55.3774142568
 30
0.0
 10
16.3440107724
 20
55.3744589285
 30
0.0
 10
16.3726230108
 20
55.3734925501
 30
0.0
 10
16.3923309872
 20
55.3751571333
 30
0.0
 10
16.4012231428
 20
55.378469517
 30
0.0
  0
SPLINE
  5
2E0
100
AcDbEntity
  8
0
100
AcDbSpline
 62
7
  6
CONTINUOUS
 70
0
 71
3
 72
27
 73
23
 74
0
 42
0.0000001
 43
0.0000001
 44
0.0000000001
 40
0.0
 40
0.0
 40
0.0
 40
0.0
 40
0.0092740311
 40
0.0135897696
 40
0.0177341744
 40
0.0259275559
 40
0.0340355797
 40
0.0500767454
 40
0.0659953441
 40
0.0975984473
 40
0.1290455023
 40
0.1603934917
 40
0.1916691215
 40
0.2540854417
 40
0.3163965357
 40
0.3786341846
 40
0.4408289
 40
0.5029993458
 40
0.6272841766
 40
0.7515286554
 40
0.8757625761
 40
1.0
 40
1.0
 40
1.0
 40
1.0
 10
17.217451566
 20
29.8274526299
 30
0.0
 10
17.2186281507
 20
29.8246451916
 30
0.0
 10
17.2205758631
 20
29.8205345598
 30
0.0
 10
17.2246531299
 20
29.8163089234
 30
0.0
 10
17.2291259712
 20
29.8131537613
 30
0.0
 10
17.2344306655
 20
29.8090461819
 30
0.0
 10
17.2429461854
 20
29.8027042397
 30
0.0
 10
17.2537516024
 20
29.7952046019
 30
0.0
 10
17.2709722556
 20
29.7834267131
 30
0.0
 10
17.2926203462
 20
29.769168838
 30
0.0
 10
17.3186227992
 20
29.7523196937
 30
0.0
 10
17.3446510806
 20
29.7357085953
 30
0.0
 10
17.3793598737
 20
29.713805471
 30
0.0
 10
17.4228181817
 20
29.6867248139
 30
0.0
 10
17.4750514516
 20
29.6545115656
 30
0.0
 10
17.5273601417
 20
29.6225602437
 30
0.0
 10
17.5797308839
 20
29.5907998297
 30
0.0
 10
17.6496272779
 20
29.5486638604
 30
0.0
 10
17.7371759544
 20
29.4963620228
 30
0.0
 10
17.8425022598
 20
29.4341001122
 30
0.0
 10
17.9480768431
 20
29.3722910258
 30
0.0
 10
18.0186227295
 20
29.3313681214
 30
0.0
 10
18.0539377744
 20
29.3109785289
 30
0.0
  0
SPLINE
  5
2E1
100
AcDbEntity
  8
0
100
AcDbSpline
 62
7
  6
CONTINUOUS
 70
0
 71
3
 72
14
 73
10
 74
0
 42
0.0000001
 43
0.0000001
 44
0.0000000001
 40
0.0
 40
0.0
 40
0.0
 40
0.0
 40
0.1082285605
 40
0.2184667464
 40
0.3325497391
 40
0.4519717925
 40
0.5778843191
 40
0.7110809714
 40
1.0
 40
1.0
 40
1.0
 40
1.0
 10
23.0974349083
 20
9.6090923113
 30
0.0
 10
23.1457506874
 20
9.6369928039
 30
0.0
 10
23.238669796
 20
9.7017390164
 30
0.0
 10
23.3616157508
 20
9.8222438987
 30
0.0
 10
23.4675043924
 20
9.9651884739
 30
0.0
 10
23.555455592
 20
10.1289241806
 30
0.0
 10
23.6247120955
 20
10.3119108785
 30
0.0
 10
23.6932832243
 20
10.5864700661
 30
0.0
 10
23.7118333139
 20
10.8050423403
 30
0.0
 10
23.712633507
 20
10.9539809282
 30
0.0
  0
SPLINE
  5
2E2
100
AcDbEntity
  8
0
100
AcDbSpline
 62
7
  6
CONTINUOUS
 70
0
 71
3
 72
9
 73
5
 74
0
 42
0.0000001
 43
0.0000001
 44
0.0000000001
 40
0.0
 40
0.0
 40
0.0
 40
0.0
 40
0.4890997811
 40
1.0
 40
1.0
 40
1.0
 40
1.0
 10
8.6975516181
 20
41.5504165849
 30
0.0
 10
8.6984746632
 20
41.5453279948
 30
0.0
 10
8.702148804
 20
41.5351853105
 30
0.0
 10
8.7087750868
 20
41.5267187026
 30
0.0
 10
8.7126591518
 20
41.5229640799
 30
0.0
  0
SPLINE
  5
2E3
100
AcDbEntity
  8
0
100
AcDbSpline
 62
7
  6
CONTINUOUS
 70
0
 71
3
 72
24
 73
20
 74
0
 42
0.0000001
 43
0.0000001
 44
0.0000000001
 40
0.0
 40
0.0
 40
0.0
 40
0.0
 40
0.0163356286
 40
0.0340773432
 40
0.0522400761
 40
0.0704843425
 40
0.1068099618
 40
0.1426858748
 40
0.1781122627
 40
0.2130940231
 40
0.2819384897
 40
0.3495437374
 40
0.415965779
 40
0.4812303014
 40
0.5453045754
 40
0.6695761792
 40
0.7878387526
 40
0.8986443323
 40
1.0
 40
1.0
 40
1.0
 40
1.0
 10
28.9644139955
 20
11.7258246659
 30
0.0
 10
28.9542244611
 20
11.7193892325
 30
0.0
 10
28.9342916231
 20
11.7038796602
 30
0.0
 10
28.9066582308
 20
11.6769649171
 30
0.0
 10
28.8802266366
 20
11.6469660573
 30
0.0
 10
28.8471483773
 20
11.6046935093
 30
0.0
 10
28.8088875245
 20
11.549983889
 30
0.0
 10
28.7656074142
 20
11.4834100735
 30
0.0
 10
28.724072923
 20
11.41689851
 30
0.0
 10
28.6707624727
 20
11.3290782402
 30
0.0
 10
28.6059065352
 20
11.2204993619
 30
0.0
 10
28.5283457579
 20
11.0924935059
 30
0.0
 10
28.4509210824
 20
10.9674992724
 30
0.0
 10
28.3731087782
 20
10.8458234438
 30
0.0
 10
28.2697136096
 20
10.6898784896
 30
0.0
 10
28.1395642132
 20
10.5047946331
 30
0.0
 10
27.9807286006
 20
10.2979884739
 30
0.0
 10
27.8232716115
 20
10.1117706491
 30
0.0
 10
27.7158691771
 20
9.9977669244
 30
0.0
 10
27.6628529492
 20
9.9450354723
 30
0.0
  0
SPLINE
  5
2E4
100
AcDbEntity
  8
0
100
AcDbSpline
 62
7
  6
CONTINUOUS
 70
0
 71
3
 72
24
 73
20
 74
0
 42
0.0000001
 43
0.0000001
 44
0.0000000001
 40
0.0
 40
0.0
 40
0.0
 40
0.0
 40
0.0216331425
 40
0.0438830529
 40
0.0906906258
 40
0.1412436668
 40
0.1958988809
 40
0.2546667656
 40
0.3172794448
 40
0.3832534518
 40
0.451943145
 40
0.5225854037
 40
0.5943387222
 40
0.6663187095
 40
0.7376320034
 40
0.807412766
 40
0.8748476532
 40
0.9392412918
 40
1.0
 40
1.0
 40
1.0
 40
1.0
 10
42.2800469621
 20
36.8591887199
 30
0.0
 10
42.3692201425
 20
36.9531843486
 30
0.0
 10
42.5394025401
 20
37.1543074336
 30
0.0
 10
42.8445656457
 20
37.604645548
 30
0.0
 10
43.1534668191
 20
38.2561971189
 30
0.0
 10
43.3971086455
 20
39.1372278693
 30
0.0
 10
43.5179028823
 20
40.1149404229
 30
0.0
 10
43.5144374268
 20
41.1716515264
 30
0.0
 10
43.3873289211
 20
42.2885489081
 30
0.0
 10
43.1390847721
 20
43.4454530224
 30
0.0
 10
42.7743253137
 20
44.621314189
 30
0.0
 10
42.2997607763
 20
45.7946029625
 30
0.0
 10
41.72411693
 20
46.9437601426
 30
0.0
 10
41.0579833538
 20
48.0476194717
 30
0.0
 10
40.3136368462
 20
49.0858728643
 30
0.0
 10
39.5047728835
 20
50.0393596436
 30
0.0
 10
38.6461926283
 20
50.8907205609
 30
0.0
 10
37.7536959749
 20
51.6240753331
 30
0.0
 10
37.1269758369
 20
52.0385845421
 30
0.0
 10
36.8118318693
 20
52.2205288804
 30
0.0
  0
SPLINE
  5
2E5
100
AcDbEntity
  8
0
100
AcDbSpline
 62
7
  6
CONTINUOUS
 70
0
 71
3
 72
34
 73
30
 74
0
 42
0.0000001
 43
0.0000001
 44
0.0000000001
 40
0.0
 40
0.0
 40
0.0
 40
0.0
 40
0.1223966237
 40
0.2450428544
 40
0.3064787909
 40
0.3680036483
 40
0.4296309951
 40
0.4913782595
 40
0.5532684983
 40
0.6153332961
 40
0.677618001
 40
0.7088631494
 40
0.7401921158
 40
0.7716209557
 40
0.8031716573
 40
0.8348756764
 40
0.8667809457
 40
0.8828320898
 40
0.8989675463
 40
0.9152086651
 40
0.9315875948
 40
0.9481567399
 40
0.9565400293
 40
0.9650130121
 40
0.9736053662
 40
0.9823633545
 40
0.9913380496
 40
0.9958553008
 40
1.0
 40
1.0
 40
1.0
 40
1.0
 10
28.9644127926
 20
11.7258239048
 30
0.0
 10
29.1692474845
 20
11.8551928223
 30
0.0
 10
29.5789537497
 20
12.1147981853
 30
0.0
 10
30.0902163797
 20
12.4413202464
 30
0.0
 10
30.499049145
 20
12.7043677599
 30
0.0
 10
30.8058029665
 20
12.90285115
 30
0.0
 10
31.112486542
 20
13.1025748085
 30
0.0
 10
31.4190851055
 20
13.3037507043
 30
0.0
 10
31.7255793268
 20
13.506659118
 30
0.0
 10
32.0319421615
 20
13.7116855772
 30
0.0
 10
32.2868211771
 20
13.8845708656
 30
0.0
 10
32.4904952395
 20
14.024556525
 30
0.0
 10
32.643327368
 20
14.1306850542
 30
0.0
 10
32.7960452729
 20
14.2380336511
 30
0.0
 10
32.9486170186
 20
14.3468745153
 30
0.0
 10
33.1009950971
 20
14.4575995976
 30
0.0
 10
33.2274928698
 20
14.5517382672
 30
0.0
 10
33.3283573673
 20
14.6286830726
 30
0.0
 10
33.40399922
 20
14.6875647879
 30
0.0
 10
33.4794230231
 20
14.7477733884
 30
0.0
 10
33.5545339862
 20
14.8097322106
 30
0.0
 10
33.6164841837
 20
14.863182278
 30
0.0
 10
33.6654624193
 20
14.9076692436
 30
0.0
 10
33.70197243
 20
14.9423767513
 30
0.0
 10
33.7379171753
 20
14.9787507951
 30
0.0
 10
33.772696843
 20
15.0175290508
 30
0.0
 10
33.7994818396
 20
15.0527791565
 30
0.0
 10
33.8160426279
 20
15.0834856779
 30
0.0
 10
33.8208980801
 20
15.1004571002
 30
0.0
 10
33.8208981512
 20
15.1086609714
 30
0.0
  0
SPLINE
  5
2E6
100
AcDbEntity
  8
0
100
AcDbSpline
 62
7
  6
CONTINUOUS
 70
0
 71
3
 72
11
 73
7
 74
0
 42
0.0000001
 43
0.0000001
 44
0.0000000001
 40
0.0
 40
0.0
 40
0.0
 40
0.0
 40
0.241665749
 40
0.4994419338
 40
0.75658082
 40
1.0
 40
1.0
 40
1.0
 40
1.0
 10
26.5071995306
 20
31.2495138195
 30
0.0
 10
26.5172894771
 20
31.2462091687
 30
0.0
 10
26.5392759355
 20
31.2427151031
 30
0.0
 10
26.5726767518
 20
31.2454018312
 30
0.0
 10
26.6046794024
 20
31.255732656
 30
0.0
 10
26.623631636
 20
31.2673299206
 30
0.0
 10
26.6320585039
 20
31.2739145529
 30
0.0
  0
SPLINE
  5
2E7
100
AcDbEntity
  8
0
100
AcDbSpline
 62
7
  6
CONTINUOUS
 70
0
 71
3
 72
9
 73
5
 74
0
 42
0.0000001
 43
0.0000001
 44
0.0000000001
 40
0.0
 40
0.0
 40
0.0
 40
0.0
 40
0.2441854302
 40
1.0
 40
1.0
 40
1.0
 40
1.0
 10
18.5560701941
 20
34.5639413665
 30
0.0
 10
19.1790655224
 20
34.2412839007
 30
0.0
 10
21.7587690695
 20
32.9750991743
 30
0.0
 10
24.4438875334
 20
31.9267093735
 30
0.0
 10
26.5071995306
 20
31.2495138195
 30
0.0
  0
SPLINE
  5
2E8
100
AcDbEntity
  8
0
100
AcDbSpline
 62
7
  6
CONTINUOUS
 70
0
 71
3
 72
11
 73
7
 74
0
 42
0.0000001
 43
0.0000001
 44
0.0000000001
 40
0.0
 40
0.0
 40
0.0
 40
0.0
 40
0.2232076304
 40
0.4629546717
 40
0.7216907679
 40
1.0
 40
1.0
 40
1.0
 40
1.0
 10
32.61197162
 20
52.8443704457
 30
0.0
 10
32.8796798611
 20
52.8703522415
 30
0.0
 10
33.441576427
 20
52.8658701647
 30
0.0
 10
34.2998452585
 20
52.7045909806
 30
0.0
 10
35.1858310726
 20
52.3932195613
 30
0.0
 10
35.7648314167
 20
52.1000684974
 30
0.0
 10
36.0552665757
 20
51.9323894736
 30
0.0
  0
SPLINE
  5
2E9
100
AcDbEntity
  8
0
100
AcDbSpline
 62
7
  6
CONTINUOUS
 70
0
 71
3
 72
19
 73
15
 74
0
 42
0.0000001
 43
0.0000001
 44
0.0000000001
 40
0.0
 40
0.0
 40
0.0
 40
0.0
 40
0.1229915911
 40
0.2464552548
 40
0.370383549
 40
0.4947836265
 40
0.5571299088
 40
0.6195764019
 40
0.6822116345
 40
0.7451255171
 40
0.8081834286
 40
0.8710874577
 40
0.9342784589
 40
1.0
 40
1.0
 40
1.0
 40
1.0
 10
14.83342337
 20
36.7131638905
 30
0.0
 10
14.8849462572
 20
36.6789120032
 30
0.0
 10
14.9881857418
 20
36.6102706715
 30
0.0
 10
15.1433872703
 20
36.5071869336
 30
0.0
 10
15.2992376702
 20
36.4037996097
 30
0.0
 10
15.4294310335
 20
36.3173512845
 30
0.0
 10
15.5339806681
 20
36.2481936719
 30
0.0
 10
15.6126948572
 20
36.1962961916
 30
0.0
 10
15.6915279262
 20
36.1440593163
 30
0.0
 10
15.7702154741
 20
36.0910518288
 30
0.0
 10
15.8489004168
 20
36.0377970396
 30
0.0
 10
15.9285555253
 20
35.9857426819
 30
0.0
 10
16.0099773067
 20
35.9339668334
 30
0.0
 10
16.0618839919
 20
35.8948200875
 30
0.0
 10
16.0868655403
 20
35.8731658424
 30
0.0
  0
SPLINE
  5
2EA
100
AcDbEntity
  8
0
100
AcDbSpline
 62
7
  6
CONTINUOUS
 70
0
 71
3
 72
15
 73
11
 74
0
 42
0.0000001
 43
0.0000001
 44
0.0000000001
 40
0.0
 40
0.0
 40
0.0
 40
0.0
 40
0.1482894381
 40
0.2890943036
 40
0.4222342176
 40
0.5481022189
 40
0.6674920196
 40
0.7815538149
 40
0.8917793721
 40
1.0
 40
1.0
 40
1.0
 40
1.0
 10
8.5465572622
 20
54.5908830308
 30
0.0
 10
8.547100176
 20
54.6790554295
 30
0.0
 10
8.5552948011
 20
54.8510213291
 30
0.0
 10
8.5905766257
 20
55.0999904832
 30
0.0
 10
8.6484848803
 20
55.3310640807
 30
0.0
 10
8.7284663678
 20
55.5419812607
 30
0.0
 10
8.8299936734
 20
55.730734784
 30
0.0
 10
8.9521778333
 20
55.895523676
 30
0.0
 10
9.0940092486
 20
56.034458954
 30
0.0
 10
9.201181314
 20
56.109120912
 30
0.0
 10
9.2569063832
 20
56.1412999393
 30
0.0
  0
SPLINE
  5
2EB
100
AcDbEntity
  8
0
100
AcDbSpline
 62
7
  6
CONTINUOUS
 70
0
 71
3
 72
11
 73
7
 74
0
 42
0.0000001
 43
0.0000001
 44
0.0000000001
 40
0.0
 40
0.0
 40
0.0
 40
0.0
 40
0.2630017757
 40
0.5152751231
 40
0.7596609241
 40
1.0
 40
1.0
 40
1.0
 40
1.0
 10
9.5652710684
 20
57.7017046437
 30
0.0
 10
9.4676348384
 20
57.7085526135
 30
0.0
 10
9.2752121166
 20
57.7099491975
 30
0.0
 10
8.994016126
 20
57.6724603121
 30
0.0
 10
8.7296765038
 20
57.5954316681
 30
0.0
 10
8.5658423288
 20
57.517769014
 30
0.0
 10
8.4883946608
 20
57.473027988
 30
0.0
  0
SPLINE
  5
2EC
100
AcDbEntity
  8
0
100
AcDbSpline
 62
7
  6
CONTINUOUS
 70
0
 71
3
 72
11
 73
7
 74
0
 42
0.0000001
 43
0.0000001
 44
0.0000000001
 40
0.0
 40
0.0
 40
0.0
 40
0.0
 40
0.2518391074
 40
0.5045227562
 40
0.7549308001
 40
1.0
 40
1.0
 40
1.0
 40
1.0
 10
27.6632177631
 20
45.8738572868
 30
0.0
 10
27.5706792039
 20
46.0782270764
 30
0.0
 10
27.3689385972
 20
46.4804515883
 30
0.0
 10
27.0213667797
 20
47.0569485216
 30
0.0
 10
26.6332560309
 20
47.5995787319
 30
0.0
 10
26.3481160988
 20
47.9372870487
 30
0.0
 10
26.200124974
 20
48.097784533
 30
0.0
  0
SPLINE
  5
2ED
100
AcDbEntity
  8
0
100
AcDbSpline
 62
7
  6
CONTINUOUS
 70
0
 71
3
 72
11
 73
7
 74
0
 42
0.0000001
 43
0.0000001
 44
0.0000000001
 40
0.0
 40
0.0
 40
0.0
 40
0.0
 40
0.2553127581
 40
0.5068730842
 40
0.755080443
 40
1.0
 40
1.0
 40
1.0
 40
1.0
 10
17.0823389434
 20
44.6885321785
 30
0.0
 10
17.0823389434
 20
44.9908795161
 30
0.0
 10
17.07269737
 20
45.5911494
 30
0.0
 10
17.0362117798
 20
46.484661336
 30
0.0
 10
16.9798959658
 20
47.3648145414
 30
0.0
 10
16.9289761103
 20
47.9466270416
 30
0.0
 10
16.9002157449
 20
48.2352370435
 30
0.0
  0
SPLINE
  5
2EE
100
AcDbEntity
  8
0
100
AcDbSpline
 62
7
  6
CONTINUOUS
 70
0
 71
3
 72
21
 73
17
 74
0
 42
0.0000001
 43
0.0000001
 44
0.0000000001
 40
0.0
 40
0.0
 40
0.0
 40
0.0
 40
0.0676024631
 40
0.1320833139
 40
0.1936393693
 40
0.2526769949
 40
0.3097626399
 40
0.3655664075
 40
0.4208271242
 40
0.4763239242
 40
0.5328227455
 40
0.5910260549
 40
0.7145604142
 40
0.7809125613
 40
0.850599969
 40
1.0
 40
1.0
 40
1.0
 40
1.0
 10
16.9001752307
 20
48.2356673241
 30
0.0
 10
16.8133807405
 20
48.2633714827
 30
0.0
 10
16.6411992604
 20
48.3098252751
 30
0.0
 10
16.3831603839
 20
48.3519247538
 30
0.0
 10
16.1334493703
 20
48.3641697899
 30
0.0
 10
15.893995041
 20
48.3463589954
 30
0.0
 10
15.6665355766
 20
48.2985025969
 30
0.0
 10
15.4528113428
 20
48.2208343452
 30
0.0
 10
15.254491957
 20
48.1139501767
 30
0.0
 10
15.0732682523
 20
47.9785695161
 30
0.0
 10
14.9104384849
 20
47.8159169738
 30
0.0
 10
14.715835411
 20
47.5594896712
 30
0.0
 10
14.5673478889
 20
47.2558561236
 30
0.0
 10
14.4642555524
 20
46.9212090211
 30
0.0
 10
14.3867295451
 20
46.5438829397
 30
0.0
 10
14.366227552
 20
46.2476512448
 30
0.0
 10
14.366227552
 20
46.0463028158
 30
0.0
  0
SPLINE
  5
2EF
100
AcDbEntity
  8
0
100
AcDbSpline
 62
7
  6
CONTINUOUS
 70
0
 71
3
 72
15
 73
11
 74
0
 42
0.0000001
 43
0.0000001
 44
0.0000000001
 40
0.0
 40
0.0
 40
0.0
 40
0.0
 40
0.111973034
 40
0.2318751123
 40
0.3579281387
 40
0.4880040499
 40
0.6197003022
 40
0.7505186425
 40
0.8780460992
 40
1.0
 40
1.0
 40
1.0
 40
1.0
 10
14.366227552
 20
46.0463028158
 30
0.0
 10
14.366227552
 20
45.8272591377
 30
0.0
 10
14.4004926917
 20
45.3733029698
 30
0.0
 10
14.5394699067
 20
44.6855692436
 30
0.0
 10
14.7641187141
 20
43.9836417664
 30
0.0
 10
15.0680517814
 20
43.287162108
 30
0.0
 10
15.4428920767
 20
42.6154868498
 30
0.0
 10
15.8781375556
 20
41.9872751268
 30
0.0
 10
16.3616169813
 20
41.4202342105
 30
0.0
 10
16.7170955085
 20
41.084013587
 30
0.0
 10
16.9001752307
 20
40.9310537511
 30
0.0
  0
SPLINE
  5
2F0
100
AcDbEntity
  8
0
100
AcDbSpline
 62
7
  6
CONTINUOUS
 70
0
 71
3
 72
11
 73
7
 74
0
 42
0.0000001
 43
0.0000001
 44
0.0000000001
 40
0.0
 40
0.0
 40
0.0
 40
0.0
 40
0.2544972567
 40
0.5061373841
 40
0.7547892513
 40
1.0
 40
1.0
 40
1.0
 40
1.0
 10
16.9002154526
 20
40.9315289914
 30
0.0
 10
16.9286269245
 20
41.2494443957
 30
0.0
 10
16.9790796915
 20
41.8822647601
 30
0.0
 10
17.0356221342
 20
42.8272710938
 30
0.0
 10
17.0723057539
 20
43.7615973195
 30
0.0
 10
17.0823389434
 20
44.3809966053
 30
0.0
 10
17.0823389434
 20
44.6885321785
 30
0.0
  0
SPLINE
  5
2F1
100
AcDbEntity
  8
0
100
AcDbSpline
 62
7
  6
CONTINUOUS
 70
0
 71
3
 72
9
 73
5
 74
0
 42
0.0000001
 43
0.0000001
 44
0.0000000001
 40
0.0
 40
0.0
 40
0.0
 40
0.0
 40
0.258409782
 40
1.0
 40
1.0
 40
1.0
 40
1.0
 10
16.8443541917
 20
48.6336445238
 30
0.0
 10
16.8465112774
 20
48.5990379809
 30
0.0
 10
16.8573222637
 20
48.4652938745
 30
0.0
 10
16.8781393044
 20
48.3322646149
 30
0.0
 10
16.9002157449
 20
48.2352370435
 30
0.0
  0
SPLINE
  5
2F2
100
AcDbEntity
  8
0
100
AcDbSpline
 62
7
  6
CONTINUOUS
 70
0
 71
3
 72
9
 73
5
 74
0
 42
0.0000001
 43
0.0000001
 44
0.0000000001
 40
0.0
 40
0.0
 40
0.0
 40
0.0
 40
0.2561558836
 40
1.0
 40
1.0
 40
1.0
 40
1.0
 10
16.9002154526
 20
40.9315289914
 30
0.0
 10
16.8931531187
 20
40.8923346847
 30
0.0
 10
16.8677761753
 20
40.7389437611
 30
0.0
 10
16.8510674101
 20
40.5840735221
 30
0.0
 10
16.8443541917
 20
40.4686203525
 30
0.0
  0
SPLINE
  5
2F3
100
AcDbEntity
  8
0
100
AcDbSpline
 62
7
  6
CONTINUOUS
 70
0
 71
3
 72
11
 73
7
 74
0
 42
0.0000001
 43
0.0000001
 44
0.0000000001
 40
0.0
 40
0.0
 40
0.0
 40
0.0
 40
0.2515057938
 40
0.5021028854
 40
0.7515094846
 40
1.0
 40
1.0
 40
1.0
 40
1.0
 10
16.844267605
 20
40.4685703619
 30
0.0
 10
16.9636423019
 20
40.4015399309
 30
0.0
 10
17.2018764132
 20
40.2675700563
 30
0.0
 10
17.5570672074
 20
40.0646125406
 30
0.0
 10
17.909018905
 20
39.8593271045
 30
0.0
 10
18.1421713827
 20
39.7211347058
 30
0.0
 10
18.2584870553
 20
39.6520888529
 30
0.0
  0
SPLINE
  5
2F4
100
AcDbEntity
  8
0
100
AcDbSpline
 62
7
  6
CONTINUOUS
 70
0
 71
3
 72
19
 73
15
 74
0
 42
0.0000001
 43
0.0000001
 44
0.0000000001
 40
0.0
 40
0.0
 40
0.0
 40
0.0
 40
0.0587639751
 40
0.1209773406
 40
0.1833194251
 40
0.2451369483
 40
0.3070690346
 40
0.369410537
 40
0.4320004259
 40
0.494673281
 40
0.6202693835
 40
0.7463709237
 40
0.8729515339
 40
1.0
 40
1.0
 40
1.0
 40
1.0
 10
17.2276030583
 20
35.2145756286
 30
0.0
 10
17.2553946457
 20
35.2063584151
 30
0.0
 10
17.3107116321
 20
35.1832691231
 30
0.0
 10
17.3908410851
 20
35.1415006449
 30
0.0
 10
17.4729423908
 20
35.1001366639
 30
0.0
 10
17.5556165328
 20
35.0602940864
 30
0.0
 10
17.6381844582
 20
35.0202252365
 30
0.0
 10
17.7207387159
 20
34.9792652657
 30
0.0
 10
17.8035080809
 20
34.9379192324
 30
0.0
 10
17.9142626151
 20
34.8827880821
 30
0.0
 10
18.0531628072
 20
34.8139108764
 30
0.0
 10
18.2202183751
 20
34.7308678798
 30
0.0
 10
18.3879249316
 20
34.6475253952
 30
0.0
 10
18.4999393913
 20
34.5918597203
 30
0.0
 10
18.5560412502
 20
34.5639580768
 30
0.0
  0
SPLINE
  5
2F5
100
AcDbEntity
  8
0
100
AcDbSpline
 62
7
  6
CONTINUOUS
 70
0
 71
3
 72
25
 73
21
 74
0
 42
0.0000001
 43
0.0000001
 44
0.0000000001
 40
0.0
 40
0.0
 40
0.0
 40
0.0
 40
0.0213313095
 40
0.0428919243
 40
0.0648971388
 40
0.0875418261
 40
0.1353174579
 40
0.1872192473
 40
0.2436560829
 40
0.3046030268
 40
0.3696909015
 40
0.4382871706
 40
0.5095726061
 40
0.5825966014
 40
0.6563256983
 40
0.7297029375
 40
0.8016814656
 40
0.8712673986
 40
0.937630422
 40
1.0
 40
1.0
 40
1.0
 40
1.0
 10
13.0568100577
 20
24.0336859403
 30
0.0
 10
13.0998058502
 20
24.058515206
 30
0.0
 10
13.189567669
 20
24.1029448165
 30
0.0
 10
13.3326923263
 20
24.1523872146
 30
0.0
 10
13.483778161
 20
24.1846387198
 30
0.0
 10
13.6983814511
 20
24.2047724124
 30
0.0
 10
13.9845157264
 20
24.1837776767
 30
0.0
 10
14.3372996742
 20
24.089988066
 30
0.0
 10
14.6989625834
 20
23.9301770544
 30
0.0
 10
15.0621701381
 20
23.7079785559
 30
0.0
 10
15.4195644933
 20
23.4281639861
 30
0.0
 10
15.7637382554
 20
23.0966959433
 30
0.0
 10
16.0874550061
 20
22.7205978918
 30
0.0
 10
16.3838146323
 20
22.307843533
 30
0.0
 10
16.6465300352
 20
21.8672437761
 30
0.0
 10
16.8699989892
 20
21.4081904552
 30
0.0
 10
17.0494398507
 20
20.9404901104
 30
0.0
 10
17.1810781817
 20
20.473997457
 30
0.0
 10
17.2619708944
 20
20.0187599236
 30
0.0
 10
17.2816803447
 20
19.7189295638
 30
0.0
 10
17.2816803447
 20
19.5737601059
 30
0.0
  0
SPLINE
  5
2F6
100
AcDbEntity
  8
0
100
AcDbSpline
 62
7
  6
CONTINUOUS
 70
0
 71
3
 72
21
 73
17
 74
0
 42
0.0000001
 43
0.0000001
 44
0.0000000001
 40
0.0
 40
0.0
 40
0.0
 40
0.0
 40
0.0676024686
 40
0.1320833148
 40
0.1936393671
 40
0.2526769936
 40
0.30976264
 40
0.3655664076
 40
0.4208271239
 40
0.4763239238
 40
0.5328227453
 40
0.5910260548
 40
0.7145604141
 40
0.7809125612
 40
0.8505999689
 40
1.0
 40
1.0
 40
1.0
 40
1.0
 10
18.3143946809
 20
40.1145722421
 30
0.0
 10
18.4011891841
 20
40.0868681001
 30
0.0
 10
18.5733706659
 20
40.0404143159
 30
0.0
 10
18.8314095352
 20
39.998314814
 30
0.0
 10
19.0811205398
 20
39.9860697703
 30
0.0
 10
19.3205748676
 20
40.0038805691
 30
0.0
 10
19.5480343345
 20
40.0517369699
 30
0.0
 10
19.7617585697
 20
40.1294052215
 30
0.0
 10
19.9600779548
 20
40.2362893897
 30
0.0
 10
20.1413016589
 20
40.37167005
 30
0.0
 10
20.3041314266
 20
40.5343225922
 30
0.0
 10
20.4987345007
 20
40.790749895
 30
0.0
 10
20.6472220226
 20
41.0943834427
 30
0.0
 10
20.7503143592
 20
41.429030545
 30
0.0
 10
20.8278403665
 20
41.8063566264
 30
0.0
 10
20.8483423596
 20
42.1025883214
 30
0.0
 10
20.8483423596
 20
42.3039367504
 30
0.0
  0
SPLINE
  5
2F7
100
AcDbEntity
  8
0
100
AcDbSpline
 62
7
  6
CONTINUOUS
 70
0
 71
3
 72
9
 73
5
 74
0
 42
0.0000001
 43
0.0000001
 44
0.0000000001
 40
0.0
 40
0.0
 40
0.0
 40
0.0
 40
0.4916495601
 40
1.0
 40
1.0
 40
1.0
 40
1.0
 10
8.7126591518
 20
41.5229640799
 30
0.0
 10
9.6317741569
 20
40.6360186966
 30
0.0
 10
11.5983525824
 20
38.9305723508
 30
0.0
 10
13.7221945315
 20
37.4269026297
 30
0.0
 10
14.8333944263
 20
36.7131806008
 30
0.0
  0
SPLINE
  5
2F8
100
AcDbEntity
  8
0
100
AcDbSpline
 62
7
  6
CONTINUOUS
 70
0
 71
3
 72
15
 73
11
 74
0
 42
0.0000001
 43
0.0000001
 44
0.0000000001
 40
0.0
 40
0.0
 40
0.0
 40
0.0
 40
0.111973034
 40
0.2318751123
 40
0.3579281387
 40
0.4880040499
 40
0.6197003021
 40
0.7505186425
 40
0.8780460989
 40
1.0
 40
1.0
 40
1.0
 40
1.0
 10
20.8483423596
 20
42.3039367504
 30
0.0
 10
20.8483423596
 20
42.5229804285
 30
0.0
 10
20.8140772199
 20
42.9769365964
 30
0.0
 10
20.6751000046
 20
43.6646703225
 30
0.0
 10
20.4504511982
 20
44.3665978001
 30
0.0
 10
20.1465181283
 20
45.0630774572
 30
0.0
 10
19.7716778387
 20
45.7347527186
 30
0.0
 10
19.3364323515
 20
46.3629644372
 30
0.0
 10
18.8529529253
 20
46.9300053463
 30
0.0
 10
18.4974744375
 20
47.2662260193
 30
0.0
 10
18.3143946809
 20
47.4191858151
 30
0.0
  0
SPLINE
  5
2F9
100
AcDbEntity
  8
0
100
AcDbSpline
 62
7
  6
CONTINUOUS
 70
0
 71
3
 72
17
 73
13
 74
0
 42
0.0000001
 43
0.0000001
 44
0.0000000001
 40
0.0
 40
0.0
 40
0.0
 40
0.0
 40
0.114139044
 40
0.174768208
 40
0.2373621928
 40
0.3669936151
 40
0.4999989388
 40
0.6330044101
 40
0.7626362634
 40
0.8252305531
 40
0.8858600899
 40
1.0
 40
1.0
 40
1.0
 40
1.0
 10
17.546328815
 20
39.8523752226
 30
0.0
 10
17.2924132774
 20
39.9996093371
 30
0.0
 10
16.9221498017
 20
40.2583639286
 30
0.0
 10
16.4611429204
 20
40.6588144309
 30
0.0
 10
15.99936919
 20
41.1172409225
 30
0.0
 10
15.4625674178
 20
41.7614195142
 30
0.0
 10
14.9041324893
 20
42.6144113965
 30
0.0
 10
14.4446325026
 20
43.5245249751
 30
0.0
 10
14.1551534084
 20
44.3114988166
 30
0.0
 10
13.9890267979
 20
44.940621605
 30
0.0
 10
13.8727250029
 20
45.5400935826
 30
0.0
 10
13.83376412
 20
45.9901312661
 30
0.0
 10
13.8332110698
 20
46.283647852
 30
0.0
  0
SPLINE
  5
2FA
100
AcDbEntity
  8
0
100
AcDbSpline
 62
7
  6
CONTINUOUS
 70
0
 71
3
 72
23
 73
19
 74
0
 42
0.0000001
 43
0.0000001
 44
0.0000000001
 40
0.0
 40
0.0
 40
0.0
 40
0.0
 40
0.0742623836
 40
0.1447494043
 40
0.211369259
 40
0.2743205812
 40
0.3339956346
 40
0.3909675313
 40
0.4459919519
 40
0.4999980492
 40
0.5540042371
 40
0.6090289209
 40
0.6660012305
 40
0.7256768155
 40
0.7886287493
 40
0.8552492583
 40
0.925736949
 40
1.0
 40
1.0
 40
1.0
 40
1.0
 10
17.5463288182
 20
39.7308138398
 30
0.0
 10
17.6680702685
 20
39.6605279708
 30
0.0
 10
17.9112176007
 20
39.5332981503
 30
0.0
 10
18.282065923
 20
39.3814329382
 30
0.0
 10
18.6463878083
 20
39.2752533904
 30
0.0
 10
19.0005884352
 20
39.2158155667
 30
0.0
 10
19.3414383542
 20
39.2040324669
 30
0.0
 10
19.665661119
 20
39.2401186116
 30
0.0
 10
19.9698637379
 20
39.3243225268
 30
0.0
 10
20.2507421007
 20
39.4557723562
 30
0.0
 10
20.5050161389
 20
39.6333018743
 30
0.0
 10
20.7300359246
 20
39.854653474
 30
0.0
 10
20.9233944426
 20
40.1174015801
 30
0.0
 10
21.0836104836
 20
40.4184834914
 30
0.0
 10
21.2092316724
 20
40.7549544106
 30
0.0
 10
21.2994339928
 20
41.1235610258
 30
0.0
 10
21.3533346542
 20
41.5206620789
 30
0.0
 10
21.3647212741
 20
41.7948513942
 30
0.0
 10
21.3647212695
 20
41.9354267807
 30
0.0
  0
SPLINE
  5
2FB
100
AcDbEntity
  8
0
100
AcDbSpline
 62
7
  6
CONTINUOUS
 70
0
 71
3
 72
19
 73
15
 74
0
 42
0.0000001
 43
0.0000001
 44
0.0000000001
 40
0.0
 40
0.0
 40
0.0
 40
0.0
 40
0.0558248102
 40
0.1142059005
 40
0.174831835
 40
0.2374084148
 40
0.3670182158
 40
0.5000010962
 40
0.6329838235
 40
0.7625931791
 40
0.8251694371
 40
0.8857949894
 40
0.9441756499
 40
1.0
 40
1.0
 40
1.0
 40
1.0
 10
13.7279361368
 20
46.3444269879
 30
0.0
 10
13.7279361359
 20
46.196775165
 30
0.0
 10
13.7411054169
 20
45.8946026299
 30
0.0
 10
13.7966815746
 20
45.4351475513
 30
0.0
 10
13.8882584051
 20
44.9632813644
 30
0.0
 10
14.0589619902
 20
44.3163586597
 30
0.0
 10
14.3567110452
 20
43.5070732226
 30
0.0
 10
14.8292144772
 20
42.5711559337
 30
0.0
 10
15.4034944798
 20
41.6940010535
 30
0.0
 10
15.955483682
 20
41.0315048744
 30
0.0
 10
16.4303841545
 20
40.5602149603
 30
0.0
 10
16.7932437724
 20
40.2449784845
 30
0.0
 10
17.1633549701
 20
39.9671255139
 30
0.0
 10
17.4184589194
 20
39.8046378902
 30
0.0
 10
17.5463288182
 20
39.7308138398
 30
0.0
  0
SPLINE
  5
2FC
100
AcDbEntity
  8
0
100
AcDbSpline
 62
7
  6
CONTINUOUS
 70
0
 71
3
 72
19
 73
15
 74
0
 42
0.0000001
 43
0.0000001
 44
0.0000000001
 40
0.0
 40
0.0
 40
0.0
 40
0.0
 40
0.0558341462
 40
0.1142086479
 40
0.174826854
 40
0.2374064231
 40
0.3670181203
 40
0.50000108
 40
0.6329838894
 40
0.7625951472
 40
0.8251743989
 40
0.8857922313
 40
0.9441663114
 40
1.0
 40
1.0
 40
1.0
 40
1.0
 10
12.6885400857
 20
47.0831944326
 30
0.0
 10
12.6885400857
 20
46.8906740519
 30
0.0
 10
12.7056828446
 20
46.496731867
 30
0.0
 10
12.7781684932
 20
45.8977781216
 30
0.0
 10
12.8975357593
 20
45.28266075
 30
0.0
 10
13.1200915476
 20
44.4393056399
 30
0.0
 10
13.5082413884
 20
43.38424752
 30
0.0
 10
14.1242428939
 20
42.1641267337
 30
0.0
 10
14.8729023344
 20
41.0205982017
 30
0.0
 10
15.5925371033
 20
40.1569276739
 30
0.0
 10
16.2116271748
 20
39.5425176963
 30
0.0
 10
16.6846507538
 20
39.1315896944
 30
0.0
 10
17.1671164828
 20
38.7693447788
 30
0.0
 10
17.4997084093
 20
38.5575322455
 30
0.0
 10
17.6664355261
 20
38.4612744773
 30
0.0
  0
SPLINE
  5
2FD
100
AcDbEntity
  8
0
100
AcDbSpline
 62
7
  6
CONTINUOUS
 70
0
 71
3
 72
23
 73
19
 74
0
 42
0.0000001
 43
0.0000001
 44
0.0000000001
 40
0.0
 40
0.0
 40
0.0
 40
0.0
 40
0.0742765413
 40
0.1447529373
 40
0.2113639819
 40
0.2743172952
 40
0.3339975135
 40
0.3909670013
 40
0.445991675
 40
0.4999980315
 40
0.5540044791
 40
0.6090294174
 40
0.6659993202
 40
0.7256800717
 40
0.7886340008
 40
0.8552457095
 40
0.9257227871
 40
1.0
 40
1.0
 40
1.0
 40
1.0
 10
17.6664355261
 20
38.4612744773
 30
0.0
 10
17.8251760701
 20
38.3696276549
 30
0.0
 10
18.1421544691
 20
38.2037318974
 30
0.0
 10
18.6256202246
 20
38.0057942364
 30
0.0
 10
19.1005296058
 20
37.8673642751
 30
0.0
 10
19.5622880943
 20
37.7899258554
 30
0.0
 10
20.006655962
 20
37.7744579264
 30
0.0
 10
20.4293267069
 20
37.8216115436
 30
0.0
 10
20.825932527
 20
37.9312781085
 30
0.0
 10
21.192054756
 20
38.1027531256
 30
0.0
 10
21.5236123571
 20
38.3340953927
 30
0.0
 10
21.8168837814
 20
38.6227411017
 30
0.0
 10
22.069049701
 20
38.9652157499
 30
0.0
 10
22.2778322549
 20
39.3577909666
 30
0.0
 10
22.4416420845
 20
39.7964116524
 30
0.0
 10
22.5592071636
 20
40.2769165796
 30
0.0
 10
22.6295153207
 20
40.7945848069
 30
0.0
 10
22.6443309665
 20
41.152047509
 30
0.0
 10
22.6443309665
 20
41.3353459213
 30
0.0
  0
SPLINE
  5
2FE
100
AcDbEntity
  8
0
100
AcDbSpline
 62
7
  6
CONTINUOUS
 70
0
 71
3
 72
19
 73
15
 74
0
 42
0.0000001
 43
0.0000001
 44
0.0000000001
 40
0.0
 40
0.0
 40
0.0
 40
0.0
 40
0.0558341462
 40
0.1142086479
 40
0.174826854
 40
0.2374064231
 40
0.3670181203
 40
0.50000108
 40
0.6329838894
 40
0.7625951472
 40
0.8251743989
 40
0.8857922313
 40
0.9441663114
 40
1.0
 40
1.0
 40
1.0
 40
1.0
 10
22.6443309665
 20
41.3353459213
 30
0.0
 10
22.6443309665
 20
41.527866302
 30
0.0
 10
22.6271882076
 20
41.9218084869
 30
0.0
 10
22.554702559
 20
42.5207622323
 30
0.0
 10
22.4353352929
 20
43.1358796039
 30
0.0
 10
22.2127795046
 20
43.979234714
 30
0.0
 10
21.8246296638
 20
45.0342928339
 30
0.0
 10
21.2086281583
 20
46.2544136202
 30
0.0
 10
20.4599687179
 20
47.3979421522
 30
0.0
 10
19.7403339489
 20
48.26161268
 30
0.0
 10
19.1212438775
 20
48.8760226576
 30
0.0
 10
18.6482202984
 20
49.2869506595
 30
0.0
 10
18.1657545694
 20
49.6491955751
 30
0.0
 10
17.833162643
 20
49.8610081084
 30
0.0
 10
17.6664355261
 20
49.9572658766
 30
0.0
  0
SPLINE
  5
2FF
100
AcDbEntity
  8
0
100
AcDbSpline
 62
7
  6
CONTINUOUS
 70
0
 71
3
 72
23
 73
19
 74
0
 42
0.0000001
 43
0.0000001
 44
0.0000000001
 40
0.0
 40
0.0
 40
0.0
 40
0.0
 40
0.0742765413
 40
0.1447529373
 40
0.2113639819
 40
0.2743172952
 40
0.3339975135
 40
0.3909670013
 40
0.445991675
 40
0.4999980315
 40
0.5540044791
 40
0.6090294174
 40
0.6659993202
 40
0.7256800717
 40
0.7886340008
 40
0.8552457095
 40
0.9257227871
 40
1.0
 40
1.0
 40
1.0
 40
1.0
 10
17.6664355261
 20
49.9572658766
 30
0.0
 10
17.5076949822
 20
50.048912699
 30
0.0
 10
17.1907165831
 20
50.2148084565
 30
0.0
 10
16.7072508277
 20
50.4127461175
 30
0.0
 10
16.2323414464
 20
50.5511760788
 30
0.0
 10
15.770582958
 20
50.6286144985
 30
0.0
 10
15.3262150902
 20
50.6440824275
 30
0.0
 10
14.9035443453
 20
50.5969288103
 30
0.0
 10
14.5069385252
 20
50.4872622454
 30
0.0
 10
14.1408162962
 20
50.3157872283
 30
0.0
 10
13.8092586951
 20
50.0844449612
 30
0.0
 10
13.5159872708
 20
49.7957992522
 30
0.0
 10
13.2638213513
 20
49.453324604
 30
0.0
 10
13.0550387973
 20
49.0607493873
 30
0.0
 10
12.8912289678
 20
48.6221287015
 30
0.0
 10
12.7736638887
 20
48.1416237743
 30
0.0
 10
12.7033557315
 20
47.623955547
 30
0.0
 10
12.6885400857
 20
47.2664928448
 30
0.0
 10
12.6885400857
 20
47.0831944326
 30
0.0
  0
SPLINE
  5
300
100
AcDbEntity
  8
0
100
AcDbSpline
 62
7
  6
CONTINUOUS
 70
0
 71
3
 72
35
 73
31
 74
0
 42
0.0000001
 43
0.0000001
 44
0.0000000001
 40
0.0
 40
0.0
 40
0.0
 40
0.0
 40
0.0325428827
 40
0.0665664511
 40
0.1018979755
 40
0.1383728345
 40
0.2139171847
 40
0.2914267294
 40
0.3689379188
 40
0.4444823503
 40
0.480959993
 40
0.5162913934
 40
0.5503029317
 40
0.5828562067
 40
0.6138505868
 40
0.6432373062
 40
0.6710236124
 40
0.697286925
 40
0.7221818479
 40
0.7459459764
 40
0.7688994483
 40
0.7914280825
 40
0.8139564432
 40
0.8369092677
 40
0.8606735129
 40
0.8855687757
 40
0.9118295671
 40
0.9396163913
 40
0.9690157625
 40
1.0
 40
1.0
 40
1.0
 40
1.0
 10
17.8826978852
 20
37.3938576401
 30
0.0
 10
17.6813880321
 20
37.5100813087
 30
0.0
 10
17.2798092376
 20
37.765827975
 30
0.0
 10
16.6972691476
 20
38.2032114802
 30
0.0
 10
16.1261277708
 20
38.69937692
 30
0.0
 10
15.3786240748
 20
39.4412314805
 30
0.0
 10
14.5097207423
 20
40.4840464463
 30
0.0
 10
13.6057666755
 20
41.8647758153
 30
0.0
 10
12.8620010964
 20
43.3379893228
 30
0.0
 10
12.3933101496
 20
44.6119082249
 30
0.0
 10
12.1246166886
 20
45.6302233765
 30
0.0
 10
11.9805134059
 20
46.3728500579
 30
0.0
 10
11.8929392668
 20
47.0960614007
 30
0.0
 10
11.8626471916
 20
47.7930188324
 30
0.0
 10
11.8901289002
 20
48.4571486044
 30
0.0
 10
11.9750825106
 20
49.0822027217
 30
0.0
 10
12.1170154949
 20
49.6622908678
 30
0.0
 10
12.3147738637
 20
50.1919167158
 30
0.0
 10
12.5668768764
 20
50.6659249476
 30
0.0
 10
12.8713495956
 20
51.0794251121
 30
0.0
 10
13.2254438684
 20
51.4279476377
 30
0.0
 10
13.6257746185
 20
51.7072776994
 30
0.0
 10
14.0678355341
 20
51.9143206019
 30
0.0
 10
14.5466994477
 20
52.0467397021
 30
0.0
 10
15.057036988
 20
52.1036713349
 30
0.0
 10
15.5935761359
 20
52.0850040568
 30
0.0
 10
16.1511182181
 20
51.9915041809
 30
0.0
 10
16.7245430609
 20
51.8243620645
 30
0.0
 10
17.3082977354
 20
51.5853639115
 30
0.0
 10
17.6910299104
 20
51.3850566767
 30
0.0
 10
17.8826980043
 20
51.2743995544
 30
0.0
  0
SPLINE
  5
301
100
AcDbEntity
  8
0
100
AcDbSpline
 62
7
  6
CONTINUOUS
 70
0
 71
3
 72
35
 73
31
 74
0
 42
0.0000001
 43
0.0000001
 44
0.0000000001
 40
0.0
 40
0.0
 40
0.0
 40
0.0
 40
0.0325428827
 40
0.0665664511
 40
0.1018979755
 40
0.1383728345
 40
0.2139171847
 40
0.2914267294
 40
0.3689379188
 40
0.4444823503
 40
0.480959993
 40
0.5162913934
 40
0.5503029317
 40
0.5828562067
 40
0.6138505868
 40
0.6432373062
 40
0.6710236124
 40
0.697286925
 40
0.7221818479
 40
0.7459459764
 40
0.7688994483
 40
0.7914280825
 40
0.8139564432
 40
0.8369092677
 40
0.8606735129
 40
0.8855687757
 40
0.9118295671
 40
0.9396163913
 40
0.9690157625
 40
1.0
 40
1.0
 40
1.0
 40
1.0
 10
17.8826980043
 20
51.2743995544
 30
0.0
 10
18.0840078575
 20
51.1581758859
 30
0.0
 10
18.485586652
 20
50.9024292196
 30
0.0
 10
19.068126742
 20
50.4650457144
 30
0.0
 10
19.6392681188
 20
49.9688802746
 30
0.0
 10
20.3867718148
 20
49.2270257141
 30
0.0
 10
21.2556751473
 20
48.1842107483
 30
0.0
 10
22.1596292141
 20
46.8034813792
 30
0.0
 10
22.9033947932
 20
45.3302678717
 30
0.0
 10
23.37208574
 20
44.0563489697
 30
0.0
 10
23.640779201
 20
43.038033818
 30
0.0
 10
23.7848824837
 20
42.2954071367
 30
0.0
 10
23.8724566228
 20
41.5721957939
 30
0.0
 10
23.902748698
 20
40.8752383622
 30
0.0
 10
23.8752669894
 20
40.2111085902
 30
0.0
 10
23.790313379
 20
39.5860544728
 30
0.0
 10
23.6483803947
 20
39.0059663267
 30
0.0
 10
23.4506220259
 20
38.4763404788
 30
0.0
 10
23.1985190131
 20
38.0023322469
 30
0.0
 10
22.894046294
 20
37.5888320825
 30
0.0
 10
22.5399520212
 20
37.2403095569
 30
0.0
 10
22.1396212711
 20
36.9609794952
 30
0.0
 10
21.6975603555
 20
36.7539365926
 30
0.0
 10
21.2186964419
 20
36.6215174925
 30
0.0
 10
20.7083589016
 20
36.5645858597
 30
0.0
 10
20.1718197537
 20
36.5832531377
 30
0.0
 10
19.6142776715
 20
36.6767530136
 30
0.0
 10
19.0408528287
 20
36.8438951301
 30
0.0
 10
18.4570981542
 20
37.082893283
 30
0.0
 10
18.0743659792
 20
37.2832005179
 30
0.0
 10
17.8826978852
 20
37.3938576401
 30
0.0
  0
SPLINE
  5
302
100
AcDbEntity
  8
0
100
AcDbSpline
 62
7
  6
CONTINUOUS
 70
0
 71
3
 72
14
 73
10
 74
0
 42
0.0000001
 43
0.0000001
 44
0.0000000001
 40
0.0
 40
0.0
 40
0.0
 40
0.0
 40
0.1442087326
 40
0.2827125559
 40
0.5419363813
 40
0.6633066947
 40
0.7796612925
 40
0.8916195039
 40
1.0
 40
1.0
 40
1.0
 40
1.0
 10
36.8118318693
 20
52.2205288804
 30
0.0
 10
36.6433697265
 20
52.3177883437
 30
0.0
 10
36.3066789413
 20
52.4977424331
 30
0.0
 10
35.6386214082
 20
52.7953211372
 30
0.0
 10
34.9666067849
 20
53.0063839292
 30
0.0
 10
34.3040467193
 20
53.1141479683
 30
0.0
 10
33.8322556412
 20
53.1420610961
 30
0.0
 10
33.377761652
 20
53.1184452743
 30
0.0
 10
33.0840250851
 20
53.067587913
 30
0.0
 10
32.9418619899
 20
53.0334958751
 30
0.0
  0
SPLINE
  5
303
100
AcDbEntity
  8
0
100
AcDbSpline
 62
7
  6
CONTINUOUS
 70
0
 71
3
 72
26
 73
22
 74
0
 42
0.0000001
 43
0.0000001
 44
0.0000000001
 40
0.0
 40
0.0
 40
0.0
 40
0.0
 40
0.0612258985
 40
0.1261804632
 40
0.1942372884
 40
0.2646552949
 40
0.336573028
 40
0.4090749895
 40
0.4812203235
 40
0.552082586
 40
0.6207872001
 40
0.686551316
 40
0.748727838
 40
0.8068563115
 40
0.8607235704
 40
0.8860987769
 40
0.910480832
 40
0.9339441291
 40
0.956592865
 40
0.9785588453
 40
1.0
 40
1.0
 40
1.0
 40
1.0
 10
36.0552665757
 20
51.9323894736
 30
0.0
 10
36.3838718247
 20
51.7426734366
 30
0.0
 10
37.037174396
 20
51.3092876796
 30
0.0
 10
37.9660516257
 20
50.5407421547
 30
0.0
 10
38.8580341881
 20
49.6472732989
 30
0.0
 10
39.69597083
 20
48.6462607688
 30
0.0
 10
40.463844509
 20
47.556760948
 30
0.0
 10
41.1469007766
 20
46.3997740056
 30
0.0
 10
41.7319880708
 20
45.1975322394
 30
0.0
 10
42.2078573805
 20
43.9731600796
 30
0.0
 10
42.5653706386
 20
42.7501408462
 30
0.0
 10
42.7976576357
 20
41.5518565579
 30
0.0
 10
42.9001700008
 20
40.4009619327
 30
0.0
 10
42.8707178426
 20
39.3193283941
 30
0.0
 10
42.7333616787
 20
38.475694616
 30
0.0
 10
42.5544400998
 20
37.8582363849
 30
0.0
 10
42.3911032338
 20
37.4342211735
 30
0.0
 10
42.1966316107
 20
37.0422656151
 30
0.0
 10
41.9718925425
 20
36.6842973847
 30
0.0
 10
41.7179962537
 20
36.3621718374
 30
0.0
 10
41.5281276589
 20
36.1705993497
 30
0.0
 10
41.4291576058
 20
36.0819336886
 30
0.0
  0
SPLINE
  5
304
100
AcDbEntity
  8
0
100
AcDbSpline
 62
7
  6
CONTINUOUS
 70
0
 71
3
 72
27
 73
23
 74
0
 42
0.0000001
 43
0.0000001
 44
0.0000000001
 40
0.0
 40
0.0
 40
0.0
 40
0.0
 40
0.1436063857
 40
0.2831103343
 40
0.4177977405
 40
0.4831902926
 40
0.5472068716
 40
0.6097907088
 40
0.6708764625
 40
0.7303825827
 40
0.7881710129
 40
0.8163606682
 40
0.8440320045
 40
0.8711343294
 40
0.8975942852
 40
0.9233214867
 40
0.9359045273
 40
0.9483278023
 40
0.9606295197
 40
0.9730636541
 40
0.9860539658
 40
1.0
 40
1.0
 40
1.0
 40
1.0
 10
27.6626881824
 20
45.8750272259
 30
0.0
 10
27.7121433561
 20
45.7829893556
 30
0.0
 10
27.8138671776
 20
45.603802316
 30
0.0
 10
27.9725644416
 20
45.3444981107
 30
0.0
 10
28.1070946305
 20
45.1372366498
 30
0.0
 10
28.2140602506
 20
44.9776122218
 30
0.0
 10
28.293006007
 20
44.8623687794
 30
0.0
 10
28.3713534823
 20
44.7505227933
 30
0.0
 10
28.4491488443
 20
44.6423071516
 30
0.0
 10
28.5264629242
 20
44.5380587901
 30
0.0
 10
28.5914026505
 20
44.4544490626
 30
0.0
 10
28.6438958123
 20
44.3905528497
 30
0.0
 10
28.6833518477
 20
44.3448624774
 30
0.0
 10
28.7234846928
 20
44.3014496058
 30
0.0
 10
28.7647135111
 20
44.2610641537
 30
0.0
 10
28.8009315559
 20
44.2307526203
 30
0.0
 10
28.831519253
 20
44.2100354254
 30
0.0
 10
28.8551962826
 20
44.1966732389
 30
0.0
 10
28.8803647823
 20
44.1864867104
 30
0.0
 10
28.9075174415
 20
44.1812073609
 30
0.0
 10
28.9364382102
 20
44.182462708
 30
0.0
 10
28.9553297184
 20
44.1888106161
 30
0.0
 10
28.9643937683
 20
44.1933711298
 30
0.0
  0
SPLINE
  5
305
100
AcDbEntity
  8
0
100
AcDbSpline
 62
7
  6
CONTINUOUS
 70
0
 71
3
 72
15
 73
11
 74
0
 42
0.0000001
 43
0.0000001
 44
0.0000000001
 40
0.0
 40
0.0
 40
0.0
 40
0.0
 40
0.1128991989
 40
0.2340568337
 40
0.3614120918
 40
0.4925194415
 40
0.6246467576
 40
0.75499486
 40
0.8809182474
 40
1.0
 40
1.0
 40
1.0
 40
1.0
 10
26.8592455703
 20
43.9769361836
 30
0.0
 10
26.8584402947
 20
44.1277508244
 30
0.0
 10
26.8319249413
 20
44.4405406357
 30
0.0
 10
26.729203618
 20
44.9133867679
 30
0.0
 10
26.5651249215
 20
45.3943348605
 30
0.0
 10
26.3448891945
 20
45.86837574
 30
0.0
 10
26.0752655997
 20
46.3208109086
 30
0.0
 10
25.7646704184
 20
46.7376368232
 30
0.0
 10
25.4227816614
 20
47.1057532563
 30
0.0
 10
25.172553531
 20
47.3183423069
 30
0.0
 10
25.0444270068
 20
47.412622191
 30
0.0
  0
SPLINE
  5
306
100
AcDbEntity
  8
0
100
AcDbSpline
 62
7
  6
CONTINUOUS
 70
0
 71
3
 72
11
 73
7
 74
0
 42
0.0000001
 43
0.0000001
 44
0.0000000001
 40
0.0
 40
0.0
 40
0.0
 40
0.0
 40
0.2620643759
 40
0.5162805192
 40
0.7623280278
 40
1.0
 40
1.0
 40
1.0
 40
1.0
 10
25.0444270068
 20
47.412622191
 30
0.0
 10
23.8746546331
 20
48.2651771876
 30
0.0
 10
21.5282160378
 20
49.8882542358
 30
0.0
 10
17.9414328342
 20
52.0977335281
 30
0.0
 10
14.3540327816
 20
54.0371987391
 30
0.0
 10
11.9293979314
 20
55.164440477
 30
0.0
 10
10.7213759887
 20
55.6782647816
 30
0.0
  0
SPLINE
  5
307
100
AcDbEntity
  8
0
100
AcDbSpline
 62
7
  6
CONTINUOUS
 70
0
 71
3
 72
13
 73
9
 74
0
 42
0.0000001
 43
0.0000001
 44
0.0000000001
 40
0.0
 40
0.0
 40
0.0
 40
0.0
 40
0.2809903645
 40
0.5372667568
 40
0.6576996557
 40
0.7741438523
 40
0.887797113
 40
1.0
 40
1.0
 40
1.0
 40
1.0
 10
10.7213759887
 20
55.6782647816
 30
0.0
 10
10.6140740999
 20
55.723015269
 30
0.0
 10
10.4017734125
 20
55.793047267
 30
0.0
 10
10.1294782843
 20
55.8270268495
 30
0.0
 10
9.9252671455
 20
55.8159247736
 30
0.0
 10
9.7821783053
 20
55.7898131554
 30
0.0
 10
9.6470758943
 20
55.7459539637
 30
0.0
 10
9.56272814
 20
55.704892674
 30
0.0
 10
9.5225257995
 20
55.6816773883
 30
0.0
  0
SPLINE
  5
308
100
AcDbEntity
  8
0
100
AcDbSpline
 62
7
  6
CONTINUOUS
 70
0
 71
3
 72
9
 73
5
 74
0
 42
0.0000001
 43
0.0000001
 44
0.0000000001
 40
0.0
 40
0.0
 40
0.0
 40
0.0
 40
0.2390931375
 40
1.0
 40
1.0
 40
1.0
 40
1.0
 10
25.289784277
 20
48.9954034671
 30
0.0
 10
25.3691590527
 20
48.9316504731
 30
0.0
 10
25.6912988055
 20
48.6525540805
 30
0.0
 10
25.9791726308
 20
48.3374094041
 30
0.0
 10
26.1988067149
 20
48.099214556
 30
0.0
  0
SPLINE
  5
309
100
AcDbEntity
  8
0
100
AcDbSpline
 62
7
  6
CONTINUOUS
 70
0
 71
3
 72
30
 73
26
 74
0
 42
0.0000001
 43
0.0000001
 44
0.0000000001
 40
0.0
 40
0.0
 40
0.0
 40
0.0
 40
0.0058045155
 40
0.0126320118
 40
0.0200485786
 40
0.0274437631
 40
0.0350021632
 40
0.0425793466
 40
0.0578561856
 40
0.0732428999
 40
0.0886979996
 40
0.1197296086
 40
0.1508806403
 40
0.1821196486
 40
0.2134201434
 40
0.2447589039
 40
0.3075206592
 40
0.3703701588
 40
0.4332690954
 40
0.4961941654
 40
0.5591418648
 40
0.6221068693
 40
0.748065886
 40
0.874036336
 40
1.0
 40
1.0
 40
1.0
 40
1.0
 10
16.0967397385
 20
30.4745287681
 30
0.0
 10
16.0956320316
 20
30.4731619631
 30
0.0
 10
16.09225845
 20
30.47021943
 30
0.0
 10
16.0861294074
 20
30.4732635836
 30
0.0
 10
16.0801756602
 20
30.4754273246
 30
0.0
 10
16.0738347574
 20
30.4780033061
 30
0.0
 10
16.0676241134
 20
30.4808032194
 30
0.0
 10
16.059212602
 20
30.4845868805
 30
0.0
 10
16.0487312349
 20
30.4895302258
 30
0.0
 10
16.0361542439
 20
30.4956324135
 30
0.0
 10
16.0193487326
 20
30.5039547399
 30
0.0
 10
15.9983431152
 20
30.5145621054
 30
0.0
 10
15.9731651158
 20
30.5275175154
 30
0.0
 10
15.9479890745
 20
30.5406538092
 30
0.0
 10
15.9228197313
 20
30.5539252186
 30
0.0
 10
15.8892551621
 20
30.5717590854
 30
0.0
 10
15.8473386782
 20
30.5942531181
 30
0.0
 10
15.797114796
 20
30.6214949865
 30
0.0
 10
15.7469428095
 20
30.648935536
 30
0.0
 10
15.6968269863
 20
30.6765402305
 30
0.0
 10
15.6467716616
 20
30.7042957814
 30
0.0
 10
15.5801044582
 20
30.7414896696
 30
0.0
 10
15.4969262217
 20
30.7882946464
 30
0.0
 10
15.3973607422
 20
30.8449116619
 30
0.0
 10
15.3311476785
 20
30.8829465525
 30
0.0
 10
15.2980836966
 20
30.9020355345
 30
0.0
  0
SPLINE
  5
30A
100
AcDbEntity
  8
0
100
AcDbSpline
 62
7
  6
CONTINUOUS
 70
0
 71
3
 72
9
 73
5
 74
0
 42
0.0000001
 43
0.0000001
 44
0.0000000001
 40
0.0
 40
0.0
 40
0.0
 40
0.0
 40
0.4745240937
 40
1.0
 40
1.0
 40
1.0
 40
1.0
 10
26.8559202449
 20
31.3233800619
 30
0.0
 10
26.8558216888
 20
31.3355104431
 30
0.0
 10
26.8512967742
 20
31.3611205594
 30
0.0
 10
26.8404542044
 20
31.3844616126
 30
0.0
 10
26.8340368126
 20
31.3962629319
 30
0.0
  0
SPLINE
  5
30B
100
AcDbEntity
  8
0
100
AcDbSpline
 62
7
  6
CONTINUOUS
 70
0
 71
3
 72
15
 73
11
 74
0
 42
0.0000001
 43
0.0000001
 44
0.0000000001
 40
0.0
 40
0.0
 40
0.0
 40
0.0
 40
0.1080132326
 40
0.21806454
 40
0.3320080066
 40
0.4513520154
 40
0.5772560744
 40
0.7105118026
 40
0.8514951588
 40
1.0
 40
1.0
 40
1.0
 40
1.0
 10
16.322221448
 20
17.8360925199
 30
0.0
 10
16.3796023307
 20
17.8692296819
 30
0.0
 10
16.4899368581
 20
17.9462091876
 30
0.0
 10
16.635722844
 20
18.089683969
 30
0.0
 10
16.7610728271
 20
18.2599757672
 30
0.0
 10
16.8649145884
 20
18.4551182757
 30
0.0
 10
16.9463403863
 20
18.6732087667
 30
0.0
 10
17.0048004521
 20
18.9121397448
 30
0.0
 10
17.0397301695
 20
19.169524881
 30
0.0
 10
17.0471175365
 20
19.347234116
 30
0.0
 10
17.0471175365
 20
19.4383360139
 30
0.0
  0
SPLINE
  5
30C
100
AcDbEntity
  8
0
100
AcDbSpline
 62
7
  6
CONTINUOUS
 70
0
 71
3
 72
9
 73
5
 74
0
 42
0.0000001
 43
0.0000001
 44
0.0000000001
 40
0.0
 40
0.0
 40
0.0
 40
0.0
 40
0.2533919488
 40
1.0
 40
1.0
 40
1.0
 40
1.0
 10
23.5763425438
 20
23.4259340531
 30
0.0
 10
22.1100540268
 20
24.333695418
 30
0.0
 10
16.2965849895
 20
27.8725535151
 30
0.0
 10
10.3751099157
 20
31.2345095297
 30
0.0
 10
5.8958294202
 20
33.6335520881
 30
0.0
  0
SPLINE
  5
30D
100
AcDbEntity
  8
0
100
AcDbSpline
 62
7
  6
CONTINUOUS
 70
0
 71
3
 72
11
 73
7
 74
0
 42
0.0000001
 43
0.0000001
 44
0.0000000001
 40
0.0
 40
0.0
 40
0.0
 40
0.0
 40
0.2360469847
 40
0.497453432
 40
0.7602396921
 40
1.0
 40
1.0
 40
1.0
 40
1.0
 10
23.712633507
 20
23.1832349407
 30
0.0
 10
23.7125315128
 20
23.2058890875
 30
0.0
 10
23.7044083211
 20
23.2536663949
 30
0.0
 10
23.6752939704
 20
23.3211619629
 30
0.0
 10
23.6325547636
 20
23.3813604981
 30
0.0
 10
23.5958546003
 20
23.4137367305
 30
0.0
 10
23.5763425438
 20
23.4259340531
 30
0.0
  0
SPLINE
  5
30E
100
AcDbEntity
  8
0
100
AcDbSpline
 62
7
  6
CONTINUOUS
 70
0
 71
3
 72
35
 73
31
 74
0
 42
0.0000001
 43
0.0000001
 44
0.0000000001
 40
0.0
 40
0.0
 40
0.0
 40
0.0
 40
0.0325428787
 40
0.0665664293
 40
0.1018979293
 40
0.1383727764
 40
0.2139171148
 40
0.2914265959
 40
0.3689377485
 40
0.4444822146
 40
0.4809598741
 40
0.5162912956
 40
0.550302852
 40
0.582856145
 40
0.6138505419
 40
0.6432372771
 40
0.6710235989
 40
0.697286925
 40
0.7221818603
 40
0.7459460019
 40
0.7688994798
 40
0.7914281011
 40
0.8139564478
 40
0.836909274
 40
0.8606735287
 40
0.8855688024
 40
0.9118295965
 40
0.9396164116
 40
0.9690157675
 40
1.0
 40
1.0
 40
1.0
 40
1.0
 10
14.7360859229
 20
27.7072785337
 30
0.0
 10
14.9317462217
 20
27.5943165631
 30
0.0
 10
15.3220550527
 20
27.3457472336
 30
0.0
 10
15.8882465664
 20
26.9206385864
 30
0.0
 10
16.4433592901
 20
26.4383977725
 30
0.0
 10
17.1698849452
 20
25.7173627692
 30
0.0
 10
18.0144032136
 20
24.7038137701
 30
0.0
 10
18.8929887706
 20
23.3618338639
 30
0.0
 10
19.6158813849
 20
21.9299649066
 30
0.0
 10
20.0714195579
 20
20.6917971422
 30
0.0
 10
20.3325726169
 20
19.7020593622
 30
0.0
 10
20.4726321748
 20
18.9802733198
 30
0.0
 10
20.5577487352
 20
18.2773576812
 30
0.0
 10
20.5871908937
 20
17.5999592018
 30
0.0
 10
20.5604804993
 20
16.9544671123
 30
0.0
 10
20.4779110453
 20
16.3469540784
 30
0.0
 10
20.3399612347
 20
15.7831451195
 30
0.0
 10
20.1477526595
 20
15.268382328
 30
0.0
 10
19.9027245011
 20
14.8076763494
 30
0.0
 10
19.6067962476
 20
14.4057804684
 30
0.0
 10
19.2626391307
 20
14.0670388754
 30
0.0
 10
18.8735433692
 20
13.7955478983
 30
0.0
 10
18.4438884435
 20
13.5943156924
 30
0.0
 10
17.9784633229
 20
13.4656128111
 30
0.0
 10
17.4824476637
 20
13.410278836
 30
0.0
 10
16.9609657149
 20
13.4284223967
 30
0.0
 10
16.4190703812
 20
13.5192983004
 30
0.0
 10
15.8617382228
 20
13.6817498317
 30
0.0
 10
15.2943661343
 20
13.9140406726
 30
0.0
 10
14.9223750419
 20
14.1087264892
 30
0.0
 10
14.7360859229
 20
14.216278129
 30
0.0
  0
SPLINE
  5
30F
100
AcDbEntity
  8
0
100
AcDbSpline
 62
7
  6
CONTINUOUS
 70
0
 71
3
 72
35
 73
31
 74
0
 42
0.0000001
 43
0.0000001
 44
0.0000000001
 40
0.0
 40
0.0
 40
0.0
 40
0.0
 40
0.0325428787
 40
0.0665664293
 40
0.1018979293
 40
0.1383727764
 40
0.2139171148
 40
0.2914265959
 40
0.3689377485
 40
0.4444822146
 40
0.4809598741
 40
0.5162912956
 40
0.550302852
 40
0.582856145
 40
0.6138505419
 40
0.6432372771
 40
0.6710235989
 40
0.697286925
 40
0.7221818603
 40
0.7459460019
 40
0.7688994798
 40
0.7914281011
 40
0.8139564478
 40
0.836909274
 40
0.8606735287
 40
0.8855688024
 40
0.9118295965
 40
0.9396164116
 40
0.9690157675
 40
1.0
 40
1.0
 40
1.0
 40
1.0
 10
14.7360859229
 20
14.216278129
 30
0.0
 10
14.5404256241
 20
14.3292400996
 30
0.0
 10
14.1501167932
 20
14.5778094292
 30
0.0
 10
13.5839252795
 20
15.0029180764
 30
0.0
 10
13.0288125558
 20
15.4851588902
 30
0.0
 10
12.3022869007
 20
16.2061938935
 30
0.0
 10
11.4577686322
 20
17.2197428926
 30
0.0
 10
10.5791830753
 20
18.5617227988
 30
0.0
 10
9.8562904609
 20
19.9935917561
 30
0.0
 10
9.400752288
 20
21.2317595205
 30
0.0
 10
9.1395992289
 20
22.2214973005
 30
0.0
 10
8.9995396711
 20
22.9432833429
 30
0.0
 10
8.9144231107
 20
23.6461989815
 30
0.0
 10
8.8849809521
 20
24.3235974609
 30
0.0
 10
8.9116913465
 20
24.9690895504
 30
0.0
 10
8.9942608006
 20
25.5766025843
 30
0.0
 10
9.1322106111
 20
26.1404115432
 30
0.0
 10
9.3244191864
 20
26.6551743347
 30
0.0
 10
9.5694473448
 20
27.1158803133
 30
0.0
 10
9.8653755983
 20
27.5177761943
 30
0.0
 10
10.2095327152
 20
27.8565177874
 30
0.0
 10
10.5986284767
 20
28.1280087644
 30
0.0
 10
11.0282834023
 20
28.3292409703
 30
0.0
 10
11.4937085229
 20
28.4579438516
 30
0.0
 10
11.9897241821
 20
28.5132778267
 30
0.0
 10
12.511206131
 20
28.495134266
 30
0.0
 10
13.0531014646
 20
28.4042583623
 30
0.0
 10
13.6104336231
 20
28.241806831
 30
0.0
 10
14.1778057115
 20
28.0095159902
 30
0.0
 10
14.549796804
 20
27.8148301735
 30
0.0
 10
14.7360859229
 20
27.7072785337
 30
0.0
  0
SPLINE
  5
310
100
AcDbEntity
  8
0
100
AcDbSpline
 62
7
  6
CONTINUOUS
 70
0
 71
3
 72
23
 73
19
 74
0
 42
0.0000001
 43
0.0000001
 44
0.0000000001
 40
0.0
 40
0.0
 40
0.0
 40
0.0
 40
0.0742765413
 40
0.1447529373
 40
0.2113639819
 40
0.2743172952
 40
0.3339975135
 40
0.3909670013
 40
0.445991675
 40
0.4999980315
 40
0.5540044791
 40
0.6090294174
 40
0.6659993202
 40
0.7256800717
 40
0.7886340008
 40
0.8552457095
 40
0.9257227871
 40
1.0
 40
1.0
 40
1.0
 40
1.0
 10
14.5551786424
 20
26.6053277873
 30
0.0
 10
14.3964380984
 20
26.6969746098
 30
0.0
 10
14.0794596994
 20
26.8628703672
 30
0.0
 10
13.5959939439
 20
27.0608080282
 30
0.0
 10
13.1210845627
 20
27.1992379896
 30
0.0
 10
12.6593260742
 20
27.2766764092
 30
0.0
 10
12.2149582065
 20
27.2921443382
 30
0.0
 10
11.7922874616
 20
27.244990721
 30
0.0
 10
11.3956816415
 20
27.1353241562
 30
0.0
 10
11.0295594125
 20
26.9638491391
 30
0.0
 10
10.6980018114
 20
26.732506872
 30
0.0
 10
10.4047303871
 20
26.443861163
 30
0.0
 10
10.1525644675
 20
26.1013865148
 30
0.0
 10
9.9437819136
 20
25.708811298
 30
0.0
 10
9.779972084
 20
25.2701906122
 30
0.0
 10
9.6624070049
 20
24.7896856851
 30
0.0
 10
9.5920988477
 20
24.2720174577
 30
0.0
 10
9.577283202
 20
23.9145547556
 30
0.0
 10
9.577283202
 20
23.7312563433
 30
0.0
  0
SPLINE
  5
311
100
AcDbEntity
  8
0
100
AcDbSpline
 62
7
  6
CONTINUOUS
 70
0
 71
3
 72
19
 73
15
 74
0
 42
0.0000001
 43
0.0000001
 44
0.0000000001
 40
0.0
 40
0.0
 40
0.0
 40
0.0
 40
0.0558341462
 40
0.1142086479
 40
0.174826854
 40
0.2374064231
 40
0.3670181203
 40
0.50000108
 40
0.6329838894
 40
0.7625951472
 40
0.8251743989
 40
0.8857922313
 40
0.9441663114
 40
1.0
 40
1.0
 40
1.0
 40
1.0
 10
19.5330740828
 20
17.983407832
 30
0.0
 10
19.5330740828
 20
18.1759282128
 30
0.0
 10
19.5159313239
 20
18.5698703976
 30
0.0
 10
19.4434456753
 20
19.1688241431
 30
0.0
 10
19.3240784092
 20
19.7839415147
 30
0.0
 10
19.1015226209
 20
20.6272966248
 30
0.0
 10
18.7133727801
 20
21.6823547447
 30
0.0
 10
18.0973712746
 20
22.902475531
 30
0.0
 10
17.3487118341
 20
24.0460040629
 30
0.0
 10
16.6290770652
 20
24.9096745908
 30
0.0
 10
16.0099869937
 20
25.5240845683
 30
0.0
 10
15.5369634147
 20
25.9350125703
 30
0.0
 10
15.0544976857
 20
26.2972574858
 30
0.0
 10
14.7219057592
 20
26.5090700192
 30
0.0
 10
14.5551786424
 20
26.6053277873
 30
0.0
  0
SPLINE
  5
312
100
AcDbEntity
  8
0
100
AcDbSpline
 62
7
  6
CONTINUOUS
 70
0
 71
3
 72
23
 73
19
 74
0
 42
0.0000001
 43
0.0000001
 44
0.0000000001
 40
0.0
 40
0.0
 40
0.0
 40
0.0
 40
0.0742765413
 40
0.1447529373
 40
0.2113639819
 40
0.2743172952
 40
0.3339975135
 40
0.3909670013
 40
0.445991675
 40
0.4999980315
 40
0.5540044791
 40
0.6090294174
 40
0.6659993202
 40
0.7256800717
 40
0.7886340008
 40
0.8552457095
 40
0.9257227871
 40
1.0
 40
1.0
 40
1.0
 40
1.0
 10
14.5551786424
 20
15.1093363881
 30
0.0
 10
14.7139191863
 20
15.0176895656
 30
0.0
 10
15.0308975854
 20
14.8517938081
 30
0.0
 10
15.5143633408
 20
14.6538561471
 30
0.0
 10
15.9892727221
 20
14.5154261858
 30
0.0
 10
16.4510312105
 20
14.4379877662
 30
0.0
 10
16.8953990783
 20
14.4225198371
 30
0.0
 10
17.3180698232
 20
14.4696734544
 30
0.0
 10
17.7146756433
 20
14.5793400192
 30
0.0
 10
18.0807978723
 20
14.7508150363
 30
0.0
 10
18.4123554734
 20
14.9821573034
 30
0.0
 10
18.7056268977
 20
15.2708030124
 30
0.0
 10
18.9577928172
 20
15.6132776606
 30
0.0
 10
19.1665753712
 20
16.0058528773
 30
0.0
 10
19.3303852007
 20
16.4444735632
 30
0.0
 10
19.4479502798
 20
16.9249784903
 30
0.0
 10
19.518258437
 20
17.4426467176
 30
0.0
 10
19.5330740828
 20
17.8001094198
 30
0.0
 10
19.5330740828
 20
17.983407832
 30
0.0
  0
SPLINE
  5
313
100
AcDbEntity
  8
0
100
AcDbSpline
 62
7
  6
CONTINUOUS
 70
0
 71
3
 72
15
 73
11
 74
0
 42
0.0000001
 43
0.0000001
 44
0.0000000001
 40
0.0
 40
0.0
 40
0.0
 40
0.0
 40
0.111036846
 40
0.2291115366
 40
0.3529479635
 40
0.4810395169
 40
0.6116411487
 40
0.7429099746
 40
0.8729697102
 40
1.0
 40
1.0
 40
1.0
 40
1.0
 10
9.577283202
 20
23.7312563433
 30
0.0
 10
9.577283202
 20
23.4404355798
 30
0.0
 10
9.6165377739
 20
22.8399645992
 30
0.0
 10
9.7780168012
 20
21.9282027704
 30
0.0
 10
10.040684628
 20
20.9938556265
 30
0.0
 10
10.3988313607
 20
20.0567705819
 30
0.0
 10
10.8449835304
 20
19.1366344918
 30
0.0
 10
11.3696802542
 20
18.2529099315
 30
0.0
 10
11.9617503248
 20
17.4243748966
 30
0.0
 10
12.4003487043
 20
16.9120209043
 30
0.0
 10
12.6284180716
 20
16.6697810045
 30
0.0
  0
SPLINE
  5
314
100
AcDbEntity
  8
0
100
AcDbSpline
 62
7
  6
CONTINUOUS
 70
0
 71
3
 72
10
 73
6
 74
0
 42
0.0000001
 43
0.0000001
 44
0.0000000001
 40
0.0
 40
0.0
 40
0.0
 40
0.0
 40
0.5189448836
 40
0.7648768208
 40
1.0
 40
1.0
 40
1.0
 40
1.0
 10
12.6284180716
 20
16.6697810045
 30
0.0
 10
12.9232958311
 20
16.3565817361
 30
0.0
 10
13.387064659
 20
15.9204423537
 30
0.0
 10
14.0496830617
 20
15.4214653823
 30
0.0
 10
14.386388165
 20
15.206785411
 30
0.0
 10
14.5551786424
 20
15.1093363881
 30
0.0
  0
SPLINE
  5
315
100
AcDbEntity
  8
0
100
AcDbSpline
 62
7
  6
CONTINUOUS
 70
0
 71
3
 72
19
 73
15
 74
0
 42
0.0000001
 43
0.0000001
 44
0.0000000001
 40
0.0
 40
0.0
 40
0.0
 40
0.0
 40
0.0558248102
 40
0.1142059005
 40
0.174831835
 40
0.2374084148
 40
0.3670182158
 40
0.5000010962
 40
0.6329838235
 40
0.7625931791
 40
0.8251694371
 40
0.8857949894
 40
0.9441756499
 40
1.0
 40
1.0
 40
1.0
 40
1.0
 10
10.6166792531
 20
22.9924888987
 30
0.0
 10
10.6166792521
 20
22.8448370758
 30
0.0
 10
10.6298485331
 20
22.5426645407
 30
0.0
 10
10.6854246909
 20
22.083209462
 30
0.0
 10
10.7770015213
 20
21.6113432752
 30
0.0
 10
10.9477051065
 20
20.9644205705
 30
0.0
 10
11.2454541614
 20
20.1551351333
 30
0.0
 10
11.7179575935
 20
19.2192178444
 30
0.0
 10
12.2922375961
 20
18.3420629642
 30
0.0
 10
12.8442267983
 20
17.6795667852
 30
0.0
 10
13.3191272708
 20
17.2082768711
 30
0.0
 10
13.6819868886
 20
16.8930403953
 30
0.0
 10
14.0520980864
 20
16.6151874247
 30
0.0
 10
14.3072020357
 20
16.4526998009
 30
0.0
 10
14.4350719345
 20
16.3788757506
 30
0.0
  0
SPLINE
  5
316
100
AcDbEntity
  8
0
100
AcDbSpline
 62
7
  6
CONTINUOUS
 70
0
 71
3
 72
35
 73
31
 74
0
 42
0.0000001
 43
0.0000001
 44
0.0000000001
 40
0.0
 40
0.0
 40
0.0
 40
0.0
 40
0.0325376406
 40
0.0665650919
 40
0.1019011926
 40
0.1383745225
 40
0.2139186152
 40
0.2914275202
 40
0.368938233
 40
0.4444825589
 40
0.4809597342
 40
0.5162912192
 40
0.5503022732
 40
0.5828554908
 40
0.6138493201
 40
0.6432361282
 40
0.6710217069
 40
0.697285382
 40
0.7221794854
 40
0.7459440933
 40
0.7688971541
 40
0.7914256753
 40
0.8139537799
 40
0.8369067346
 40
0.8606725279
 40
0.8855661248
 40
0.9118266393
 40
0.939617587
 40
0.9690215203
 40
1.0
 40
1.0
 40
1.0
 40
1.0
 10
18.2534643858
 20
18.5834886914
 30
0.0
 10
18.253464381
 20
18.7311397072
 30
0.0
 10
18.2402960824
 20
19.0333100535
 30
0.0
 10
18.1847206892
 20
19.4927626384
 30
0.0
 10
18.093144963
 20
19.9646281477
 30
0.0
 10
17.9224423296
 20
20.6115529237
 30
0.0
 10
17.6246943951
 20
21.4208363476
 30
0.0
 10
17.1521922383
 20
22.3567559619
 30
0.0
 10
16.5779054211
 20
23.2339098028
 30
0.0
 10
16.0259095752
 20
23.8964358967
 30
0.0
 10
15.5509788864
 20
24.3677027164
 30
0.0
 10
15.1881924653
 20
24.6828938245
 30
0.0
 10
14.8181002226
 20
24.9607799374
 30
0.0
 10
14.4442828746
 20
25.198843745
 30
0.0
 10
14.0701540592
 20
25.3946602306
 30
0.0
 10
13.6992887729
 20
25.5464866215
 30
0.0
 10
13.3350430932
 20
25.6526218899
 30
0.0
 10
12.980846164
 20
25.712096972
 30
0.0
 10
12.6399770514
 20
25.7238950371
 30
0.0
 10
12.3157548784
 20
25.6877980193
 30
0.0
 10
12.0115561988
 20
25.6035958757
 30
0.0
 10
11.7306737806
 20
25.4721562785
 30
0.0
 10
11.47639668
 20
25.2946329384
 30
0.0
 10
11.2513786483
 20
25.0732819542
 30
0.0
 10
11.058017832
 20
24.8105351107
 30
0.0
 10
10.8977948446
 20
24.5094521494
 30
0.0
 10
10.7721714665
 20
24.1729752834
 30
0.0
 10
10.681966985
 20
23.8043622577
 30
0.0
 10
10.6280663234
 20
23.4072561903
 30
0.0
 10
10.6166792539
 20
23.1330646722
 30
0.0
 10
10.6166792531
 20
22.9924888987
 30
0.0
  0
SPLINE
  5
317
100
AcDbEntity
  8
0
100
AcDbSpline
 62
7
  6
CONTINUOUS
 70
0
 71
3
 72
23
 73
19
 74
0
 42
0.0000001
 43
0.0000001
 44
0.0000000001
 40
0.0
 40
0.0
 40
0.0
 40
0.0
 40
0.0742623836
 40
0.1447494043
 40
0.211369259
 40
0.2743205812
 40
0.3339956346
 40
0.3909675313
 40
0.4459919519
 40
0.4999980492
 40
0.5540042371
 40
0.6090289209
 40
0.6660012305
 40
0.7256768155
 40
0.7886287493
 40
0.8552492583
 40
0.925736949
 40
1.0
 40
1.0
 40
1.0
 40
1.0
 10
14.4350719345
 20
16.3788757506
 30
0.0
 10
14.5568133848
 20
16.3085898815
 30
0.0
 10
14.7999607169
 20
16.1813600611
 30
0.0
 10
15.1708090393
 20
16.0294948489
 30
0.0
 10
15.5351309245
 20
15.9233153012
 30
0.0
 10
15.8893315514
 20
15.8638774774
 30
0.0
 10
16.2301814705
 20
15.8520943777
 30
0.0
 10
16.5544042353
 20
15.8881805223
 30
0.0
 10
16.8586068542
 20
15.9723844376
 30
0.0
 10
17.1394852169
 20
16.1038342669
 30
0.0
 10
17.3937592551
 20
16.281363785
 30
0.0
 10
17.6187790409
 20
16.5027153847
 30
0.0
 10
17.8121375589
 20
16.7654634908
 30
0.0
 10
17.9723535999
 20
17.0665454021
 30
0.0
 10
18.0979747887
 20
17.4030163214
 30
0.0
 10
18.188177109
 20
17.7716229365
 30
0.0
 10
18.2420777704
 20
18.1687239897
 30
0.0
 10
18.2534643904
 20
18.4429133049
 30
0.0
 10
18.2534643858
 20
18.5834886914
 30
0.0
  0
SPLINE
  5
318
100
AcDbEntity
  8
0
100
AcDbSpline
 62
7
  6
CONTINUOUS
 70
0
 71
3
 72
17
 73
13
 74
0
 42
0.0000001
 43
0.0000001
 44
0.0000000001
 40
0.0
 40
0.0
 40
0.0
 40
0.0
 40
0.114139044
 40
0.174768208
 40
0.2373621928
 40
0.3669936151
 40
0.4999989388
 40
0.6330044101
 40
0.7626362634
 40
0.8252305531
 40
0.8858600899
 40
1.0
 40
1.0
 40
1.0
 40
1.0
 10
14.4350719313
 20
16.5004371333
 30
0.0
 10
14.1811563937
 20
16.6476712479
 30
0.0
 10
13.810892918
 20
16.9064258394
 30
0.0
 10
13.3498860367
 20
17.3068763416
 30
0.0
 10
12.8881123063
 20
17.7653028332
 30
0.0
 10
12.3513105341
 20
18.409481425
 30
0.0
 10
11.7928756056
 20
19.2624733073
 30
0.0
 10
11.3333756189
 20
20.1725868859
 30
0.0
 10
11.0438965246
 20
20.9595607274
 30
0.0
 10
10.8777699142
 20
21.5886835158
 30
0.0
 10
10.7614681192
 20
22.1881554934
 30
0.0
 10
10.7225072363
 20
22.6381931768
 30
0.0
 10
10.721954186
 20
22.9317097628
 30
0.0
  0
SPLINE
  5
319
100
AcDbEntity
  8
0
100
AcDbSpline
 62
7
  6
CONTINUOUS
 70
0
 71
3
 72
23
 73
19
 74
0
 42
0.0000001
 43
0.0000001
 44
0.0000000001
 40
0.0
 40
0.0
 40
0.0
 40
0.0
 40
0.0742391488
 40
0.1447471664
 40
0.2113720743
 40
0.2743221502
 40
0.3339980683
 40
0.3909702698
 40
0.445994853
 40
0.5000019776
 40
0.5540090108
 40
0.6090333294
 40
0.6660051151
 40
0.7256805007
 40
0.788629961
 40
0.8552541922
 40
0.9257614998
 40
1.0
 40
1.0
 40
1.0
 40
1.0
 10
18.1481894528
 20
18.6442678273
 30
0.0
 10
18.1479311577
 20
18.5076133104
 30
0.0
 10
18.1367569171
 20
18.2410204131
 30
0.0
 10
18.0847641027
 20
17.8548103974
 30
0.0
 10
17.9970858355
 20
17.4963015621
 30
0.0
 10
17.8748111323
 20
17.1691483561
 30
0.0
 10
17.7190063895
 20
16.8763822721
 30
0.0
 10
17.5310068449
 20
16.6208594446
 30
0.0
 10
17.3121906181
 20
16.4056095419
 30
0.0
 10
17.0649217935
 20
16.2329808432
 30
0.0
 10
16.7917901452
 20
16.1051475437
 30
0.0
 10
16.4959734387
 20
16.0232654482
 30
0.0
 10
16.1806873594
 20
15.9882078633
 30
0.0
 10
15.8492447455
 20
15.9996536164
 30
0.0
 10
15.5047867522
 20
16.0573310407
 30
0.0
 10
15.1504718844
 20
16.1606476605
 30
0.0
 10
14.7900092698
 20
16.3087193556
 30
0.0
 10
14.5535468718
 20
16.4323351077
 30
0.0
 10
14.4350719313
 20
16.5004371333
 30
0.0
  0
SPLINE
  5
31A
100
AcDbEntity
  8
0
100
AcDbSpline
 62
7
  6
CONTINUOUS
 70
0
 71
3
 72
18
 73
14
 74
0
 42
0.0000001
 43
0.0000001
 44
0.0000000001
 40
0.0
 40
0.0
 40
0.0
 40
0.0
 40
0.1137937251
 40
0.1741894459
 40
0.23652714
 40
0.3004844117
 40
0.3656984346
 40
0.4982922448
 40
0.6311264407
 40
0.7609435848
 40
0.823789419
 40
0.8847837012
 40
1.0
 40
1.0
 40
1.0
 40
1.0
 10
14.4350717076
 20
25.0755404568
 30
0.0
 10
14.6842553471
 20
24.9310501555
 30
0.0
 10
15.0478528744
 20
24.67779753
 30
0.0
 10
15.5012638254
 20
24.2864408027
 30
0.0
 10
15.8382618635
 20
23.9546320207
 30
0.0
 10
16.1622694366
 20
23.5936651194
 30
0.0
 10
16.5753139501
 20
23.0751521084
 30
0.0
 10
17.0397388047
 20
22.3765561633
 30
0.0
 10
17.4996064912
 20
21.4858648396
 30
0.0
 10
17.7936820225
 20
20.7140039773
 30
0.0
 10
17.9665468727
 20
20.095199911
 30
0.0
 10
18.091672198
 20
19.5029117162
 30
0.0
 10
18.1392178163
 20
19.0572825223
 30
0.0
 10
18.1465409884
 20
18.7657285109
 30
0.0
  0
SPLINE
  5
31B
100
AcDbEntity
  8
0
100
AcDbSpline
 62
7
  6
CONTINUOUS
 70
0
 71
3
 72
23
 73
19
 74
0
 42
0.0000001
 43
0.0000001
 44
0.0000000001
 40
0.0
 40
0.0
 40
0.0
 40
0.0
 40
0.0742391488
 40
0.1447471664
 40
0.2113720743
 40
0.2743221502
 40
0.3339980683
 40
0.3909702698
 40
0.445994853
 40
0.5000019776
 40
0.5540090108
 40
0.6090333294
 40
0.6660051151
 40
0.7256805007
 40
0.788629961
 40
0.8552541922
 40
0.9257614998
 40
1.0
 40
1.0
 40
1.0
 40
1.0
 10
10.721954186
 20
22.9317097628
 30
0.0
 10
10.7222124811
 20
23.0683642797
 30
0.0
 10
10.7333867218
 20
23.334957177
 30
0.0
 10
10.7853795361
 20
23.7211671927
 30
0.0
 10
10.8730578034
 20
24.079676028
 30
0.0
 10
10.9953325066
 20
24.406829234
 30
0.0
 10
11.1511372493
 20
24.699595318
 30
0.0
 10
11.3391367939
 20
24.9551181455
 30
0.0
 10
11.5579530208
 20
25.1703680482
 30
0.0
 10
11.8052218453
 20
25.3429967469
 30
0.0
 10
12.0783534937
 20
25.4708300464
 30
0.0
 10
12.3741702002
 20
25.5527121419
 30
0.0
 10
12.6894562795
 20
25.5877697268
 30
0.0
 10
13.0208988934
 20
25.5763239737
 30
0.0
 10
13.3653568867
 20
25.5186465494
 30
0.0
 10
13.7196717545
 20
25.4153299296
 30
0.0
 10
14.0801343691
 20
25.2672582345
 30
0.0
 10
14.316596767
 20
25.1436424824
 30
0.0
 10
14.4350717076
 20
25.0755404568
 30
0.0
  0
SPLINE
  5
31C
100
AcDbEntity
  8
0
100
AcDbSpline
 62
7
  6
CONTINUOUS
 70
0
 71
3
 72
15
 73
11
 74
0
 42
0.0000001
 43
0.0000001
 44
0.0000000001
 40
0.0
 40
0.0
 40
0.0
 40
0.0
 40
0.1485252085
 40
0.2894991395
 40
0.422739189
 40
0.5486427654
 40
0.667993806
 40
0.7819382499
 40
0.8919874144
 40
1.0
 40
1.0
 40
1.0
 40
1.0
 10
10.9106327111
 20
22.8356066123
 30
0.0
 10
10.9106327111
 20
22.9657702303
 30
0.0
 10
10.9211753475
 20
23.2196510846
 30
0.0
 10
10.9710836299
 20
23.587340144
 30
0.0
 10
11.0546042112
 20
23.9286453703
 30
0.0
 10
11.1709223496
 20
24.2401971552
 30
0.0
 10
11.3192686609
 20
24.518977582
 30
0.0
 10
11.4983236122
 20
24.7622749151
 30
0.0
 10
11.7066223152
 20
24.9671995438
 30
0.0
 10
11.8642144717
 20
25.0772076565
 30
0.0
 10
11.9461925292
 20
25.1245363202
 30
0.0
  0
SPLINE
  5
31D
100
AcDbEntity
  8
0
100
AcDbSpline
 62
7
  6
CONTINUOUS
 70
0
 71
3
 72
15
 73
11
 74
0
 42
0.0000001
 43
0.0000001
 44
0.0000000001
 40
0.0
 40
0.0
 40
0.0
 40
0.0
 40
0.1485060212
 40
0.2894909372
 40
0.4227478521
 40
0.5486523946
 40
0.6679968526
 40
0.7819402875
 40
0.8919898208
 40
1.0
 40
1.0
 40
1.0
 40
1.0
 10
17.2816803447
 20
19.5737601059
 30
0.0
 10
17.2816803447
 20
19.4826575873
 30
0.0
 10
17.2742925069
 20
19.3049468723
 30
0.0
 10
17.2393618995
 20
19.0475597384
 30
0.0
 10
17.1809010755
 20
18.8086271577
 30
0.0
 10
17.0994732956
 20
18.5905362508
 30
0.0
 10
16.9956292544
 20
18.3953945446
 30
0.0
 10
16.8702777049
 20
18.2251053422
 30
0.0
 10
16.7244943192
 20
18.0816326693
 30
0.0
 10
16.6141620872
 20
18.0046551591
 30
0.0
 10
16.5567825556
 20
17.9715195532
 30
0.0
  0
SPLINE
  5
31E
100
AcDbEntity
  8
0
100
AcDbSpline
 62
7
  6
CONTINUOUS
 70
0
 71
3
 72
9
 73
5
 74
0
 42
0.0000001
 43
0.0000001
 44
0.0000000001
 40
0.0
 40
0.0
 40
0.0
 40
0.0
 40
0.2321250009
 40
1.0
 40
1.0
 40
1.0
 40
1.0
 10
26.8394916428
 20
25.3657957822
 30
0.0
 10
26.8413026717
 20
25.3671539596
 30
0.0
 10
26.8483858566
 20
25.3739788683
 30
0.0
 10
26.8523522744
 20
25.3834485794
 30
0.0
 10
26.8541386782
 20
25.3907208527
 30
0.0
  0
SPLINE
  5
31F
100
AcDbEntity
  8
0
100
AcDbSpline
 62
7
  6
CONTINUOUS
 70
0
 71
3
 72
9
 73
5
 74
0
 42
0.0000001
 43
0.0000001
 44
0.0000000001
 40
0.0
 40
0.0
 40
0.0
 40
0.0
 40
0.2371326641
 40
1.0
 40
1.0
 40
1.0
 40
1.0
 10
26.8541386782
 20
25.3907208527
 30
0.0
 10
26.8544534855
 20
25.3920024025
 30
0.0
 10
26.8556270304
 20
25.3974424524
 30
0.0
 10
26.8560647454
 20
25.4030494289
 30
0.0
 10
26.8559202449
 20
25.4072923441
 30
0.0
  0
SPLINE
  5
320
100
AcDbEntity
  8
0
100
AcDbSpline
 62
7
  6
CONTINUOUS
 70
0
 71
3
 72
25
 73
21
 74
0
 42
0.0000001
 43
0.0000001
 44
0.0000000001
 40
0.0
 40
0.0
 40
0.0
 40
0.0
 40
0.0623687644
 40
0.1287296335
 40
0.198313865
 40
0.2702910451
 40
0.3436690129
 40
0.4173996926
 40
0.4904243892
 40
0.561710424
 40
0.630307293
 40
0.6953957341
 40
0.7563431131
 40
0.8127800716
 40
0.864681734
 40
0.9124572373
 40
0.9351018716
 40
0.9571072055
 40
0.9786681079
 40
1.0
 40
1.0
 40
1.0
 40
1.0
 10
17.0471175365
 20
19.4383360139
 30
0.0
 10
17.0471175365
 20
19.5835037762
 30
0.0
 10
17.0274104128
 20
19.883327741
 30
0.0
 10
16.9465195782
 20
20.3385552598
 30
0.0
 10
16.8148868708
 20
20.8050373709
 30
0.0
 10
16.635454578
 20
21.2727360339
 30
0.0
 10
16.4119841206
 20
21.7317919791
 30
0.0
 10
16.149268666
 20
22.1724005815
 30
0.0
 10
15.8529069654
 20
22.5851626692
 30
0.0
 10
15.5291881651
 20
22.9612657203
 30
0.0
 10
15.1850117289
 20
23.292737854
 30
0.0
 10
14.8276149032
 20
23.5725563255
 30
0.0
 10
14.464405259
 20
23.7947575429
 30
0.0
 10
14.1027409671
 20
23.9545695988
 30
0.0
 10
13.7499568899
 20
24.0483584963
 30
0.0
 10
13.4638229529
 20
24.0693559112
 30
0.0
 10
13.2492196972
 20
24.0492203196
 30
0.0
 10
13.0981325897
 20
24.0169702965
 30
0.0
 10
12.955005156
 20
23.9675277169
 30
0.0
 10
12.8652423228
 20
23.9230952032
 30
0.0
 10
12.822245549
 20
23.8982647895
 30
0.0
  0
SPLINE
  5
321
100
AcDbEntity
  8
0
100
AcDbSpline
 62
7
  6
CONTINUOUS
 70
0
 71
3
 72
25
 73
21
 74
0
 42
0.0000001
 43
0.0000001
 44
0.0000000001
 40
0.0
 40
0.0
 40
0.0
 40
0.0
 40
0.0213321998
 40
0.0428928676
 40
0.0648981414
 40
0.0875434881
 40
0.1353183769
 40
0.1872190386
 40
0.2436572622
 40
0.3046052176
 40
0.3696923557
 40
0.4382893756
 40
0.5095761376
 40
0.5826003184
 40
0.6563312486
 40
0.7297087052
 40
0.8016864406
 40
0.8712719654
 40
0.9376266243
 40
1.0
 40
1.0
 40
1.0
 40
1.0
 10
16.9461701445
 20
16.4642693592
 30
0.0
 10
16.8847409778
 20
16.4288042547
 30
0.0
 10
16.7564935694
 20
16.3653634026
 30
0.0
 10
16.5520469842
 20
16.2946728654
 30
0.0
 10
16.3361990717
 20
16.2486223472
 30
0.0
 10
16.0296216894
 20
16.2198865667
 30
0.0
 10
15.6208641924
 20
16.2498668663
 30
0.0
 10
15.1168759561
 20
16.3838147836
 30
0.0
 10
14.6002195724
 20
16.6121467293
 30
0.0
 10
14.0813612945
 20
16.9295972615
 30
0.0
 10
13.5707770613
 20
17.3293115717
 30
0.0
 10
13.0790885303
 20
17.8028358928
 30
0.0
 10
12.6166560565
 20
18.340147641
 30
0.0
 10
12.1932776278
 20
18.929805405
 30
0.0
 10
11.8179583886
 20
19.5592368643
 30
0.0
 10
11.4987103267
 20
20.2150310995
 30
0.0
 10
11.242398512
 20
20.8831848985
 30
0.0
 10
11.0543509231
 20
21.5495714254
 30
0.0
 10
10.9387688501
 20
22.199892411
 30
0.0
 10
10.9106327111
 20
22.6282086851
 30
0.0
 10
10.9106327111
 20
22.8356066123
 30
0.0
  0
ELLIPSE
  5
322
100
AcDbEntity
  8
0
100
AcDbEllipse
 62
7
  6
CONTINUOUS
 10
28.2635005487
 20
25.3379130439
 30
0.0
 11
0.9999163136
 21
-0.0229562587
 31
0.0
 40
0.5614199498
 41
-2.3433018602
 42
-2.2017637471
  0
ELLIPSE
  5
323
100
AcDbEntity
  8
0
100
AcDbEllipse
 62
7
  6
CONTINUOUS
 10
8.9019601927
 20
36.5160506971
 30
0.0
 11
0.9999163136
 21
-0.0229562587
 31
0.0
 40
0.5614199498
 41
-2.4848399734
 42
-2.3433018602
  0
ELLIPSE
  5
324
100
AcDbEntity
  8
0
100
AcDbEllipse
 62
7
  6
CONTINUOUS
 10
8310.9662722902
 20
5087.8685125693
 30
0.0
 11
8300.8358331364
 21
5052.500455402
 31
0.0
 40
0.0237915238
 41
3.1182395534
 42
3.1189034397
  0
ELLIPSE
  5
325
100
AcDbEntity
  8
0
100
AcDbEllipse
 62
7
  6
CONTINUOUS
 10
8.9019601927
 20
42.583283908
 30
0.0
 11
0.9998939333
 21
0.0244878907
 31
0.0
 40
0.592987056
 41
-2.5122499617
 42
-2.3707118486
  0
ELLIPSE
  5
326
100
AcDbEntity
  8
0
100
AcDbEllipse
 62
7
  6
CONTINUOUS
 10
28.2635005487
 20
31.4051462548
 30
0.0
 11
0.9998939333
 21
0.0244878907
 31
0.0
 40
0.592987056
 41
-2.3707118486
 42
-2.2291737354
  0
ELLIPSE
  5
327
100
AcDbEntity
  8
0
100
AcDbEllipse
 62
7
  6
CONTINUOUS
 10
-374.8419645194
 20
-185.5365408956
 30
0.0
 11
408.6591131341
 21
231.873141428
 31
0.0
 40
0.0075571445
 41
-0.0042878965
 42
0.1500330246
  0
ELLIPSE
  5
328
100
AcDbEntity
  8
0
100
AcDbEllipse
 62
7
  6
CONTINUOUS
 10
8310.9662722902
 20
5087.8685125693
 30
0.0
 11
8300.8358331364
 21
5052.5004554019
 31
0.0
 40
0.0237915238
 41
-3.0928833175
 42
-3.0922194312
  0
ELLIPSE
  5
329
100
AcDbEntity
  8
0
100
AcDbEllipse
 62
7
  6
CONTINUOUS
 10
1116.6355344625
 20
934.2445182367
 30
0.0
 11
1112.566302525
 21
887.4038405467
 31
0.0
 40
0.1727490071
 41
-3.1096122353
 42
-3.0382136853
  0
ENDSEC
  0
SECTION
  2
OBJECTS
  0
DICTIONARY
  5
C
100
AcDbDictionary
280
0
281
1
  3
ACAD_GROUP
350
D
  3
ACAD_MLINESTYLE
350
17
  3
ACAD_LAYOUT
350
1A
  3
ACAD_PLOTSETTINGS
350
19
  3
ACAD_PLOTSTYLENAME
350
E
  0
DICTIONARY
  5
D
102
{ACAD_REACTORS
330
C
102
}
100
AcDbDictionary
280
0
281
1
  0
ACDBDICTIONARYWDFLT
  5
E
102
{ACAD_REACTORS
330
C
102
}
100
AcDbDictionary
281
1
  3
Normal
350
F
100
AcDbDictionaryWithDefault
340
F
  0
DICTIONARY
  5
17
102
{ACAD_REACTORS
330
C
102
}
100
AcDbDictionary
280
0
281
1
  3
Standard
350
18
  0
DICTIONARY
  5
19
102
{ACAD_REACTORS
330
C
102
}
100
AcDbDictionary
281
1
  0
DICTIONARY
  5
1A
102
{ACAD_REACTORS
330
C
102
}
100
AcDbDictionary
281
1
  3
Model
350
32A
  3
Layout1
350
32B
  0
ACDBPLACEHOLDER
  5
F
102
{ACAD_REACTORS
330
E
102
}
  0
MLINESTYLE
  5
18
102
{ACAD_REACTORS
330
17
102
}
100
AcDbMlineStyle
  2
STANDARD
 70
0
  3

 62
256
 51
90.0
 52
90.0
 71
2
 49
0.5
 62
256
  6
BYLAYER
 49
-0.5
 62
256
  6
BYLAYER
  0
LAYOUT
  5
32A
102
{ACAD_REACTORS
330
1A
102
}
100
AcDbPlotSettings
  1

  2
none_device
  4

  6

 40
0.0
 41
0.0
 42
0.0
 43
0.0
 44
210.0
 45
297.0
 46
0.0
 47
0.0
 48
0.0
 49
0.0
140
0.0
141
0.0
142
1.0
143
1.0
 70
1024
 72
1
 73
0
 74
0
  7

 75
0
147
1.0
148
0.0
149
0.0
100
AcDbLayout
  1
Model
 70
0
 71
0
 10
0.0
 20
0.0
 11
210.0
 21
297.0
 12
0.0
 22
0.0
 32
0.0
 14
0.0
 24
0.0
 34
0.0
 15
0.0
 25
0.0
 35
0.0
146
0.0
 13
0.0
 23
0.0
 33
0.0
 16
1.0
 26
0.0
 36
0.0
 17
0.0
 27
1.0
 37
0.0
 76
0
330
210
345
0
346
0
  0
LAYOUT
  5
32B
102
{ACAD_REACTORS
330
1A
102
}
100
AcDbPlotSettings
  1

  2
none_device
  4

  6

 40
0.0
 41
0.0
 42
0.0
 43
0.0
 44
210.0
 45
297.0
 46
0.0
 47
0.0
 48
0.0
 49
0.0
140
0.0
141
0.0
142
1.0
143
1.0
 70
0
 72
1
 73
0
 74
0
  7

 75
0
147
1.0
148
0.0
149
0.0
100
AcDbLayout
  1
Layout1
 70
0
 71
1
 10
0.0
 20
0.0
 11
210.0
 21
297.0
 12
0.0
 22
0.0
 32
0.0
 14
0.0
 24
0.0
 34
0.0
 15
0.0
 25
0.0
 35
0.0
146
0.0
 13
0.0
 23
0.0
 33
0.0
 16
1.0
 26
0.0
 36
0.0
 17
0.0
 27
1.0
 37
0.0
 76
0
330
211
345
0
346
0
  0
ENDSEC
  0
EOF
