999
DXF file: C:\Gen2D\CAD\LC2D093BD_3D-CAD\drw0001_5.dxf
999
Pro/ENGINEER 2019471 by Parametric Technology Corporation
  0
SECTION
  2
HEADER
  9
$ACADVER
  1
AC1024
  9
$DWGCODEPAGE
  3
ANSI_1252
  9
$EXTMAX
 10
118.9963799212
 20
168.2948801743
 30
0.0
  9
$EXTMIN
 10
0.0
 20
0.0
 30
0.0
  9
$LIMMIN
 10
0.0
 20
0.0
  9
$LIMMAX
 10
118.9963799212
 20
168.2948801743
  9
$VIEWCTR
 10
59.4981899606
 20
84.1474400871
  9
$VIEWSIZE
 40
168.2948801743
  9
$CLAYER
  8
0
  9
$LTSCALE
 40
10.9703329299
  9
$CELTYPE
  6
BYLAYER
  9
$DIMSCALE
 40
1.0
  9
$DIMASZ
 40
1.4166235705
  9
$DIMEXO
 40
1.0
  9
$DIMDLI
 40
7.5795027516
  9
$DIMEXE
 40
1.0
  9
$DIMCEN
 40
1.7951453885
  9
$DIMLFAC
 40
1.0
  9
$DIMBLK
  1
_FILLED
  9
$DIMALT
 70
0
  9
$DIMALTF
 40
0.0393700787
  9
$DIMTXT
 40
1.9832729987
  9
$DIMTOL
 70
1
  9
$DIMLIM
 70
0
  9
$DIMTFAC
 40
1.0
  9
$DIMTP
 40
0.01
  9
$DIMTM
 40
0.01
  9
$DIMGAP
 40
0.625
  9
$DIMDSEP
 70
46
  9
$AUNITS
 70
0
  9
$PDMODE
 70
3
  9
$PDSIZE
 40
0.3125
  9
$HANDSEED
  5
2A7
  9
$TILEMODE
 70
1
  9
$MEASUREMENT
 70
1
  9
$INSUNITS
 70
4
  0
ENDSEC
  0
SECTION
  2
CLASSES
  0
CLASS
  1
ACDBDICTIONARYWDFLT
  2
AcDbDictionaryWithDefault
  3
AutoCAD 2000
 90
0
 91
1
280
0
281
0
  0
CLASS
  1
ACDBPLACEHOLDER
  2
AcDbPlaceHolder
  3
AutoCAD 2000
 90
0
 91
1
280
0
281
0
  0
CLASS
  1
LAYOUT
  2
AcDbLayout
  3
AutoCAD 2000
 90
0
 91
0
280
0
281
0
  0
ENDSEC
  0
SECTION
  2
TABLES
  0
TABLE
  2
VPORT
  5
8
100
AcDbSymbolTable
 70
2
  0
VPORT
  5
1F4
100
AcDbSymbolTableRecord
100
AcDbViewportTableRecord
  2
*ACTIVE
 70
0
 10
0.0
 20
0.0
 11
1.0
 21
1.0
 12
59.4981899606
 22
84.1474400871
 13
0.0
 23
0.0
 14
1.0
 24
1.0
 15
0.0
 25
0.0
 16
0.0
 26
0.0
 36
1.0
 17
0.0
 27
0.0
 37
0.0
 40
168.2948801743
 41
0.7070707071
 42
50.0
 43
0.0
 44
0.0
 50
0.0
 51
0.0
 71
0
 72
100
 73
1
 74
1
 75
0
 76
0
 77
0
 78
0
  0
ENDTAB
  0
TABLE
  2
LTYPE
  5
5
100
AcDbSymbolTable
 70
6
  0
LTYPE
  5
14
100
AcDbSymbolTableRecord
100
AcDbLinetypeTableRecord
  2
BYBLOCK
 70
0
  3

 72
65
 73
0
 40
0.0
  0
LTYPE
  5
15
100
AcDbSymbolTableRecord
100
AcDbLinetypeTableRecord
  2
BYLAYER
 70
0
  3

 72
65
 73
0
 40
0.0
  0
LTYPE
  5
16
100
AcDbSymbolTableRecord
100
AcDbLinetypeTableRecord
  2
CONTINUOUS
 70
64
  3
Solid line
 72
65
 73
0
 40
0.0
  0
LTYPE
  5
1F5
100
AcDbSymbolTableRecord
100
AcDbLinetypeTableRecord
  2
CENTER
 70
64
  3
____ _ ____ _ ____ _ ____ _ ____ _ ____ _ ____
 72
65
 73
4
 40
0.6
 49
0.375
 74
0
 49
-0.075
 74
0
 49
0.075
 74
0
 49
-0.075
 74
0
  0
LTYPE
  5
1F6
100
AcDbSymbolTableRecord
100
AcDbLinetypeTableRecord
  2
HIDDEN
 70
64
  3
- - - - - - - - - - - - - - - - - - - -
 72
65
 73
2
 40
0.2
 49
0.1
 74
0
 49
-0.1
 74
0
  0
LTYPE
  5
1F7
100
AcDbSymbolTableRecord
100
AcDbLinetypeTableRecord
  2
PHANTOM
 70
64
  3
_____ _ _ _____ _ _ _____ _ _ _____
 72
65
 73
6
 40
0.8
 49
0.45
 74
0
 49
-0.05
 74
0
 49
0.1
 74
0
 49
-0.05
 74
0
 49
0.1
 74
0
 49
-0.05
 74
0
  0
LTYPE
  5
1F8
100
AcDbSymbolTableRecord
100
AcDbLinetypeTableRecord
  2
DOT
 70
64
  3
. . . . . . . . . . . . . . . . . . . .
 72
65
 73
2
 40
0.2
 49
0.1
 74
0
 49
-0.1
 74
0
  0
LTYPE
  5
1F9
100
AcDbSymbolTableRecord
100
AcDbLinetypeTableRecord
  2
DASHED
 70
64
  3
- - - - - - - - - - - - - - - - - - - -
 72
65
 73
2
 40
0.2
 49
0.1
 74
0
 49
-0.1
 74
0
  0
ENDTAB
  0
TABLE
  2
LAYER
  5
2
100
AcDbSymbolTable
 70
36
  0
LAYER
  5
10
100
AcDbSymbolTableRecord
100
AcDbLayerTableRecord
  2
0
 70
0
 62
7
  6
CONTINUOUS
370
-3
390
F
  0
LAYER
  5
1FA
100
AcDbSymbolTableRecord
100
AcDbLayerTableRecord
  2
DEFAULT_1
 70
0
 62
7
  6
CENTER
370
-3
390
F
  0
LAYER
  5
1FB
100
AcDbSymbolTableRecord
100
AcDbLayerTableRecord
  2
DEFAULT_2
 70
0
 62
8
  6
HIDDEN
370
-3
390
F
  0
LAYER
  5
1FC
100
AcDbSymbolTableRecord
100
AcDbLayerTableRecord
  2
DEFAULT_3
 70
0
 62
7
  6
PHANTOM
370
-3
390
F
  0
LAYER
  5
1FD
100
AcDbSymbolTableRecord
100
AcDbLayerTableRecord
  2
00_COMPONENTS
 70
0
 62
7
  6
CONTINUOUS
370
-3
390
F
  0
LAYER
  5
1FE
100
AcDbSymbolTableRecord
100
AcDbLayerTableRecord
  2
01_1_DEFAULT_DATUMS
 70
0
 62
7
  6
CONTINUOUS
370
-3
390
F
  0
LAYER
  5
1FF
100
AcDbSymbolTableRecord
100
AcDbLayerTableRecord
  2
01_PLANES
 70
0
 62
7
  6
CONTINUOUS
370
-3
390
F
  0
LAYER
  5
200
100
AcDbSymbolTableRecord
100
AcDbLayerTableRecord
  2
02_COORD_SYS
 70
0
 62
7
  6
CONTINUOUS
370
-3
390
F
  0
LAYER
  5
201
100
AcDbSymbolTableRecord
100
AcDbLayerTableRecord
  2
03_AXES
 70
0
 62
7
  6
CONTINUOUS
370
-3
390
F
  0
LAYER
  5
202
100
AcDbSymbolTableRecord
100
AcDbLayerTableRecord
  2
04_POINTS
 70
0
 62
7
  6
CONTINUOUS
370
-3
390
F
  0
LAYER
  5
203
100
AcDbSymbolTableRecord
100
AcDbLayerTableRecord
  2
05_CURVES
 70
0
 62
7
  6
CONTINUOUS
370
-3
390
F
  0
LAYER
  5
204
100
AcDbSymbolTableRecord
100
AcDbLayerTableRecord
  2
06_SURFS
 70
0
 62
7
  6
CONTINUOUS
370
-3
390
F
  0
LAYER
  5
205
100
AcDbSymbolTableRecord
100
AcDbLayerTableRecord
  2
07_COSMETICS
 70
0
 62
7
  6
CONTINUOUS
370
-3
390
F
  0
LAYER
  5
206
100
AcDbSymbolTableRecord
100
AcDbLayerTableRecord
  2
10_NOTES
 70
0
 62
7
  6
CONTINUOUS
370
-3
390
F
  0
LAYER
  5
207
100
AcDbSymbolTableRecord
100
AcDbLayerTableRecord
  2
11_NOTES_PUB
 70
0
 62
7
  6
CONTINUOUS
370
-3
390
F
  0
LAYER
  5
208
100
AcDbSymbolTableRecord
100
AcDbLayerTableRecord
  2
13_REF_GTOL
 70
0
 62
7
  6
CONTINUOUS
370
-3
390
F
  0
LAYER
  5
209
100
AcDbSymbolTableRecord
100
AcDbLayerTableRecord
  2
16_MISC
 70
0
 62
7
  6
CONTINUOUS
370
-3
390
F
  0
LAYER
  5
20A
100
AcDbSymbolTableRecord
100
AcDbLayerTableRecord
  2
17_NO_PRINT
 70
0
 62
7
  6
CONTINUOUS
370
-3
390
F
  0
LAYER
  5
20B
100
AcDbSymbolTableRecord
100
AcDbLayerTableRecord
  2
18_DATUM_CAMS_JOINTS
 70
0
 62
7
  6
CONTINUOUS
370
-3
390
F
  0
LAYER
  5
20C
100
AcDbSymbolTableRecord
100
AcDbLayerTableRecord
  2
19_DATUM_FUNCTIONAL
 70
0
 62
7
  6
CONTINUOUS
370
-3
390
F
  0
LAYER
  5
20D
100
AcDbSymbolTableRecord
100
AcDbLayerTableRecord
  2
20_DATUM_KINEMATIC_SCHEME
 70
0
 62
7
  6
CONTINUOUS
370
-3
390
F
  0
LAYER
  5
20E
100
AcDbSymbolTableRecord
100
AcDbLayerTableRecord
  2
INTFCLR_74
 70
0
 62
7
  6
CONTINUOUS
370
-3
390
F
  0
LAYER
  5
20F
100
AcDbSymbolTableRecord
100
AcDbLayerTableRecord
  2
INTFCLR_76
 70
0
 62
7
  6
CONTINUOUS
370
-3
390
F
  0
ENDTAB
  0
TABLE
  2
STYLE
  5
3
100
AcDbSymbolTable
 70
1
  0
STYLE
  5
11
100
AcDbSymbolTableRecord
100
AcDbTextStyleTableRecord
  2
STANDARD
 70
0
 40
0.0
 41
0.8
 50
0.0
 71
0
 42
0.2
  3
txt
  4

  0
STYLE
  5
210
100
AcDbSymbolTableRecord
100
AcDbTextStyleTableRecord
  2
TEXTSTYLE_1
 70
0
 40
0.0
 41
0.8
 50
0.0
 71
0
 42
0.2
  3
gdt
  4

  0
ENDTAB
  0
TABLE
  2
VIEW
  5
6
100
AcDbSymbolTable
 70
0
  0
ENDTAB
  0
TABLE
  2
UCS
  5
7
100
AcDbSymbolTable
 70
0
  0
ENDTAB
  0
TABLE
  2
APPID
  5
9
100
AcDbSymbolTable
 70
1
  0
APPID
  5
211
100
AcDbSymbolTableRecord
100
AcDbRegAppTableRecord
  2
ACAD
 70
0
  0
ENDTAB
  0
TABLE
  2
BLOCK_RECORD
  5
1
100
AcDbSymbolTable
 70
0
  0
BLOCK_RECORD
  5
212
100
AcDbSymbolTableRecord
100
AcDbBlockTableRecord
  2
*Model_Space
  0
BLOCK_RECORD
  5
213
100
AcDbSymbolTableRecord
100
AcDbBlockTableRecord
  2
*Paper_Space
  0
BLOCK_RECORD
  5
214
100
AcDbSymbolTableRecord
100
AcDbBlockTableRecord
  2
_FILLED
  0
ENDTAB
  0
TABLE
  2
DIMSTYLE
  5
A
100
AcDbSymbolTable
 70
1
100
AcDbDimStyleTable
 71
0
  0
DIMSTYLE
105
215
100
AcDbSymbolTableRecord
100
AcDbDimStyleTableRecord
  2
STANDARD
 70
0
  3

  4

 40
1.0
 41
1.4166235705
 42
1.0
 43
0.38
 44
1.0
 45
0.0
 46
0.0
 47
0.01
 48
0.01
140
1.9832729987
141
0.09
142
0.0
143
25.4
144
1.0
145
0.0
146
1.0
147
0.625
 71
1
 72
0
 73
0
 74
0
 75
0
 76
0
 77
1
 78
8
 79
2
170
0
171
1
172
0
173
0
174
0
175
0
176
0
177
0
178
0
270
2
179
2
271
2
272
2
273
2
274
2
275
0
280
0
281
0
282
0
283
1
284
8
285
0
286
0
287
3
288
0
340
11
278
46
341
214
342
214
343
214
344
214
  0
ENDTAB
  0
ENDSEC
  0
SECTION
  2
BLOCKS
  0
BLOCK
  5
20
100
AcDbEntity
  8
0
100
AcDbBlockBegin
  2
*Model_Space
 70
0
 10
0.0
 20
0.0
 30
0.0
  3
*Model_Space
  1

  0
ENDBLK
  5
21
100
AcDbEntity
  8
0
100
AcDbBlockEnd
  0
BLOCK
  5
1C
100
AcDbEntity
  8
0
100
AcDbBlockBegin
  2
*Paper_Space
 70
0
 10
0.0
 20
0.0
 30
0.0
  3
*Paper_Space
  1

  0
ENDBLK
  5
1D
100
AcDbEntity
  8
0
100
AcDbBlockEnd
  0
BLOCK
  5
216
100
AcDbEntity
  8
0
100
AcDbBlockBegin
  2
_FILLED
 70
64
 10
0.0
 20
0.0
  3
_FILLED
  1

  0
SOLID
  5
217
100
AcDbEntity
  8
0
  6
BYBLOCK
 62
0
100
AcDbTrace
 10
0.0
 20
0.0
 11
-1.0
 21
0.25
 12
-1.0
 22
-0.25
 13
-1.0
 23
-0.25
  0
ENDBLK
  5
218
100
AcDbEntity
  8
0
  6
BYBLOCK
 62
0
100
AcDbBlockEnd
  0
ENDSEC
  0
SECTION
  2
ENTITIES
  0
LINE
  5
219
100
AcDbEntity
  8
INTFCLR_74
100
AcDbLine
 62
7
420
48875
  6
CONTINUOUS
 10
14.3711202438
 20
124.8534313725
 11
13.8711202438
 21
122.0177904627
  0
LINE
  5
21A
100
AcDbEntity
  8
0
100
AcDbLine
 62
7
  6
CONTINUOUS
 10
13.8711202438
 20
122.0177904627
 11
14.3711156462
 21
124.8534052983
  0
LINE
  5
21B
100
AcDbEntity
  8
INTFCLR_74
100
AcDbLine
 62
7
420
48875
  6
CONTINUOUS
 10
13.8711202438
 20
122.0177904627
 11
13.8711202438
 21
103.3534313725
  0
LINE
  5
21C
100
AcDbEntity
  8
INTFCLR_74
100
AcDbLine
 62
7
420
48875
  6
CONTINUOUS
 10
13.8711202438
 20
67.4027049888
 11
13.8711202438
 21
61.5034313725
  0
LINE
  5
21D
100
AcDbEntity
  8
INTFCLR_74
100
AcDbLine
 62
7
420
48875
  6
CONTINUOUS
 10
13.8711202438
 20
60.0034313725
 11
13.8711202438
 21
47.8534313725
  0
LINE
  5
21E
100
AcDbEntity
  8
0
100
AcDbLine
 62
7
  6
CONTINUOUS
 10
13.8711202438
 20
47.853455215
 11
13.8711202438
 21
60.0034313725
  0
LINE
  5
21F
100
AcDbEntity
  8
0
100
AcDbLine
 62
7
  6
CONTINUOUS
 10
13.8711202438
 20
61.5034313725
 11
13.8711202438
 21
67.4027049888
  0
LINE
  5
220
100
AcDbEntity
  8
0
100
AcDbLine
 62
7
  6
CONTINUOUS
 10
13.8711202438
 20
103.3534313725
 11
13.8711202438
 21
122.0177904627
  0
LINE
  5
221
100
AcDbEntity
  8
INTFCLR_74
100
AcDbLine
 62
7
420
48875
  6
CONTINUOUS
 10
15.3711202438
 20
61.0034313725
 11
15.3711202438
 21
60.9034313725
  0
LINE
  5
222
100
AcDbEntity
  8
0
100
AcDbLine
 62
7
  6
CONTINUOUS
 10
15.3711202438
 20
60.9034313725
 11
15.3711202438
 21
61.0034313725
  0
LINE
  5
223
100
AcDbEntity
  8
0
100
AcDbLine
 62
7
  6
CONTINUOUS
 10
18.2711202438
 20
106.0534313725
 11
17.6711202438
 21
102.1534313725
  0
LINE
  5
224
100
AcDbEntity
  8
INTFCLR_74
100
AcDbLine
 62
7
420
48875
  6
CONTINUOUS
 10
17.6711202438
 20
102.1534313725
 11
18.2711202438
 21
106.0534313725
  0
LINE
  5
225
100
AcDbEntity
  8
0
100
AcDbLine
 62
7
  6
CONTINUOUS
 10
88.3211202438
 20
34.9534313726
 11
55.8211202438
 21
34.9534313726
  0
LINE
  5
226
100
AcDbEntity
  8
0
100
AcDbLine
 62
7
  6
CONTINUOUS
 10
55.8211202438
 20
35.9534313726
 11
88.3211202438
 21
35.9534313726
  0
LINE
  5
227
100
AcDbEntity
  8
INTFCLR_74
100
AcDbLine
 62
7
420
48875
  6
CONTINUOUS
 10
55.8211202438
 20
38.9534313725
 11
90.3211202438
 21
38.9534313725
  0
LINE
  5
228
100
AcDbEntity
  8
0
100
AcDbLine
 62
7
  6
CONTINUOUS
 10
88.3211202438
 20
39.3534313725
 11
90.3211202438
 21
39.3534313725
  0
LINE
  5
229
100
AcDbEntity
  8
0
100
AcDbLine
 62
7
  6
CONTINUOUS
 10
18.0711202438
 20
69.4534313725
 11
18.0711202438
 21
68.0534313725
  0
LINE
  5
22A
100
AcDbEntity
  8
INTFCLR_74
100
AcDbLine
 62
7
420
48875
  6
CONTINUOUS
 10
18.0711202438
 20
68.0534313725
 11
18.0711202438
 21
69.4534313725
  0
LINE
  5
22B
100
AcDbEntity
  8
0
100
AcDbLine
 62
7
  6
CONTINUOUS
 10
18.3711202438
 20
87.3534313725
 11
18.3711202438
 21
85.3534313725
  0
LINE
  5
22C
100
AcDbEntity
  8
0
100
AcDbLine
 62
7
  6
CONTINUOUS
 10
19.3711202438
 20
107.0534313725
 11
19.3711202438
 21
106.0534313725
  0
LINE
  5
22D
100
AcDbEntity
  8
INTFCLR_74
100
AcDbLine
 62
7
420
48875
  6
CONTINUOUS
 10
19.3711202438
 20
102.1534313725
 11
19.3711202438
 21
68.0534313725
  0
LINE
  5
22E
100
AcDbEntity
  8
0
100
AcDbLine
 62
7
  6
CONTINUOUS
 10
19.3711202438
 20
68.0534313725
 11
19.3711202438
 21
102.1534313725
  0
LINE
  5
22F
100
AcDbEntity
  8
INTFCLR_74
100
AcDbLine
 62
7
420
48875
  6
CONTINUOUS
 10
20.0711202438
 20
106.0534313725
 11
20.0711202438
 21
103.0534313725
  0
LINE
  5
230
100
AcDbEntity
  8
0
100
AcDbLine
 62
7
  6
CONTINUOUS
 10
20.0711202438
 20
103.0534313725
 11
20.0711202438
 21
106.0534313725
  0
LINE
  5
231
100
AcDbEntity
  8
INTFCLR_74
100
AcDbLine
 62
7
420
48875
  6
CONTINUOUS
 10
19.5326587054
 20
103.0534313725
 11
19.3711202438
 21
102.1534313725
  0
LINE
  5
232
100
AcDbEntity
  8
0
100
AcDbLine
 62
7
  6
CONTINUOUS
 10
19.3711202438
 20
102.1534313725
 11
19.5326587054
 21
103.0534313725
  0
LINE
  5
233
100
AcDbEntity
  8
0
100
AcDbLine
 62
7
  6
CONTINUOUS
 10
17.6711202438
 20
69.8534313725
 11
18.0711202438
 21
69.4534313725
  0
LINE
  5
234
100
AcDbEntity
  8
INTFCLR_74
100
AcDbLine
 62
7
420
48875
  6
CONTINUOUS
 10
18.0711202438
 20
69.4534313725
 11
17.6711202438
 21
69.8534313725
  0
LINE
  5
235
100
AcDbEntity
  8
0
100
AcDbLine
 62
7
  6
CONTINUOUS
 10
20.8711202438
 20
47.853455215
 11
20.8711202438
 21
56.0534313725
  0
LINE
  5
236
100
AcDbEntity
  8
INTFCLR_74
100
AcDbLine
 62
7
420
48875
  6
CONTINUOUS
 10
20.8711202438
 20
47.8534313725
 11
20.8711202438
 21
50.4534313725
  0
LINE
  5
237
100
AcDbEntity
  8
0
100
AcDbLine
 62
7
  6
CONTINUOUS
 10
20.8711202438
 20
116.6534313725
 11
20.8711202438
 21
124.85340753
  0
LINE
  5
238
100
AcDbEntity
  8
INTFCLR_74
100
AcDbLine
 62
7
420
48875
  6
CONTINUOUS
 10
20.8711202438
 20
122.2534313725
 11
20.8711202438
 21
124.8534313725
  0
LINE
  5
239
100
AcDbEntity
  8
0
100
AcDbLine
 62
7
  6
CONTINUOUS
 10
20.8711202438
 20
47.8534313725
 11
13.8711202438
 21
47.8534313725
  0
LINE
  5
23A
100
AcDbEntity
  8
INTFCLR_74
100
AcDbLine
 62
7
420
48875
  6
CONTINUOUS
 10
13.8711202438
 20
47.8534313725
 11
20.8711202438
 21
47.8534313725
  0
LINE
  5
23B
100
AcDbEntity
  8
0
100
AcDbLine
 62
7
  6
CONTINUOUS
 10
20.8711202438
 20
48.5831832637
 11
13.8711202438
 21
48.5831832637
  0
LINE
  5
23C
100
AcDbEntity
  8
0
100
AcDbLine
 62
7
  6
CONTINUOUS
 10
13.8711202438
 20
50.4372328854
 11
20.8711202438
 21
50.4372328854
  0
LINE
  5
23D
100
AcDbEntity
  8
0
100
AcDbLine
 62
7
  6
CONTINUOUS
 10
55.8211202438
 20
50.4534313725
 11
51.8711202438
 21
50.4534313725
  0
LINE
  5
23E
100
AcDbEntity
  8
INTFCLR_74
100
AcDbLine
 62
7
420
48875
  6
CONTINUOUS
 10
20.8711202438
 20
50.4534313725
 11
55.8211202438
 21
50.4534313725
  0
LINE
  5
23F
100
AcDbEntity
  8
0
100
AcDbLine
 62
7
  6
CONTINUOUS
 10
51.8711202438
 20
53.3534313725
 11
20.8711202438
 21
53.3534313725
  0
LINE
  5
240
100
AcDbEntity
  8
0
100
AcDbLine
 62
7
  6
CONTINUOUS
 10
46.8711202438
 20
53.6230301197
 11
51.8711202438
 21
53.6230301197
  0
LINE
  5
241
100
AcDbEntity
  8
0
100
AcDbLine
 62
7
  6
CONTINUOUS
 10
51.8711202438
 20
53.7421529257
 11
46.8711202438
 21
53.7421529257
  0
LINE
  5
242
100
AcDbEntity
  8
0
100
AcDbLine
 62
7
  6
CONTINUOUS
 10
51.8711202438
 20
56.0534313725
 11
20.8711202438
 21
56.0534313725
  0
LINE
  5
243
100
AcDbEntity
  8
0
100
AcDbLine
 62
7
  6
CONTINUOUS
 10
90.3211202438
 20
58.6534313725
 11
101.6211202438
 21
58.6534313725
  0
LINE
  5
244
100
AcDbEntity
  8
INTFCLR_74
100
AcDbLine
 62
7
420
48875
  6
CONTINUOUS
 10
90.3211202438
 20
58.6534313725
 11
101.8211202438
 21
58.6534313725
  0
LINE
  5
245
100
AcDbEntity
  8
0
100
AcDbLine
 62
7
  6
CONTINUOUS
 10
90.3211202438
 20
60.0534313725
 11
94.7211202438
 21
60.0534313725
  0
LINE
  5
246
100
AcDbEntity
  8
INTFCLR_74
100
AcDbLine
 62
7
420
48875
  6
CONTINUOUS
 10
14.8711202438
 20
60.4034313725
 11
14.2711202438
 21
60.4034313725
  0
LINE
  5
247
100
AcDbEntity
  8
0
100
AcDbLine
 62
7
  6
CONTINUOUS
 10
14.2711202438
 20
60.4034313725
 11
14.8711202438
 21
60.4034313725
  0
LINE
  5
248
100
AcDbEntity
  8
0
100
AcDbLine
 62
7
  6
CONTINUOUS
 10
14.8711202438
 20
61.5034313725
 11
13.8711202438
 21
61.5034313725
  0
LINE
  5
249
100
AcDbEntity
  8
INTFCLR_74
100
AcDbLine
 62
7
420
48875
  6
CONTINUOUS
 10
13.8711202438
 20
61.5034313725
 11
14.8711202438
 21
61.5034313725
  0
LINE
  5
24A
100
AcDbEntity
  8
INTFCLR_74
100
AcDbLine
 62
7
420
48875
  6
CONTINUOUS
 10
13.8711202438
 20
103.3534313725
 11
15.0711202438
 21
102.1534313725
  0
LINE
  5
24B
100
AcDbEntity
  8
0
100
AcDbLine
 62
7
  6
CONTINUOUS
 10
15.0711202438
 20
102.1534313725
 11
13.8711202438
 21
103.3534313725
  0
LINE
  5
24C
100
AcDbEntity
  8
0
100
AcDbLine
 62
7
  6
CONTINUOUS
 10
46.8711202438
 20
119.0838326254
 11
46.8711202438
 21
118.9647098194
  0
LINE
  5
24D
100
AcDbEntity
  8
0
100
AcDbLine
 62
7
  6
CONTINUOUS
 10
46.8711202438
 20
53.7421529257
 11
46.8711202438
 21
53.6230301197
  0
LINE
  5
24E
100
AcDbEntity
  8
INTFCLR_74
100
AcDbLine
 62
7
420
48875
  6
CONTINUOUS
 10
14.2711202438
 20
60.4034313725
 11
13.8711202438
 21
60.0034313725
  0
LINE
  5
24F
100
AcDbEntity
  8
0
100
AcDbLine
 62
7
  6
CONTINUOUS
 10
13.8711202438
 20
60.0034313725
 11
14.2711202438
 21
60.4034313725
  0
LINE
  5
250
100
AcDbEntity
  8
INTFCLR_74
100
AcDbLine
 62
7
420
48875
  6
CONTINUOUS
 10
17.3711202438
 20
69.8534313725
 11
13.8711202438
 21
67.4027049888
  0
LINE
  5
251
100
AcDbEntity
  8
0
100
AcDbLine
 62
7
  6
CONTINUOUS
 10
13.8711202438
 20
67.4027049888
 11
17.3711202438
 21
69.8534313725
  0
LINE
  5
252
100
AcDbEntity
  8
INTFCLR_74
100
AcDbLine
 62
7
420
48875
  6
CONTINUOUS
 10
18.7711202438
 20
67.4534313725
 11
18.6711202438
 21
67.4534313725
  0
LINE
  5
253
100
AcDbEntity
  8
0
100
AcDbLine
 62
7
  6
CONTINUOUS
 10
18.6711202438
 20
67.4534313725
 11
18.7711202438
 21
67.4534313725
  0
LINE
  5
254
100
AcDbEntity
  8
0
100
AcDbLine
 62
7
  6
CONTINUOUS
 10
18.0711202438
 20
68.8534313725
 11
19.3711202438
 21
68.8534313725
  0
LINE
  5
255
100
AcDbEntity
  8
INTFCLR_74
100
AcDbLine
 62
7
420
48875
  6
CONTINUOUS
 10
17.6711202438
 20
69.8534313725
 11
17.3711202438
 21
69.8534313725
  0
LINE
  5
256
100
AcDbEntity
  8
0
100
AcDbLine
 62
7
  6
CONTINUOUS
 10
17.3711202438
 20
69.8534313725
 11
17.6711202438
 21
69.8534313725
  0
LINE
  5
257
100
AcDbEntity
  8
0
100
AcDbLine
 62
7
  6
CONTINUOUS
 10
51.8711202438
 20
122.2534313725
 11
51.8711202438
 21
116.6534313725
  0
LINE
  5
258
100
AcDbEntity
  8
0
100
AcDbLine
 62
7
  6
CONTINUOUS
 10
51.8711202438
 20
50.4534313725
 11
51.8711202438
 21
56.0534313725
  0
LINE
  5
259
100
AcDbEntity
  8
0
100
AcDbLine
 62
7
  6
CONTINUOUS
 10
101.6211202438
 20
71.3534313725
 11
101.8211202438
 21
71.3534313725
  0
LINE
  5
25A
100
AcDbEntity
  8
0
100
AcDbLine
 62
7
  6
CONTINUOUS
 10
108.4211202438
 20
71.7527845308
 11
101.9211202438
 21
71.7527845308
  0
LINE
  5
25B
100
AcDbEntity
  8
0
100
AcDbLine
 62
7
  6
CONTINUOUS
 10
101.9211202438
 20
75.5534313725
 11
108.4211202438
 21
75.5534313725
  0
LINE
  5
25C
100
AcDbEntity
  8
INTFCLR_74
100
AcDbLine
 62
7
420
48875
  6
CONTINUOUS
 10
55.8211202438
 20
133.7534313725
 11
55.8211202438
 21
122.2534313725
  0
LINE
  5
25D
100
AcDbEntity
  8
INTFCLR_74
100
AcDbLine
 62
7
420
48875
  6
CONTINUOUS
 10
55.8211202438
 20
50.4534313725
 11
55.8211202438
 21
38.9534313725
  0
LINE
  5
25E
100
AcDbEntity
  8
0
100
AcDbLine
 62
7
  6
CONTINUOUS
 10
55.8211202438
 20
50.4534313725
 11
55.8211202438
 21
34.9534313726
  0
LINE
  5
25F
100
AcDbEntity
  8
0
100
AcDbLine
 62
7
  6
CONTINUOUS
 10
55.8211202438
 20
122.2534313725
 11
55.8211202438
 21
133.7534313725
  0
LINE
  5
260
100
AcDbEntity
  8
0
100
AcDbLine
 62
7
  6
CONTINUOUS
 10
18.3711202438
 20
85.3534313725
 11
19.3711202438
 21
85.3534313725
  0
LINE
  5
261
100
AcDbEntity
  8
0
100
AcDbLine
 62
7
  6
CONTINUOUS
 10
18.3711202438
 20
87.3534313725
 11
19.3711202438
 21
87.3534313725
  0
LINE
  5
262
100
AcDbEntity
  8
0
100
AcDbLine
 62
7
  6
CONTINUOUS
 10
108.4211202438
 20
97.0534313725
 11
101.9211202438
 21
97.0534313725
  0
LINE
  5
263
100
AcDbEntity
  8
0
100
AcDbLine
 62
7
  6
CONTINUOUS
 10
101.9211202438
 20
100.8540782143
 11
108.4211202438
 21
100.8540782143
  0
LINE
  5
264
100
AcDbEntity
  8
0
100
AcDbLine
 62
7
  6
CONTINUOUS
 10
101.6211202438
 20
101.3534313725
 11
101.8211202438
 21
101.3534313725
  0
LINE
  5
265
100
AcDbEntity
  8
0
100
AcDbLine
 62
7
  6
CONTINUOUS
 10
17.6711202438
 20
102.1534313725
 11
15.0711202438
 21
102.1534313725
  0
LINE
  5
266
100
AcDbEntity
  8
INTFCLR_74
100
AcDbLine
 62
7
420
48875
  6
CONTINUOUS
 10
15.0711202438
 20
102.1534313725
 11
17.6711202438
 21
102.1534313725
  0
LINE
  5
267
100
AcDbEntity
  8
INTFCLR_74
100
AcDbLine
 62
7
420
48875
  6
CONTINUOUS
 10
20.0711202438
 20
103.0534313725
 11
19.5326587054
 21
103.0534313725
  0
LINE
  5
268
100
AcDbEntity
  8
0
100
AcDbLine
 62
7
  6
CONTINUOUS
 10
19.5326587054
 20
103.0534313725
 11
20.0711202438
 21
103.0534313725
  0
LINE
  5
269
100
AcDbEntity
  8
0
100
AcDbLine
 62
7
  6
CONTINUOUS
 10
20.0711202438
 20
106.0534313725
 11
18.2711202438
 21
106.0534313725
  0
LINE
  5
26A
100
AcDbEntity
  8
INTFCLR_74
100
AcDbLine
 62
7
420
48875
  6
CONTINUOUS
 10
18.2711202438
 20
106.0534313725
 11
20.0711202438
 21
106.0534313725
  0
LINE
  5
26B
100
AcDbEntity
  8
0
100
AcDbLine
 62
7
  6
CONTINUOUS
 10
19.3711202438
 20
107.0534313725
 11
13.8711202438
 21
107.0534313725
  0
LINE
  5
26C
100
AcDbEntity
  8
0
100
AcDbLine
 62
7
  6
CONTINUOUS
 10
88.3211202438
 20
34.9534313726
 11
88.3211202438
 21
39.3534313725
  0
LINE
  5
26D
100
AcDbEntity
  8
0
100
AcDbLine
 62
7
  6
CONTINUOUS
 10
88.3211202438
 20
129.1698081693
 11
88.3211202438
 21
133.7534313725
  0
LINE
  5
26E
100
AcDbEntity
  8
0
100
AcDbLine
 62
7
  6
CONTINUOUS
 10
90.3211202438
 20
133.7534313725
 11
90.3211202438
 21
112.6534313725
  0
LINE
  5
26F
100
AcDbEntity
  8
0
100
AcDbLine
 62
7
  6
CONTINUOUS
 10
90.3211202438
 20
60.0534313725
 11
90.3211202438
 21
39.3534313725
  0
LINE
  5
270
100
AcDbEntity
  8
INTFCLR_74
100
AcDbLine
 62
7
420
48875
  6
CONTINUOUS
 10
90.3211202438
 20
38.9534313725
 11
90.3211202438
 21
58.6534313725
  0
LINE
  5
271
100
AcDbEntity
  8
INTFCLR_74
100
AcDbLine
 62
7
420
48875
  6
CONTINUOUS
 10
90.3211202438
 20
114.0534313725
 11
90.3211202438
 21
133.7534313725
  0
LINE
  5
272
100
AcDbEntity
  8
0
100
AcDbLine
 62
7
  6
CONTINUOUS
 10
90.3211202438
 20
112.6534313725
 11
94.7211202438
 21
112.6534313725
  0
LINE
  5
273
100
AcDbEntity
  8
INTFCLR_74
100
AcDbLine
 62
7
420
48875
  6
CONTINUOUS
 10
101.8211202438
 20
114.0534313725
 11
90.3211202438
 21
114.0534313725
  0
LINE
  5
274
100
AcDbEntity
  8
0
100
AcDbLine
 62
7
  6
CONTINUOUS
 10
90.3211202438
 20
114.0534313725
 11
101.6211202438
 21
114.0534313725
  0
LINE
  5
275
100
AcDbEntity
  8
0
100
AcDbLine
 62
7
  6
CONTINUOUS
 10
51.8711202438
 20
116.6534313725
 11
20.8711202438
 21
116.6534313725
  0
LINE
  5
276
100
AcDbEntity
  8
0
100
AcDbLine
 62
7
  6
CONTINUOUS
 10
94.2211202438
 20
60.0534313725
 11
94.2211202438
 21
58.6534313725
  0
LINE
  5
277
100
AcDbEntity
  8
0
100
AcDbLine
 62
7
  6
CONTINUOUS
 10
94.2211202438
 20
112.6534313725
 11
94.2211202438
 21
114.0534313725
  0
LINE
  5
278
100
AcDbEntity
  8
0
100
AcDbLine
 62
7
  6
CONTINUOUS
 10
94.7211202438
 20
114.0534313725
 11
94.7211202438
 21
112.6534313725
  0
LINE
  5
279
100
AcDbEntity
  8
0
100
AcDbLine
 62
7
  6
CONTINUOUS
 10
94.7211202438
 20
58.6534313725
 11
94.7211202438
 21
60.0534313725
  0
LINE
  5
27A
100
AcDbEntity
  8
0
100
AcDbLine
 62
7
  6
CONTINUOUS
 10
20.8711202438
 20
118.6384896511
 11
13.8711202438
 21
118.6384896511
  0
LINE
  5
27B
100
AcDbEntity
  8
0
100
AcDbLine
 62
7
  6
CONTINUOUS
 10
46.8711202438
 20
118.9647098194
 11
51.8711202438
 21
118.9647098194
  0
LINE
  5
27C
100
AcDbEntity
  8
0
100
AcDbLine
 62
7
  6
CONTINUOUS
 10
51.8711202438
 20
119.0838326254
 11
46.8711202438
 21
119.0838326254
  0
LINE
  5
27D
100
AcDbEntity
  8
0
100
AcDbLine
 62
7
  6
CONTINUOUS
 10
20.8711202438
 20
119.3534313725
 11
51.8711202438
 21
119.3534313725
  0
LINE
  5
27E
100
AcDbEntity
  8
0
100
AcDbLine
 62
7
  6
CONTINUOUS
 10
20.8711202438
 20
120.5688757608
 11
13.8711202438
 21
120.5688757608
  0
LINE
  5
27F
100
AcDbEntity
  8
0
100
AcDbLine
 62
7
  6
CONTINUOUS
 10
101.6211202438
 20
114.0534313725
 11
101.6211202438
 21
101.3534313725
  0
LINE
  5
280
100
AcDbEntity
  8
0
100
AcDbLine
 62
7
  6
CONTINUOUS
 10
101.6211202438
 20
58.6534313725
 11
101.6211202438
 21
71.3534313725
  0
LINE
  5
281
100
AcDbEntity
  8
0
100
AcDbLine
 62
7
  6
CONTINUOUS
 10
101.8211202438
 20
101.3534313725
 11
101.8211202438
 21
71.3534313725
  0
LINE
  5
282
100
AcDbEntity
  8
INTFCLR_74
100
AcDbLine
 62
7
420
48875
  6
CONTINUOUS
 10
101.8211202438
 20
58.6534313725
 11
101.8211202438
 21
114.0534313725
  0
LINE
  5
283
100
AcDbEntity
  8
0
100
AcDbLine
 62
7
  6
CONTINUOUS
 10
101.9211202438
 20
71.7527845308
 11
101.9211202438
 21
100.8540782143
  0
LINE
  5
284
100
AcDbEntity
  8
INTFCLR_74
100
AcDbLine
 62
7
420
48875
  6
CONTINUOUS
 10
55.8211202438
 20
122.2534313725
 11
20.8711202438
 21
122.2534313725
  0
LINE
  5
285
100
AcDbEntity
  8
0
100
AcDbLine
 62
7
  6
CONTINUOUS
 10
51.8711202438
 20
122.2534313725
 11
55.8211202438
 21
122.2534313725
  0
LINE
  5
286
100
AcDbEntity
  8
0
100
AcDbLine
 62
7
  6
CONTINUOUS
 10
20.8711202438
 20
123.3534313726
 11
14.1066297728
 21
123.3534313726
  0
LINE
  5
287
100
AcDbEntity
  8
0
100
AcDbLine
 62
7
  6
CONTINUOUS
 10
20.8711202438
 20
123.6825019551
 11
14.164653795
 21
123.6825019551
  0
LINE
  5
288
100
AcDbEntity
  8
0
100
AcDbLine
 62
7
  6
CONTINUOUS
 10
20.8711202438
 20
124.6397696008
 11
14.3334459087
 21
124.6397696008
  0
LINE
  5
289
100
AcDbEntity
  8
0
100
AcDbLine
 62
7
  6
CONTINUOUS
 10
20.8711202438
 20
124.8534313725
 11
14.3711202438
 21
124.8534313725
  0
LINE
  5
28A
100
AcDbEntity
  8
INTFCLR_74
100
AcDbLine
 62
7
420
48875
  6
CONTINUOUS
 10
20.8711202438
 20
124.8534313725
 11
14.3711202438
 21
124.8534313725
  0
LINE
  5
28B
100
AcDbEntity
  8
0
100
AcDbLine
 62
7
  6
CONTINUOUS
 10
55.8211202438
 20
129.1698081693
 11
88.3211202438
 21
129.1698081693
  0
LINE
  5
28C
100
AcDbEntity
  8
0
100
AcDbLine
 62
7
  6
CONTINUOUS
 10
108.4211202438
 20
71.7527845308
 11
108.4211202438
 21
100.8540782143
  0
LINE
  5
28D
100
AcDbEntity
  8
0
100
AcDbLine
 62
7
  6
CONTINUOUS
 10
88.3211202438
 20
132.0370545757
 11
55.8211202438
 21
132.0370545757
  0
LINE
  5
28E
100
AcDbEntity
  8
0
100
AcDbLine
 62
7
  6
CONTINUOUS
 10
88.3211202438
 20
133.4698081693
 11
55.8211202438
 21
133.4698081693
  0
LINE
  5
28F
100
AcDbEntity
  8
INTFCLR_74
100
AcDbLine
 62
7
420
48875
  6
CONTINUOUS
 10
90.3211202438
 20
133.7534313725
 11
55.8211202438
 21
133.7534313725
  0
LINE
  5
290
100
AcDbEntity
  8
0
100
AcDbLine
 62
7
  6
CONTINUOUS
 10
55.8211202438
 20
133.7534313725
 11
90.3211202438
 21
133.7534313725
  0
LINE
  5
291
100
AcDbEntity
  8
0
100
AcDbLine
 62
7
  6
CONTINUOUS
 10
89.2329588245
 20
39.242982778
 11
88.3211202438
 21
38.6279398894
  0
ARC
  5
292
100
AcDbEntity
  8
0
100
AcDbCircle
 62
7
  6
CONTINUOUS
 10
18.6711202438
 20
68.0534313725
 40
0.6
100
AcDbArc
 50
180.0
 51
270.0
  0
ARC
  5
293
100
AcDbEntity
  8
0
100
AcDbCircle
 62
7
  6
CONTINUOUS
 10
18.7711202438
 20
68.0534313725
 40
0.6
100
AcDbArc
 50
270.0
 51
360.0
  0
ARC
  5
294
100
AcDbEntity
  8
INTFCLR_74
100
AcDbCircle
 62
7
420
48875
  6
CONTINUOUS
 10
18.7711202438
 20
68.0534313725
 40
0.6
100
AcDbArc
 50
270.0
 51
360.0
  0
ARC
  5
295
100
AcDbEntity
  8
INTFCLR_74
100
AcDbCircle
 62
7
420
48875
  6
CONTINUOUS
 10
18.6711202438
 20
68.0534313725
 40
0.6
100
AcDbArc
 50
180.0
 51
270.0
  0
ARC
  5
296
100
AcDbEntity
  8
0
100
AcDbCircle
 62
7
  6
CONTINUOUS
 10
14.8711202438
 20
60.9034313725
 40
0.5
100
AcDbArc
 50
270.0
 51
360.0
  0
ARC
  5
297
100
AcDbEntity
  8
0
100
AcDbCircle
 62
7
  6
CONTINUOUS
 10
14.8711202438
 20
61.0034313725
 40
0.5
100
AcDbArc
 50
0.0
 51
90.0
  0
ARC
  5
298
100
AcDbEntity
  8
INTFCLR_74
100
AcDbCircle
 62
7
420
48875
  6
CONTINUOUS
 10
14.8711202438
 20
61.0034313725
 40
0.5
100
AcDbArc
 50
0.0
 51
90.0
  0
ARC
  5
299
100
AcDbEntity
  8
INTFCLR_74
100
AcDbCircle
 62
7
420
48875
  6
CONTINUOUS
 10
14.8711202438
 20
60.9034313725
 40
0.5
100
AcDbArc
 50
270.0
 51
360.0
  0
ARC
  5
29A
100
AcDbEntity
  8
0
100
AcDbCircle
 62
7
  6
CONTINUOUS
 10
89.1211202438
 20
39.4087902926
 40
0.2
100
AcDbArc
 50
304.0000000002
 51
343.8135130335
  0
SPLINE
  5
29B
100
AcDbEntity
  8
0
100
AcDbSpline
 62
7
  6
CONTINUOUS
 70
0
 71
3
 72
17
 73
13
 74
0
 42
0.0000001
 43
0.0000001
 44
0.0000000001
 40
0.0
 40
0.0
 40
0.0
 40
0.0
 40
0.0316854936
 40
0.0581160511
 40
0.0925206987
 40
0.134979353
 40
0.1852840727
 40
0.2430695382
 40
0.3079185471
 40
0.4564455224
 40
0.6256103319
 40
1.0
 40
1.0
 40
1.0
 40
1.0
 10
15.071119708
 20
122.6613699378
 30
0.0
 10
15.071202818
 20
122.6342466089
 30
0.0
 10
15.1154610235
 20
122.5937026561
 30
0.0
 10
15.183053843
 20
122.558551821
 30
0.0
 10
15.2664314682
 20
122.5256582235
 30
0.0
 10
15.3703359256
 20
122.4942631225
 30
0.0
 10
15.495635916
 20
122.4633871592
 30
0.0
 10
15.640709238
 20
122.4339454445
 30
0.0
 10
15.8696307521
 20
122.3952533295
 30
0.0
 10
16.1946513852
 20
122.3542230474
 30
0.0
 10
16.7850817997
 20
122.3043278164
 30
0.0
 10
17.2506347267
 20
122.29011486
 30
0.0
 10
17.5711202438
 20
122.29011486
 30
0.0
  0
SPLINE
  5
29C
100
AcDbEntity
  8
0
100
AcDbSpline
 62
7
  6
CONTINUOUS
 70
0
 71
3
 72
17
 73
13
 74
0
 42
0.0000001
 43
0.0000001
 44
0.0000000001
 40
0.0
 40
0.0
 40
0.0
 40
0.0
 40
0.3744846074
 40
0.5436714283
 40
0.6920240571
 40
0.7568574325
 40
0.8147233761
 40
0.8651307485
 40
0.907633942
 40
0.9420093153
 40
0.9683780012
 40
1.0
 40
1.0
 40
1.0
 40
1.0
 10
17.5711202438
 20
122.29011486
 30
0.0
 10
17.8916674158
 20
122.29011486
 30
0.0
 10
18.3572835691
 20
122.3044105316
 30
0.0
 10
18.9476502242
 20
122.3540786731
 30
0.0
 10
19.2724885544
 20
122.3952637184
 30
0.0
 10
19.501291682
 20
122.4339992138
 30
0.0
 10
19.6465077212
 20
122.4634092746
 30
0.0
 10
19.7720129608
 20
122.4942283392
 30
0.0
 10
19.876032459
 20
122.5255837992
 30
0.0
 10
19.9593479724
 20
122.5584938734
 30
0.0
 10
20.0268082703
 20
122.5936755414
 30
0.0
 10
20.0707701492
 20
122.6343022528
 30
0.0
 10
20.0708012646
 20
122.661369682
 30
0.0
  0
SPLINE
  5
29D
100
AcDbEntity
  8
0
100
AcDbSpline
 62
7
  6
CONTINUOUS
 70
0
 71
3
 72
13
 73
9
 74
0
 42
0.0000001
 43
0.0000001
 44
0.0000000001
 40
0.0
 40
0.0
 40
0.0
 40
0.0
 40
0.0295651765
 40
0.0893121337
 40
0.181905874
 40
0.3047214055
 40
0.6237478644
 40
1.0
 40
1.0
 40
1.0
 40
1.0
 10
46.3711202389
 20
119.027016895
 30
0.0
 10
46.3711202389
 20
119.0219870888
 30
0.0
 10
46.3857355465
 20
119.0108314519
 30
0.0
 10
46.4136164208
 20
119.0021063153
 30
0.0
 10
46.4601449952
 20
118.9913950702
 30
0.0
 10
46.5497329701
 20
118.9785227075
 30
0.0
 10
46.6889038967
 20
118.9675455977
 30
0.0
 10
46.8071099604
 20
118.9647098194
 30
0.0
 10
46.8711202438
 20
118.9647098194
 30
0.0
  0
SPLINE
  5
29E
100
AcDbEntity
  8
0
100
AcDbSpline
 62
7
  6
CONTINUOUS
 70
0
 71
3
 72
13
 73
9
 74
0
 42
0.0000001
 43
0.0000001
 44
0.0000000001
 40
0.0
 40
0.0
 40
0.0
 40
0.0
 40
0.3762593783
 40
0.6952777233
 40
0.8180911697
 40
0.910684492
 40
0.9704331426
 40
1.0
 40
1.0
 40
1.0
 40
1.0
 10
46.8711202438
 20
53.7421529257
 30
0.0
 10
46.8071087565
 20
53.7421529257
 30
0.0
 10
46.6889029244
 20
53.7393171349
 30
0.0
 10
46.5497324762
 20
53.7283398589
 30
0.0
 10
46.4601464685
 20
53.7154679773
 30
0.0
 10
46.4136176572
 20
53.7047571321
 30
0.0
 10
46.3857371472
 20
53.6960311518
 30
0.0
 10
46.3711202389
 20
53.68487594
 30
0.0
 10
46.3711202389
 20
53.6798458501
 30
0.0
  0
SPLINE
  5
29F
100
AcDbEntity
  8
0
100
AcDbSpline
 62
7
  6
CONTINUOUS
 70
0
 71
3
 72
17
 73
13
 74
0
 42
0.0000001
 43
0.0000001
 44
0.0000000001
 40
0.0
 40
0.0
 40
0.0
 40
0.0
 40
0.3759012148
 40
0.5456978096
 40
0.6945315775
 40
0.7593842005
 40
0.8170699134
 40
0.8671641693
 40
0.9092990894
 40
0.9432760574
 40
0.9691887153
 40
1.0
 40
1.0
 40
1.0
 40
1.0
 10
17.5711202438
 20
122.9524263411
 30
0.0
 10
17.2511304177
 20
122.9524263411
 30
0.0
 10
16.7864835651
 20
122.944015211
 30
0.0
 10
16.1960687999
 20
122.9120678041
 30
0.0
 10
15.8707259937
 20
122.8842449397
 30
0.0
 10
15.6413621703
 20
122.8563847391
 30
0.0
 10
15.4960744844
 20
122.8344081412
 30
0.0
 10
15.3705627538
 20
122.8103999471
 30
0.0
 10
15.2664808592
 20
122.7850901377
 30
0.0
 10
15.1829850584
 20
122.7570680594
 30
0.0
 10
15.1153393885
 20
122.7266828724
 30
0.0
 10
15.0710393404
 20
122.6875982419
 30
0.0
 10
15.071119708
 20
122.6613699378
 30
0.0
  0
SPLINE
  5
2A0
100
AcDbEntity
  8
0
100
AcDbSpline
 62
7
  6
CONTINUOUS
 70
0
 71
3
 72
9
 73
5
 74
0
 42
0.0000001
 43
0.0000001
 44
0.0000000001
 40
0.0
 40
0.0
 40
0.0
 40
0.0
 40
0.5408314857
 40
1.0
 40
1.0
 40
1.0
 40
1.0
 10
46.8711202438
 20
119.0838326254
 30
0.0
 10
46.8074249073
 20
119.0838326254
 30
0.0
 10
46.6896529177
 20
119.0814472025
 30
0.0
 10
46.5720291586
 20
119.0737961018
 30
0.0
 10
46.5182811075
 20
119.0678346686
 30
0.0
  0
SPLINE
  5
2A1
100
AcDbEntity
  8
0
100
AcDbSpline
 62
7
  6
CONTINUOUS
 70
0
 71
3
 72
11
 73
7
 74
0
 42
0.0000001
 43
0.0000001
 44
0.0000000001
 40
0.0
 40
0.0
 40
0.0
 40
0.0
 40
0.404032259
 40
0.7081996204
 40
0.9037946076
 40
1.0
 40
1.0
 40
1.0
 40
1.0
 10
46.5182811075
 20
119.0678346686
 30
0.0
 10
46.4973788152
 20
119.0655163032
 30
0.0
 10
46.4610509188
 20
119.061011811
 30
0.0
 10
46.4140593072
 20
119.0511045015
 30
0.0
 10
46.3859530562
 20
119.0430375817
 30
0.0
 10
46.3711202389
 20
119.0320245262
 30
0.0
 10
46.3711202389
 20
119.027016895
 30
0.0
  0
SPLINE
  5
2A2
100
AcDbEntity
  8
0
100
AcDbSpline
 62
7
  6
CONTINUOUS
 70
0
 71
3
 72
11
 73
7
 74
0
 42
0.0000001
 43
0.0000001
 44
0.0000000001
 40
0.0
 40
0.0
 40
0.0
 40
0.0
 40
0.0962283409
 40
0.2918162885
 40
0.5959696263
 40
1.0
 40
1.0
 40
1.0
 40
1.0
 10
46.3711202389
 20
53.6798458501
 30
0.0
 10
46.3711202389
 20
53.6748429262
 30
0.0
 10
46.3859289166
 20
53.6638364027
 30
0.0
 10
46.4140038234
 20
53.6557729446
 30
0.0
 10
46.4609356282
 20
53.645870182
 30
0.0
 10
46.4972199045
 20
53.6413665681
 30
0.0
 10
46.5180971975
 20
53.6390484848
 30
0.0
  0
SPLINE
  5
2A3
100
AcDbEntity
  8
0
100
AcDbSpline
 62
7
  6
CONTINUOUS
 70
0
 71
3
 72
9
 73
5
 74
0
 42
0.0000001
 43
0.0000001
 44
0.0000000001
 40
0.0
 40
0.0
 40
0.0
 40
0.0
 40
0.459110905
 40
1.0
 40
1.0
 40
1.0
 40
1.0
 10
46.5180971975
 20
53.6390484848
 30
0.0
 10
46.5718659298
 20
53.633078343
 30
0.0
 10
46.689551204
 20
53.6254183732
 30
0.0
 10
46.8073847812
 20
53.6230301197
 30
0.0
 10
46.8711202438
 20
53.6230301197
 30
0.0
  0
SPLINE
  5
2A4
100
AcDbEntity
  8
0
100
AcDbSpline
 62
7
  6
CONTINUOUS
 70
0
 71
3
 72
17
 73
13
 74
0
 42
0.0000001
 43
0.0000001
 44
0.0000000001
 40
0.0
 40
0.0
 40
0.0
 40
0.0
 40
0.0307895032
 40
0.0566385041
 40
0.0905625065
 40
0.1326995872
 40
0.1828571098
 40
0.2406111193
 40
0.3054833287
 40
0.4542624489
 40
0.6240607551
 40
1.0
 40
1.0
 40
1.0
 40
1.0
 10
20.0708012646
 20
122.661369682
 30
0.0
 10
20.0708313915
 20
122.6875771802
 30
0.0
 10
20.0267710026
 20
122.72665825
 30
0.0
 10
19.9592422038
 20
122.7571163888
 30
0.0
 10
19.8758738131
 20
122.785146736
 30
0.0
 10
19.7717832209
 20
122.8104494881
 30
0.0
 10
19.6461623089
 20
122.8344242444
 30
0.0
 10
19.5007546571
 20
122.856379271
 30
0.0
 10
19.2713841351
 20
122.8842405298
 30
0.0
 10
18.9461026419
 20
122.9121033569
 30
0.0
 10
18.3557513492
 20
122.9440119616
 30
0.0
 10
17.8911135074
 20
122.9524263411
 30
0.0
 10
17.5711202438
 20
122.9524263411
 30
0.0
  0
ENDSEC
  0
SECTION
  2
OBJECTS
  0
DICTIONARY
  5
C
100
AcDbDictionary
280
0
281
1
  3
ACAD_GROUP
350
D
  3
ACAD_MLINESTYLE
350
17
  3
ACAD_LAYOUT
350
1A
  3
ACAD_PLOTSETTINGS
350
19
  3
ACAD_PLOTSTYLENAME
350
E
  0
DICTIONARY
  5
D
102
{ACAD_REACTORS
330
C
102
}
100
AcDbDictionary
280
0
281
1
  0
ACDBDICTIONARYWDFLT
  5
E
102
{ACAD_REACTORS
330
C
102
}
100
AcDbDictionary
281
1
  3
Normal
350
F
100
AcDbDictionaryWithDefault
340
F
  0
DICTIONARY
  5
17
102
{ACAD_REACTORS
330
C
102
}
100
AcDbDictionary
280
0
281
1
  3
Standard
350
18
  0
DICTIONARY
  5
19
102
{ACAD_REACTORS
330
C
102
}
100
AcDbDictionary
281
1
  0
DICTIONARY
  5
1A
102
{ACAD_REACTORS
330
C
102
}
100
AcDbDictionary
281
1
  3
Model
350
2A5
  3
Layout1
350
2A6
  0
ACDBPLACEHOLDER
  5
F
102
{ACAD_REACTORS
330
E
102
}
  0
MLINESTYLE
  5
18
102
{ACAD_REACTORS
330
17
102
}
100
AcDbMlineStyle
  2
STANDARD
 70
0
  3

 62
256
 51
90.0
 52
90.0
 71
2
 49
0.5
 62
256
  6
BYLAYER
 49
-0.5
 62
256
  6
BYLAYER
  0
LAYOUT
  5
2A5
102
{ACAD_REACTORS
330
1A
102
}
100
AcDbPlotSettings
  1

  2
none_device
  4

  6

 40
0.0
 41
0.0
 42
0.0
 43
0.0
 44
210.0
 45
297.0
 46
0.0
 47
0.0
 48
0.0
 49
0.0
140
0.0
141
0.0
142
1.0
143
1.0
 70
1024
 72
1
 73
0
 74
0
  7

 75
0
147
1.0
148
0.0
149
0.0
100
AcDbLayout
  1
Model
 70
0
 71
0
 10
0.0
 20
0.0
 11
210.0
 21
297.0
 12
0.0
 22
0.0
 32
0.0
 14
0.0
 24
0.0
 34
0.0
 15
0.0
 25
0.0
 35
0.0
146
0.0
 13
0.0
 23
0.0
 33
0.0
 16
1.0
 26
0.0
 36
0.0
 17
0.0
 27
1.0
 37
0.0
 76
0
330
212
345
0
346
0
  0
LAYOUT
  5
2A6
102
{ACAD_REACTORS
330
1A
102
}
100
AcDbPlotSettings
  1

  2
none_device
  4

  6

 40
0.0
 41
0.0
 42
0.0
 43
0.0
 44
210.0
 45
297.0
 46
0.0
 47
0.0
 48
0.0
 49
0.0
140
0.0
141
0.0
142
1.0
143
1.0
 70
0
 72
1
 73
0
 74
0
  7

 75
0
147
1.0
148
0.0
149
0.0
100
AcDbLayout
  1
Layout1
 70
0
 71
1
 10
0.0
 20
0.0
 11
210.0
 21
297.0
 12
0.0
 22
0.0
 32
0.0
 14
0.0
 24
0.0
 34
0.0
 15
0.0
 25
0.0
 35
0.0
146
0.0
 13
0.0
 23
0.0
 33
0.0
 16
1.0
 26
0.0
 36
0.0
 17
0.0
 27
1.0
 37
0.0
 76
0
330
213
345
0
346
0
  0
ENDSEC
  0
EOF
