999
DXF file: C:\Users\sesa63760\Dev\_Creo\CAD\MCADUE0002478_3D-CAD\drw0001_1.dxf
999
Pro/ENGINEER 2019471 by Parametric Technology Corporation
  0
SECTION
  2
HEADER
  9
$ACADVER
  1
AC1024
  9
$DWGCODEPAGE
  3
ANSI_1252
  9
$EXTMAX
 10
522.3728048146
 20
738.7843953806
 30
0.0
  9
$EXTMIN
 10
0.0
 20
0.0
 30
0.0
  9
$LIMMIN
 10
0.0
 20
0.0
  9
$LIMMAX
 10
522.3728048146
 20
738.7843953806
  9
$VIEWCTR
 10
261.1864024073
 20
369.3921976903
  9
$VIEWSIZE
 40
738.7843953806
  9
$CLAYER
  8
0
  9
$LTSCALE
 40
48.1577976248
  9
$CELTYPE
  6
BYLAYER
  9
$DIMSCALE
 40
1.0
  9
$DIMASZ
 40
6.2187238668
  9
$DIMEXO
 40
1.0
  9
$DIMDLI
 40
33.2726601771
  9
$DIMEXE
 40
1.0
  9
$DIMCEN
 40
7.8803668841
  9
$DIMLFAC
 40
1.0
  9
$DIMBLK
  1
_FILLED
  9
$DIMALT
 70
0
  9
$DIMALTF
 40
0.0393700787
  9
$DIMTXT
 40
8.7062134136
  9
$DIMTOL
 70
1
  9
$DIMLIM
 70
0
  9
$DIMTFAC
 40
1.0
  9
$DIMTP
 40
0.01
  9
$DIMTM
 40
0.01
  9
$DIMGAP
 40
0.625
  9
$DIMDSEP
 70
46
  9
$AUNITS
 70
0
  9
$PDMODE
 70
3
  9
$PDSIZE
 40
0.3125
  9
$HANDSEED
  5
4EF
  9
$TILEMODE
 70
1
  9
$MEASUREMENT
 70
1
  9
$INSUNITS
 70
4
  0
ENDSEC
  0
SECTION
  2
CLASSES
  0
CLASS
  1
ACDBDICTIONARYWDFLT
  2
AcDbDictionaryWithDefault
  3
AutoCAD 2000
 90
0
 91
1
280
0
281
0
  0
CLASS
  1
ACDBPLACEHOLDER
  2
AcDbPlaceHolder
  3
AutoCAD 2000
 90
0
 91
1
280
0
281
0
  0
CLASS
  1
LAYOUT
  2
AcDbLayout
  3
AutoCAD 2000
 90
0
 91
0
280
0
281
0
  0
ENDSEC
  0
SECTION
  2
TABLES
  0
TABLE
  2
VPORT
  5
8
100
AcDbSymbolTable
 70
2
  0
VPORT
  5
1F4
100
AcDbSymbolTableRecord
100
AcDbViewportTableRecord
  2
*ACTIVE
 70
0
 10
0.0
 20
0.0
 11
1.0
 21
1.0
 12
261.1864024073
 22
369.3921976903
 13
0.0
 23
0.0
 14
1.0
 24
1.0
 15
0.0
 25
0.0
 16
0.0
 26
0.0
 36
1.0
 17
0.0
 27
0.0
 37
0.0
 40
738.7843953806
 41
0.7070707071
 42
50.0
 43
0.0
 44
0.0
 50
0.0
 51
0.0
 71
0
 72
100
 73
1
 74
1
 75
0
 76
0
 77
0
 78
0
  0
ENDTAB
  0
TABLE
  2
LTYPE
  5
5
100
AcDbSymbolTable
 70
6
  0
LTYPE
  5
14
100
AcDbSymbolTableRecord
100
AcDbLinetypeTableRecord
  2
BYBLOCK
 70
0
  3

 72
65
 73
0
 40
0.0
  0
LTYPE
  5
15
100
AcDbSymbolTableRecord
100
AcDbLinetypeTableRecord
  2
BYLAYER
 70
0
  3

 72
65
 73
0
 40
0.0
  0
LTYPE
  5
16
100
AcDbSymbolTableRecord
100
AcDbLinetypeTableRecord
  2
CONTINUOUS
 70
64
  3
Solid line
 72
65
 73
0
 40
0.0
  0
LTYPE
  5
1F5
100
AcDbSymbolTableRecord
100
AcDbLinetypeTableRecord
  2
CENTER
 70
64
  3
____ _ ____ _ ____ _ ____ _ ____ _ ____ _ ____
 72
65
 73
4
 40
0.6
 49
0.375
 74
0
 49
-0.075
 74
0
 49
0.075
 74
0
 49
-0.075
 74
0
  0
LTYPE
  5
1F6
100
AcDbSymbolTableRecord
100
AcDbLinetypeTableRecord
  2
HIDDEN
 70
64
  3
- - - - - - - - - - - - - - - - - - - -
 72
65
 73
2
 40
0.2
 49
0.1
 74
0
 49
-0.1
 74
0
  0
LTYPE
  5
1F7
100
AcDbSymbolTableRecord
100
AcDbLinetypeTableRecord
  2
PHANTOM
 70
64
  3
_____ _ _ _____ _ _ _____ _ _ _____
 72
65
 73
6
 40
0.8
 49
0.45
 74
0
 49
-0.05
 74
0
 49
0.1
 74
0
 49
-0.05
 74
0
 49
0.1
 74
0
 49
-0.05
 74
0
  0
LTYPE
  5
1F8
100
AcDbSymbolTableRecord
100
AcDbLinetypeTableRecord
  2
DOT
 70
64
  3
. . . . . . . . . . . . . . . . . . . .
 72
65
 73
2
 40
0.2
 49
0.1
 74
0
 49
-0.1
 74
0
  0
LTYPE
  5
1F9
100
AcDbSymbolTableRecord
100
AcDbLinetypeTableRecord
  2
DASHED
 70
64
  3
- - - - - - - - - - - - - - - - - - - -
 72
65
 73
2
 40
0.2
 49
0.1
 74
0
 49
-0.1
 74
0
  0
ENDTAB
  0
TABLE
  2
LAYER
  5
2
100
AcDbSymbolTable
 70
36
  0
LAYER
  5
10
100
AcDbSymbolTableRecord
100
AcDbLayerTableRecord
  2
0
 70
0
 62
7
  6
CONTINUOUS
370
-3
390
F
  0
LAYER
  5
1FA
100
AcDbSymbolTableRecord
100
AcDbLayerTableRecord
  2
DEFAULT_1
 70
0
 62
7
  6
CENTER
370
-3
390
F
  0
LAYER
  5
1FB
100
AcDbSymbolTableRecord
100
AcDbLayerTableRecord
  2
DEFAULT_2
 70
0
 62
8
  6
HIDDEN
370
-3
390
F
  0
LAYER
  5
1FC
100
AcDbSymbolTableRecord
100
AcDbLayerTableRecord
  2
DEFAULT_3
 70
0
 62
7
  6
PHANTOM
370
-3
390
F
  0
LAYER
  5
1FD
100
AcDbSymbolTableRecord
100
AcDbLayerTableRecord
  2
00_COMPONENTS
 70
0
 62
7
  6
CONTINUOUS
370
-3
390
F
  0
LAYER
  5
1FE
100
AcDbSymbolTableRecord
100
AcDbLayerTableRecord
  2
01_1_DEFAULT_DATUMS
 70
0
 62
7
  6
CONTINUOUS
370
-3
390
F
  0
LAYER
  5
1FF
100
AcDbSymbolTableRecord
100
AcDbLayerTableRecord
  2
01_PLANES
 70
0
 62
7
  6
CONTINUOUS
370
-3
390
F
  0
LAYER
  5
200
100
AcDbSymbolTableRecord
100
AcDbLayerTableRecord
  2
02_COORD_SYS
 70
0
 62
7
  6
CONTINUOUS
370
-3
390
F
  0
LAYER
  5
201
100
AcDbSymbolTableRecord
100
AcDbLayerTableRecord
  2
03_AXES
 70
0
 62
7
  6
CONTINUOUS
370
-3
390
F
  0
LAYER
  5
202
100
AcDbSymbolTableRecord
100
AcDbLayerTableRecord
  2
04_POINTS
 70
0
 62
7
  6
CONTINUOUS
370
-3
390
F
  0
LAYER
  5
203
100
AcDbSymbolTableRecord
100
AcDbLayerTableRecord
  2
05_CURVES
 70
0
 62
7
  6
CONTINUOUS
370
-3
390
F
  0
LAYER
  5
204
100
AcDbSymbolTableRecord
100
AcDbLayerTableRecord
  2
06_SURFS
 70
0
 62
7
  6
CONTINUOUS
370
-3
390
F
  0
LAYER
  5
205
100
AcDbSymbolTableRecord
100
AcDbLayerTableRecord
  2
07_COSMETICS
 70
0
 62
7
  6
CONTINUOUS
370
-3
390
F
  0
LAYER
  5
206
100
AcDbSymbolTableRecord
100
AcDbLayerTableRecord
  2
10_NOTES
 70
0
 62
7
  6
CONTINUOUS
370
-3
390
F
  0
LAYER
  5
207
100
AcDbSymbolTableRecord
100
AcDbLayerTableRecord
  2
11_NOTES_PUB
 70
0
 62
7
  6
CONTINUOUS
370
-3
390
F
  0
LAYER
  5
208
100
AcDbSymbolTableRecord
100
AcDbLayerTableRecord
  2
13_REF_GTOL
 70
0
 62
7
  6
CONTINUOUS
370
-3
390
F
  0
LAYER
  5
209
100
AcDbSymbolTableRecord
100
AcDbLayerTableRecord
  2
16_MISC
 70
0
 62
7
  6
CONTINUOUS
370
-3
390
F
  0
LAYER
  5
20A
100
AcDbSymbolTableRecord
100
AcDbLayerTableRecord
  2
17_NO_PRINT
 70
0
 62
7
  6
CONTINUOUS
370
-3
390
F
  0
LAYER
  5
20B
100
AcDbSymbolTableRecord
100
AcDbLayerTableRecord
  2
18_DATUM_CAMS_JOINTS
 70
0
 62
7
  6
CONTINUOUS
370
-3
390
F
  0
LAYER
  5
20C
100
AcDbSymbolTableRecord
100
AcDbLayerTableRecord
  2
19_DATUM_FUNCTIONAL
 70
0
 62
7
  6
CONTINUOUS
370
-3
390
F
  0
LAYER
  5
20D
100
AcDbSymbolTableRecord
100
AcDbLayerTableRecord
  2
20_DATUM_KINEMATIC_SCHEME
 70
0
 62
7
  6
CONTINUOUS
370
-3
390
F
  0
ENDTAB
  0
TABLE
  2
STYLE
  5
3
100
AcDbSymbolTable
 70
1
  0
STYLE
  5
11
100
AcDbSymbolTableRecord
100
AcDbTextStyleTableRecord
  2
STANDARD
 70
0
 40
0.0
 41
0.8
 50
0.0
 71
0
 42
0.2
  3
txt
  4

  0
STYLE
  5
20E
100
AcDbSymbolTableRecord
100
AcDbTextStyleTableRecord
  2
TEXTSTYLE_1
 70
0
 40
0.0
 41
0.8
 50
0.0
 71
0
 42
0.2
  3
gdt
  4

  0
ENDTAB
  0
TABLE
  2
VIEW
  5
6
100
AcDbSymbolTable
 70
0
  0
ENDTAB
  0
TABLE
  2
UCS
  5
7
100
AcDbSymbolTable
 70
0
  0
ENDTAB
  0
TABLE
  2
APPID
  5
9
100
AcDbSymbolTable
 70
1
  0
APPID
  5
20F
100
AcDbSymbolTableRecord
100
AcDbRegAppTableRecord
  2
ACAD
 70
0
  0
ENDTAB
  0
TABLE
  2
BLOCK_RECORD
  5
1
100
AcDbSymbolTable
 70
0
  0
BLOCK_RECORD
  5
210
100
AcDbSymbolTableRecord
100
AcDbBlockTableRecord
  2
*Model_Space
  0
BLOCK_RECORD
  5
211
100
AcDbSymbolTableRecord
100
AcDbBlockTableRecord
  2
*Paper_Space
  0
BLOCK_RECORD
  5
212
100
AcDbSymbolTableRecord
100
AcDbBlockTableRecord
  2
_FILLED
  0
ENDTAB
  0
TABLE
  2
DIMSTYLE
  5
A
100
AcDbSymbolTable
 70
1
100
AcDbDimStyleTable
 71
0
  0
DIMSTYLE
105
213
100
AcDbSymbolTableRecord
100
AcDbDimStyleTableRecord
  2
STANDARD
 70
0
  3

  4

 40
1.0
 41
6.2187238668
 42
1.0
 43
0.38
 44
1.0
 45
0.0
 46
0.0
 47
0.01
 48
0.01
140
8.7062134136
141
0.09
142
0.0
143
25.4
144
1.0
145
0.0
146
1.0
147
0.625
 71
1
 72
0
 73
0
 74
0
 75
0
 76
0
 77
1
 78
8
 79
2
170
0
171
1
172
0
173
0
174
0
175
0
176
0
177
0
178
0
270
2
179
2
271
2
272
2
273
2
274
2
275
0
280
0
281
0
282
0
283
1
284
8
285
0
286
0
287
3
288
0
340
11
278
46
341
212
342
212
343
212
344
212
  0
ENDTAB
  0
ENDSEC
  0
SECTION
  2
BLOCKS
  0
BLOCK
  5
20
100
AcDbEntity
  8
0
100
AcDbBlockBegin
  2
*Model_Space
 70
0
 10
0.0
 20
0.0
 30
0.0
  3
*Model_Space
  1

  0
ENDBLK
  5
21
100
AcDbEntity
  8
0
100
AcDbBlockEnd
  0
BLOCK
  5
1C
100
AcDbEntity
  8
0
100
AcDbBlockBegin
  2
*Paper_Space
 70
0
 10
0.0
 20
0.0
 30
0.0
  3
*Paper_Space
  1

  0
ENDBLK
  5
1D
100
AcDbEntity
  8
0
100
AcDbBlockEnd
  0
BLOCK
  5
214
100
AcDbEntity
  8
0
100
AcDbBlockBegin
  2
_FILLED
 70
64
 10
0.0
 20
0.0
  3
_FILLED
  1

  0
SOLID
  5
215
100
AcDbEntity
  8
0
  6
BYBLOCK
 62
0
100
AcDbTrace
 10
0.0
 20
0.0
 11
-1.0
 21
0.25
 12
-1.0
 22
-0.25
 13
-1.0
 23
-0.25
  0
ENDBLK
  5
216
100
AcDbEntity
  8
0
  6
BYBLOCK
 62
0
100
AcDbBlockEnd
  0
ENDSEC
  0
SECTION
  2
ENTITIES
  0
LINE
  5
217
100
AcDbEntity
  8
0
100
AcDbLine
 62
7
  6
CONTINUOUS
 10
62.3289033307
 20
537.7618950078
 11
61.8732331487
 21
536.7548072669
  0
LINE
  5
218
100
AcDbEntity
  8
0
100
AcDbLine
 62
7
  6
CONTINUOUS
 10
61.8732331487
 20
536.7548072669
 11
61.2289222684
 21
535.8566776069
  0
LINE
  5
219
100
AcDbEntity
  8
0
100
AcDbLine
 62
7
  6
CONTINUOUS
 10
60.9116626042
 20
508.8274001433
 11
60.6012590841
 21
508.1581689332
  0
LINE
  5
21A
100
AcDbEntity
  8
0
100
AcDbLine
 62
7
  6
CONTINUOUS
 10
62.7755558422
 20
509.7609806516
 11
63.0859593622
 21
510.4302118617
  0
LINE
  5
21B
100
AcDbEntity
  8
0
100
AcDbLine
 62
7
  6
CONTINUOUS
 10
63.5103358243
 20
510.6752327316
 11
62.7755558421
 21
509.7609806516
  0
LINE
  5
21C
100
AcDbEntity
  8
0
100
AcDbLine
 62
7
  6
CONTINUOUS
 10
63.6587235377
 20
509.9234473289
 11
64.39350352
 21
510.837699409
  0
LINE
  5
21D
100
AcDbEntity
  8
0
100
AcDbLine
 62
7
  6
CONTINUOUS
 10
187.1030083756
 20
609.7998832423
 11
62.3288794686
 21
537.7619363385
  0
LINE
  5
21E
100
AcDbEntity
  8
0
100
AcDbLine
 62
7
  6
CONTINUOUS
 10
63.428874544
 20
537.6529829246
 11
188.203003451
 21
609.6909298285
  0
LINE
  5
21F
100
AcDbEntity
  8
0
100
AcDbLine
 62
7
  6
CONTINUOUS
 10
320.2351580494
 20
145.4805859086
 11
321.3943144937
 21
145.659800475
  0
LINE
  5
220
100
AcDbEntity
  8
0
100
AcDbLine
 62
7
  6
CONTINUOUS
 10
321.9765731285
 20
146.343454041
 11
320.817416684
 21
146.1642394747
  0
LINE
  5
221
100
AcDbEntity
  8
0
100
AcDbLine
 62
7
  6
CONTINUOUS
 10
343.8685915373
 20
130.793974543
 11
342.4150609752
 21
130.8891303199
  0
LINE
  5
222
100
AcDbEntity
  8
0
100
AcDbLine
 62
7
  6
CONTINUOUS
 10
68.6899294551
 20
508.3572128549
 11
74.8133599602
 21
511.8925560023
  0
LINE
  5
223
100
AcDbEntity
  8
0
100
AcDbLine
 62
7
  6
CONTINUOUS
 10
317.7599522304
 20
144.3989610789
 11
318.4947322127
 21
144.3331547754
  0
LINE
  5
224
100
AcDbEntity
  8
0
100
AcDbLine
 62
7
  6
CONTINUOUS
 10
320.9699380316
 20
145.4147796051
 11
320.2351580494
 21
145.4805859086
  0
LINE
  5
225
100
AcDbEntity
  8
0
100
AcDbLine
 62
7
  6
CONTINUOUS
 10
61.8732461021
 20
293.6004259649
 11
61.2289222684
 21
294.4985631034
  0
LINE
  5
226
100
AcDbEntity
  8
0
100
AcDbLine
 62
7
  6
CONTINUOUS
 10
62.3289170695
 20
292.5933377706
 11
61.8732461021
 21
293.6004259649
  0
LINE
  5
227
100
AcDbEntity
  8
0
100
AcDbLine
 62
7
  6
CONTINUOUS
 10
60.6012578562
 20
508.1581732355
 11
60.6012578562
 21
296.3967054772
  0
LINE
  5
228
100
AcDbEntity
  8
0
100
AcDbLine
 62
7
  6
CONTINUOUS
 10
61.228874544
 20
294.4985631035
 11
61.228874544
 21
295.6780594819
  0
LINE
  5
229
100
AcDbEntity
  8
0
100
AcDbLine
 62
7
  6
CONTINUOUS
 10
61.228874544
 20
509.0925421438
 11
61.228874544
 21
535.856677607
  0
LINE
  5
22A
100
AcDbEntity
  8
0
100
AcDbLine
 62
7
  6
CONTINUOUS
 10
61.8732461021
 20
293.6004259649
 11
61.8732461021
 21
294.998193421
  0
LINE
  5
22B
100
AcDbEntity
  8
0
100
AcDbLine
 62
7
  6
CONTINUOUS
 10
61.8732461021
 20
509.6037932142
 11
61.8732461021
 21
534.9585404684
  0
LINE
  5
22C
100
AcDbEntity
  8
0
100
AcDbLine
 62
7
  6
CONTINUOUS
 10
65.5095968955
 20
507.3370764712
 11
65.5095968955
 21
295.7001183368
  0
LINE
  5
22D
100
AcDbEntity
  8
0
100
AcDbLine
 62
7
  6
CONTINUOUS
 10
67.6343114109
 20
296.9268310281
 11
67.6343114109
 21
506.0239307307
  0
LINE
  5
22E
100
AcDbEntity
  8
0
100
AcDbLine
 62
7
  6
CONTINUOUS
 10
73.9648224021
 20
514.0154322332
 11
73.9648224021
 21
511.4026420071
  0
LINE
  5
22F
100
AcDbEntity
  8
0
100
AcDbLine
 62
7
  6
CONTINUOUS
 10
74.8133599602
 20
501.8791988846
 11
74.8133599602
 21
301.0716318994
  0
LINE
  5
230
100
AcDbEntity
  8
0
100
AcDbLine
 62
7
  6
CONTINUOUS
 10
75.4577185649
 20
301.4436412012
 11
75.4577185649
 21
501.5071866868
  0
LINE
  5
231
100
AcDbEntity
  8
0
100
AcDbLine
 62
7
  6
CONTINUOUS
 10
291.6923348854
 20
181.9125169351
 11
290.8423384243
 21
181.8283258147
  0
LINE
  5
232
100
AcDbEntity
  8
0
100
AcDbLine
 62
7
  6
CONTINUOUS
 10
324.65423859
 20
176.1207653386
 11
329.338735117
 21
175.3960936325
  0
LINE
  5
233
100
AcDbEntity
  8
0
100
AcDbLine
 62
7
  6
CONTINUOUS
 10
329.7269576522
 20
176.2325989108
 11
325.0424611242
 21
176.957270617
  0
LINE
  5
234
100
AcDbEntity
  8
0
100
AcDbLine
 62
7
  6
CONTINUOUS
 10
317.7599522304
 20
144.3989610789
 11
63.6587235377
 21
291.1010550213
  0
LINE
  5
235
100
AcDbEntity
  8
0
100
AcDbLine
 62
7
  6
CONTINUOUS
 10
342.0615004759
 20
131.0932539515
 11
318.8827302379
 21
144.4752204473
  0
LINE
  5
236
100
AcDbEntity
  8
0
100
AcDbLine
 62
7
  6
CONTINUOUS
 10
63.3502556025
 20
292.0036259263
 11
62.3288932077
 21
292.5932964397
  0
LINE
  5
237
100
AcDbEntity
  8
0
100
AcDbLine
 62
7
  6
CONTINUOUS
 10
341.6058533703
 20
132.1003834767
 11
319.6476962446
 21
144.7776446061
  0
LINE
  5
238
100
AcDbEntity
  8
0
100
AcDbLine
 62
7
  6
CONTINUOUS
 10
63.08363621
 20
292.9016227194
 11
61.8732461021
 21
293.6004259649
  0
LINE
  5
239
100
AcDbEntity
  8
0
100
AcDbLine
 62
7
  6
CONTINUOUS
 10
324.6542385896
 20
206.0864040473
 11
329.338735117
 21
205.3617323412
  0
LINE
  5
23A
100
AcDbEntity
  8
0
100
AcDbLine
 62
7
  6
CONTINUOUS
 10
329.7269576521
 20
206.1982376194
 11
325.0424611246
 21
206.9229093255
  0
LINE
  5
23B
100
AcDbEntity
  8
0
100
AcDbLine
 62
7
  6
CONTINUOUS
 10
65.5095968956
 20
295.7001183368
 11
319.5030045357
 21
149.0602734999
  0
LINE
  5
23C
100
AcDbEntity
  8
0
100
AcDbLine
 62
7
  6
CONTINUOUS
 10
319.4281246837
 20
151.5568938621
 11
67.6343114109
 21
296.9268310281
  0
LINE
  5
23D
100
AcDbEntity
  8
0
100
AcDbLine
 62
7
  6
CONTINUOUS
 10
348.1846659814
 20
140.0658957217
 11
348.0432440364
 21
140.1475438726
  0
LINE
  5
23E
100
AcDbEntity
  8
0
100
AcDbLine
 62
7
  6
CONTINUOUS
 10
327.3938906181
 20
154.2676697062
 11
329.5142770702
 21
153.0434917119
  0
LINE
  5
23F
100
AcDbEntity
  8
0
100
AcDbLine
 62
7
  6
CONTINUOUS
 10
74.8133599602
 20
301.0716318994
 11
319.4281246837
 21
159.8464265796
  0
LINE
  5
240
100
AcDbEntity
  8
0
100
AcDbLine
 62
7
  6
CONTINUOUS
 10
319.4281246837
 20
160.5904480793
 11
75.4577185649
 21
301.4436412012
  0
LINE
  5
241
100
AcDbEntity
  8
0
100
AcDbLine
 62
7
  6
CONTINUOUS
 10
145.177735044
 20
265.9259212459
 11
209.1711651698
 21
228.9801329618
  0
LINE
  5
242
100
AcDbEntity
  8
0
100
AcDbLine
 62
7
  6
CONTINUOUS
 10
226.8489082985
 20
218.7741140988
 11
290.8423384243
 21
181.8283258147
  0
LINE
  5
243
100
AcDbEntity
  8
0
100
AcDbLine
 62
7
  6
CONTINUOUS
 10
291.6923240023
 20
181.9125232185
 11
227.6988938765
 21
218.8583115025
  0
LINE
  5
244
100
AcDbEntity
  8
0
100
AcDbLine
 62
7
  6
CONTINUOUS
 10
210.0211507479
 20
229.0643303656
 11
146.0277206221
 21
266.0101186496
  0
LINE
  5
245
100
AcDbEntity
  8
0
100
AcDbLine
 62
7
  6
CONTINUOUS
 10
293.8828849243
 20
182.1957215672
 11
229.8894547985
 21
219.1415098513
  0
LINE
  5
246
100
AcDbEntity
  8
0
100
AcDbLine
 62
7
  6
CONTINUOUS
 10
212.2117116699
 20
229.3475287143
 11
148.218281544
 21
266.2933169984
  0
LINE
  5
247
100
AcDbEntity
  8
0
100
AcDbLine
 62
7
  6
CONTINUOUS
 10
295.0849614476
 20
184.2777907379
 11
231.0915314049
 21
221.2235789741
  0
LINE
  5
248
100
AcDbEntity
  8
0
100
AcDbLine
 62
7
  6
CONTINUOUS
 10
213.4137881931
 20
231.429597885
 11
149.4203583165
 21
268.3753860252
  0
LINE
  5
249
100
AcDbEntity
  8
0
100
AcDbLine
 62
7
  6
CONTINUOUS
 10
354.6845556957
 20
151.3242896436
 11
354.5431337507
 21
151.4059377945
  0
LINE
  5
24A
100
AcDbEntity
  8
0
100
AcDbLine
 62
7
  6
CONTINUOUS
 10
134.2174872008
 20
278.7855322081
 11
313.116247663
 21
175.5006213145
  0
LINE
  5
24B
100
AcDbEntity
  8
0
100
AcDbLine
 62
7
  6
CONTINUOUS
 10
146.0277206221
 20
266.0101186496
 11
145.91439391
 21
266.088152059
  0
LINE
  5
24C
100
AcDbEntity
  8
0
100
AcDbLine
 62
7
  6
CONTINUOUS
 10
74.7387640465
 20
512.169381281
 11
74.8133599602
 21
511.8925560023
  0
LINE
  5
24D
100
AcDbEntity
  8
0
100
AcDbLine
 62
7
  6
CONTINUOUS
 10
134.2172987869
 20
303.9332463761
 11
134.2172987869
 21
304.9130492766
  0
LINE
  5
24E
100
AcDbEntity
  8
0
100
AcDbLine
 62
7
  6
CONTINUOUS
 10
210.0211507479
 20
229.0643303656
 11
209.1711651698
 21
228.9801329618
  0
LINE
  5
24F
100
AcDbEntity
  8
0
100
AcDbLine
 62
7
  6
CONTINUOUS
 10
336.090406346
 20
169.0062374525
 11
333.098097864
 21
170.7338084772
  0
LINE
  5
250
100
AcDbEntity
  8
0
100
AcDbLine
 62
7
  6
CONTINUOUS
 10
326.8273307699
 20
175.0075771122
 11
325.7666661822
 21
175.619938244
  0
LINE
  5
251
100
AcDbEntity
  8
0
100
AcDbLine
 62
7
  6
CONTINUOUS
 10
325.7666661822
 20
205.5855769526
 11
326.8273307699
 21
204.9732158208
  0
LINE
  5
252
100
AcDbEntity
  8
0
100
AcDbLine
 62
7
  6
CONTINUOUS
 10
329.7264188197
 20
211.8725202654
 11
331.3045078514
 21
210.9614307498
  0
LINE
  5
253
100
AcDbEntity
  8
0
100
AcDbLine
 62
7
  6
CONTINUOUS
 10
333.098097864
 20
209.9259244994
 11
336.090406346
 21
208.1983534747
  0
LINE
  5
254
100
AcDbEntity
  8
0
100
AcDbLine
 62
7
  6
CONTINUOUS
 10
337.1510621018
 20
208.8107197055
 11
330.7870745755
 21
212.4848864962
  0
LINE
  5
255
100
AcDbEntity
  8
0
100
AcDbLine
 62
7
  6
CONTINUOUS
 10
328.1585405223
 20
154.7667713586
 11
328.3025048292
 21
154.6367650024
  0
LINE
  5
256
100
AcDbEntity
  8
0
100
AcDbLine
 62
7
  6
CONTINUOUS
 10
328.1000635079
 20
154.8397936302
 11
328.3025111669
 21
154.6367714212
  0
LINE
  5
257
100
AcDbEntity
  8
0
100
AcDbLine
 62
7
  6
CONTINUOUS
 10
173.8151136709
 20
327.7747218934
 11
173.8151136709
 21
326.7949189929
  0
LINE
  5
258
100
AcDbEntity
  8
0
100
AcDbLine
 62
7
  6
CONTINUOUS
 10
145.177735044
 20
265.9259212459
 11
146.0277206221
 21
266.0101186496
  0
LINE
  5
259
100
AcDbEntity
  8
0
100
AcDbLine
 62
7
  6
CONTINUOUS
 10
301.9446604687
 20
282.1360640855
 11
301.0946640076
 21
282.0518729651
  0
LINE
  5
25A
100
AcDbEntity
  8
0
100
AcDbLine
 62
7
  6
CONTINUOUS
 10
61.8732461021
 20
534.9585404684
 11
73.9648224021
 21
514.0154322332
  0
LINE
  5
25B
100
AcDbEntity
  8
0
100
AcDbLine
 62
7
  6
CONTINUOUS
 10
185.1438712552
 20
365.4633612386
 11
185.1438712552
 21
438.1812895279
  0
LINE
  5
25C
100
AcDbEntity
  8
0
100
AcDbLine
 62
7
  6
CONTINUOUS
 10
186.7300996177
 20
365.214146187
 11
186.7300996177
 21
437.2655008737
  0
LINE
  5
25D
100
AcDbEntity
  8
0
100
AcDbLine
 62
7
  6
CONTINUOUS
 10
188.8694900961
 20
436.0303511479
 11
188.8694900961
 21
366.55875233
  0
LINE
  5
25E
100
AcDbEntity
  8
0
100
AcDbLine
 62
7
  6
CONTINUOUS
 10
189.2963468966
 20
367.1673984888
 11
189.2963468965
 21
435.7839108345
  0
LINE
  5
25F
100
AcDbEntity
  8
0
100
AcDbLine
 62
7
  6
CONTINUOUS
 10
191.7740621213
 20
371.8647006763
 11
191.7740680092
 21
371.048215768
  0
LINE
  5
260
100
AcDbEntity
  8
0
100
AcDbLine
 62
7
  6
CONTINUOUS
 10
195.5216094197
 20
375.3811772326
 11
195.5216094197
 21
432.1898351499
  0
LINE
  5
261
100
AcDbEntity
  8
0
100
AcDbLine
 62
7
  6
CONTINUOUS
 10
196.3701340018
 20
375.8710702042
 11
196.3701230108
 21
431.6999566821
  0
LINE
  5
262
100
AcDbEntity
  8
0
100
AcDbLine
 62
7
  6
CONTINUOUS
 10
219.0699476664
 20
326.7950277721
 11
319.4281246837
 21
268.8545180453
  0
LINE
  5
263
100
AcDbEntity
  8
0
100
AcDbLine
 62
7
  6
CONTINUOUS
 10
61.2289222684
 20
535.8566776069
 11
61.8732461021
 21
534.9585404684
  0
LINE
  5
264
100
AcDbEntity
  8
0
100
AcDbLine
 62
7
  6
CONTINUOUS
 10
219.0699476664
 20
326.7950277721
 11
219.0699476664
 21
327.7748306727
  0
LINE
  5
265
100
AcDbEntity
  8
0
100
AcDbLine
 62
7
  6
CONTINUOUS
 10
201.3555223305
 20
382.2134647624
 11
207.3659049468
 21
385.6835400703
  0
LINE
  5
266
100
AcDbEntity
  8
0
100
AcDbLine
 62
7
  6
CONTINUOUS
 10
192.6025099756
 20
373.6958444428
 11
202.148411778
 21
379.2071405201
  0
LINE
  5
267
100
AcDbEntity
  8
0
100
AcDbLine
 62
7
  6
CONTINUOUS
 10
324.65423859
 20
308.3941569135
 11
329.338735117
 21
307.6694852075
  0
LINE
  5
268
100
AcDbEntity
  8
0
100
AcDbLine
 62
7
  6
CONTINUOUS
 10
329.7269576522
 20
308.5059904857
 11
325.0424611242
 21
309.2306621919
  0
LINE
  5
269
100
AcDbEntity
  8
0
100
AcDbLine
 62
7
  6
CONTINUOUS
 10
319.4281246837
 20
269.8343209458
 11
219.0699476664
 21
327.7748306727
  0
LINE
  5
26A
100
AcDbEntity
  8
0
100
AcDbLine
 62
7
  6
CONTINUOUS
 10
237.1012338818
 20
318.9976612492
 11
301.0946639246
 21
282.0518730131
  0
LINE
  5
26B
100
AcDbEntity
  8
0
100
AcDbLine
 62
7
  6
CONTINUOUS
 10
318.7724071363
 20
271.8458541021
 11
319.3734453977
 21
271.4988523503
  0
LINE
  5
26C
100
AcDbEntity
  8
0
100
AcDbLine
 62
7
  6
CONTINUOUS
 10
237.9512194599
 20
319.0818586529
 11
301.9446495857
 21
282.1360703688
  0
LINE
  5
26D
100
AcDbEntity
  8
0
100
AcDbLine
 62
7
  6
CONTINUOUS
 10
304.1352105077
 20
282.4192687176
 11
240.1417803818
 21
319.3650570017
  0
LINE
  5
26E
100
AcDbEntity
  8
0
100
AcDbLine
 62
7
  6
CONTINUOUS
 10
305.3372870309
 20
284.5013378883
 11
241.3438569051
 21
321.4471261724
  0
LINE
  5
26F
100
AcDbEntity
  8
0
100
AcDbLine
 62
7
  6
CONTINUOUS
 10
227.8794475998
 20
334.0856999321
 11
319.4281246837
 21
281.2312423014
  0
LINE
  5
270
100
AcDbEntity
  8
0
100
AcDbLine
 62
7
  6
CONTINUOUS
 10
319.4281246837
 20
281.6708913692
 11
228.5294448936
 21
334.1500813771
  0
LINE
  5
271
100
AcDbEntity
  8
0
100
AcDbLine
 62
7
  6
CONTINUOUS
 10
319.4281246837
 20
281.7722959204
 11
230.4693863104
 21
333.1314855668
  0
LINE
  5
272
100
AcDbEntity
  8
0
100
AcDbLine
 62
7
  6
CONTINUOUS
 10
185.7410807373
 20
364.4222077812
 11
319.4281246837
 21
287.2397030731
  0
LINE
  5
273
100
AcDbEntity
  8
0
100
AcDbLine
 62
7
  6
CONTINUOUS
 10
319.4281246837
 20
289.0713325359
 11
186.3184325212
 21
365.9205105769
  0
LINE
  5
274
100
AcDbEntity
  8
0
100
AcDbLine
 62
7
  6
CONTINUOUS
 10
188.552575718
 20
367.101004148
 11
319.4281246837
 21
291.5416801027
  0
LINE
  5
275
100
AcDbEntity
  8
0
100
AcDbLine
 62
7
  6
CONTINUOUS
 10
319.4281246837
 20
292.0374812191
 11
189.2963468966
 21
367.1673984887
  0
LINE
  5
276
100
AcDbEntity
  8
0
100
AcDbLine
 62
7
  6
CONTINUOUS
 10
341.6058533703
 20
132.1003834767
 11
329.5142770702
 21
153.0434917119
  0
LINE
  5
277
100
AcDbEntity
  8
0
100
AcDbLine
 62
7
  6
CONTINUOUS
 10
185.0869699038
 20
365.5539662465
 11
75.4577185649
 21
302.2598662898
  0
LINE
  5
278
100
AcDbEntity
  8
0
100
AcDbLine
 62
7
  6
CONTINUOUS
 10
61.8732461021
 20
293.6004259649
 11
65.5095968955
 21
295.7001183368
  0
LINE
  5
279
100
AcDbEntity
  8
0
100
AcDbLine
 62
7
  6
CONTINUOUS
 10
74.8133599602
 20
301.0716318994
 11
67.6343114109
 21
296.9268310281
  0
LINE
  5
27A
100
AcDbEntity
  8
0
100
AcDbLine
 62
7
  6
CONTINUOUS
 10
76.1650684671
 20
301.0352617836
 11
185.7940735193
 21
364.3292195475
  0
LINE
  5
27B
100
AcDbEntity
  8
0
100
AcDbLine
 62
7
  6
CONTINUOUS
 10
196.6024920681
 20
366.7676308737
 11
206.1483938705
 21
372.278926951
  0
LINE
  5
27C
100
AcDbEntity
  8
0
100
AcDbLine
 62
7
  6
CONTINUOUS
 10
208.3554909924
 20
370.0890910164
 11
214.3658736087
 21
373.5591663243
  0
LINE
  5
27D
100
AcDbEntity
  8
0
100
AcDbLine
 62
7
  6
CONTINUOUS
 10
162.4155624416
 20
333.1313219854
 11
120.6964360465
 21
309.0449169073
  0
LINE
  5
27E
100
AcDbEntity
  8
0
100
AcDbLine
 62
7
  6
CONTINUOUS
 10
164.3555200123
 20
334.149927122
 11
120.8464366707
 21
309.0300603718
  0
LINE
  5
27F
100
AcDbEntity
  8
0
100
AcDbLine
 62
7
  6
CONTINUOUS
 10
123.286396323
 20
309.9991437235
 11
165.0055227182
 21
334.0855488016
  0
LINE
  5
280
100
AcDbEntity
  8
0
100
AcDbLine
 62
7
  6
CONTINUOUS
 10
329.2372836063
 20
366.4034179433
 11
329.5142770702
 21
366.4772235496
  0
LINE
  5
281
100
AcDbEntity
  8
0
100
AcDbLine
 62
7
  6
CONTINUOUS
 10
320.8174166841
 20
357.925699008
 11
321.9765731285
 21
358.1049135744
  0
LINE
  5
282
100
AcDbEntity
  8
0
100
AcDbLine
 62
7
  6
CONTINUOUS
 10
324.6542385896
 20
338.3597956223
 11
329.338735117
 21
337.6351239161
  0
LINE
  5
283
100
AcDbEntity
  8
0
100
AcDbLine
 62
7
  6
CONTINUOUS
 10
329.7269576521
 20
338.4716291944
 11
325.0424611246
 21
339.1963009005
  0
LINE
  5
284
100
AcDbEntity
  8
0
100
AcDbLine
 62
7
  6
CONTINUOUS
 10
193.8953428629
 20
367.3740176157
 11
194.6024285929
 21
366.9657698067
  0
LINE
  5
285
100
AcDbEntity
  8
0
100
AcDbLine
 62
7
  6
CONTINUOUS
 10
199.521397921
 20
368.4528518942
 11
319.4281246837
 21
299.2262370354
  0
LINE
  5
286
100
AcDbEntity
  8
0
100
AcDbLine
 62
7
  6
CONTINUOUS
 10
319.4281246837
 20
300.2060148675
 11
204.1272703958
 21
366.7734881696
  0
LINE
  5
287
100
AcDbEntity
  8
0
100
AcDbLine
 62
7
  6
CONTINUOUS
 10
201.3410684387
 20
368.3820662315
 11
200.3699225415
 21
368.942744888
  0
LINE
  5
288
100
AcDbEntity
  8
0
100
AcDbLine
 62
7
  6
CONTINUOUS
 10
336.090406346
 20
301.2796290275
 11
333.098097864
 21
303.0072000522
  0
LINE
  5
289
100
AcDbEntity
  8
0
100
AcDbLine
 62
7
  6
CONTINUOUS
 10
326.8273307699
 20
307.2809686872
 11
325.7666661822
 21
307.8933298189
  0
LINE
  5
28A
100
AcDbEntity
  8
0
100
AcDbLine
 62
7
  6
CONTINUOUS
 10
65.5095968955
 20
507.3370764712
 11
62.7755535703
 21
509.7609828828
  0
LINE
  5
28B
100
AcDbEntity
  8
0
100
AcDbLine
 62
7
  6
CONTINUOUS
 10
63.0859570904
 20
510.4302140929
 11
63.2443633902
 21
510.2897766528
  0
LINE
  5
28C
100
AcDbEntity
  8
0
100
AcDbLine
 62
7
  6
CONTINUOUS
 10
339.6259549717
 20
202.0746376165
 11
336.090406346
 21
208.1983534747
  0
LINE
  5
28D
100
AcDbEntity
  8
0
100
AcDbLine
 62
7
  6
CONTINUOUS
 10
337.1510621018
 20
208.8107197055
 11
340.6866107276
 21
202.6870038473
  0
LINE
  5
28E
100
AcDbEntity
  8
0
100
AcDbLine
 62
7
  6
CONTINUOUS
 10
173.8151136709
 20
327.7747218934
 11
134.2172987869
 21
304.9130492766
  0
LINE
  5
28F
100
AcDbEntity
  8
0
100
AcDbLine
 62
7
  6
CONTINUOUS
 10
173.8151136709
 20
326.7949189929
 11
134.2172987869
 21
303.9332463761
  0
LINE
  5
290
100
AcDbEntity
  8
0
100
AcDbLine
 62
7
  6
CONTINUOUS
 10
321.3943144937
 20
361.2991872872
 11
320.2351580493
 21
361.1199727208
  0
LINE
  5
291
100
AcDbEntity
  8
0
100
AcDbLine
 62
7
  6
CONTINUOUS
 10
325.7666661822
 20
337.8589685276
 11
326.8273307699
 21
337.2466073958
  0
LINE
  5
292
100
AcDbEntity
  8
0
100
AcDbLine
 62
7
  6
CONTINUOUS
 10
65.5095968955
 20
507.3370764712
 11
65.9510416332
 21
506.9957450046
  0
LINE
  5
293
100
AcDbEntity
  8
0
100
AcDbLine
 62
7
  6
CONTINUOUS
 10
329.7264188197
 20
344.1459118404
 11
331.3045078514
 21
343.2348223248
  0
LINE
  5
294
100
AcDbEntity
  8
0
100
AcDbLine
 62
7
  6
CONTINUOUS
 10
333.098097864
 20
342.1993160744
 11
336.090406346
 21
340.4717450497
  0
LINE
  5
295
100
AcDbEntity
  8
0
100
AcDbLine
 62
7
  6
CONTINUOUS
 10
337.1510621018
 20
341.0841112805
 11
330.7870745755
 21
344.7582780712
  0
LINE
  5
296
100
AcDbEntity
  8
0
100
AcDbLine
 62
7
  6
CONTINUOUS
 10
65.9510422762
 20
506.9957446334
 11
319.4655627864
 21
360.6323791551
  0
LINE
  5
297
100
AcDbEntity
  8
0
100
AcDbLine
 62
7
  6
CONTINUOUS
 10
319.5030045356
 20
360.6972316343
 11
65.5095968955
 21
507.3370764712
  0
LINE
  5
298
100
AcDbEntity
  8
0
100
AcDbLine
 62
7
  6
CONTINUOUS
 10
317.7599553423
 20
363.2213519697
 11
63.6587195267
 21
509.9234500243
  0
LINE
  5
299
100
AcDbEntity
  8
0
100
AcDbLine
 62
7
  6
CONTINUOUS
 10
318.4947322127
 20
364.1356054667
 11
64.39350352
 21
510.837699409
  0
LINE
  5
29A
100
AcDbEntity
  8
0
100
AcDbLine
 62
7
  6
CONTINUOUS
 10
320.2351588457
 20
145.4805828256
 11
319.5030045357
 21
149.0602734999
  0
LINE
  5
29B
100
AcDbEntity
  8
0
100
AcDbLine
 62
7
  6
CONTINUOUS
 10
320.9275163999
 20
145.6221906802
 11
320.9699388279
 21
145.4147765221
  0
LINE
  5
29C
100
AcDbEntity
  8
0
100
AcDbLine
 62
7
  6
CONTINUOUS
 10
467.9356107192
 20
448.1908873402
 11
343.1614818121
 21
376.1529404364
  0
LINE
  5
29D
100
AcDbEntity
  8
0
100
AcDbLine
 62
7
  6
CONTINUOUS
 10
327.2515318377
 20
366.1506066385
 11
320.6312397164
 21
362.3284020156
  0
LINE
  5
29E
100
AcDbEntity
  8
0
100
AcDbLine
 62
7
  6
CONTINUOUS
 10
327.2515318377
 20
365.170803738
 11
320.3919628125
 21
361.2104533548
  0
LINE
  5
29F
100
AcDbEntity
  8
0
100
AcDbLine
 62
7
  6
CONTINUOUS
 10
342.4543779749
 20
373.9483909649
 11
329.5142770702
 21
366.4772235496
  0
LINE
  5
2A0
100
AcDbEntity
  8
0
100
AcDbLine
 62
7
  6
CONTINUOUS
 10
319.5030045356
 20
360.6972316343
 11
320.2351588474
 21
361.1199729645
  0
LINE
  5
2A1
100
AcDbEntity
  8
0
100
AcDbLine
 62
7
  6
CONTINUOUS
 10
321.4797477667
 20
360.8586965728
 11
328.1000635079
 21
364.6809148326
  0
LINE
  5
2A2
100
AcDbEntity
  8
0
100
AcDbLine
 62
7
  6
CONTINUOUS
 10
344.7171232075
 20
373.4585054588
 11
469.4912521145
 21
445.4964523626
  0
LINE
  5
2A3
100
AcDbEntity
  8
0
100
AcDbLine
 62
7
  6
CONTINUOUS
 10
327.2515318377
 20
365.170803738
 11
328.1000635079
 21
364.6809148326
  0
LINE
  5
2A4
100
AcDbEntity
  8
0
100
AcDbLine
 62
7
  6
CONTINUOUS
 10
74.8133599602
 20
511.8925560023
 11
327.2515318377
 21
366.1506066385
  0
LINE
  5
2A5
100
AcDbEntity
  8
0
100
AcDbLine
 62
7
  6
CONTINUOUS
 10
329.5142770702
 20
366.4772235496
 11
73.9648224021
 21
514.0154322332
  0
LINE
  5
2A6
100
AcDbEntity
  8
0
100
AcDbLine
 62
7
  6
CONTINUOUS
 10
61.8732461021
 20
534.9585404684
 11
341.6058533703
 21
373.4584979802
  0
LINE
  5
2A7
100
AcDbEntity
  8
0
100
AcDbLine
 62
7
  6
CONTINUOUS
 10
344.7171232075
 20
373.4585054588
 11
343.8685915373
 21
373.9483943642
  0
LINE
  5
2A8
100
AcDbEntity
  8
0
100
AcDbLine
 62
7
  6
CONTINUOUS
 10
62.3288947355
 20
536.4917368785
 11
61.8732331487
 21
536.7548072669
  0
LINE
  5
2A9
100
AcDbEntity
  8
0
100
AcDbLine
 62
7
  6
CONTINUOUS
 10
343.1614818121
 20
376.1529404364
 11
63.428874544
 21
537.6529829246
  0
LINE
  5
2AA
100
AcDbEntity
  8
0
100
AcDbLine
 62
7
  6
CONTINUOUS
 10
319.4281246837
 20
149.6132191073
 11
319.5030045357
 21
149.0602734999
  0
LINE
  5
2AB
100
AcDbEntity
  8
0
100
AcDbLine
 62
7
  6
CONTINUOUS
 10
319.4281246837
 20
360.6972316343
 11
319.4281246837
 21
149.6132198498
  0
LINE
  5
2AC
100
AcDbEntity
  8
0
100
AcDbLine
 62
7
  6
CONTINUOUS
 10
319.5030045357
 20
149.0602735
 11
319.5030045357
 21
360.6972316343
  0
LINE
  5
2AD
100
AcDbEntity
  8
0
100
AcDbLine
 62
7
  6
CONTINUOUS
 10
320.8174166841
 20
357.925699008
 11
320.817416684
 21
146.1642394747
  0
LINE
  5
2AE
100
AcDbEntity
  8
0
100
AcDbLine
 62
7
  6
CONTINUOUS
 10
321.9765731285
 20
146.343454041
 11
321.9765731285
 21
358.1049135744
  0
LINE
  5
2AF
100
AcDbEntity
  8
0
100
AcDbLine
 62
7
  6
CONTINUOUS
 10
323.3981146222
 20
176.4585425141
 11
323.3981146222
 21
197.1977039092
  0
LINE
  5
2B0
100
AcDbEntity
  8
0
100
AcDbLine
 62
7
  6
CONTINUOUS
 10
323.3981146222
 20
308.7319340891
 11
323.3981146222
 21
329.4710954842
  0
LINE
  5
2B1
100
AcDbEntity
  8
0
100
AcDbLine
 62
7
  6
CONTINUOUS
 10
323.9217243711
 20
207.3766428759
 11
323.9217243711
 21
209.3376866754
  0
LINE
  5
2B2
100
AcDbEntity
  8
0
100
AcDbLine
 62
7
  6
CONTINUOUS
 10
323.9217243711
 20
339.6500344509
 11
323.9217243711
 21
341.6110782504
  0
LINE
  5
2B3
100
AcDbEntity
  8
0
100
AcDbLine
 62
7
  6
CONTINUOUS
 10
324.2573836454
 20
329.2091387227
 11
324.2573836454
 21
309.4417729265
  0
LINE
  5
2B4
100
AcDbEntity
  8
0
100
AcDbLine
 62
7
  6
CONTINUOUS
 10
324.2573836454
 20
196.9357471477
 11
324.2573836454
 21
177.1683813515
  0
LINE
  5
2B5
100
AcDbEntity
  8
0
100
AcDbLine
 62
7
  6
CONTINUOUS
 10
324.5658160553
 20
164.7196738369
 11
324.5658160553
 21
173.9461511504
  0
LINE
  5
2B6
100
AcDbEntity
  8
0
100
AcDbLine
 62
7
  6
CONTINUOUS
 10
324.5658160553
 20
194.6853125455
 11
324.5658160553
 21
203.9117898591
  0
LINE
  5
2B7
100
AcDbEntity
  8
0
100
AcDbLine
 62
7
  6
CONTINUOUS
 10
324.5658160553
 20
296.9930654119
 11
324.5658160553
 21
306.2195427254
  0
LINE
  5
2B8
100
AcDbEntity
  8
0
100
AcDbLine
 62
7
  6
CONTINUOUS
 10
324.5658160553
 20
326.9587041205
 11
324.5658160553
 21
336.1851814341
  0
LINE
  5
2B9
100
AcDbEntity
  8
0
100
AcDbLine
 62
7
  6
CONTINUOUS
 10
324.6542385896
 20
174.2404765507
 11
324.6542385896
 21
176.1207653387
  0
LINE
  5
2BA
100
AcDbEntity
  8
0
100
AcDbLine
 62
7
  6
CONTINUOUS
 10
324.6542385896
 20
204.2061152592
 11
324.6542385896
 21
206.0864040473
  0
LINE
  5
2BB
100
AcDbEntity
  8
0
100
AcDbLine
 62
7
  6
CONTINUOUS
 10
324.6542385896
 20
306.5138681257
 11
324.6542385896
 21
308.3941569136
  0
LINE
  5
2BC
100
AcDbEntity
  8
0
100
AcDbLine
 62
7
  6
CONTINUOUS
 10
324.6542385896
 20
336.4795068342
 11
324.6542385896
 21
338.3597956223
  0
LINE
  5
2BD
100
AcDbEntity
  8
0
100
AcDbLine
 62
7
  6
CONTINUOUS
 10
326.8273307699
 20
172.8906768158
 11
326.8273307699
 21
175.0075771122
  0
LINE
  5
2BE
100
AcDbEntity
  8
0
100
AcDbLine
 62
7
  6
CONTINUOUS
 10
326.8273307699
 20
202.8563155244
 11
326.8273307699
 21
204.9732158208
  0
LINE
  5
2BF
100
AcDbEntity
  8
0
100
AcDbLine
 62
7
  6
CONTINUOUS
 10
326.8273307699
 20
305.1640683908
 11
326.8273307699
 21
307.2809686872
  0
LINE
  5
2C0
100
AcDbEntity
  8
0
100
AcDbLine
 62
7
  6
CONTINUOUS
 10
326.8273307699
 20
335.1297070994
 11
326.8273307699
 21
337.2466073958
  0
LINE
  5
2C1
100
AcDbEntity
  8
0
100
AcDbLine
 62
7
  6
CONTINUOUS
 10
327.2515318377
 20
366.1506066385
 11
327.2515318377
 21
365.170803738
  0
LINE
  5
2C2
100
AcDbEntity
  8
0
100
AcDbLine
 62
7
  6
CONTINUOUS
 10
328.1000635079
 20
364.6809148326
 11
328.1000635079
 21
344.9611751396
  0
LINE
  5
2C3
100
AcDbEntity
  8
0
100
AcDbLine
 62
7
  6
CONTINUOUS
 10
328.1000635079
 20
294.7760607513
 11
328.1000635079
 21
212.6877835646
  0
LINE
  5
2C4
100
AcDbEntity
  8
0
100
AcDbLine
 62
7
  6
CONTINUOUS
 10
328.1000635079
 20
162.5026691763
 11
328.1000635079
 21
154.8397936302
  0
LINE
  5
2C5
100
AcDbEntity
  8
0
100
AcDbLine
 62
7
  6
CONTINUOUS
 10
328.3122052573
 20
344.1459084411
 11
328.3122052573
 21
338.6904853779
  0
LINE
  5
2C6
100
AcDbEntity
  8
0
100
AcDbLine
 62
7
  6
CONTINUOUS
 10
328.3122052573
 20
324.7090575251
 11
328.3122052573
 21
308.7248466693
  0
LINE
  5
2C7
100
AcDbEntity
  8
0
100
AcDbLine
 62
7
  6
CONTINUOUS
 10
328.3122052573
 20
211.8725168661
 11
328.3122052573
 21
206.4170938029
  0
LINE
  5
2C8
100
AcDbEntity
  8
0
100
AcDbLine
 62
7
  6
CONTINUOUS
 10
328.3122052573
 20
192.4356659501
 11
328.3122052573
 21
176.4514550943
  0
LINE
  5
2C9
100
AcDbEntity
  8
0
100
AcDbLine
 62
7
  6
CONTINUOUS
 10
329.3387351166
 20
337.6351239162
 11
329.3387351165
 21
334.8451003304
  0
LINE
  5
2CA
100
AcDbEntity
  8
0
100
AcDbLine
 62
7
  6
CONTINUOUS
 10
329.3387351166
 20
307.6694852076
 11
329.3387351166
 21
304.8794616218
  0
LINE
  5
2CB
100
AcDbEntity
  8
0
100
AcDbLine
 62
7
  6
CONTINUOUS
 10
329.3387351166
 20
205.3617323413
 11
329.3387351165
 21
202.5717087554
  0
LINE
  5
2CC
100
AcDbEntity
  8
0
100
AcDbLine
 62
7
  6
CONTINUOUS
 10
329.3387351166
 20
175.3960936326
 11
329.3387351166
 21
172.6060700468
  0
LINE
  5
2CD
100
AcDbEntity
  8
0
100
AcDbLine
 62
7
  6
CONTINUOUS
 10
329.5142770702
 20
153.0434917119
 11
329.5142770702
 21
162.4946506347
  0
LINE
  5
2CE
100
AcDbEntity
  8
0
100
AcDbLine
 62
7
  6
CONTINUOUS
 10
329.5142770702
 20
212.7892408458
 11
329.5142770702
 21
294.7680422097
  0
LINE
  5
2CF
100
AcDbEntity
  8
0
100
AcDbLine
 62
7
  6
CONTINUOUS
 10
329.5142770702
 20
345.0626324208
 11
329.5142770702
 21
366.4772235496
  0
LINE
  5
2D0
100
AcDbEntity
  8
0
100
AcDbLine
 62
7
  6
CONTINUOUS
 10
329.7264188197
 20
176.2325989108
 11
329.7264188197
 21
192.5173141777
  0
LINE
  5
2D1
100
AcDbEntity
  8
0
100
AcDbLine
 62
7
  6
CONTINUOUS
 10
329.7264188197
 20
206.1982376194
 11
329.7264188197
 21
211.8725202654
  0
LINE
  5
2D2
100
AcDbEntity
  8
0
100
AcDbLine
 62
7
  6
CONTINUOUS
 10
329.7264188197
 20
308.5059904857
 11
329.7264188197
 21
324.7907057527
  0
LINE
  5
2D3
100
AcDbEntity
  8
0
100
AcDbLine
 62
7
  6
CONTINUOUS
 10
329.7264188197
 20
338.4716291944
 11
329.7264188197
 21
344.1459118404
  0
LINE
  5
2D4
100
AcDbEntity
  8
0
100
AcDbLine
 62
7
  6
CONTINUOUS
 10
318.4947322127
 20
364.1356054667
 11
317.7599522305
 21
363.2213533866
  0
LINE
  5
2D5
100
AcDbEntity
  8
0
100
AcDbLine
 62
7
  6
CONTINUOUS
 10
320.2351580494
 20
361.1199727207
 11
320.9699380316
 21
362.0342248008
  0
LINE
  5
2D6
100
AcDbEntity
  8
0
100
AcDbLine
 62
7
  6
CONTINUOUS
 10
329.5142770702
 20
366.4772235496
 11
329.3118456637
 21
366.2742176939
  0
LINE
  5
2D7
100
AcDbEntity
  8
0
100
AcDbLine
 62
7
  6
CONTINUOUS
 10
327.2515406696
 20
344.7582695728
 11
322.8610597835
 21
342.2234393823
  0
LINE
  5
2D8
100
AcDbEntity
  8
0
100
AcDbLine
 62
7
  6
CONTINUOUS
 10
323.9217243711
 20
341.6110782504
 11
328.3122052573
 21
344.1459084411
  0
LINE
  5
2D9
100
AcDbEntity
  8
0
100
AcDbLine
 62
7
  6
CONTINUOUS
 10
337.1510621018
 20
341.0841112805
 11
336.090406346
 21
340.4717450497
  0
LINE
  5
2DA
100
AcDbEntity
  8
0
100
AcDbLine
 62
7
  6
CONTINUOUS
 10
468.610232561
 20
448.2571103237
 11
467.9356107192
 21
448.1908873402
  0
LINE
  5
2DB
100
AcDbEntity
  8
0
100
AcDbLine
 62
7
  6
CONTINUOUS
 10
339.6259549717
 20
334.3480291915
 11
336.090406346
 21
340.4717450497
  0
LINE
  5
2DC
100
AcDbEntity
  8
0
100
AcDbLine
 62
7
  6
CONTINUOUS
 10
337.1510621018
 20
341.0841112805
 11
340.6866107276
 21
334.9603954223
  0
LINE
  5
2DD
100
AcDbEntity
  8
0
100
AcDbLine
 62
7
  6
CONTINUOUS
 10
332.7658160553
 20
164.7196738369
 11
332.7658160553
 21
173.9461511504
  0
LINE
  5
2DE
100
AcDbEntity
  8
0
100
AcDbLine
 62
7
  6
CONTINUOUS
 10
332.7658160553
 20
194.6853125455
 11
332.7658160553
 21
203.9117898591
  0
LINE
  5
2DF
100
AcDbEntity
  8
0
100
AcDbLine
 62
7
  6
CONTINUOUS
 10
332.7658160553
 20
296.9930654119
 11
332.7658160553
 21
306.2195427254
  0
LINE
  5
2E0
100
AcDbEntity
  8
0
100
AcDbLine
 62
7
  6
CONTINUOUS
 10
332.7658160553
 20
326.9587041205
 11
332.7658160553
 21
336.1851814341
  0
LINE
  5
2E1
100
AcDbEntity
  8
0
100
AcDbLine
 62
7
  6
CONTINUOUS
 10
339.6259549717
 20
334.3480291915
 11
339.6259549717
 21
303.3209373406
  0
LINE
  5
2E2
100
AcDbEntity
  8
0
100
AcDbLine
 62
7
  6
CONTINUOUS
 10
339.6259549717
 20
202.0746376165
 11
339.6259549717
 21
171.0475457656
  0
LINE
  5
2E3
100
AcDbEntity
  8
0
100
AcDbLine
 62
7
  6
CONTINUOUS
 10
340.6866107276
 20
334.9603954223
 11
340.6866107276
 21
303.9333035714
  0
LINE
  5
2E4
100
AcDbEntity
  8
0
100
AcDbLine
 62
7
  6
CONTINUOUS
 10
340.6866107276
 20
202.6870038473
 11
340.6866107276
 21
171.6599119964
  0
LINE
  5
2E5
100
AcDbEntity
  8
0
100
AcDbLine
 62
7
  6
CONTINUOUS
 10
341.6058533703
 20
373.4584979802
 11
341.6058533703
 21
132.1003834767
  0
LINE
  5
2E6
100
AcDbEntity
  8
0
100
AcDbLine
 62
7
  6
CONTINUOUS
 10
343.1614818121
 20
376.1529404364
 11
343.1614818121
 21
375.1731375359
  0
LINE
  5
2E7
100
AcDbEntity
  8
0
100
AcDbLine
 62
7
  6
CONTINUOUS
 10
343.8685915373
 20
130.793974543
 11
343.8685915373
 21
131.3035774669
  0
LINE
  5
2E8
100
AcDbEntity
  8
0
100
AcDbLine
 62
7
  6
CONTINUOUS
 10
344.7171232075
 20
131.2838885381
 11
344.7171232075
 21
373.4585054588
  0
LINE
  5
2E9
100
AcDbEntity
  8
0
100
AcDbLine
 62
7
  6
CONTINUOUS
 10
326.065898055
 20
336.1851813193
 11
326.8273307699
 21
337.2466073958
  0
LINE
  5
2EA
100
AcDbEntity
  8
0
100
AcDbLine
 62
7
  6
CONTINUOUS
 10
326.065898055
 20
306.2195426107
 11
326.8273307699
 21
307.2809686872
  0
LINE
  5
2EB
100
AcDbEntity
  8
0
100
AcDbLine
 62
7
  6
CONTINUOUS
 10
324.2573836454
 20
309.4417729264
 11
323.3982321237
 21
308.7320311565
  0
LINE
  5
2EC
100
AcDbEntity
  8
0
100
AcDbLine
 62
7
  6
CONTINUOUS
 10
340.6866107276
 20
334.9603954223
 11
339.6259549717
 21
334.3480291915
  0
LINE
  5
2ED
100
AcDbEntity
  8
0
100
AcDbLine
 62
7
  6
CONTINUOUS
 10
336.090406346
 20
301.2796290275
 11
340.6866107276
 21
303.9333035714
  0
LINE
  5
2EE
100
AcDbEntity
  8
0
100
AcDbLine
 62
7
  6
CONTINUOUS
 10
469.4923007563
 20
445.4958469427
 11
469.8865667189
 21
446.04841157
  0
LINE
  5
2EF
100
AcDbEntity
  8
0
100
AcDbLine
 62
7
  6
CONTINUOUS
 10
326.065898055
 20
203.9117897443
 11
326.8273307699
 21
204.9732158208
  0
LINE
  5
2F0
100
AcDbEntity
  8
0
100
AcDbLine
 62
7
  6
CONTINUOUS
 10
63.428874544
 20
537.6529829246
 11
62.3289033307
 21
537.7618950078
  0
LINE
  5
2F1
100
AcDbEntity
  8
0
100
AcDbLine
 62
7
  6
CONTINUOUS
 10
326.065898055
 20
173.9461510357
 11
326.8273307699
 21
175.0075771122
  0
LINE
  5
2F2
100
AcDbEntity
  8
0
100
AcDbLine
 62
7
  6
CONTINUOUS
 10
327.2515406696
 20
212.4848779979
 11
322.8610597835
 21
209.9500478073
  0
LINE
  5
2F3
100
AcDbEntity
  8
0
100
AcDbLine
 62
7
  6
CONTINUOUS
 10
323.9217243711
 20
209.3376866754
 11
328.3122052573
 21
211.8725168661
  0
LINE
  5
2F4
100
AcDbEntity
  8
0
100
AcDbLine
 62
7
  6
CONTINUOUS
 10
188.203003451
 20
609.6909298285
 11
467.9356107192
 21
448.1908873402
  0
LINE
  5
2F5
100
AcDbEntity
  8
0
100
AcDbLine
 62
7
  6
CONTINUOUS
 10
468.6105992664
 20
448.2577499844
 11
188.8779919983
 21
609.7577924726
  0
LINE
  5
2F6
100
AcDbEntity
  8
0
100
AcDbLine
 62
7
  6
CONTINUOUS
 10
324.2573836454
 20
177.1683813514
 11
323.3982321237
 21
176.4586395815
  0
LINE
  5
2F7
100
AcDbEntity
  8
0
100
AcDbLine
 62
7
  6
CONTINUOUS
 10
337.1510621018
 20
208.8107197055
 11
336.090406346
 21
208.1983534747
  0
LINE
  5
2F8
100
AcDbEntity
  8
0
100
AcDbLine
 62
7
  6
CONTINUOUS
 10
340.6866107276
 20
202.6870038473
 11
339.6259549717
 21
202.0746376165
  0
LINE
  5
2F9
100
AcDbEntity
  8
0
100
AcDbLine
 62
7
  6
CONTINUOUS
 10
469.4912521145
 20
445.4964523626
 11
469.4912521145
 21
203.321835442
  0
LINE
  5
2FA
100
AcDbEntity
  8
0
100
AcDbLine
 62
7
  6
CONTINUOUS
 10
469.8872512413
 20
446.0484098572
 11
469.8872512413
 21
203.8737929366
  0
LINE
  5
2FB
100
AcDbEntity
  8
0
100
AcDbLine
 62
7
  6
CONTINUOUS
 10
340.6866107276
 20
171.6599119964
 11
336.090406346
 21
169.0062374525
  0
LINE
  5
2FC
100
AcDbEntity
  8
0
100
AcDbLine
 62
7
  6
CONTINUOUS
 10
328.1000635079
 20
154.8397936302
 11
321.9765731285
 21
151.3044159147
  0
LINE
  5
2FD
100
AcDbEntity
  8
0
100
AcDbLine
 62
7
  6
CONTINUOUS
 10
187.1030322377
 20
609.7998419116
 11
188.203003451
 21
609.6909298285
  0
LINE
  5
2FE
100
AcDbEntity
  8
0
100
AcDbLine
 62
7
  6
CONTINUOUS
 10
343.8685915373
 20
130.793974543
 11
469.4912521145
 21
203.321835442
  0
LINE
  5
2FF
100
AcDbEntity
  8
0
100
AcDbLine
 62
7
  6
CONTINUOUS
 10
188.203003451
 20
609.692963753
 11
188.8776737166
 21
609.7572384528
  0
LINE
  5
300
100
AcDbEntity
  8
0
100
AcDbLine
 62
7
  6
CONTINUOUS
 10
469.8871239595
 20
203.8737927769
 11
469.4912521145
 21
203.321835442
  0
ARC
  5
301
100
AcDbEntity
  8
0
100
AcDbCircle
 62
7
  6
CONTINUOUS
 10
256.8777670215
 20
289.0488403593
 40
97.1322442054
100
AcDbArc
 50
48.7119896078
 51
50.6273465256
  0
ARC
  5
302
100
AcDbEntity
  8
0
100
AcDbCircle
 62
7
  6
CONTINUOUS
 10
256.5343288395
 20
288.594041339
 40
96.5288186637
100
AcDbArc
 50
48.8695545674
 51
50.6339125492
  0
ARC
  5
303
100
AcDbEntity
  8
0
100
AcDbCircle
 62
7
  6
CONTINUOUS
 10
258.4377817284
 20
290.7843967241
 40
93.6269678237
100
AcDbArc
 50
48.6972123238
 51
48.8652372277
  0
ARC
  5
304
100
AcDbEntity
  8
0
100
AcDbCircle
 62
7
  6
CONTINUOUS
 10
206.0128407398
 20
290.5943288698
 40
49.0678456612
100
AcDbArc
 50
62.4684941372
 51
62.6533806764
  0
ARC
  5
305
100
AcDbEntity
  8
0
100
AcDbCircle
 62
7
  6
CONTINUOUS
 10
186.8721486642
 20
290.5947978888
 40
49.0673175631
100
AcDbArc
 50
117.3469804499
 51
117.531867118
  0
ARC
  5
306
100
AcDbEntity
  8
0
100
AcDbCircle
 62
7
  6
CONTINUOUS
 10
206.7056383189
 20
291.9089216537
 40
47.5818858659
100
AcDbArc
 50
60.7337272068
 51
62.476550465
  0
ARC
  5
307
100
AcDbEntity
  8
0
100
AcDbCircle
 62
7
  6
CONTINUOUS
 10
186.1793873682
 20
291.9093026226
 40
47.581452576
100
AcDbArc
 50
117.5238117318
 51
119.26653803
  0
ARC
  5
308
100
AcDbEntity
  8
0
100
AcDbCircle
 62
7
  6
CONTINUOUS
 10
207.5689402339
 20
293.4614457795
 40
45.8054890848
100
AcDbArc
 50
60.1554797552
 51
60.7263805746
  0
ARC
  5
309
100
AcDbEntity
  8
0
100
AcDbCircle
 62
7
  6
CONTINUOUS
 10
185.3160715513
 20
293.4618323051
 40
45.8050441783
100
AcDbArc
 50
119.2738832482
 51
119.844929944
  0
ARC
  5
30A
100
AcDbEntity
  8
0
100
AcDbCircle
 62
7
  6
CONTINUOUS
 10
207.8424178252
 20
293.9394353934
 40
45.254795322
100
AcDbArc
 50
60.000627424
 51
60.1546417572
  0
ARC
  5
30B
100
AcDbEntity
  8
0
100
AcDbCircle
 62
7
  6
CONTINUOUS
 10
185.0425386009
 20
293.9399112003
 40
45.25424543
100
AcDbArc
 50
119.8457683977
 51
119.999785743
  0
ARC
  5
30C
100
AcDbEntity
  8
0
100
AcDbCircle
 62
7
  6
CONTINUOUS
 10
143.9202261896
 20
274.2586034669
 40
41.2691307492
100
AcDbArc
 50
119.9988208976
 51
120.6791934307
  0
ARC
  5
30D
100
AcDbEntity
  8
0
100
AcDbCircle
 62
7
  6
CONTINUOUS
 10
143.0781580491
 20
274.6381832924
 40
40.9001266348
100
AcDbArc
 50
119.9865767485
 51
123.4143440489
  0
ARC
  5
30E
100
AcDbEntity
  8
0
100
AcDbCircle
 62
7
  6
CONTINUOUS
 10
143.6309971044
 20
274.7471912945
 40
40.7013533031
100
AcDbArc
 50
120.6799600492
 51
121.0258260116
  0
ARC
  5
30F
100
AcDbEntity
  8
0
100
AcDbCircle
 62
7
  6
CONTINUOUS
 10
142.8534597377
 20
276.0278156326
 40
39.2031801809
100
AcDbArc
 50
121.0167149495
 51
123.8696215949
  0
ARC
  5
310
100
AcDbEntity
  8
0
100
AcDbCircle
 62
7
  6
CONTINUOUS
 10
141.732045236
 20
277.73231177
 40
37.1629584941
100
AcDbArc
 50
123.8986138494
 51
124.2721868662
  0
ARC
  5
311
100
AcDbEntity
  8
0
100
AcDbCircle
 62
7
  6
CONTINUOUS
 10
148.9330813315
 20
279.4201676782
 40
29.4353744343
100
AcDbArc
 50
119.9957191165
 51
121.3538704193
  0
ARC
  5
312
100
AcDbEntity
  8
0
100
AcDbCircle
 62
7
  6
CONTINUOUS
 10
86.3956186647
 20
299.3657984843
 40
24.1952304994
100
AcDbArc
 50
192.5179485261
 51
195.0246652793
  0
ARC
  5
313
100
AcDbEntity
  8
0
100
AcDbCircle
 62
7
  6
CONTINUOUS
 10
78.9302252575
 20
311.7494223763
 40
23.910537638
100
AcDbArc
 50
222.4441629065
 51
227.496923339
  0
ARC
  5
314
100
AcDbEntity
  8
0
100
AcDbCircle
 62
7
  6
CONTINUOUS
 10
85.8332638796
 20
299.2146999599
 40
23.6129301946
100
AcDbArc
 50
195.0242984863
 51
197.57219093
  0
ARC
  5
315
100
AcDbEntity
  8
0
100
AcDbCircle
 62
7
  6
CONTINUOUS
 10
78.258577582
 20
311.1265874618
 40
22.9945724722
100
AcDbArc
 50
219.8351430883
 51
222.4283751303
  0
ARC
  5
316
100
AcDbEntity
  8
0
100
AcDbCircle
 62
7
  6
CONTINUOUS
 10
85.2436521759
 20
299.0278345394
 40
22.9944153387
100
AcDbArc
 50
197.5718476928
 51
200.1650860817
  0
ARC
  5
317
100
AcDbEntity
  8
0
100
AcDbCircle
 62
7
  6
CONTINUOUS
 10
135.5281356613
 20
291.8502929841
 40
10.6832710811
100
AcDbArc
 50
180.0050834547
 51
184.7481783858
  0
ARC
  5
318
100
AcDbEntity
  8
0
100
AcDbCircle
 62
7
  6
CONTINUOUS
 10
211.6117034388
 20
232.257453687
 40
3.7435805415
100
AcDbArc
 50
288.4441602695
 51
292.159128545
  0
ARC
  5
319
100
AcDbEntity
  8
0
100
AcDbCircle
 62
7
  6
CONTINUOUS
 10
146.5178903281
 20
268.2485872758
 40
2.6815655263
100
AcDbArc
 50
237.306943388
 51
240.0154799302
  0
ARC
  5
31A
100
AcDbEntity
  8
0
100
AcDbCircle
 62
7
  6
CONTINUOUS
 10
228.1890635818
 20
221.0967801276
 40
2.6815655249
100
AcDbArc
 50
237.306943285
 51
240.0154799316
  0
ARC
  5
31B
100
AcDbEntity
  8
0
100
AcDbCircle
 62
7
  6
CONTINUOUS
 10
238.441389165
 20
321.3203272777
 40
2.6815655246
100
AcDbArc
 50
237.3069432337
 51
240.015479932
  0
ARC
  5
31C
100
AcDbEntity
  8
0
100
AcDbCircle
 62
7
  6
CONTINUOUS
 10
218.8741457255
 20
225.1013177084
 40
0.6427668894
100
AcDbArc
 50
167.8883332548
 51
179.9520256515
  0
ARC
  5
31D
100
AcDbEntity
  8
0
100
AcDbCircle
 62
7
  6
CONTINUOUS
 10
149.2234550829
 20
318.3845510741
 40
0.6427668894
100
AcDbArc
 50
167.8883332548
 51
179.9520256514
  0
ARC
  5
31E
100
AcDbEntity
  8
0
100
AcDbCircle
 62
7
  6
CONTINUOUS
 10
137.2029724711
 20
272.2531248555
 40
0.6427668894
100
AcDbArc
 50
167.8883332549
 51
179.9520256514
  0
ARC
  5
31F
100
AcDbEntity
  8
0
100
AcDbCircle
 62
7
  6
CONTINUOUS
 10
229.1264713088
 20
325.3248648587
 40
0.6427668894
100
AcDbArc
 50
167.8883332548
 51
179.9520256515
  0
ARC
  5
320
100
AcDbEntity
  8
0
100
AcDbCircle
 62
7
  6
CONTINUOUS
 10
227.4137621089
 20
218.3637284874
 40
0.5708874528
100
AcDbArc
 50
60.0361459554
 51
69.2446679516
  0
ARC
  5
321
100
AcDbEntity
  8
0
100
AcDbCircle
 62
7
  6
CONTINUOUS
 10
237.6660876923
 20
318.5872756377
 40
0.5708874528
100
AcDbArc
 50
60.0361459555
 51
69.2446679515
  0
ARC
  5
322
100
AcDbEntity
  8
0
100
AcDbCircle
 62
7
  6
CONTINUOUS
 10
224.9801227565
 20
342.1064836788
 40
97.1341065316
100
AcDbArc
 50
9.3729149917
 51
11.2882320148
  0
ARC
  5
323
100
AcDbEntity
  8
0
100
AcDbCircle
 62
7
  6
CONTINUOUS
 10
227.0458509752
 20
342.4509500383
 40
96.212726559
100
AcDbArc
 50
9.3637431206
 51
11.297403886
  0
ARC
  5
324
100
AcDbEntity
  8
0
100
AcDbCircle
 62
7
  6
CONTINUOUS
 10
71.1440711382
 20
497.1710989242
 40
15.5157125864
100
AcDbArc
 50
121.2887849657
 51
123.5999726268
  0
ARC
  5
325
100
AcDbEntity
  8
0
100
AcDbCircle
 62
7
  6
CONTINUOUS
 10
70.790898503
 20
496.5697371761
 40
15.4355018605
100
AcDbArc
 50
121.2839569615
 51
124.6664251231
  0
ARC
  5
326
100
AcDbEntity
  8
0
100
AcDbCircle
 62
7
  6
CONTINUOUS
 10
71.0009305134
 20
497.3882370317
 40
15.2556408608
100
AcDbArc
 50
123.6034932399
 51
124.6752523508
  0
ARC
  5
327
100
AcDbEntity
  8
0
100
AcDbCircle
 62
7
  6
CONTINUOUS
 10
70.6915643479
 20
497.8214516766
 40
14.7233657324
100
AcDbArc
 50
124.6443024657
 51
131.6243304652
  0
ARC
  5
328
100
AcDbEntity
  8
0
100
AcDbCircle
 62
7
  6
CONTINUOUS
 10
70.381160828
 20
497.1522204663
 40
14.7233657326
100
AcDbArc
 50
124.6443024658
 51
131.6243304652
  0
ARC
  5
329
100
AcDbEntity
  8
0
100
AcDbCircle
 62
7
  6
CONTINUOUS
 10
209.269175568
 20
377.9082189529
 40
12.3922276236
100
AcDbArc
 50
226.012965199
 51
230.2706265703
  0
ARC
  5
32A
100
AcDbEntity
  8
0
100
AcDbCircle
 62
7
  6
CONTINUOUS
 10
208.4009302723
 20
379.0585797133
 40
12.206934287
100
AcDbArc
 50
189.7450590021
 51
194.0314180265
  0
ARC
  5
32B
100
AcDbEntity
  8
0
100
AcDbCircle
 62
7
  6
CONTINUOUS
 10
199.0319886301
 20
376.1778310759
 40
7.2788978821
100
AcDbArc
 50
65.429390457
 51
66.464594847
  0
ARC
  5
32C
100
AcDbEntity
  8
0
100
AcDbCircle
 62
7
  6
CONTINUOUS
 10
205.3149793393
 20
378.3891527319
 40
7.1639921558
100
AcDbArc
 50
180.0026445251
 51
181.0253782196
  0
ARC
  5
32D
100
AcDbEntity
  8
0
100
AcDbCircle
 62
7
  6
CONTINUOUS
 10
206.6151485265
 20
378.6168874591
 40
7.1260167722
100
AcDbArc
 50
181.1205111724
 51
186.3064599965
  0
ARC
  5
32E
100
AcDbEntity
  8
0
100
AcDbCircle
 62
7
  6
CONTINUOUS
 10
202.1935850539
 20
371.070477896
 40
7.0511622418
100
AcDbArc
 50
351.2566822116
 51
354.4818193493
  0
ARC
  5
32F
100
AcDbEntity
  8
0
100
AcDbCircle
 62
7
  6
CONTINUOUS
 10
199.1422067135
 20
376.4317950606
 40
7.0020484737
100
AcDbArc
 50
66.4616296422
 51
67.9609799802
  0
ARC
  5
330
100
AcDbEntity
  8
0
100
AcDbCircle
 62
7
  6
CONTINUOUS
 10
199.2701734532
 20
376.7485743672
 40
6.6603987276
100
AcDbArc
 50
67.9588156458
 51
69.7302692543
  0
ARC
  5
331
100
AcDbEntity
  8
0
100
AcDbCircle
 62
7
  6
CONTINUOUS
 10
202.6271168337
 20
371.0063441968
 40
6.6129200627
100
AcDbArc
 50
350.0489564246
 51
351.2349182862
  0
ARC
  5
332
100
AcDbEntity
  8
0
100
AcDbCircle
 62
7
  6
CONTINUOUS
 10
205.9919723975
 20
378.5961896099
 40
6.502560621
100
AcDbArc
 50
180.0027494993
 51
181.045549708
  0
ARC
  5
333
100
AcDbEntity
  8
0
100
AcDbCircle
 62
7
  6
CONTINUOUS
 10
202.8261684215
 20
370.9715679711
 40
6.4108534921
100
AcDbArc
 50
349.1090369811
 51
350.0476659409
  0
ARC
  5
334
100
AcDbEntity
  8
0
100
AcDbCircle
 62
7
  6
CONTINUOUS
 10
183.6029400543
 20
370.101259215
 40
6.4064830905
100
AcDbArc
 50
328.8125406887
 51
329.4740150278
  0
ARC
  5
335
100
AcDbEntity
  8
0
100
AcDbCircle
 62
7
  6
CONTINUOUS
 10
199.3589307586
 20
376.9867944045
 40
6.40618211
100
AcDbArc
 50
69.7368141052
 51
70.5076545629
  0
ARC
  5
336
100
AcDbEntity
  8
0
100
AcDbCircle
 62
7
  6
CONTINUOUS
 10
206.1820401265
 20
378.5929041669
 40
6.278781294
100
AcDbArc
 50
180.0788140731
 51
184.9500409575
  0
ARC
  5
337
100
AcDbEntity
  8
0
100
AcDbCircle
 62
7
  6
CONTINUOUS
 10
199.4282732163
 20
377.1841436012
 40
6.1970055333
100
AcDbArc
 50
70.5031843276
 51
72.1797158209
  0
ARC
  5
338
100
AcDbEntity
  8
0
100
AcDbCircle
 62
7
  6
CONTINUOUS
 10
205.5530715298
 20
378.5979268648
 40
6.0636600921
100
AcDbArc
 50
176.9804893971
 51
180.019363909
  0
ARC
  5
339
100
AcDbEntity
  8
0
100
AcDbCircle
 62
7
  6
CONTINUOUS
 10
205.8762370537
 20
378.5849570826
 40
5.9729723207
100
AcDbArc
 50
178.2327980898
 51
180.0066167698
  0
ARC
  5
33A
100
AcDbEntity
  8
0
100
AcDbCircle
 62
7
  6
CONTINUOUS
 10
184.2266482947
 20
369.7339952462
 40
5.6826774709
100
AcDbArc
 50
329.469591045
 51
330.4137824743
  0
ARC
  5
33B
100
AcDbEntity
  8
0
100
AcDbCircle
 62
7
  6
CONTINUOUS
 10
184.3515917868
 20
369.6596730587
 40
5.5373303838
100
AcDbArc
 50
330.4442332763
 51
333.2507943497
  0
ARC
  5
33C
100
AcDbEntity
  8
0
100
AcDbCircle
 62
7
  6
CONTINUOUS
 10
204.4217931833
 20
371.9019787203
 40
4.2729376501
100
AcDbArc
 50
341.4861499334
 51
343.5574273804
  0
ARC
  5
33D
100
AcDbEntity
  8
0
100
AcDbCircle
 62
7
  6
CONTINUOUS
 10
189.5346932282
 20
363.1376650366
 40
4.2527772686
100
AcDbArc
 50
145.0278357423
 51
145.9625839519
  0
ARC
  5
33E
100
AcDbEntity
  8
0
100
AcDbCircle
 62
7
  6
CONTINUOUS
 10
185.9252162767
 20
369.3742374383
 40
4.2358473198
100
AcDbArc
 50
273.1026854893
 51
274.8715651354
  0
ARC
  5
33F
100
AcDbEntity
  8
0
100
AcDbCircle
 62
7
  6
CONTINUOUS
 10
203.4801909306
 20
374.1100038403
 40
4.2037571807
100
AcDbArc
 50
359.3889139274
 51
0.0009377897
  0
ARC
  5
340
100
AcDbEntity
  8
0
100
AcDbCircle
 62
7
  6
CONTINUOUS
 10
189.4736478964
 20
363.1787984257
 40
4.179166935
100
AcDbArc
 50
145.9614451946
 51
147.0864604394
  0
ARC
  5
341
100
AcDbEntity
  8
0
100
AcDbCircle
 62
7
  6
CONTINUOUS
 10
65.5694115924
 20
534.6208657753
 40
3.7420707802
100
AcDbArc
 50
140.6668498468
 51
159.3338499413
  0
ARC
  5
342
100
AcDbEntity
  8
0
100
AcDbCircle
 62
7
  6
CONTINUOUS
 10
205.2039124284
 20
371.5825693808
 40
3.4271065718
100
AcDbArc
 50
330.1116996239
 51
334.4060155216
  0
ARC
  5
343
100
AcDbEntity
  8
0
100
AcDbCircle
 62
7
  6
CONTINUOUS
 10
65.1699166476
 20
534.7718666244
 40
3.3149907292
100
AcDbArc
 50
159.3389269956
 51
165.1287140049
  0
ARC
  5
344
100
AcDbEntity
  8
0
100
AcDbCircle
 62
7
  6
CONTINUOUS
 10
65.238863536
 20
534.8913549323
 40
3.3149568566
100
AcDbArc
 50
134.8717997103
 51
140.661758844
  0
ARC
  5
345
100
AcDbEntity
  8
0
100
AcDbCircle
 62
7
  6
CONTINUOUS
 10
71.275616506
 20
512.7090444633
 40
2.9820002478
100
AcDbArc
 50
351.3437097961
 51
359.9997347754
  0
ARC
  5
346
100
AcDbEntity
  8
0
100
AcDbCircle
 62
7
  6
CONTINUOUS
 10
202.2054006226
 20
379.5498581692
 40
2.5272769991
100
AcDbArc
 50
135.7780338078
 51
142.5604264443
  0
ARC
  5
347
100
AcDbEntity
  8
0
100
AcDbCircle
 62
7
  6
CONTINUOUS
 10
202.1204109161
 20
379.6296178563
 40
2.4107430378
100
AcDbArc
 50
134.3614196494
 51
135.7277438659
  0
ARC
  5
348
100
AcDbEntity
  8
0
100
AcDbCircle
 62
7
  6
CONTINUOUS
 10
187.8195880156
 20
364.106367401
 40
2.2817787769
100
AcDbArc
 50
152.7721066547
 51
156.0469117716
  0
ARC
  5
349
100
AcDbEntity
  8
0
100
AcDbCircle
 62
7
  6
CONTINUOUS
 10
313.5534324855
 20
158.9518541342
 40
15.4355769767
100
AcDbArc
 50
295.3343921912
 51
298.7168422523
  0
ARC
  5
34A
100
AcDbEntity
  8
0
100
AcDbCircle
 62
7
  6
CONTINUOUS
 10
312.818652503
 20
159.0176604381
 40
15.4355769771
100
AcDbArc
 50
295.3343921912
 51
298.7168422523
  0
ARC
  5
34B
100
AcDbEntity
  8
0
100
AcDbCircle
 62
7
  6
CONTINUOUS
 10
313.8530364818
 20
158.3057338421
 40
14.7233971539
100
AcDbArc
 50
288.3765131554
 51
295.3565165498
  0
ARC
  5
34C
100
AcDbEntity
  8
0
100
AcDbCircle
 62
7
  6
CONTINUOUS
 10
313.1182564998
 20
158.3715401452
 40
14.7233971535
100
AcDbArc
 50
288.3765131554
 51
295.3565165498
  0
ARC
  5
34D
100
AcDbEntity
  8
0
100
AcDbCircle
 62
7
  6
CONTINUOUS
 10
293.2614442535
 20
185.1621698681
 40
3.8040132263
100
AcDbArc
 50
287.3675958214
 51
292.1369868361
  0
ARC
  5
34E
100
AcDbEntity
  8
0
100
AcDbCircle
 62
7
  6
CONTINUOUS
 10
300.54531898
 20
177.9495105613
 40
0.6427668894
100
AcDbArc
 50
167.8883332549
 51
179.9520256514
  0
ARC
  5
34F
100
AcDbEntity
  8
0
100
AcDbCircle
 62
7
  6
CONTINUOUS
 10
303.5137698194
 20
285.3857170678
 40
3.8040132787
100
AcDbArc
 50
287.367595694
 51
292.1369859385
  0
ARC
  5
350
100
AcDbEntity
  8
0
100
AcDbCircle
 62
7
  6
CONTINUOUS
 10
320.1125624194
 20
274.1685201305
 40
2.6815655245
100
AcDbArc
 50
237.3069432337
 51
240.0154799321
  0
ARC
  5
351
100
AcDbEntity
  8
0
100
AcDbCircle
 62
7
  6
CONTINUOUS
 10
310.7976445633
 20
278.1730577117
 40
0.6427668894
100
AcDbArc
 50
167.8883332548
 51
179.9520256514
  0
ARC
  5
352
100
AcDbEntity
  8
0
100
AcDbCircle
 62
7
  6
CONTINUOUS
 10
335.5312314586
 20
178.2564638029
 40
7.9063570776
100
AcDbArc
 50
249.5175909757
 51
252.0766767958
  0
ARC
  5
353
100
AcDbEntity
  8
0
100
AcDbCircle
 62
7
  6
CONTINUOUS
 10
354.3032589806
 20
146.0405829896
 40
5.7313486481
100
AcDbArc
 50
115.9912146615
 51
120.0343340246
  0
ARC
  5
354
100
AcDbEntity
  8
0
100
AcDbCircle
 62
7
  6
CONTINUOUS
 10
354.1098752073
 20
146.2180849766
 40
5.6223584463
100
AcDbArc
 50
114.5347344981
 51
120.0648242725
  0
ARC
  5
355
100
AcDbEntity
  8
0
100
AcDbCircle
 62
7
  6
CONTINUOUS
 10
333.0614568822
 20
187.6835600795
 40
4.6199463494
100
AcDbArc
 50
358.9207908771
 51
0.0024020655
  0
ARC
  5
356
100
AcDbEntity
  8
0
100
AcDbCircle
 62
7
  6
CONTINUOUS
 10
344.1018896526
 20
135.3026097799
 40
4.0920167632
100
AcDbArc
 50
251.1376212313
 51
256.7228561862
  0
ARC
  5
357
100
AcDbEntity
  8
0
100
AcDbCircle
 62
7
  6
CONTINUOUS
 10
344.0742569903
 20
135.2198530164
 40
4.0047707293
100
AcDbArc
 50
250.0754291755
 51
251.1289482131
  0
ARC
  5
358
100
AcDbEntity
  8
0
100
AcDbCircle
 62
7
  6
CONTINUOUS
 10
350.4099994735
 20
142.7844152436
 40
3.6794246784
100
AcDbArc
 50
196.8978386656
 51
198.7979701786
  0
ARC
  5
359
100
AcDbEntity
  8
0
100
AcDbCircle
 62
7
  6
CONTINUOUS
 10
334.1564894884
 20
187.5814765456
 40
3.5189867292
100
AcDbArc
 50
346.769598397
 51
352.1941437954
  0
ARC
  5
35A
100
AcDbEntity
  8
0
100
AcDbCircle
 62
7
  6
CONTINUOUS
 10
327.0210959698
 20
151.3199353032
 40
3.032806045
100
AcDbArc
 50
68.6823132885
 51
72.1082782708
  0
ARC
  5
35B
100
AcDbEntity
  8
0
100
AcDbCircle
 62
7
  6
CONTINUOUS
 10
327.0383190383
 20
151.3677553284
 40
2.9819969583
100
AcDbArc
 50
60.0008220046
 51
68.6565707863
  0
ARC
  5
35C
100
AcDbEntity
  8
0
100
AcDbCircle
 62
7
  6
CONTINUOUS
 10
333.3234204497
 20
190.8997100905
 40
2.9622302712
100
AcDbArc
 50
66.3364750877
 51
69.4795650608
  0
ARC
  5
35D
100
AcDbEntity
  8
0
100
AcDbCircle
 62
7
  6
CONTINUOUS
 10
332.471157868
 20
191.659790583
 40
2.6978849404
100
AcDbArc
 50
78.7913537818
 51
81.7672649342
  0
ARC
  5
35E
100
AcDbEntity
  8
0
100
AcDbCircle
 62
7
  6
CONTINUOUS
 10
344.0468155085
 20
132.6346549659
 40
2.4987481235
100
AcDbArc
 50
192.3460541949
 51
193.870255375
  0
ARC
  5
35F
100
AcDbEntity
  8
0
100
AcDbCircle
 62
7
  6
CONTINUOUS
 10
332.499707664
 20
191.8626710165
 40
2.4930072308
100
AcDbArc
 50
81.7489762014
 51
86.3130889307
  0
ARC
  5
360
100
AcDbEntity
  8
0
100
AcDbCircle
 62
7
  6
CONTINUOUS
 10
335.4265789203
 20
188.3208449395
 40
2.2319493649
100
AcDbArc
 50
340.5848381463
 51
342.3724364533
  0
ARC
  5
361
100
AcDbEntity
  8
0
100
AcDbCircle
 62
7
  6
CONTINUOUS
 10
337.2431671033
 20
188.876690407
 40
1.5434265723
100
AcDbArc
 50
273.8604048966
 51
277.2675053313
  0
ARC
  5
362
100
AcDbEntity
  8
0
100
AcDbCircle
 62
7
  6
CONTINUOUS
 10
333.8689353156
 20
192.6264676484
 40
1.384562472
100
AcDbArc
 50
130.7880402774
 51
132.5813440809
  0
ARC
  5
363
100
AcDbEntity
  8
0
100
AcDbCircle
 62
7
  6
CONTINUOUS
 10
333.5235916547
 20
192.4752512828
 40
1.3422535306
100
AcDbArc
 50
119.9717083178
 51
128.5966585202
  0
ARC
  5
364
100
AcDbEntity
  8
0
100
AcDbCircle
 62
7
  6
CONTINUOUS
 10
333.9024612449
 20
192.5598011627
 40
1.3084783873
100
AcDbArc
 50
122.131534123
 51
129.9830787836
  0
ARC
  5
365
100
AcDbEntity
  8
0
100
AcDbCircle
 62
7
  6
CONTINUOUS
 10
336.4490905293
 20
188.1433000452
 40
1.293109351
100
AcDbArc
 50
290.4124722124
 51
300.0214020427
  0
ARC
  5
366
100
AcDbEntity
  8
0
100
AcDbCircle
 62
7
  6
CONTINUOUS
 10
333.8909861277
 20
192.5770382339
 40
1.2877784371
100
AcDbArc
 50
112.0441802173
 51
122.1070779865
  0
ARC
  5
367
100
AcDbEntity
  8
0
100
AcDbCircle
 62
7
  6
CONTINUOUS
 10
335.5312314586
 20
310.5298553779
 40
7.9063570776
100
AcDbArc
 50
249.5175909757
 51
252.0766767958
  0
ARC
  5
368
100
AcDbEntity
  8
0
100
AcDbCircle
 62
7
  6
CONTINUOUS
 10
333.0614568833
 20
319.9569516545
 40
4.6199463483
100
AcDbArc
 50
358.920790877
 51
0.0024020657
  0
ARC
  5
369
100
AcDbEntity
  8
0
100
AcDbCircle
 62
7
  6
CONTINUOUS
 10
334.1564894884
 20
319.8548681206
 40
3.5189867293
100
AcDbArc
 50
346.769598397
 51
352.1941437953
  0
ARC
  5
36A
100
AcDbEntity
  8
0
100
AcDbCircle
 62
7
  6
CONTINUOUS
 10
333.3234204498
 20
323.1731016656
 40
2.9622302711
100
AcDbArc
 50
66.3364750876
 51
69.4795650608
  0
ARC
  5
36B
100
AcDbEntity
  8
0
100
AcDbCircle
 62
7
  6
CONTINUOUS
 10
332.471157868
 20
323.9331821581
 40
2.6978849402
100
AcDbArc
 50
78.7913537817
 51
81.7672649343
  0
ARC
  5
36C
100
AcDbEntity
  8
0
100
AcDbCircle
 62
7
  6
CONTINUOUS
 10
332.499707664
 20
324.1360625915
 40
2.4930072308
100
AcDbArc
 50
81.7489762014
 51
86.3130889307
  0
ARC
  5
36D
100
AcDbEntity
  8
0
100
AcDbCircle
 62
7
  6
CONTINUOUS
 10
335.4265789203
 20
320.5942365145
 40
2.2319493648
100
AcDbArc
 50
340.5848381463
 51
342.3724364533
  0
ARC
  5
36E
100
AcDbEntity
  8
0
100
AcDbCircle
 62
7
  6
CONTINUOUS
 10
337.2431671033
 20
321.150081982
 40
1.5434265722
100
AcDbArc
 50
273.8604048966
 51
277.2675053313
  0
ARC
  5
36F
100
AcDbEntity
  8
0
100
AcDbCircle
 62
7
  6
CONTINUOUS
 10
333.8689353156
 20
324.8998592233
 40
1.384562472
100
AcDbArc
 50
130.7880402775
 51
132.581344081
  0
ARC
  5
370
100
AcDbEntity
  8
0
100
AcDbCircle
 62
7
  6
CONTINUOUS
 10
333.5235916547
 20
324.7486428578
 40
1.3422535307
100
AcDbArc
 50
119.9717083179
 51
128.5966585201
  0
ARC
  5
371
100
AcDbEntity
  8
0
100
AcDbCircle
 62
7
  6
CONTINUOUS
 10
333.9024612449
 20
324.8331927377
 40
1.3084783873
100
AcDbArc
 50
122.131534123
 51
129.9830787837
  0
ARC
  5
372
100
AcDbEntity
  8
0
100
AcDbCircle
 62
7
  6
CONTINUOUS
 10
336.4490905293
 20
320.4166916202
 40
1.293109351
100
AcDbArc
 50
290.4124722124
 51
300.0214020428
  0
ARC
  5
373
100
AcDbEntity
  8
0
100
AcDbCircle
 62
7
  6
CONTINUOUS
 10
333.8909861276
 20
324.8504298091
 40
1.2877784369
100
AcDbArc
 50
112.0441802173
 51
122.1070779866
  0
ARC
  5
374
100
AcDbEntity
  8
0
100
AcDbCircle
 62
7
  6
CONTINUOUS
 10
334.4822825935
 20
360.7543000236
 40
7.5595671593
100
AcDbArc
 50
135.7649261086
 51
138.1699532324
  0
ARC
  5
375
100
AcDbEntity
  8
0
100
AcDbCircle
 62
7
  6
CONTINUOUS
 10
327.0420738618
 20
373.6407008023
 40
7.5591898867
100
AcDbArc
 50
281.8309305244
 51
284.2359094177
  0
ARC
  5
376
100
AcDbEntity
  8
0
100
AcDbCircle
 62
7
  6
CONTINUOUS
 10
465.7546120716
 20
445.1353541723
 40
3.7885715652
100
AcDbArc
 50
28.5464838502
 51
31.420540459
  0
ARC
  5
377
100
AcDbEntity
  8
0
100
AcDbCircle
 62
7
  6
CONTINUOUS
 10
466.3858263525
 20
445.6908654302
 40
2.9459845793
100
AcDbArc
 50
45.1250704477
 51
51.0189105058
  0
SPLINE
  5
378
100
AcDbEntity
  8
0
100
AcDbSpline
 62
7
  6
CONTINUOUS
 70
0
 71
3
 72
10
 73
6
 74
0
 42
0.0000001
 43
0.0000001
 44
0.0000000001
 40
0.0
 40
0.0
 40
0.0
 40
0.0
 40
0.2184033011
 40
0.4522547942
 40
1.0
 40
1.0
 40
1.0
 40
1.0
 10
348.1847837173
 20
140.0660996583
 30
0.0
 10
348.3991543475
 20
139.94234911
 30
0.0
 10
348.8917416543
 20
139.7630479179
 30
0.0
 10
350.0392160921
 20
139.7347397619
 30
0.0
 10
350.8969963806
 20
140.0774369721
 30
0.0
 10
351.4346108386
 20
140.3878269713
 30
0.0
  0
SPLINE
  5
379
100
AcDbEntity
  8
0
100
AcDbSpline
 62
7
  6
CONTINUOUS
 70
0
 71
3
 72
8
 73
4
 74
0
 42
0.0000001
 43
0.0000001
 44
0.0000000001
 40
0.0
 40
0.0
 40
0.0
 40
0.0
 40
1.0
 40
1.0
 40
1.0
 40
1.0
 10
467.9356107192
 20
448.1908873402
 30
0.0
 10
468.0421272198
 20
448.1293914011
 30
0.0
 10
468.1433360056
 20
448.0581932569
 30
0.0
 10
468.2390387814
 20
447.9809372271
 30
0.0
  0
SPLINE
  5
37A
100
AcDbEntity
  8
0
100
AcDbSpline
 62
7
  6
CONTINUOUS
 70
0
 71
3
 72
9
 73
5
 74
0
 42
0.0000001
 43
0.0000001
 44
0.0000000001
 40
0.0
 40
0.0
 40
0.0
 40
0.0
 40
0.243779054
 40
1.0
 40
1.0
 40
1.0
 40
1.0
 10
468.4643998298
 20
447.7785333733
 30
0.0
 10
468.5133902572
 20
447.7298668963
 30
0.0
 10
468.7076547612
 20
447.52355454
 30
0.0
 10
468.8759720482
 20
447.293196731
 30
0.0
 10
468.9876425097
 20
447.1103956126
 30
0.0
  0
SPLINE
  5
37B
100
AcDbEntity
  8
0
100
AcDbSpline
 62
7
  6
CONTINUOUS
 70
0
 71
3
 72
8
 73
4
 74
0
 42
0.0000001
 43
0.0000001
 44
0.0000000001
 40
0.0
 40
0.0
 40
0.0
 40
0.0
 40
1.0
 40
1.0
 40
1.0
 40
1.0
 10
469.082576423
 20
446.9458558016
 30
0.0
 10
469.2094786893
 20
446.7125864901
 30
0.0
 10
469.313372309
 20
446.4645822877
 30
0.0
 10
469.3853255764
 20
446.2089624837
 30
0.0
  0
SPLINE
  5
37C
100
AcDbEntity
  8
0
100
AcDbSpline
 62
7
  6
CONTINUOUS
 70
0
 71
3
 72
8
 73
4
 74
0
 42
0.0000001
 43
0.0000001
 44
0.0000000001
 40
0.0
 40
0.0
 40
0.0
 40
0.0
 40
1.0
 40
1.0
 40
1.0
 40
1.0
 10
469.3853255764
 20
446.2089624837
 30
0.0
 10
469.4171528113
 20
446.0958936569
 30
0.0
 10
469.4428226516
 20
445.9808459717
 30
0.0
 10
469.4610466717
 20
445.8648053857
 30
0.0
  0
SPLINE
  5
37D
100
AcDbEntity
  8
0
100
AcDbSpline
 62
7
  6
CONTINUOUS
 70
0
 71
3
 72
8
 73
4
 74
0
 42
0.0000001
 43
0.0000001
 44
0.0000000001
 40
0.0
 40
0.0
 40
0.0
 40
0.0
 40
1.0
 40
1.0
 40
1.0
 40
1.0
 10
469.4610466717
 20
445.8648053857
 30
0.0
 10
469.4801602374
 20
445.7431006598
 30
0.0
 10
469.4912521145
 20
445.6196488265
 30
0.0
 10
469.4912521145
 20
445.4964523626
 30
0.0
  0
SPLINE
  5
37E
100
AcDbEntity
  8
0
100
AcDbSpline
 62
7
  6
CONTINUOUS
 70
0
 71
3
 72
9
 73
5
 74
0
 42
0.0000001
 43
0.0000001
 44
0.0000000001
 40
0.0
 40
0.0
 40
0.0
 40
0.0
 40
0.2359135205
 40
1.0
 40
1.0
 40
1.0
 40
1.0
 10
61.8732461021
 20
534.9585404684
 30
0.0
 10
61.8732461021
 20
535.0113552776
 30
0.0
 10
61.8820341919
 20
535.2352062887
 30
0.0
 10
61.9222372657
 20
535.4572778064
 30
0.0
 10
61.965962126
 20
535.6226538824
 30
0.0
  0
SPLINE
  5
37F
100
AcDbEntity
  8
0
100
AcDbSpline
 62
7
  6
CONTINUOUS
 70
0
 71
3
 72
9
 73
5
 74
0
 42
0.0000001
 43
0.0000001
 44
0.0000000001
 40
0.0
 40
0.0
 40
0.0
 40
0.0
 40
0.2633931201
 40
1.0
 40
1.0
 40
1.0
 40
1.0
 10
62.9000857306
 20
537.2406223368
 30
0.0
 10
62.9419153363
 20
537.2821760439
 30
0.0
 10
63.105111139
 20
537.4353362998
 30
0.0
 10
63.2860742346
 20
537.5705376197
 30
0.0
 10
63.428874544
 20
537.6529829246
 30
0.0
  0
SPLINE
  5
380
100
AcDbEntity
  8
0
100
AcDbSpline
 62
7
  6
CONTINUOUS
 70
0
 71
3
 72
9
 73
5
 74
0
 42
0.0000001
 43
0.0000001
 44
0.0000000001
 40
0.0
 40
0.0
 40
0.0
 40
0.0
 40
0.5507456792
 40
1.0
 40
1.0
 40
1.0
 40
1.0
 10
194.602428596
 20
366.9659092523
 30
0.0
 10
194.9332304791
 20
366.7749152885
 30
0.0
 10
195.5943464644
 20
366.5000757955
 30
0.0
 10
196.3324613867
 20
366.612160747
 30
0.0
 10
196.6024202093
 20
366.7677554082
 30
0.0
  0
SPLINE
  5
381
100
AcDbEntity
  8
0
100
AcDbSpline
 62
7
  6
CONTINUOUS
 70
0
 71
3
 72
9
 73
5
 74
0
 42
0.0000001
 43
0.0000001
 44
0.0000000001
 40
0.0
 40
0.0
 40
0.0
 40
0.0
 40
0.44917285
 40
1.0
 40
1.0
 40
1.0
 40
1.0
 10
192.6025818344
 20
373.6957199084
 30
0.0
 10
192.3326715739
 20
373.5401532367
 30
0.0
 10
191.8667091133
 20
372.9565273432
 30
0.0
 10
191.7740621213
 20
372.246737556
 30
0.0
 10
191.7740621213
 20
371.8647006763
 30
0.0
  0
SPLINE
  5
382
100
AcDbEntity
  8
0
100
AcDbSpline
 62
7
  6
CONTINUOUS
 70
0
 71
3
 72
10
 73
6
 74
0
 42
0.0000001
 43
0.0000001
 44
0.0000000001
 40
0.0
 40
0.0
 40
0.0
 40
0.0
 40
0.2293240477
 40
0.4675951168
 40
1.0
 40
1.0
 40
1.0
 40
1.0
 10
201.3555223305
 20
382.2134647624
 30
0.0
 10
201.0959787892
 20
382.0636181235
 30
0.0
 10
200.6164111743
 20
381.6632735057
 30
0.0
 10
199.9181015204
 20
380.5392819319
 30
0.0
 10
199.759293448
 20
379.5006218914
 30
0.0
 10
199.759293448
 20
378.8048427938
 30
0.0
  0
SPLINE
  5
383
100
AcDbEntity
  8
0
100
AcDbSpline
 62
7
  6
CONTINUOUS
 70
0
 71
3
 72
8
 73
4
 74
0
 42
0.0000001
 43
0.0000001
 44
0.0000000001
 40
0.0
 40
0.0
 40
0.0
 40
0.0
 40
1.0
 40
1.0
 40
1.0
 40
1.0
 10
199.759293448
 20
378.8048427938
 30
0.0
 10
199.759293448
 20
378.5354349409
 30
0.0
 10
199.7758463083
 20
378.2656936813
 30
0.0
 10
199.8058404031
 20
377.9979607071
 30
0.0
  0
SPLINE
  5
384
100
AcDbEntity
  8
0
100
AcDbSpline
 62
7
  6
CONTINUOUS
 70
0
 71
3
 72
11
 73
7
 74
0
 42
0.0000001
 43
0.0000001
 44
0.0000000001
 40
0.0
 40
0.0
 40
0.0
 40
0.0
 40
0.2843381999
 40
0.5419503766
 40
0.7769787753
 40
1.0
 40
1.0
 40
1.0
 40
1.0
 10
203.9679886911
 20
370.8267639784
 30
0.0
 10
204.3272739781
 20
370.5652301433
 30
0.0
 10
205.0564926549
 20
370.1223258832
 30
0.0
 10
206.2184616318
 20
369.7293718508
 30
0.0
 10
207.3546831779
 20
369.6812395546
 30
0.0
 10
208.0536277212
 20
369.9148112158
 30
0.0
 10
208.3554909924
 20
370.0890910164
 30
0.0
  0
SPLINE
  5
385
100
AcDbEntity
  8
0
100
AcDbSpline
 62
7
  6
CONTINUOUS
 70
0
 71
3
 72
10
 73
6
 74
0
 42
0.0000001
 43
0.0000001
 44
0.0000000001
 40
0.0
 40
0.0
 40
0.0
 40
0.0
 40
0.2184371329
 40
0.4523378695
 40
1.0
 40
1.0
 40
1.0
 40
1.0
 10
207.3660317458
 20
385.6833204548
 30
0.0
 10
207.5969233465
 20
385.816639687
 30
0.0
 10
208.1275666431
 20
386.0097087097
 30
0.0
 10
209.3633413397
 20
386.0399414744
 30
0.0
 10
210.2871173582
 20
385.6710339421
 30
0.0
 10
210.8660160284
 20
385.3367969374
 30
0.0
  0
SPLINE
  5
386
100
AcDbEntity
  8
0
100
AcDbSpline
 62
7
  6
CONTINUOUS
 70
0
 71
3
 72
8
 73
4
 74
0
 42
0.0000001
 43
0.0000001
 44
0.0000000001
 40
0.0
 40
0.0
 40
0.0
 40
0.0
 40
1.0
 40
1.0
 40
1.0
 40
1.0
 10
73.9648282901
 20
511.4026420071
 30
0.0
 10
74.0886413316
 20
511.67436168
 30
0.0
 10
74.1786452272
 20
511.9650455644
 30
0.0
 10
74.2236487681
 20
512.2602335234
 30
0.0
  0
SPLINE
  5
387
100
AcDbEntity
  8
0
100
AcDbSpline
 62
7
  6
CONTINUOUS
 70
0
 71
3
 72
9
 73
5
 74
0
 42
0.0000001
 43
0.0000001
 44
0.0000000001
 40
0.0
 40
0.0
 40
0.0
 40
0.0
 40
0.5702978293
 40
1.0
 40
1.0
 40
1.0
 40
1.0
 10
468.8584597182
 20
447.3392699799
 30
0.0
 10
468.8957644074
 20
447.5250169115
 30
0.0
 10
468.9243644877
 20
447.8668160336
 30
0.0
 10
468.7342234031
 20
448.1863702107
 30
0.0
 10
468.6105815842
 20
448.2577149714
 30
0.0
  0
SPLINE
  5
388
100
AcDbEntity
  8
0
100
AcDbSpline
 62
7
  6
CONTINUOUS
 70
0
 71
3
 72
9
 73
5
 74
0
 42
0.0000001
 43
0.0000001
 44
0.0000000001
 40
0.0
 40
0.0
 40
0.0
 40
0.0
 40
0.5000016721
 40
1.0
 40
1.0
 40
1.0
 40
1.0
 10
342.4543779749
 20
373.9483909649
 30
0.0
 10
342.4543779749
 20
374.1907394168
 30
0.0
 10
342.6199973369
 20
374.6692671657
 30
0.0
 10
342.9516029867
 20
375.0519646628
 30
0.0
 10
343.1614818121
 20
375.1731375359
 30
0.0
  0
SPLINE
  5
389
100
AcDbEntity
  8
0
100
AcDbSpline
 62
7
  6
CONTINUOUS
 70
0
 71
3
 72
11
 73
7
 74
0
 42
0.0000001
 43
0.0000001
 44
0.0000000001
 40
0.0
 40
0.0
 40
0.0
 40
0.0
 40
0.2201054018
 40
0.5156975802
 40
0.804129152
 40
1.0
 40
1.0
 40
1.0
 40
1.0
 10
301.9446495857
 20
282.1360703688
 30
0.0
 10
302.1153262208
 20
282.0375323969
 30
0.0
 10
302.5626484982
 20
281.893853074
 30
0.0
 10
303.2848322913
 20
281.8279994102
 30
0.0
 10
303.9808278085
 20
281.9202801292
 30
0.0
 10
304.3969357598
 20
282.0718259418
 30
0.0
 10
304.5419286981
 20
282.1704930349
 30
0.0
  0
SPLINE
  5
38A
100
AcDbEntity
  8
0
100
AcDbSpline
 62
7
  6
CONTINUOUS
 70
0
 71
3
 72
9
 73
5
 74
0
 42
0.0000001
 43
0.0000001
 44
0.0000000001
 40
0.0
 40
0.0
 40
0.0
 40
0.0
 40
0.2302330743
 40
1.0
 40
1.0
 40
1.0
 40
1.0
 10
63.5103333646
 20
510.6752348543
 30
0.0
 10
63.5496616014
 20
510.6938675494
 30
0.0
 10
63.7247004803
 20
510.7659360534
 30
0.0
 10
63.9123811846
 20
510.8039285616
 30
0.0
 10
64.0569564213
 20
510.8203236909
 30
0.0
  0
SPLINE
  5
38B
100
AcDbEntity
  8
0
100
AcDbSpline
 62
7
  6
CONTINUOUS
 70
0
 71
3
 72
8
 73
4
 74
0
 42
0.0000001
 43
0.0000001
 44
0.0000000001
 40
0.0
 40
0.0
 40
0.0
 40
0.0
 40
1.0
 40
1.0
 40
1.0
 40
1.0
 10
64.0569564213
 20
510.8203236909
 30
0.0
 10
64.1685715214
 20
510.8329810728
 30
0.0
 10
64.2811695084
 20
510.8380350772
 30
0.0
 10
64.393499509
 20
510.8377021044
 30
0.0
  0
SPLINE
  5
38C
100
AcDbEntity
  8
0
100
AcDbSpline
 62
7
  6
CONTINUOUS
 70
0
 71
3
 72
10
 73
6
 74
0
 42
0.0000001
 43
0.0000001
 44
0.0000000001
 40
0.0
 40
0.0
 40
0.0
 40
0.0
 40
0.0936960131
 40
0.3149977511
 40
1.0
 40
1.0
 40
1.0
 40
1.0
 10
237.8336033802
 20
319.1592014002
 30
0.0
 10
237.8305156823
 20
319.1636073973
 30
0.0
 10
237.8137107825
 20
319.1850439966
 30
0.0
 10
237.892635103
 20
319.1082615564
 30
0.0
 10
237.9171548501
 20
319.1015254196
 30
0.0
 10
237.9512194599
 20
319.0818586529
 30
0.0
  0
SPLINE
  5
38D
100
AcDbEntity
  8
0
100
AcDbSpline
 62
7
  6
CONTINUOUS
 70
0
 71
3
 72
8
 73
4
 74
0
 42
0.0000001
 43
0.0000001
 44
0.0000000001
 40
0.0
 40
0.0
 40
0.0
 40
0.0
 40
1.0
 40
1.0
 40
1.0
 40
1.0
 10
73.9648224021
 20
514.0154322332
 30
0.0
 10
74.1336681652
 20
513.7787452682
 30
0.0
 10
74.273796857
 20
513.5201990761
 30
0.0
 10
74.3886310761
 20
513.2530985084
 30
0.0
  0
SPLINE
  5
38E
100
AcDbEntity
  8
0
100
AcDbSpline
 62
7
  6
CONTINUOUS
 70
0
 71
3
 72
9
 73
5
 74
0
 42
0.0000001
 43
0.0000001
 44
0.0000000001
 40
0.0
 40
0.0
 40
0.0
 40
0.0
 40
0.2633973222
 40
1.0
 40
1.0
 40
1.0
 40
1.0
 10
74.3886310761
 20
513.2530985084
 30
0.0
 10
74.416090534
 20
513.1892287241
 30
0.0
 10
74.5149763384
 20
512.9444234215
 30
0.0
 10
74.5953144559
 20
512.6924977872
 30
0.0
 10
74.6483725533
 20
512.5054549262
 30
0.0
  0
SPLINE
  5
38F
100
AcDbEntity
  8
0
100
AcDbSpline
 62
7
  6
CONTINUOUS
 70
0
 71
3
 72
8
 73
4
 74
0
 42
0.0000001
 43
0.0000001
 44
0.0000000001
 40
0.0
 40
0.0
 40
0.0
 40
0.0
 40
1.0
 40
1.0
 40
1.0
 40
1.0
 10
74.6483725533
 20
512.5054549262
 30
0.0
 10
74.6800114556
 20
512.3939200035
 30
0.0
 10
74.7094561546
 20
512.2817691679
 30
0.0
 10
74.7387316059
 20
512.1695907071
 30
0.0
  0
SPLINE
  5
390
100
AcDbEntity
  8
0
100
AcDbSpline
 62
7
  6
CONTINUOUS
 70
0
 71
3
 72
17
 73
13
 74
0
 42
0.0000001
 43
0.0000001
 44
0.0000000001
 40
0.0
 40
0.0
 40
0.0
 40
0.0
 40
0.0083851729
 40
0.0330127835
 40
0.0723297897
 40
0.1248418056
 40
0.1881339928
 40
0.2595744274
 40
0.4183349716
 40
0.586124473
 40
0.749385771
 40
1.0
 40
1.0
 40
1.0
 40
1.0
 10
212.6909851446
 20
229.1543802422
 30
0.0
 10
212.683326363
 20
229.1557128096
 30
0.0
 10
212.6639208999
 20
229.120883168
 30
0.0
 10
212.6060543184
 20
229.0953081878
 30
0.0
 10
212.5150715501
 20
229.032380524
 30
0.0
 10
212.3831854687
 20
228.9757786375
 30
0.0
 10
212.2201177133
 20
228.9154366546
 30
0.0
 10
211.9572318606
 20
228.8441908297
 30
0.0
 10
211.5914232704
 20
228.7875647387
 30
0.0
 10
211.1356168023
 20
228.7779845496
 30
0.0
 10
210.6002825804
 20
228.8391333794
 30
0.0
 10
210.2223668302
 20
228.9481608343
 30
0.0
 10
210.0211507479
 20
229.0643303656
 30
0.0
  0
SPLINE
  5
391
100
AcDbEntity
  8
0
100
AcDbSpline
 62
7
  6
CONTINUOUS
 70
0
 71
3
 72
10
 73
6
 74
0
 42
0.0000001
 43
0.0000001
 44
0.0000000001
 40
0.0
 40
0.0
 40
0.0
 40
0.0
 40
0.0936960131
 40
0.3149977511
 40
1.0
 40
1.0
 40
1.0
 40
1.0
 10
227.5812777969
 20
218.9356542498
 30
0.0
 10
227.578190099
 20
218.9400602469
 30
0.0
 10
227.5613851992
 20
218.9614968462
 30
0.0
 10
227.6403095197
 20
218.884714406
 30
0.0
 10
227.6648292668
 20
218.8779782692
 30
0.0
 10
227.6988938765
 20
218.8583115025
 30
0.0
  0
SPLINE
  5
392
100
AcDbEntity
  8
0
100
AcDbSpline
 62
7
  6
CONTINUOUS
 70
0
 71
3
 72
9
 73
5
 74
0
 42
0.0000001
 43
0.0000001
 44
0.0000000001
 40
0.0
 40
0.0
 40
0.0
 40
0.0
 40
0.4999988717
 40
1.0
 40
1.0
 40
1.0
 40
1.0
 10
343.1614818121
 20
375.1731375359
 30
0.0
 10
343.3713618341
 20
375.0519659899
 30
0.0
 10
343.702970531
 20
374.6692706235
 30
0.0
 10
343.8685915373
 20
374.1907426618
 30
0.0
 10
343.8685915373
 20
373.9483943642
 30
0.0
  0
SPLINE
  5
393
100
AcDbEntity
  8
0
100
AcDbSpline
 62
7
  6
CONTINUOUS
 70
0
 71
3
 72
9
 73
5
 74
0
 42
0.0000001
 43
0.0000001
 44
0.0000000001
 40
0.0
 40
0.0
 40
0.0
 40
0.0
 40
0.4999994563
 40
1.0
 40
1.0
 40
1.0
 40
1.0
 10
343.8685915373
 20
373.9483943642
 30
0.0
 10
343.6587124344
 20
373.8272213309
 30
0.0
 10
343.1614854482
 20
373.7313909988
 30
0.0
 10
342.6642584081
 20
373.8272191815
 30
0.0
 10
342.4543779749
 20
373.9483909649
 30
0.0
  0
SPLINE
  5
394
100
AcDbEntity
  8
0
100
AcDbSpline
 62
7
  6
CONTINUOUS
 70
0
 71
3
 72
8
 73
4
 74
0
 42
0.0000001
 43
0.0000001
 44
0.0000000001
 40
0.0
 40
0.0
 40
0.0
 40
0.0
 40
1.0
 40
1.0
 40
1.0
 40
1.0
 10
341.6058533703
 20
132.1003834767
 30
0.0
 10
341.7319898863
 20
131.9854129523
 30
0.0
 10
341.8700126011
 20
131.8827586591
 30
0.0
 10
342.0144097306
 20
131.7917745332
 30
0.0
  0
SPLINE
  5
395
100
AcDbEntity
  8
0
100
AcDbSpline
 62
7
  6
CONTINUOUS
 70
0
 71
3
 72
8
 73
4
 74
0
 42
0.0000001
 43
0.0000001
 44
0.0000000001
 40
0.0
 40
0.0
 40
0.0
 40
0.0
 40
1.0
 40
1.0
 40
1.0
 40
1.0
 10
342.0144097306
 20
131.7917745332
 30
0.0
 10
342.2322590721
 20
131.6545084256
 30
0.0
 10
342.4674260355
 20
131.542551616
 30
0.0
 10
342.709500193
 20
131.4547995668
 30
0.0
  0
SPLINE
  5
396
100
AcDbEntity
  8
0
100
AcDbSpline
 62
7
  6
CONTINUOUS
 70
0
 71
3
 72
9
 73
5
 74
0
 42
0.0000001
 43
0.0000001
 44
0.0000000001
 40
0.0
 40
0.0
 40
0.0
 40
0.0
 40
0.2788472089
 40
1.0
 40
1.0
 40
1.0
 40
1.0
 10
343.1621109342
 20
131.3199703096
 30
0.0
 10
343.3034778807
 20
131.2865955147
 30
0.0
 10
343.8154601576
 20
131.1945971792
 30
0.0
 10
344.3521102479
 20
131.1951158099
 30
0.0
 10
344.7171232075
 20
131.2838885381
 30
0.0
  0
SPLINE
  5
397
100
AcDbEntity
  8
0
100
AcDbSpline
 62
7
  6
CONTINUOUS
 70
0
 71
3
 72
11
 73
7
 74
0
 42
0.0000001
 43
0.0000001
 44
0.0000000001
 40
0.0
 40
0.0
 40
0.0
 40
0.0
 40
0.2201054018
 40
0.5156975802
 40
0.804129152
 40
1.0
 40
1.0
 40
1.0
 40
1.0
 10
291.6923240023
 20
181.9125232185
 30
0.0
 10
291.8630006374
 20
181.8139852465
 30
0.0
 10
292.3103229148
 20
181.6703059236
 30
0.0
 10
293.0325067079
 20
181.6044522598
 30
0.0
 10
293.7285022252
 20
181.6967329788
 30
0.0
 10
294.1446101765
 20
181.8482787915
 30
0.0
 10
294.2896031148
 20
181.9469458845
 30
0.0
  0
SPLINE
  5
398
100
AcDbEntity
  8
0
100
AcDbSpline
 62
7
  6
CONTINUOUS
 70
0
 71
3
 72
9
 73
5
 74
0
 42
0.0000001
 43
0.0000001
 44
0.0000000001
 40
0.0
 40
0.0
 40
0.0
 40
0.0
 40
0.2782183801
 40
1.0
 40
1.0
 40
1.0
 40
1.0
 10
336.0196794761
 20
319.9774860608
 30
0.0
 10
336.1311193514
 20
319.9131476743
 30
0.0
 10
336.5420833624
 20
319.7040081891
 30
0.0
 10
337.0140107797
 20
319.587601276
 30
0.0
 10
337.3470795473
 20
319.6101573773
 30
0.0
  0
SPLINE
  5
399
100
AcDbEntity
  8
0
100
AcDbSpline
 62
7
  6
CONTINUOUS
 70
0
 71
3
 72
8
 73
4
 74
0
 42
0.0000001
 43
0.0000001
 44
0.0000000001
 40
0.0
 40
0.0
 40
0.0
 40
0.0
 40
1.0
 40
1.0
 40
1.0
 40
1.0
 10
337.4384137229
 20
319.6190547642
 30
0.0
 10
337.5170947612
 20
319.6291090908
 30
0.0
 10
337.5952787941
 20
319.645478843
 30
0.0
 10
337.6711757551
 20
319.668531968
 30
0.0
  0
SPLINE
  5
39A
100
AcDbEntity
  8
0
100
AcDbSpline
 62
7
  6
CONTINUOUS
 70
0
 71
3
 72
9
 73
5
 74
0
 42
0.0000001
 43
0.0000001
 44
0.0000000001
 40
0.0
 40
0.0
 40
0.0
 40
0.0
 40
0.2358395768
 40
1.0
 40
1.0
 40
1.0
 40
1.0
 10
221.7966280915
 20
224.6500562759
 30
0.0
 10
221.7748977949
 20
224.6728756905
 30
0.0
 10
221.678695294
 20
224.7657538752
 30
0.0
 10
221.5682994745
 20
224.8433081682
 30
0.0
 10
221.4800513062
 20
224.8946575095
 30
0.0
  0
SPLINE
  5
39B
100
AcDbEntity
  8
0
100
AcDbSpline
 62
7
  6
CONTINUOUS
 70
0
 71
3
 72
9
 73
5
 74
0
 42
0.0000001
 43
0.0000001
 44
0.0000000001
 40
0.0
 40
0.0
 40
0.0
 40
0.0
 40
0.4997042732
 40
1.0
 40
1.0
 40
1.0
 40
1.0
 10
221.4800513062
 20
224.8946575095
 30
0.0
 10
221.0814665135
 20
225.1265837574
 30
0.0
 10
220.1346132585
 20
225.310395233
 30
0.0
 10
219.1876809551
 20
225.1285575639
 30
0.0
 10
218.787839768
 20
224.8977105249
 30
0.0
  0
SPLINE
  5
39C
100
AcDbEntity
  8
0
100
AcDbSpline
 62
7
  6
CONTINUOUS
 70
0
 71
3
 72
9
 73
5
 74
0
 42
0.0000001
 43
0.0000001
 44
0.0000000001
 40
0.0
 40
0.0
 40
0.0
 40
0.0
 40
0.2782183801
 40
1.0
 40
1.0
 40
1.0
 40
1.0
 10
336.0196794761
 20
187.7040944858
 30
0.0
 10
336.1311193514
 20
187.6397560993
 30
0.0
 10
336.5420833624
 20
187.4306166141
 30
0.0
 10
337.0140107797
 20
187.314209701
 30
0.0
 10
337.3470795473
 20
187.3367658024
 30
0.0
  0
SPLINE
  5
39D
100
AcDbEntity
  8
0
100
AcDbSpline
 62
7
  6
CONTINUOUS
 70
0
 71
3
 72
8
 73
4
 74
0
 42
0.0000001
 43
0.0000001
 44
0.0000000001
 40
0.0
 40
0.0
 40
0.0
 40
0.0
 40
1.0
 40
1.0
 40
1.0
 40
1.0
 10
337.4384137229
 20
187.3456631892
 30
0.0
 10
337.5170947612
 20
187.3557175158
 30
0.0
 10
337.5952787941
 20
187.372087268
 30
0.0
 10
337.6711757551
 20
187.395140393
 30
0.0
  0
SPLINE
  5
39E
100
AcDbEntity
  8
0
100
AcDbSpline
 62
7
  6
CONTINUOUS
 70
0
 71
3
 72
9
 73
5
 74
0
 42
0.0000001
 43
0.0000001
 44
0.0000000001
 40
0.0
 40
0.0
 40
0.0
 40
0.0
 40
0.4594134537
 40
1.0
 40
1.0
 40
1.0
 40
1.0
 10
222.0313174302
 20
225.1018560802
 30
0.0
 10
222.0313734112
 20
224.9781507409
 30
0.0
 10
221.944921967
 20
224.7067575686
 30
0.0
 10
221.7460948545
 20
224.5138259456
 30
0.0
 10
221.6291662729
 20
224.4271299382
 30
0.0
  0
SPLINE
  5
39F
100
AcDbEntity
  8
0
100
AcDbSpline
 62
7
  6
CONTINUOUS
 70
0
 71
3
 72
8
 73
4
 74
0
 42
0.0000001
 43
0.0000001
 44
0.0000000001
 40
0.0
 40
0.0
 40
0.0
 40
0.0
 40
1.0
 40
1.0
 40
1.0
 40
1.0
 10
221.6291662729
 20
224.4271299382
 30
0.0
 10
221.5797943769
 20
224.390523437
 30
0.0
 10
221.5280847566
 20
224.356929594
 30
0.0
 10
221.4748567236
 20
224.3261985583
 30
0.0
  0
SPLINE
  5
3A0
100
AcDbEntity
  8
0
100
AcDbSpline
 62
7
  6
CONTINUOUS
 70
0
 71
3
 72
9
 73
5
 74
0
 42
0.0000001
 43
0.0000001
 44
0.0000000001
 40
0.0
 40
0.0
 40
0.0
 40
0.0
 40
0.2358395768
 40
1.0
 40
1.0
 40
1.0
 40
1.0
 10
313.7201269293
 20
277.7217962791
 30
0.0
 10
313.6983966327
 20
277.7446156938
 30
0.0
 10
313.6021941318
 20
277.8374938785
 30
0.0
 10
313.4917983123
 20
277.9150481715
 30
0.0
 10
313.403550144
 20
277.9663975128
 30
0.0
  0
SPLINE
  5
3A1
100
AcDbEntity
  8
0
100
AcDbSpline
 62
7
  6
CONTINUOUS
 70
0
 71
3
 72
9
 73
5
 74
0
 42
0.0000001
 43
0.0000001
 44
0.0000000001
 40
0.0
 40
0.0
 40
0.0
 40
0.0
 40
0.4997042732
 40
1.0
 40
1.0
 40
1.0
 40
1.0
 10
313.403550144
 20
277.9663975128
 30
0.0
 10
313.0049653513
 20
278.1983237607
 30
0.0
 10
312.0581120963
 20
278.3821352363
 30
0.0
 10
311.1111797929
 20
278.2002975672
 30
0.0
 10
310.7113386058
 20
277.9694505282
 30
0.0
  0
SPLINE
  5
3A2
100
AcDbEntity
  8
0
100
AcDbSpline
 62
7
  6
CONTINUOUS
 70
0
 71
3
 72
9
 73
5
 74
0
 42
0.0000001
 43
0.0000001
 44
0.0000000001
 40
0.0
 40
0.0
 40
0.0
 40
0.0
 40
0.4594134537
 40
1.0
 40
1.0
 40
1.0
 40
1.0
 10
313.954816268
 20
278.1735960835
 30
0.0
 10
313.954872249
 20
278.0498907442
 30
0.0
 10
313.8684208048
 20
277.7784975719
 30
0.0
 10
313.6695936923
 20
277.5855659489
 30
0.0
 10
313.5526651107
 20
277.4988699415
 30
0.0
  0
SPLINE
  5
3A3
100
AcDbEntity
  8
0
100
AcDbSpline
 62
7
  6
CONTINUOUS
 70
0
 71
3
 72
8
 73
4
 74
0
 42
0.0000001
 43
0.0000001
 44
0.0000000001
 40
0.0
 40
0.0
 40
0.0
 40
0.0
 40
1.0
 40
1.0
 40
1.0
 40
1.0
 10
313.5526651107
 20
277.4988699415
 30
0.0
 10
313.5032932147
 20
277.4622634403
 30
0.0
 10
313.4515835944
 20
277.4286695973
 30
0.0
 10
313.3983555614
 20
277.3979385616
 30
0.0
  0
SPLINE
  5
3A4
100
AcDbEntity
  8
0
100
AcDbSpline
 62
7
  6
CONTINUOUS
 70
0
 71
3
 72
9
 73
5
 74
0
 42
0.0000001
 43
0.0000001
 44
0.0000000001
 40
0.0
 40
0.0
 40
0.0
 40
0.0
 40
0.284432311
 40
1.0
 40
1.0
 40
1.0
 40
1.0
 10
321.9765734573
 20
146.3434492197
 30
0.0
 10
321.9340490106
 20
146.2692810236
 30
0.0
 10
321.7754445819
 20
146.014774568
 30
0.0
 10
321.5712450068
 20
145.7820959164
 30
0.0
 10
321.3943151021
 20
145.6597972836
 30
0.0
  0
SPLINE
  5
3A5
100
AcDbEntity
  8
0
100
AcDbSpline
 62
7
  6
CONTINUOUS
 70
0
 71
3
 72
9
 73
5
 74
0
 42
0.0000001
 43
0.0000001
 44
0.0000000001
 40
0.0
 40
0.0
 40
0.0
 40
0.0
 40
0.2358395768
 40
1.0
 40
1.0
 40
1.0
 40
1.0
 10
152.1459374489
 20
317.9332896416
 30
0.0
 10
152.1242071523
 20
317.9561090562
 30
0.0
 10
152.0280046513
 20
318.0489872409
 30
0.0
 10
151.9176088319
 20
318.1265415339
 30
0.0
 10
151.8293606636
 20
318.1778908752
 30
0.0
  0
SPLINE
  5
3A6
100
AcDbEntity
  8
0
100
AcDbSpline
 62
7
  6
CONTINUOUS
 70
0
 71
3
 72
9
 73
5
 74
0
 42
0.0000001
 43
0.0000001
 44
0.0000000001
 40
0.0
 40
0.0
 40
0.0
 40
0.0
 40
0.4997042732
 40
1.0
 40
1.0
 40
1.0
 40
1.0
 10
151.8293606636
 20
318.1778908752
 30
0.0
 10
151.4307758709
 20
318.4098171232
 30
0.0
 10
150.4839226159
 20
318.5936285987
 30
0.0
 10
149.5369903124
 20
318.4117909297
 30
0.0
 10
149.1371491254
 20
318.1809438907
 30
0.0
  0
SPLINE
  5
3A7
100
AcDbEntity
  8
0
100
AcDbSpline
 62
7
  6
CONTINUOUS
 70
0
 71
3
 72
9
 73
5
 74
0
 42
0.0000001
 43
0.0000001
 44
0.0000000001
 40
0.0
 40
0.0
 40
0.0
 40
0.0
 40
0.4594134537
 40
1.0
 40
1.0
 40
1.0
 40
1.0
 10
152.3806267875
 20
318.3850894459
 30
0.0
 10
152.3806827685
 20
318.2613841066
 30
0.0
 10
152.2942313244
 20
317.9899909343
 30
0.0
 10
152.0954042119
 20
317.7970593113
 30
0.0
 10
151.9784756303
 20
317.7103633039
 30
0.0
  0
SPLINE
  5
3A8
100
AcDbEntity
  8
0
100
AcDbSpline
 62
7
  6
CONTINUOUS
 70
0
 71
3
 72
8
 73
4
 74
0
 42
0.0000001
 43
0.0000001
 44
0.0000000001
 40
0.0
 40
0.0
 40
0.0
 40
0.0
 40
1.0
 40
1.0
 40
1.0
 40
1.0
 10
151.9784756303
 20
317.7103633039
 30
0.0
 10
151.9291037342
 20
317.6737568027
 30
0.0
 10
151.8773941139
 20
317.6401629598
 30
0.0
 10
151.824166081
 20
317.609431924
 30
0.0
  0
SPLINE
  5
3A9
100
AcDbEntity
  8
0
100
AcDbSpline
 62
7
  6
CONTINUOUS
 70
0
 71
3
 72
9
 73
5
 74
0
 42
0.0000001
 43
0.0000001
 44
0.0000000001
 40
0.0
 40
0.0
 40
0.0
 40
0.0
 40
0.2358395768
 40
1.0
 40
1.0
 40
1.0
 40
1.0
 10
303.467801346
 20
177.4982491288
 30
0.0
 10
303.4460710494
 20
177.5210685434
 30
0.0
 10
303.3498685484
 20
177.6139467281
 30
0.0
 10
303.239472729
 20
177.6915010211
 30
0.0
 10
303.1512245607
 20
177.7428503624
 30
0.0
  0
SPLINE
  5
3AA
100
AcDbEntity
  8
0
100
AcDbSpline
 62
7
  6
CONTINUOUS
 70
0
 71
3
 72
9
 73
5
 74
0
 42
0.0000001
 43
0.0000001
 44
0.0000000001
 40
0.0
 40
0.0
 40
0.0
 40
0.0
 40
0.4997042732
 40
1.0
 40
1.0
 40
1.0
 40
1.0
 10
303.1512245607
 20
177.7428503624
 30
0.0
 10
302.752639768
 20
177.9747766104
 30
0.0
 10
301.805786513
 20
178.1585880859
 30
0.0
 10
300.8588542095
 20
177.9767504168
 30
0.0
 10
300.4590130225
 20
177.7459033779
 30
0.0
  0
SPLINE
  5
3AB
100
AcDbEntity
  8
0
100
AcDbSpline
 62
7
  6
CONTINUOUS
 70
0
 71
3
 72
9
 73
5
 74
0
 42
0.0000001
 43
0.0000001
 44
0.0000000001
 40
0.0
 40
0.0
 40
0.0
 40
0.0
 40
0.4594134537
 40
1.0
 40
1.0
 40
1.0
 40
1.0
 10
303.7024906846
 20
177.9500489331
 30
0.0
 10
303.7025466656
 20
177.8263435938
 30
0.0
 10
303.6160952215
 20
177.5549504215
 30
0.0
 10
303.417268109
 20
177.3620187985
 30
0.0
 10
303.3003395274
 20
177.2753227911
 30
0.0
  0
SPLINE
  5
3AC
100
AcDbEntity
  8
0
100
AcDbSpline
 62
7
  6
CONTINUOUS
 70
0
 71
3
 72
8
 73
4
 74
0
 42
0.0000001
 43
0.0000001
 44
0.0000000001
 40
0.0
 40
0.0
 40
0.0
 40
0.0
 40
1.0
 40
1.0
 40
1.0
 40
1.0
 10
303.3003395274
 20
177.2753227911
 30
0.0
 10
303.2509676313
 20
177.2387162899
 30
0.0
 10
303.199258011
 20
177.2051224469
 30
0.0
 10
303.1460299781
 20
177.1743914112
 30
0.0
  0
SPLINE
  5
3AD
100
AcDbEntity
  8
0
100
AcDbSpline
 62
7
  6
CONTINUOUS
 70
0
 71
3
 72
9
 73
5
 74
0
 42
0.0000001
 43
0.0000001
 44
0.0000000001
 40
0.0
 40
0.0
 40
0.0
 40
0.0
 40
0.2358395768
 40
1.0
 40
1.0
 40
1.0
 40
1.0
 10
140.125454837
 20
271.8018634229
 30
0.0
 10
140.1037245404
 20
271.8246828376
 30
0.0
 10
140.0075220395
 20
271.9175610223
 30
0.0
 10
139.89712622
 20
271.9951153153
 30
0.0
 10
139.8088780517
 20
272.0464646566
 30
0.0
  0
SPLINE
  5
3AE
100
AcDbEntity
  8
0
100
AcDbSpline
 62
7
  6
CONTINUOUS
 70
0
 71
3
 72
9
 73
5
 74
0
 42
0.0000001
 43
0.0000001
 44
0.0000000001
 40
0.0
 40
0.0
 40
0.0
 40
0.0
 40
0.4997042732
 40
1.0
 40
1.0
 40
1.0
 40
1.0
 10
139.8088780517
 20
272.0464646566
 30
0.0
 10
139.4102932591
 20
272.2783909045
 30
0.0
 10
138.463440004
 20
272.4622023801
 30
0.0
 10
137.5165077006
 20
272.280364711
 30
0.0
 10
137.1166665136
 20
272.049517672
 30
0.0
  0
SPLINE
  5
3AF
100
AcDbEntity
  8
0
100
AcDbSpline
 62
7
  6
CONTINUOUS
 70
0
 71
3
 72
9
 73
5
 74
0
 42
0.0000001
 43
0.0000001
 44
0.0000000001
 40
0.0
 40
0.0
 40
0.0
 40
0.0
 40
0.4594134537
 40
1.0
 40
1.0
 40
1.0
 40
1.0
 10
140.3601441757
 20
272.2536632273
 30
0.0
 10
140.3602001567
 20
272.129957888
 30
0.0
 10
140.2737487125
 20
271.8585647157
 30
0.0
 10
140.0749216
 20
271.6656330927
 30
0.0
 10
139.9579930184
 20
271.5789370853
 30
0.0
  0
SPLINE
  5
3B0
100
AcDbEntity
  8
0
100
AcDbSpline
 62
7
  6
CONTINUOUS
 70
0
 71
3
 72
8
 73
4
 74
0
 42
0.0000001
 43
0.0000001
 44
0.0000000001
 40
0.0
 40
0.0
 40
0.0
 40
0.0
 40
1.0
 40
1.0
 40
1.0
 40
1.0
 10
139.9579930184
 20
271.5789370853
 30
0.0
 10
139.9086211224
 20
271.5423305841
 30
0.0
 10
139.8569115021
 20
271.5087367411
 30
0.0
 10
139.8036834691
 20
271.4780057054
 30
0.0
  0
SPLINE
  5
3B1
100
AcDbEntity
  8
0
100
AcDbSpline
 62
7
  6
CONTINUOUS
 70
0
 71
3
 72
13
 73
9
 74
0
 42
0.0000001
 43
0.0000001
 44
0.0000000001
 40
0.0
 40
0.0
 40
0.0
 40
0.0
 40
0.1147559169
 40
0.2380862276
 40
0.5000009723
 40
0.761915154
 40
0.8852447108
 40
1.0
 40
1.0
 40
1.0
 40
1.0
 10
228.5294365712
 20
334.1500861821
 30
0.0
 10
226.3228898003
 20
335.4240077343
 30
0.0
 10
221.50855464
 20
337.6686261672
 30
0.0
 10
210.8618410715
 20
340.9059125088
 30
0.0
 10
196.4424063799
 20
342.4786035811
 30
0.0
 10
182.0229967798
 20
340.9058353937
 30
0.0
 10
171.3763434179
 20
337.6684990988
 30
0.0
 10
166.5620511444
 20
335.4238608608
 30
0.0
 10
164.3555256284
 20
334.1499303645
 30
0.0
  0
SPLINE
  5
3B2
100
AcDbEntity
  8
0
100
AcDbSpline
 62
7
  6
CONTINUOUS
 70
0
 71
3
 72
9
 73
5
 74
0
 42
0.0000001
 43
0.0000001
 44
0.0000000001
 40
0.0
 40
0.0
 40
0.0
 40
0.0
 40
0.5646617233
 40
1.0
 40
1.0
 40
1.0
 40
1.0
 10
324.5556862365
 20
166.9103312318
 30
0.0
 10
323.9424397999
 20
167.0151473031
 30
0.0
 10
322.8741083908
 20
167.3390725577
 30
0.0
 10
321.9923473691
 20
168.1330658642
 30
0.0
 10
321.8048470562
 20
168.5745516753
 30
0.0
  0
SPLINE
  5
3B3
100
AcDbEntity
  8
0
100
AcDbSpline
 62
7
  6
CONTINUOUS
 70
0
 71
3
 72
9
 73
5
 74
0
 42
0.0000001
 43
0.0000001
 44
0.0000000001
 40
0.0
 40
0.0
 40
0.0
 40
0.0
 40
0.2358395768
 40
1.0
 40
1.0
 40
1.0
 40
1.0
 10
232.0489536748
 20
324.8736034262
 30
0.0
 10
232.0272233782
 20
324.8964228409
 30
0.0
 10
231.9310208773
 20
324.9893010256
 30
0.0
 10
231.8206250578
 20
325.0668553186
 30
0.0
 10
231.7323768895
 20
325.1182046599
 30
0.0
  0
SPLINE
  5
3B4
100
AcDbEntity
  8
0
100
AcDbSpline
 62
7
  6
CONTINUOUS
 70
0
 71
3
 72
9
 73
5
 74
0
 42
0.0000001
 43
0.0000001
 44
0.0000000001
 40
0.0
 40
0.0
 40
0.0
 40
0.0
 40
0.4997042732
 40
1.0
 40
1.0
 40
1.0
 40
1.0
 10
231.7323768895
 20
325.1182046599
 30
0.0
 10
231.3337920969
 20
325.3501309078
 30
0.0
 10
230.3869388418
 20
325.5339423834
 30
0.0
 10
229.4400065384
 20
325.3521047143
 30
0.0
 10
229.0401653514
 20
325.1212576753
 30
0.0
  0
SPLINE
  5
3B5
100
AcDbEntity
  8
0
100
AcDbSpline
 62
7
  6
CONTINUOUS
 70
0
 71
3
 72
9
 73
5
 74
0
 42
0.0000001
 43
0.0000001
 44
0.0000000001
 40
0.0
 40
0.0
 40
0.0
 40
0.0
 40
0.4594134537
 40
1.0
 40
1.0
 40
1.0
 40
1.0
 10
232.2836430135
 20
325.3254032306
 30
0.0
 10
232.2836989945
 20
325.2016978913
 30
0.0
 10
232.1972475503
 20
324.930304719
 30
0.0
 10
231.9984204378
 20
324.7373730959
 30
0.0
 10
231.8814918562
 20
324.6506770886
 30
0.0
  0
SPLINE
  5
3B6
100
AcDbEntity
  8
0
100
AcDbSpline
 62
7
  6
CONTINUOUS
 70
0
 71
3
 72
8
 73
4
 74
0
 42
0.0000001
 43
0.0000001
 44
0.0000000001
 40
0.0
 40
0.0
 40
0.0
 40
0.0
 40
1.0
 40
1.0
 40
1.0
 40
1.0
 10
231.8814918562
 20
324.6506770886
 30
0.0
 10
231.8321199602
 20
324.6140705874
 30
0.0
 10
231.7804103399
 20
324.5804767444
 30
0.0
 10
231.7271823069
 20
324.5497457087
 30
0.0
  0
SPLINE
  5
3B7
100
AcDbEntity
  8
0
100
AcDbSpline
 62
7
  6
CONTINUOUS
 70
0
 71
3
 72
13
 73
9
 74
0
 42
0.0000001
 43
0.0000001
 44
0.0000000001
 40
0.0
 40
0.0
 40
0.0
 40
0.0
 40
0.2699040481
 40
0.5613092475
 40
0.6954524627
 40
0.8131377821
 40
0.9128550148
 40
1.0
 40
1.0
 40
1.0
 40
1.0
 10
331.5649659284
 20
163.0458867433
 30
0.0
 10
330.9306775921
 20
162.6796823876
 30
0.0
 10
329.4145158258
 20
162.2692972668
 30
0.0
 10
327.497508713
 20
162.3665176176
 30
0.0
 10
326.0897881688
 20
162.8353925188
 30
0.0
 10
325.2664918505
 20
163.3371989513
 30
0.0
 10
324.7085082462
 20
163.9714383554
 30
0.0
 10
324.5661711298
 20
164.4831973285
 30
0.0
 10
324.5659920816
 20
164.7196740105
 30
0.0
  0
SPLINE
  5
3B8
100
AcDbEntity
  8
0
100
AcDbSpline
 62
7
  6
CONTINUOUS
 70
0
 71
3
 72
9
 73
5
 74
0
 42
0.0000001
 43
0.0000001
 44
0.0000000001
 40
0.0
 40
0.0
 40
0.0
 40
0.0
 40
0.5000005437
 40
1.0
 40
1.0
 40
1.0
 40
1.0
 10
330.7870745755
 20
212.4848864962
 30
0.0
 10
330.2623734926
 20
212.7878159545
 30
0.0
 10
329.0193058922
 20
213.0273864114
 30
0.0
 10
327.7762384269
 20
212.787810581
 30
0.0
 10
327.2515406696
 20
212.4848779979
 30
0.0
  0
SPLINE
  5
3B9
100
AcDbEntity
  8
0
100
AcDbSpline
 62
7
  6
CONTINUOUS
 70
0
 71
3
 72
11
 73
7
 74
0
 42
0.0000001
 43
0.0000001
 44
0.0000000001
 40
0.0
 40
0.0
 40
0.0
 40
0.0
 40
0.3079115431
 40
0.5793267346
 40
0.8062319001
 40
1.0
 40
1.0
 40
1.0
 40
1.0
 10
325.0424611246
 20
206.9229093255
 30
0.0
 10
324.789871061
 20
206.961983935
 30
0.0
 10
324.3194106438
 20
207.080088377
 30
0.0
 10
323.71824318
 20
207.3895589043
 30
0.0
 10
323.3006930424
 20
207.8041822056
 30
0.0
 10
323.1897271255
 20
208.156240319
 30
0.0
 10
323.1896147522
 20
208.317085393
 30
0.0
  0
SPLINE
  5
3BA
100
AcDbEntity
  8
0
100
AcDbSpline
 62
7
  6
CONTINUOUS
 70
0
 71
3
 72
9
 73
5
 74
0
 42
0.0000001
 43
0.0000001
 44
0.0000000001
 40
0.0
 40
0.0
 40
0.0
 40
0.0
 40
0.5508466513
 40
1.0
 40
1.0
 40
1.0
 40
1.0
 10
325.7666661822
 20
205.5855769526
 30
0.0
 10
325.4275433925
 20
205.3897854875
 30
0.0
 10
324.8449828484
 20
204.9437851231
 30
0.0
 10
324.5657650835
 20
204.2310830658
 30
0.0
 10
324.5659907624
 20
203.9117899785
 30
0.0
  0
SPLINE
  5
3BB
100
AcDbEntity
  8
0
100
AcDbSpline
 62
7
  6
CONTINUOUS
 70
0
 71
3
 72
13
 73
9
 74
0
 42
0.0000001
 43
0.0000001
 44
0.0000000001
 40
0.0
 40
0.0
 40
0.0
 40
0.0
 40
0.2699335874
 40
0.5613258182
 40
0.6954698829
 40
0.8131403132
 40
0.9128521763
 40
1.0
 40
1.0
 40
1.0
 40
1.0
 10
330.5043013407
 20
202.8503638973
 30
0.0
 10
330.102032421
 20
202.6181152146
 30
0.0
 10
329.1405441286
 20
202.357927727
 30
0.0
 10
327.9248529281
 20
202.4194750338
 30
0.0
 10
327.0322535352
 20
202.7169075772
 30
0.0
 10
326.5102239244
 20
203.0352018703
 30
0.0
 10
326.1565535483
 20
203.4373776097
 30
0.0
 10
326.0659260877
 20
203.7618265122
 30
0.0
 10
326.065858224
 20
203.9117897383
 30
0.0
  0
SPLINE
  5
3BC
100
AcDbEntity
  8
0
100
AcDbSpline
 62
7
  6
CONTINUOUS
 70
0
 71
3
 72
9
 73
5
 74
0
 42
0.0000001
 43
0.0000001
 44
0.0000000001
 40
0.0
 40
0.0
 40
0.0
 40
0.0
 40
0.2802172908
 40
1.0
 40
1.0
 40
1.0
 40
1.0
 10
322.8610597835
 20
209.9500478073
 30
0.0
 10
322.7384532108
 20
209.8792612921
 30
0.0
 10
322.317148002
 20
209.6038360333
 30
0.0
 10
321.9534315332
 20
209.2108657198
 30
0.0
 10
321.8089639426
 20
208.8771387321
 30
0.0
  0
SPLINE
  5
3BD
100
AcDbEntity
  8
0
100
AcDbSpline
 62
7
  6
CONTINUOUS
 70
0
 71
3
 72
8
 73
4
 74
0
 42
0.0000001
 43
0.0000001
 44
0.0000000001
 40
0.0
 40
0.0
 40
0.0
 40
0.0
 40
1.0
 40
1.0
 40
1.0
 40
1.0
 10
327.9528319901
 20
154.2060712138
 30
0.0
 10
327.725757935
 20
154.279434183
 30
0.0
 10
327.489063201
 20
154.3269972568
 30
0.0
 10
327.2515318377
 20
154.3498796351
 30
0.0
  0
SPLINE
  5
3BE
100
AcDbEntity
  8
0
100
AcDbSpline
 62
7
  6
CONTINUOUS
 70
0
 71
3
 72
9
 73
5
 74
0
 42
0.0000001
 43
0.0000001
 44
0.0000000001
 40
0.0
 40
0.0
 40
0.0
 40
0.0
 40
0.2587699924
 40
1.0
 40
1.0
 40
1.0
 40
1.0
 10
324.5645773832
 20
196.874480016
 30
0.0
 10
324.4615290035
 20
196.8919392954
 30
0.0
 10
324.0650524841
 20
196.9689625555
 30
0.0
 10
323.6757482992
 20
197.0856807357
 30
0.0
 10
323.3981146222
 20
197.1977039091
 30
0.0
  0
SPLINE
  5
3BF
100
AcDbEntity
  8
0
100
AcDbSpline
 62
7
  6
CONTINUOUS
 70
0
 71
3
 72
13
 73
9
 74
0
 42
0.0000001
 43
0.0000001
 44
0.0000000001
 40
0.0
 40
0.0
 40
0.0
 40
0.0
 40
0.2699040481
 40
0.5613092475
 40
0.6954524627
 40
0.8131377821
 40
0.9128550148
 40
1.0
 40
1.0
 40
1.0
 40
1.0
 10
331.5649659284
 20
193.011525452
 30
0.0
 10
330.9306775921
 20
192.6453210963
 30
0.0
 10
329.4145158258
 20
192.2349359754
 30
0.0
 10
327.497508713
 20
192.3321563262
 30
0.0
 10
326.0897881688
 20
192.8010312275
 30
0.0
 10
325.2664918505
 20
193.30283766
 30
0.0
 10
324.7085082462
 20
193.9370770641
 30
0.0
 10
324.5661711298
 20
194.4488360372
 30
0.0
 10
324.5659920816
 20
194.6853127192
 30
0.0
  0
SPLINE
  5
3C0
100
AcDbEntity
  8
0
100
AcDbSpline
 62
7
  6
CONTINUOUS
 70
0
 71
3
 72
9
 73
5
 74
0
 42
0.0000001
 43
0.0000001
 44
0.0000000001
 40
0.0
 40
0.0
 40
0.0
 40
0.0
 40
0.2375811959
 40
1.0
 40
1.0
 40
1.0
 40
1.0
 10
333.5352703744
 20
325.8403789879
 30
0.0
 10
333.5124068249
 20
325.7945923018
 30
0.0
 10
333.4243639075
 20
325.5977980319
 30
0.0
 10
333.3683299085
 20
325.3874468682
 30
0.0
 10
333.3405543802
 20
325.2255787489
 30
0.0
  0
SPLINE
  5
3C1
100
AcDbEntity
  8
0
100
AcDbSpline
 62
7
  6
CONTINUOUS
 70
0
 71
3
 72
11
 73
7
 74
0
 42
0.0000001
 43
0.0000001
 44
0.0000000001
 40
0.0
 40
0.0
 40
0.0
 40
0.0
 40
0.2253732336
 40
0.4875930485
 40
0.7566895807
 40
1.0
 40
1.0
 40
1.0
 40
1.0
 10
333.3405543802
 20
325.2255787489
 30
0.0
 10
333.2621488542
 20
324.7686529663
 30
0.0
 10
333.3337767033
 20
323.7411144227
 30
0.0
 10
333.8790529032
 20
322.268647907
 30
0.0
 10
334.7775099124
 20
320.9355320299
 30
0.0
 10
335.5862299211
 20
320.2277326167
 30
0.0
 10
336.0196794761
 20
319.9774860608
 30
0.0
  0
SPLINE
  5
3C2
100
AcDbEntity
  8
0
100
AcDbSpline
 62
7
  6
CONTINUOUS
 70
0
 71
3
 72
9
 73
5
 74
0
 42
0.0000001
 43
0.0000001
 44
0.0000000001
 40
0.0
 40
0.0
 40
0.0
 40
0.0
 40
0.4739620061
 40
1.0
 40
1.0
 40
1.0
 40
1.0
 10
332.8530389572
 20
325.9113997629
 30
0.0
 10
333.0225881998
 20
326.0091219144
 30
0.0
 10
333.4311359294
 20
326.1341847349
 30
0.0
 10
333.8508693672
 20
326.0905043032
 30
0.0
 10
334.0620357918
 20
326.0396790514
 30
0.0
  0
SPLINE
  5
3C3
100
AcDbEntity
  8
0
100
AcDbSpline
 62
7
  6
CONTINUOUS
 70
0
 71
3
 72
8
 73
4
 74
0
 42
0.0000001
 43
0.0000001
 44
0.0000000001
 40
0.0
 40
0.0
 40
0.0
 40
0.0
 40
1.0
 40
1.0
 40
1.0
 40
1.0
 10
334.0620357918
 20
326.0396790514
 30
0.0
 10
334.1636861457
 20
326.0152130178
 30
0.0
 10
334.2638690809
 20
325.9839756684
 30
0.0
 10
334.3618048839
 20
325.9473702081
 30
0.0
  0
SPLINE
  5
3C4
100
AcDbEntity
  8
0
100
AcDbSpline
 62
7
  6
CONTINUOUS
 70
0
 71
3
 72
13
 73
9
 74
0
 42
0.0000001
 43
0.0000001
 44
0.0000000001
 40
0.0
 40
0.0
 40
0.0
 40
0.0
 40
0.2699335874
 40
0.5613258182
 40
0.6954698829
 40
0.8131403132
 40
0.9128521763
 40
1.0
 40
1.0
 40
1.0
 40
1.0
 10
330.5043013407
 20
172.8847251887
 30
0.0
 10
330.102032421
 20
172.652476506
 30
0.0
 10
329.1405441286
 20
172.3922890183
 30
0.0
 10
327.9248529281
 20
172.4538363252
 30
0.0
 10
327.0322535352
 20
172.7512688685
 30
0.0
 10
326.5102239244
 20
173.0695631616
 30
0.0
 10
326.1565535483
 20
173.4717389011
 30
0.0
 10
326.0659260877
 20
173.7961878035
 30
0.0
 10
326.065858224
 20
173.9461510297
 30
0.0
  0
SPLINE
  5
3C5
100
AcDbEntity
  8
0
100
AcDbSpline
 62
7
  6
CONTINUOUS
 70
0
 71
3
 72
9
 73
5
 74
0
 42
0.0000001
 43
0.0000001
 44
0.0000000001
 40
0.0
 40
0.0
 40
0.0
 40
0.0
 40
0.2590816813
 40
1.0
 40
1.0
 40
1.0
 40
1.0
 10
325.0424611242
 20
176.957270617
 30
0.0
 10
324.9729952052
 20
176.9680166994
 30
0.0
 10
324.7060558584
 20
177.0164815503
 30
0.0
 10
324.4438012849
 20
177.093163187
 30
0.0
 10
324.2573836454
 20
177.1683813514
 30
0.0
  0
SPLINE
  5
3C6
100
AcDbEntity
  8
0
100
AcDbSpline
 62
7
  6
CONTINUOUS
 70
0
 71
3
 72
9
 73
5
 74
0
 42
0.0000001
 43
0.0000001
 44
0.0000000001
 40
0.0
 40
0.0
 40
0.0
 40
0.0
 40
0.5508466513
 40
1.0
 40
1.0
 40
1.0
 40
1.0
 10
325.7666661822
 20
175.619938244
 30
0.0
 10
325.4275433926
 20
175.4241467788
 30
0.0
 10
324.8449828484
 20
174.9781464144
 30
0.0
 10
324.5657650835
 20
174.2654443571
 30
0.0
 10
324.5659907624
 20
173.9461512699
 30
0.0
  0
SPLINE
  5
3C7
100
AcDbEntity
  8
0
100
AcDbSpline
 62
7
  6
CONTINUOUS
 70
0
 71
3
 72
9
 73
5
 74
0
 42
0.0000001
 43
0.0000001
 44
0.0000000001
 40
0.0
 40
0.0
 40
0.0
 40
0.0
 40
0.2379500985
 40
1.0
 40
1.0
 40
1.0
 40
1.0
 10
334.110590546
 20
326.1419972535
 30
0.0
 10
334.2044123131
 20
326.0878241513
 30
0.0
 10
334.5908331466
 20
325.8466011651
 30
0.0
 10
334.9459883485
 20
325.5568556588
 30
0.0
 10
335.1979754729
 20
325.3183510765
 30
0.0
  0
SPLINE
  5
3C8
100
AcDbEntity
  8
0
100
AcDbSpline
 62
7
  6
CONTINUOUS
 70
0
 71
3
 72
9
 73
5
 74
0
 42
0.0000001
 43
0.0000001
 44
0.0000000001
 40
0.0
 40
0.0
 40
0.0
 40
0.0
 40
0.5161888598
 40
1.0
 40
1.0
 40
1.0
 40
1.0
 10
335.1979754729
 20
325.3183510765
 30
0.0
 10
335.9497344383
 20
324.6068148878
 30
0.0
 10
337.1174128527
 20
322.9230451473
 30
0.0
 10
337.6814032276
 20
320.9273161053
 30
0.0
 10
337.6814032276
 20
319.9571453409
 30
0.0
  0
SPLINE
  5
3C9
100
AcDbEntity
  8
0
100
AcDbSpline
 62
7
  6
CONTINUOUS
 70
0
 71
3
 72
11
 73
7
 74
0
 42
0.0000001
 43
0.0000001
 44
0.0000000001
 40
0.0
 40
0.0
 40
0.0
 40
0.0
 40
0.1937679567
 40
0.420672989
 40
0.6920883169
 40
1.0
 40
1.0
 40
1.0
 40
1.0
 10
332.7656256614
 20
306.219541733
 30
0.0
 10
332.7654414763
 20
306.4833274518
 30
0.0
 10
332.583457286
 20
307.0607022914
 30
0.0
 10
331.8986757769
 20
307.7406847863
 30
0.0
 10
330.9127608695
 20
308.2482164781
 30
0.0
 10
330.1412055329
 20
308.4419080989
 30
0.0
 10
329.7269576522
 20
308.5059904857
 30
0.0
  0
SPLINE
  5
3CA
100
AcDbEntity
  8
0
100
AcDbSpline
 62
7
  6
CONTINUOUS
 70
0
 71
3
 72
8
 73
4
 74
0
 42
0.0000001
 43
0.0000001
 44
0.0000000001
 40
0.0
 40
0.0
 40
0.0
 40
0.0
 40
1.0
 40
1.0
 40
1.0
 40
1.0
 10
337.6573664471
 20
188.1319471844
 30
0.0
 10
337.6373402477
 20
187.9671912843
 30
0.0
 10
337.60400741
 20
187.8031163684
 30
0.0
 10
337.5537273148
 20
187.6449472586
 30
0.0
  0
SPLINE
  5
3CB
100
AcDbEntity
  8
0
100
AcDbSpline
 62
7
  6
CONTINUOUS
 70
0
 71
3
 72
9
 73
5
 74
0
 42
0.0000001
 43
0.0000001
 44
0.0000000001
 40
0.0
 40
0.0
 40
0.0
 40
0.0
 40
0.2651078915
 40
1.0
 40
1.0
 40
1.0
 40
1.0
 10
337.5316078753
 20
187.5789210445
 30
0.0
 10
337.5098093598
 20
187.5170984911
 30
0.0
 10
337.4172890902
 20
187.2878736798
 30
0.0
 10
337.2788263069
 20
187.0755735217
 30
0.0
 10
337.1525936213
 20
186.9448596267
 30
0.0
  0
SPLINE
  5
3CC
100
AcDbEntity
  8
0
100
AcDbSpline
 62
7
  6
CONTINUOUS
 70
0
 71
3
 72
8
 73
4
 74
0
 42
0.0000001
 43
0.0000001
 44
0.0000000001
 40
0.0
 40
0.0
 40
0.0
 40
0.0
 40
1.0
 40
1.0
 40
1.0
 40
1.0
 10
337.1525936213
 20
186.9448596267
 30
0.0
 10
337.0644292071
 20
186.8535654114
 30
0.0
 10
336.9628364717
 20
186.7734202238
 30
0.0
 10
336.8528773321
 20
186.7100436877
 30
0.0
  0
SPLINE
  5
3CD
100
AcDbEntity
  8
0
100
AcDbSpline
 62
7
  6
CONTINUOUS
 70
0
 71
3
 72
9
 73
5
 74
0
 42
0.0000001
 43
0.0000001
 44
0.0000000001
 40
0.0
 40
0.0
 40
0.0
 40
0.0
 40
0.4491582048
 40
1.0
 40
1.0
 40
1.0
 40
1.0
 10
332.7656257033
 20
296.9930644214
 30
0.0
 10
332.7658487766
 20
296.6737694622
 30
0.0
 10
332.4866393145
 20
295.9610706704
 30
0.0
 10
331.9040840483
 20
295.5150670875
 30
0.0
 10
331.5649659284
 20
295.3192783183
 30
0.0
  0
SPLINE
  5
3CE
100
AcDbEntity
  8
0
100
AcDbSpline
 62
7
  6
CONTINUOUS
 70
0
 71
3
 72
9
 73
5
 74
0
 42
0.0000001
 43
0.0000001
 44
0.0000000001
 40
0.0
 40
0.0
 40
0.0
 40
0.0
 40
0.264061731
 40
1.0
 40
1.0
 40
1.0
 40
1.0
 10
337.6534908065
 20
187.6342266236
 30
0.0
 10
337.6205556277
 20
187.5686903675
 30
0.0
 10
337.4814573145
 20
187.3282467845
 30
0.0
 10
337.273016214
 20
187.1260179083
 30
0.0
 10
337.0960634699
 20
187.0236760871
 30
0.0
  0
SPLINE
  5
3CF
100
AcDbEntity
  8
0
100
AcDbSpline
 62
7
  6
CONTINUOUS
 70
0
 71
3
 72
9
 73
5
 74
0
 42
0.0000001
 43
0.0000001
 44
0.0000000001
 40
0.0
 40
0.0
 40
0.0
 40
0.0
 40
0.2356907202
 40
1.0
 40
1.0
 40
1.0
 40
1.0
 10
331.2656953443
 20
306.2195420973
 30
0.0
 10
331.2657390577
 20
306.1569730836
 30
0.0
 10
331.2372587823
 20
305.8909660636
 30
0.0
 10
331.0882472632
 20
305.6488921187
 30
0.0
 10
330.9488625573
 20
305.501443567
 30
0.0
  0
SPLINE
  5
3D0
100
AcDbEntity
  8
0
100
AcDbSpline
 62
7
  6
CONTINUOUS
 70
0
 71
3
 72
9
 73
5
 74
0
 42
0.0000001
 43
0.0000001
 44
0.0000000001
 40
0.0
 40
0.0
 40
0.0
 40
0.0
 40
0.2360105062
 40
1.0
 40
1.0
 40
1.0
 40
1.0
 10
330.9488625573
 20
305.501443567
 30
0.0
 10
330.9184452299
 20
305.4692665011
 30
0.0
 10
330.7836510934
 20
305.338537794
 30
0.0
 10
330.6284320745
 20
305.2297832485
 30
0.0
 10
330.5043013407
 20
305.1581167637
 30
0.0
  0
SPLINE
  5
3D1
100
AcDbEntity
  8
0
100
AcDbSpline
 62
7
  6
CONTINUOUS
 70
0
 71
3
 72
9
 73
5
 74
0
 42
0.0000001
 43
0.0000001
 44
0.0000000001
 40
0.0
 40
0.0
 40
0.0
 40
0.0
 40
0.5646617233
 40
1.0
 40
1.0
 40
1.0
 40
1.0
 10
324.5556862365
 20
299.1837228068
 30
0.0
 10
323.9424397999
 20
299.2885388781
 30
0.0
 10
322.8741083909
 20
299.6124641327
 30
0.0
 10
321.9923473691
 20
300.4064574391
 30
0.0
 10
321.8048470562
 20
300.8479432503
 30
0.0
  0
SPLINE
  5
3D2
100
AcDbEntity
  8
0
100
AcDbSpline
 62
7
  6
CONTINUOUS
 70
0
 71
3
 72
13
 73
9
 74
0
 42
0.0000001
 43
0.0000001
 44
0.0000000001
 40
0.0
 40
0.0
 40
0.0
 40
0.0
 40
0.2699040481
 40
0.5613092475
 40
0.6954524627
 40
0.8131377821
 40
0.9128550148
 40
1.0
 40
1.0
 40
1.0
 40
1.0
 10
331.5649659284
 20
295.3192783183
 30
0.0
 10
330.9306775921
 20
294.9530739626
 30
0.0
 10
329.4145158258
 20
294.5426888418
 30
0.0
 10
327.497508713
 20
294.6399091926
 30
0.0
 10
326.0897881688
 20
295.1087840938
 30
0.0
 10
325.2664918505
 20
295.6105905263
 30
0.0
 10
324.7085082462
 20
296.2448299304
 30
0.0
 10
324.5661711298
 20
296.7565889035
 30
0.0
 10
324.5659920816
 20
296.9930655855
 30
0.0
  0
SPLINE
  5
3D3
100
AcDbEntity
  8
0
100
AcDbSpline
 62
7
  6
CONTINUOUS
 70
0
 71
3
 72
11
 73
7
 74
0
 42
0.0000001
 43
0.0000001
 44
0.0000000001
 40
0.0
 40
0.0
 40
0.0
 40
0.0
 40
0.1937679567
 40
0.420672989
 40
0.6920883169
 40
1.0
 40
1.0
 40
1.0
 40
1.0
 10
332.7656256614
 20
336.1851804417
 30
0.0
 10
332.7654414763
 20
336.4489661605
 30
0.0
 10
332.583457286
 20
337.0263410001
 30
0.0
 10
331.8986757768
 20
337.706323495
 30
0.0
 10
330.9127608695
 20
338.2138551868
 30
0.0
 10
330.1412055328
 20
338.4075468076
 30
0.0
 10
329.7269576521
 20
338.4716291944
 30
0.0
  0
SPLINE
  5
3D4
100
AcDbEntity
  8
0
100
AcDbSpline
 62
7
  6
CONTINUOUS
 70
0
 71
3
 72
9
 73
5
 74
0
 42
0.0000001
 43
0.0000001
 44
0.0000000001
 40
0.0
 40
0.0
 40
0.0
 40
0.0
 40
0.4491582048
 40
1.0
 40
1.0
 40
1.0
 40
1.0
 10
332.7656257033
 20
326.9587031301
 30
0.0
 10
332.7658487766
 20
326.6394081708
 30
0.0
 10
332.4866393145
 20
325.926709379
 30
0.0
 10
331.9040840483
 20
325.4807057961
 30
0.0
 10
331.5649659284
 20
325.284917027
 30
0.0
  0
SPLINE
  5
3D5
100
AcDbEntity
  8
0
100
AcDbSpline
 62
7
  6
CONTINUOUS
 70
0
 71
3
 72
9
 73
5
 74
0
 42
0.0000001
 43
0.0000001
 44
0.0000000001
 40
0.0
 40
0.0
 40
0.0
 40
0.0
 40
0.5000005437
 40
1.0
 40
1.0
 40
1.0
 40
1.0
 10
330.7870745755
 20
344.7582780712
 30
0.0
 10
330.2623734926
 20
345.0612075295
 30
0.0
 10
329.0193058922
 20
345.3007779864
 30
0.0
 10
327.7762384269
 20
345.061202156
 30
0.0
 10
327.2515406696
 20
344.7582695728
 30
0.0
  0
SPLINE
  5
3D6
100
AcDbEntity
  8
0
100
AcDbSpline
 62
7
  6
CONTINUOUS
 70
0
 71
3
 72
11
 73
7
 74
0
 42
0.0000001
 43
0.0000001
 44
0.0000000001
 40
0.0
 40
0.0
 40
0.0
 40
0.0
 40
0.3079115431
 40
0.5793267346
 40
0.8062319001
 40
1.0
 40
1.0
 40
1.0
 40
1.0
 10
325.0424611246
 20
339.1963009005
 30
0.0
 10
324.789871061
 20
339.23537551
 30
0.0
 10
324.3194106438
 20
339.353479952
 30
0.0
 10
323.71824318
 20
339.6629504793
 30
0.0
 10
323.3006930424
 20
340.0775737806
 30
0.0
 10
323.1897271255
 20
340.429631894
 30
0.0
 10
323.1896147522
 20
340.590476968
 30
0.0
  0
SPLINE
  5
3D7
100
AcDbEntity
  8
0
100
AcDbSpline
 62
7
  6
CONTINUOUS
 70
0
 71
3
 72
9
 73
5
 74
0
 42
0.0000001
 43
0.0000001
 44
0.0000000001
 40
0.0
 40
0.0
 40
0.0
 40
0.0
 40
0.5508466513
 40
1.0
 40
1.0
 40
1.0
 40
1.0
 10
325.7666661822
 20
337.8589685276
 30
0.0
 10
325.4275433925
 20
337.6631770624
 30
0.0
 10
324.8449828484
 20
337.217176698
 30
0.0
 10
324.5657650835
 20
336.5044746408
 30
0.0
 10
324.5659907624
 20
336.1851815535
 30
0.0
  0
SPLINE
  5
3D8
100
AcDbEntity
  8
0
100
AcDbSpline
 62
7
  6
CONTINUOUS
 70
0
 71
3
 72
13
 73
9
 74
0
 42
0.0000001
 43
0.0000001
 44
0.0000000001
 40
0.0
 40
0.0
 40
0.0
 40
0.0
 40
0.2699335874
 40
0.5613258182
 40
0.6954698829
 40
0.8131403132
 40
0.9128521763
 40
1.0
 40
1.0
 40
1.0
 40
1.0
 10
330.5043013407
 20
335.1237554723
 30
0.0
 10
330.102032421
 20
334.8915067896
 30
0.0
 10
329.1405441286
 20
334.631319302
 30
0.0
 10
327.9248529281
 20
334.6928666088
 30
0.0
 10
327.0322535352
 20
334.9902991521
 30
0.0
 10
326.5102239244
 20
335.3085934453
 30
0.0
 10
326.1565535483
 20
335.7107691847
 30
0.0
 10
326.0659260877
 20
336.0352180872
 30
0.0
 10
326.065858224
 20
336.1851813133
 30
0.0
  0
SPLINE
  5
3D9
100
AcDbEntity
  8
0
100
AcDbSpline
 62
7
  6
CONTINUOUS
 70
0
 71
3
 72
9
 73
5
 74
0
 42
0.0000001
 43
0.0000001
 44
0.0000000001
 40
0.0
 40
0.0
 40
0.0
 40
0.0
 40
0.2802172908
 40
1.0
 40
1.0
 40
1.0
 40
1.0
 10
322.8610597835
 20
342.2234393823
 30
0.0
 10
322.7384532108
 20
342.1526528671
 30
0.0
 10
322.317148002
 20
341.8772276083
 30
0.0
 10
321.9534315333
 20
341.4842572948
 30
0.0
 10
321.8089639426
 20
341.1505303071
 30
0.0
  0
SPLINE
  5
3DA
100
AcDbEntity
  8
0
100
AcDbSpline
 62
7
  6
CONTINUOUS
 70
0
 71
3
 72
9
 73
5
 74
0
 42
0.0000001
 43
0.0000001
 44
0.0000000001
 40
0.0
 40
0.0
 40
0.0
 40
0.0
 40
0.2587699924
 40
1.0
 40
1.0
 40
1.0
 40
1.0
 10
324.5645773832
 20
329.147871591
 30
0.0
 10
324.4615290035
 20
329.1653308704
 30
0.0
 10
324.0650524841
 20
329.2423541305
 30
0.0
 10
323.6757482992
 20
329.3590723107
 30
0.0
 10
323.3981146222
 20
329.4710954841
 30
0.0
  0
SPLINE
  5
3DB
100
AcDbEntity
  8
0
100
AcDbSpline
 62
7
  6
CONTINUOUS
 70
0
 71
3
 72
9
 73
5
 74
0
 42
0.0000001
 43
0.0000001
 44
0.0000000001
 40
0.0
 40
0.0
 40
0.0
 40
0.0
 40
0.4491582048
 40
1.0
 40
1.0
 40
1.0
 40
1.0
 10
331.2656953443
 20
336.185180806
 30
0.0
 10
331.2658368054
 20
335.9827010757
 30
0.0
 10
331.0887771465
 20
335.5307457444
 30
0.0
 10
330.7193518557
 20
335.247914204
 30
0.0
 10
330.5043013407
 20
335.1237554723
 30
0.0
  0
SPLINE
  5
3DC
100
AcDbEntity
  8
0
100
AcDbSpline
 62
7
  6
CONTINUOUS
 70
0
 71
3
 72
13
 73
9
 74
0
 42
0.0000001
 43
0.0000001
 44
0.0000000001
 40
0.0
 40
0.0
 40
0.0
 40
0.0
 40
0.2699040481
 40
0.5613092475
 40
0.6954524627
 40
0.8131377821
 40
0.9128550148
 40
1.0
 40
1.0
 40
1.0
 40
1.0
 10
331.5649659284
 20
325.284917027
 30
0.0
 10
330.9306775921
 20
324.9187126713
 30
0.0
 10
329.4145158258
 20
324.5083275504
 30
0.0
 10
327.497508713
 20
324.6055479012
 30
0.0
 10
326.0897881688
 20
325.0744228025
 30
0.0
 10
325.2664918505
 20
325.5762292349
 30
0.0
 10
324.7085082462
 20
326.2104686391
 30
0.0
 10
324.5661711298
 20
326.7222276122
 30
0.0
 10
324.5659920816
 20
326.9587042942
 30
0.0
  0
SPLINE
  5
3DD
100
AcDbEntity
  8
0
100
AcDbSpline
 62
7
  6
CONTINUOUS
 70
0
 71
3
 72
9
 73
5
 74
0
 42
0.0000001
 43
0.0000001
 44
0.0000000001
 40
0.0
 40
0.0
 40
0.0
 40
0.0
 40
0.2375811959
 40
1.0
 40
1.0
 40
1.0
 40
1.0
 10
333.5352703744
 20
193.5669874129
 30
0.0
 10
333.5124068249
 20
193.5212007268
 30
0.0
 10
333.4243639075
 20
193.3244064569
 30
0.0
 10
333.3683299085
 20
193.1140552932
 30
0.0
 10
333.3405543802
 20
192.9521871739
 30
0.0
  0
SPLINE
  5
3DE
100
AcDbEntity
  8
0
100
AcDbSpline
 62
7
  6
CONTINUOUS
 70
0
 71
3
 72
11
 73
7
 74
0
 42
0.0000001
 43
0.0000001
 44
0.0000000001
 40
0.0
 40
0.0
 40
0.0
 40
0.0
 40
0.2253732336
 40
0.4875930485
 40
0.7566895807
 40
1.0
 40
1.0
 40
1.0
 40
1.0
 10
333.3405543802
 20
192.9521871739
 30
0.0
 10
333.2621488542
 20
192.4952613913
 30
0.0
 10
333.3337767033
 20
191.4677228477
 30
0.0
 10
333.8790529032
 20
189.995256332
 30
0.0
 10
334.7775099124
 20
188.6621404549
 30
0.0
 10
335.5862299211
 20
187.9543410417
 30
0.0
 10
336.0196794761
 20
187.7040944858
 30
0.0
  0
SPLINE
  5
3DF
100
AcDbEntity
  8
0
100
AcDbSpline
 62
7
  6
CONTINUOUS
 70
0
 71
3
 72
13
 73
9
 74
0
 42
0.0000001
 43
0.0000001
 44
0.0000000001
 40
0.0
 40
0.0
 40
0.0
 40
0.0
 40
0.2699335874
 40
0.5613258182
 40
0.6954698829
 40
0.8131403132
 40
0.9128521763
 40
1.0
 40
1.0
 40
1.0
 40
1.0
 10
330.5043013407
 20
305.1581167637
 30
0.0
 10
330.102032421
 20
304.925868081
 30
0.0
 10
329.1405441286
 20
304.6656805933
 30
0.0
 10
327.9248529281
 20
304.7272279002
 30
0.0
 10
327.0322535352
 20
305.0246604435
 30
0.0
 10
326.5102239244
 20
305.3429547366
 30
0.0
 10
326.1565535483
 20
305.7451304761
 30
0.0
 10
326.0659260877
 20
306.0695793785
 30
0.0
 10
326.065858224
 20
306.2195426047
 30
0.0
  0
SPLINE
  5
3E0
100
AcDbEntity
  8
0
100
AcDbSpline
 62
7
  6
CONTINUOUS
 70
0
 71
3
 72
9
 73
5
 74
0
 42
0.0000001
 43
0.0000001
 44
0.0000000001
 40
0.0
 40
0.0
 40
0.0
 40
0.0
 40
0.2590816813
 40
1.0
 40
1.0
 40
1.0
 40
1.0
 10
325.0424611242
 20
309.2306621919
 30
0.0
 10
324.9729952052
 20
309.2414082744
 30
0.0
 10
324.7060558584
 20
309.2898731253
 30
0.0
 10
324.4438012849
 20
309.366554762
 30
0.0
 10
324.2573836454
 20
309.4417729264
 30
0.0
  0
SPLINE
  5
3E1
100
AcDbEntity
  8
0
100
AcDbSpline
 62
7
  6
CONTINUOUS
 70
0
 71
3
 72
9
 73
5
 74
0
 42
0.0000001
 43
0.0000001
 44
0.0000000001
 40
0.0
 40
0.0
 40
0.0
 40
0.0
 40
0.5508466513
 40
1.0
 40
1.0
 40
1.0
 40
1.0
 10
325.7666661822
 20
307.8933298189
 30
0.0
 10
325.4275433926
 20
307.6975383538
 30
0.0
 10
324.8449828484
 20
307.2515379894
 30
0.0
 10
324.5657650835
 20
306.5388359321
 30
0.0
 10
324.5659907624
 20
306.2195428449
 30
0.0
  0
SPLINE
  5
3E2
100
AcDbEntity
  8
0
100
AcDbSpline
 62
7
  6
CONTINUOUS
 70
0
 71
3
 72
9
 73
5
 74
0
 42
0.0000001
 43
0.0000001
 44
0.0000000001
 40
0.0
 40
0.0
 40
0.0
 40
0.0
 40
0.4739620061
 40
1.0
 40
1.0
 40
1.0
 40
1.0
 10
332.8530389572
 20
193.638008188
 30
0.0
 10
333.0225881998
 20
193.7357303394
 30
0.0
 10
333.4311359294
 20
193.8607931599
 30
0.0
 10
333.8508693672
 20
193.8171127282
 30
0.0
 10
334.0620357918
 20
193.7662874764
 30
0.0
  0
SPLINE
  5
3E3
100
AcDbEntity
  8
0
100
AcDbSpline
 62
7
  6
CONTINUOUS
 70
0
 71
3
 72
8
 73
4
 74
0
 42
0.0000001
 43
0.0000001
 44
0.0000000001
 40
0.0
 40
0.0
 40
0.0
 40
0.0
 40
1.0
 40
1.0
 40
1.0
 40
1.0
 10
334.0620357918
 20
193.7662874764
 30
0.0
 10
334.1636861457
 20
193.7418214428
 30
0.0
 10
334.2638690809
 20
193.7105840934
 30
0.0
 10
334.3618048839
 20
193.6739786331
 30
0.0
  0
SPLINE
  5
3E4
100
AcDbEntity
  8
0
100
AcDbSpline
 62
7
  6
CONTINUOUS
 70
0
 71
3
 72
8
 73
4
 74
0
 42
0.0000001
 43
0.0000001
 44
0.0000000001
 40
0.0
 40
0.0
 40
0.0
 40
0.0
 40
1.0
 40
1.0
 40
1.0
 40
1.0
 10
337.6573664471
 20
320.4053387594
 30
0.0
 10
337.6373402477
 20
320.2405828593
 30
0.0
 10
337.60400741
 20
320.0765079434
 30
0.0
 10
337.5537273148
 20
319.9183388336
 30
0.0
  0
SPLINE
  5
3E5
100
AcDbEntity
  8
0
100
AcDbSpline
 62
7
  6
CONTINUOUS
 70
0
 71
3
 72
9
 73
5
 74
0
 42
0.0000001
 43
0.0000001
 44
0.0000000001
 40
0.0
 40
0.0
 40
0.0
 40
0.0
 40
0.2651078915
 40
1.0
 40
1.0
 40
1.0
 40
1.0
 10
337.5316078753
 20
319.8523126195
 30
0.0
 10
337.5098093598
 20
319.7904900661
 30
0.0
 10
337.4172890902
 20
319.5612652547
 30
0.0
 10
337.2788263069
 20
319.3489650967
 30
0.0
 10
337.1525936213
 20
319.2182512017
 30
0.0
  0
SPLINE
  5
3E6
100
AcDbEntity
  8
0
100
AcDbSpline
 62
7
  6
CONTINUOUS
 70
0
 71
3
 72
8
 73
4
 74
0
 42
0.0000001
 43
0.0000001
 44
0.0000000001
 40
0.0
 40
0.0
 40
0.0
 40
0.0
 40
1.0
 40
1.0
 40
1.0
 40
1.0
 10
337.1525936213
 20
319.2182512017
 30
0.0
 10
337.0644292071
 20
319.1269569864
 30
0.0
 10
336.9628364717
 20
319.0468117988
 30
0.0
 10
336.8528773321
 20
318.9834352627
 30
0.0
  0
SPLINE
  5
3E7
100
AcDbEntity
  8
0
100
AcDbSpline
 62
7
  6
CONTINUOUS
 70
0
 71
3
 72
9
 73
5
 74
0
 42
0.0000001
 43
0.0000001
 44
0.0000000001
 40
0.0
 40
0.0
 40
0.0
 40
0.0
 40
0.2379500985
 40
1.0
 40
1.0
 40
1.0
 40
1.0
 10
334.110590546
 20
193.8686056785
 30
0.0
 10
334.2044123131
 20
193.8144325763
 30
0.0
 10
334.5908331466
 20
193.5732095901
 30
0.0
 10
334.9459883485
 20
193.2834640838
 30
0.0
 10
335.1979754729
 20
193.0449595015
 30
0.0
  0
SPLINE
  5
3E8
100
AcDbEntity
  8
0
100
AcDbSpline
 62
7
  6
CONTINUOUS
 70
0
 71
3
 72
9
 73
5
 74
0
 42
0.0000001
 43
0.0000001
 44
0.0000000001
 40
0.0
 40
0.0
 40
0.0
 40
0.0
 40
0.5161888598
 40
1.0
 40
1.0
 40
1.0
 40
1.0
 10
335.1979754729
 20
193.0449595015
 30
0.0
 10
335.9497344383
 20
192.3334233128
 30
0.0
 10
337.1174128527
 20
190.6496535723
 30
0.0
 10
337.6814032276
 20
188.6539245303
 30
0.0
 10
337.6814032276
 20
187.683753766
 30
0.0
  0
SPLINE
  5
3E9
100
AcDbEntity
  8
0
100
AcDbSpline
 62
7
  6
CONTINUOUS
 70
0
 71
3
 72
11
 73
7
 74
0
 42
0.0000001
 43
0.0000001
 44
0.0000000001
 40
0.0
 40
0.0
 40
0.0
 40
0.0
 40
0.1937679567
 40
0.420672989
 40
0.6920883169
 40
1.0
 40
1.0
 40
1.0
 40
1.0
 10
332.7656256614
 20
173.946150158
 30
0.0
 10
332.7654414763
 20
174.2099358768
 30
0.0
 10
332.583457286
 20
174.7873107165
 30
0.0
 10
331.8986757769
 20
175.4672932113
 30
0.0
 10
330.9127608695
 20
175.9748249031
 30
0.0
 10
330.1412055329
 20
176.168516524
 30
0.0
 10
329.7269576522
 20
176.2325989108
 30
0.0
  0
SPLINE
  5
3EA
100
AcDbEntity
  8
0
100
AcDbSpline
 62
7
  6
CONTINUOUS
 70
0
 71
3
 72
9
 73
5
 74
0
 42
0.0000001
 43
0.0000001
 44
0.0000000001
 40
0.0
 40
0.0
 40
0.0
 40
0.0
 40
0.264061731
 40
1.0
 40
1.0
 40
1.0
 40
1.0
 10
337.6534908065
 20
319.9076181985
 30
0.0
 10
337.6205556277
 20
319.8420819425
 30
0.0
 10
337.4814573145
 20
319.6016383595
 30
0.0
 10
337.273016214
 20
319.3994094833
 30
0.0
 10
337.0960634699
 20
319.2970676621
 30
0.0
  0
SPLINE
  5
3EB
100
AcDbEntity
  8
0
100
AcDbSpline
 62
7
  6
CONTINUOUS
 70
0
 71
3
 72
9
 73
5
 74
0
 42
0.0000001
 43
0.0000001
 44
0.0000000001
 40
0.0
 40
0.0
 40
0.0
 40
0.0
 40
0.4491582048
 40
1.0
 40
1.0
 40
1.0
 40
1.0
 10
332.7656257033
 20
164.7196728464
 30
0.0
 10
332.7658487766
 20
164.4003778872
 30
0.0
 10
332.4866393145
 20
163.6876790954
 30
0.0
 10
331.9040840483
 20
163.2416755125
 30
0.0
 10
331.5649659284
 20
163.0458867433
 30
0.0
  0
SPLINE
  5
3EC
100
AcDbEntity
  8
0
100
AcDbSpline
 62
7
  6
CONTINUOUS
 70
0
 71
3
 72
9
 73
5
 74
0
 42
0.0000001
 43
0.0000001
 44
0.0000000001
 40
0.0
 40
0.0
 40
0.0
 40
0.0
 40
0.2356907202
 40
1.0
 40
1.0
 40
1.0
 40
1.0
 10
331.2656953443
 20
173.9461505224
 30
0.0
 10
331.2657390577
 20
173.8835815086
 30
0.0
 10
331.2372587823
 20
173.6175744886
 30
0.0
 10
331.0882472632
 20
173.3755005437
 30
0.0
 10
330.9488625573
 20
173.228051992
 30
0.0
  0
SPLINE
  5
3ED
100
AcDbEntity
  8
0
100
AcDbSpline
 62
7
  6
CONTINUOUS
 70
0
 71
3
 72
9
 73
5
 74
0
 42
0.0000001
 43
0.0000001
 44
0.0000000001
 40
0.0
 40
0.0
 40
0.0
 40
0.0
 40
0.2360105062
 40
1.0
 40
1.0
 40
1.0
 40
1.0
 10
330.9488625573
 20
173.228051992
 30
0.0
 10
330.9184452299
 20
173.1958749261
 30
0.0
 10
330.7836510934
 20
173.065146219
 30
0.0
 10
330.6284320745
 20
172.9563916735
 30
0.0
 10
330.5043013407
 20
172.8847251887
 30
0.0
  0
SPLINE
  5
3EE
100
AcDbEntity
  8
0
100
AcDbSpline
 62
7
  6
CONTINUOUS
 70
0
 71
3
 72
11
 73
7
 74
0
 42
0.0000001
 43
0.0000001
 44
0.0000000001
 40
0.0
 40
0.0
 40
0.0
 40
0.0
 40
0.1937679567
 40
0.420672989
 40
0.6920883169
 40
1.0
 40
1.0
 40
1.0
 40
1.0
 10
332.7656256614
 20
203.9117888667
 30
0.0
 10
332.7654414763
 20
204.1755745855
 30
0.0
 10
332.583457286
 20
204.7529494251
 30
0.0
 10
331.8986757768
 20
205.43293192
 30
0.0
 10
330.9127608695
 20
205.9404636118
 30
0.0
 10
330.1412055328
 20
206.1341552326
 30
0.0
 10
329.7269576521
 20
206.1982376194
 30
0.0
  0
SPLINE
  5
3EF
100
AcDbEntity
  8
0
100
AcDbSpline
 62
7
  6
CONTINUOUS
 70
0
 71
3
 72
9
 73
5
 74
0
 42
0.0000001
 43
0.0000001
 44
0.0000000001
 40
0.0
 40
0.0
 40
0.0
 40
0.0
 40
0.4491582048
 40
1.0
 40
1.0
 40
1.0
 40
1.0
 10
332.7656257033
 20
194.6853115551
 30
0.0
 10
332.7658487766
 20
194.3660165958
 30
0.0
 10
332.4866393145
 20
193.653317804
 30
0.0
 10
331.9040840483
 20
193.2073142211
 30
0.0
 10
331.5649659284
 20
193.011525452
 30
0.0
  0
SPLINE
  5
3F0
100
AcDbEntity
  8
0
100
AcDbSpline
 62
7
  6
CONTINUOUS
 70
0
 71
3
 72
9
 73
5
 74
0
 42
0.0000001
 43
0.0000001
 44
0.0000000001
 40
0.0
 40
0.0
 40
0.0
 40
0.0
 40
0.4491582048
 40
1.0
 40
1.0
 40
1.0
 40
1.0
 10
331.2656953443
 20
203.911789231
 30
0.0
 10
331.2658368054
 20
203.7093095007
 30
0.0
 10
331.0887771465
 20
203.2573541694
 30
0.0
 10
330.7193518557
 20
202.974522629
 30
0.0
 10
330.5043013407
 20
202.8503638973
 30
0.0
  0
SPLINE
  5
3F1
100
AcDbEntity
  8
0
100
AcDbSpline
 62
7
  6
CONTINUOUS
 70
0
 71
3
 72
8
 73
4
 74
0
 42
0.0000001
 43
0.0000001
 44
0.0000000001
 40
0.0
 40
0.0
 40
0.0
 40
0.0
 40
1.0
 40
1.0
 40
1.0
 40
1.0
 10
328.3026763144
 20
154.636638617
 30
0.0
 10
328.381765475
 20
154.5585744272
 30
0.0
 10
328.4607601766
 20
154.4803956963
 30
0.0
 10
328.5383039141
 20
154.4007961874
 30
0.0
  0
SPLINE
  5
3F2
100
AcDbEntity
  8
0
100
AcDbSpline
 62
7
  6
CONTINUOUS
 70
0
 71
3
 72
9
 73
5
 74
0
 42
0.0000001
 43
0.0000001
 44
0.0000000001
 40
0.0
 40
0.0
 40
0.0
 40
0.0
 40
0.2348122633
 40
1.0
 40
1.0
 40
1.0
 40
1.0
 10
328.5383039141
 20
154.4007961874
 30
0.0
 10
328.5823342309
 20
154.3555985776
 30
0.0
 10
328.767911254
 20
154.1612963768
 30
0.0
 10
328.9429873872
 20
153.9564738314
 30
0.0
 10
329.0659759424
 20
153.7916880882
 30
0.0
  0
SPLINE
  5
3F3
100
AcDbEntity
  8
0
100
AcDbSpline
 62
7
  6
CONTINUOUS
 70
0
 71
3
 72
8
 73
4
 74
0
 42
0.0000001
 43
0.0000001
 44
0.0000000001
 40
0.0
 40
0.0
 40
0.0
 40
0.0
 40
1.0
 40
1.0
 40
1.0
 40
1.0
 10
329.0659759424
 20
153.7916880882
 30
0.0
 10
329.2398762838
 20
153.5586883838
 30
0.0
 10
329.3937212934
 20
153.3080602203
 30
0.0
 10
329.5142770702
 20
153.0434917119
 30
0.0
  0
SPLINE
  5
3F4
100
AcDbEntity
  8
0
100
AcDbSpline
 62
7
  6
CONTINUOUS
 70
0
 71
3
 72
8
 73
4
 74
0
 42
0.0000001
 43
0.0000001
 44
0.0000000001
 40
0.0
 40
0.0
 40
0.0
 40
0.0
 40
1.0
 40
1.0
 40
1.0
 40
1.0
 10
229.0401653514
 20
325.1212576753
 30
0.0
 10
228.9869385612
 20
325.0905273571
 30
0.0
 10
228.9352298819
 20
325.0569348152
 30
0.0
 10
228.8858585311
 20
325.020329988
 30
0.0
  0
SPLINE
  5
3F5
100
AcDbEntity
  8
0
100
AcDbSpline
 62
7
  6
CONTINUOUS
 70
0
 71
3
 72
8
 73
4
 74
0
 42
0.0000001
 43
0.0000001
 44
0.0000000001
 40
0.0
 40
0.0
 40
0.0
 40
0.0
 40
1.0
 40
1.0
 40
1.0
 40
1.0
 10
228.8858585311
 20
325.020329988
 30
0.0
 10
228.8264650516
 20
324.9762945704
 30
0.0
 10
228.770079435
 20
324.9276353225
 30
0.0
 10
228.7190292537
 20
324.8741509097
 30
0.0
  0
SPLINE
  5
3F6
100
AcDbEntity
  8
0
100
AcDbSpline
 62
7
  6
CONTINUOUS
 70
0
 71
3
 72
8
 73
4
 74
0
 42
0.0000001
 43
0.0000001
 44
0.0000000001
 40
0.0
 40
0.0
 40
0.0
 40
0.0
 40
1.0
 40
1.0
 40
1.0
 40
1.0
 10
137.1166665136
 20
272.049517672
 30
0.0
 10
137.0634397234
 20
272.0187873538
 30
0.0
 10
137.0117310441
 20
271.9851948119
 30
0.0
 10
136.9623596933
 20
271.9485899847
 30
0.0
  0
SPLINE
  5
3F7
100
AcDbEntity
  8
0
100
AcDbSpline
 62
7
  6
CONTINUOUS
 70
0
 71
3
 72
8
 73
4
 74
0
 42
0.0000001
 43
0.0000001
 44
0.0000000001
 40
0.0
 40
0.0
 40
0.0
 40
0.0
 40
1.0
 40
1.0
 40
1.0
 40
1.0
 10
136.9623596933
 20
271.9485899847
 30
0.0
 10
136.9029662138
 20
271.9045545671
 30
0.0
 10
136.8465805971
 20
271.8558953192
 30
0.0
 10
136.7955304159
 20
271.8024109065
 30
0.0
  0
SPLINE
  5
3F8
100
AcDbEntity
  8
0
100
AcDbSpline
 62
7
  6
CONTINUOUS
 70
0
 71
3
 72
8
 73
4
 74
0
 42
0.0000001
 43
0.0000001
 44
0.0000000001
 40
0.0
 40
0.0
 40
0.0
 40
0.0
 40
1.0
 40
1.0
 40
1.0
 40
1.0
 10
300.4590130225
 20
177.7459033779
 30
0.0
 10
300.4057862323
 20
177.7151730597
 30
0.0
 10
300.3540775531
 20
177.6815805177
 30
0.0
 10
300.3047062023
 20
177.6449756905
 30
0.0
  0
SPLINE
  5
3F9
100
AcDbEntity
  8
0
100
AcDbSpline
 62
7
  6
CONTINUOUS
 70
0
 71
3
 72
8
 73
4
 74
0
 42
0.0000001
 43
0.0000001
 44
0.0000000001
 40
0.0
 40
0.0
 40
0.0
 40
0.0
 40
1.0
 40
1.0
 40
1.0
 40
1.0
 10
300.3047062023
 20
177.6449756905
 30
0.0
 10
300.2453127228
 20
177.6009402729
 30
0.0
 10
300.1889271061
 20
177.552281025
 30
0.0
 10
300.1378769249
 20
177.4987966123
 30
0.0
  0
SPLINE
  5
3FA
100
AcDbEntity
  8
0
100
AcDbSpline
 62
7
  6
CONTINUOUS
 70
0
 71
3
 72
8
 73
4
 74
0
 42
0.0000001
 43
0.0000001
 44
0.0000000001
 40
0.0
 40
0.0
 40
0.0
 40
0.0
 40
1.0
 40
1.0
 40
1.0
 40
1.0
 10
149.1371491254
 20
318.1809438907
 30
0.0
 10
149.0839223352
 20
318.1502135725
 30
0.0
 10
149.032213656
 20
318.1166210305
 30
0.0
 10
148.9828423052
 20
318.0800162034
 30
0.0
  0
SPLINE
  5
3FB
100
AcDbEntity
  8
0
100
AcDbSpline
 62
7
  6
CONTINUOUS
 70
0
 71
3
 72
8
 73
4
 74
0
 42
0.0000001
 43
0.0000001
 44
0.0000000001
 40
0.0
 40
0.0
 40
0.0
 40
0.0
 40
1.0
 40
1.0
 40
1.0
 40
1.0
 10
148.9828423052
 20
318.0800162034
 30
0.0
 10
148.9234488257
 20
318.0359807857
 30
0.0
 10
148.867063209
 20
317.9873215379
 30
0.0
 10
148.8160130278
 20
317.9338371251
 30
0.0
  0
SPLINE
  5
3FC
100
AcDbEntity
  8
0
100
AcDbSpline
 62
7
  6
CONTINUOUS
 70
0
 71
3
 72
8
 73
4
 74
0
 42
0.0000001
 43
0.0000001
 44
0.0000000001
 40
0.0
 40
0.0
 40
0.0
 40
0.0
 40
1.0
 40
1.0
 40
1.0
 40
1.0
 10
310.7113386058
 20
277.9694505282
 30
0.0
 10
310.6581118157
 20
277.93872021
 30
0.0
 10
310.6064031364
 20
277.9051276681
 30
0.0
 10
310.5570317856
 20
277.8685228409
 30
0.0
  0
SPLINE
  5
3FD
100
AcDbEntity
  8
0
100
AcDbSpline
 62
7
  6
CONTINUOUS
 70
0
 71
3
 72
8
 73
4
 74
0
 42
0.0000001
 43
0.0000001
 44
0.0000000001
 40
0.0
 40
0.0
 40
0.0
 40
0.0
 40
1.0
 40
1.0
 40
1.0
 40
1.0
 10
310.5570317856
 20
277.8685228409
 30
0.0
 10
310.4976383061
 20
277.8244874233
 30
0.0
 10
310.4412526894
 20
277.7758281754
 30
0.0
 10
310.3902025082
 20
277.7223437627
 30
0.0
  0
SPLINE
  5
3FE
100
AcDbEntity
  8
0
100
AcDbSpline
 62
7
  6
CONTINUOUS
 70
0
 71
3
 72
8
 73
4
 74
0
 42
0.0000001
 43
0.0000001
 44
0.0000000001
 40
0.0
 40
0.0
 40
0.0
 40
0.0
 40
1.0
 40
1.0
 40
1.0
 40
1.0
 10
218.787839768
 20
224.8977105249
 30
0.0
 10
218.7346129779
 20
224.8669802068
 30
0.0
 10
218.6829042986
 20
224.8333876648
 30
0.0
 10
218.6335329478
 20
224.7967828376
 30
0.0
  0
SPLINE
  5
3FF
100
AcDbEntity
  8
0
100
AcDbSpline
 62
7
  6
CONTINUOUS
 70
0
 71
3
 72
8
 73
4
 74
0
 42
0.0000001
 43
0.0000001
 44
0.0000000001
 40
0.0
 40
0.0
 40
0.0
 40
0.0
 40
1.0
 40
1.0
 40
1.0
 40
1.0
 10
218.6335329478
 20
224.7967828376
 30
0.0
 10
218.5741394683
 20
224.75274742
 30
0.0
 10
218.5177538516
 20
224.7040881721
 30
0.0
 10
218.4667036704
 20
224.6506037594
 30
0.0
  0
SPLINE
  5
400
100
AcDbEntity
  8
0
100
AcDbSpline
 62
7
  6
CONTINUOUS
 70
0
 71
3
 72
11
 73
7
 74
0
 42
0.0000001
 43
0.0000001
 44
0.0000000001
 40
0.0
 40
0.0
 40
0.0
 40
0.0
 40
0.2880918995
 40
0.5476698653
 40
0.782126069
 40
1.0
 40
1.0
 40
1.0
 40
1.0
 10
134.2172987869
 20
303.9332463761
 30
0.0
 10
132.8937454079
 20
303.1690970378
 30
0.0
 10
130.4794804853
 20
301.5228182719
 30
0.0
 10
127.540381577
 20
298.5500417299
 30
0.0
 10
125.5746648474
 20
295.2757290384
 30
0.0
 10
124.9771410739
 20
292.9047653892
 30
0.0
 10
124.8815284671
 20
291.7529223396
 30
0.0
  0
SPLINE
  5
401
100
AcDbEntity
  8
0
100
AcDbSpline
 62
7
  6
CONTINUOUS
 70
0
 71
3
 72
11
 73
7
 74
0
 42
0.0000001
 43
0.0000001
 44
0.0000000001
 40
0.0
 40
0.0
 40
0.0
 40
0.0
 40
0.237219572
 40
0.5000005441
 40
0.7627812203
 40
1.0
 40
1.0
 40
1.0
 40
1.0
 10
219.0699476664
 20
326.7950277721
 30
0.0
 10
215.8577546358
 20
328.6495463282
 30
0.0
 10
208.3872899785
 20
331.3561261687
 30
0.0
 10
196.4424943889
 20
332.6528704573
 30
0.0
 10
184.4977172646
 20
331.3560713886
 30
0.0
 10
177.0272826008
 20
328.6494545191
 30
0.0
 10
173.8151136709
 20
326.7949189929
 30
0.0
  0
SPLINE
  5
402
100
AcDbEntity
  8
0
100
AcDbSpline
 62
7
  6
CONTINUOUS
 70
0
 71
3
 72
9
 73
5
 74
0
 42
0.0000001
 43
0.0000001
 44
0.0000000001
 40
0.0
 40
0.0
 40
0.0
 40
0.0
 40
0.4997654627
 40
1.0
 40
1.0
 40
1.0
 40
1.0
 10
231.7271823069
 20
324.5497457087
 30
0.0
 10
231.3294422887
 20
324.3201117729
 30
0.0
 10
230.3869174581
 20
324.1377686951
 30
0.0
 10
229.4443660828
 20
324.3182352675
 30
0.0
 10
229.0454758223
 20
324.5467337659
 30
0.0
  0
SPLINE
  5
403
100
AcDbEntity
  8
0
100
AcDbSpline
 62
7
  6
CONTINUOUS
 70
0
 71
3
 72
9
 73
5
 74
0
 42
0.0000001
 43
0.0000001
 44
0.0000000001
 40
0.0
 40
0.0
 40
0.0
 40
0.0
 40
0.5510880621
 40
1.0
 40
1.0
 40
1.0
 40
1.0
 10
229.0454758223
 20
324.5467337659
 30
0.0
 10
228.8869985533
 20
324.6375151702
 30
0.0
 10
228.6146104565
 20
324.8445015758
 30
0.0
 10
228.4837719706
 20
325.1766283497
 30
0.0
 10
228.4837046448
 20
325.325403054
 30
0.0
  0
SPLINE
  5
404
100
AcDbEntity
  8
0
100
AcDbSpline
 62
7
  6
CONTINUOUS
 70
0
 71
3
 72
9
 73
5
 74
0
 42
0.0000001
 43
0.0000001
 44
0.0000000001
 40
0.0
 40
0.0
 40
0.0
 40
0.0
 40
0.4997654627
 40
1.0
 40
1.0
 40
1.0
 40
1.0
 10
139.8036834691
 20
271.4780057054
 30
0.0
 10
139.4059434509
 20
271.2483717696
 30
0.0
 10
138.4634186203
 20
271.0660286918
 30
0.0
 10
137.520867245
 20
271.2464952642
 30
0.0
 10
137.1219769845
 20
271.4749937626
 30
0.0
  0
SPLINE
  5
405
100
AcDbEntity
  8
0
100
AcDbSpline
 62
7
  6
CONTINUOUS
 70
0
 71
3
 72
9
 73
5
 74
0
 42
0.0000001
 43
0.0000001
 44
0.0000000001
 40
0.0
 40
0.0
 40
0.0
 40
0.0
 40
0.5510880621
 40
1.0
 40
1.0
 40
1.0
 40
1.0
 10
137.1219769845
 20
271.4749937626
 30
0.0
 10
136.9634997155
 20
271.5657751669
 30
0.0
 10
136.6911116187
 20
271.7727615725
 30
0.0
 10
136.5602731328
 20
272.1048883464
 30
0.0
 10
136.560205807
 20
272.2536630508
 30
0.0
  0
SPLINE
  5
406
100
AcDbEntity
  8
0
100
AcDbSpline
 62
7
  6
CONTINUOUS
 70
0
 71
3
 72
9
 73
5
 74
0
 42
0.0000001
 43
0.0000001
 44
0.0000000001
 40
0.0
 40
0.0
 40
0.0
 40
0.0
 40
0.4997654627
 40
1.0
 40
1.0
 40
1.0
 40
1.0
 10
303.1460299781
 20
177.1743914112
 30
0.0
 10
302.7482899599
 20
176.9447574754
 30
0.0
 10
301.8057651292
 20
176.7624143976
 30
0.0
 10
300.8632137539
 20
176.94288097
 30
0.0
 10
300.4643234935
 20
177.1713794684
 30
0.0
  0
SPLINE
  5
407
100
AcDbEntity
  8
0
100
AcDbSpline
 62
7
  6
CONTINUOUS
 70
0
 71
3
 72
9
 73
5
 74
0
 42
0.0000001
 43
0.0000001
 44
0.0000000001
 40
0.0
 40
0.0
 40
0.0
 40
0.0
 40
0.5510880621
 40
1.0
 40
1.0
 40
1.0
 40
1.0
 10
300.4643234935
 20
177.1713794684
 30
0.0
 10
300.3058462244
 20
177.2621608727
 30
0.0
 10
300.0334581277
 20
177.4691472783
 30
0.0
 10
299.9026196417
 20
177.8012740523
 30
0.0
 10
299.9025523159
 20
177.9500487566
 30
0.0
  0
SPLINE
  5
408
100
AcDbEntity
  8
0
100
AcDbSpline
 62
7
  6
CONTINUOUS
 70
0
 71
3
 72
9
 73
5
 74
0
 42
0.0000001
 43
0.0000001
 44
0.0000000001
 40
0.0
 40
0.0
 40
0.0
 40
0.0
 40
0.4997654627
 40
1.0
 40
1.0
 40
1.0
 40
1.0
 10
151.824166081
 20
317.609431924
 30
0.0
 10
151.4264260628
 20
317.3797979882
 30
0.0
 10
150.4839012321
 20
317.1974549104
 30
0.0
 10
149.5413498568
 20
317.3779214828
 30
0.0
 10
149.1424595964
 20
317.6064199812
 30
0.0
  0
SPLINE
  5
409
100
AcDbEntity
  8
0
100
AcDbSpline
 62
7
  6
CONTINUOUS
 70
0
 71
3
 72
9
 73
5
 74
0
 42
0.0000001
 43
0.0000001
 44
0.0000000001
 40
0.0
 40
0.0
 40
0.0
 40
0.0
 40
0.5510880621
 40
1.0
 40
1.0
 40
1.0
 40
1.0
 10
149.1424595964
 20
317.6064199812
 30
0.0
 10
148.9839823273
 20
317.6972013855
 30
0.0
 10
148.7115942305
 20
317.9041877911
 30
0.0
 10
148.5807557446
 20
318.2363145651
 30
0.0
 10
148.5806884188
 20
318.3850892694
 30
0.0
  0
SPLINE
  5
40A
100
AcDbEntity
  8
0
100
AcDbSpline
 62
7
  6
CONTINUOUS
 70
0
 71
3
 72
9
 73
5
 74
0
 42
0.0000001
 43
0.0000001
 44
0.0000000001
 40
0.0
 40
0.0
 40
0.0
 40
0.0
 40
0.4997654627
 40
1.0
 40
1.0
 40
1.0
 40
1.0
 10
313.3983555614
 20
277.3979385616
 30
0.0
 10
313.0006155432
 20
277.1683046258
 30
0.0
 10
312.0580907126
 20
276.985961548
 30
0.0
 10
311.1155393373
 20
277.1664281204
 30
0.0
 10
310.7166490768
 20
277.3949266188
 30
0.0
  0
SPLINE
  5
40B
100
AcDbEntity
  8
0
100
AcDbSpline
 62
7
  6
CONTINUOUS
 70
0
 71
3
 72
9
 73
5
 74
0
 42
0.0000001
 43
0.0000001
 44
0.0000000001
 40
0.0
 40
0.0
 40
0.0
 40
0.0
 40
0.5510880621
 40
1.0
 40
1.0
 40
1.0
 40
1.0
 10
310.7166490768
 20
277.3949266188
 30
0.0
 10
310.5581718077
 20
277.4857080231
 30
0.0
 10
310.285783711
 20
277.6926944287
 30
0.0
 10
310.154945225
 20
278.0248212026
 30
0.0
 10
310.1548778993
 20
278.173595907
 30
0.0
  0
SPLINE
  5
40C
100
AcDbEntity
  8
0
100
AcDbSpline
 62
7
  6
CONTINUOUS
 70
0
 71
3
 72
9
 73
5
 74
0
 42
0.0000001
 43
0.0000001
 44
0.0000000001
 40
0.0
 40
0.0
 40
0.0
 40
0.0
 40
0.4997654627
 40
1.0
 40
1.0
 40
1.0
 40
1.0
 10
221.4748567236
 20
224.3261985583
 30
0.0
 10
221.0771167054
 20
224.0965646225
 30
0.0
 10
220.1345918748
 20
223.9142215447
 30
0.0
 10
219.1920404995
 20
224.0946881171
 30
0.0
 10
218.793150239
 20
224.3231866155
 30
0.0
  0
SPLINE
  5
40D
100
AcDbEntity
  8
0
100
AcDbSpline
 62
7
  6
CONTINUOUS
 70
0
 71
3
 72
9
 73
5
 74
0
 42
0.0000001
 43
0.0000001
 44
0.0000000001
 40
0.0
 40
0.0
 40
0.0
 40
0.0
 40
0.5510880621
 40
1.0
 40
1.0
 40
1.0
 40
1.0
 10
218.793150239
 20
224.3231866155
 30
0.0
 10
218.6346729699
 20
224.4139680198
 30
0.0
 10
218.3622848732
 20
224.6209544254
 30
0.0
 10
218.2314463872
 20
224.9530811994
 30
0.0
 10
218.2313790615
 20
225.1018559037
 30
0.0
  0
SPLINE
  5
40E
100
AcDbEntity
  8
0
100
AcDbSpline
 62
7
  6
CONTINUOUS
 70
0
 71
3
 72
11
 73
7
 74
0
 42
0.0000001
 43
0.0000001
 44
0.0000000001
 40
0.0
 40
0.0
 40
0.0
 40
0.0
 40
0.2880923701
 40
0.5476705034
 40
0.7821265211
 40
1.0
 40
1.0
 40
1.0
 40
1.0
 10
134.2174872008
 20
278.7855322081
 30
0.0
 10
132.8939078225
 20
279.549683831
 30
0.0
 10
130.4795950134
 20
281.1959704397
 30
0.0
 10
127.5404350272
 20
284.1687718325
 30
0.0
 10
125.5746767693
 20
287.4431191573
 30
0.0
 10
124.9771414441
 20
289.8141123018
 30
0.0
 10
124.8815281272
 20
290.9659689444
 30
0.0
  0
SPLINE
  5
40F
100
AcDbEntity
  8
0
100
AcDbSpline
 62
7
  6
CONTINUOUS
 70
0
 71
3
 72
9
 73
5
 74
0
 42
0.0000001
 43
0.0000001
 44
0.0000000001
 40
0.0
 40
0.0
 40
0.0
 40
0.0
 40
0.2597469452
 40
1.0
 40
1.0
 40
1.0
 40
1.0
 10
319.1229373473
 20
172.7769458929
 30
0.0
 10
318.5836836657
 20
172.9661704004
 30
0.0
 10
316.5233592947
 20
173.737918495
 30
0.0
 10
314.5267416375
 20
174.6862906612
 30
0.0
 10
313.116247663
 20
175.5006213145
 30
0.0
  0
SPLINE
  5
410
100
AcDbEntity
  8
0
100
AcDbSpline
 62
7
  6
CONTINUOUS
 70
0
 71
3
 72
9
 73
5
 74
0
 42
0.0000001
 43
0.0000001
 44
0.0000000001
 40
0.0
 40
0.0
 40
0.0
 40
0.0
 40
0.4295690187
 40
1.0
 40
1.0
 40
1.0
 40
1.0
 10
469.8871342914
 20
446.0484113333
 30
0.0
 10
469.8873133839
 20
446.1915378441
 30
0.0
 10
469.7046512416
 20
446.5167652715
 30
0.0
 10
469.3935171823
 20
446.663566827
 30
0.0
 10
469.2132209496
 20
446.7237004077
 30
0.0
  0
SPLINE
  5
411
100
AcDbEntity
  8
0
100
AcDbSpline
 62
7
  6
CONTINUOUS
 70
0
 71
3
 72
11
 73
7
 74
0
 42
0.0000001
 43
0.0000001
 44
0.0000000001
 40
0.0
 40
0.0
 40
0.0
 40
0.0
 40
0.1816957562
 40
0.3900630031
 40
0.6596315249
 40
1.0
 40
1.0
 40
1.0
 40
1.0
 10
185.7409013011
 20
364.4222888775
 30
0.0
 10
185.7062746166
 20
364.4422944314
 30
0.0
 10
185.6443090602
 20
364.5107278353
 30
0.0
 10
185.6240909555
 20
364.6597755732
 30
0.0
 10
185.6561831344
 20
364.8380727877
 30
0.0
 10
185.7040002882
 20
364.964239891
 30
0.0
 10
185.7343201957
 20
365.0327434076
 30
0.0
  0
SPLINE
  5
412
100
AcDbEntity
  8
0
100
AcDbSpline
 62
7
  6
CONTINUOUS
 70
0
 71
3
 72
9
 73
5
 74
0
 42
0.0000001
 43
0.0000001
 44
0.0000000001
 40
0.0
 40
0.0
 40
0.0
 40
0.0
 40
0.233707024
 40
1.0
 40
1.0
 40
1.0
 40
1.0
 10
185.7906446144
 20
365.1503516256
 30
0.0
 10
185.8029655209
 20
365.1743772361
 30
0.0
 10
185.8572803575
 20
365.2763593847
 30
0.0
 10
185.9171701033
 20
365.3753211123
 30
0.0
 10
185.965272846
 20
365.4496442541
 30
0.0
  0
SPLINE
  5
413
100
AcDbEntity
  8
0
100
AcDbSpline
 62
7
  6
CONTINUOUS
 70
0
 71
3
 72
10
 73
6
 74
0
 42
0.0000001
 43
0.0000001
 44
0.0000000001
 40
0.0
 40
0.0
 40
0.0
 40
0.0
 40
0.1739986279
 40
0.505117609
 40
1.0
 40
1.0
 40
1.0
 40
1.0
 10
185.1439104239
 20
365.4636223151
 30
0.0
 10
185.1439360952
 20
365.4191795021
 30
0.0
 10
185.1932642407
 20
365.2877178468
 30
0.0
 10
185.444937521
 20
365.1757922288
 30
0.0
 10
185.6515282554
 20
365.1508909242
 30
0.0
 10
185.7777190091
 20
365.1435668486
 30
0.0
  0
SPLINE
  5
414
100
AcDbEntity
  8
0
100
AcDbSpline
 62
7
  6
CONTINUOUS
 70
0
 71
3
 72
9
 73
5
 74
0
 42
0.0000001
 43
0.0000001
 44
0.0000000001
 40
0.0
 40
0.0
 40
0.0
 40
0.0
 40
0.2321155373
 40
1.0
 40
1.0
 40
1.0
 40
1.0
 10
185.7777190091
 20
365.1435668486
 30
0.0
 10
185.8068298007
 20
365.1418772665
 30
0.0
 10
185.932369594
 20
365.1367881755
 30
0.0
 10
186.0581584068
 20
365.1393918068
 30
0.0
 10
186.1544841178
 20
365.1445993008
 30
0.0
  0
SPLINE
  5
415
100
AcDbEntity
  8
0
100
AcDbSpline
 62
7
  6
CONTINUOUS
 70
0
 71
3
 72
10
 73
6
 74
0
 42
0.0000001
 43
0.0000001
 44
0.0000000001
 40
0.0
 40
0.0
 40
0.0
 40
0.0
 40
0.5477459424
 40
0.7815972426
 40
1.0
 40
1.0
 40
1.0
 40
1.0
 10
215.8156573538
 20
376.7636679157
 30
0.0
 10
215.8156573538
 20
376.0951060778
 30
0.0
 10
215.6733855093
 20
375.1105347441
 30
0.0
 10
215.029084872
 20
374.0555551105
 30
0.0
 10
214.5966021034
 20
373.692684208
 30
0.0
 10
214.3657468097
 20
373.5593859398
 30
0.0
  0
SPLINE
  5
416
100
AcDbEntity
  8
0
100
AcDbSpline
 62
7
  6
CONTINUOUS
 70
0
 71
3
 72
9
 73
5
 74
0
 42
0.0000001
 43
0.0000001
 44
0.0000000001
 40
0.0
 40
0.0
 40
0.0
 40
0.0
 40
0.5000122457
 40
1.0
 40
1.0
 40
1.0
 40
1.0
 10
191.7740680092
 20
371.048215768
 30
0.0
 10
191.7740680092
 20
370.3211849813
 30
0.0
 10
192.2709257625
 20
368.8856456661
 30
0.0
 10
193.2657571119
 20
367.7376774928
 30
0.0
 10
193.8953430054
 20
367.3741618977
 30
0.0
  0
SPLINE
  5
417
100
AcDbEntity
  8
0
100
AcDbSpline
 62
7
  6
CONTINUOUS
 70
0
 71
3
 72
14
 73
10
 74
0
 42
0.0000001
 43
0.0000001
 44
0.0000000001
 40
0.0
 40
0.0
 40
0.0
 40
0.0
 40
0.2695806913
 40
0.4170907935
 40
0.5617930852
 40
0.6957894824
 40
0.8133401709
 40
0.9129463615
 40
1.0
 40
1.0
 40
1.0
 40
1.0
 10
351.4346108386
 20
140.3878269713
 30
0.0
 10
352.4400823847
 20
140.968332774
 30
0.0
 10
353.7598070731
 20
142.2812085321
 30
0.0
 10
355.0283239256
 20
144.3433888859
 30
0.0
 10
355.7204662436
 20
146.0553842577
 30
0.0
 10
356.063459049
 20
147.7383804086
 30
0.0
 10
356.0273330093
 20
149.2664813587
 30
0.0
 10
355.59863203
 20
150.5350843987
 30
0.0
 10
355.0091374914
 20
151.1366451747
 30
0.0
 10
354.6844379599
 20
151.324085707
 30
0.0
  0
SPLINE
  5
418
100
AcDbEntity
  8
0
100
AcDbSpline
 62
7
  6
CONTINUOUS
 70
0
 71
3
 72
9
 73
5
 74
0
 42
0.0000001
 43
0.0000001
 44
0.0000000001
 40
0.0
 40
0.0
 40
0.0
 40
0.0
 40
0.44917285
 40
1.0
 40
1.0
 40
1.0
 40
1.0
 10
196.6024202093
 20
366.7677554082
 30
0.0
 10
196.8723304698
 20
366.9233220798
 30
0.0
 10
197.3382929304
 20
367.5069479733
 30
0.0
 10
197.4309399224
 20
368.2167377605
 30
0.0
 10
197.4309399224
 20
368.5987746401
 30
0.0
  0
SPLINE
  5
419
100
AcDbEntity
  8
0
100
AcDbSpline
 62
7
  6
CONTINUOUS
 70
0
 71
3
 72
9
 73
5
 74
0
 42
0.0000001
 43
0.0000001
 44
0.0000000001
 40
0.0
 40
0.0
 40
0.0
 40
0.0
 40
0.2599259172
 40
1.0
 40
1.0
 40
1.0
 40
1.0
 10
327.2515318377
 20
366.1506066385
 30
0.0
 10
327.3676720694
 20
366.1394183698
 30
0.0
 10
327.8166966303
 20
366.1186448197
 30
0.0
 10
328.2666531171
 20
366.1743903901
 30
0.0
 10
328.5918926356
 20
366.242091912
 30
0.0
  0
SPLINE
  5
41A
100
AcDbEntity
  8
0
100
AcDbSpline
 62
7
  6
CONTINUOUS
 70
0
 71
3
 72
8
 73
4
 74
0
 42
0.0000001
 43
0.0000001
 44
0.0000000001
 40
0.0
 40
0.0
 40
0.0
 40
0.0
 40
1.0
 40
1.0
 40
1.0
 40
1.0
 10
328.9009914795
 20
366.313642932
 30
0.0
 10
329.0134191954
 20
366.3420162814
 30
0.0
 10
329.1252829575
 20
366.3725986407
 30
0.0
 10
329.2370860226
 20
366.4033413294
 30
0.0
  0
SPLINE
  5
41B
100
AcDbEntity
  8
0
100
AcDbSpline
 62
7
  6
CONTINUOUS
 70
0
 71
3
 72
8
 73
4
 74
0
 42
0.0000001
 43
0.0000001
 44
0.0000000001
 40
0.0
 40
0.0
 40
0.0
 40
0.0
 40
1.0
 40
1.0
 40
1.0
 40
1.0
 10
212.5924725741
 20
228.8168113137
 30
0.0
 10
212.5924365494
 20
228.9029456409
 30
0.0
 10
212.5642672373
 20
228.9911025074
 30
0.0
 10
212.5195232233
 20
229.0647034368
 30
0.0
  0
SPLINE
  5
41C
100
AcDbEntity
  8
0
100
AcDbSpline
 62
7
  6
CONTINUOUS
 70
0
 71
3
 72
9
 73
5
 74
0
 42
0.0000001
 43
0.0000001
 44
0.0000000001
 40
0.0
 40
0.0
 40
0.0
 40
0.0
 40
0.2282960094
 40
1.0
 40
1.0
 40
1.0
 40
1.0
 10
212.5195232233
 20
229.0647034368
 30
0.0
 10
212.502897712
 20
229.092051298
 30
0.0
 10
212.4199723562
 20
229.2057137563
 30
0.0
 10
212.3054035352
 20
229.2934369144
 30
0.0
 10
212.2117116699
 20
229.3475287143
 30
0.0
  0
SPLINE
  5
41D
100
AcDbEntity
  8
0
100
AcDbSpline
 62
7
  6
CONTINUOUS
 70
0
 71
3
 72
9
 73
5
 74
0
 42
0.0000001
 43
0.0000001
 44
0.0000000001
 40
0.0
 40
0.0
 40
0.0
 40
0.0
 40
0.4824471047
 40
1.0
 40
1.0
 40
1.0
 40
1.0
 10
344.7171232075
 20
373.4585054588
 30
0.0
 10
344.7171232075
 20
373.8678563196
 30
0.0
 10
344.4848780087
 20
374.7127388434
 30
0.0
 10
344.0018165279
 20
375.4311009673
 30
0.0
 10
343.6902709228
 20
375.7405864695
 30
0.0
  0
SPLINE
  5
41E
100
AcDbEntity
  8
0
100
AcDbSpline
 62
7
  6
CONTINUOUS
 70
0
 71
3
 72
9
 73
5
 74
0
 42
0.0000001
 43
0.0000001
 44
0.0000000001
 40
0.0
 40
0.0
 40
0.0
 40
0.0
 40
0.2633928361
 40
1.0
 40
1.0
 40
1.0
 40
1.0
 10
343.6902709228
 20
375.7405864695
 30
0.0
 10
343.6484412517
 20
375.7821395408
 30
0.0
 10
343.4852451018
 20
375.9352975551
 30
0.0
 10
343.3042819522
 20
376.0704966022
 30
0.0
 10
343.1614818121
 20
376.1529404364
 30
0.0
  0
SPLINE
  5
41F
100
AcDbEntity
  8
0
100
AcDbSpline
 62
7
  6
CONTINUOUS
 70
0
 71
3
 72
9
 73
5
 74
0
 42
0.0000001
 43
0.0000001
 44
0.0000000001
 40
0.0
 40
0.0
 40
0.0
 40
0.0
 40
0.2359128875
 40
1.0
 40
1.0
 40
1.0
 40
1.0
 10
341.6058533703
 20
373.4584979802
 30
0.0
 10
341.6515930172
 20
373.4320907801
 30
0.0
 10
341.8498511858
 20
373.3277768199
 30
0.0
 10
342.0622757909
 20
373.2515596306
 30
0.0
 10
342.2273607589
 20
373.2067398968
 30
0.0
  0
SPLINE
  5
420
100
AcDbEntity
  8
0
100
AcDbSpline
 62
7
  6
CONTINUOUS
 70
0
 71
3
 72
9
 73
5
 74
0
 42
0.0000001
 43
0.0000001
 44
0.0000000001
 40
0.0
 40
0.0
 40
0.0
 40
0.0
 40
0.5175546648
 40
1.0
 40
1.0
 40
1.0
 40
1.0
 10
342.2273607589
 20
373.2067398968
 30
0.0
 10
342.6511578286
 20
373.0916811359
 30
0.0
 10
343.5148057167
 20
373.0325240854
 30
0.0
 10
344.3626164548
 20
373.2538321114
 30
0.0
 10
344.7171232075
 20
373.4585054588
 30
0.0
  0
SPLINE
  5
421
100
AcDbEntity
  8
0
100
AcDbSpline
 62
7
  6
CONTINUOUS
 70
0
 71
3
 72
8
 73
4
 74
0
 42
0.0000001
 43
0.0000001
 44
0.0000000001
 40
0.0
 40
0.0
 40
0.0
 40
0.0
 40
1.0
 40
1.0
 40
1.0
 40
1.0
 10
294.2636458285
 20
181.6650041666
 30
0.0
 10
294.2636098038
 20
181.7511384938
 30
0.0
 10
294.2354404917
 20
181.8392953603
 30
0.0
 10
294.1906964777
 20
181.9128962897
 30
0.0
  0
SPLINE
  5
422
100
AcDbEntity
  8
0
100
AcDbSpline
 62
7
  6
CONTINUOUS
 70
0
 71
3
 72
9
 73
5
 74
0
 42
0.0000001
 43
0.0000001
 44
0.0000000001
 40
0.0
 40
0.0
 40
0.0
 40
0.0
 40
0.2282960094
 40
1.0
 40
1.0
 40
1.0
 40
1.0
 10
294.1906964777
 20
181.9128962897
 30
0.0
 10
294.1740709664
 20
181.9402441509
 30
0.0
 10
294.0911456106
 20
182.0539066092
 30
0.0
 10
293.9765767896
 20
182.1416297673
 30
0.0
 10
293.8828849243
 20
182.1957215672
 30
0.0
  0
SPLINE
  5
423
100
AcDbEntity
  8
0
100
AcDbSpline
 62
7
  6
CONTINUOUS
 70
0
 71
3
 72
11
 73
7
 74
0
 42
0.0000001
 43
0.0000001
 44
0.0000000001
 40
0.0
 40
0.0
 40
0.0
 40
0.0
 40
0.2192544575
 40
0.4530592315
 40
0.7117150318
 40
1.0
 40
1.0
 40
1.0
 40
1.0
 10
124.8448646222
 20
291.849345132
 30
0.0
 10
124.8448645944
 20
293.0257215903
 30
0.0
 10
125.2619702435
 20
295.4721717449
 30
0.0
 10
127.0563969772
 20
298.8991498213
 30
0.0
 10
129.9026702129
 20
302.0218392503
 30
0.0
 10
132.2963821854
 20
303.752189762
 30
0.0
 10
133.6172008362
 20
304.5570941559
 30
0.0
  0
SPLINE
  5
424
100
AcDbEntity
  8
0
100
AcDbSpline
 62
7
  6
CONTINUOUS
 70
0
 71
3
 72
9
 73
5
 74
0
 42
0.0000001
 43
0.0000001
 44
0.0000000001
 40
0.0
 40
0.0
 40
0.0
 40
0.0
 40
0.2374757583
 40
1.0
 40
1.0
 40
1.0
 40
1.0
 10
189.2935512581
 20
367.1675577464
 30
0.0
 10
189.249975321
 20
367.1700441453
 30
0.0
 10
189.066303712
 20
367.1773536303
 30
0.0
 10
188.8823480622
 20
367.1756167177
 30
0.0
 10
188.7422865194
 20
367.1706944668
 30
0.0
  0
SPLINE
  5
425
100
AcDbEntity
  8
0
100
AcDbSpline
 62
7
  6
CONTINUOUS
 70
0
 71
3
 72
9
 73
5
 74
0
 42
0.0000001
 43
0.0000001
 44
0.0000000001
 40
0.0
 40
0.0
 40
0.0
 40
0.0
 40
0.2209367731
 40
1.0
 40
1.0
 40
1.0
 40
1.0
 10
218.2456864843
 20
225.2361815516
 30
0.0
 10
218.2588522896
 20
225.2977445556
 30
0.0
 10
218.3591137864
 20
225.5684894018
 30
0.0
 10
218.5955895914
 20
225.7665183968
 30
0.0
 10
218.787839768
 20
225.8775134255
 30
0.0
  0
SPLINE
  5
426
100
AcDbEntity
  8
0
100
AcDbSpline
 62
7
  6
CONTINUOUS
 70
0
 71
3
 72
9
 73
5
 74
0
 42
0.0000001
 43
0.0000001
 44
0.0000000001
 40
0.0
 40
0.0
 40
0.0
 40
0.0
 40
0.2209367731
 40
1.0
 40
1.0
 40
1.0
 40
1.0
 10
310.1691853221
 20
278.3079215549
 30
0.0
 10
310.1823511274
 20
278.3694845589
 30
0.0
 10
310.2826126242
 20
278.6402294051
 30
0.0
 10
310.5190884292
 20
278.8382584001
 30
0.0
 10
310.7113386058
 20
278.9492534288
 30
0.0
  0
SPLINE
  5
427
100
AcDbEntity
  8
0
100
AcDbSpline
 62
7
  6
CONTINUOUS
 70
0
 71
3
 72
9
 73
5
 74
0
 42
0.0000001
 43
0.0000001
 44
0.0000000001
 40
0.0
 40
0.0
 40
0.0
 40
0.0
 40
0.2302316892
 40
1.0
 40
1.0
 40
1.0
 40
1.0
 10
320.2351586577
 20
145.4805827171
 30
0.0
 10
320.2709578623
 20
145.5053280748
 30
0.0
 10
320.4208853185
 20
145.6208927551
 30
0.0
 10
320.5476220063
 20
145.764441285
 30
0.0
 10
320.6341040059
 20
145.881455428
 30
0.0
  0
SPLINE
  5
428
100
AcDbEntity
  8
0
100
AcDbSpline
 62
7
  6
CONTINUOUS
 70
0
 71
3
 72
8
 73
4
 74
0
 42
0.0000001
 43
0.0000001
 44
0.0000000001
 40
0.0
 40
0.0
 40
0.0
 40
0.0
 40
1.0
 40
1.0
 40
1.0
 40
1.0
 10
320.6341040059
 20
145.881455428
 30
0.0
 10
320.7008702147
 20
145.9717931948
 30
0.0
 10
320.7615431727
 20
146.0667833693
 30
0.0
 10
320.8174170129
 20
146.1642346532
 30
0.0
  0
SPLINE
  5
429
100
AcDbEntity
  8
0
100
AcDbSpline
 62
7
  6
CONTINUOUS
 70
0
 71
3
 72
9
 73
5
 74
0
 42
0.0000001
 43
0.0000001
 44
0.0000000001
 40
0.0
 40
0.0
 40
0.0
 40
0.0
 40
0.2209367731
 40
1.0
 40
1.0
 40
1.0
 40
1.0
 10
148.5949958417
 20
318.5194149173
 30
0.0
 10
148.608161647
 20
318.5809779214
 30
0.0
 10
148.7084231438
 20
318.8517227675
 30
0.0
 10
148.9448989487
 20
319.0497517625
 30
0.0
 10
149.1371491254
 20
319.1607467912
 30
0.0
  0
SPLINE
  5
42A
100
AcDbEntity
  8
0
100
AcDbSpline
 62
7
  6
CONTINUOUS
 70
0
 71
3
 72
13
 73
9
 74
0
 42
0.0000001
 43
0.0000001
 44
0.0000000001
 40
0.0
 40
0.0
 40
0.0
 40
0.0
 40
0.0871440308
 40
0.1868621078
 40
0.304546863
 40
0.4386864173
 40
0.7301123385
 40
1.0
 40
1.0
 40
1.0
 40
1.0
 10
202.1485019139
 20
379.20698429
 30
0.0
 10
202.3484063922
 20
379.3221566344
 30
0.0
 10
202.8501694404
 20
379.4516959705
 30
0.0
 10
203.6582634757
 20
379.2895821109
 30
0.0
 10
204.4838449483
 20
378.8387939095
 30
0.0
 10
205.5667595634
 20
377.8781042288
 30
0.0
 10
206.5840263482
 20
376.3058091082
 30
0.0
 10
206.9768417248
 20
374.8245822052
 30
0.0
 10
206.9768417248
 20
374.1100707174
 30
0.0
  0
SPLINE
  5
42B
100
AcDbEntity
  8
0
100
AcDbSpline
 62
7
  6
CONTINUOUS
 70
0
 71
3
 72
9
 73
5
 74
0
 42
0.0000001
 43
0.0000001
 44
0.0000000001
 40
0.0
 40
0.0
 40
0.0
 40
0.0
 40
0.2209367731
 40
1.0
 40
1.0
 40
1.0
 40
1.0
 10
299.9168597388
 20
178.0843744045
 30
0.0
 10
299.9300255441
 20
178.1459374085
 30
0.0
 10
300.0302870409
 20
178.4166822547
 30
0.0
 10
300.2667628458
 20
178.6147112497
 30
0.0
 10
300.4590130225
 20
178.7257062784
 30
0.0
  0
SPLINE
  5
42C
100
AcDbEntity
  8
0
100
AcDbSpline
 62
7
  6
CONTINUOUS
 70
0
 71
3
 72
9
 73
5
 74
0
 42
0.0000001
 43
0.0000001
 44
0.0000000001
 40
0.0
 40
0.0
 40
0.0
 40
0.0
 40
0.2209367731
 40
1.0
 40
1.0
 40
1.0
 40
1.0
 10
136.5745132298
 20
272.3879886987
 30
0.0
 10
136.5876790351
 20
272.4495517027
 30
0.0
 10
136.6879405319
 20
272.7202965489
 30
0.0
 10
136.9244163369
 20
272.9183255439
 30
0.0
 10
137.1166665136
 20
273.0293205726
 30
0.0
  0
SPLINE
  5
42D
100
AcDbEntity
  8
0
100
AcDbSpline
 62
7
  6
CONTINUOUS
 70
0
 71
3
 72
9
 73
5
 74
0
 42
0.0000001
 43
0.0000001
 44
0.0000000001
 40
0.0
 40
0.0
 40
0.0
 40
0.0
 40
0.4492452415
 40
1.0
 40
1.0
 40
1.0
 40
1.0
 10
164.3555256285
 20
334.1499303645
 30
0.0
 10
164.4432229663
 20
334.2005621221
 30
0.0
 10
164.6831654294
 20
334.2368986582
 30
0.0
 10
164.8980092324
 20
334.1476203377
 30
0.0
 10
165.0055227185
 20
334.0855488018
 30
0.0
  0
SPLINE
  5
42E
100
AcDbEntity
  8
0
100
AcDbSpline
 62
7
  6
CONTINUOUS
 70
0
 71
3
 72
13
 73
9
 74
0
 42
0.0000001
 43
0.0000001
 44
0.0000000001
 40
0.0
 40
0.0
 40
0.0
 40
0.0
 40
0.1159366811
 40
0.227897062
 40
0.3396204899
 40
0.4548846503
 40
0.7069873927
 40
1.0
 40
1.0
 40
1.0
 40
1.0
 10
108.3793004001
 20
281.9194695554
 30
0.0
 10
107.8238757577
 20
283.0663131323
 30
0.0
 10
106.9494388632
 20
285.4370416447
 30
0.0
 10
106.4602545843
 20
289.1695504174
 30
0.0
 10
106.8431159139
 20
292.9088206546
 30
0.0
 10
108.546981169
 20
297.9337272692
 30
0.0
 10
112.9935355341
 20
303.8865054996
 30
0.0
 10
117.9073888294
 20
307.4346693576
 30
0.0
 10
120.6964360465
 20
309.0449169073
 30
0.0
  0
SPLINE
  5
42F
100
AcDbEntity
  8
0
100
AcDbSpline
 62
7
  6
CONTINUOUS
 70
0
 71
3
 72
9
 73
5
 74
0
 42
0.0000001
 43
0.0000001
 44
0.0000000001
 40
0.0
 40
0.0
 40
0.0
 40
0.0
 40
0.2209367731
 40
1.0
 40
1.0
 40
1.0
 40
1.0
 10
228.4980120676
 20
325.459728702
 30
0.0
 10
228.5111778729
 20
325.521291706
 30
0.0
 10
228.6114393697
 20
325.7920365522
 30
0.0
 10
228.8479151747
 20
325.9900655472
 30
0.0
 10
229.0401653514
 20
326.1010605759
 30
0.0
  0
SPLINE
  5
430
100
AcDbEntity
  8
0
100
AcDbSpline
 62
7
  6
CONTINUOUS
 70
0
 71
3
 72
11
 73
7
 74
0
 42
0.0000001
 43
0.0000001
 44
0.0000000001
 40
0.0
 40
0.0
 40
0.0
 40
0.0
 40
0.2677496468
 40
0.5019274219
 40
0.7349741694
 40
1.0
 40
1.0
 40
1.0
 40
1.0
 10
209.1215529899
 20
369.760297715
 30
0.0
 10
209.0085372866
 20
369.1730356107
 30
0.0
 10
208.6405446814
 20
368.0832694106
 30
0.0
 10
207.4568682824
 20
366.8498064864
 30
0.0
 10
205.8153130366
 20
366.3909007593
 30
0.0
 10
204.6900304907
 20
366.5908265723
 30
0.0
 10
204.1269984251
 20
366.7735955631
 30
0.0
  0
SPLINE
  5
431
100
AcDbEntity
  8
0
100
AcDbSpline
 62
7
  6
CONTINUOUS
 70
0
 71
3
 72
9
 73
5
 74
0
 42
0.0000001
 43
0.0000001
 44
0.0000000001
 40
0.0
 40
0.0
 40
0.0
 40
0.0
 40
0.4999994563
 40
1.0
 40
1.0
 40
1.0
 40
1.0
 10
328.3122052573
 20
211.8725168661
 30
0.0
 10
328.5220843602
 20
211.9936898993
 30
0.0
 10
329.0193113464
 20
212.0895202315
 30
0.0
 10
329.5165383865
 20
211.9936920487
 30
0.0
 10
329.7264188197
 20
211.8725202654
 30
0.0
  0
SPLINE
  5
432
100
AcDbEntity
  8
0
100
AcDbSpline
 62
7
  6
CONTINUOUS
 70
0
 71
3
 72
11
 73
7
 74
0
 42
0.0000001
 43
0.0000001
 44
0.0000000001
 40
0.0
 40
0.0
 40
0.0
 40
0.0
 40
0.2661017589
 40
0.5002869823
 40
0.7342954494
 40
1.0
 40
1.0
 40
1.0
 40
1.0
 10
196.3701340199
 20
380.2082254395
 30
0.0
 10
196.4965164526
 20
380.7768213662
 30
0.0
 10
196.8709067353
 20
381.8350964789
 30
0.0
 10
198.0524611462
 20
383.0202577135
 30
0.0
 10
199.665418881
 20
383.4564216381
 30
0.0
 10
200.7710405382
 20
383.2617542839
 30
0.0
 10
201.3247574699
 20
383.083823682
 30
0.0
  0
SPLINE
  5
433
100
AcDbEntity
  8
0
100
AcDbSpline
 62
7
  6
CONTINUOUS
 70
0
 71
3
 72
9
 73
5
 74
0
 42
0.0000001
 43
0.0000001
 44
0.0000000001
 40
0.0
 40
0.0
 40
0.0
 40
0.0
 40
0.5508416902
 40
1.0
 40
1.0
 40
1.0
 40
1.0
 10
331.5649659283
 20
202.2380027655
 30
0.0
 10
331.9040839834
 20
202.4337914972
 30
0.0
 10
332.4866393966
 20
202.8797949985
 30
0.0
 10
332.7658486053
 20
203.5924938329
 30
0.0
 10
332.7656256614
 20
203.9117888667
 30
0.0
  0
SPLINE
  5
434
100
AcDbEntity
  8
0
100
AcDbSpline
 62
7
  6
CONTINUOUS
 70
0
 71
3
 72
11
 73
7
 74
0
 42
0.0000001
 43
0.0000001
 44
0.0000000001
 40
0.0
 40
0.0
 40
0.0
 40
0.0
 40
0.3079115431
 40
0.5793267346
 40
0.8062319001
 40
1.0
 40
1.0
 40
1.0
 40
1.0
 10
329.338735117
 20
205.3617323412
 30
0.0
 10
329.6014287832
 20
205.3210947473
 30
0.0
 10
330.0907076171
 20
205.1982661277
 30
0.0
 10
330.7159217794
 20
204.8764167792
 30
0.0
 10
331.1501739225
 20
204.4452085459
 30
0.0
 10
331.265578476
 20
204.079068108
 30
0.0
 10
331.2656953443
 20
203.911789231
 30
0.0
  0
SPLINE
  5
435
100
AcDbEntity
  8
0
100
AcDbSpline
 62
7
  6
CONTINUOUS
 70
0
 71
3
 72
9
 73
5
 74
0
 42
0.0000001
 43
0.0000001
 44
0.0000000001
 40
0.0
 40
0.0
 40
0.0
 40
0.0
 40
0.2372628046
 40
1.0
 40
1.0
 40
1.0
 40
1.0
 10
332.3605975558
 20
174.7173673019
 30
0.0
 10
332.417783337
 20
174.6779811869
 30
0.0
 10
332.6520566632
 20
174.5022482868
 30
0.0
 10
332.859741209
 20
174.2922115925
 30
0.0
 10
333.0021910988
 20
174.1203519638
 30
0.0
  0
SPLINE
  5
436
100
AcDbEntity
  8
0
100
AcDbSpline
 62
7
  6
CONTINUOUS
 70
0
 71
3
 72
8
 73
4
 74
0
 42
0.0000001
 43
0.0000001
 44
0.0000000001
 40
0.0
 40
0.0
 40
0.0
 40
0.0
 40
1.0
 40
1.0
 40
1.0
 40
1.0
 10
333.0021910988
 20
174.1203519638
 30
0.0
 10
333.3034868298
 20
173.7568517001
 30
0.0
 10
333.5434441741
 20
173.3328236546
 30
0.0
 10
333.6983041306
 20
172.8868080125
 30
0.0
  0
SPLINE
  5
437
100
AcDbEntity
  8
0
100
AcDbSpline
 62
7
  6
CONTINUOUS
 70
0
 71
3
 72
11
 73
7
 74
0
 42
0.0000001
 43
0.0000001
 44
0.0000000001
 40
0.0
 40
0.0
 40
0.0
 40
0.0
 40
0.3154017466
 40
0.5833338213
 40
0.8015022272
 40
1.0
 40
1.0
 40
1.0
 40
1.0
 10
333.6983041306
 20
172.8868080125
 30
0.0
 10
333.7852532539
 20
172.6363838878
 30
0.0
 10
333.8979385242
 20
172.1533822339
 30
0.0
 10
333.8688124281
 20
171.469863454
 30
0.0
 10
333.6029163455
 20
170.9274200654
 30
0.0
 10
333.262965622
 20
170.7593451715
 30
0.0
 10
333.098097864
 20
170.7338084772
 30
0.0
  0
SPLINE
  5
438
100
AcDbEntity
  8
0
100
AcDbSpline
 62
7
  6
CONTINUOUS
 70
0
 71
3
 72
13
 73
9
 74
0
 42
0.0000001
 43
0.0000001
 44
0.0000000001
 40
0.0
 40
0.0
 40
0.0
 40
0.0
 40
0.2793006939
 40
0.5759325216
 40
0.7072178645
 40
0.8184969766
 40
0.9119851237
 40
1.0
 40
1.0
 40
1.0
 40
1.0
 10
332.2013028577
 20
206.8770148835
 30
0.0
 10
331.7983063166
 20
207.1096797814
 30
0.0
 10
331.1095740122
 20
207.8258618422
 30
0.0
 10
330.6048198315
 20
208.9189063175
 30
0.0
 10
330.4989930738
 20
209.8191533069
 30
0.0
 10
330.5894854097
 20
210.3819975197
 30
0.0
 10
330.8651557602
 20
210.8093713157
 30
0.0
 10
331.159595929
 20
210.9389850545
 30
0.0
 10
331.3045078514
 20
210.9614307498
 30
0.0
  0
SPLINE
  5
439
100
AcDbEntity
  8
0
100
AcDbSpline
 62
7
  6
CONTINUOUS
 70
0
 71
3
 72
13
 73
9
 74
0
 42
0.0000001
 43
0.0000001
 44
0.0000000001
 40
0.0
 40
0.0
 40
0.0
 40
0.0
 40
0.3178487461
 40
0.4619922619
 40
0.5856862574
 40
0.6888830612
 40
0.7821621479
 40
1.0
 40
1.0
 40
1.0
 40
1.0
 10
333.098097864
 20
209.9259244994
 30
0.0
 10
333.4003775901
 20
209.5300691264
 30
0.0
 10
333.7417686778
 20
208.8652462307
 30
0.0
 10
333.9001610192
 20
207.9550779723
 30
0.0
 10
333.8511200069
 20
207.3673876551
 30
0.0
 10
333.6235638044
 20
206.8992970004
 30
0.0
 10
333.0418196431
 20
206.5339877945
 30
0.0
 10
332.4969250286
 20
206.7063412048
 30
0.0
 10
332.2013028577
 20
206.8770148835
 30
0.0
  0
SPLINE
  5
43A
100
AcDbEntity
  8
0
100
AcDbSpline
 62
7
  6
CONTINUOUS
 70
0
 71
3
 72
13
 73
9
 74
0
 42
0.0000001
 43
0.0000001
 44
0.0000000001
 40
0.0
 40
0.0
 40
0.0
 40
0.0
 40
0.3085600486
 40
0.5950480201
 40
0.7131997229
 40
0.8130449486
 40
0.9036168909
 40
1.0
 40
1.0
 40
1.0
 40
1.0
 10
332.8121084913
 20
202.0933999528
 30
0.0
 10
333.1352148904
 20
201.7610955002
 30
0.0
 10
333.635483361
 20
200.9993713878
 30
0.0
 10
333.9243746588
 20
199.9346680632
 30
0.0
 10
333.8384404326
 20
199.1717061446
 30
0.0
 10
333.6229082798
 20
198.7444375059
 30
0.0
 10
333.2495630836
 20
198.4911696502
 30
0.0
 10
332.9564996895
 20
198.4744871773
 30
0.0
 10
332.8128500774
 20
198.4925277931
 30
0.0
  0
SPLINE
  5
43B
100
AcDbEntity
  8
0
100
AcDbSpline
 62
7
  6
CONTINUOUS
 70
0
 71
3
 72
14
 73
10
 74
0
 42
0.0000001
 43
0.0000001
 44
0.0000000001
 40
0.0
 40
0.0
 40
0.0
 40
0.0
 40
0.2907821441
 40
0.4448234713
 40
0.5838972937
 40
0.6984789327
 40
0.7919404408
 40
0.8854097328
 40
1.0
 40
1.0
 40
1.0
 40
1.0
 10
332.2013028577
 20
179.1159327011
 30
0.0
 10
331.7042629158
 20
179.4028923535
 30
0.0
 10
331.0961776005
 20
180.1063587042
 30
0.0
 10
330.6296077577
 20
181.1628201662
 30
0.0
 10
330.488165754
 20
181.9649807206
 30
0.0
 10
330.5820981395
 20
182.66204981
 30
0.0
 10
330.9807998253
 20
183.1633575601
 30
0.0
 10
331.6138958659
 20
183.2587818355
 30
0.0
 10
332.0054313405
 20
183.0963324296
 30
0.0
 10
332.2013028577
 20
182.9832485147
 30
0.0
  0
SPLINE
  5
43C
100
AcDbEntity
  8
0
100
AcDbSpline
 62
7
  6
CONTINUOUS
 70
0
 71
3
 72
14
 73
10
 74
0
 42
0.0000001
 43
0.0000001
 44
0.0000000001
 40
0.0
 40
0.0
 40
0.0
 40
0.0
 40
0.2907821441
 40
0.4448234713
 40
0.5838972937
 40
0.6984789327
 40
0.7919404408
 40
0.8854097328
 40
1.0
 40
1.0
 40
1.0
 40
1.0
 10
332.2013028577
 20
182.9832485147
 30
0.0
 10
332.6983427996
 20
182.6962888624
 30
0.0
 10
333.3064281149
 20
181.9928225117
 30
0.0
 10
333.7729979577
 20
180.9363610497
 30
0.0
 10
333.9144399614
 20
180.1342004953
 30
0.0
 10
333.8205075759
 20
179.4371314059
 30
0.0
 10
333.4218058901
 20
178.9358236558
 30
0.0
 10
332.7887098496
 20
178.8403993804
 30
0.0
 10
332.3971743749
 20
179.0028487863
 30
0.0
 10
332.2013028577
 20
179.1159327011
 30
0.0
  0
SPLINE
  5
43D
100
AcDbEntity
  8
0
100
AcDbSpline
 62
7
  6
CONTINUOUS
 70
0
 71
3
 72
8
 73
4
 74
0
 42
0.0000001
 43
0.0000001
 44
0.0000000001
 40
0.0
 40
0.0
 40
0.0
 40
0.0
 40
1.0
 40
1.0
 40
1.0
 40
1.0
 10
337.6805837107
 20
187.596545059
 30
0.0
 10
337.6774724918
 20
187.4317588873
 30
0.0
 10
337.6654498713
 20
187.2668002673
 30
0.0
 10
337.6428691592
 20
187.1035389017
 30
0.0
  0
SPLINE
  5
43E
100
AcDbEntity
  8
0
100
AcDbSpline
 62
7
  6
CONTINUOUS
 70
0
 71
3
 72
8
 73
4
 74
0
 42
0.0000001
 43
0.0000001
 44
0.0000000001
 40
0.0
 40
0.0
 40
0.0
 40
0.0
 40
1.0
 40
1.0
 40
1.0
 40
1.0
 10
337.5820738678
 20
186.776095108
 30
0.0
 10
337.5514660247
 20
186.6466372557
 30
0.0
 10
337.5128161254
 20
186.5186960862
 30
0.0
 10
337.4648366544
 20
186.3946229386
 30
0.0
  0
SPLINE
  5
43F
100
AcDbEntity
  8
0
100
AcDbSpline
 62
7
  6
CONTINUOUS
 70
0
 71
3
 72
14
 73
10
 74
0
 42
0.0000001
 43
0.0000001
 44
0.0000000001
 40
0.0
 40
0.0
 40
0.0
 40
0.0
 40
0.0949642904
 40
0.1848726006
 40
0.2888539806
 40
0.415068718
 40
0.560127092
 40
0.7142805943
 40
1.0
 40
1.0
 40
1.0
 40
1.0
 10
337.4648366544
 20
186.3946229386
 30
0.0
 10
337.3353169702
 20
186.0596897977
 30
0.0
 10
336.9327762707
 20
185.4340066179
 30
0.0
 10
335.8431281035
 20
185.032680743
 30
0.0
 10
334.6165723196
 20
185.2892343044
 30
0.0
 10
333.3928961455
 20
186.0387724141
 30
0.0
 10
332.255811746
 20
187.199281946
 30
0.0
 10
331.0585180334
 20
189.061411716
 30
0.0
 10
330.5395950036
 20
190.7265484013
 30
0.0
 10
330.5395950036
 20
191.8069853866
 30
0.0
  0
SPLINE
  5
440
100
AcDbEntity
  8
0
100
AcDbSpline
 62
7
  6
CONTINUOUS
 70
0
 71
3
 72
9
 73
5
 74
0
 42
0.0000001
 43
0.0000001
 44
0.0000000001
 40
0.0
 40
0.0
 40
0.0
 40
0.0
 40
0.2663487339
 40
1.0
 40
1.0
 40
1.0
 40
1.0
 10
330.5395950036
 20
191.8069853866
 30
0.0
 10
330.5395950036
 20
191.9133707448
 30
0.0
 10
330.5532035425
 20
192.3123903209
 30
0.0
 10
330.6232407888
 20
192.7116294606
 30
0.0
 10
330.7173735848
 20
192.989134562
 30
0.0
  0
SPLINE
  5
441
100
AcDbEntity
  8
0
100
AcDbSpline
 62
7
  6
CONTINUOUS
 70
0
 71
3
 72
9
 73
5
 74
0
 42
0.0000001
 43
0.0000001
 44
0.0000000001
 40
0.0
 40
0.0
 40
0.0
 40
0.0
 40
0.2338361505
 40
1.0
 40
1.0
 40
1.0
 40
1.0
 10
332.9955791637
 20
194.3062156161
 30
0.0
 10
333.0874059221
 20
194.2880453484
 30
0.0
 10
333.476166724
 20
194.1905298845
 30
0.0
 10
333.8449833639
 20
194.0219684373
 30
0.0
 10
334.110590546
 20
193.8686056785
 30
0.0
  0
SPLINE
  5
442
100
AcDbEntity
  8
0
100
AcDbSpline
 62
7
  6
CONTINUOUS
 70
0
 71
3
 72
9
 73
5
 74
0
 42
0.0000001
 43
0.0000001
 44
0.0000000001
 40
0.0
 40
0.0
 40
0.0
 40
0.0
 40
0.4780811355
 40
1.0
 40
1.0
 40
1.0
 40
1.0
 10
342.4150609663
 20
130.8891303318
 30
0.0
 10
342.2185190112
 20
131.002597951
 30
0.0
 10
341.8626457349
 20
131.3443718367
 30
0.0
 10
341.6803327148
 20
131.7951182639
 30
0.0
 10
341.6209282238
 20
132.0356448939
 30
0.0
  0
SPLINE
  5
443
100
AcDbEntity
  8
0
100
AcDbSpline
 62
7
  6
CONTINUOUS
 70
0
 71
3
 72
9
 73
5
 74
0
 42
0.0000001
 43
0.0000001
 44
0.0000000001
 40
0.0
 40
0.0
 40
0.0
 40
0.0
 40
0.2357605508
 40
1.0
 40
1.0
 40
1.0
 40
1.0
 10
336.9000961238
 20
319.2047816618
 30
0.0
 10
336.8313695455
 20
319.1791987809
 30
0.0
 10
336.5306636128
 20
319.0949961031
 30
0.0
 10
336.2075279801
 20
319.11235117
 30
0.0
 10
335.9754217221
 20
319.1636974198
 30
0.0
  0
SPLINE
  5
444
100
AcDbEntity
  8
0
100
AcDbSpline
 62
7
  6
CONTINUOUS
 70
0
 71
3
 72
9
 73
5
 74
0
 42
0.0000001
 43
0.0000001
 44
0.0000000001
 40
0.0
 40
0.0
 40
0.0
 40
0.0
 40
0.2353139365
 40
1.0
 40
1.0
 40
1.0
 40
1.0
 10
335.9754217221
 20
319.1636974198
 30
0.0
 10
335.9088689183
 20
319.178420146
 30
0.0
 10
335.6289617293
 20
319.2540834989
 30
0.0
 10
335.3629819104
 20
319.376844189
 30
0.0
 10
335.1711548714
 20
319.4875930761
 30
0.0
  0
SPLINE
  5
445
100
AcDbEntity
  8
0
100
AcDbSpline
 62
7
  6
CONTINUOUS
 70
0
 71
3
 72
9
 73
5
 74
0
 42
0.0000001
 43
0.0000001
 44
0.0000000001
 40
0.0
 40
0.0
 40
0.0
 40
0.0
 40
0.4644450061
 40
1.0
 40
1.0
 40
1.0
 40
1.0
 10
336.8528773321
 20
318.9834352627
 30
0.0
 10
336.6453228413
 20
318.8638082383
 30
0.0
 10
336.1196550432
 20
318.7340273543
 30
0.0
 10
335.60286711
 20
318.8507497106
 30
0.0
 10
335.3441114054
 20
318.9474648176
 30
0.0
  0
SPLINE
  5
446
100
AcDbEntity
  8
0
100
AcDbSpline
 62
7
  6
CONTINUOUS
 70
0
 71
3
 72
11
 73
7
 74
0
 42
0.0000001
 43
0.0000001
 44
0.0000000001
 40
0.0
 40
0.0
 40
0.0
 40
0.0
 40
0.2256504414
 40
0.4879078103
 40
0.7568537167
 40
1.0
 40
1.0
 40
1.0
 40
1.0
 10
335.3441114054
 20
318.9474648176
 30
0.0
 10
334.893165109
 20
319.1160149926
 30
0.0
 10
334.0085037512
 20
319.715549456
 30
0.0
 10
332.9701948815
 20
320.9705323579
 30
0.0
 10
332.2402503539
 20
322.4688608785
 30
0.0
 10
332.0245192441
 20
323.5616374654
 30
0.0
 10
332.0245192441
 20
324.0803805309
 30
0.0
  0
SPLINE
  5
447
100
AcDbEntity
  8
0
100
AcDbSpline
 62
7
  6
CONTINUOUS
 70
0
 71
3
 72
11
 73
7
 74
0
 42
0.0000001
 43
0.0000001
 44
0.0000000001
 40
0.0
 40
0.0
 40
0.0
 40
0.0
 40
0.3079115431
 40
0.5793267346
 40
0.8062319001
 40
1.0
 40
1.0
 40
1.0
 40
1.0
 10
329.338735117
 20
175.3960936325
 30
0.0
 10
329.6014287832
 20
175.3554560386
 30
0.0
 10
330.0907076171
 20
175.232627419
 30
0.0
 10
330.7159217794
 20
174.9107780706
 30
0.0
 10
331.1501739225
 20
174.4795698373
 30
0.0
 10
331.265578476
 20
174.1134293993
 30
0.0
 10
331.2656953443
 20
173.9461505224
 30
0.0
  0
SPLINE
  5
448
100
AcDbEntity
  8
0
100
AcDbSpline
 62
7
  6
CONTINUOUS
 70
0
 71
3
 72
9
 73
5
 74
0
 42
0.0000001
 43
0.0000001
 44
0.0000000001
 40
0.0
 40
0.0
 40
0.0
 40
0.0
 40
0.2401955314
 40
1.0
 40
1.0
 40
1.0
 40
1.0
 10
323.3982321237
 20
176.4586395815
 30
0.0
 10
323.4949265819
 20
176.4196240695
 30
0.0
 10
323.9026822839
 20
176.2701544682
 30
0.0
 10
324.3282841422
 20
176.1711891065
 30
0.0
 10
324.65423859
 20
176.1207653386
 30
0.0
  0
SPLINE
  5
449
100
AcDbEntity
  8
0
100
AcDbSpline
 62
7
  6
CONTINUOUS
 70
0
 71
3
 72
9
 73
5
 74
0
 42
0.0000001
 43
0.0000001
 44
0.0000000001
 40
0.0
 40
0.0
 40
0.0
 40
0.0
 40
0.5508416903
 40
1.0
 40
1.0
 40
1.0
 40
1.0
 10
331.5649659283
 20
172.2723640568
 30
0.0
 10
331.9040839834
 20
172.4681527886
 30
0.0
 10
332.4866393965
 20
172.9141562898
 30
0.0
 10
332.7658486053
 20
173.6268551242
 30
0.0
 10
332.7656256614
 20
173.946150158
 30
0.0
  0
SPLINE
  5
44A
100
AcDbEntity
  8
0
100
AcDbSpline
 62
7
  6
CONTINUOUS
 70
0
 71
3
 72
9
 73
5
 74
0
 42
0.0000001
 43
0.0000001
 44
0.0000000001
 40
0.0
 40
0.0
 40
0.0
 40
0.0
 40
0.221003968
 40
1.0
 40
1.0
 40
1.0
 40
1.0
 10
332.9320901493
 20
325.9193367235
 30
0.0
 10
332.8351111715
 20
325.8302251929
 30
0.0
 10
332.45336334
 20
325.3626646089
 30
0.0
 10
332.3427159708
 20
324.7283193063
 30
0.0
 10
332.3427159708
 20
324.2640904002
 30
0.0
  0
SPLINE
  5
44B
100
AcDbEntity
  8
0
100
AcDbSpline
 62
7
  6
CONTINUOUS
 70
0
 71
3
 72
9
 73
5
 74
0
 42
0.0000001
 43
0.0000001
 44
0.0000000001
 40
0.0
 40
0.0
 40
0.0
 40
0.0
 40
0.2654545432
 40
1.0
 40
1.0
 40
1.0
 40
1.0
 10
332.0652735209
 20
210.3651421484
 30
0.0
 10
331.9910564523
 20
210.4079904366
 30
0.0
 10
331.7171316492
 20
210.579263302
 30
0.0
 10
331.4700321002
 20
210.7916200817
 30
0.0
 10
331.3045078514
 20
210.9614307498
 30
0.0
  0
SPLINE
  5
44C
100
AcDbEntity
  8
0
100
AcDbSpline
 62
7
  6
CONTINUOUS
 70
0
 71
3
 72
9
 73
5
 74
0
 42
0.0000001
 43
0.0000001
 44
0.0000000001
 40
0.0
 40
0.0
 40
0.0
 40
0.0
 40
0.2601393662
 40
1.0
 40
1.0
 40
1.0
 40
1.0
 10
333.098097864
 20
209.9259244994
 30
0.0
 10
333.0054575059
 20
209.9560236852
 30
0.0
 10
332.6513282693
 20
210.077082377
 30
0.0
 10
332.3051947859
 20
210.2266266329
 30
0.0
 10
332.0652735209
 20
210.3651421484
 30
0.0
  0
SPLINE
  5
44D
100
AcDbEntity
  8
0
100
AcDbSpline
 62
7
  6
CONTINUOUS
 70
0
 71
3
 72
14
 73
10
 74
0
 42
0.0000001
 43
0.0000001
 44
0.0000000001
 40
0.0
 40
0.0
 40
0.0
 40
0.0
 40
0.1144195353
 40
0.2080405815
 40
0.3014657348
 40
0.4160358527
 40
0.5551562091
 40
0.709123529
 40
1.0
 40
1.0
 40
1.0
 40
1.0
 10
331.6428973532
 20
207.7888182064
 30
0.0
 10
331.7136373988
 20
207.747977346
 30
0.0
 10
331.855264846
 20
207.6895802994
 30
0.0
 10
332.0843598258
 20
207.7235033834
 30
0.0
 10
332.2284325485
 20
207.905108971
 30
0.0
 10
332.2627050291
 20
208.1571246673
 30
0.0
 10
332.2112892905
 20
208.4472435554
 30
0.0
 10
332.0427408118
 20
208.8294490739
 30
0.0
 10
331.8227319792
 20
209.0839148597
 30
0.0
 10
331.6428971768
 20
209.1877401883
 30
0.0
  0
SPLINE
  5
44E
100
AcDbEntity
  8
0
100
AcDbSpline
 62
7
  6
CONTINUOUS
 70
0
 71
3
 72
14
 73
10
 74
0
 42
0.0000001
 43
0.0000001
 44
0.0000000001
 40
0.0
 40
0.0
 40
0.0
 40
0.0
 40
0.1144195191
 40
0.2080405613
 40
0.3014657164
 40
0.4160358378
 40
0.5551561936
 40
0.7091235101
 40
1.0
 40
1.0
 40
1.0
 40
1.0
 10
331.6428971768
 20
209.1877401883
 30
0.0
 10
331.5721571554
 20
209.2285810371
 30
0.0
 10
331.4305297167
 20
209.2869780217
 30
0.0
 10
331.2014348176
 20
209.2530548494
 30
0.0
 10
331.0573621508
 20
209.071449285
 30
0.0
 10
331.023089683
 20
208.8194336326
 30
0.0
 10
331.0745053984
 20
208.529314795
 30
0.0
 10
331.2430538438
 20
208.1471093431
 30
0.0
 10
331.4630625698
 20
207.8926435182
 30
0.0
 10
331.6428973532
 20
207.7888182064
 30
0.0
  0
SPLINE
  5
44F
100
AcDbEntity
  8
0
100
AcDbSpline
 62
7
  6
CONTINUOUS
 70
0
 71
3
 72
14
 73
10
 74
0
 42
0.0000001
 43
0.0000001
 44
0.0000000001
 40
0.0
 40
0.0
 40
0.0
 40
0.0
 40
0.1144195368
 40
0.2080405851
 40
0.3014657357
 40
0.416035846
 40
0.5551561947
 40
0.7091235091
 40
1.0
 40
1.0
 40
1.0
 40
1.0
 10
331.6428973532
 20
180.027736024
 30
0.0
 10
331.7136373932
 20
179.9868951669
 30
0.0
 10
331.8552648281
 20
179.9284981249
 30
0.0
 10
332.0843597863
 20
179.9624211845
 30
0.0
 10
332.2284325211
 20
180.1440267253
 30
0.0
 10
332.2627050296
 20
180.3960423818
 30
0.0
 10
332.2112893343
 20
180.6861612368
 30
0.0
 10
332.0427408952
 20
181.0683667271
 30
0.0
 10
331.8227321538
 20
181.3228325824
 30
0.0
 10
331.6428973532
 20
181.4266579041
 30
0.0
  0
SPLINE
  5
450
100
AcDbEntity
  8
0
100
AcDbSpline
 62
7
  6
CONTINUOUS
 70
0
 71
3
 72
14
 73
10
 74
0
 42
0.0000001
 43
0.0000001
 44
0.0000000001
 40
0.0
 40
0.0
 40
0.0
 40
0.0
 40
0.1144195368
 40
0.2080405851
 40
0.3014657357
 40
0.416035846
 40
0.5551561947
 40
0.7091235091
 40
1.0
 40
1.0
 40
1.0
 40
1.0
 10
331.6428973532
 20
181.4266579041
 30
0.0
 10
331.5721573133
 20
181.4674987612
 30
0.0
 10
331.4305298784
 20
181.5258958032
 30
0.0
 10
331.2014349201
 20
181.4919727436
 30
0.0
 10
331.0573621854
 20
181.3103672028
 30
0.0
 10
331.0230896768
 20
181.0583515463
 30
0.0
 10
331.0745053721
 20
180.7682326913
 30
0.0
 10
331.2430538113
 20
180.386027201
 30
0.0
 10
331.4630625527
 20
180.1315613457
 30
0.0
 10
331.6428973532
 20
180.027736024
 30
0.0
  0
SPLINE
  5
451
100
AcDbEntity
  8
0
100
AcDbSpline
 62
7
  6
CONTINUOUS
 70
0
 71
3
 72
9
 73
5
 74
0
 42
0.0000001
 43
0.0000001
 44
0.0000000001
 40
0.0
 40
0.0
 40
0.0
 40
0.0
 40
0.2690533786
 40
1.0
 40
1.0
 40
1.0
 40
1.0
 10
332.0245192441
 20
191.8069889559
 30
0.0
 10
332.0245192441
 20
191.9035056013
 30
0.0
 10
332.0385410252
 20
192.261675383
 30
0.0
 10
332.1111513804
 20
192.6206701741
 30
0.0
 10
332.2101187326
 20
192.8634861634
 30
0.0
  0
SPLINE
  5
452
100
AcDbEntity
  8
0
100
AcDbSpline
 62
7
  6
CONTINUOUS
 70
0
 71
3
 72
9
 73
5
 74
0
 42
0.0000001
 43
0.0000001
 44
0.0000000001
 40
0.0
 40
0.0
 40
0.0
 40
0.0
 40
0.2656402056
 40
1.0
 40
1.0
 40
1.0
 40
1.0
 10
332.2101187326
 20
192.8634861634
 30
0.0
 10
332.2375014887
 20
192.9306696421
 30
0.0
 10
332.3535628624
 20
193.1777727262
 30
0.0
 10
332.5294932323
 20
193.3991860589
 30
0.0
 10
332.6862482422
 20
193.5242987317
 30
0.0
  0
SPLINE
  5
453
100
AcDbEntity
  8
0
100
AcDbSpline
 62
7
  6
CONTINUOUS
 70
0
 71
3
 72
11
 73
7
 74
0
 42
0.0000001
 43
0.0000001
 44
0.0000000001
 40
0.0
 40
0.0
 40
0.0
 40
0.0
 40
0.2418469678
 40
0.5094498461
 40
0.771862029
 40
1.0
 40
1.0
 40
1.0
 40
1.0
 10
332.3427159708
 20
191.9906988252
 30
0.0
 10
332.3427159708
 20
191.4832626422
 30
0.0
 10
332.5495398866
 20
190.4139973684
 30
0.0
 10
333.2536204424
 20
188.9402347933
 30
0.0
 10
334.2611117201
 20
187.6918082015
 30
0.0
 10
335.1203393817
 20
187.0814092619
 30
0.0
 10
335.562225872
 20
186.8973886994
 30
0.0
  0
SPLINE
  5
454
100
AcDbEntity
  8
0
100
AcDbSpline
 62
7
  6
CONTINUOUS
 70
0
 71
3
 72
9
 73
5
 74
0
 42
0.0000001
 43
0.0000001
 44
0.0000000001
 40
0.0
 40
0.0
 40
0.0
 40
0.0
 40
0.2792985908
 40
1.0
 40
1.0
 40
1.0
 40
1.0
 10
335.562225872
 20
186.8973886994
 30
0.0
 10
335.679188934
 20
186.8486802439
 30
0.0
 10
336.1061737487
 20
186.7001344279
 30
0.0
 10
336.5914451257
 20
186.6770278982
 30
0.0
 10
336.9030566975
 20
186.7759495735
 30
0.0
  0
SPLINE
  5
455
100
AcDbEntity
  8
0
100
AcDbSpline
 62
7
  6
CONTINUOUS
 70
0
 71
3
 72
11
 73
7
 74
0
 42
0.0000001
 43
0.0000001
 44
0.0000000001
 40
0.0
 40
0.0
 40
0.0
 40
0.0
 40
0.2709150412
 40
0.419372274
 40
0.5661989727
 40
1.0
 40
1.0
 40
1.0
 40
1.0
 10
335.1711548714
 20
187.2142015011
 30
0.0
 10
334.6027807055
 20
187.5423450553
 30
0.0
 10
333.8512839965
 20
188.270813956
 30
0.0
 10
333.1097589243
 20
189.4395440073
 30
0.0
 10
332.4115805367
 20
191.0043939268
 30
0.0
 10
332.2562669948
 20
192.8873604885
 30
0.0
 10
333.0616836124
 20
193.5624021116
 30
0.0
  0
SPLINE
  5
456
100
AcDbEntity
  8
0
100
AcDbSpline
 62
7
  6
CONTINUOUS
 70
0
 71
3
 72
13
 73
9
 74
0
 42
0.0000001
 43
0.0000001
 44
0.0000000001
 40
0.0
 40
0.0
 40
0.0
 40
0.0
 40
0.0871363206
 40
0.1868486373
 40
0.3045288712
 40
0.4386658937
 40
0.7300816948
 40
1.0
 40
1.0
 40
1.0
 40
1.0
 10
324.5659907624
 20
306.2195428449
 30
0.0
 10
324.5661578894
 20
305.9830896462
 30
0.0
 10
324.7084912798
 20
305.4713697954
 30
0.0
 10
325.2663943438
 20
304.837136082
 30
0.0
 10
326.0896405936
 20
304.3353237826
 30
0.0
 10
327.4973442118
 20
303.8664072663
 30
0.0
 10
329.4144038118
 20
303.7691576648
 30
0.0
 10
330.9306440327
 20
304.1795319007
 30
0.0
 10
331.5649659283
 20
304.5457556318
 30
0.0
  0
SPLINE
  5
457
100
AcDbEntity
  8
0
100
AcDbSpline
 62
7
  6
CONTINUOUS
 70
0
 71
3
 72
9
 73
5
 74
0
 42
0.0000001
 43
0.0000001
 44
0.0000000001
 40
0.0
 40
0.0
 40
0.0
 40
0.0
 40
0.4999994563
 40
1.0
 40
1.0
 40
1.0
 40
1.0
 10
328.3122052573
 20
344.1459084411
 30
0.0
 10
328.5220843602
 20
344.2670814743
 30
0.0
 10
329.0193113464
 20
344.3629118065
 30
0.0
 10
329.5165383865
 20
344.2670836237
 30
0.0
 10
329.7264188197
 20
344.1459118404
 30
0.0
  0
SPLINE
  5
458
100
AcDbEntity
  8
0
100
AcDbSpline
 62
7
  6
CONTINUOUS
 70
0
 71
3
 72
9
 73
5
 74
0
 42
0.0000001
 43
0.0000001
 44
0.0000000001
 40
0.0
 40
0.0
 40
0.0
 40
0.0
 40
0.5508416902
 40
1.0
 40
1.0
 40
1.0
 40
1.0
 10
331.5649659283
 20
334.5113943405
 30
0.0
 10
331.9040839834
 20
334.7071830722
 30
0.0
 10
332.4866393966
 20
335.1531865735
 30
0.0
 10
332.7658486053
 20
335.8658854078
 30
0.0
 10
332.7656256614
 20
336.1851804417
 30
0.0
  0
SPLINE
  5
459
100
AcDbEntity
  8
0
100
AcDbSpline
 62
7
  6
CONTINUOUS
 70
0
 71
3
 72
11
 73
7
 74
0
 42
0.0000001
 43
0.0000001
 44
0.0000000001
 40
0.0
 40
0.0
 40
0.0
 40
0.0
 40
0.3079115431
 40
0.5793267346
 40
0.8062319001
 40
1.0
 40
1.0
 40
1.0
 40
1.0
 10
329.338735117
 20
337.6351239161
 30
0.0
 10
329.6014287832
 20
337.5944863223
 30
0.0
 10
330.0907076171
 20
337.4716577027
 30
0.0
 10
330.7159217794
 20
337.1498083542
 30
0.0
 10
331.1501739225
 20
336.7186001209
 30
0.0
 10
331.265578476
 20
336.352459683
 30
0.0
 10
331.2656953443
 20
336.185180806
 30
0.0
  0
SPLINE
  5
45A
100
AcDbEntity
  8
0
100
AcDbSpline
 62
7
  6
CONTINUOUS
 70
0
 71
3
 72
10
 73
6
 74
0
 42
0.0000001
 43
0.0000001
 44
0.0000000001
 40
0.0
 40
0.0
 40
0.0
 40
0.0
 40
0.2184025826
 40
0.452254906
 40
1.0
 40
1.0
 40
1.0
 40
1.0
 10
208.3553728227
 20
370.0892956865
 30
0.0
 10
208.5862267552
 20
370.2225922549
 30
0.0
 10
209.0187083048
 20
370.5854890573
 30
0.0
 10
209.6628077743
 20
371.6405004818
 30
0.0
 10
209.8057620028
 20
372.6250365359
 30
0.0
 10
209.8052747375
 20
373.2935926078
 30
0.0
  0
SPLINE
  5
45B
100
AcDbEntity
  8
0
100
AcDbSpline
 62
7
  6
CONTINUOUS
 70
0
 71
3
 72
9
 73
5
 74
0
 42
0.0000001
 43
0.0000001
 44
0.0000000001
 40
0.0
 40
0.0
 40
0.0
 40
0.0
 40
0.2372628046
 40
1.0
 40
1.0
 40
1.0
 40
1.0
 10
332.3605975558
 20
306.9907588769
 30
0.0
 10
332.417783337
 20
306.9513727619
 30
0.0
 10
332.6520566632
 20
306.7756398618
 30
0.0
 10
332.859741209
 20
306.5656031675
 30
0.0
 10
333.0021910988
 20
306.3937435388
 30
0.0
  0
SPLINE
  5
45C
100
AcDbEntity
  8
0
100
AcDbSpline
 62
7
  6
CONTINUOUS
 70
0
 71
3
 72
8
 73
4
 74
0
 42
0.0000001
 43
0.0000001
 44
0.0000000001
 40
0.0
 40
0.0
 40
0.0
 40
0.0
 40
1.0
 40
1.0
 40
1.0
 40
1.0
 10
333.0021910988
 20
306.3937435388
 30
0.0
 10
333.3034868298
 20
306.0302432751
 30
0.0
 10
333.5434441741
 20
305.6062152296
 30
0.0
 10
333.6983041306
 20
305.1601995875
 30
0.0
  0
SPLINE
  5
45D
100
AcDbEntity
  8
0
100
AcDbSpline
 62
7
  6
CONTINUOUS
 70
0
 71
3
 72
11
 73
7
 74
0
 42
0.0000001
 43
0.0000001
 44
0.0000000001
 40
0.0
 40
0.0
 40
0.0
 40
0.0
 40
0.3154017466
 40
0.5833338213
 40
0.8015022272
 40
1.0
 40
1.0
 40
1.0
 40
1.0
 10
333.6983041306
 20
305.1601995875
 30
0.0
 10
333.7852532539
 20
304.9097754628
 30
0.0
 10
333.8979385242
 20
304.4267738089
 30
0.0
 10
333.8688124281
 20
303.743255029
 30
0.0
 10
333.6029163455
 20
303.2008116404
 30
0.0
 10
333.262965622
 20
303.0327367465
 30
0.0
 10
333.098097864
 20
303.0072000522
 30
0.0
  0
SPLINE
  5
45E
100
AcDbEntity
  8
0
100
AcDbSpline
 62
7
  6
CONTINUOUS
 70
0
 71
3
 72
13
 73
9
 74
0
 42
0.0000001
 43
0.0000001
 44
0.0000000001
 40
0.0
 40
0.0
 40
0.0
 40
0.0
 40
0.2793006939
 40
0.5759325216
 40
0.7072178645
 40
0.8184969766
 40
0.9119851237
 40
1.0
 40
1.0
 40
1.0
 40
1.0
 10
332.2013028577
 20
339.1504064585
 30
0.0
 10
331.7983063166
 20
339.3830713564
 30
0.0
 10
331.1095740122
 20
340.0992534172
 30
0.0
 10
330.6048198315
 20
341.1922978925
 30
0.0
 10
330.4989930738
 20
342.0925448818
 30
0.0
 10
330.5894854096
 20
342.6553890947
 30
0.0
 10
330.8651557602
 20
343.0827628906
 30
0.0
 10
331.159595929
 20
343.2123766295
 30
0.0
 10
331.3045078514
 20
343.2348223248
 30
0.0
  0
SPLINE
  5
45F
100
AcDbEntity
  8
0
100
AcDbSpline
 62
7
  6
CONTINUOUS
 70
0
 71
3
 72
13
 73
9
 74
0
 42
0.0000001
 43
0.0000001
 44
0.0000000001
 40
0.0
 40
0.0
 40
0.0
 40
0.0
 40
0.3178487461
 40
0.4619922619
 40
0.5856862574
 40
0.6888830612
 40
0.7821621479
 40
1.0
 40
1.0
 40
1.0
 40
1.0
 10
333.098097864
 20
342.1993160744
 30
0.0
 10
333.4003775901
 20
341.8034607014
 30
0.0
 10
333.7417686778
 20
341.1386378057
 30
0.0
 10
333.9001610192
 20
340.2284695473
 30
0.0
 10
333.8511200069
 20
339.6407792301
 30
0.0
 10
333.6235638044
 20
339.1726885754
 30
0.0
 10
333.0418196431
 20
338.8073793695
 30
0.0
 10
332.4969250286
 20
338.9797327798
 30
0.0
 10
332.2013028577
 20
339.1504064585
 30
0.0
  0
SPLINE
  5
460
100
AcDbEntity
  8
0
100
AcDbSpline
 62
7
  6
CONTINUOUS
 70
0
 71
3
 72
13
 73
9
 74
0
 42
0.0000001
 43
0.0000001
 44
0.0000000001
 40
0.0
 40
0.0
 40
0.0
 40
0.0
 40
0.3085600486
 40
0.5950480201
 40
0.7131997229
 40
0.8130449486
 40
0.9036168909
 40
1.0
 40
1.0
 40
1.0
 40
1.0
 10
332.8121084913
 20
334.3667915278
 30
0.0
 10
333.1352148904
 20
334.0344870752
 30
0.0
 10
333.635483361
 20
333.2727629628
 30
0.0
 10
333.9243746588
 20
332.2080596382
 30
0.0
 10
333.8384404326
 20
331.4450977195
 30
0.0
 10
333.6229082798
 20
331.0178290809
 30
0.0
 10
333.2495630836
 20
330.7645612252
 30
0.0
 10
332.9564996895
 20
330.7478787523
 30
0.0
 10
332.8128500774
 20
330.7659193681
 30
0.0
  0
SPLINE
  5
461
100
AcDbEntity
  8
0
100
AcDbSpline
 62
7
  6
CONTINUOUS
 70
0
 71
3
 72
14
 73
10
 74
0
 42
0.0000001
 43
0.0000001
 44
0.0000000001
 40
0.0
 40
0.0
 40
0.0
 40
0.0
 40
0.2907821441
 40
0.4448234713
 40
0.5838972937
 40
0.6984789327
 40
0.7919404408
 40
0.8854097328
 40
1.0
 40
1.0
 40
1.0
 40
1.0
 10
332.2013028577
 20
311.3893242761
 30
0.0
 10
331.7042629158
 20
311.6762839285
 30
0.0
 10
331.0961776005
 20
312.3797502791
 30
0.0
 10
330.6296077577
 20
313.4362117412
 30
0.0
 10
330.488165754
 20
314.2383722956
 30
0.0
 10
330.5820981395
 20
314.935441385
 30
0.0
 10
330.9807998253
 20
315.4367491351
 30
0.0
 10
331.6138958659
 20
315.5321734105
 30
0.0
 10
332.0054313405
 20
315.3697240046
 30
0.0
 10
332.2013028577
 20
315.2566400897
 30
0.0
  0
SPLINE
  5
462
100
AcDbEntity
  8
0
100
AcDbSpline
 62
7
  6
CONTINUOUS
 70
0
 71
3
 72
14
 73
10
 74
0
 42
0.0000001
 43
0.0000001
 44
0.0000000001
 40
0.0
 40
0.0
 40
0.0
 40
0.0
 40
0.2907821441
 40
0.4448234713
 40
0.5838972937
 40
0.6984789327
 40
0.7919404408
 40
0.8854097328
 40
1.0
 40
1.0
 40
1.0
 40
1.0
 10
332.2013028577
 20
315.2566400897
 30
0.0
 10
332.6983427996
 20
314.9696804373
 30
0.0
 10
333.3064281149
 20
314.2662140867
 30
0.0
 10
333.7729979577
 20
313.2097526247
 30
0.0
 10
333.9144399614
 20
312.4075920703
 30
0.0
 10
333.8205075759
 20
311.7105229809
 30
0.0
 10
333.4218058901
 20
311.2092152308
 30
0.0
 10
332.7887098496
 20
311.1137909554
 30
0.0
 10
332.3971743749
 20
311.2762403613
 30
0.0
 10
332.2013028577
 20
311.3893242761
 30
0.0
  0
SPLINE
  5
463
100
AcDbEntity
  8
0
100
AcDbSpline
 62
7
  6
CONTINUOUS
 70
0
 71
3
 72
8
 73
4
 74
0
 42
0.0000001
 43
0.0000001
 44
0.0000000001
 40
0.0
 40
0.0
 40
0.0
 40
0.0
 40
1.0
 40
1.0
 40
1.0
 40
1.0
 10
337.6805837107
 20
319.869936634
 30
0.0
 10
337.6774724918
 20
319.7051504623
 30
0.0
 10
337.6654498713
 20
319.5401918423
 30
0.0
 10
337.6428691592
 20
319.3769304767
 30
0.0
  0
SPLINE
  5
464
100
AcDbEntity
  8
0
100
AcDbSpline
 62
7
  6
CONTINUOUS
 70
0
 71
3
 72
8
 73
4
 74
0
 42
0.0000001
 43
0.0000001
 44
0.0000000001
 40
0.0
 40
0.0
 40
0.0
 40
0.0
 40
1.0
 40
1.0
 40
1.0
 40
1.0
 10
337.5820738678
 20
319.049486683
 30
0.0
 10
337.5514660247
 20
318.9200288307
 30
0.0
 10
337.5128161254
 20
318.7920876612
 30
0.0
 10
337.4648366544
 20
318.6680145135
 30
0.0
  0
SPLINE
  5
465
100
AcDbEntity
  8
0
100
AcDbSpline
 62
7
  6
CONTINUOUS
 70
0
 71
3
 72
14
 73
10
 74
0
 42
0.0000001
 43
0.0000001
 44
0.0000000001
 40
0.0
 40
0.0
 40
0.0
 40
0.0
 40
0.0949642904
 40
0.1848726006
 40
0.2888539806
 40
0.415068718
 40
0.560127092
 40
0.7142805943
 40
1.0
 40
1.0
 40
1.0
 40
1.0
 10
337.4648366544
 20
318.6680145135
 30
0.0
 10
337.3353169702
 20
318.3330813727
 30
0.0
 10
336.9327762707
 20
317.7073981929
 30
0.0
 10
335.8431281035
 20
317.3060723179
 30
0.0
 10
334.6165723196
 20
317.5626258794
 30
0.0
 10
333.3928961455
 20
318.3121639891
 30
0.0
 10
332.255811746
 20
319.472673521
 30
0.0
 10
331.0585180334
 20
321.334803291
 30
0.0
 10
330.5395950036
 20
322.9999399762
 30
0.0
 10
330.5395950036
 20
324.0803769616
 30
0.0
  0
SPLINE
  5
466
100
AcDbEntity
  8
0
100
AcDbSpline
 62
7
  6
CONTINUOUS
 70
0
 71
3
 72
9
 73
5
 74
0
 42
0.0000001
 43
0.0000001
 44
0.0000000001
 40
0.0
 40
0.0
 40
0.0
 40
0.0
 40
0.2663487339
 40
1.0
 40
1.0
 40
1.0
 40
1.0
 10
330.5395950036
 20
324.0803769616
 30
0.0
 10
330.5395950036
 20
324.1867623198
 30
0.0
 10
330.5532035425
 20
324.5857818959
 30
0.0
 10
330.6232407888
 20
324.9850210355
 30
0.0
 10
330.7173735848
 20
325.262526137
 30
0.0
  0
SPLINE
  5
467
100
AcDbEntity
  8
0
100
AcDbSpline
 62
7
  6
CONTINUOUS
 70
0
 71
3
 72
9
 73
5
 74
0
 42
0.0000001
 43
0.0000001
 44
0.0000000001
 40
0.0
 40
0.0
 40
0.0
 40
0.0
 40
0.2338361505
 40
1.0
 40
1.0
 40
1.0
 40
1.0
 10
332.9955791637
 20
326.5796071911
 30
0.0
 10
333.0874059221
 20
326.5614369234
 30
0.0
 10
333.476166724
 20
326.4639214595
 30
0.0
 10
333.8449833639
 20
326.2953600123
 30
0.0
 10
334.110590546
 20
326.1419972535
 30
0.0
  0
SPLINE
  5
468
100
AcDbEntity
  8
0
100
AcDbSpline
 62
7
  6
CONTINUOUS
 70
0
 71
3
 72
13
 73
9
 74
0
 42
0.0000001
 43
0.0000001
 44
0.0000000001
 40
0.0
 40
0.0
 40
0.0
 40
0.0
 40
0.0871363206
 40
0.1868486373
 40
0.3045288712
 40
0.4386658937
 40
0.7300816948
 40
1.0
 40
1.0
 40
1.0
 40
1.0
 10
324.5659907624
 20
336.1851815535
 30
0.0
 10
324.5661578894
 20
335.9487283548
 30
0.0
 10
324.7084912798
 20
335.437008504
 30
0.0
 10
325.2663943438
 20
334.8027747906
 30
0.0
 10
326.0896405936
 20
334.3009624912
 30
0.0
 10
327.4973442119
 20
333.8320459749
 30
0.0
 10
329.4144038119
 20
333.7347963735
 30
0.0
 10
330.9306440328
 20
334.1451706094
 30
0.0
 10
331.5649659283
 20
334.5113943405
 30
0.0
  0
SPLINE
  5
469
100
AcDbEntity
  8
0
100
AcDbSpline
 62
7
  6
CONTINUOUS
 70
0
 71
3
 72
9
 73
5
 74
0
 42
0.0000001
 43
0.0000001
 44
0.0000000001
 40
0.0
 40
0.0
 40
0.0
 40
0.0
 40
0.2371304697
 40
1.0
 40
1.0
 40
1.0
 40
1.0
 10
200.1987555153
 20
381.0862514925
 30
0.0
 10
200.1398426564
 20
381.0094333187
 30
0.0
 10
199.9091909495
 20
380.6718555088
 30
0.0
 10
199.7515721611
 20
380.2874164792
 30
0.0
 10
199.6672517133
 20
379.9876090435
 30
0.0
  0
SPLINE
  5
46A
100
AcDbEntity
  8
0
100
AcDbSpline
 62
7
  6
CONTINUOUS
 70
0
 71
3
 72
9
 73
5
 74
0
 42
0.0000001
 43
0.0000001
 44
0.0000000001
 40
0.0
 40
0.0
 40
0.0
 40
0.0
 40
0.2391936401
 40
1.0
 40
1.0
 40
1.0
 40
1.0
 10
199.6672517133
 20
379.9876090435
 30
0.0
 10
199.6438328496
 20
379.9043415838
 30
0.0
 10
199.5570203508
 20
379.5531276964
 30
0.0
 10
199.5124178184
 20
379.1920747636
 30
0.0
 10
199.4978298887
 20
378.9173362892
 30
0.0
  0
SPLINE
  5
46B
100
AcDbEntity
  8
0
100
AcDbSpline
 62
7
  6
CONTINUOUS
 70
0
 71
3
 72
8
 73
4
 74
0
 42
0.0000001
 43
0.0000001
 44
0.0000000001
 40
0.0
 40
0.0
 40
0.0
 40
0.0
 40
1.0
 40
1.0
 40
1.0
 40
1.0
 10
208.4735931737
 20
370.5451762291
 30
0.0
 10
208.4229961667
 20
370.3941530804
 30
0.0
 10
208.363621798
 20
370.2457002282
 30
0.0
 10
208.2947440598
 20
370.1020899717
 30
0.0
  0
SPLINE
  5
46C
100
AcDbEntity
  8
0
100
AcDbSpline
 62
7
  6
CONTINUOUS
 70
0
 71
3
 72
11
 73
7
 74
0
 42
0.0000001
 43
0.0000001
 44
0.0000000001
 40
0.0
 40
0.0
 40
0.0
 40
0.0
 40
0.2176487998
 40
0.4361926969
 40
0.6929529333
 40
1.0
 40
1.0
 40
1.0
 40
1.0
 10
208.1752087559
 20
369.8748054659
 30
0.0
 10
207.9340786318
 20
369.4557878204
 30
0.0
 10
207.2290385699
 20
368.703769805
 30
0.0
 10
205.6430198214
 20
368.3782410739
 30
0.0
 10
203.9298174433
 20
368.8624488027
 30
0.0
 10
202.8708438834
 20
369.5590297655
 30
0.0
 10
202.3440704847
 20
369.9922260933
 30
0.0
  0
SPLINE
  5
46D
100
AcDbEntity
  8
0
100
AcDbSpline
 62
7
  6
CONTINUOUS
 70
0
 71
3
 72
9
 73
5
 74
0
 42
0.0000001
 43
0.0000001
 44
0.0000000001
 40
0.0
 40
0.0
 40
0.0
 40
0.0
 40
0.2582520784
 40
1.0
 40
1.0
 40
1.0
 40
1.0
 10
198.2737866295
 20
377.0103042227
 30
0.0
 10
198.2555615089
 20
377.1169838421
 30
0.0
 10
198.1921281715
 20
377.5312211774
 30
0.0
 10
198.1576827598
 20
377.9501577742
 30
0.0
 10
198.1521343763
 20
378.2609511527
 30
0.0
  0
SPLINE
  5
46E
100
AcDbEntity
  8
0
100
AcDbSpline
 62
7
  6
CONTINUOUS
 70
0
 71
3
 72
9
 73
5
 74
0
 42
0.0000001
 43
0.0000001
 44
0.0000000001
 40
0.0
 40
0.0
 40
0.0
 40
0.0
 40
0.4346210402
 40
1.0
 40
1.0
 40
1.0
 40
1.0
 10
321.8048741047
 20
340.0399953974
 30
0.0
 10
321.9976202779
 20
339.586215593
 30
0.0
 10
322.9162897719
 20
338.7761844586
 30
0.0
 10
324.020431964
 20
338.4578428139
 30
0.0
 10
324.6542385896
 20
338.3597956223
 30
0.0
  0
SPLINE
  5
46F
100
AcDbEntity
  8
0
100
AcDbSpline
 62
7
  6
CONTINUOUS
 70
0
 71
3
 72
9
 73
5
 74
0
 42
0.0000001
 43
0.0000001
 44
0.0000000001
 40
0.0
 40
0.0
 40
0.0
 40
0.0
 40
0.4491582048
 40
1.0
 40
1.0
 40
1.0
 40
1.0
 10
323.1896147522
 20
340.590476968
 30
0.0
 10
323.1894787319
 20
340.7851690164
 30
0.0
 10
323.3597284039
 20
341.2197414504
 30
0.0
 10
323.7149450297
 20
341.4916948546
 30
0.0
 10
323.9217243711
 20
341.6110782504
 30
0.0
  0
SPLINE
  5
470
100
AcDbEntity
  8
0
100
AcDbSpline
 62
7
  6
CONTINUOUS
 70
0
 71
3
 72
9
 73
5
 74
0
 42
0.0000001
 43
0.0000001
 44
0.0000000001
 40
0.0
 40
0.0
 40
0.0
 40
0.0
 40
0.2357605508
 40
1.0
 40
1.0
 40
1.0
 40
1.0
 10
336.9000961238
 20
186.9313900868
 30
0.0
 10
336.8313695455
 20
186.9058072059
 30
0.0
 10
336.5306636128
 20
186.8216045281
 30
0.0
 10
336.2075279801
 20
186.838959595
 30
0.0
 10
335.9754217221
 20
186.8903058448
 30
0.0
  0
SPLINE
  5
471
100
AcDbEntity
  8
0
100
AcDbSpline
 62
7
  6
CONTINUOUS
 70
0
 71
3
 72
9
 73
5
 74
0
 42
0.0000001
 43
0.0000001
 44
0.0000000001
 40
0.0
 40
0.0
 40
0.0
 40
0.0
 40
0.2353139365
 40
1.0
 40
1.0
 40
1.0
 40
1.0
 10
335.9754217221
 20
186.8903058448
 30
0.0
 10
335.9088689183
 20
186.905028571
 30
0.0
 10
335.6289617293
 20
186.9806919239
 30
0.0
 10
335.3629819104
 20
187.103452614
 30
0.0
 10
335.1711548714
 20
187.2142015011
 30
0.0
  0
SPLINE
  5
472
100
AcDbEntity
  8
0
100
AcDbSpline
 62
7
  6
CONTINUOUS
 70
0
 71
3
 72
11
 73
7
 74
0
 42
0.0000001
 43
0.0000001
 44
0.0000000001
 40
0.0
 40
0.0
 40
0.0
 40
0.0
 40
0.3079115431
 40
0.5793267346
 40
0.8062319001
 40
1.0
 40
1.0
 40
1.0
 40
1.0
 10
329.338735117
 20
307.6694852075
 30
0.0
 10
329.6014287832
 20
307.6288476136
 30
0.0
 10
330.0907076171
 20
307.506018994
 30
0.0
 10
330.7159217794
 20
307.1841696456
 30
0.0
 10
331.1501739225
 20
306.7529614123
 30
0.0
 10
331.265578476
 20
306.3868209743
 30
0.0
 10
331.2656953443
 20
306.2195420973
 30
0.0
  0
SPLINE
  5
473
100
AcDbEntity
  8
0
100
AcDbSpline
 62
7
  6
CONTINUOUS
 70
0
 71
3
 72
9
 73
5
 74
0
 42
0.0000001
 43
0.0000001
 44
0.0000000001
 40
0.0
 40
0.0
 40
0.0
 40
0.0
 40
0.2401955314
 40
1.0
 40
1.0
 40
1.0
 40
1.0
 10
323.3982321237
 20
308.7320311565
 30
0.0
 10
323.4949265819
 20
308.6930156445
 30
0.0
 10
323.9026822839
 20
308.5435460432
 30
0.0
 10
324.3282841422
 20
308.4445806815
 30
0.0
 10
324.65423859
 20
308.3941569135
 30
0.0
  0
SPLINE
  5
474
100
AcDbEntity
  8
0
100
AcDbSpline
 62
7
  6
CONTINUOUS
 70
0
 71
3
 72
9
 73
5
 74
0
 42
0.0000001
 43
0.0000001
 44
0.0000000001
 40
0.0
 40
0.0
 40
0.0
 40
0.0
 40
0.5508416903
 40
1.0
 40
1.0
 40
1.0
 40
1.0
 10
331.5649659283
 20
304.5457556318
 30
0.0
 10
331.9040839834
 20
304.7415443635
 30
0.0
 10
332.4866393965
 20
305.1875478648
 30
0.0
 10
332.7658486053
 20
305.9002466992
 30
0.0
 10
332.7656256614
 20
306.219541733
 30
0.0
  0
SPLINE
  5
475
100
AcDbEntity
  8
0
100
AcDbSpline
 62
7
  6
CONTINUOUS
 70
0
 71
3
 72
9
 73
5
 74
0
 42
0.0000001
 43
0.0000001
 44
0.0000000001
 40
0.0
 40
0.0
 40
0.0
 40
0.0
 40
0.4644450061
 40
1.0
 40
1.0
 40
1.0
 40
1.0
 10
336.8528773321
 20
186.7100436877
 30
0.0
 10
336.6453228413
 20
186.5904166633
 30
0.0
 10
336.1196550432
 20
186.4606357793
 30
0.0
 10
335.60286711
 20
186.5773581356
 30
0.0
 10
335.3441114054
 20
186.6740732426
 30
0.0
  0
SPLINE
  5
476
100
AcDbEntity
  8
0
100
AcDbSpline
 62
7
  6
CONTINUOUS
 70
0
 71
3
 72
11
 73
7
 74
0
 42
0.0000001
 43
0.0000001
 44
0.0000000001
 40
0.0
 40
0.0
 40
0.0
 40
0.0
 40
0.2256504414
 40
0.4879078103
 40
0.7568537167
 40
1.0
 40
1.0
 40
1.0
 40
1.0
 10
335.3441114054
 20
186.6740732426
 30
0.0
 10
334.893165109
 20
186.8426234176
 30
0.0
 10
334.0085037512
 20
187.442157881
 30
0.0
 10
332.9701948815
 20
188.6971407829
 30
0.0
 10
332.2402503539
 20
190.1954693035
 30
0.0
 10
332.0245192441
 20
191.2882458904
 30
0.0
 10
332.0245192441
 20
191.8069889559
 30
0.0
  0
SPLINE
  5
477
100
AcDbEntity
  8
0
100
AcDbSpline
 62
7
  6
CONTINUOUS
 70
0
 71
3
 72
9
 73
5
 74
0
 42
0.0000001
 43
0.0000001
 44
0.0000000001
 40
0.0
 40
0.0
 40
0.0
 40
0.0
 40
0.221003968
 40
1.0
 40
1.0
 40
1.0
 40
1.0
 10
332.9320901493
 20
193.6459451485
 30
0.0
 10
332.8351111715
 20
193.5568336179
 30
0.0
 10
332.45336334
 20
193.0892730339
 30
0.0
 10
332.3427159708
 20
192.4549277313
 30
0.0
 10
332.3427159708
 20
191.9906988252
 30
0.0
  0
SPLINE
  5
478
100
AcDbEntity
  8
0
100
AcDbSpline
 62
7
  6
CONTINUOUS
 70
0
 71
3
 72
9
 73
5
 74
0
 42
0.0000001
 43
0.0000001
 44
0.0000000001
 40
0.0
 40
0.0
 40
0.0
 40
0.0
 40
0.2654545432
 40
1.0
 40
1.0
 40
1.0
 40
1.0
 10
332.0652735209
 20
342.6385337234
 30
0.0
 10
331.9910564523
 20
342.6813820116
 30
0.0
 10
331.7171316492
 20
342.852654877
 30
0.0
 10
331.4700321002
 20
343.0650116567
 30
0.0
 10
331.3045078514
 20
343.2348223248
 30
0.0
  0
SPLINE
  5
479
100
AcDbEntity
  8
0
100
AcDbSpline
 62
7
  6
CONTINUOUS
 70
0
 71
3
 72
9
 73
5
 74
0
 42
0.0000001
 43
0.0000001
 44
0.0000000001
 40
0.0
 40
0.0
 40
0.0
 40
0.0
 40
0.2601393662
 40
1.0
 40
1.0
 40
1.0
 40
1.0
 10
333.098097864
 20
342.1993160744
 30
0.0
 10
333.0054575059
 20
342.2294152602
 30
0.0
 10
332.6513282693
 20
342.350473952
 30
0.0
 10
332.3051947859
 20
342.5000182079
 30
0.0
 10
332.0652735209
 20
342.6385337234
 30
0.0
  0
SPLINE
  5
47A
100
AcDbEntity
  8
0
100
AcDbSpline
 62
7
  6
CONTINUOUS
 70
0
 71
3
 72
14
 73
10
 74
0
 42
0.0000001
 43
0.0000001
 44
0.0000000001
 40
0.0
 40
0.0
 40
0.0
 40
0.0
 40
0.1144195353
 40
0.2080405815
 40
0.3014657348
 40
0.4160358527
 40
0.5551562091
 40
0.709123529
 40
1.0
 40
1.0
 40
1.0
 40
1.0
 10
331.6428973532
 20
340.0622097814
 30
0.0
 10
331.7136373988
 20
340.021368921
 30
0.0
 10
331.855264846
 20
339.9629718744
 30
0.0
 10
332.0843598258
 20
339.9968949584
 30
0.0
 10
332.2284325485
 20
340.178500546
 30
0.0
 10
332.2627050291
 20
340.4305162423
 30
0.0
 10
332.2112892905
 20
340.7206351304
 30
0.0
 10
332.0427408118
 20
341.1028406489
 30
0.0
 10
331.8227319792
 20
341.3573064346
 30
0.0
 10
331.6428971768
 20
341.4611317633
 30
0.0
  0
SPLINE
  5
47B
100
AcDbEntity
  8
0
100
AcDbSpline
 62
7
  6
CONTINUOUS
 70
0
 71
3
 72
14
 73
10
 74
0
 42
0.0000001
 43
0.0000001
 44
0.0000000001
 40
0.0
 40
0.0
 40
0.0
 40
0.0
 40
0.1144195191
 40
0.2080405613
 40
0.3014657164
 40
0.4160358378
 40
0.5551561936
 40
0.7091235101
 40
1.0
 40
1.0
 40
1.0
 40
1.0
 10
331.6428971768
 20
341.4611317633
 30
0.0
 10
331.5721571554
 20
341.5019726121
 30
0.0
 10
331.4305297167
 20
341.5603695967
 30
0.0
 10
331.2014348176
 20
341.5264464244
 30
0.0
 10
331.0573621508
 20
341.34484086
 30
0.0
 10
331.023089683
 20
341.0928252076
 30
0.0
 10
331.0745053984
 20
340.80270637
 30
0.0
 10
331.2430538438
 20
340.4205009181
 30
0.0
 10
331.4630625698
 20
340.1660350932
 30
0.0
 10
331.6428973532
 20
340.0622097814
 30
0.0
  0
SPLINE
  5
47C
100
AcDbEntity
  8
0
100
AcDbSpline
 62
7
  6
CONTINUOUS
 70
0
 71
3
 72
14
 73
10
 74
0
 42
0.0000001
 43
0.0000001
 44
0.0000000001
 40
0.0
 40
0.0
 40
0.0
 40
0.0
 40
0.1144195368
 40
0.2080405851
 40
0.3014657357
 40
0.416035846
 40
0.5551561947
 40
0.7091235091
 40
1.0
 40
1.0
 40
1.0
 40
1.0
 10
331.6428973532
 20
312.301127599
 30
0.0
 10
331.7136373932
 20
312.2602867419
 30
0.0
 10
331.8552648281
 20
312.2018896999
 30
0.0
 10
332.0843597863
 20
312.2358127595
 30
0.0
 10
332.2284325211
 20
312.4174183003
 30
0.0
 10
332.2627050296
 20
312.6694339568
 30
0.0
 10
332.2112893343
 20
312.9595528118
 30
0.0
 10
332.0427408952
 20
313.341758302
 30
0.0
 10
331.8227321538
 20
313.5962241574
 30
0.0
 10
331.6428973532
 20
313.7000494791
 30
0.0
  0
SPLINE
  5
47D
100
AcDbEntity
  8
0
100
AcDbSpline
 62
7
  6
CONTINUOUS
 70
0
 71
3
 72
14
 73
10
 74
0
 42
0.0000001
 43
0.0000001
 44
0.0000000001
 40
0.0
 40
0.0
 40
0.0
 40
0.0
 40
0.1144195368
 40
0.2080405851
 40
0.3014657357
 40
0.416035846
 40
0.5551561947
 40
0.7091235091
 40
1.0
 40
1.0
 40
1.0
 40
1.0
 10
331.6428973532
 20
313.7000494791
 30
0.0
 10
331.5721573133
 20
313.7408903362
 30
0.0
 10
331.4305298784
 20
313.7992873782
 30
0.0
 10
331.2014349201
 20
313.7653643186
 30
0.0
 10
331.0573621854
 20
313.5837587778
 30
0.0
 10
331.0230896768
 20
313.3317431213
 30
0.0
 10
331.0745053721
 20
313.0416242663
 30
0.0
 10
331.2430538113
 20
312.659418776
 30
0.0
 10
331.4630625527
 20
312.4049529207
 30
0.0
 10
331.6428973532
 20
312.301127599
 30
0.0
  0
SPLINE
  5
47E
100
AcDbEntity
  8
0
100
AcDbSpline
 62
7
  6
CONTINUOUS
 70
0
 71
3
 72
11
 73
7
 74
0
 42
0.0000001
 43
0.0000001
 44
0.0000000001
 40
0.0
 40
0.0
 40
0.0
 40
0.0
 40
0.2372196554
 40
0.5000065315
 40
0.7627516577
 40
1.0
 40
1.0
 40
1.0
 40
1.0
 10
210.8660160284
 20
385.3367969374
 30
0.0
 10
211.5686631354
 20
384.9311116656
 30
0.0
 10
212.8984770087
 20
383.8118898583
 30
0.0
 10
214.4503261341
 20
381.6908711646
 30
0.0
 10
215.5114134454
 20
379.2863646574
 30
0.0
 10
215.8156573538
 20
377.5751189126
 30
0.0
 10
215.8156573538
 20
376.7636679157
 30
0.0
  0
SPLINE
  5
47F
100
AcDbEntity
  8
0
100
AcDbSpline
 62
7
  6
CONTINUOUS
 70
0
 71
3
 72
9
 73
5
 74
0
 42
0.0000001
 43
0.0000001
 44
0.0000000001
 40
0.0
 40
0.0
 40
0.0
 40
0.0
 40
0.2690533786
 40
1.0
 40
1.0
 40
1.0
 40
1.0
 10
332.0245192441
 20
324.0803805309
 30
0.0
 10
332.0245192441
 20
324.1768971762
 30
0.0
 10
332.0385410252
 20
324.535066958
 30
0.0
 10
332.1111513804
 20
324.8940617491
 30
0.0
 10
332.2101187326
 20
325.1368777384
 30
0.0
  0
SPLINE
  5
480
100
AcDbEntity
  8
0
100
AcDbSpline
 62
7
  6
CONTINUOUS
 70
0
 71
3
 72
9
 73
5
 74
0
 42
0.0000001
 43
0.0000001
 44
0.0000000001
 40
0.0
 40
0.0
 40
0.0
 40
0.0
 40
0.2656402056
 40
1.0
 40
1.0
 40
1.0
 40
1.0
 10
332.2101187326
 20
325.1368777384
 30
0.0
 10
332.2375014887
 20
325.2040612171
 30
0.0
 10
332.3535628624
 20
325.4511643012
 30
0.0
 10
332.5294932323
 20
325.6725776339
 30
0.0
 10
332.6862482422
 20
325.7976903067
 30
0.0
  0
SPLINE
  5
481
100
AcDbEntity
  8
0
100
AcDbSpline
 62
7
  6
CONTINUOUS
 70
0
 71
3
 72
11
 73
7
 74
0
 42
0.0000001
 43
0.0000001
 44
0.0000000001
 40
0.0
 40
0.0
 40
0.0
 40
0.0
 40
0.2418469678
 40
0.5094498461
 40
0.771862029
 40
1.0
 40
1.0
 40
1.0
 40
1.0
 10
332.3427159708
 20
324.2640904002
 30
0.0
 10
332.3427159708
 20
323.7566542172
 30
0.0
 10
332.5495398866
 20
322.6873889434
 30
0.0
 10
333.2536204424
 20
321.2136263683
 30
0.0
 10
334.2611117201
 20
319.9651997765
 30
0.0
 10
335.1203393817
 20
319.3548008369
 30
0.0
 10
335.562225872
 20
319.1707802744
 30
0.0
  0
SPLINE
  5
482
100
AcDbEntity
  8
0
100
AcDbSpline
 62
7
  6
CONTINUOUS
 70
0
 71
3
 72
9
 73
5
 74
0
 42
0.0000001
 43
0.0000001
 44
0.0000000001
 40
0.0
 40
0.0
 40
0.0
 40
0.0
 40
0.2792985908
 40
1.0
 40
1.0
 40
1.0
 40
1.0
 10
335.562225872
 20
319.1707802744
 30
0.0
 10
335.679188934
 20
319.1220718189
 30
0.0
 10
336.1061737487
 20
318.9735260029
 30
0.0
 10
336.5914451257
 20
318.9504194732
 30
0.0
 10
336.9030566975
 20
319.0493411485
 30
0.0
  0
SPLINE
  5
483
100
AcDbEntity
  8
0
100
AcDbSpline
 62
7
  6
CONTINUOUS
 70
0
 71
3
 72
11
 73
7
 74
0
 42
0.0000001
 43
0.0000001
 44
0.0000000001
 40
0.0
 40
0.0
 40
0.0
 40
0.0
 40
0.2709150412
 40
0.419372274
 40
0.5661989727
 40
1.0
 40
1.0
 40
1.0
 40
1.0
 10
335.1711548714
 20
319.4875930761
 30
0.0
 10
334.6027807055
 20
319.8157366302
 30
0.0
 10
333.8512839965
 20
320.544205531
 30
0.0
 10
333.1097589243
 20
321.7129355823
 30
0.0
 10
332.4115805367
 20
323.2777855018
 30
0.0
 10
332.2562669948
 20
325.1607520635
 30
0.0
 10
333.0616836124
 20
325.8357936866
 30
0.0
  0
SPLINE
  5
484
100
AcDbEntity
  8
0
100
AcDbSpline
 62
7
  6
CONTINUOUS
 70
0
 71
3
 72
11
 73
7
 74
0
 42
0.0000001
 43
0.0000001
 44
0.0000000001
 40
0.0
 40
0.0
 40
0.0
 40
0.0
 40
0.2372074214
 40
0.4999733002
 40
0.7627280966
 40
1.0
 40
1.0
 40
1.0
 40
1.0
 10
211.5731017452
 20
384.9284917301
 30
0.0
 10
212.1753260825
 20
384.5807647408
 30
0.0
 10
213.3151026844
 20
383.6215360387
 30
0.0
 10
214.6452485876
 20
381.8036132624
 30
0.0
 10
215.5548193217
 20
379.742616189
 30
0.0
 10
215.8156514659
 20
378.2757469316
 30
0.0
 10
215.8156514659
 20
377.5801528241
 30
0.0
  0
SPLINE
  5
485
100
AcDbEntity
  8
0
100
AcDbSpline
 62
7
  6
CONTINUOUS
 70
0
 71
3
 72
8
 73
4
 74
0
 42
0.0000001
 43
0.0000001
 44
0.0000000001
 40
0.0
 40
0.0
 40
0.0
 40
0.0
 40
1.0
 40
1.0
 40
1.0
 40
1.0
 10
329.5142770702
 20
153.0434917119
 30
0.0
 10
329.2551050901
 20
153.4067974193
 30
0.0
 10
328.9157679095
 20
153.7271282258
 30
0.0
 10
328.5292804672
 20
153.9502618389
 30
0.0
  0
SPLINE
  5
486
100
AcDbEntity
  8
0
100
AcDbSpline
 62
7
  6
CONTINUOUS
 70
0
 71
3
 72
13
 73
9
 74
0
 42
0.0000001
 43
0.0000001
 44
0.0000000001
 40
0.0
 40
0.0
 40
0.0
 40
0.0
 40
0.0871363206
 40
0.1868486373
 40
0.3045288712
 40
0.4386658937
 40
0.7300816948
 40
1.0
 40
1.0
 40
1.0
 40
1.0
 10
324.5659907624
 20
173.9461512699
 30
0.0
 10
324.5661578894
 20
173.7096980712
 30
0.0
 10
324.7084912798
 20
173.1979782204
 30
0.0
 10
325.2663943438
 20
172.563744507
 30
0.0
 10
326.0896405936
 20
172.0619322076
 30
0.0
 10
327.4973442118
 20
171.5930156913
 30
0.0
 10
329.4144038118
 20
171.4957660898
 30
0.0
 10
330.9306440327
 20
171.9061403258
 30
0.0
 10
331.5649659283
 20
172.2723640568
 30
0.0
  0
SPLINE
  5
487
100
AcDbEntity
  8
0
100
AcDbSpline
 62
7
  6
CONTINUOUS
 70
0
 71
3
 72
9
 73
5
 74
0
 42
0.0000001
 43
0.0000001
 44
0.0000000001
 40
0.0
 40
0.0
 40
0.0
 40
0.0
 40
0.4801917967
 40
1.0
 40
1.0
 40
1.0
 40
1.0
 10
354.6844379599
 20
151.324085707
 30
0.0
 10
354.4510463486
 20
151.4588165693
 30
0.0
 10
353.907097267
 20
151.6469704209
 30
0.0
 10
353.335918821
 20
151.6378241822
 30
0.0
 10
353.0472053647
 20
151.5960384645
 30
0.0
  0
SPLINE
  5
488
100
AcDbEntity
  8
0
100
AcDbSpline
 62
7
  6
CONTINUOUS
 70
0
 71
3
 72
9
 73
5
 74
0
 42
0.0000001
 43
0.0000001
 44
0.0000000001
 40
0.0
 40
0.0
 40
0.0
 40
0.0
 40
0.2355110221
 40
1.0
 40
1.0
 40
1.0
 40
1.0
 10
353.0472053647
 20
151.5960384645
 30
0.0
 10
352.9444938623
 20
151.5811729508
 30
0.0
 10
352.5113310892
 20
151.4977037176
 30
0.0
 10
352.0944952056
 20
151.3397151795
 30
0.0
 10
351.7915909956
 20
151.1922702142
 30
0.0
  0
SPLINE
  5
489
100
AcDbEntity
  8
0
100
AcDbSpline
 62
7
  6
CONTINUOUS
 70
0
 71
3
 72
13
 73
9
 74
0
 42
0.0000001
 43
0.0000001
 44
0.0000000001
 40
0.0
 40
0.0
 40
0.0
 40
0.0
 40
0.0871363206
 40
0.1868486373
 40
0.3045288712
 40
0.4386658937
 40
0.7300816948
 40
1.0
 40
1.0
 40
1.0
 40
1.0
 10
324.5659907624
 20
203.9117899785
 30
0.0
 10
324.5661578894
 20
203.6753367798
 30
0.0
 10
324.7084912798
 20
203.163616929
 30
0.0
 10
325.2663943438
 20
202.5293832156
 30
0.0
 10
326.0896405936
 20
202.0275709162
 30
0.0
 10
327.4973442119
 20
201.5586544
 30
0.0
 10
329.4144038119
 20
201.4614047985
 30
0.0
 10
330.9306440328
 20
201.8717790344
 30
0.0
 10
331.5649659283
 20
202.2380027655
 30
0.0
  0
SPLINE
  5
48A
100
AcDbEntity
  8
0
100
AcDbSpline
 62
7
  6
CONTINUOUS
 70
0
 71
3
 72
9
 73
5
 74
0
 42
0.0000001
 43
0.0000001
 44
0.0000000001
 40
0.0
 40
0.0
 40
0.0
 40
0.0
 40
0.4346210402
 40
1.0
 40
1.0
 40
1.0
 40
1.0
 10
321.8048741047
 20
207.7666038224
 30
0.0
 10
321.9976202779
 20
207.3128240181
 30
0.0
 10
322.9162897719
 20
206.5027928836
 30
0.0
 10
324.020431964
 20
206.1844512389
 30
0.0
 10
324.6542385896
 20
206.0864040473
 30
0.0
  0
SPLINE
  5
48B
100
AcDbEntity
  8
0
100
AcDbSpline
 62
7
  6
CONTINUOUS
 70
0
 71
3
 72
9
 73
5
 74
0
 42
0.0000001
 43
0.0000001
 44
0.0000000001
 40
0.0
 40
0.0
 40
0.0
 40
0.0
 40
0.4491582048
 40
1.0
 40
1.0
 40
1.0
 40
1.0
 10
323.1896147522
 20
208.317085393
 30
0.0
 10
323.1894787319
 20
208.5117774414
 30
0.0
 10
323.3597284039
 20
208.9463498754
 30
0.0
 10
323.7149450297
 20
209.2183032796
 30
0.0
 10
323.9217243711
 20
209.3376866754
 30
0.0
  0
SPLINE
  5
48C
100
AcDbEntity
  8
0
100
AcDbSpline
 62
7
  6
CONTINUOUS
 70
0
 71
3
 72
8
 73
4
 74
0
 42
0.0000001
 43
0.0000001
 44
0.0000000001
 40
0.0
 40
0.0
 40
0.0
 40
0.0
 40
1.0
 40
1.0
 40
1.0
 40
1.0
 10
329.3116805197
 20
366.2740848894
 30
0.0
 10
329.2291631168
 20
366.192636889
 30
0.0
 10
329.1467541817
 20
366.1110562065
 30
0.0
 10
329.0659759424
 20
366.0278830462
 30
0.0
  0
SPLINE
  5
48D
100
AcDbEntity
  8
0
100
AcDbSpline
 62
7
  6
CONTINUOUS
 70
0
 71
3
 72
9
 73
5
 74
0
 42
0.0000001
 43
0.0000001
 44
0.0000000001
 40
0.0
 40
0.0
 40
0.0
 40
0.0
 40
0.2372142364
 40
1.0
 40
1.0
 40
1.0
 40
1.0
 10
328.8494498515
 20
365.7959516315
 30
0.0
 10
328.7785693654
 20
365.7165585633
 30
0.0
 10
328.488210926
 20
365.3748157105
 30
0.0
 10
328.2419703706
 20
364.9923431428
 30
0.0
 10
328.1000635079
 20
364.6809148326
 30
0.0
  0
SPLINE
  5
48E
100
AcDbEntity
  8
0
100
AcDbSpline
 62
7
  6
CONTINUOUS
 70
0
 71
3
 72
15
 73
11
 74
0
 42
0.0000001
 43
0.0000001
 44
0.0000000001
 40
0.0
 40
0.0
 40
0.0
 40
0.0
 40
0.1408286472
 40
0.2675190215
 40
0.3830179604
 40
0.4927223467
 40
0.6036999819
 40
0.722626988
 40
0.8540610815
 40
1.0
 40
1.0
 40
1.0
 40
1.0
 10
120.8046553847
 20
308.4427308171
 30
0.0
 10
119.1332021532
 20
307.3037168499
 30
0.0
 10
116.1224476804
 20
304.8738638468
 30
0.0
 10
112.6318836811
 20
300.5585222218
 30
0.0
 10
110.551368611
 20
295.8753578379
 30
0.0
 10
110.0273088156
 20
290.9902407575
 30
0.0
 10
111.1090657476
 20
286.1508218928
 30
0.0
 10
113.7009753829
 20
281.5817029354
 30
0.0
 10
117.6501392122
 20
277.4224427667
 30
0.0
 10
120.9226218276
 20
275.1088600875
 30
0.0
 10
122.7209114772
 20
274.0320316551
 30
0.0
  0
SPLINE
  5
48F
100
AcDbEntity
  8
0
100
AcDbSpline
 62
7
  6
CONTINUOUS
 70
0
 71
3
 72
13
 73
9
 74
0
 42
0.0000001
 43
0.0000001
 44
0.0000000001
 40
0.0
 40
0.0
 40
0.0
 40
0.0
 40
0.1142569126
 40
0.2375387748
 40
0.5000005406
 40
0.7624620106
 40
0.8857435248
 40
1.0
 40
1.0
 40
1.0
 40
1.0
 10
227.8794475998
 20
334.0856999321
 30
0.0
 10
225.7273247097
 20
335.3282005529
 30
0.0
 10
221.0211149221
 20
337.5200625957
 30
0.0
 10
210.5905206907
 20
340.6874149903
 30
0.0
 10
196.4424349258
 20
342.2268423084
 30
0.0
 10
182.2943631379
 20
340.6873492075
 30
0.0
 10
171.8638087899
 20
337.5199455787
 30
0.0
 10
167.1576284093
 20
335.328060185
 30
0.0
 10
165.0055227182
 20
334.0855488016
 30
0.0
  0
SPLINE
  5
490
100
AcDbEntity
  8
0
100
AcDbSpline
 62
7
  6
CONTINUOUS
 70
0
 71
3
 72
9
 73
5
 74
0
 42
0.0000001
 43
0.0000001
 44
0.0000000001
 40
0.0
 40
0.0
 40
0.0
 40
0.0
 40
0.2359370153
 40
1.0
 40
1.0
 40
1.0
 40
1.0
 10
304.8829026897
 20
168.8631358502
 30
0.0
 10
305.9477743073
 20
168.2703880234
 30
0.0
 10
310.5674749788
 20
165.9501050179
 30
0.0
 10
315.5327296411
 20
164.3528664744
 30
0.0
 10
319.3803305945
 20
163.4737428558
 30
0.0
  0
SPLINE
  5
491
100
AcDbEntity
  8
0
100
AcDbSpline
 62
7
  6
CONTINUOUS
 70
0
 71
3
 72
9
 73
5
 74
0
 42
0.0000001
 43
0.0000001
 44
0.0000000001
 40
0.0
 40
0.0
 40
0.0
 40
0.0
 40
0.2426478218
 40
1.0
 40
1.0
 40
1.0
 40
1.0
 10
348.0433778176
 20
140.1477752743
 30
0.0
 10
347.9495761833
 20
140.2019281776
 30
0.0
 10
347.5793191158
 20
140.4535667029
 30
0.0
 10
347.2930903223
 20
140.8185335819
 30
0.0
 10
347.1341493641
 20
141.1169000974
 30
0.0
  0
SPLINE
  5
492
100
AcDbEntity
  8
0
100
AcDbSpline
 62
7
  6
CONTINUOUS
 70
0
 71
3
 72
8
 73
4
 74
0
 42
0.0000001
 43
0.0000001
 44
0.0000000001
 40
0.0
 40
0.0
 40
0.0
 40
0.0
 40
1.0
 40
1.0
 40
1.0
 40
1.0
 10
347.1341493641
 20
141.1169000974
 30
0.0
 10
347.0519364273
 20
141.2712315406
 30
0.0
 10
346.9832029236
 20
141.4332581268
 30
0.0
 10
346.9268328184
 20
141.5987862892
 30
0.0
  0
SPLINE
  5
493
100
AcDbEntity
  8
0
100
AcDbSpline
 62
7
  6
CONTINUOUS
 70
0
 71
3
 72
9
 73
5
 74
0
 42
0.0000001
 43
0.0000001
 44
0.0000000001
 40
0.0
 40
0.0
 40
0.0
 40
0.0
 40
0.242172227
 40
1.0
 40
1.0
 40
1.0
 40
1.0
 10
346.8894356136
 20
141.7149312218
 30
0.0
 10
346.8730232085
 20
141.7689309671
 30
0.0
 10
346.8102568442
 20
141.9934212946
 30
0.0
 10
346.7669108876
 20
142.2231856119
 30
0.0
 10
346.7435305845
 20
142.3982447775
 30
0.0
  0
SPLINE
  5
494
100
AcDbEntity
  8
0
100
AcDbSpline
 62
7
  6
CONTINUOUS
 70
0
 71
3
 72
11
 73
7
 74
0
 42
0.0000001
 43
0.0000001
 44
0.0000000001
 40
0.0
 40
0.0
 40
0.0
 40
0.0
 40
0.227885277
 40
0.490272717
 40
0.7580266017
 40
1.0
 40
1.0
 40
1.0
 40
1.0
 10
346.7435305845
 20
142.3982447775
 30
0.0
 10
346.6405062553
 20
143.16963568
 30
0.0
 10
346.7981419991
 20
144.877353686
 30
0.0
 10
347.7348662947
 20
147.3142380439
 30
0.0
 10
349.2383428807
 20
149.5078521057
 30
0.0
 10
350.577546034
 20
150.6708324136
 30
0.0
 10
351.2931888935
 20
151.0840065449
 30
0.0
  0
SPLINE
  5
495
100
AcDbEntity
  8
0
100
AcDbSpline
 62
7
  6
CONTINUOUS
 70
0
 71
3
 72
13
 73
9
 74
0
 42
0.0000001
 43
0.0000001
 44
0.0000000001
 40
0.0
 40
0.0
 40
0.0
 40
0.0
 40
0.2699335874
 40
0.5613258182
 40
0.6954698829
 40
0.8131403132
 40
0.9128521763
 40
1.0
 40
1.0
 40
1.0
 40
1.0
 10
229.0401653514
 20
326.1010605759
 30
0.0
 10
229.3341311003
 20
326.2707807671
 30
0.0
 10
230.0367571602
 20
326.4609177773
 30
0.0
 10
230.9251468836
 20
326.4159408992
 30
0.0
 10
231.5774310554
 20
326.1985863483
 30
0.0
 10
231.9589142325
 20
325.9659866726
 30
0.0
 10
232.2173656612
 20
325.6720890168
 30
0.0
 10
232.2835934208
 20
325.434991742
 30
0.0
 10
232.2836430135
 20
325.3254032306
 30
0.0
  0
SPLINE
  5
496
100
AcDbEntity
  8
0
100
AcDbSpline
 62
7
  6
CONTINUOUS
 70
0
 71
3
 72
13
 73
9
 74
0
 42
0.0000001
 43
0.0000001
 44
0.0000000001
 40
0.0
 40
0.0
 40
0.0
 40
0.0
 40
0.2699335874
 40
0.5613258182
 40
0.6954698829
 40
0.8131403132
 40
0.9128521763
 40
1.0
 40
1.0
 40
1.0
 40
1.0
 10
137.1166665136
 20
273.0293205726
 30
0.0
 10
137.4106322625
 20
273.1990407638
 30
0.0
 10
138.1132583224
 20
273.389177774
 30
0.0
 10
139.0016480458
 20
273.3442008959
 30
0.0
 10
139.6539322176
 20
273.126846345
 30
0.0
 10
140.0354153947
 20
272.8942466693
 30
0.0
 10
140.2938668234
 20
272.6003490135
 30
0.0
 10
140.360094583
 20
272.3632517387
 30
0.0
 10
140.3601441757
 20
272.2536632273
 30
0.0
  0
SPLINE
  5
497
100
AcDbEntity
  8
0
100
AcDbSpline
 62
7
  6
CONTINUOUS
 70
0
 71
3
 72
13
 73
9
 74
0
 42
0.0000001
 43
0.0000001
 44
0.0000000001
 40
0.0
 40
0.0
 40
0.0
 40
0.0
 40
0.2699335874
 40
0.5613258182
 40
0.6954698829
 40
0.8131403132
 40
0.9128521763
 40
1.0
 40
1.0
 40
1.0
 40
1.0
 10
300.4590130225
 20
178.7257062784
 30
0.0
 10
300.7529787715
 20
178.8954264696
 30
0.0
 10
301.4556048313
 20
179.0855634798
 30
0.0
 10
302.3439945547
 20
179.0405866017
 30
0.0
 10
302.9962787265
 20
178.8232320508
 30
0.0
 10
303.3777619036
 20
178.5906323751
 30
0.0
 10
303.6362133323
 20
178.2967347193
 30
0.0
 10
303.702441092
 20
178.0596374445
 30
0.0
 10
303.7024906846
 20
177.9500489331
 30
0.0
  0
SPLINE
  5
498
100
AcDbEntity
  8
0
100
AcDbSpline
 62
7
  6
CONTINUOUS
 70
0
 71
3
 72
13
 73
9
 74
0
 42
0.0000001
 43
0.0000001
 44
0.0000000001
 40
0.0
 40
0.0
 40
0.0
 40
0.0
 40
0.2699335874
 40
0.5613258182
 40
0.6954698829
 40
0.8131403132
 40
0.9128521763
 40
1.0
 40
1.0
 40
1.0
 40
1.0
 10
149.1371491254
 20
319.1607467912
 30
0.0
 10
149.4311148744
 20
319.3304669824
 30
0.0
 10
150.1337409342
 20
319.5206039926
 30
0.0
 10
151.0221306576
 20
319.4756271146
 30
0.0
 10
151.6744148294
 20
319.2582725637
 30
0.0
 10
152.0558980065
 20
319.0256728879
 30
0.0
 10
152.3143494352
 20
318.7317752322
 30
0.0
 10
152.3805771949
 20
318.4946779573
 30
0.0
 10
152.3806267875
 20
318.3850894459
 30
0.0
  0
SPLINE
  5
499
100
AcDbEntity
  8
0
100
AcDbSpline
 62
7
  6
CONTINUOUS
 70
0
 71
3
 72
13
 73
9
 74
0
 42
0.0000001
 43
0.0000001
 44
0.0000000001
 40
0.0
 40
0.0
 40
0.0
 40
0.0
 40
0.2699335874
 40
0.5613258182
 40
0.6954698829
 40
0.8131403132
 40
0.9128521763
 40
1.0
 40
1.0
 40
1.0
 40
1.0
 10
310.7113386058
 20
278.9492534288
 30
0.0
 10
311.0053043548
 20
279.11897362
 30
0.0
 10
311.7079304147
 20
279.3091106302
 30
0.0
 10
312.5963201381
 20
279.2641337521
 30
0.0
 10
313.2486043098
 20
279.0467792012
 30
0.0
 10
313.630087487
 20
278.8141795255
 30
0.0
 10
313.8885389157
 20
278.5202818697
 30
0.0
 10
313.9547666753
 20
278.2831845949
 30
0.0
 10
313.954816268
 20
278.1735960835
 30
0.0
  0
SPLINE
  5
49A
100
AcDbEntity
  8
0
100
AcDbSpline
 62
7
  6
CONTINUOUS
 70
0
 71
3
 72
13
 73
9
 74
0
 42
0.0000001
 43
0.0000001
 44
0.0000000001
 40
0.0
 40
0.0
 40
0.0
 40
0.0
 40
0.2699335874
 40
0.5613258182
 40
0.6954698829
 40
0.8131403132
 40
0.9128521763
 40
1.0
 40
1.0
 40
1.0
 40
1.0
 10
218.787839768
 20
225.8775134255
 30
0.0
 10
219.081805517
 20
226.0472336167
 30
0.0
 10
219.7844315769
 20
226.2373706269
 30
0.0
 10
220.6728213003
 20
226.1923937488
 30
0.0
 10
221.325105472
 20
225.9750391979
 30
0.0
 10
221.7065886492
 20
225.7424395222
 30
0.0
 10
221.9650400779
 20
225.4485418664
 30
0.0
 10
222.0312678375
 20
225.2114445916
 30
0.0
 10
222.0313174302
 20
225.1018560802
 30
0.0
  0
SPLINE
  5
49B
100
AcDbEntity
  8
0
100
AcDbSpline
 62
7
  6
CONTINUOUS
 70
0
 71
3
 72
11
 73
7
 74
0
 42
0.0000001
 43
0.0000001
 44
0.0000000001
 40
0.0
 40
0.0
 40
0.0
 40
0.0
 40
0.237218806
 40
0.4999994918
 40
0.7627804543
 40
1.0
 40
1.0
 40
1.0
 40
1.0
 10
173.8151136709
 20
327.7747218934
 30
0.0
 10
177.0272829569
 20
329.6292576253
 30
0.0
 10
184.4977182313
 20
332.3358745598
 30
0.0
 10
196.4424957975
 20
333.6326733578
 30
0.0
 10
208.3872909452
 20
332.3359287985
 30
0.0
 10
215.857754992
 20
329.6293490232
 30
0.0
 10
219.0699476664
 20
327.7748306727
 30
0.0
  0
SPLINE
  5
49C
100
AcDbEntity
  8
0
100
AcDbSpline
 62
7
  6
CONTINUOUS
 70
0
 71
3
 72
10
 73
6
 74
0
 42
0.0000001
 43
0.0000001
 44
0.0000000001
 40
0.0
 40
0.0
 40
0.0
 40
0.0
 40
0.5141364091
 40
0.7396328857
 40
1.0
 40
1.0
 40
1.0
 40
1.0
 10
295.0849614476
 20
184.2777907379
 30
0.0
 10
295.4825818031
 20
184.048229712
 30
0.0
 10
296.0601063085
 20
183.4917982061
 30
0.0
 10
295.9069979883
 20
182.5510282675
 30
0.0
 10
295.6064915537
 20
182.2137475777
 30
0.0
 10
295.4276928535
 20
182.0651126663
 30
0.0
  0
SPLINE
  5
49D
100
AcDbEntity
  8
0
100
AcDbSpline
 62
7
  6
CONTINUOUS
 70
0
 71
3
 72
9
 73
5
 74
0
 42
0.0000001
 43
0.0000001
 44
0.0000000001
 40
0.0
 40
0.0
 40
0.0
 40
0.0
 40
0.2338381514
 40
1.0
 40
1.0
 40
1.0
 40
1.0
 10
295.4276928535
 20
182.0651126663
 30
0.0
 10
295.3767546277
 20
182.0227678469
 30
0.0
 10
295.1503525231
 20
181.852016971
 30
0.0
 10
294.8958341674
 20
181.7205533648
 30
0.0
 10
294.6948812587
 20
181.6385673113
 30
0.0
  0
SPLINE
  5
49E
100
AcDbEntity
  8
0
100
AcDbSpline
 62
7
  6
CONTINUOUS
 70
0
 71
3
 72
9
 73
5
 74
0
 42
0.0000001
 43
0.0000001
 44
0.0000000001
 40
0.0
 40
0.0
 40
0.0
 40
0.0
 40
0.2412673806
 40
1.0
 40
1.0
 40
1.0
 40
1.0
 10
294.3969462516
 20
181.5315842626
 30
0.0
 10
294.2670720396
 20
181.4908260659
 30
0.0
 10
293.7205260191
 20
181.348841649
 30
0.0
 10
293.1493263393
 20
181.306773083
 30
0.0
 10
292.7217239694
 20
181.3266913834
 30
0.0
  0
SPLINE
  5
49F
100
AcDbEntity
  8
0
100
AcDbSpline
 62
7
  6
CONTINUOUS
 70
0
 71
3
 72
9
 73
5
 74
0
 42
0.0000001
 43
0.0000001
 44
0.0000000001
 40
0.0
 40
0.0
 40
0.0
 40
0.0
 40
0.2567692214
 40
1.0
 40
1.0
 40
1.0
 40
1.0
 10
292.7217239694
 20
181.3266913834
 30
0.0
 10
292.6181417362
 20
181.3315163848
 30
0.0
 10
292.2154922467
 20
181.3625711746
 30
0.0
 10
291.8158366964
 20
181.4417181855
 30
0.0
 10
291.5295389926
 20
181.5318455634
 30
0.0
  0
SPLINE
  5
4A0
100
AcDbEntity
  8
0
100
AcDbSpline
 62
7
  6
CONTINUOUS
 70
0
 71
3
 72
9
 73
5
 74
0
 42
0.0000001
 43
0.0000001
 44
0.0000000001
 40
0.0
 40
0.0
 40
0.0
 40
0.0
 40
0.2616560341
 40
1.0
 40
1.0
 40
1.0
 40
1.0
 10
291.5295389926
 20
181.5318455634
 30
0.0
 10
291.4672078628
 20
181.5514675904
 30
0.0
 10
291.2308991348
 20
181.6322023419
 30
0.0
 10
291.0020310459
 20
181.7361293224
 30
0.0
 10
290.8423384243
 20
181.8283258147
 30
0.0
  0
SPLINE
  5
4A1
100
AcDbEntity
  8
0
100
AcDbSpline
 62
7
  6
CONTINUOUS
 70
0
 71
3
 72
14
 73
10
 74
0
 42
0.0000001
 43
0.0000001
 44
0.0000000001
 40
0.0
 40
0.0
 40
0.0
 40
0.0
 40
0.1114591288
 40
0.2036068613
 40
0.298355344
 40
0.4148695525
 40
0.5551526272
 40
0.7095206133
 40
1.0
 40
1.0
 40
1.0
 40
1.0
 10
226.7406472318
 20
218.8400382856
 30
0.0
 10
226.5100325496
 20
218.9881377672
 30
0.0
 10
226.1144034993
 20
219.3251005696
 30
0.0
 10
225.8851879199
 20
220.0804318016
 30
0.0
 10
226.2233258042
 20
220.8040247756
 30
0.0
 10
226.9367175339
 20
221.3258687192
 30
0.0
 10
227.9034550445
 20
221.6615240253
 30
0.0
 10
229.3378558039
 20
221.8035197529
 30
0.0
 10
230.4729445466
 20
221.5807121838
 30
0.0
 10
231.0915314049
 20
221.2235789741
 30
0.0
  0
SPLINE
  5
4A2
100
AcDbEntity
  8
0
100
AcDbSpline
 62
7
  6
CONTINUOUS
 70
0
 71
3
 72
14
 73
10
 74
0
 42
0.0000001
 43
0.0000001
 44
0.0000000001
 40
0.0
 40
0.0
 40
0.0
 40
0.0
 40
0.1114591286
 40
0.2036068607
 40
0.2983553443
 40
0.4148695549
 40
0.5551526319
 40
0.7095206188
 40
1.0
 40
1.0
 40
1.0
 40
1.0
 10
145.0694739813
 20
265.9918454301
 30
0.0
 10
144.8388592934
 20
266.1399449148
 30
0.0
 10
144.4432302324
 20
266.4769077258
 30
0.0
 10
144.2140146633
 20
267.2322389867
 30
0.0
 10
144.5521525899
 20
267.9558319728
 30
0.0
 10
145.2655443657
 20
268.4776759129
 30
0.0
 10
146.2322819227
 20
268.8133312016
 30
0.0
 10
147.6666827228
 20
268.9553268999
 30
0.0
 10
148.801771454
 20
268.7325192374
 30
0.0
 10
149.4203583165
 20
268.3753860252
 30
0.0
  0
SPLINE
  5
4A3
100
AcDbEntity
  8
0
100
AcDbSpline
 62
7
  6
CONTINUOUS
 70
0
 71
3
 72
10
 73
6
 74
0
 42
0.0000001
 43
0.0000001
 44
0.0000000001
 40
0.0
 40
0.0
 40
0.0
 40
0.0
 40
0.5141364091
 40
0.7396328857
 40
1.0
 40
1.0
 40
1.0
 40
1.0
 10
213.4137881931
 20
231.429597885
 30
0.0
 10
213.8114085486
 20
231.2000368591
 30
0.0
 10
214.388933054
 20
230.6436053532
 30
0.0
 10
214.2358247338
 20
229.7028354146
 30
0.0
 10
213.9353182993
 20
229.3655547248
 30
0.0
 10
213.756519599
 20
229.2169198134
 30
0.0
  0
SPLINE
  5
4A4
100
AcDbEntity
  8
0
100
AcDbSpline
 62
7
  6
CONTINUOUS
 70
0
 71
3
 72
9
 73
5
 74
0
 42
0.0000001
 43
0.0000001
 44
0.0000000001
 40
0.0
 40
0.0
 40
0.0
 40
0.0
 40
0.2338381514
 40
1.0
 40
1.0
 40
1.0
 40
1.0
 10
213.756519599
 20
229.2169198134
 30
0.0
 10
213.7055813733
 20
229.174574994
 30
0.0
 10
213.4791792687
 20
229.0038241181
 30
0.0
 10
213.2246609129
 20
228.8723605119
 30
0.0
 10
213.0237080042
 20
228.7903744584
 30
0.0
  0
SPLINE
  5
4A5
100
AcDbEntity
  8
0
100
AcDbSpline
 62
7
  6
CONTINUOUS
 70
0
 71
3
 72
9
 73
5
 74
0
 42
0.0000001
 43
0.0000001
 44
0.0000000001
 40
0.0
 40
0.0
 40
0.0
 40
0.0
 40
0.2403184231
 40
1.0
 40
1.0
 40
1.0
 40
1.0
 10
212.7960985055
 20
228.7061717218
 30
0.0
 10
212.661930045
 20
228.6613346582
 30
0.0
 10
212.0938901871
 20
228.5046456362
 30
0.0
 10
211.4972488123
 20
228.4576907251
 30
0.0
 10
211.0505507149
 20
228.4784985305
 30
0.0
  0
SPLINE
  5
4A6
100
AcDbEntity
  8
0
100
AcDbSpline
 62
7
  6
CONTINUOUS
 70
0
 71
3
 72
9
 73
5
 74
0
 42
0.0000001
 43
0.0000001
 44
0.0000000001
 40
0.0
 40
0.0
 40
0.0
 40
0.0
 40
0.2567692214
 40
1.0
 40
1.0
 40
1.0
 40
1.0
 10
211.0505507149
 20
228.4784985305
 30
0.0
 10
210.9469684817
 20
228.4833235319
 30
0.0
 10
210.5443189923
 20
228.5143783217
 30
0.0
 10
210.1446634419
 20
228.5935253326
 30
0.0
 10
209.8583657382
 20
228.6836527105
 30
0.0
  0
SPLINE
  5
4A7
100
AcDbEntity
  8
0
100
AcDbSpline
 62
7
  6
CONTINUOUS
 70
0
 71
3
 72
9
 73
5
 74
0
 42
0.0000001
 43
0.0000001
 44
0.0000000001
 40
0.0
 40
0.0
 40
0.0
 40
0.0
 40
0.2616560341
 40
1.0
 40
1.0
 40
1.0
 40
1.0
 10
209.8583657382
 20
228.6836527105
 30
0.0
 10
209.7960346084
 20
228.7032747375
 30
0.0
 10
209.5597258803
 20
228.784009489
 30
0.0
 10
209.3308577914
 20
228.8879364695
 30
0.0
 10
209.1711651698
 20
228.9801329618
 30
0.0
  0
SPLINE
  5
4A8
100
AcDbEntity
  8
0
100
AcDbSpline
 62
7
  6
CONTINUOUS
 70
0
 71
3
 72
12
 73
8
 74
0
 42
0.0000001
 43
0.0000001
 44
0.0000000001
 40
0.0
 40
0.0
 40
0.0
 40
0.0
 40
0.2530607196
 40
0.360890357
 40
0.465751503
 40
0.7004075398
 40
1.0
 40
1.0
 40
1.0
 40
1.0
 10
318.6641460675
 20
271.9117782902
 30
0.0
 10
318.4037407454
 20
272.0790091574
 30
0.0
 10
318.0552907368
 20
272.3955275182
 30
0.0
 10
317.8746714752
 20
272.9488242837
 30
0.0
 10
317.9206977097
 20
273.5093968463
 30
0.0
 10
318.4380676473
 20
274.166540552
 30
0.0
 10
319.0393971639
 20
274.4517390443
 30
0.0
 10
319.3867883813
 20
274.5681730104
 30
0.0
  0
SPLINE
  5
4A9
100
AcDbEntity
  8
0
100
AcDbSpline
 62
7
  6
CONTINUOUS
 70
0
 71
3
 72
14
 73
10
 74
0
 42
0.0000001
 43
0.0000001
 44
0.0000000001
 40
0.0
 40
0.0
 40
0.0
 40
0.0
 40
0.1114591289
 40
0.2036068616
 40
0.2983553439
 40
0.4148695513
 40
0.5551526249
 40
0.7095206105
 40
1.0
 40
1.0
 40
1.0
 40
1.0
 10
236.9929728131
 20
319.0635854372
 30
0.0
 10
236.7623581338
 20
319.2116849173
 30
0.0
 10
236.3667290888
 20
319.5486477155
 30
0.0
 10
236.1375135042
 20
320.303978933
 30
0.0
 10
236.4756513675
 20
321.0275719009
 30
0.0
 10
237.1890430742
 20
321.5494158463
 30
0.0
 10
238.1557805615
 20
321.8850711611
 30
0.0
 10
239.5901813005
 20
322.0270669034
 30
0.0
 10
240.7252700489
 20
321.8042593809
 30
0.0
 10
241.3438569051
 20
321.4471261724
 30
0.0
  0
SPLINE
  5
4AA
100
AcDbEntity
  8
0
100
AcDbSpline
 62
7
  6
CONTINUOUS
 70
0
 71
3
 72
10
 73
6
 74
0
 42
0.0000001
 43
0.0000001
 44
0.0000000001
 40
0.0
 40
0.0
 40
0.0
 40
0.0
 40
0.5141364071
 40
0.7396328838
 40
1.0
 40
1.0
 40
1.0
 40
1.0
 10
305.3372870309
 20
284.5013378883
 30
0.0
 10
305.7349073902
 20
284.2717768602
 30
0.0
 10
306.3124319027
 20
283.7153453422
 30
0.0
 10
306.1593235605
 20
282.7745753927
 30
0.0
 10
305.8588171139
 20
282.4372947034
 30
0.0
 10
305.6800184073
 20
282.2886597922
 30
0.0
  0
SPLINE
  5
4AB
100
AcDbEntity
  8
0
100
AcDbSpline
 62
7
  6
CONTINUOUS
 70
0
 71
3
 72
9
 73
5
 74
0
 42
0.0000001
 43
0.0000001
 44
0.0000000001
 40
0.0
 40
0.0
 40
0.0
 40
0.0
 40
0.2338381514
 40
1.0
 40
1.0
 40
1.0
 40
1.0
 10
305.6800184073
 20
282.2886597922
 30
0.0
 10
305.6290801796
 20
282.2463149728
 30
0.0
 10
305.402678067
 20
282.0755640971
 30
0.0
 10
305.1481597035
 20
281.9441004922
 30
0.0
 10
304.9472067891
 20
281.8621144401
 30
0.0
  0
SPLINE
  5
4AC
100
AcDbEntity
  8
0
100
AcDbSpline
 62
7
  6
CONTINUOUS
 70
0
 71
3
 72
9
 73
5
 74
0
 42
0.0000001
 43
0.0000001
 44
0.0000000001
 40
0.0
 40
0.0
 40
0.0
 40
0.0
 40
0.2412673808
 40
1.0
 40
1.0
 40
1.0
 40
1.0
 10
304.649271825
 20
281.7551314099
 30
0.0
 10
304.5193976067
 20
281.7143732115
 30
0.0
 10
303.9728515598
 20
281.5723887904
 30
0.0
 10
303.4016518519
 20
281.5303202297
 30
0.0
 10
302.9740494624
 20
281.550238538
 30
0.0
  0
SPLINE
  5
4AD
100
AcDbEntity
  8
0
100
AcDbSpline
 62
7
  6
CONTINUOUS
 70
0
 71
3
 72
9
 73
5
 74
0
 42
0.0000001
 43
0.0000001
 44
0.0000000001
 40
0.0
 40
0.0
 40
0.0
 40
0.0
 40
0.2567692224
 40
1.0
 40
1.0
 40
1.0
 40
1.0
 10
302.9740494624
 20
281.550238538
 30
0.0
 10
302.8704672354
 20
281.5550635408
 30
0.0
 10
302.4678177723
 20
281.5861183341
 30
0.0
 10
302.0681622482
 20
281.6652653434
 30
0.0
 10
301.7818645644
 20
281.7553927189
 30
0.0
  0
SPLINE
  5
4AE
100
AcDbEntity
  8
0
100
AcDbSpline
 62
7
  6
CONTINUOUS
 70
0
 71
3
 72
9
 73
5
 74
0
 42
0.0000001
 43
0.0000001
 44
0.0000000001
 40
0.0
 40
0.0
 40
0.0
 40
0.0
 40
0.2616560333
 40
1.0
 40
1.0
 40
1.0
 40
1.0
 10
301.7818645644
 20
281.7553927189
 30
0.0
 10
301.7195334281
 20
281.7750147489
 30
0.0
 10
301.4832246753
 20
281.8557495132
 30
0.0
 10
301.2543565639
 20
281.9596765105
 30
0.0
 10
301.0946639246
 20
282.0518730131
 30
0.0
  0
SPLINE
  5
4AF
100
AcDbEntity
  8
0
100
AcDbSpline
 62
7
  6
CONTINUOUS
 70
0
 71
3
 72
9
 73
5
 74
0
 42
0.0000001
 43
0.0000001
 44
0.0000000001
 40
0.0
 40
0.0
 40
0.0
 40
0.0
 40
0.5507550368
 40
1.0
 40
1.0
 40
1.0
 40
1.0
 10
123.2863963228
 20
309.9991437234
 30
0.0
 10
123.1788817992
 20
310.0612158583
 30
0.0
 10
122.9640357352
 20
310.1504949576
 30
0.0
 10
122.724090935
 20
310.1141555616
 30
0.0
 10
122.6363936166
 20
310.0635220436
 30
0.0
  0
SPLINE
  5
4B0
100
AcDbEntity
  8
0
100
AcDbSpline
 62
7
  6
CONTINUOUS
 70
0
 71
3
 72
15
 73
11
 74
0
 42
0.0000001
 43
0.0000001
 44
0.0000000001
 40
0.0
 40
0.0
 40
0.0
 40
0.0
 40
0.1452285156
 40
0.2771211908
 40
0.3976948187
 40
0.5108747404
 40
0.6222504533
 40
0.7378756549
 40
0.8627402955
 40
1.0
 40
1.0
 40
1.0
 40
1.0
 10
120.5548784484
 20
308.7779289677
 30
0.0
 10
118.9660195577
 20
307.7280302853
 30
0.0
 10
116.0724391267
 20
305.4968856527
 30
0.0
 10
112.5784870199
 20
301.5780178814
 30
0.0
 10
110.2463044909
 20
297.3324493263
 30
0.0
 10
109.1841410462
 20
292.8700404272
 30
0.0
 10
109.4615434655
 20
288.352712053
 30
0.0
 10
111.0589408317
 20
283.9631840869
 30
0.0
 10
113.881673232
 20
279.8414532317
 30
0.0
 10
116.3863346383
 20
277.4528898488
 30
0.0
 10
117.7857656818
 20
276.3209599406
 30
0.0
  0
SPLINE
  5
4B1
100
AcDbEntity
  8
0
100
AcDbSpline
 62
7
  6
CONTINUOUS
 70
0
 71
3
 72
9
 73
5
 74
0
 42
0.0000001
 43
0.0000001
 44
0.0000000001
 40
0.0
 40
0.0
 40
0.0
 40
0.0
 40
0.5507557757
 40
1.0
 40
1.0
 40
1.0
 40
1.0
 10
227.8794475998
 20
334.0856999321
 30
0.0
 10
227.9869610374
 20
334.1477724738
 30
0.0
 10
228.201804866
 20
334.2370527195
 30
0.0
 10
228.4417483579
 20
334.2007144433
 30
0.0
 10
228.5294448936
 20
334.1500813771
 30
0.0
  0
SPLINE
  5
4B2
100
AcDbEntity
  8
0
100
AcDbSpline
 62
7
  6
CONTINUOUS
 70
0
 71
3
 72
9
 73
5
 74
0
 42
0.0000001
 43
0.0000001
 44
0.0000000001
 40
0.0
 40
0.0
 40
0.0
 40
0.0
 40
0.242246695
 40
1.0
 40
1.0
 40
1.0
 40
1.0
 10
309.3860482522
 20
165.7029877347
 30
0.0
 10
310.166271462
 20
165.3814666086
 30
0.0
 10
313.4182717105
 20
164.1305539355
 30
0.0
 10
316.7810759369
 20
163.1739350233
 30
0.0
 10
319.3571685614
 20
162.5981345901
 30
0.0
  0
SPLINE
  5
4B3
100
AcDbEntity
  8
0
100
AcDbSpline
 62
7
  6
CONTINUOUS
 70
0
 71
3
 72
9
 73
5
 74
0
 42
0.0000001
 43
0.0000001
 44
0.0000000001
 40
0.0
 40
0.0
 40
0.0
 40
0.0
 40
0.2955062117
 40
1.0
 40
1.0
 40
1.0
 40
1.0
 10
162.4155624418
 20
333.1313219856
 30
0.0
 10
162.428726371
 20
333.1237219595
 30
0.0
 10
162.4743599585
 20
333.1012404127
 30
0.0
 10
162.5341803502
 20
333.0983461125
 30
0.0
 10
162.5655630663
 20
333.1164654501
 30
0.0
  0
SPLINE
  5
4B4
100
AcDbEntity
  8
0
100
AcDbSpline
 62
7
  6
CONTINUOUS
 70
0
 71
3
 72
9
 73
5
 74
0
 42
0.0000001
 43
0.0000001
 44
0.0000000001
 40
0.0
 40
0.0
 40
0.0
 40
0.0
 40
0.7044930628
 40
1.0
 40
1.0
 40
1.0
 40
1.0
 10
230.319386935
 20
333.1166283103
 30
0.0
 10
230.3507693842
 20
333.0985091267
 30
0.0
 10
230.4105894447
 20
333.1014037611
 30
0.0
 10
230.4562225022
 20
333.123885484
 30
0.0
 10
230.4693863104
 20
333.1314855668
 30
0.0
  0
SPLINE
  5
4B5
100
AcDbEntity
  8
0
100
AcDbSpline
 62
7
  6
CONTINUOUS
 70
0
 71
3
 72
9
 73
5
 74
0
 42
0.0000001
 43
0.0000001
 44
0.0000000001
 40
0.0
 40
0.0
 40
0.0
 40
0.0
 40
0.7044937883
 40
1.0
 40
1.0
 40
1.0
 40
1.0
 10
120.8464366707
 20
309.0300603717
 30
0.0
 10
120.8150539546
 20
309.0119410341
 30
0.0
 10
120.7552335629
 20
309.0148353343
 30
0.0
 10
120.7095999753
 20
309.0373168811
 30
0.0
 10
120.6964360462
 20
309.0449169071
 30
0.0
  0
SPLINE
  5
4B6
100
AcDbEntity
  8
0
100
AcDbSpline
 62
7
  6
CONTINUOUS
 70
0
 71
3
 72
13
 73
9
 74
0
 42
0.0000001
 43
0.0000001
 44
0.0000000001
 40
0.0
 40
0.0
 40
0.0
 40
0.0
 40
0.1164750263
 40
0.2286609134
 40
0.3403529495
 40
0.4554279513
 40
0.7070714175
 40
1.0
 40
1.0
 40
1.0
 40
1.0
 10
108.7347202341
 20
281.7188443204
 30
0.0
 10
108.1535077875
 20
282.8678292047
 30
0.0
 10
107.2294912324
 20
285.2447037253
 30
0.0
 10
106.6750758947
 20
288.9989947293
 30
0.0
 10
107.008342825
 20
292.765878185
 30
0.0
 10
108.667127526
 20
297.8317691458
 30
0.0
 10
113.1061684288
 20
303.8404306551
 30
0.0
 10
118.0419776852
 20
307.4109148865
 30
0.0
 10
120.8464366707
 20
309.0300603717
 30
0.0
  0
SPLINE
  5
4B7
100
AcDbEntity
  8
0
100
AcDbSpline
 62
7
  6
CONTINUOUS
 70
0
 71
3
 72
8
 73
4
 74
0
 42
0.0000001
 43
0.0000001
 44
0.0000000001
 40
0.0
 40
0.0
 40
0.0
 40
0.0
 40
1.0
 40
1.0
 40
1.0
 40
1.0
 10
74.2576167539
 20
512.7090306595
 30
0.0
 10
74.2576167448
 20
513.1553008323
 30
0.0
 10
74.149868513
 20
513.6093349493
 30
0.0
 10
73.9648224021
 20
514.0154322332
 30
0.0
  0
SPLINE
  5
4B8
100
AcDbEntity
  8
0
100
AcDbSpline
 62
7
  6
CONTINUOUS
 70
0
 71
3
 72
9
 73
5
 74
0
 42
0.0000001
 43
0.0000001
 44
0.0000000001
 40
0.0
 40
0.0
 40
0.0
 40
0.0
 40
0.2347240623
 40
1.0
 40
1.0
 40
1.0
 40
1.0
 10
293.8828849243
 20
182.1957215672
 30
0.0
 10
293.8828849243
 20
182.160459614
 30
0.0
 10
293.8762305229
 20
182.010252282
 30
0.0
 10
293.8461350253
 20
181.86154836
 30
0.0
 10
293.8135559199
 20
181.7512958129
 30
0.0
  0
SPLINE
  5
4B9
100
AcDbEntity
  8
0
100
AcDbSpline
 62
7
  6
CONTINUOUS
 70
0
 71
3
 72
9
 73
5
 74
0
 42
0.0000001
 43
0.0000001
 44
0.0000000001
 40
0.0
 40
0.0
 40
0.0
 40
0.0
 40
0.4999983278
 40
1.0
 40
1.0
 40
1.0
 40
1.0
 10
295.0849614476
 20
184.2777907379
 30
0.0
 10
294.7281660149
 20
184.0717960284
 30
0.0
 10
294.1644016765
 20
183.4212319877
 30
0.0
 10
293.8828849243
 20
182.6077155863
 30
0.0
 10
293.8828849243
 20
182.1957215672
 30
0.0
  0
SPLINE
  5
4BA
100
AcDbEntity
  8
0
100
AcDbSpline
 62
7
  6
CONTINUOUS
 70
0
 71
3
 72
9
 73
5
 74
0
 42
0.0000001
 43
0.0000001
 44
0.0000000001
 40
0.0
 40
0.0
 40
0.0
 40
0.0
 40
0.2894920692
 40
1.0
 40
1.0
 40
1.0
 40
1.0
 10
226.8489082985
 20
218.7741140988
 30
0.0
 10
226.9149254611
 20
218.8122288979
 30
0.0
 10
227.1490856186
 20
218.927835123
 30
0.0
 10
227.4411448129
 20
218.9639313938
 30
0.0
 10
227.616072098
 20
218.8975666203
 30
0.0
  0
SPLINE
  5
4BB
100
AcDbEntity
  8
0
100
AcDbSpline
 62
7
  6
CONTINUOUS
 70
0
 71
3
 72
9
 73
5
 74
0
 42
0.0000001
 43
0.0000001
 44
0.0000000001
 40
0.0
 40
0.0
 40
0.0
 40
0.0
 40
0.5000016722
 40
1.0
 40
1.0
 40
1.0
 40
1.0
 10
229.8894547985
 20
219.1415098513
 30
0.0
 10
229.8894547985
 20
219.5535038704
 30
0.0
 10
230.1709715507
 20
220.3670202718
 30
0.0
 10
230.7347358891
 20
221.0175843125
 30
0.0
 10
231.0915313218
 20
221.223579022
 30
0.0
  0
SPLINE
  5
4BC
100
AcDbEntity
  8
0
100
AcDbSpline
 62
7
  6
CONTINUOUS
 70
0
 71
3
 72
9
 73
5
 74
0
 42
0.0000001
 43
0.0000001
 44
0.0000000001
 40
0.0
 40
0.0
 40
0.0
 40
0.0
 40
0.4875300985
 40
1.0
 40
1.0
 40
1.0
 40
1.0
 10
229.8894547985
 20
219.1415098513
 30
0.0
 10
229.6575933865
 20
219.2753720716
 30
0.0
 10
229.1030575857
 20
219.4061624161
 30
0.0
 10
228.5431413119
 20
219.3422314587
 30
0.0
 10
228.2785735279
 20
219.2462950812
 30
0.0
  0
SPLINE
  5
4BD
100
AcDbEntity
  8
0
100
AcDbSpline
 62
7
  6
CONTINUOUS
 70
0
 71
3
 72
9
 73
5
 74
0
 42
0.0000001
 43
0.0000001
 44
0.0000000001
 40
0.0
 40
0.0
 40
0.0
 40
0.0
 40
0.2866257682
 40
1.0
 40
1.0
 40
1.0
 40
1.0
 10
228.2785735279
 20
219.2462950812
 30
0.0
 10
228.2172849024
 20
219.2240708761
 30
0.0
 10
228.0096448028
 20
219.1347150384
 30
0.0
 10
227.8155058797
 20
218.9859074115
 30
0.0
 10
227.7352697363
 20
218.8448755767
 30
0.0
  0
SPLINE
  5
4BE
100
AcDbEntity
  8
0
100
AcDbSpline
 62
7
  6
CONTINUOUS
 70
0
 71
3
 72
9
 73
5
 74
0
 42
0.0000001
 43
0.0000001
 44
0.0000000001
 40
0.0
 40
0.0
 40
0.0
 40
0.0
 40
0.260348916
 40
1.0
 40
1.0
 40
1.0
 40
1.0
 10
229.351112121
 20
217.8646444973
 30
0.0
 10
229.4327770181
 20
217.9547179926
 30
0.0
 10
229.7128271999
 20
218.3272322252
 30
0.0
 10
229.8894547985
 20
218.7960930548
 30
0.0
 10
229.8894547985
 20
219.1415098513
 30
0.0
  0
SPLINE
  5
4BF
100
AcDbEntity
  8
0
100
AcDbSpline
 62
7
  6
CONTINUOUS
 70
0
 71
3
 72
9
 73
5
 74
0
 42
0.0000001
 43
0.0000001
 44
0.0000000001
 40
0.0
 40
0.0
 40
0.0
 40
0.0
 40
0.5000016722
 40
1.0
 40
1.0
 40
1.0
 40
1.0
 10
148.218281544
 20
266.2933169984
 30
0.0
 10
148.218281544
 20
266.7053110175
 30
0.0
 10
148.4997982962
 20
267.5188274189
 30
0.0
 10
149.0635626346
 20
268.1693914596
 30
0.0
 10
149.4203580673
 20
268.3753861691
 30
0.0
  0
SPLINE
  5
4C0
100
AcDbEntity
  8
0
100
AcDbSpline
 62
7
  6
CONTINUOUS
 70
0
 71
3
 72
9
 73
5
 74
0
 42
0.0000001
 43
0.0000001
 44
0.0000000001
 40
0.0
 40
0.0
 40
0.0
 40
0.0
 40
0.260348916
 40
1.0
 40
1.0
 40
1.0
 40
1.0
 10
147.6799388665
 20
265.0164516444
 30
0.0
 10
147.7616037637
 20
265.1065251397
 30
0.0
 10
148.0416539454
 20
265.4790393723
 30
0.0
 10
148.218281544
 20
265.9479002018
 30
0.0
 10
148.218281544
 20
266.2933169984
 30
0.0
  0
SPLINE
  5
4C1
100
AcDbEntity
  8
0
100
AcDbSpline
 62
7
  6
CONTINUOUS
 70
0
 71
3
 72
9
 73
5
 74
0
 42
0.0000001
 43
0.0000001
 44
0.0000000001
 40
0.0
 40
0.0
 40
0.0
 40
0.0
 40
0.4875300985
 40
1.0
 40
1.0
 40
1.0
 40
1.0
 10
148.218281544
 20
266.2933169984
 30
0.0
 10
147.986420132
 20
266.4271792187
 30
0.0
 10
147.4318843312
 20
266.5579695632
 30
0.0
 10
146.8719680575
 20
266.4940386058
 30
0.0
 10
146.6074002734
 20
266.3981022283
 30
0.0
  0
SPLINE
  5
4C2
100
AcDbEntity
  8
0
100
AcDbSpline
 62
7
  6
CONTINUOUS
 70
0
 71
3
 72
9
 73
5
 74
0
 42
0.0000001
 43
0.0000001
 44
0.0000000001
 40
0.0
 40
0.0
 40
0.0
 40
0.0
 40
0.2881559006
 40
1.0
 40
1.0
 40
1.0
 40
1.0
 10
146.6074002734
 20
266.3981022283
 30
0.0
 10
146.5442163698
 20
266.375190766
 30
0.0
 10
146.3315911673
 20
266.2833489464
 30
0.0
 10
146.1327348347
 20
266.1276044681
 30
0.0
 10
146.0553474815
 20
265.9807116817
 30
0.0
  0
SPLINE
  5
4C3
100
AcDbEntity
  8
0
100
AcDbSpline
 62
7
  6
CONTINUOUS
 70
0
 71
3
 72
9
 73
5
 74
0
 42
0.0000001
 43
0.0000001
 44
0.0000000001
 40
0.0
 40
0.0
 40
0.0
 40
0.0
 40
0.4999983278
 40
1.0
 40
1.0
 40
1.0
 40
1.0
 10
213.4137881931
 20
231.429597885
 30
0.0
 10
213.0569927604
 20
231.2236031755
 30
0.0
 10
212.493228422
 20
230.5730391348
 30
0.0
 10
212.2117116699
 20
229.7595227334
 30
0.0
 10
212.2117116699
 20
229.3475287143
 30
0.0
  0
SPLINE
  5
4C4
100
AcDbEntity
  8
0
100
AcDbSpline
 62
7
  6
CONTINUOUS
 70
0
 71
3
 72
9
 73
5
 74
0
 42
0.0000001
 43
0.0000001
 44
0.0000000001
 40
0.0
 40
0.0
 40
0.0
 40
0.0
 40
0.2345688897
 40
1.0
 40
1.0
 40
1.0
 40
1.0
 10
212.2117116699
 20
229.3475287143
 30
0.0
 10
212.2117116699
 20
229.3117113561
 30
0.0
 10
212.2048417812
 20
229.1590379722
 30
0.0
 10
212.1738223265
 20
229.0079382055
 30
0.0
 10
212.1402634865
 20
228.895982636
 30
0.0
  0
SPLINE
  5
4C5
100
AcDbEntity
  8
0
100
AcDbSpline
 62
7
  6
CONTINUOUS
 70
0
 71
3
 72
9
 73
5
 74
0
 42
0.0000001
 43
0.0000001
 44
0.0000000001
 40
0.0
 40
0.0
 40
0.0
 40
0.0
 40
0.2846187122
 40
1.0
 40
1.0
 40
1.0
 40
1.0
 10
318.7724071363
 20
271.8458541021
 30
0.0
 10
318.8312556562
 20
271.8798301081
 30
0.0
 10
319.0436764433
 20
271.9857550187
 30
0.0
 10
319.298623827
 20
272.0314556533
 30
0.0
 10
319.4648372799
 20
271.9921560952
 30
0.0
  0
SPLINE
  5
4C6
100
AcDbEntity
  8
0
100
AcDbSpline
 62
7
  6
CONTINUOUS
 70
0
 71
3
 72
9
 73
5
 74
0
 42
0.0000001
 43
0.0000001
 44
0.0000000001
 40
0.0
 40
0.0
 40
0.0
 40
0.0
 40
0.4875300985
 40
1.0
 40
1.0
 40
1.0
 40
1.0
 10
240.1417803818
 20
319.3650570017
 30
0.0
 10
239.9099189698
 20
319.498919222
 30
0.0
 10
239.355383169
 20
319.6297095665
 30
0.0
 10
238.7954668953
 20
319.5657786091
 30
0.0
 10
238.5308991112
 20
319.4698422316
 30
0.0
  0
SPLINE
  5
4C7
100
AcDbEntity
  8
0
100
AcDbSpline
 62
7
  6
CONTINUOUS
 70
0
 71
3
 72
9
 73
5
 74
0
 42
0.0000001
 43
0.0000001
 44
0.0000000001
 40
0.0
 40
0.0
 40
0.0
 40
0.0
 40
0.2886147997
 40
1.0
 40
1.0
 40
1.0
 40
1.0
 10
238.5308991112
 20
319.4698422316
 30
0.0
 10
238.4671507466
 20
319.446726087
 30
0.0
 10
238.25305846
 20
319.3541524548
 30
0.0
 10
238.0528062979
 20
319.1962955898
 30
0.0
 10
237.9763545777
 20
319.0476653618
 30
0.0
  0
SPLINE
  5
4C8
100
AcDbEntity
  8
0
100
AcDbSpline
 62
7
  6
CONTINUOUS
 70
0
 71
3
 72
9
 73
5
 74
0
 42
0.0000001
 43
0.0000001
 44
0.0000000001
 40
0.0
 40
0.0
 40
0.0
 40
0.0
 40
0.260348916
 40
1.0
 40
1.0
 40
1.0
 40
1.0
 10
239.6034377043
 20
318.0881916477
 30
0.0
 10
239.6851026015
 20
318.178265143
 30
0.0
 10
239.9651527832
 20
318.5507793756
 30
0.0
 10
240.1417803818
 20
319.0196402051
 30
0.0
 10
240.1417803818
 20
319.3650570017
 30
0.0
  0
SPLINE
  5
4C9
100
AcDbEntity
  8
0
100
AcDbSpline
 62
7
  6
CONTINUOUS
 70
0
 71
3
 72
9
 73
5
 74
0
 42
0.0000001
 43
0.0000001
 44
0.0000000001
 40
0.0
 40
0.0
 40
0.0
 40
0.0
 40
0.2894920692
 40
1.0
 40
1.0
 40
1.0
 40
1.0
 10
237.1012338818
 20
318.9976612492
 30
0.0
 10
237.1672510444
 20
319.0357760483
 30
0.0
 10
237.4014112019
 20
319.1513822734
 30
0.0
 10
237.6934703963
 20
319.1874785442
 30
0.0
 10
237.8683976813
 20
319.1211137706
 30
0.0
  0
SPLINE
  5
4CA
100
AcDbEntity
  8
0
100
AcDbSpline
 62
7
  6
CONTINUOUS
 70
0
 71
3
 72
9
 73
5
 74
0
 42
0.0000001
 43
0.0000001
 44
0.0000000001
 40
0.0
 40
0.0
 40
0.0
 40
0.0
 40
0.5000016722
 40
1.0
 40
1.0
 40
1.0
 40
1.0
 10
240.1417803818
 20
319.3650570017
 30
0.0
 10
240.1417803818
 20
319.7770510208
 30
0.0
 10
240.423297134
 20
320.5905674222
 30
0.0
 10
240.9870614724
 20
321.2411314629
 30
0.0
 10
241.3438569051
 20
321.4471261724
 30
0.0
  0
SPLINE
  5
4CB
100
AcDbEntity
  8
0
100
AcDbSpline
 62
7
  6
CONTINUOUS
 70
0
 71
3
 72
9
 73
5
 74
0
 42
0.0000001
 43
0.0000001
 44
0.0000000001
 40
0.0
 40
0.0
 40
0.0
 40
0.0
 40
0.4999983278
 40
1.0
 40
1.0
 40
1.0
 40
1.0
 10
305.3372870309
 20
284.5013378883
 30
0.0
 10
304.9804915982
 20
284.2953431788
 30
0.0
 10
304.4167272598
 20
283.6447791381
 30
0.0
 10
304.1352105077
 20
282.8312627367
 30
0.0
 10
304.1352105077
 20
282.4192687176
 30
0.0
  0
SPLINE
  5
4CC
100
AcDbEntity
  8
0
100
AcDbSpline
 62
7
  6
CONTINUOUS
 70
0
 71
3
 72
9
 73
5
 74
0
 42
0.0000001
 43
0.0000001
 44
0.0000000001
 40
0.0
 40
0.0
 40
0.0
 40
0.0
 40
0.2347240623
 40
1.0
 40
1.0
 40
1.0
 40
1.0
 10
304.1352105077
 20
282.4192687176
 30
0.0
 10
304.1352105077
 20
282.3840067644
 30
0.0
 10
304.1285561062
 20
282.2337994324
 30
0.0
 10
304.0984606086
 20
282.0850955103
 30
0.0
 10
304.0658815032
 20
281.9748429632
 30
0.0
  0
SPLINE
  5
4CD
100
AcDbEntity
  8
0
100
AcDbSpline
 62
7
  6
CONTINUOUS
 70
0
 71
3
 72
9
 73
5
 74
0
 42
0.0000001
 43
0.0000001
 44
0.0000000001
 40
0.0
 40
0.0
 40
0.0
 40
0.0
 40
0.2656056892
 40
1.0
 40
1.0
 40
1.0
 40
1.0
 10
351.775220023
 20
151.3327990125
 30
0.0
 10
351.8808408923
 20
151.3808587325
 30
0.0
 10
352.2841372647
 20
151.5484417609
 30
0.0
 10
352.7130630574
 20
151.6598948004
 30
0.0
 10
353.0321510775
 20
151.6934824384
 30
0.0
  0
SPLINE
  5
4CE
100
AcDbEntity
  8
0
100
AcDbSpline
 62
7
  6
CONTINUOUS
 70
0
 71
3
 72
9
 73
5
 74
0
 42
0.0000001
 43
0.0000001
 44
0.0000000001
 40
0.0
 40
0.0
 40
0.0
 40
0.0
 40
0.2615071687
 40
1.0
 40
1.0
 40
1.0
 40
1.0
 10
353.0321510775
 20
151.6934824384
 30
0.0
 10
353.1171021395
 20
151.7024245025
 30
0.0
 10
353.4430222822
 20
151.7237438946
 30
0.0
 10
353.7737922995
 20
151.6892909662
 30
0.0
 10
354.0068159569
 20
151.6269211534
 30
0.0
  0
SPLINE
  5
4CF
100
AcDbEntity
  8
0
100
AcDbSpline
 62
7
  6
CONTINUOUS
 70
0
 71
3
 72
11
 73
7
 74
0
 42
0.0000001
 43
0.0000001
 44
0.0000000001
 40
0.0
 40
0.0
 40
0.0
 40
0.0
 40
0.2930406017
 40
0.5427134323
 40
0.7674501131
 40
1.0
 40
1.0
 40
1.0
 40
1.0
 10
198.1509871911
 20
378.388822073
 30
0.0
 10
198.1509871911
 20
378.9219113962
 30
0.0
 10
198.2597824679
 20
379.9170285426
 30
0.0
 10
198.8659415388
 20
381.2155580322
 30
0.0
 10
199.9168142793
 20
382.0462757742
 30
0.0
 10
200.7749140093
 20
382.1774482949
 30
0.0
 10
201.1976775698
 20
382.1619728657
 30
0.0
  0
SPLINE
  5
4D0
100
AcDbEntity
  8
0
100
AcDbSpline
 62
7
  6
CONTINUOUS
 70
0
 71
3
 72
9
 73
5
 74
0
 42
0.0000001
 43
0.0000001
 44
0.0000000001
 40
0.0
 40
0.0
 40
0.0
 40
0.0
 40
0.5014216118
 40
1.0
 40
1.0
 40
1.0
 40
1.0
 10
201.3410684387
 20
368.3820662315
 30
0.0
 10
201.8067779119
 20
368.1132330109
 30
0.0
 10
202.7433981149
 20
367.5907125193
 30
0.0
 10
203.6642284945
 20
367.0408435224
 30
0.0
 10
204.1272703958
 20
366.7734881696
 30
0.0
  0
SPLINE
  5
4D1
100
AcDbEntity
  8
0
100
AcDbSpline
 62
7
  6
CONTINUOUS
 70
0
 71
3
 72
9
 73
5
 74
0
 42
0.0000001
 43
0.0000001
 44
0.0000000001
 40
0.0
 40
0.0
 40
0.0
 40
0.0
 40
0.5525194405
 40
1.0
 40
1.0
 40
1.0
 40
1.0
 10
193.8953430054
 20
367.3741618977
 30
0.0
 10
194.165435958
 20
367.2182133584
 30
0.0
 10
194.7115358207
 20
366.9944396086
 30
0.0
 10
195.312309434
 20
367.1483961363
 30
0.0
 10
195.5114715766
 20
367.3037545033
 30
0.0
  0
SPLINE
  5
4D2
100
AcDbEntity
  8
0
100
AcDbSpline
 62
7
  6
CONTINUOUS
 70
0
 71
3
 72
9
 73
5
 74
0
 42
0.0000001
 43
0.0000001
 44
0.0000000001
 40
0.0
 40
0.0
 40
0.0
 40
0.0
 40
0.4523553808
 40
1.0
 40
1.0
 40
1.0
 40
1.0
 10
195.5114715766
 20
367.3037545033
 30
0.0
 10
195.6810231497
 20
367.4360148575
 30
0.0
 10
195.956909655
 20
367.8559193711
 30
0.0
 10
196.0167263601
 20
368.3384374754
 30
0.0
 10
196.0167263601
 20
368.5987712408
 30
0.0
  0
SPLINE
  5
4D3
100
AcDbEntity
  8
0
100
AcDbSpline
 62
7
  6
CONTINUOUS
 70
0
 71
3
 72
9
 73
5
 74
0
 42
0.0000001
 43
0.0000001
 44
0.0000000001
 40
0.0
 40
0.0
 40
0.0
 40
0.0
 40
0.2917314118
 40
1.0
 40
1.0
 40
1.0
 40
1.0
 10
203.6910421103
 20
370.6705714662
 30
0.0
 10
203.9687090531
 20
370.469930507
 30
0.0
 10
204.9523149145
 20
369.8482464221
 30
0.0
 10
206.2095599916
 20
369.5095062662
 30
0.0
 10
207.0215634015
 20
369.6894398009
 30
0.0
  0
SPLINE
  5
4D4
100
AcDbEntity
  8
0
100
AcDbSpline
 62
7
  6
CONTINUOUS
 70
0
 71
3
 72
8
 73
4
 74
0
 42
0.0000001
 43
0.0000001
 44
0.0000000001
 40
0.0
 40
0.0
 40
0.0
 40
0.0
 40
1.0
 40
1.0
 40
1.0
 40
1.0
 10
304.5159714119
 20
281.888551317
 30
0.0
 10
304.5159353872
 20
281.9746856442
 30
0.0
 10
304.4877660751
 20
282.0628425106
 30
0.0
 10
304.4430220611
 20
282.1364434401
 30
0.0
  0
SPLINE
  5
4D5
100
AcDbEntity
  8
0
100
AcDbSpline
 62
7
  6
CONTINUOUS
 70
0
 71
3
 72
9
 73
5
 74
0
 42
0.0000001
 43
0.0000001
 44
0.0000000001
 40
0.0
 40
0.0
 40
0.0
 40
0.0
 40
0.2282960094
 40
1.0
 40
1.0
 40
1.0
 40
1.0
 10
304.4430220611
 20
282.1364434401
 30
0.0
 10
304.4263965498
 20
282.1637913013
 30
0.0
 10
304.343471194
 20
282.2774537596
 30
0.0
 10
304.228902373
 20
282.3651769177
 30
0.0
 10
304.1352105077
 20
282.4192687176
 30
0.0
  0
SPLINE
  5
4D6
100
AcDbEntity
  8
0
100
AcDbSpline
 62
7
  6
CONTINUOUS
 70
0
 71
3
 72
9
 73
5
 74
0
 42
0.0000001
 43
0.0000001
 44
0.0000000001
 40
0.0
 40
0.0
 40
0.0
 40
0.0
 40
0.235912786
 40
1.0
 40
1.0
 40
1.0
 40
1.0
 10
343.1614818121
 20
376.1529404364
 30
0.0
 10
343.1157421009
 20
376.1265327594
 30
0.0
 10
342.9262720163
 20
376.0069944897
 30
0.0
 10
342.7540516769
 20
375.8611380724
 30
0.0
 10
342.6326929988
 20
375.7405798486
 30
0.0
  0
SPLINE
  5
4D7
100
AcDbEntity
  8
0
100
AcDbSpline
 62
7
  6
CONTINUOUS
 70
0
 71
3
 72
9
 73
5
 74
0
 42
0.0000001
 43
0.0000001
 44
0.0000000001
 40
0.0
 40
0.0
 40
0.0
 40
0.0
 40
0.2471993713
 40
1.0
 40
1.0
 40
1.0
 40
1.0
 10
342.6326929988
 20
375.7405798486
 30
0.0
 10
342.5227987684
 20
375.6314104557
 30
0.0
 10
342.1120272871
 20
375.1573589413
 30
0.0
 10
341.8191488421
 20
374.578666731
 30
0.0
 10
341.6985693942
 20
374.1226113942
 30
0.0
  0
SPLINE
  5
4D8
100
AcDbEntity
  8
0
100
AcDbSpline
 62
7
  6
CONTINUOUS
 70
0
 71
3
 72
9
 73
5
 74
0
 42
0.0000001
 43
0.0000001
 44
0.0000000001
 40
0.0
 40
0.0
 40
0.0
 40
0.0
 40
0.2633923651
 40
1.0
 40
1.0
 40
1.0
 40
1.0
 10
341.6985693942
 20
374.1226113942
 30
0.0
 10
341.6834984472
 20
374.0656100897
 30
0.0
 10
341.6324582785
 20
373.8477017446
 30
0.0
 10
341.6058533703
 20
373.6233865472
 30
0.0
 10
341.6058533703
 20
373.4584979802
 30
0.0
  0
SPLINE
  5
4D9
100
AcDbEntity
  8
0
100
AcDbSpline
 62
7
  6
CONTINUOUS
 70
0
 71
3
 72
9
 73
5
 74
0
 42
0.0000001
 43
0.0000001
 44
0.0000000001
 40
0.0
 40
0.0
 40
0.0
 40
0.0
 40
0.272706309
 40
1.0
 40
1.0
 40
1.0
 40
1.0
 10
63.6587195267
 20
509.9234500243
 30
0.0
 10
63.6008879298
 20
509.9236214509
 30
0.0
 10
63.3889726448
 20
509.9189353079
 30
0.0
 10
63.1765910304
 20
509.8914356066
 30
0.0
 10
63.0275186285
 20
509.8518664057
 30
0.0
  0
SPLINE
  5
4DA
100
AcDbEntity
  8
0
100
AcDbSpline
 62
7
  6
CONTINUOUS
 70
0
 71
3
 72
8
 73
4
 74
0
 42
0.0000001
 43
0.0000001
 44
0.0000000001
 40
0.0
 40
0.0
 40
0.0
 40
0.0
 40
1.0
 40
1.0
 40
1.0
 40
1.0
 10
63.0275186285
 20
509.8518664057
 30
0.0
 10
62.9412219499
 20
509.8289601495
 30
0.0
 10
62.8562408235
 20
509.7992103839
 30
0.0
 10
62.7755533823
 20
509.7609827742
 30
0.0
  0
SPLINE
  5
4DB
100
AcDbEntity
  8
0
100
AcDbSpline
 62
7
  6
CONTINUOUS
 70
0
 71
3
 72
14
 73
10
 74
0
 42
0.0000001
 43
0.0000001
 44
0.0000000001
 40
0.0
 40
0.0
 40
0.0
 40
0.0
 40
0.2697244982
 40
0.4172316767
 40
0.5619039733
 40
0.6958573028
 40
0.8133690535
 40
0.9129525067
 40
1.0
 40
1.0
 40
1.0
 40
1.0
 10
209.8052677201
 20
373.3032208972
 30
0.0
 10
209.8034462139
 20
374.5533513425
 30
0.0
 10
209.2882705517
 20
376.4897836146
 30
0.0
 10
208.0470952228
 20
378.7813299467
 30
0.0
 10
206.8232987329
 20
380.346635006
 30
0.0
 10
205.4390583111
 20
381.5708363466
 30
0.0
 10
203.9954705195
 20
382.3584784037
 30
0.0
 10
202.582660538
 20
382.6408373123
 30
0.0
 10
201.7050353181
 20
382.414994138
 30
0.0
 10
201.3556478643
 20
382.2132473407
 30
0.0
  0
SPLINE
  5
4DC
100
AcDbEntity
  8
0
100
AcDbSpline
 62
7
  6
CONTINUOUS
 70
0
 71
3
 72
15
 73
11
 74
0
 42
0.0000001
 43
0.0000001
 44
0.0000000001
 40
0.0
 40
0.0
 40
0.0
 40
0.0
 40
0.1279351597
 40
0.2684561856
 40
0.486974539
 40
0.6918722571
 40
0.7825972488
 40
0.8634302035
 40
0.9349385111
 40
1.0
 40
1.0
 40
1.0
 40
1.0
 10
209.1006447128
 20
373.3100443275
 30
0.0
 10
209.1006447128
 20
373.8527915432
 30
0.0
 10
208.9446520909
 20
374.9923257989
 30
0.0
 10
208.2905607291
 20
376.9607611624
 30
0.0
 10
207.0720775725
 20
379.0470034442
 30
0.0
 10
205.5292836587
 20
380.6336996896
 30
0.0
 10
204.163164041
 20
381.4764067378
 30
0.0
 10
203.1867342513
 20
381.8347676903
 30
0.0
 10
202.2561511897
 20
381.9232991999
 30
0.0
 10
201.6788315223
 20
381.7830971837
 30
0.0
 10
201.4282446392
 20
381.6673813934
 30
0.0
  0
SPLINE
  5
4DD
100
AcDbEntity
  8
0
100
AcDbSpline
 62
7
  6
CONTINUOUS
 70
0
 71
3
 72
8
 73
4
 74
0
 42
0.0000001
 43
0.0000001
 44
0.0000000001
 40
0.0
 40
0.0
 40
0.0
 40
0.0
 40
1.0
 40
1.0
 40
1.0
 40
1.0
 10
201.4282446392
 20
381.6673813934
 30
0.0
 10
201.1936937781
 20
381.5590707033
 30
0.0
 10
200.9758539062
 20
381.4057782406
 30
0.0
 10
200.7931682031
 20
381.2231002564
 30
0.0
  0
SPLINE
  5
4DE
100
AcDbEntity
  8
0
100
AcDbSpline
 62
7
  6
CONTINUOUS
 70
0
 71
3
 72
9
 73
5
 74
0
 42
0.0000001
 43
0.0000001
 44
0.0000000001
 40
0.0
 40
0.0
 40
0.0
 40
0.0
 40
0.2230269519
 40
1.0
 40
1.0
 40
1.0
 40
1.0
 10
200.7931682031
 20
381.2231002564
 30
0.0
 10
200.6540148965
 20
381.0839528293
 30
0.0
 10
200.1099970991
 20
380.3778462852
 30
0.0
 10
199.927327853
 20
379.4543905706
 30
0.0
 10
199.9061056148
 20
378.7691551974
 30
0.0
  0
SPLINE
  5
4DF
100
AcDbEntity
  8
0
100
AcDbSpline
 62
7
  6
CONTINUOUS
 70
0
 71
3
 72
11
 73
7
 74
0
 42
0.0000001
 43
0.0000001
 44
0.0000000001
 40
0.0
 40
0.0
 40
0.0
 40
0.0
 40
0.2985854163
 40
0.5573360411
 40
0.7841494806
 40
1.0
 40
1.0
 40
1.0
 40
1.0
 10
204.1075467369
 20
370.887324475
 30
0.0
 10
204.4733878095
 20
370.6396295749
 30
0.0
 10
205.203424492
 20
370.2392218509
 30
0.0
 10
206.3464725562
 20
369.9561075341
 30
0.0
 10
207.4060871787
 20
370.0759004983
 30
0.0
 10
207.9805703971
 20
370.4421129407
 30
0.0
 10
208.2069415736
 20
370.6674206738
 30
0.0
  0
SPLINE
  5
4E0
100
AcDbEntity
  8
0
100
AcDbSpline
 62
7
  6
CONTINUOUS
 70
0
 71
3
 72
9
 73
5
 74
0
 42
0.0000001
 43
0.0000001
 44
0.0000000001
 40
0.0
 40
0.0
 40
0.0
 40
0.0
 40
0.4559669907
 40
1.0
 40
1.0
 40
1.0
 40
1.0
 10
208.2069415736
 20
370.6674206738
 30
0.0
 10
208.5132312348
 20
370.9722714516
 30
0.0
 10
208.9904443683
 20
371.8371529377
 30
0.0
 10
209.1006447128
 20
372.7944370061
 30
0.0
 10
209.1006447128
 20
373.3100443275
 30
0.0
  0
SPLINE
  5
4E1
100
AcDbEntity
  8
0
100
AcDbSpline
 62
7
  6
CONTINUOUS
 70
0
 71
3
 72
8
 73
4
 74
0
 42
0.0000001
 43
0.0000001
 44
0.0000000001
 40
0.0
 40
0.0
 40
0.0
 40
0.0
 40
1.0
 40
1.0
 40
1.0
 40
1.0
 10
201.6299153557
 20
379.1870917868
 30
0.0
 10
201.6796123239
 20
379.2786725967
 30
0.0
 10
201.7366333532
 20
379.3667517007
 30
0.0
 10
201.8008787658
 20
379.4487843793
 30
0.0
  0
SPLINE
  5
4E2
100
AcDbEntity
  8
0
100
AcDbSpline
 62
7
  6
CONTINUOUS
 70
0
 71
3
 72
8
 73
4
 74
0
 42
0.0000001
 43
0.0000001
 44
0.0000000001
 40
0.0
 40
0.0
 40
0.0
 40
0.0
 40
1.0
 40
1.0
 40
1.0
 40
1.0
 10
201.8008787658
 20
379.4487843793
 30
0.0
 10
201.8881017331
 20
379.560156279
 30
0.0
 10
201.990109538
 20
379.6617246843
 30
0.0
 10
202.1034757677
 20
379.746339364
 30
0.0
  0
SPLINE
  5
4E3
100
AcDbEntity
  8
0
100
AcDbSpline
 62
7
  6
CONTINUOUS
 70
0
 71
3
 72
13
 73
9
 74
0
 42
0.0000001
 43
0.0000001
 44
0.0000000001
 40
0.0
 40
0.0
 40
0.0
 40
0.0
 40
0.0867184864
 40
0.1843018581
 40
0.3001342929
 40
0.4336076794
 40
0.7270044471
 40
1.0
 40
1.0
 40
1.0
 40
1.0
 10
202.1034757677
 20
379.746339364
 30
0.0
 10
202.3144520713
 20
379.9038085892
 30
0.0
 10
202.8649425709
 20
380.1148442121
 30
0.0
 10
203.7936373232
 20
379.9952656499
 30
0.0
 10
204.7491590374
 20
379.5224529756
 30
0.0
 10
206.0184993985
 20
378.4533409598
 30
0.0
 10
207.2169318093
 20
376.6518062438
 30
0.0
 10
207.6839481107
 20
374.9388429485
 30
0.0
 10
207.6839481107
 20
374.1100726453
 30
0.0
  0
SPLINE
  5
4E4
100
AcDbEntity
  8
0
100
AcDbSpline
 62
7
  6
CONTINUOUS
 70
0
 71
3
 72
11
 73
7
 74
0
 42
0.0000001
 43
0.0000001
 44
0.0000000001
 40
0.0
 40
0.0
 40
0.0
 40
0.0
 40
0.2921131973
 40
0.5420212287
 40
0.7673069791
 40
1.0
 40
1.0
 40
1.0
 40
1.0
 10
207.6837090204
 20
374.0651696695
 30
0.0
 10
207.6803648286
 20
373.7521145681
 30
0.0
 10
207.610018239
 20
373.1674577652
 30
0.0
 10
207.2478390544
 20
372.4055395062
 30
0.0
 10
206.6286814139
 20
371.9165049322
 30
0.0
 10
206.1239646382
 20
371.8335863437
 30
0.0
 10
205.874657079
 20
371.8399693585
 30
0.0
  0
SPLINE
  5
4E5
100
AcDbEntity
  8
0
100
AcDbSpline
 62
7
  6
CONTINUOUS
 70
0
 71
3
 72
9
 73
5
 74
0
 42
0.0000001
 43
0.0000001
 44
0.0000000001
 40
0.0
 40
0.0
 40
0.0
 40
0.0
 40
0.2358860993
 40
1.0
 40
1.0
 40
1.0
 40
1.0
 10
205.874657079
 20
371.8399693585
 30
0.0
 10
205.8066608722
 20
371.8417102635
 30
0.0
 10
205.5187867056
 20
371.8636247622
 30
0.0
 10
205.2365185462
 20
371.9399921552
 30
0.0
 10
205.0307439297
 20
372.0187585849
 30
0.0
  0
SPLINE
  5
4E6
100
AcDbEntity
  8
0
100
AcDbSpline
 62
7
  6
CONTINUOUS
 70
0
 71
3
 72
9
 73
5
 74
0
 42
0.0000001
 43
0.0000001
 44
0.0000000001
 40
0.0
 40
0.0
 40
0.0
 40
0.0
 40
0.5506267538
 40
1.0
 40
1.0
 40
1.0
 40
1.0
 10
206.9768284421
 20
374.1000691301
 30
0.0
 10
206.9742965911
 20
373.7199627866
 30
0.0
 10
206.8824437394
 20
373.013704945
 30
0.0
 10
206.417100089
 20
372.4339466406
 30
0.0
 10
206.1483037138
 20
372.279083217
 30
0.0
  0
SPLINE
  5
4E7
100
AcDbEntity
  8
0
100
AcDbSpline
 62
7
  6
CONTINUOUS
 70
0
 71
3
 72
13
 73
9
 74
0
 42
0.0000001
 43
0.0000001
 44
0.0000000001
 40
0.0
 40
0.0
 40
0.0
 40
0.0
 40
0.2698867897
 40
0.5613103991
 40
0.6954504216
 40
0.8131346233
 40
0.9128516292
 40
1.0
 40
1.0
 40
1.0
 40
1.0
 10
197.4309399224
 20
368.5987746402
 30
0.0
 10
197.4309399224
 20
369.3132844643
 30
0.0
 10
197.0381270516
 20
370.794503504
 30
0.0
 10
196.0208642915
 20
372.3667981597
 30
0.0
 10
194.9379652301
 20
373.3274852518
 30
0.0
 10
194.1123792491
 20
373.778297664
 30
0.0
 10
193.3043001388
 20
373.9403472269
 30
0.0
 10
192.8024767719
 20
373.8109322388
 30
0.0
 10
192.6025818344
 20
373.6957199084
 30
0.0
  0
SPLINE
  5
4E8
100
AcDbEntity
  8
0
100
AcDbSpline
 62
7
  6
CONTINUOUS
 70
0
 71
3
 72
13
 73
9
 74
0
 42
0.0000001
 43
0.0000001
 44
0.0000000001
 40
0.0
 40
0.0
 40
0.0
 40
0.0
 40
0.2735391063
 40
0.5672469047
 40
0.7005894739
 40
0.8160803886
 40
0.9132954896
 40
1.0
 40
1.0
 40
1.0
 40
1.0
 10
196.0167263601
 20
368.5987712408
 30
0.0
 10
196.0167263601
 20
369.1542822223
 30
0.0
 10
195.7023432647
 20
370.3017829535
 30
0.0
 10
194.8968915896
 20
371.5066228057
 30
0.0
 10
194.0445682202
 20
372.2177265284
 30
0.0
 10
193.4043697252
 20
372.5285994346
 30
0.0
 10
192.7829615747
 20
372.6002764189
 30
0.0
 10
192.4181598191
 20
372.4515336787
 30
0.0
 10
192.2793227927
 20
372.3432325055
 30
0.0
  0
SPLINE
  5
4E9
100
AcDbEntity
  8
0
100
AcDbSpline
 62
7
  6
CONTINUOUS
 70
0
 71
3
 72
9
 73
5
 74
0
 42
0.0000001
 43
0.0000001
 44
0.0000000001
 40
0.0
 40
0.0
 40
0.0
 40
0.0
 40
0.4523553808
 40
1.0
 40
1.0
 40
1.0
 40
1.0
 10
192.2793227927
 20
372.3432325055
 30
0.0
 10
192.1097712195
 20
372.2109721513
 30
0.0
 10
191.8338847143
 20
371.7910676376
 30
0.0
 10
191.7740680092
 20
371.3085495334
 30
0.0
 10
191.7740680092
 20
371.048215768
 30
0.0
  0
SPLINE
  5
4EA
100
AcDbEntity
  8
0
100
AcDbSpline
 62
7
  6
CONTINUOUS
 70
0
 71
3
 72
11
 73
7
 74
0
 42
0.0000001
 43
0.0000001
 44
0.0000000001
 40
0.0
 40
0.0
 40
0.0
 40
0.0
 40
0.2470654164
 40
0.5198804912
 40
0.7814682979
 40
1.0
 40
1.0
 40
1.0
 40
1.0
 10
351.4346108386
 20
151.002358394
 30
0.0
 10
350.6601563153
 20
150.5552295355
 30
0.0
 10
349.2269167672
 20
149.2746320713
 30
0.0
 10
347.6785652468
 20
146.8744407251
 30
0.0
 10
346.8076334722
 20
144.2649125083
 30
0.0
 10
346.7945989111
 20
142.4653448556
 30
0.0
 10
347.0099738561
 20
141.7042484848
 30
0.0
  0
SPLINE
  5
4EB
100
AcDbEntity
  8
0
100
AcDbSpline
 62
7
  6
CONTINUOUS
 70
0
 71
3
 72
8
 73
4
 74
0
 42
0.0000001
 43
0.0000001
 44
0.0000000001
 40
0.0
 40
0.0
 40
0.0
 40
0.0
 40
1.0
 40
1.0
 40
1.0
 40
1.0
 10
347.0099738561
 20
141.7042484848
 30
0.0
 10
347.0604702251
 20
141.5258033868
 30
0.0
 10
347.124023795
 20
141.3503152146
 30
0.0
 10
347.2022936724
 20
141.1821891827
 30
0.0
  0
SPLINE
  5
4EC
100
AcDbEntity
  8
0
100
AcDbSpline
 62
7
  6
CONTINUOUS
 70
0
 71
3
 72
9
 73
5
 74
0
 42
0.0000001
 43
0.0000001
 44
0.0000000001
 40
0.0
 40
0.0
 40
0.0
 40
0.0
 40
0.2656004785
 40
1.0
 40
1.0
 40
1.0
 40
1.0
 10
347.2022936724
 20
141.1821891827
 30
0.0
 10
347.2583387065
 20
141.0618027772
 30
0.0
 10
347.4962132149
 20
140.6221623511
 30
0.0
 10
347.8667866384
 20
140.2496710402
 30
0.0
 10
348.1847837173
 20
140.0660996583
 30
0.0
  0
ENDSEC
  0
SECTION
  2
OBJECTS
  0
DICTIONARY
  5
C
100
AcDbDictionary
280
0
281
1
  3
ACAD_GROUP
350
D
  3
ACAD_MLINESTYLE
350
17
  3
ACAD_LAYOUT
350
1A
  3
ACAD_PLOTSETTINGS
350
19
  3
ACAD_PLOTSTYLENAME
350
E
  0
DICTIONARY
  5
D
102
{ACAD_REACTORS
330
C
102
}
100
AcDbDictionary
280
0
281
1
  0
ACDBDICTIONARYWDFLT
  5
E
102
{ACAD_REACTORS
330
C
102
}
100
AcDbDictionary
281
1
  3
Normal
350
F
100
AcDbDictionaryWithDefault
340
F
  0
DICTIONARY
  5
17
102
{ACAD_REACTORS
330
C
102
}
100
AcDbDictionary
280
0
281
1
  3
Standard
350
18
  0
DICTIONARY
  5
19
102
{ACAD_REACTORS
330
C
102
}
100
AcDbDictionary
281
1
  0
DICTIONARY
  5
1A
102
{ACAD_REACTORS
330
C
102
}
100
AcDbDictionary
281
1
  3
Model
350
4ED
  3
Layout1
350
4EE
  0
ACDBPLACEHOLDER
  5
F
102
{ACAD_REACTORS
330
E
102
}
  0
MLINESTYLE
  5
18
102
{ACAD_REACTORS
330
17
102
}
100
AcDbMlineStyle
  2
STANDARD
 70
0
  3

 62
256
 51
90.0
 52
90.0
 71
2
 49
0.5
 62
256
  6
BYLAYER
 49
-0.5
 62
256
  6
BYLAYER
  0
LAYOUT
  5
4ED
102
{ACAD_REACTORS
330
1A
102
}
100
AcDbPlotSettings
  1

  2
none_device
  4

  6

 40
0.0
 41
0.0
 42
0.0
 43
0.0
 44
210.0
 45
297.0
 46
0.0
 47
0.0
 48
0.0
 49
0.0
140
0.0
141
0.0
142
1.0
143
1.0
 70
1024
 72
1
 73
0
 74
0
  7

 75
0
147
1.0
148
0.0
149
0.0
100
AcDbLayout
  1
Model
 70
0
 71
0
 10
0.0
 20
0.0
 11
210.0
 21
297.0
 12
0.0
 22
0.0
 32
0.0
 14
0.0
 24
0.0
 34
0.0
 15
0.0
 25
0.0
 35
0.0
146
0.0
 13
0.0
 23
0.0
 33
0.0
 16
1.0
 26
0.0
 36
0.0
 17
0.0
 27
1.0
 37
0.0
 76
0
330
210
345
0
346
0
  0
LAYOUT
  5
4EE
102
{ACAD_REACTORS
330
1A
102
}
100
AcDbPlotSettings
  1

  2
none_device
  4

  6

 40
0.0
 41
0.0
 42
0.0
 43
0.0
 44
210.0
 45
297.0
 46
0.0
 47
0.0
 48
0.0
 49
0.0
140
0.0
141
0.0
142
1.0
143
1.0
 70
0
 72
1
 73
0
 74
0
  7

 75
0
147
1.0
148
0.0
149
0.0
100
AcDbLayout
  1
Layout1
 70
0
 71
1
 10
0.0
 20
0.0
 11
210.0
 21
297.0
 12
0.0
 22
0.0
 32
0.0
 14
0.0
 24
0.0
 34
0.0
 15
0.0
 25
0.0
 35
0.0
146
0.0
 13
0.0
 23
0.0
 33
0.0
 16
1.0
 26
0.0
 36
0.0
 17
0.0
 27
1.0
 37
0.0
 76
0
330
211
345
0
346
0
  0
ENDSEC
  0
EOF
