999
DXF file: C:\Users\sesa63760\Dev\_Creo\CAD\MCADID0002311_3D-CAD\drw0001_1.dxf
999
Pro/ENGINEER 2019471 by Parametric Technology Corporation
  0
SECTION
  2
HEADER
  9
$ACADVER
  1
AC1024
  9
$DWGCODEPAGE
  3
ANSI_1252
  9
$EXTMAX
 10
145.2238033638
 20
205.3879504717
 30
0.0
  9
$EXTMIN
 10
0.0
 20
0.0
 30
0.0
  9
$LIMMIN
 10
0.0
 20
0.0
  9
$LIMMAX
 10
145.2238033638
 20
205.3879504717
  9
$VIEWCTR
 10
72.6119016819
 20
102.6939752358
  9
$VIEWSIZE
 40
205.3879504717
  9
$CLAYER
  8
0
  9
$LTSCALE
 40
13.3882515863
  9
$CELTYPE
  6
BYLAYER
  9
$DIMSCALE
 40
1.0
  9
$DIMASZ
 40
1.728854802
  9
$DIMEXO
 40
1.0
  9
$DIMDLI
 40
9.2500647324
  9
$DIMEXE
 40
1.0
  9
$DIMCEN
 40
2.190804805
  9
$DIMLFAC
 40
1.0
  9
$DIMBLK
  1
_FILLED
  9
$DIMALT
 70
0
  9
$DIMALTF
 40
0.0393700787
  9
$DIMTXT
 40
2.4203967227
  9
$DIMTOL
 70
1
  9
$DIMLIM
 70
0
  9
$DIMTFAC
 40
1.0
  9
$DIMTP
 40
0.01
  9
$DIMTM
 40
0.01
  9
$DIMGAP
 40
0.625
  9
$DIMDSEP
 70
46
  9
$AUNITS
 70
0
  9
$PDMODE
 70
3
  9
$PDSIZE
 40
0.3125
  9
$HANDSEED
  5
26A
  9
$TILEMODE
 70
1
  9
$MEASUREMENT
 70
1
  9
$INSUNITS
 70
4
  0
ENDSEC
  0
SECTION
  2
CLASSES
  0
CLASS
  1
ACDBDICTIONARYWDFLT
  2
AcDbDictionaryWithDefault
  3
AutoCAD 2000
 90
0
 91
1
280
0
281
0
  0
CLASS
  1
ACDBPLACEHOLDER
  2
AcDbPlaceHolder
  3
AutoCAD 2000
 90
0
 91
1
280
0
281
0
  0
CLASS
  1
LAYOUT
  2
AcDbLayout
  3
AutoCAD 2000
 90
0
 91
0
280
0
281
0
  0
ENDSEC
  0
SECTION
  2
TABLES
  0
TABLE
  2
VPORT
  5
8
100
AcDbSymbolTable
 70
2
  0
VPORT
  5
1F4
100
AcDbSymbolTableRecord
100
AcDbViewportTableRecord
  2
*ACTIVE
 70
0
 10
0.0
 20
0.0
 11
1.0
 21
1.0
 12
72.6119016819
 22
102.6939752358
 13
0.0
 23
0.0
 14
1.0
 24
1.0
 15
0.0
 25
0.0
 16
0.0
 26
0.0
 36
1.0
 17
0.0
 27
0.0
 37
0.0
 40
205.3879504717
 41
0.7070707071
 42
50.0
 43
0.0
 44
0.0
 50
0.0
 51
0.0
 71
0
 72
100
 73
1
 74
1
 75
0
 76
0
 77
0
 78
0
  0
ENDTAB
  0
TABLE
  2
LTYPE
  5
5
100
AcDbSymbolTable
 70
6
  0
LTYPE
  5
14
100
AcDbSymbolTableRecord
100
AcDbLinetypeTableRecord
  2
BYBLOCK
 70
0
  3

 72
65
 73
0
 40
0.0
  0
LTYPE
  5
15
100
AcDbSymbolTableRecord
100
AcDbLinetypeTableRecord
  2
BYLAYER
 70
0
  3

 72
65
 73
0
 40
0.0
  0
LTYPE
  5
16
100
AcDbSymbolTableRecord
100
AcDbLinetypeTableRecord
  2
CONTINUOUS
 70
64
  3
Solid line
 72
65
 73
0
 40
0.0
  0
LTYPE
  5
1F5
100
AcDbSymbolTableRecord
100
AcDbLinetypeTableRecord
  2
CENTER
 70
64
  3
____ _ ____ _ ____ _ ____ _ ____ _ ____ _ ____
 72
65
 73
4
 40
0.6
 49
0.375
 74
0
 49
-0.075
 74
0
 49
0.075
 74
0
 49
-0.075
 74
0
  0
LTYPE
  5
1F6
100
AcDbSymbolTableRecord
100
AcDbLinetypeTableRecord
  2
HIDDEN
 70
64
  3
- - - - - - - - - - - - - - - - - - - -
 72
65
 73
2
 40
0.2
 49
0.1
 74
0
 49
-0.1
 74
0
  0
LTYPE
  5
1F7
100
AcDbSymbolTableRecord
100
AcDbLinetypeTableRecord
  2
PHANTOM
 70
64
  3
_____ _ _ _____ _ _ _____ _ _ _____
 72
65
 73
6
 40
0.8
 49
0.45
 74
0
 49
-0.05
 74
0
 49
0.1
 74
0
 49
-0.05
 74
0
 49
0.1
 74
0
 49
-0.05
 74
0
  0
LTYPE
  5
1F8
100
AcDbSymbolTableRecord
100
AcDbLinetypeTableRecord
  2
DOT
 70
64
  3
. . . . . . . . . . . . . . . . . . . .
 72
65
 73
2
 40
0.2
 49
0.1
 74
0
 49
-0.1
 74
0
  0
LTYPE
  5
1F9
100
AcDbSymbolTableRecord
100
AcDbLinetypeTableRecord
  2
DASHED
 70
64
  3
- - - - - - - - - - - - - - - - - - - -
 72
65
 73
2
 40
0.2
 49
0.1
 74
0
 49
-0.1
 74
0
  0
ENDTAB
  0
TABLE
  2
LAYER
  5
2
100
AcDbSymbolTable
 70
36
  0
LAYER
  5
10
100
AcDbSymbolTableRecord
100
AcDbLayerTableRecord
  2
0
 70
0
 62
7
  6
CONTINUOUS
370
-3
390
F
  0
LAYER
  5
1FA
100
AcDbSymbolTableRecord
100
AcDbLayerTableRecord
  2
DEFAULT_1
 70
0
 62
7
  6
CENTER
370
-3
390
F
  0
LAYER
  5
1FB
100
AcDbSymbolTableRecord
100
AcDbLayerTableRecord
  2
DEFAULT_2
 70
0
 62
8
  6
HIDDEN
370
-3
390
F
  0
LAYER
  5
1FC
100
AcDbSymbolTableRecord
100
AcDbLayerTableRecord
  2
DEFAULT_3
 70
0
 62
7
  6
PHANTOM
370
-3
390
F
  0
LAYER
  5
1FD
100
AcDbSymbolTableRecord
100
AcDbLayerTableRecord
  2
00_COMPONENTS
 70
0
 62
7
  6
CONTINUOUS
370
-3
390
F
  0
LAYER
  5
1FE
100
AcDbSymbolTableRecord
100
AcDbLayerTableRecord
  2
01_1_DEFAULT_DATUMS
 70
0
 62
7
  6
CONTINUOUS
370
-3
390
F
  0
LAYER
  5
1FF
100
AcDbSymbolTableRecord
100
AcDbLayerTableRecord
  2
01_PLANES
 70
0
 62
7
  6
CONTINUOUS
370
-3
390
F
  0
LAYER
  5
200
100
AcDbSymbolTableRecord
100
AcDbLayerTableRecord
  2
02_COORD_SYS
 70
0
 62
7
  6
CONTINUOUS
370
-3
390
F
  0
LAYER
  5
201
100
AcDbSymbolTableRecord
100
AcDbLayerTableRecord
  2
03_AXES
 70
0
 62
7
  6
CONTINUOUS
370
-3
390
F
  0
LAYER
  5
202
100
AcDbSymbolTableRecord
100
AcDbLayerTableRecord
  2
04_POINTS
 70
0
 62
7
  6
CONTINUOUS
370
-3
390
F
  0
LAYER
  5
203
100
AcDbSymbolTableRecord
100
AcDbLayerTableRecord
  2
05_CURVES
 70
0
 62
7
  6
CONTINUOUS
370
-3
390
F
  0
LAYER
  5
204
100
AcDbSymbolTableRecord
100
AcDbLayerTableRecord
  2
06_SURFS
 70
0
 62
7
  6
CONTINUOUS
370
-3
390
F
  0
LAYER
  5
205
100
AcDbSymbolTableRecord
100
AcDbLayerTableRecord
  2
07_COSMETICS
 70
0
 62
7
  6
CONTINUOUS
370
-3
390
F
  0
LAYER
  5
206
100
AcDbSymbolTableRecord
100
AcDbLayerTableRecord
  2
10_NOTES
 70
0
 62
7
  6
CONTINUOUS
370
-3
390
F
  0
LAYER
  5
207
100
AcDbSymbolTableRecord
100
AcDbLayerTableRecord
  2
11_NOTES_PUB
 70
0
 62
7
  6
CONTINUOUS
370
-3
390
F
  0
LAYER
  5
208
100
AcDbSymbolTableRecord
100
AcDbLayerTableRecord
  2
13_REF_GTOL
 70
0
 62
7
  6
CONTINUOUS
370
-3
390
F
  0
LAYER
  5
209
100
AcDbSymbolTableRecord
100
AcDbLayerTableRecord
  2
16_MISC
 70
0
 62
7
  6
CONTINUOUS
370
-3
390
F
  0
LAYER
  5
20A
100
AcDbSymbolTableRecord
100
AcDbLayerTableRecord
  2
17_NO_PRINT
 70
0
 62
7
  6
CONTINUOUS
370
-3
390
F
  0
LAYER
  5
20B
100
AcDbSymbolTableRecord
100
AcDbLayerTableRecord
  2
18_DATUM_CAMS_JOINTS
 70
0
 62
7
  6
CONTINUOUS
370
-3
390
F
  0
LAYER
  5
20C
100
AcDbSymbolTableRecord
100
AcDbLayerTableRecord
  2
19_DATUM_FUNCTIONAL
 70
0
 62
7
  6
CONTINUOUS
370
-3
390
F
  0
LAYER
  5
20D
100
AcDbSymbolTableRecord
100
AcDbLayerTableRecord
  2
20_DATUM_KINEMATIC_SCHEME
 70
0
 62
7
  6
CONTINUOUS
370
-3
390
F
  0
ENDTAB
  0
TABLE
  2
STYLE
  5
3
100
AcDbSymbolTable
 70
1
  0
STYLE
  5
11
100
AcDbSymbolTableRecord
100
AcDbTextStyleTableRecord
  2
STANDARD
 70
0
 40
0.0
 41
0.8
 50
0.0
 71
0
 42
0.2
  3
txt
  4

  0
STYLE
  5
20E
100
AcDbSymbolTableRecord
100
AcDbTextStyleTableRecord
  2
TEXTSTYLE_1
 70
0
 40
0.0
 41
0.8
 50
0.0
 71
0
 42
0.2
  3
gdt
  4

  0
ENDTAB
  0
TABLE
  2
VIEW
  5
6
100
AcDbSymbolTable
 70
0
  0
ENDTAB
  0
TABLE
  2
UCS
  5
7
100
AcDbSymbolTable
 70
0
  0
ENDTAB
  0
TABLE
  2
APPID
  5
9
100
AcDbSymbolTable
 70
1
  0
APPID
  5
20F
100
AcDbSymbolTableRecord
100
AcDbRegAppTableRecord
  2
ACAD
 70
0
  0
ENDTAB
  0
TABLE
  2
BLOCK_RECORD
  5
1
100
AcDbSymbolTable
 70
0
  0
BLOCK_RECORD
  5
210
100
AcDbSymbolTableRecord
100
AcDbBlockTableRecord
  2
*Model_Space
  0
BLOCK_RECORD
  5
211
100
AcDbSymbolTableRecord
100
AcDbBlockTableRecord
  2
*Paper_Space
  0
BLOCK_RECORD
  5
212
100
AcDbSymbolTableRecord
100
AcDbBlockTableRecord
  2
_FILLED
  0
ENDTAB
  0
TABLE
  2
DIMSTYLE
  5
A
100
AcDbSymbolTable
 70
1
100
AcDbDimStyleTable
 71
0
  0
DIMSTYLE
105
213
100
AcDbSymbolTableRecord
100
AcDbDimStyleTableRecord
  2
STANDARD
 70
0
  3

  4

 40
1.0
 41
1.728854802
 42
1.0
 43
0.38
 44
1.0
 45
0.0
 46
0.0
 47
0.01
 48
0.01
140
2.4203967227
141
0.09
142
0.0
143
25.4
144
1.0
145
0.0
146
1.0
147
0.625
 71
1
 72
0
 73
0
 74
0
 75
0
 76
0
 77
1
 78
8
 79
2
170
0
171
1
172
0
173
0
174
0
175
0
176
0
177
0
178
0
270
2
179
2
271
2
272
2
273
2
274
2
275
0
280
0
281
0
282
0
283
1
284
8
285
0
286
0
287
3
288
0
340
11
278
46
341
212
342
212
343
212
344
212
  0
ENDTAB
  0
ENDSEC
  0
SECTION
  2
BLOCKS
  0
BLOCK
  5
20
100
AcDbEntity
  8
0
100
AcDbBlockBegin
  2
*Model_Space
 70
0
 10
0.0
 20
0.0
 30
0.0
  3
*Model_Space
  1

  0
ENDBLK
  5
21
100
AcDbEntity
  8
0
100
AcDbBlockEnd
  0
BLOCK
  5
1C
100
AcDbEntity
  8
0
100
AcDbBlockBegin
  2
*Paper_Space
 70
0
 10
0.0
 20
0.0
 30
0.0
  3
*Paper_Space
  1

  0
ENDBLK
  5
1D
100
AcDbEntity
  8
0
100
AcDbBlockEnd
  0
BLOCK
  5
214
100
AcDbEntity
  8
0
100
AcDbBlockBegin
  2
_FILLED
 70
64
 10
0.0
 20
0.0
  3
_FILLED
  1

  0
SOLID
  5
215
100
AcDbEntity
  8
0
  6
BYBLOCK
 62
0
100
AcDbTrace
 10
0.0
 20
0.0
 11
-1.0
 21
0.25
 12
-1.0
 22
-0.25
 13
-1.0
 23
-0.25
  0
ENDBLK
  5
216
100
AcDbEntity
  8
0
  6
BYBLOCK
 62
0
100
AcDbBlockEnd
  0
ENDSEC
  0
SECTION
  2
ENTITIES
  0
LINE
  5
217
100
AcDbEntity
  8
0
100
AcDbLine
 62
7
  6
CONTINUOUS
 10
40.4029519839
 20
35.2322523412
 11
52.2509780617
 21
30.9342069616
  0
LWPOLYLINE
  5
218
100
AcDbEntity
  8
0
100
AcDbPolyline
 62
7
  6
CONTINUOUS
 90
4
 70
0
 10
48.5593265764
 20
29.2794931332
 10
35.9491368517
 20
35.7309920029
 10
27.1736257929
 20
44.4489866384
 10
22.9660826317
 20
54.2292065809
  0
LWPOLYLINE
  5
219
100
AcDbEntity
  8
0
100
AcDbPolyline
 62
7
  6
CONTINUOUS
 90
4
 70
0
 10
22.9660826184
 20
54.2292066477
 10
26.8963888854
 20
45.7979481952
 10
35.001644419
 20
38.3506281707
 10
40.4029519839
 20
35.2322523412
  0
LWPOLYLINE
  5
21A
100
AcDbEntity
  8
0
100
AcDbPolyline
 62
7
  6
CONTINUOUS
 90
3
 70
0
 10
30.1391413672
 20
60.991467005
 10
23.6383848092
 20
69.1872725647
 10
23.0220828743
 20
71.6818375698
  0
LINE
  5
21B
100
AcDbEntity
  8
0
100
AcDbLine
 62
7
  6
CONTINUOUS
 10
20.7397183715
 20
79.3114243911
 11
20.7397183715
 21
92.1713374609
  0
LINE
  5
21C
100
AcDbEntity
  8
0
100
AcDbLine
 62
7
  6
CONTINUOUS
 10
20.9897183715
 20
92.3754630652
 11
20.9897183715
 21
93.3960910866
  0
LINE
  5
21D
100
AcDbEntity
  8
0
100
AcDbLine
 62
7
  6
CONTINUOUS
 10
25.7572386771
 20
156.9472710472
 11
23.7511486295
 21
102.7907069098
  0
LWPOLYLINE
  5
21E
100
AcDbEntity
  8
0
100
AcDbPolyline
 62
7
  6
CONTINUOUS
 90
3
 70
0
 10
20.9897183715
 20
93.3960910866
 10
22.7870716193
 20
101.3861853085
 10
23.1708671627
 20
101.9259670903
  0
LINE
  5
21F
100
AcDbEntity
  8
0
100
AcDbLine
 62
7
  6
CONTINUOUS
 10
23.8156436704
 20
104.5318200891
 11
22.2623221736
 21
98.2540983797
  0
LINE
  5
220
100
AcDbEntity
  8
0
100
AcDbLine
 62
7
  6
CONTINUOUS
 10
46.991084069
 20
27.5997862514
 11
46.991084069
 21
17.1758373618
  0
LINE
  5
221
100
AcDbEntity
  8
0
100
AcDbLine
 62
7
  6
CONTINUOUS
 10
50.991084069
 20
27.5441157633
 11
50.991084069
 21
17.1758373618
  0
LINE
  5
222
100
AcDbEntity
  8
0
100
AcDbLine
 62
7
  6
CONTINUOUS
 10
105.5471600062
 20
32.4378495153
 11
105.5471600062
 21
26.2345151905
  0
LINE
  5
223
100
AcDbEntity
  8
0
100
AcDbLine
 62
7
  6
CONTINUOUS
 10
109.5471600062
 20
34.6973366247
 11
109.5471600062
 21
26.2345151905
  0
LINE
  5
224
100
AcDbEntity
  8
0
100
AcDbLine
 62
7
  6
CONTINUOUS
 10
124.2012713163
 20
102.3596111509
 11
124.2448010982
 21
102.3056233783
  0
LWPOLYLINE
  5
225
100
AcDbEntity
  8
0
100
AcDbPolyline
 62
7
  6
CONTINUOUS
 90
3
 70
0
 10
126.6193539276
 20
93.4087013716
 10
126.4064407893
 20
95.5974792597
 10
125.375155169
 20
97.8195221691
  0
LINE
  5
226
100
AcDbEntity
  8
0
100
AcDbLine
 62
7
  6
CONTINUOUS
 10
121.7221980659
 20
156.9472710472
 11
123.7282881135
 21
102.7907069098
  0
LINE
  5
227
100
AcDbEntity
  8
0
100
AcDbLine
 62
7
  6
CONTINUOUS
 10
126.4897183715
 20
92.3754630652
 11
126.4897183715
 21
93.3960910866
  0
LINE
  5
228
100
AcDbEntity
  8
0
100
AcDbLine
 62
7
  6
CONTINUOUS
 10
126.7397183715
 20
79.3114243911
 11
126.7397183715
 21
92.1713374609
  0
LINE
  5
229
100
AcDbEntity
  8
0
100
AcDbLine
 62
7
  6
CONTINUOUS
 10
124.2448010982
 20
102.3056233783
 11
126.4897183715
 21
93.3960910866
  0
LINE
  5
22A
100
AcDbEntity
  8
0
100
AcDbLine
 62
7
  6
CONTINUOUS
 10
123.6637930726
 20
104.5318200891
 11
125.2171145694
 21
98.2540983797
  0
LWPOLYLINE
  5
22B
100
AcDbEntity
  8
0
100
AcDbPolyline
 62
7
  6
CONTINUOUS
 90
4
 70
0
 10
124.6093222734
 20
71.6422884189
 10
124.2572544862
 20
70.0561127786
 10
118.9350384141
 20
62.5029556212
 10
110.4108890448
 20
56.0490003953
  0
LWPOLYLINE
  5
22C
100
AcDbEntity
  8
0
100
AcDbPolyline
 62
7
  6
CONTINUOUS
 90
7
 70
0
 10
109.8034984058
 20
55.789500436
 10
98.0103285052
 20
50.7510179283
 10
83.5690530068
 20
47.8024309647
 10
68.3145454293
 20
47.4225938455
 10
53.5174761827
 20
49.6362574063
 10
40.4140727369
 20
54.2781939793
 10
30.1391413672
 20
60.991467005
  0
LWPOLYLINE
  5
22D
100
AcDbEntity
  8
0
100
AcDbPolyline
 62
7
  6
CONTINUOUS
 90
5
 70
0
 10
107.8977568652
 20
33.4045635411
 10
94.2991474428
 20
27.8119556854
 10
79.0026158454
 20
25.2624258476
 10
63.35213888
 20
25.7620331646
 10
48.5593265764
 20
29.2794931332
  0
ARC
  5
22E
100
AcDbEntity
  8
0
100
AcDbCircle
 62
7
  6
CONTINUOUS
 10
136.7352651199
 20
76.8464614578
 40
115.9955477689
100
AcDbArc
 50
179.9923656954
 51
191.243778298
  0
ARC
  5
22F
100
AcDbEntity
  8
0
100
AcDbCircle
 62
7
  6
CONTINUOUS
 10
10.7441862513
 20
76.8464600189
 40
115.9955331409
100
AcDbArc
 50
348.7562209903
 51
0.0076350163
  0
ARC
  5
230
100
AcDbEntity
  8
0
100
AcDbCircle
 62
7
  6
CONTINUOUS
 10
85.5218972267
 20
99.1605736856
 40
49.7802135922
100
AcDbArc
 50
299.2894533606
 51
299.9985181703
  0
ARC
  5
231
100
AcDbEntity
  8
0
100
AcDbCircle
 62
7
  6
CONTINUOUS
 10
108.8765637268
 20
79.325454187
 40
17.8636743857
100
AcDbArc
 50
352.2414848395
 51
355.7568540848
  0
ARC
  5
232
100
AcDbEntity
  8
0
100
AcDbCircle
 62
7
  6
CONTINUOUS
 10
38.5481706371
 20
79.3173794339
 40
17.8083958197
100
AcDbArc
 50
180.0191593158
 51
187.8600302061
  0
ARC
  5
233
100
AcDbEntity
  8
0
100
AcDbCircle
 62
7
  6
CONTINUOUS
 10
109.0079231814
 20
76.8597008767
 40
17.7317375298
100
AcDbArc
 50
0.0071610889
 51
4.955935524
  0
ARC
  5
234
100
AcDbEntity
  8
0
100
AcDbCircle
 62
7
  6
CONTINUOUS
 10
109.0206618167
 20
92.1694092983
 40
17.7190292645
100
AcDbArc
 50
0.738306752
 51
4.0164424847
  0
ARC
  5
235
100
AcDbEntity
  8
0
100
AcDbCircle
 62
7
  6
CONTINUOUS
 10
109.050987802
 20
79.3111910365
 40
17.6886731295
100
AcDbArc
 50
355.7611250604
 51
0.0007557431
  0
ARC
  5
236
100
AcDbEntity
  8
0
100
AcDbCircle
 62
7
  6
CONTINUOUS
 10
38.4271364847
 20
92.1715435333
 40
17.6873864218
100
AcDbArc
 50
175.9919284853
 51
179.2277117108
  0
ARC
  5
237
100
AcDbEntity
  8
0
100
AcDbCircle
 62
7
  6
CONTINUOUS
 10
38.4159998868
 20
76.8625698573
 40
17.6762237285
100
AcDbArc
 50
177.0039098131
 51
180.0021154967
  0
ARC
  5
238
100
AcDbEntity
  8
0
100
AcDbCircle
 62
7
  6
CONTINUOUS
 10
109.0661867807
 20
92.1705311934
 40
17.673493632
100
AcDbArc
 50
0.0026138404
 51
0.736571721
  0
ARC
  5
239
100
AcDbEntity
  8
0
100
AcDbCircle
 62
7
  6
CONTINUOUS
 10
38.4082662237
 20
92.1721359675
 40
17.668509893
100
AcDbArc
 50
179.2288079014
 51
180.0025894106
  0
ARC
  5
23A
100
AcDbEntity
  8
0
100
AcDbCircle
 62
7
  6
CONTINUOUS
 10
108.8946698664
 20
93.3955173367
 40
17.5950107164
100
AcDbArc
 50
356.7538130098
 51
0.0018683373
  0
ARC
  5
23B
100
AcDbEntity
  8
0
100
AcDbCircle
 62
7
  6
CONTINUOUS
 10
47.576013393
 20
34.4052033974
 40
6.4621456053
100
AcDbArc
 50
240.0297534341
 51
242.6216717165
  0
ARC
  5
23C
100
AcDbEntity
  8
0
100
AcDbCircle
 62
7
  6
CONTINUOUS
 10
47.499758093
 20
33.5210317359
 40
5.9024555838
100
AcDbArc
 50
235.9920650656
 51
240.0517665709
  0
ARC
  5
23D
100
AcDbEntity
  8
0
100
AcDbCircle
 62
7
  6
CONTINUOUS
 10
48.5600702508
 20
18.0645544782
 40
1.9683484695
100
AcDbArc
 50
240.0329466868
 51
243.3471941647
  0
ARC
  5
23E
100
AcDbEntity
  8
0
100
AcDbCircle
 62
7
  6
CONTINUOUS
 10
107.9781847264
 20
27.1232122744
 40
1.9683256618
100
AcDbArc
 50
296.6531659305
 51
299.967465472
  0
ARC
  5
23F
100
AcDbEntity
  8
0
100
AcDbCircle
 62
7
  6
CONTINUOUS
 10
107.9854007494
 20
26.7863104585
 40
1.7901124863
100
AcDbArc
 50
299.9289797073
 51
305.7854291003
  0
ARC
  5
240
100
AcDbEntity
  8
0
100
AcDbCircle
 62
7
  6
CONTINUOUS
 10
48.552810571
 20
17.7275717199
 40
1.7900433739
100
AcDbArc
 50
234.2146687444
 51
240.0713966953
  0
SPLINE
  5
241
100
AcDbEntity
  8
0
100
AcDbSpline
 62
7
  6
CONTINUOUS
 70
0
 71
3
 72
24
 73
20
 74
0
 42
0.0000001
 43
0.0000001
 44
0.0000000001
 40
0.0
 40
0.0
 40
0.0
 40
0.0
 40
0.0616323768
 40
0.1270666627
 40
0.1956605496
 40
0.2666236689
 40
0.3390569516
 40
0.4120002329
 40
0.484471729
 40
0.5555094873
 40
0.6242118687
 40
0.6897811305
 40
0.7515720864
 40
0.8091490743
 40
0.8623539499
 40
0.911384917
 40
0.9568741412
 40
0.9786542487
 40
1.0
 40
1.0
 40
1.0
 40
1.0
 10
111.2165338043
 20
57.6746644015
 30
0.0
 10
109.3785884303
 20
56.6135324792
 30
0.0
 10
105.4482076118
 20
54.6646518448
 30
0.0
 10
99.1164421222
 20
52.3311237305
 30
0.0
 10
92.2791423616
 20
50.536048243
 30
0.0
 10
85.0730852394
 20
49.3151681911
 30
0.0
 10
77.6410425013
 20
48.6925588735
 30
0.0
 10
70.1312343807
 20
48.6805936451
 30
0.0
 10
62.6933790863
 20
49.27953229
 30
0.0
 10
55.4756997238
 20
50.4774391891
 30
0.0
 10
48.6216750403
 20
52.2506058236
 30
0.0
 10
42.2670213716
 20
54.5642433431
 30
0.0
 10
36.5368793842
 20
57.3738119096
 30
0.0
 10
31.5436007202
 20
60.6264267718
 30
0.0
 10
27.3854864606
 20
64.2642498982
 30
0.0
 10
24.1482705795
 20
68.2224368896
 30
0.0
 10
22.2534396254
 20
71.788621158
 30
0.0
 10
21.3012956143
 20
74.6937884832
 30
0.0
 10
21.0074987843
 20
76.1538819968
 30
0.0
 10
20.9070828414
 20
76.8820184636
 30
0.0
  0
SPLINE
  5
242
100
AcDbEntity
  8
0
100
AcDbSpline
 62
7
  6
CONTINUOUS
 70
0
 71
3
 72
9
 73
5
 74
0
 42
0.0000001
 43
0.0000001
 44
0.0000000001
 40
0.0
 40
0.0
 40
0.0
 40
0.0
 40
0.5048773352
 40
1.0
 40
1.0
 40
1.0
 40
1.0
 10
21.8603329562
 20
98.4303280406
 30
0.0
 10
21.5653815551
 20
97.6155032169
 30
0.0
 10
21.086305369
 20
95.9611654747
 30
0.0
 10
20.8424032286
 20
94.2555835586
 30
0.0
 10
20.7830096347
 20
93.4078388598
 30
0.0
  0
SPLINE
  5
243
100
AcDbEntity
  8
0
100
AcDbSpline
 62
7
  6
CONTINUOUS
 70
0
 71
3
 72
9
 73
5
 74
0
 42
0.0000001
 43
0.0000001
 44
0.0000000001
 40
0.0
 40
0.0
 40
0.0
 40
0.0
 40
0.2522505563
 40
1.0
 40
1.0
 40
1.0
 40
1.0
 10
109.5471600062
 20
26.2345151905
 30
0.0
 10
109.5471600062
 20
26.2036159551
 30
0.0
 10
109.5411384965
 20
26.0811648821
 30
0.0
 10
109.510692847
 20
25.9601602595
 30
0.0
 10
109.4763691667
 20
25.8752395532
 30
0.0
  0
SPLINE
  5
244
100
AcDbEntity
  8
0
100
AcDbSpline
 62
7
  6
CONTINUOUS
 70
0
 71
3
 72
9
 73
5
 74
0
 42
0.0000001
 43
0.0000001
 44
0.0000000001
 40
0.0
 40
0.0
 40
0.0
 40
0.0
 40
0.4894311808
 40
1.0
 40
1.0
 40
1.0
 40
1.0
 10
109.4763691667
 20
25.8752395532
 30
0.0
 10
109.4331466723
 20
25.7683021643
 30
0.0
 10
109.3066113697
 20
25.56423846
 30
0.0
 10
109.1296876052
 20
25.4046352596
 30
0.0
 10
109.0321715217
 20
25.3341487375
 30
0.0
  0
SPLINE
  5
245
100
AcDbEntity
  8
0
100
AcDbSpline
 62
7
  6
CONTINUOUS
 70
0
 71
3
 72
15
 73
11
 74
0
 42
0.0000001
 43
0.0000001
 44
0.0000000001
 40
0.0
 40
0.0
 40
0.0
 40
0.0
 40
0.1260973118
 40
0.2610114003
 40
0.3995344511
 40
0.5355683641
 40
0.6636904347
 40
0.7818740166
 40
0.892418796
 40
1.0
 40
1.0
 40
1.0
 40
1.0
 10
108.878534671
 20
25.2349193048
 30
0.0
 10
108.7322214942
 20
25.150445857
 30
0.0
 10
108.4058383116
 20
25.0152389658
 30
0.0
 10
107.8778381783
 20
24.9117922138
 30
0.0
 10
107.3264661365
 20
24.9024260934
 30
0.0
 10
106.7907287597
 20
24.9872054243
 30
0.0
 10
106.3057656901
 20
25.1636307563
 30
0.0
 10
105.9031005536
 20
25.4322529375
 30
0.0
 10
105.6188979445
 20
25.7945735163
 30
0.0
 10
105.5471600062
 20
26.0903757831
 30
0.0
 10
105.5471600062
 20
26.2345151905
 30
0.0
  0
SPLINE
  5
246
100
AcDbEntity
  8
0
100
AcDbSpline
 62
7
  6
CONTINUOUS
 70
0
 71
3
 72
10
 73
6
 74
0
 42
0.0000001
 43
0.0000001
 44
0.0000000001
 40
0.0
 40
0.0
 40
0.0
 40
0.0
 40
0.5094946658
 40
0.7549493948
 40
1.0
 40
1.0
 40
1.0
 40
1.0
 10
47.5060826921
 20
16.2754642763
 30
0.0
 10
47.3584836184
 20
16.3821512321
 30
0.0
 10
47.1617059914
 20
16.5817119899
 30
0.0
 10
47.0162862051
 20
16.9118922557
 30
0.0
 10
46.991084069
 20
17.0882436125
 30
0.0
 10
46.991084069
 20
17.1758373618
 30
0.0
  0
SPLINE
  5
247
100
AcDbEntity
  8
0
100
AcDbSpline
 62
7
  6
CONTINUOUS
 70
0
 71
3
 72
15
 73
11
 74
0
 42
0.0000001
 43
0.0000001
 44
0.0000000001
 40
0.0
 40
0.0
 40
0.0
 40
0.0
 40
0.1075904166
 40
0.2181388947
 40
0.3363544415
 40
0.4644810892
 40
0.600512447
 40
0.739030884
 40
0.8739124893
 40
1.0
 40
1.0
 40
1.0
 40
1.0
 10
50.991084069
 20
17.1758373618
 30
0.0
 10
50.991084069
 20
17.0316861354
 30
0.0
 10
50.9193437855
 20
16.7358597279
 30
0.0
 10
50.6350574563
 20
16.3735361325
 30
0.0
 10
50.2323723042
 20
16.1048444295
 30
0.0
 10
49.7473244461
 20
15.9285128243
 30
0.0
 10
49.2116000389
 20
15.8437184163
 30
0.0
 10
48.6602820445
 20
15.8531441647
 30
0.0
 10
48.1323463232
 20
15.9565679834
 30
0.0
 10
47.8060232042
 20
16.0917690753
 30
0.0
 10
47.6597213229
 20
16.176234595
 30
0.0
  0
SPLINE
  5
248
100
AcDbEntity
  8
0
100
AcDbSpline
 62
7
  6
CONTINUOUS
 70
0
 71
3
 72
11
 73
7
 74
0
 42
0.0000001
 43
0.0000001
 44
0.0000000001
 40
0.0
 40
0.0
 40
0.0
 40
0.0
 40
0.2381174226
 40
0.4955895241
 40
0.7556162772
 40
1.0
 40
1.0
 40
1.0
 40
1.0
 10
44.5531498899
 20
28.4066909166
 30
0.0
 10
45.1503996448
 20
28.0618764106
 30
0.0
 10
46.5117639331
 20
27.5448951523
 30
0.0
 10
48.6965450584
 20
27.257262132
 30
0.0
 10
50.9117942318
 20
27.4253440241
 30
0.0
 10
52.3262061899
 20
27.8589284382
 30
0.0
 10
52.9651955403
 20
28.1633267126
 30
0.0
  0
SPLINE
  5
249
100
AcDbEntity
  8
0
100
AcDbSpline
 62
7
  6
CONTINUOUS
 70
0
 71
3
 72
11
 73
7
 74
0
 42
0.0000001
 43
0.0000001
 44
0.0000000001
 40
0.0
 40
0.0
 40
0.0
 40
0.0
 40
0.2397726919
 40
0.4828851922
 40
0.7352670257
 40
1.0
 40
1.0
 40
1.0
 40
1.0
 10
42.4329682281
 20
31.2957478612
 30
0.0
 10
42.4560749405
 20
31.0328823099
 30
0.0
 10
42.5772542936
 20
30.5075203023
 30
0.0
 10
42.9591687971
 20
29.785606186
 30
0.0
 10
43.5085909442
 20
29.1468831432
 30
0.0
 10
43.9570026559
 20
28.7911594329
 30
0.0
 10
44.1984691645
 20
28.6281314376
 30
0.0
  0
SPLINE
  5
24A
100
AcDbEntity
  8
0
100
AcDbSpline
 62
7
  6
CONTINUOUS
 70
0
 71
3
 72
13
 73
9
 74
0
 42
0.0000001
 43
0.0000001
 44
0.0000000001
 40
0.0
 40
0.0
 40
0.0
 40
0.0
 40
0.1201431121
 40
0.2406580507
 40
0.3622101581
 40
0.4851129664
 40
0.7368366625
 40
1.0
 40
1.0
 40
1.0
 40
1.0
 10
124.5133541112
 20
54.2292065804
 30
0.0
 10
124.2988355638
 20
53.151363285
 30
0.0
 10
123.7216473512
 20
51.0189131378
 30
0.0
 10
122.4420977074
 20
47.9535927965
 30
0.0
 10
120.7834288511
 20
45.0468686548
 30
0.0
 10
118.0898273384
 20
41.3832714703
 30
0.0
 10
113.897177082
 20
37.268207369
 30
0.0
 10
109.9824824488
 20
34.6081732334
 30
0.0
 10
107.8977568652
 20
33.4045635411
 30
0.0
  0
SPLINE
  5
24B
100
AcDbEntity
  8
0
100
AcDbSpline
 62
7
  6
CONTINUOUS
 70
0
 71
3
 72
24
 73
20
 74
0
 42
0.0000001
 43
0.0000001
 44
0.0000000001
 40
0.0
 40
0.0
 40
0.0
 40
0.0
 40
0.1248943572
 40
0.1900176341
 40
0.2564523208
 40
0.3236354815
 40
0.3909157352
 40
0.4576247218
 40
0.5231709416
 40
0.587122027
 40
0.6492752739
 40
0.7097000176
 40
0.7687206092
 40
0.826829261
 40
0.884523988
 40
0.9133757002
 40
0.9422332512
 40
0.9710844665
 40
1.0
 40
1.0
 40
1.0
 40
1.0
 10
42.9049159078
 20
182.4471195852
 30
0.0
 10
46.3752008946
 20
184.4506775969
 30
0.0
 10
52.0661188247
 20
186.8225402914
 30
0.0
 10
60.0561783208
 20
188.8106699325
 30
0.0
 10
66.3729102406
 20
189.7568773987
 30
0.0
 10
72.816178837
 20
190.1277077206
 30
0.0
 10
79.2760886335
 20
189.9214232194
 30
0.0
 10
85.6390987952
 20
189.1393028147
 30
0.0
 10
91.7972822086
 20
187.7869626717
 30
0.0
 10
97.6517164669
 20
185.8705747704
 30
0.0
 10
103.1137699887
 20
183.3924753346
 30
0.0
 10
108.1001236498
 20
180.3471781088
 30
0.0
 10
112.521176949
 20
176.7215929274
 30
0.0
 10
116.263582934
 20
172.5096298794
 30
0.0
 10
118.7003443
 20
168.5244648934
 30
0.0
 10
120.1507707669
 20
165.1119937683
 30
0.0
 10
120.9755843605
 20
162.454731572
 30
0.0
 10
121.5199498772
 20
159.7243464152
 30
0.0
 10
121.6878562053
 20
157.8743666071
 30
0.0
 10
121.7221980659
 20
156.9472710472
 30
0.0
  0
SPLINE
  5
24C
100
AcDbEntity
  8
0
100
AcDbSpline
 62
7
  6
CONTINUOUS
 70
0
 71
3
 72
14
 73
10
 74
0
 42
0.0000001
 43
0.0000001
 44
0.0000000001
 40
0.0
 40
0.0
 40
0.0
 40
0.0
 40
0.1238018121
 40
0.2474411413
 40
0.3710651659
 40
0.4947996483
 40
0.619056045
 40
0.7443373808
 40
1.0
 40
1.0
 40
1.0
 40
1.0
 10
25.7572386771
 20
156.9472710472
 30
0.0
 10
25.8062399533
 20
158.2701133406
 30
0.0
 10
26.1070275808
 20
160.9109511156
 30
0.0
 10
27.1478516117
 20
164.7539692158
 30
0.0
 10
28.7330217532
 20
168.4051470469
 30
0.0
 10
30.8082072697
 20
171.8073596485
 30
0.0
 10
33.3129885925
 20
174.9283358157
 30
0.0
 10
37.1748432553
 20
178.7186674213
 30
0.0
 10
40.5374848761
 20
181.0802908006
 30
0.0
 10
42.9049159078
 20
182.4471195852
 30
0.0
  0
SPLINE
  5
24D
100
AcDbEntity
  8
0
100
AcDbSpline
 62
7
  6
CONTINUOUS
 70
0
 71
3
 72
14
 73
10
 74
0
 42
0.0000001
 43
0.0000001
 44
0.0000000001
 40
0.0
 40
0.0
 40
0.0
 40
0.0
 40
0.1077385995
 40
0.2184586523
 40
0.333483903
 40
0.4538733303
 40
0.5803783494
 40
0.7134987884
 40
1.0
 40
1.0
 40
1.0
 40
1.0
 10
126.5767112723
 20
76.9138904982
 30
0.0
 10
126.4533260392
 20
76.0078205342
 30
0.0
 10
126.0619296065
 20
74.1870937911
 30
0.0
 10
125.0678152543
 20
71.5274639603
 30
0.0
 10
123.6717192096
 20
68.93291743
 30
0.0
 10
121.8862176998
 20
66.4245572152
 30
0.0
 10
119.7268930263
 20
64.0199686042
 30
0.0
 10
116.2894339406
 20
60.9014870879
 30
0.0
 10
113.3224352527
 20
58.8904999121
 30
0.0
 10
111.2165338043
 20
57.6746644015
 30
0.0
  0
SPLINE
  5
24E
100
AcDbEntity
  8
0
100
AcDbSpline
 62
7
  6
CONTINUOUS
 70
0
 71
3
 72
26
 73
22
 74
0
 42
0.0000001
 43
0.0000001
 44
0.0000000001
 40
0.0
 40
0.0
 40
0.0
 40
0.0
 40
0.0636429169
 40
0.1315131268
 40
0.2027916454
 40
0.2764580576
 40
0.3513684708
 40
0.426315846
 40
0.5000916221
 40
0.5715456507
 40
0.6396497158
 40
0.7035679249
 40
0.7627392707
 40
0.8169776926
 40
0.8665893828
 40
0.8899586913
 40
0.9125669543
 40
0.9346263223
 40
0.9563781908
 40
0.9780819578
 40
1.0
 40
1.0
 40
1.0
 40
1.0
 10
110.5094240791
 20
72.7799486644
 30
0.0
 10
108.5248113315
 20
71.6341387998
 30
0.0
 10
104.2557893598
 20
69.5505251462
 30
0.0
 10
97.3540817098
 20
67.1253249977
 30
0.0
 10
89.88782285
 20
65.3437674035
 30
0.0
 10
82.0360069679
 20
64.2488020253
 30
0.0
 10
73.9856277834
 20
63.8661266011
 30
0.0
 10
65.9293891862
 20
64.2049968897
 30
0.0
 10
58.0600051376
 20
65.2572812828
 30
0.0
 10
50.565364736
 20
66.9979384711
 30
0.0
 10
43.6235594885
 20
69.386061668
 30
0.0
 10
37.3985267651
 20
72.3663230107
 30
0.0
 10
32.0359523513
 20
75.8731448977
 30
0.0
 10
27.6633473462
 20
79.8299290193
 30
0.0
 10
24.8801807185
 20
83.5144058616
 30
0.0
 10
23.3014318242
 20
86.5810293592
 30
0.0
 10
22.4487903188
 20
88.8846130031
 30
0.0
 10
21.9106888039
 20
91.2219012267
 30
0.0
 10
21.6918896896
 20
93.5780721212
 30
0.0
 10
21.7936691706
 20
95.9367447525
 30
0.0
 10
22.0728420133
 20
97.4879737173
 30
0.0
 10
22.2623737036
 20
98.2540941304
 30
0.0
  0
SPLINE
  5
24F
100
AcDbEntity
  8
0
100
AcDbSpline
 62
7
  6
CONTINUOUS
 70
0
 71
3
 72
15
 73
11
 74
0
 42
0.0000001
 43
0.0000001
 44
0.0000000001
 40
0.0
 40
0.0
 40
0.0
 40
0.0
 40
0.1490280187
 40
0.2901597064
 40
0.4233529166
 40
0.5490716509
 40
0.6681370916
 40
0.7818052256
 40
0.8917567435
 40
1.0
 40
1.0
 40
1.0
 40
1.0
 10
109.0952046288
 20
81.7614543447
 30
0.0
 10
110.2527151603
 20
82.4297393725
 30
0.0
 10
112.4527712388
 20
83.8276032491
 30
0.0
 10
115.4512933633
 20
86.1671762281
 30
0.0
 10
118.0304115755
 20
88.6727048847
 30
0.0
 10
120.162821675
 20
91.3200132185
 30
0.0
 10
121.8254800407
 20
94.0844371174
 30
0.0
 10
122.9981132963
 20
96.9395127397
 30
0.0
 10
123.664336869
 20
99.854374661
 30
0.0
 10
123.7641895567
 20
101.8205795225
 30
0.0
 10
123.7282296069
 20
102.7907061869
 30
0.0
  0
SPLINE
  5
250
100
AcDbEntity
  8
0
100
AcDbSpline
 62
7
  6
CONTINUOUS
 70
0
 71
3
 72
11
 73
7
 74
0
 42
0.0000001
 43
0.0000001
 44
0.0000000001
 40
0.0
 40
0.0
 40
0.0
 40
0.0
 40
0.2879114309
 40
0.547596525
 40
0.7820943445
 40
1.0
 40
1.0
 40
1.0
 40
1.0
 10
44.3478472014
 20
28.8071440137
 30
0.0
 10
44.0773129262
 20
28.9633335168
 30
0.0
 10
43.5836012917
 20
29.2999276601
 30
0.0
 10
42.9816862467
 20
29.9070450188
 30
0.0
 10
42.578074184
 20
30.575876565
 30
0.0
 10
42.4536646389
 20
31.0602275477
 30
0.0
 10
42.4329677832
 20
31.2957478481
 30
0.0
  0
SPLINE
  5
251
100
AcDbEntity
  8
0
100
AcDbSpline
 62
7
  6
CONTINUOUS
 70
0
 71
3
 72
9
 73
5
 74
0
 42
0.0000001
 43
0.0000001
 44
0.0000000001
 40
0.0
 40
0.0
 40
0.0
 40
0.0
 40
0.476633567
 40
1.0
 40
1.0
 40
1.0
 40
1.0
 10
50.9910116139
 20
17.1758373607
 30
0.0
 10
50.9910159837
 20
17.084245678
 30
0.0
 10
50.9493295357
 20
16.8905890548
 30
0.0
 10
50.8401641022
 20
16.7277315982
 30
0.0
 10
50.773673194
 20
16.6522750196
 30
0.0
  0
SPLINE
  5
252
100
AcDbEntity
  8
0
100
AcDbSpline
 62
7
  6
CONTINUOUS
 70
0
 71
3
 72
12
 73
8
 74
0
 42
0.0000001
 43
0.0000001
 44
0.0000000001
 40
0.0
 40
0.0
 40
0.0
 40
0.0
 40
0.2137705392
 40
0.3392671557
 40
0.4729564989
 40
0.7468582083
 40
1.0
 40
1.0
 40
1.0
 40
1.0
 10
50.773673194
 20
16.6522750196
 30
0.0
 10
50.6188448489
 20
16.4765695359
 30
0.0
 10
50.28987646
 20
16.2725202658
 30
0.0
 10
49.7987425199
 20
16.1088750029
 30
0.0
 10
49.2214553032
 20
16.0058136971
 30
0.0
 10
48.4905453768
 20
16.0197380993
 30
0.0
 10
47.9248862496
 20
16.1808221925
 30
0.0
 10
47.6771026247
 20
16.3053603818
 30
0.0
  0
SPLINE
  5
253
100
AcDbEntity
  8
0
100
AcDbSpline
 62
7
  6
CONTINUOUS
 70
0
 71
3
 72
15
 73
11
 74
0
 42
0.0000001
 43
0.0000001
 44
0.0000000001
 40
0.0
 40
0.0
 40
0.0
 40
0.0
 40
0.1490280187
 40
0.2901597064
 40
0.4233529166
 40
0.5490716509
 40
0.6681370916
 40
0.7818052256
 40
0.8917567435
 40
1.0
 40
1.0
 40
1.0
 40
1.0
 10
107.6763544902
 20
136.7619428932
 30
0.0
 10
108.7874129953
 20
137.4034089912
 30
0.0
 10
110.8991786781
 20
138.7451752274
 30
0.0
 10
113.777367186
 20
140.9908588615
 30
0.0
 10
116.2529828694
 20
143.3958382099
 30
0.0
 10
118.2998172722
 20
145.9369074788
 30
0.0
 10
119.8957515365
 20
148.5903923511
 30
0.0
 10
121.0213258761
 20
151.3308910047
 30
0.0
 10
121.6608132472
 20
154.1287766748
 30
0.0
 10
121.7566587492
 20
156.016075818
 30
0.0
 10
121.7221419072
 20
156.9472703534
 30
0.0
  0
SPLINE
  5
254
100
AcDbEntity
  8
0
100
AcDbSpline
 62
7
  6
CONTINUOUS
 70
0
 71
3
 72
29
 73
25
 74
0
 42
0.0000001
 43
0.0000001
 44
0.0000000001
 40
0.0
 40
0.0
 40
0.0
 40
0.0
 40
0.0603360147
 40
0.0881309667
 40
0.1144008979
 40
0.1393045129
 40
0.1630760546
 40
0.186036224
 40
0.2085719869
 40
0.2311076539
 40
0.2540679954
 40
0.2778397639
 40
0.3027419104
 40
0.3290133841
 40
0.3568080035
 40
0.4171397623
 40
0.4836733288
 40
0.5554626432
 40
0.6310288642
 40
0.7085634985
 40
0.7860986126
 40
0.8616683305
 40
0.9334598576
 40
1.0
 40
1.0
 40
1.0
 40
1.0
 10
99.6673139718
 20
152.8916638516
 30
0.0
 10
101.2768502937
 20
153.8209245334
 30
0.0
 10
103.5309093358
 20
155.3728555493
 30
0.0
 10
106.081047987
 20
157.8135797694
 30
0.0
 10
107.6330063649
 20
159.6950097066
 30
0.0
 10
108.8600929928
 20
161.6590648455
 30
0.0
 10
109.7480817988
 20
163.6884469544
 30
0.0
 10
110.2861873612
 20
165.7630015517
 30
0.0
 10
110.4663179243
 20
167.8610356899
 30
0.0
 10
110.2859815586
 20
169.9590375002
 30
0.0
 10
109.7479359222
 20
172.0336326029
 30
0.0
 10
108.8595880182
 20
174.0628074525
 30
0.0
 10
107.6326769057
 20
176.0270109511
 30
0.0
 10
106.0805180204
 20
177.9081181612
 30
0.0
 10
103.5297742092
 20
180.3491250205
 30
0.0
 10
99.5798381913
 20
183.0690845063
 30
0.0
 10
94.0124750906
 20
185.6608199402
 30
0.0
 10
87.6903959075
 20
187.5829424483
 30
0.0
 10
80.8483256865
 20
188.7650773134
 30
0.0
 10
73.740045635
 20
189.1641026151
 30
0.0
 10
66.6318497405
 20
188.7652028498
 30
0.0
 10
59.7890231238
 20
187.5826975417
 30
0.0
 10
53.4684695554
 20
185.6618201286
 30
0.0
 10
49.5871617168
 20
183.8544082594
 30
0.0
 10
47.8121227712
 20
182.8295951637
 30
0.0
  0
SPLINE
  5
255
100
AcDbEntity
  8
0
100
AcDbSpline
 62
7
  6
CONTINUOUS
 70
0
 71
3
 72
11
 73
7
 74
0
 42
0.0000001
 43
0.0000001
 44
0.0000000001
 40
0.0
 40
0.0
 40
0.0
 40
0.0
 40
0.2895415484
 40
0.5491148847
 40
0.7822587994
 40
1.0
 40
1.0
 40
1.0
 40
1.0
 10
47.5768763946
 20
16.3593490541
 30
0.0
 10
47.489167724
 20
16.4099865331
 30
0.0
 10
47.3300014135
 20
16.5197242891
 30
0.0
 10
47.1396125439
 20
16.7196048988
 30
0.0
 10
47.0191595499
 20
16.9408864603
 30
0.0
 10
46.9911601579
 20
17.0996752191
 30
0.0
 10
46.9911565241
 20
17.175837363
 30
0.0
  0
SPLINE
  5
256
100
AcDbEntity
  8
0
100
AcDbSpline
 62
7
  6
CONTINUOUS
 70
0
 71
3
 72
29
 73
25
 74
0
 42
0.0000001
 43
0.0000001
 44
0.0000000001
 40
0.0
 40
0.0
 40
0.0
 40
0.0
 40
0.0603359965
 40
0.0881309181
 40
0.1144008154
 40
0.139304402
 40
0.1630759269
 40
0.1860360912
 40
0.2085718581
 40
0.2311075361
 40
0.2540678916
 40
0.2778396732
 40
0.3027418307
 40
0.3290133136
 40
0.3568079411
 40
0.4171397137
 40
0.483673293
 40
0.55546262
 40
0.6310288544
 40
0.7085635044
 40
0.7860986345
 40
0.8616683586
 40
0.9334598703
 40
1.0
 40
1.0
 40
1.0
 40
1.0
 10
47.8121227712
 20
182.8295951637
 30
0.0
 10
46.202587276
 20
181.9003349592
 30
0.0
 10
43.9485287479
 20
180.3484073829
 30
0.0
 10
41.3983889086
 20
177.9076891475
 30
0.0
 10
39.8464302693
 20
176.0262637698
 30
0.0
 10
38.6193435055
 20
174.0622121128
 30
0.0
 10
37.7313547708
 20
172.0328321339
 30
0.0
 10
37.1932493132
 20
169.9582785275
 30
0.0
 10
37.0131188235
 20
167.8602445217
 30
0.0
 10
37.1934552168
 20
165.7622422702
 30
0.0
 10
37.7315007991
 20
163.687646416
 30
0.0
 10
38.6198486655
 20
161.6584707745
 30
0.0
 10
39.8467597723
 20
159.6942666336
 30
0.0
 10
41.3989186684
 20
157.8131589682
 30
0.0
 10
43.949662445
 20
155.3721517602
 30
0.0
 10
47.899598454
 20
152.6521921194
 30
0.0
 10
53.4669616035
 20
150.0604569464
 30
0.0
 10
59.7890408426
 20
148.1383352348
 30
0.0
 10
66.6311111466
 20
146.9562017958
 30
0.0
 10
73.7393911462
 20
146.5571781517
 30
0.0
 10
80.847586598
 20
146.9560775878
 30
0.0
 10
87.6904125426
 20
148.1385778636
 30
0.0
 10
94.0109670595
 20
150.0594443849
 30
0.0
 10
97.892275739
 20
151.8668511674
 30
0.0
 10
99.6673139718
 20
152.8916638516
 30
0.0
  0
SPLINE
  5
257
100
AcDbEntity
  8
0
100
AcDbSpline
 62
7
  6
CONTINUOUS
 70
0
 71
3
 72
15
 73
11
 74
0
 42
0.0000001
 43
0.0000001
 44
0.0000000001
 40
0.0
 40
0.0
 40
0.0
 40
0.0
 40
0.1485802194
 40
0.2895097674
 40
0.4227252515
 40
0.5486422196
 40
0.6680022976
 40
0.7819392662
 40
0.8919874231
 40
1.0
 40
1.0
 40
1.0
 40
1.0
 10
111.2165337978
 20
55.2251571539
 30
0.0
 10
112.4118225167
 20
55.9152532982
 30
0.0
 10
114.6867831699
 20
57.3572628228
 30
0.0
 10
117.7970046286
 20
59.7645096748
 30
0.0
 10
120.4871906656
 20
62.3395124219
 30
0.0
 10
122.7303565874
 20
65.0585993686
 30
0.0
 10
124.5039478546
 20
67.8975795098
 30
0.0
 10
125.7877657607
 20
70.8309250637
 30
0.0
 10
126.5653115535
 20
73.8288798139
 30
0.0
 10
126.7397070719
 20
75.8585614857
 30
0.0
 10
126.7396605727
 20
76.8619170704
 30
0.0
  0
SPLINE
  5
258
100
AcDbEntity
  8
0
100
AcDbSpline
 62
7
  6
CONTINUOUS
 70
0
 71
3
 72
11
 73
7
 74
0
 42
0.0000001
 43
0.0000001
 44
0.0000000001
 40
0.0
 40
0.0
 40
0.0
 40
0.0
 40
0.2476154154
 40
0.5086184244
 40
0.7650314499
 40
1.0
 40
1.0
 40
1.0
 40
1.0
 10
52.5247469329
 20
28.2925250633
 30
0.0
 10
51.8957882981
 20
28.0607126599
 30
0.0
 10
50.5449415779
 20
27.7382370215
 30
0.0
 10
48.465078062
 20
27.644721305
 30
0.0
 10
46.4365747274
 20
27.9255022711
 30
0.0
 10
45.169091782
 20
28.3742839078
 30
0.0
 10
44.6043056406
 20
28.6668866705
 30
0.0
  0
SPLINE
  5
259
100
AcDbEntity
  8
0
100
AcDbSpline
 62
7
  6
CONTINUOUS
 70
0
 71
3
 72
13
 73
9
 74
0
 42
0.0000001
 43
0.0000001
 44
0.0000000001
 40
0.0
 40
0.0
 40
0.0
 40
0.0
 40
0.2851277916
 40
0.4181361625
 40
0.5448582811
 40
0.7808933139
 40
0.8920873839
 40
1.0
 40
1.0
 40
1.0
 40
1.0
 10
109.8784899539
 20
36.7332728077
 30
0.0
 10
111.8107907998
 20
37.8488805619
 30
0.0
 10
114.5408351312
 20
39.6855244137
 30
0.0
 10
117.7369069579
 20
42.5161746208
 30
0.0
 10
120.3856075718
 20
45.3557341878
 30
0.0
 10
122.4904963116
 20
48.4577863371
 30
0.0
 10
123.8923279776
 20
51.7412353243
 30
0.0
 10
124.3484511718
 20
53.401000491
 30
0.0
 10
124.513284
 20
54.2292113037
 30
0.0
  0
SPLINE
  5
25A
100
AcDbEntity
  8
0
100
AcDbSpline
 62
7
  6
CONTINUOUS
 70
0
 71
3
 72
25
 73
21
 74
0
 42
0.0000001
 43
0.0000001
 44
0.0000000001
 40
0.0
 40
0.0
 40
0.0
 40
0.0
 40
0.0213318638
 40
0.0428920493
 40
0.0648972248
 40
0.0875416549
 40
0.135316312
 40
0.1872168766
 40
0.243654323
 40
0.3046021184
 40
0.369689891
 40
0.4382872938
 40
0.5095739523
 40
0.5825984427
 40
0.6563302398
 40
0.7297075956
 40
0.8016842691
 40
0.8712771671
 40
0.9376165854
 40
1.0
 40
1.0
 40
1.0
 40
1.0
 10
20.7397761703
 20
76.861917209
 30
0.0
 10
20.7398110145
 20
76.1100517972
 30
0.0
 10
20.8368133849
 20
74.5965303166
 30
0.0
 10
21.2716430105
 20
72.3451187965
 30
0.0
 10
21.9930442973
 20
70.1197178826
 30
0.0
 10
23.3537644629
 20
67.1529631341
 30
0.0
 10
25.79567649
 20
63.55970675
 30
0.0
 10
29.6964984134
 20
59.643245391
 30
0.0
 10
34.5307692213
 20
56.1105297289
 30
0.0
 10
40.1948696492
 20
53.0299646819
 30
0.0
 10
46.5703821462
 20
50.4614749918
 30
0.0
 10
53.5232979937
 20
48.4576646568
 30
0.0
 10
60.9066482684
 20
47.060270473
 30
0.0
 10
68.5635746156
 20
46.298830004
 30
0.0
 10
76.3309164313
 20
46.1895333398
 30
0.0
 10
84.0430075103
 20
46.7347172266
 30
0.0
 10
91.5353090642
 20
47.9227375487
 30
0.0
 10
98.648899355
 20
49.7286185094
 30
0.0
 10
105.2316264405
 20
52.1137575243
 30
0.0
 10
109.3123374527
 20
54.1257754439
 30
0.0
 10
111.2165337978
 20
55.2251571539
 30
0.0
  0
SPLINE
  5
25B
100
AcDbEntity
  8
0
100
AcDbSpline
 62
7
  6
CONTINUOUS
 70
0
 71
3
 72
15
 73
11
 74
0
 42
0.0000001
 43
0.0000001
 44
0.0000000001
 40
0.0
 40
0.0
 40
0.0
 40
0.0
 40
0.1257933486
 40
0.2552571451
 40
0.3864482631
 40
0.5173416314
 40
0.6459258706
 40
0.7703011624
 40
0.8887784834
 40
1.0
 40
1.0
 40
1.0
 40
1.0
 10
52.1791544232
 20
30.8450938847
 30
0.0
 10
54.5820448165
 20
30.199549286
 30
0.0
 10
59.5271030382
 20
29.1365608656
 30
0.0
 10
67.1258976335
 20
28.2244946954
 30
0.0
 10
74.8768228565
 20
27.9845812092
 30
0.0
 10
82.6015281137
 20
28.4225464236
 30
0.0
 10
90.1234871495
 20
29.528238013
 30
0.0
 10
97.2713773924
 20
31.2768181368
 30
0.0
 10
103.8813208209
 20
33.6280415933
 30
0.0
 10
107.9733401111
 20
35.6333405988
 30
0.0
 10
109.8784899539
 20
36.7332728077
 30
0.0
  0
SPLINE
  5
25C
100
AcDbEntity
  8
0
100
AcDbSpline
 62
7
  6
CONTINUOUS
 70
0
 71
3
 72
25
 73
21
 74
0
 42
0.0000001
 43
0.0000001
 44
0.0000000001
 40
0.0
 40
0.0
 40
0.0
 40
0.0
 40
0.0213698118
 40
0.0429063554
 40
0.0648355099
 40
0.0873622634
 40
0.1348204824
 40
0.1863712086
 40
0.2424906715
 40
0.3031940683
 40
0.3681328837
 40
0.4366834376
 40
0.5080207794
 40
0.5811807607
 40
0.6551144299
 40
0.7287381263
 40
0.8009820651
 40
0.870839209
 40
0.9374181291
 40
1.0
 40
1.0
 40
1.0
 40
1.0
 10
23.7511576176
 20
102.7907067989
 30
0.0
 10
23.7247175913
 20
102.0762457437
 30
0.0
 10
23.7642795788
 20
100.636608105
 30
0.0
 10
24.1020797294
 20
98.4883184647
 30
0.0
 10
24.7164381861
 20
96.3617263035
 30
0.0
 10
25.9178114021
 20
93.5242105118
 30
0.0
 10
28.1366268446
 20
90.077408435
 30
0.0
 10
31.7447364918
 20
86.311674243
 30
0.0
 10
36.2590109389
 20
82.9076771307
 30
0.0
 10
41.5805790658
 20
79.9320121119
 30
0.0
 10
47.5961802412
 20
77.4432386718
 30
0.0
 10
54.177212624
 20
75.4930687531
 30
0.0
 10
61.1821609054
 20
74.1227757424
 30
0.0
 10
68.4595882374
 20
73.3618210302
 30
0.0
 10
75.8516612086
 20
73.226664123
 30
0.0
 10
83.1978953208
 20
73.720252434
 30
0.0
 10
90.3387338417
 20
74.8318317943
 30
0.0
 10
97.1199648622
 20
76.537640242
 30
0.0
 10
103.3939806438
 20
78.800509718
 30
0.0
 10
107.2819663946
 20
80.714587011
 30
0.0
 10
109.0952046288
 20
81.7614543447
 30
0.0
  0
SPLINE
  5
25D
100
AcDbEntity
  8
0
100
AcDbSpline
 62
7
  6
CONTINUOUS
 70
0
 71
3
 72
25
 73
21
 74
0
 42
0.0000001
 43
0.0000001
 44
0.0000000001
 40
0.0
 40
0.0
 40
0.0
 40
0.0
 40
0.0213698118
 40
0.0429063554
 40
0.0648355099
 40
0.0873622634
 40
0.1348204824
 40
0.1863712086
 40
0.2424906715
 40
0.3031940683
 40
0.3681328837
 40
0.4366834376
 40
0.5080207794
 40
0.5811807607
 40
0.6551144299
 40
0.7287381263
 40
0.8009820651
 40
0.870839209
 40
0.9374181291
 40
1.0
 40
1.0
 40
1.0
 40
1.0
 10
25.7572473045
 20
156.9472709408
 30
0.0
 10
25.7318683423
 20
156.2614819044
 30
0.0
 10
25.7698426686
 20
154.8796183279
 30
0.0
 10
26.0940865698
 20
152.8175416457
 30
0.0
 10
26.6837902226
 20
150.7762917015
 30
0.0
 10
27.83695116
 20
148.0526481854
 30
0.0
 10
29.9667233751
 20
144.744169637
 30
0.0
 10
33.4300360639
 20
141.1295580301
 30
0.0
 10
37.7631482756
 20
137.8621666411
 30
0.0
 10
42.8711566845
 20
135.0059179611
 30
0.0
 10
48.645345919
 20
132.617021426
 30
0.0
 10
54.962275055
 20
130.7451137277
 30
0.0
 10
61.6861079314
 20
129.4298119117
 30
0.0
 10
68.6714850083
 20
128.6993950541
 30
0.0
 10
75.7669068832
 20
128.5696621254
 30
0.0
 10
82.8183294572
 20
129.0434422562
 30
0.0
 10
89.6725991652
 20
130.1104128528
 30
0.0
 10
96.1816927725
 20
131.7477655442
 30
0.0
 10
102.2039261829
 20
133.9198238616
 30
0.0
 10
105.9358832743
 20
135.7570873664
 30
0.0
 10
107.6763544902
 20
136.7619428932
 30
0.0
  0
SPLINE
  5
25E
100
AcDbEntity
  8
0
100
AcDbSpline
 62
7
  6
CONTINUOUS
 70
0
 71
3
 72
15
 73
11
 74
0
 42
0.0000001
 43
0.0000001
 44
0.0000000001
 40
0.0
 40
0.0
 40
0.0
 40
0.0
 40
0.1485801254
 40
0.289509359
 40
0.4227246153
 40
0.5486415202
 40
0.668001922
 40
0.7819395159
 40
0.8919876913
 40
1.0
 40
1.0
 40
1.0
 40
1.0
 10
111.2165338043
 20
70.5345774713
 30
0.0
 10
112.4118221673
 20
71.2246734102
 30
0.0
 10
114.6867809204
 20
72.6666804686
 30
0.0
 10
117.7969992694
 20
75.0739239254
 30
0.0
 10
120.4871834686
 20
77.6489217927
 30
0.0
 10
122.7303572039
 20
80.3680044658
 30
0.0
 10
124.5039521026
 20
83.2069934942
 30
0.0
 10
125.7877791855
 20
86.1403457269
 30
0.0
 10
126.5653307315
 20
89.1383040208
 30
0.0
 10
126.7397256544
 20
91.1679840303
 30
0.0
 10
126.7396803943
 20
92.1713374603
 30
0.0
  0
SPLINE
  5
25F
100
AcDbEntity
  8
0
100
AcDbSpline
 62
7
  6
CONTINUOUS
 70
0
 71
3
 72
15
 73
11
 74
0
 42
0.0000001
 43
0.0000001
 44
0.0000000001
 40
0.0
 40
0.0
 40
0.0
 40
0.0
 40
0.1107769484
 40
0.220895812
 40
0.3332649826
 40
0.450512659
 40
0.5747191531
 40
0.707283184
 40
0.8490054837
 40
1.0
 40
1.0
 40
1.0
 40
1.0
 10
125.2170869619
 20
98.2540961023
 30
0.0
 10
125.4975413199
 20
97.1208634937
 30
0.0
 10
125.8403860325
 20
94.8000428016
 30
0.0
 10
125.6419253597
 20
91.2704777256
 30
0.0
 10
124.7307019159
 20
87.784580602
 30
0.0
 10
123.1266602321
 20
84.396891212
 30
0.0
 10
120.8598721579
 20
81.1525167978
 30
0.0
 10
117.9662083569
 20
78.0907105984
 30
0.0
 10
114.4867883896
 20
75.249244514
 30
0.0
 10
111.8874912912
 20
73.575571391
 30
0.0
 10
110.5094240791
 20
72.7799486644
 30
0.0
  0
SPLINE
  5
260
100
AcDbEntity
  8
0
100
AcDbSpline
 62
7
  6
CONTINUOUS
 70
0
 71
3
 72
25
 73
21
 74
0
 42
0.0000001
 43
0.0000001
 44
0.0000000001
 40
0.0
 40
0.0
 40
0.0
 40
0.0
 40
0.0213318283
 40
0.0428920031
 40
0.0648971933
 40
0.087541666
 40
0.1353164503
 40
0.1872171315
 40
0.2436546685
 40
0.3046025612
 40
0.3696904617
 40
0.4382880332
 40
0.5095748845
 40
0.5825995513
 40
0.6563314434
 40
0.7297088151
 40
0.8016856016
 40
0.8712780953
 40
0.9376168957
 40
1.0
 40
1.0
 40
1.0
 40
1.0
 10
20.9897561696
 20
93.3960910872
 30
0.0
 10
20.9897899253
 20
92.6477731735
 30
0.0
 10
21.0863319891
 20
91.1413917909
 30
0.0
 10
21.5191090742
 20
88.900600102
 30
0.0
 10
22.2371047844
 20
86.685692826
 30
0.0
 10
23.5914087653
 20
83.7329246796
 30
0.0
 10
26.0218073327
 20
80.1566067199
 30
0.0
 10
29.9042406157
 20
76.2586107432
 30
0.0
 10
34.7157208824
 20
72.7425541287
 30
0.0
 10
40.3531181644
 20
69.676517943
 30
0.0
 10
46.698575033
 20
67.1201432899
 30
0.0
 10
53.6187153521
 20
65.1257865824
 30
0.0
 10
60.9672615325
 20
63.7349884913
 30
0.0
 10
68.5880904934
 20
62.9771486884
 30
0.0
 10
76.3188071595
 20
62.86837846
 30
0.0
 10
83.9945300823
 20
63.4110060503
 30
0.0
 10
91.451482346
 20
64.593432046
 30
0.0
 10
98.5314851785
 20
66.3908047994
 30
0.0
 10
105.0831178821
 20
68.7646834974
 30
0.0
 10
109.1445507997
 20
70.7672003692
 30
0.0
 10
111.039756373
 20
71.8613912857
 30
0.0
  0
SPLINE
  5
261
100
AcDbEntity
  8
0
100
AcDbSpline
 62
7
  6
CONTINUOUS
 70
0
 71
3
 72
15
 73
11
 74
0
 42
0.0000001
 43
0.0000001
 44
0.0000000001
 40
0.0
 40
0.0
 40
0.0
 40
0.0
 40
0.1080123087
 40
0.2180604841
 40
0.331998078
 40
0.4513584798
 40
0.5772753847
 40
0.710490641
 40
0.8514198746
 40
1.0
 40
1.0
 40
1.0
 40
1.0
 10
126.4896805734
 20
92.3754630646
 30
0.0
 10
126.48972562
 20
91.3768424338
 30
0.0
 10
126.3161533147
 20
89.3567363866
 30
0.0
 10
125.5422694647
 20
86.3729194054
 30
0.0
 10
124.2644981699
 20
83.4534037398
 30
0.0
 10
122.4992692848
 20
80.6278061691
 30
0.0
 10
120.2666765577
 20
77.9215493577
 30
0.0
 10
117.5891819067
 20
75.3586977067
 30
0.0
 10
114.4936343989
 20
72.9628091719
 30
0.0
 10
112.2294065834
 20
71.5276040336
 30
0.0
 10
111.039756373
 20
70.8407632642
 30
0.0
  0
SPLINE
  5
262
100
AcDbEntity
  8
0
100
AcDbSpline
 62
7
  6
CONTINUOUS
 70
0
 71
3
 72
25
 73
21
 74
0
 42
0.0000001
 43
0.0000001
 44
0.0000000001
 40
0.0
 40
0.0
 40
0.0
 40
0.0
 40
0.0623831043
 40
0.1287219047
 40
0.1983143984
 40
0.2702911849
 40
0.3436685566
 40
0.4174004487
 40
0.4904251155
 40
0.5617119668
 40
0.6303095383
 40
0.6953974388
 40
0.7563453315
 40
0.8127828685
 40
0.8646835497
 40
0.912458334
 40
0.9351028067
 40
0.9571079969
 40
0.9786681717
 40
1.0
 40
1.0
 40
1.0
 40
1.0
 10
111.039756373
 20
70.8407632642
 30
0.0
 10
109.1445507997
 20
69.7465723478
 30
0.0
 10
105.0831178821
 20
67.744055476
 30
0.0
 10
98.5314851785
 20
65.370176778
 30
0.0
 10
91.451482346
 20
63.5728040246
 30
0.0
 10
83.9945300823
 20
62.3903780289
 30
0.0
 10
76.3188071595
 20
61.8477504386
 30
0.0
 10
68.5880904934
 20
61.956520667
 30
0.0
 10
60.9672615325
 20
62.7143604699
 30
0.0
 10
53.6187153521
 20
64.105158561
 30
0.0
 10
46.698575033
 20
66.0995152685
 30
0.0
 10
40.3531181644
 20
68.6558899216
 30
0.0
 10
34.7157208824
 20
71.7219261073
 30
0.0
 10
29.9042406157
 20
75.2379827218
 30
0.0
 10
26.0218073327
 20
79.1359786985
 30
0.0
 10
23.5914087653
 20
82.7122966582
 30
0.0
 10
22.2371047844
 20
85.6650648046
 30
0.0
 10
21.5191090742
 20
87.8799720806
 30
0.0
 10
21.0863319891
 20
90.1207637695
 30
0.0
 10
20.9897899253
 20
91.6271451521
 30
0.0
 10
20.9897561696
 20
92.3754630658
 30
0.0
  0
SPLINE
  5
263
100
AcDbEntity
  8
0
100
AcDbSpline
 62
7
  6
CONTINUOUS
 70
0
 71
3
 72
9
 73
5
 74
0
 42
0.0000001
 43
0.0000001
 44
0.0000000001
 40
0.0
 40
0.0
 40
0.0
 40
0.0
 40
0.746571437
 40
1.0
 40
1.0
 40
1.0
 40
1.0
 10
109.5470875506
 20
26.2345151916
 30
0.0
 10
109.5470851781
 20
26.1847104133
 30
0.0
 10
109.5395087194
 20
26.1176859141
 30
0.0
 10
109.5225416316
 20
26.0531497453
 30
0.0
 10
109.517674163
 20
26.036959024
 30
0.0
  0
SPLINE
  5
264
100
AcDbEntity
  8
0
100
AcDbSpline
 62
7
  6
CONTINUOUS
 70
0
 71
3
 72
9
 73
5
 74
0
 42
0.0000001
 43
0.0000001
 44
0.0000000001
 40
0.0
 40
0.0
 40
0.0
 40
0.0
 40
0.4571733815
 40
1.0
 40
1.0
 40
1.0
 40
1.0
 10
109.517674163
 20
26.036959024
 30
0.0
 10
109.4805185983
 20
25.9133680067
 30
0.0
 10
109.3246066269
 20
25.6651711143
 30
0.0
 10
109.0940844883
 20
25.4946505099
 30
0.0
 10
108.9613794564
 20
25.4180336814
 30
0.0
  0
SPLINE
  5
265
100
AcDbEntity
  8
0
100
AcDbSpline
 62
7
  6
CONTINUOUS
 70
0
 71
3
 72
25
 73
21
 74
0
 42
0.0000001
 43
0.0000001
 44
0.0000000001
 40
0.0
 40
0.0
 40
0.0
 40
0.0
 40
0.0213318283
 40
0.0428920031
 40
0.0648971933
 40
0.087541666
 40
0.1353164503
 40
0.1872171315
 40
0.2436546685
 40
0.3046025612
 40
0.3696904617
 40
0.4382880332
 40
0.5095748845
 40
0.5825995513
 40
0.6563314434
 40
0.7297088151
 40
0.8016856016
 40
0.8712780953
 40
0.9376168957
 40
1.0
 40
1.0
 40
1.0
 40
1.0
 10
20.7397563487
 20
92.1713374615
 30
0.0
 10
20.7397902645
 20
91.4194730174
 30
0.0
 10
20.8367898735
 20
89.9059523865
 30
0.0
 10
21.2716180349
 20
87.6545408318
 30
0.0
 10
21.9930165684
 20
85.4291363649
 30
0.0
 10
23.3537390516
 20
82.4623740567
 30
0.0
 10
25.7956560955
 20
78.8691067228
 30
0.0
 10
29.6964895363
 20
74.9526368315
 30
0.0
 10
34.530773027
 20
71.4199164416
 30
0.0
 10
40.1948878317
 20
68.3393492788
 30
0.0
 10
46.5704179556
 20
65.7708591059
 30
0.0
 10
53.5233551482
 20
63.7670504709
 30
0.0
 10
60.9067285617
 20
62.3696609197
 30
0.0
 10
68.5636751954
 20
61.6082294589
 30
0.0
 10
76.3310303291
 20
61.4989437319
 30
0.0
 10
84.0431310857
 20
62.0441430169
 30
0.0
 10
91.5354243554
 20
63.2321729272
 30
0.0
 10
98.6489817037
 20
65.0380640349
 30
0.0
 10
105.2316647992
 20
67.4231933429
 30
0.0
 10
109.312346214
 20
69.4352008159
 30
0.0
 10
111.2165338043
 20
70.5345774713
 30
0.0
  0
SPLINE
  5
266
100
AcDbEntity
  8
0
100
AcDbSpline
 62
7
  6
CONTINUOUS
 70
0
 71
3
 72
16
 73
12
 74
0
 42
0.0000001
 43
0.0000001
 44
0.0000000001
 40
0.0
 40
0.0
 40
0.0
 40
0.0
 40
0.1320932946
 40
0.2753231427
 40
0.4225778767
 40
0.5659236427
 40
0.6981088284
 40
0.8140318375
 40
0.9126586214
 40
0.9571656556
 40
1.0
 40
1.0
 40
1.0
 40
1.0
 10
108.8611531775
 20
25.3640441115
 30
0.0
 10
108.7088899905
 20
25.287514117
 30
0.0
 10
108.3720297348
 20
25.1657586586
 30
0.0
 10
107.8318581484
 20
25.0761989953
 30
0.0
 10
107.2696588535
 20
25.0755814249
 30
0.0
 10
106.7288234804
 20
25.1641500914
 30
0.0
 10
106.250211475
 20
25.3356780369
 30
0.0
 10
105.8688400914
 20
25.5777722471
 30
0.0
 10
105.6484201905
 20
25.8403667117
 30
0.0
 10
105.561432522
 20
26.0661026937
 30
0.0
 10
105.5472298293
 20
26.1792544714
 30
0.0
 10
105.5472324617
 20
26.2345151893
 30
0.0
  0
SPLINE
  5
267
100
AcDbEntity
  8
0
100
AcDbSpline
 62
7
  6
CONTINUOUS
 70
0
 71
3
 72
15
 73
11
 74
0
 42
0.0000001
 43
0.0000001
 44
0.0000000001
 40
0.0
 40
0.0
 40
0.0
 40
0.0
 40
0.1478426141
 40
0.2884096851
 40
0.4216098968
 40
0.5477907855
 40
0.667584388
 40
0.7819516557
 40
0.8922155374
 40
1.0
 40
1.0
 40
1.0
 40
1.0
 10
111.039756373
 20
71.8613912857
 30
0.0
 10
112.1810480382
 20
72.5203124026
 30
0.0
 10
114.3577795466
 20
73.895000821
 30
0.0
 10
117.3476667444
 20
76.1807632008
 30
0.0
 10
119.955435577
 20
78.6213546918
 30
0.0
 10
122.1570999724
 20
81.1959739635
 30
0.0
 10
123.9328129129
 20
83.8833705312
 30
0.0
 10
125.2642703643
 20
86.6616248653
 30
0.0
 10
126.1367163873
 20
89.5050693496
 30
0.0
 10
126.4070442166
 20
91.43994231
 30
0.0
 10
126.461448354
 20
92.3991761914
 30
0.0
  0
ENDSEC
  0
SECTION
  2
OBJECTS
  0
DICTIONARY
  5
C
100
AcDbDictionary
280
0
281
1
  3
ACAD_GROUP
350
D
  3
ACAD_MLINESTYLE
350
17
  3
ACAD_LAYOUT
350
1A
  3
ACAD_PLOTSETTINGS
350
19
  3
ACAD_PLOTSTYLENAME
350
E
  0
DICTIONARY
  5
D
102
{ACAD_REACTORS
330
C
102
}
100
AcDbDictionary
280
0
281
1
  0
ACDBDICTIONARYWDFLT
  5
E
102
{ACAD_REACTORS
330
C
102
}
100
AcDbDictionary
281
1
  3
Normal
350
F
100
AcDbDictionaryWithDefault
340
F
  0
DICTIONARY
  5
17
102
{ACAD_REACTORS
330
C
102
}
100
AcDbDictionary
280
0
281
1
  3
Standard
350
18
  0
DICTIONARY
  5
19
102
{ACAD_REACTORS
330
C
102
}
100
AcDbDictionary
281
1
  0
DICTIONARY
  5
1A
102
{ACAD_REACTORS
330
C
102
}
100
AcDbDictionary
281
1
  3
Model
350
268
  3
Layout1
350
269
  0
ACDBPLACEHOLDER
  5
F
102
{ACAD_REACTORS
330
E
102
}
  0
MLINESTYLE
  5
18
102
{ACAD_REACTORS
330
17
102
}
100
AcDbMlineStyle
  2
STANDARD
 70
0
  3

 62
256
 51
90.0
 52
90.0
 71
2
 49
0.5
 62
256
  6
BYLAYER
 49
-0.5
 62
256
  6
BYLAYER
  0
LAYOUT
  5
268
102
{ACAD_REACTORS
330
1A
102
}
100
AcDbPlotSettings
  1

  2
none_device
  4

  6

 40
0.0
 41
0.0
 42
0.0
 43
0.0
 44
210.0
 45
297.0
 46
0.0
 47
0.0
 48
0.0
 49
0.0
140
0.0
141
0.0
142
1.0
143
1.0
 70
1024
 72
1
 73
0
 74
0
  7

 75
0
147
1.0
148
0.0
149
0.0
100
AcDbLayout
  1
Model
 70
0
 71
0
 10
0.0
 20
0.0
 11
210.0
 21
297.0
 12
0.0
 22
0.0
 32
0.0
 14
0.0
 24
0.0
 34
0.0
 15
0.0
 25
0.0
 35
0.0
146
0.0
 13
0.0
 23
0.0
 33
0.0
 16
1.0
 26
0.0
 36
0.0
 17
0.0
 27
1.0
 37
0.0
 76
0
330
210
345
0
346
0
  0
LAYOUT
  5
269
102
{ACAD_REACTORS
330
1A
102
}
100
AcDbPlotSettings
  1

  2
none_device
  4

  6

 40
0.0
 41
0.0
 42
0.0
 43
0.0
 44
210.0
 45
297.0
 46
0.0
 47
0.0
 48
0.0
 49
0.0
140
0.0
141
0.0
142
1.0
143
1.0
 70
0
 72
1
 73
0
 74
0
  7

 75
0
147
1.0
148
0.0
149
0.0
100
AcDbLayout
  1
Layout1
 70
0
 71
1
 10
0.0
 20
0.0
 11
210.0
 21
297.0
 12
0.0
 22
0.0
 32
0.0
 14
0.0
 24
0.0
 34
0.0
 15
0.0
 25
0.0
 35
0.0
146
0.0
 13
0.0
 23
0.0
 33
0.0
 16
1.0
 26
0.0
 36
0.0
 17
0.0
 27
1.0
 37
0.0
 76
0
330
211
345
0
346
0
  0
ENDSEC
  0
EOF
