999
DXF file: C:\Users\sesa63760\Dev\_Creo\CAD\MCADID0003720_3D-CAD\drw0001_1.dxf
999
Pro/ENGINEER 2019471 by Parametric Technology Corporation
  0
SECTION
  2
HEADER
  9
$ACADVER
  1
AC1024
  9
$DWGCODEPAGE
  3
ANSI_1252
  9
$EXTMAX
 10
248.8904165405
 20
352.0021605358
 30
0.0
  9
$EXTMIN
 10
0.0
 20
0.0
 30
0.0
  9
$LIMMIN
 10
0.0
 20
0.0
  9
$LIMMAX
 10
248.8904165405
 20
352.0021605358
  9
$VIEWCTR
 10
124.4452082702
 20
176.0010802679
  9
$VIEWSIZE
 40
352.0021605358
  9
$CLAYER
  8
0
  9
$LTSCALE
 40
22.9453260201
  9
$CELTYPE
  6
BYLAYER
  9
$DIMSCALE
 40
1.0
  9
$DIMASZ
 40
2.9629811493
  9
$DIMEXO
 40
1.0
  9
$DIMDLI
 40
15.8531343412
  9
$DIMEXE
 40
1.0
  9
$DIMCEN
 40
3.7546897124
  9
$DIMLFAC
 40
1.0
  9
$DIMBLK
  1
_FILLED
  9
$DIMALT
 70
0
  9
$DIMALTF
 40
0.0393700787
  9
$DIMTXT
 40
4.148173609
  9
$DIMTOL
 70
1
  9
$DIMLIM
 70
0
  9
$DIMTFAC
 40
1.0
  9
$DIMTP
 40
0.01
  9
$DIMTM
 40
0.01
  9
$DIMGAP
 40
0.625
  9
$DIMDSEP
 70
46
  9
$AUNITS
 70
0
  9
$PDMODE
 70
3
  9
$PDSIZE
 40
0.3125
  9
$HANDSEED
  5
393
  9
$TILEMODE
 70
1
  9
$MEASUREMENT
 70
1
  9
$INSUNITS
 70
4
  0
ENDSEC
  0
SECTION
  2
CLASSES
  0
CLASS
  1
ACDBDICTIONARYWDFLT
  2
AcDbDictionaryWithDefault
  3
AutoCAD 2000
 90
0
 91
1
280
0
281
0
  0
CLASS
  1
ACDBPLACEHOLDER
  2
AcDbPlaceHolder
  3
AutoCAD 2000
 90
0
 91
1
280
0
281
0
  0
CLASS
  1
LAYOUT
  2
AcDbLayout
  3
AutoCAD 2000
 90
0
 91
0
280
0
281
0
  0
ENDSEC
  0
SECTION
  2
TABLES
  0
TABLE
  2
VPORT
  5
8
100
AcDbSymbolTable
 70
2
  0
VPORT
  5
1F4
100
AcDbSymbolTableRecord
100
AcDbViewportTableRecord
  2
*ACTIVE
 70
0
 10
0.0
 20
0.0
 11
1.0
 21
1.0
 12
124.4452082702
 22
176.0010802679
 13
0.0
 23
0.0
 14
1.0
 24
1.0
 15
0.0
 25
0.0
 16
0.0
 26
0.0
 36
1.0
 17
0.0
 27
0.0
 37
0.0
 40
352.0021605358
 41
0.7070707071
 42
50.0
 43
0.0
 44
0.0
 50
0.0
 51
0.0
 71
0
 72
100
 73
1
 74
1
 75
0
 76
0
 77
0
 78
0
  0
ENDTAB
  0
TABLE
  2
LTYPE
  5
5
100
AcDbSymbolTable
 70
6
  0
LTYPE
  5
14
100
AcDbSymbolTableRecord
100
AcDbLinetypeTableRecord
  2
BYBLOCK
 70
0
  3

 72
65
 73
0
 40
0.0
  0
LTYPE
  5
15
100
AcDbSymbolTableRecord
100
AcDbLinetypeTableRecord
  2
BYLAYER
 70
0
  3

 72
65
 73
0
 40
0.0
  0
LTYPE
  5
16
100
AcDbSymbolTableRecord
100
AcDbLinetypeTableRecord
  2
CONTINUOUS
 70
64
  3
Solid line
 72
65
 73
0
 40
0.0
  0
LTYPE
  5
1F5
100
AcDbSymbolTableRecord
100
AcDbLinetypeTableRecord
  2
CENTER
 70
64
  3
____ _ ____ _ ____ _ ____ _ ____ _ ____ _ ____
 72
65
 73
4
 40
0.6
 49
0.375
 74
0
 49
-0.075
 74
0
 49
0.075
 74
0
 49
-0.075
 74
0
  0
LTYPE
  5
1F6
100
AcDbSymbolTableRecord
100
AcDbLinetypeTableRecord
  2
HIDDEN
 70
64
  3
- - - - - - - - - - - - - - - - - - - -
 72
65
 73
2
 40
0.2
 49
0.1
 74
0
 49
-0.1
 74
0
  0
LTYPE
  5
1F7
100
AcDbSymbolTableRecord
100
AcDbLinetypeTableRecord
  2
PHANTOM
 70
64
  3
_____ _ _ _____ _ _ _____ _ _ _____
 72
65
 73
6
 40
0.8
 49
0.45
 74
0
 49
-0.05
 74
0
 49
0.1
 74
0
 49
-0.05
 74
0
 49
0.1
 74
0
 49
-0.05
 74
0
  0
LTYPE
  5
1F8
100
AcDbSymbolTableRecord
100
AcDbLinetypeTableRecord
  2
DOT
 70
64
  3
. . . . . . . . . . . . . . . . . . . .
 72
65
 73
2
 40
0.2
 49
0.1
 74
0
 49
-0.1
 74
0
  0
LTYPE
  5
1F9
100
AcDbSymbolTableRecord
100
AcDbLinetypeTableRecord
  2
DASHED
 70
64
  3
- - - - - - - - - - - - - - - - - - - -
 72
65
 73
2
 40
0.2
 49
0.1
 74
0
 49
-0.1
 74
0
  0
ENDTAB
  0
TABLE
  2
LAYER
  5
2
100
AcDbSymbolTable
 70
36
  0
LAYER
  5
10
100
AcDbSymbolTableRecord
100
AcDbLayerTableRecord
  2
0
 70
0
 62
7
  6
CONTINUOUS
370
-3
390
F
  0
LAYER
  5
1FA
100
AcDbSymbolTableRecord
100
AcDbLayerTableRecord
  2
DEFAULT_1
 70
0
 62
7
  6
CENTER
370
-3
390
F
  0
LAYER
  5
1FB
100
AcDbSymbolTableRecord
100
AcDbLayerTableRecord
  2
DEFAULT_2
 70
0
 62
7
  6
HIDDEN
370
-3
390
F
  0
LAYER
  5
1FC
100
AcDbSymbolTableRecord
100
AcDbLayerTableRecord
  2
DEFAULT_3
 70
0
 62
7
  6
PHANTOM
370
-3
390
F
  0
LAYER
  5
1FD
100
AcDbSymbolTableRecord
100
AcDbLayerTableRecord
  2
00_COMPONENTS
 70
0
 62
7
  6
CONTINUOUS
370
-3
390
F
  0
LAYER
  5
1FE
100
AcDbSymbolTableRecord
100
AcDbLayerTableRecord
  2
01_1_DEFAULT_DATUMS
 70
0
 62
7
  6
CONTINUOUS
370
-3
390
F
  0
LAYER
  5
1FF
100
AcDbSymbolTableRecord
100
AcDbLayerTableRecord
  2
01_PLANES
 70
0
 62
7
  6
CONTINUOUS
370
-3
390
F
  0
LAYER
  5
200
100
AcDbSymbolTableRecord
100
AcDbLayerTableRecord
  2
02_COORD_SYS
 70
0
 62
7
  6
CONTINUOUS
370
-3
390
F
  0
LAYER
  5
201
100
AcDbSymbolTableRecord
100
AcDbLayerTableRecord
  2
03_AXES
 70
0
 62
7
  6
CONTINUOUS
370
-3
390
F
  0
LAYER
  5
202
100
AcDbSymbolTableRecord
100
AcDbLayerTableRecord
  2
04_POINTS
 70
0
 62
7
  6
CONTINUOUS
370
-3
390
F
  0
LAYER
  5
203
100
AcDbSymbolTableRecord
100
AcDbLayerTableRecord
  2
05_CURVES
 70
0
 62
7
  6
CONTINUOUS
370
-3
390
F
  0
LAYER
  5
204
100
AcDbSymbolTableRecord
100
AcDbLayerTableRecord
  2
06_SURFS
 70
0
 62
7
  6
CONTINUOUS
370
-3
390
F
  0
LAYER
  5
205
100
AcDbSymbolTableRecord
100
AcDbLayerTableRecord
  2
07_COSMETICS
 70
0
 62
7
  6
CONTINUOUS
370
-3
390
F
  0
LAYER
  5
206
100
AcDbSymbolTableRecord
100
AcDbLayerTableRecord
  2
10_NOTES
 70
0
 62
7
  6
CONTINUOUS
370
-3
390
F
  0
LAYER
  5
207
100
AcDbSymbolTableRecord
100
AcDbLayerTableRecord
  2
11_NOTES_PUB
 70
0
 62
7
  6
CONTINUOUS
370
-3
390
F
  0
LAYER
  5
208
100
AcDbSymbolTableRecord
100
AcDbLayerTableRecord
  2
13_REF_GTOL
 70
0
 62
7
  6
CONTINUOUS
370
-3
390
F
  0
LAYER
  5
209
100
AcDbSymbolTableRecord
100
AcDbLayerTableRecord
  2
16_MISC
 70
0
 62
7
  6
CONTINUOUS
370
-3
390
F
  0
LAYER
  5
20A
100
AcDbSymbolTableRecord
100
AcDbLayerTableRecord
  2
17_NO_PRINT
 70
0
 62
7
  6
CONTINUOUS
370
-3
390
F
  0
LAYER
  5
20B
100
AcDbSymbolTableRecord
100
AcDbLayerTableRecord
  2
18_DATUM_CAMS_JOINTS
 70
0
 62
7
  6
CONTINUOUS
370
-3
390
F
  0
LAYER
  5
20C
100
AcDbSymbolTableRecord
100
AcDbLayerTableRecord
  2
19_DATUM_FUNCTIONAL
 70
0
 62
7
  6
CONTINUOUS
370
-3
390
F
  0
LAYER
  5
20D
100
AcDbSymbolTableRecord
100
AcDbLayerTableRecord
  2
20_DATUM_KINEMATIC_SCHEME
 70
0
 62
7
  6
CONTINUOUS
370
-3
390
F
  0
LAYER
  5
20E
100
AcDbSymbolTableRecord
100
AcDbLayerTableRecord
  2
_1
 70
0
 62
7
  6
CONTINUOUS
370
-3
390
F
  0
ENDTAB
  0
TABLE
  2
STYLE
  5
3
100
AcDbSymbolTable
 70
1
  0
STYLE
  5
11
100
AcDbSymbolTableRecord
100
AcDbTextStyleTableRecord
  2
STANDARD
 70
0
 40
0.0
 41
1.0
 50
0.0
 71
0
 42
0.2
  3
ARIAL.TTF
  4

  0
STYLE
  5
20F
100
AcDbSymbolTableRecord
100
AcDbTextStyleTableRecord
  2
TEXTSTYLE_1
 70
0
 40
0.0
 41
0.8
 50
0.0
 71
0
 42
0.2
  3
gdt
  4

  0
ENDTAB
  0
TABLE
  2
VIEW
  5
6
100
AcDbSymbolTable
 70
0
  0
ENDTAB
  0
TABLE
  2
UCS
  5
7
100
AcDbSymbolTable
 70
0
  0
ENDTAB
  0
TABLE
  2
APPID
  5
9
100
AcDbSymbolTable
 70
1
  0
APPID
  5
210
100
AcDbSymbolTableRecord
100
AcDbRegAppTableRecord
  2
ACAD
 70
0
  0
ENDTAB
  0
TABLE
  2
BLOCK_RECORD
  5
1
100
AcDbSymbolTable
 70
0
  0
BLOCK_RECORD
  5
211
100
AcDbSymbolTableRecord
100
AcDbBlockTableRecord
  2
*Model_Space
  0
BLOCK_RECORD
  5
212
100
AcDbSymbolTableRecord
100
AcDbBlockTableRecord
  2
*Paper_Space
  0
BLOCK_RECORD
  5
213
100
AcDbSymbolTableRecord
100
AcDbBlockTableRecord
  2
_FILLED
  0
ENDTAB
  0
TABLE
  2
DIMSTYLE
  5
A
100
AcDbSymbolTable
 70
1
100
AcDbDimStyleTable
 71
0
  0
DIMSTYLE
105
214
100
AcDbSymbolTableRecord
100
AcDbDimStyleTableRecord
  2
STANDARD
 70
0
  3

  4

 40
1.0
 41
2.9629811493
 42
1.0
 43
0.38
 44
1.0
 45
0.0
 46
0.0
 47
0.01
 48
0.01
140
4.148173609
141
0.09
142
0.0
143
25.4
144
1.0
145
0.0
146
1.0
147
0.625
 71
1
 72
0
 73
0
 74
0
 75
0
 76
0
 77
1
 78
8
 79
2
170
0
171
1
172
0
173
0
174
0
175
0
176
0
177
0
178
0
270
2
179
2
271
2
272
2
273
2
274
2
275
0
280
0
281
0
282
0
283
1
284
8
285
0
286
0
287
3
288
0
340
11
278
46
341
213
342
213
343
213
344
213
  0
ENDTAB
  0
ENDSEC
  0
SECTION
  2
BLOCKS
  0
BLOCK
  5
20
100
AcDbEntity
  8
0
100
AcDbBlockBegin
  2
*Model_Space
 70
0
 10
0.0
 20
0.0
 30
0.0
  3
*Model_Space
  1

  0
ENDBLK
  5
21
100
AcDbEntity
  8
0
100
AcDbBlockEnd
  0
BLOCK
  5
1C
100
AcDbEntity
  8
0
100
AcDbBlockBegin
  2
*Paper_Space
 70
0
 10
0.0
 20
0.0
 30
0.0
  3
*Paper_Space
  1

  0
ENDBLK
  5
1D
100
AcDbEntity
  8
0
100
AcDbBlockEnd
  0
BLOCK
  5
215
100
AcDbEntity
  8
0
100
AcDbBlockBegin
  2
_FILLED
 70
64
 10
0.0
 20
0.0
  3
_FILLED
  1

  0
SOLID
  5
216
100
AcDbEntity
  8
0
  6
BYBLOCK
 62
0
100
AcDbTrace
 10
0.0
 20
0.0
 11
-1.0
 21
0.25
 12
-1.0
 22
-0.25
 13
-1.0
 23
-0.25
  0
ENDBLK
  5
217
100
AcDbEntity
  8
0
  6
BYBLOCK
 62
0
100
AcDbBlockEnd
  0
ENDSEC
  0
SECTION
  2
ENTITIES
  0
LINE
  5
218
100
AcDbEntity
  8
0
100
AcDbLine
 62
7
  6
BYLAYER
 10
38.6818561663
 20
323.5268559954
 11
40.803167678
 21
324.7515884571
  0
LINE
  5
219
100
AcDbEntity
  8
0
100
AcDbLine
 62
7
  6
BYLAYER
 10
44.1818315435
 20
322.9820889263
 11
46.3031430551
 21
324.2068213879
  0
LINE
  5
21A
100
AcDbEntity
  8
0
100
AcDbLine
 62
7
  6
BYLAYER
 10
47.0102649995
 20
323.7985735788
 11
47.7173507296
 21
324.2068072785
  0
LINE
  5
21B
100
AcDbEntity
  8
_1
100
AcDbLine
 62
7
  6
BYLAYER
 10
41.5153142545
 20
319.1090730305
 11
42.7173907778
 21
319.8030880921
  0
LINE
  5
21C
100
AcDbEntity
  8
0
100
AcDbLine
 62
7
  6
BYLAYER
 10
39.2320634675
 20
316.8582476195
 11
40.2939425344
 21
317.4713201251
  0
LINE
  5
21D
100
AcDbEntity
  8
_1
100
AcDbLine
 62
7
  6
BYLAYER
 10
45.3578502288
 20
307.0335278086
 11
45.6995978384
 21
307.7888523463
  0
LINE
  5
21E
100
AcDbEntity
  8
0
100
AcDbLine
 62
7
  6
BYLAYER
 10
56.066713497
 20
293.4155869248
 11
57.4809211715
 21
294.2320752326
  0
LINE
  5
21F
100
AcDbEntity
  8
0
100
AcDbLine
 62
7
  6
BYLAYER
 10
62.5666843973
 20
292.7717712976
 11
62.7788155485
 21
292.8942445438
  0
LINE
  5
220
100
AcDbEntity
  8
0
100
AcDbLine
 62
7
  6
BYLAYER
 10
58.5832617815
 20
288.0223065612
 11
59.0311063319
 21
288.2808681895
  0
LINE
  5
221
100
AcDbEntity
  8
0
100
AcDbLine
 62
7
  6
BYLAYER
 10
56.202696871
 20
285.8314066656
 11
58.3240083826
 21
287.0561391273
  0
LINE
  5
222
100
AcDbEntity
  8
_1
100
AcDbLine
 62
7
  6
BYLAYER
 10
47.6913123218
 20
305.6863333186
 11
47.3495647122
 21
304.9310087809
  0
LINE
  5
223
100
AcDbEntity
  8
_1
100
AcDbLine
 62
7
  6
BYLAYER
 10
45.3578502288
 20
258.0433827808
 11
45.6995978384
 21
258.7987073185
  0
LINE
  5
224
100
AcDbEntity
  8
_1
100
AcDbLine
 62
7
  6
BYLAYER
 10
47.6913123218
 20
256.6961882909
 11
47.3495647122
 21
255.9408637531
  0
LINE
  5
225
100
AcDbEntity
  8
0
100
AcDbLine
 62
7
  6
BYLAYER
 10
92.4774240047
 20
275.7481328539
 11
92.2652928535
 21
275.6256596078
  0
LINE
  5
226
100
AcDbEntity
  8
0
100
AcDbLine
 62
7
  6
BYLAYER
 10
36.4036245669
 20
133.9616643663
 11
36.4036245669
 21
318.4912106376
  0
LINE
  5
227
100
AcDbEntity
  8
0
100
AcDbLine
 62
7
  6
BYLAYER
 10
39.2320634675
 20
132.3287013482
 11
39.2320634675
 21
316.8582476195
  0
LINE
  5
228
100
AcDbEntity
  8
_1
100
AcDbLine
 62
7
  6
BYLAYER
 10
39.4441946186
 20
314.5312136143
 11
39.4441946186
 21
134.9006818458
  0
LINE
  5
229
100
AcDbEntity
  8
0
100
AcDbLine
 62
7
  6
BYLAYER
 10
110.9421498928
 20
268.7415222416
 11
107.0530787882
 21
266.4961793953
  0
LINE
  5
22A
100
AcDbEntity
  8
0
100
AcDbLine
 62
7
  6
BYLAYER
 10
106.3535710127
 20
264.4710222073
 11
107.0606929571
 21
264.8792768153
  0
LINE
  5
22B
100
AcDbEntity
  8
0
100
AcDbLine
 62
7
  6
BYLAYER
 10
107.6947797413
 20
264.5131949216
 11
108.3599393585
 21
264.8972227132
  0
LINE
  5
22C
100
AcDbEntity
  8
0
100
AcDbLine
 62
7
  6
BYLAYER
 10
108.4777611392
 20
264.1836019457
 11
107.6645917264
 21
263.7141211687
  0
LINE
  5
22D
100
AcDbEntity
  8
0
100
AcDbLine
 62
7
  6
BYLAYER
 10
101.4577192804
 20
259.7039983763
 11
101.6698504316
 21
259.8264716225
  0
LINE
  5
22E
100
AcDbEntity
  8
0
100
AcDbLine
 62
7
  6
BYLAYER
 10
109.9162961147
 20
262.4141284437
 11
110.6234180591
 21
262.8223830517
  0
LINE
  5
22F
100
AcDbEntity
  8
0
100
AcDbLine
 62
7
  6
BYLAYER
 10
111.2525708946
 20
262.4591497102
 11
112.0657403074
 21
262.9286304872
  0
LINE
  5
230
100
AcDbEntity
  8
0
100
AcDbLine
 62
7
  6
BYLAYER
 10
112.0657403074
 20
262.11212807
 11
111.2525708946
 21
261.6426472931
  0
LINE
  5
231
100
AcDbEntity
  8
0
100
AcDbLine
 62
7
  6
BYLAYER
 10
114.4421342238
 20
262.6793353685
 11
110.5530631191
 21
260.4339925223
  0
LINE
  5
232
100
AcDbEntity
  8
0
100
AcDbLine
 62
7
  6
BYLAYER
 10
203.9886294267
 20
28.2270789566
 11
44.1818315435
 21
120.4894894781
  0
LINE
  5
233
100
AcDbEntity
  8
0
100
AcDbLine
 62
7
  6
BYLAYER
 10
203.9886294267
 20
31.4930886251
 11
44.1818315435
 21
123.7554991467
  0
LINE
  5
234
100
AcDbEntity
  8
_1
100
AcDbLine
 62
7
  6
BYLAYER
 10
46.5152918701
 20
122.6532501293
 11
202.0794314024
 21
32.8402841348
  0
LINE
  5
235
100
AcDbEntity
  8
0
100
AcDbLine
 62
7
  6
BYLAYER
 10
53.3742579704
 20
287.4643696837
 11
53.3742579704
 21
145.3929491032
  0
LINE
  5
236
100
AcDbEntity
  8
_1
100
AcDbLine
 62
7
  6
BYLAYER
 10
53.5863891216
 20
290.0363501813
 11
53.5863891216
 21
289.505084692
  0
LINE
  5
237
100
AcDbEntity
  8
0
100
AcDbLine
 62
7
  6
BYLAYER
 10
56.202696871
 20
285.8314066656
 11
56.202696871
 21
143.7599860851
  0
LINE
  5
238
100
AcDbEntity
  8
0
100
AcDbLine
 62
7
  6
BYLAYER
 10
62.5666843973
 20
129.4712878717
 11
185.6037765729
 21
58.4373965852
  0
LINE
  5
239
100
AcDbEntity
  8
_1
100
AcDbLine
 62
7
  6
BYLAYER
 10
187.4771128248
 20
57.6007943164
 11
187.9372368995
 21
57.3351475678
  0
LINE
  5
23A
100
AcDbEntity
  8
0
100
AcDbLine
 62
7
  6
BYLAYER
 10
62.5666843973
 20
132.7372975402
 11
185.6037765729
 21
61.7034062537
  0
LINE
  5
23B
100
AcDbEntity
  8
0
100
AcDbLine
 62
7
  6
BYLAYER
 10
58.3240083826
 20
287.0561391273
 11
58.3240083826
 21
144.9847185467
  0
LINE
  5
23C
100
AcDbEntity
  8
0
100
AcDbLine
 62
7
  6
BYLAYER
 10
59.0311063319
 20
288.2808681895
 11
59.0311063319
 21
146.209447609
  0
LINE
  5
23D
100
AcDbEntity
  8
0
100
AcDbLine
 62
7
  6
BYLAYER
 10
60.788447981
 20
148.6588921361
 11
60.788447981
 21
289.9815303066
  0
LINE
  5
23E
100
AcDbEntity
  8
_1
100
AcDbLine
 62
7
  6
BYLAYER
 10
45.3578502288
 20
135.5680202113
 11
45.6995978384
 21
136.3233447491
  0
LINE
  5
23F
100
AcDbEntity
  8
0
100
AcDbLine
 62
7
  6
BYLAYER
 10
134.1525890488
 20
255.341272101
 11
130.2635179441
 21
253.0959292547
  0
LINE
  5
240
100
AcDbEntity
  8
0
100
AcDbLine
 62
7
  6
BYLAYER
 10
110.9421498928
 20
241.7969424763
 11
107.0530787882
 21
239.55159963
  0
LINE
  5
241
100
AcDbEntity
  8
0
100
AcDbLine
 62
7
  6
BYLAYER
 10
101.966455608
 20
236.319145582
 11
101.4577192804
 21
236.0254282796
  0
LINE
  5
242
100
AcDbEntity
  8
0
100
AcDbLine
 62
7
  6
BYLAYER
 10
129.5640101686
 20
251.0707720668
 11
130.271132113
 21
251.4790266748
  0
LINE
  5
243
100
AcDbEntity
  8
0
100
AcDbLine
 62
7
  6
BYLAYER
 10
106.3535710127
 20
237.526442442
 11
107.0606929571
 21
237.93469705
  0
LINE
  5
244
100
AcDbEntity
  8
0
100
AcDbLine
 62
7
  6
BYLAYER
 10
130.9052188973
 20
251.1129447811
 11
131.5703785144
 21
251.4969725727
  0
LINE
  5
245
100
AcDbEntity
  8
0
100
AcDbLine
 62
7
  6
BYLAYER
 10
107.6947797413
 20
237.5686151563
 11
108.3599393585
 21
237.952642948
  0
LINE
  5
246
100
AcDbEntity
  8
0
100
AcDbLine
 62
7
  6
BYLAYER
 10
131.6882002951
 20
250.7833518052
 11
130.8750308823
 21
250.3138710282
  0
LINE
  5
247
100
AcDbEntity
  8
0
100
AcDbLine
 62
7
  6
BYLAYER
 10
108.4777611392
 20
237.2390221804
 11
107.6645917264
 21
236.7695414034
  0
LINE
  5
248
100
AcDbEntity
  8
0
100
AcDbLine
 62
7
  6
BYLAYER
 10
133.1267352706
 20
249.0138783032
 11
133.833857215
 21
249.4221329112
  0
LINE
  5
249
100
AcDbEntity
  8
0
100
AcDbLine
 62
7
  6
BYLAYER
 10
109.9162961147
 20
235.4695486785
 11
110.6234180591
 21
235.8778032864
  0
LINE
  5
24A
100
AcDbEntity
  8
0
100
AcDbLine
 62
7
  6
BYLAYER
 10
134.4630100505
 20
249.0588995697
 11
135.2761794633
 21
249.5283803467
  0
LINE
  5
24B
100
AcDbEntity
  8
0
100
AcDbLine
 62
7
  6
BYLAYER
 10
111.2525708946
 20
235.514569945
 11
112.0657403074
 21
235.9840507219
  0
LINE
  5
24C
100
AcDbEntity
  8
0
100
AcDbLine
 62
7
  6
BYLAYER
 10
135.2761794633
 20
248.7118779295
 11
134.4630100505
 21
248.2423971526
  0
LINE
  5
24D
100
AcDbEntity
  8
0
100
AcDbLine
 62
7
  6
BYLAYER
 10
112.0657403074
 20
235.1675483048
 11
111.2525708946
 21
234.6980675278
  0
LINE
  5
24E
100
AcDbEntity
  8
0
100
AcDbLine
 62
7
  6
BYLAYER
 10
137.6525733797
 20
249.279085228
 11
133.763502275
 21
247.0337423817
  0
LINE
  5
24F
100
AcDbEntity
  8
0
100
AcDbLine
 62
7
  6
BYLAYER
 10
114.4421342238
 20
235.7347556033
 11
110.5530631191
 21
233.489412757
  0
LINE
  5
250
100
AcDbEntity
  8
0
100
AcDbLine
 62
7
  6
BYLAYER
 10
64.687995909
 20
133.9620300019
 11
187.7250880845
 21
62.9281387153
  0
LINE
  5
251
100
AcDbEntity
  8
0
100
AcDbLine
 62
7
  6
BYLAYER
 10
66.1022035834
 20
133.9620158925
 11
189.139295759
 21
62.9281246059
  0
LINE
  5
252
100
AcDbEntity
  8
0
100
AcDbLine
 62
7
  6
BYLAYER
 10
191.4906949264
 20
63.59972392
 11
69.1021526823
 21
134.2591831998
  0
LINE
  5
253
100
AcDbEntity
  8
_1
100
AcDbLine
 62
7
  6
BYLAYER
 10
47.6913123218
 20
134.2208257214
 11
47.3495647122
 21
133.4655011837
  0
LINE
  5
254
100
AcDbEntity
  8
0
100
AcDbLine
 62
7
  6
BYLAYER
 10
106.4074873564
 20
227.452226078
 11
106.916225473
 21
227.7459444133
  0
LINE
  5
255
100
AcDbEntity
  8
0
100
AcDbLine
 62
7
  6
BYLAYER
 10
149.4051972164
 20
239.5278073282
 11
150.8194048909
 21
240.3442956359
  0
LINE
  5
256
100
AcDbEntity
  8
0
100
AcDbLine
 62
7
  6
BYLAYER
 10
134.1525890488
 20
228.3966923358
 11
130.2635179441
 21
226.1513494895
  0
LINE
  5
257
100
AcDbEntity
  8
0
100
AcDbLine
 62
7
  6
BYLAYER
 10
129.5640101686
 20
224.1261923015
 11
130.271132113
 21
224.5344469095
  0
LINE
  5
258
100
AcDbEntity
  8
0
100
AcDbLine
 62
7
  6
BYLAYER
 10
155.9051681167
 20
238.883991701
 11
156.1172992679
 21
239.0064649471
  0
LINE
  5
259
100
AcDbEntity
  8
0
100
AcDbLine
 62
7
  6
BYLAYER
 10
130.9052188973
 20
224.1683650158
 11
131.5703785144
 21
224.5523928074
  0
LINE
  5
25A
100
AcDbEntity
  8
0
100
AcDbLine
 62
7
  6
BYLAYER
 10
131.6882002951
 20
223.8387720399
 11
130.8750308823
 21
223.3692912629
  0
LINE
  5
25B
100
AcDbEntity
  8
0
100
AcDbLine
 62
7
  6
BYLAYER
 10
151.9217455009
 20
234.1345269645
 11
152.3695900513
 21
234.3930885928
  0
LINE
  5
25C
100
AcDbEntity
  8
0
100
AcDbLine
 62
7
  6
BYLAYER
 10
149.5411805904
 20
231.943627069
 11
151.662492102
 21
233.1683595306
  0
LINE
  5
25D
100
AcDbEntity
  8
0
100
AcDbLine
 62
7
  6
BYLAYER
 10
133.1267352706
 20
222.0692985379
 11
133.833857215
 21
222.4775531459
  0
LINE
  5
25E
100
AcDbEntity
  8
0
100
AcDbLine
 62
7
  6
BYLAYER
 10
134.4630100505
 20
222.1143198044
 11
135.2761794633
 21
222.5838005814
  0
LINE
  5
25F
100
AcDbEntity
  8
0
100
AcDbLine
 62
7
  6
BYLAYER
 10
135.2761794633
 20
221.7672981643
 11
134.4630100505
 21
221.2978173873
  0
LINE
  5
260
100
AcDbEntity
  8
0
100
AcDbLine
 62
7
  6
BYLAYER
 10
137.6525733797
 20
222.3345054628
 11
133.763502275
 21
220.0891626165
  0
LINE
  5
261
100
AcDbEntity
  8
0
100
AcDbLine
 62
7
  6
BYLAYER
 10
98.6292803798
 20
237.6583912977
 11
98.6292803798
 21
261.3369613944
  0
LINE
  5
262
100
AcDbEntity
  8
0
100
AcDbLine
 62
7
  6
BYLAYER
 10
101.4577192804
 20
236.0254282796
 11
101.4577192804
 21
259.7039983763
  0
LINE
  5
263
100
AcDbEntity
  8
_1
100
AcDbLine
 62
7
  6
BYLAYER
 10
101.6698504316
 20
238.5974087771
 11
101.6698504316
 21
262.2759788739
  0
LINE
  5
264
100
AcDbEntity
  8
0
100
AcDbLine
 62
7
  6
BYLAYER
 10
142.824894751
 20
207.6532851467
 11
141.7629736138
 21
207.040188352
  0
LINE
  5
265
100
AcDbEntity
  8
_1
100
AcDbLine
 62
7
  6
BYLAYER
 10
144.8537532051
 20
207.8921410716
 11
146.0558297284
 21
208.5861561332
  0
LINE
  5
266
100
AcDbEntity
  8
0
100
AcDbLine
 62
7
  6
BYLAYER
 10
152.3695900513
 20
210.7145184961
 11
151.662492102
 21
210.3062777416
  0
LINE
  5
267
100
AcDbEntity
  8
0
100
AcDbLine
 62
7
  6
BYLAYER
 10
151.662492102
 20
209.4897894338
 11
149.5411805904
 21
208.2650569722
  0
LINE
  5
268
100
AcDbEntity
  8
0
100
AcDbLine
 62
7
  6
BYLAYER
 10
147.2629489909
 20
203.2294116143
 11
149.3842605026
 21
204.454144076
  0
LINE
  5
269
100
AcDbEntity
  8
0
100
AcDbLine
 62
7
  6
BYLAYER
 10
185.8159077241
 20
221.8603532573
 11
185.6037765729
 21
221.7378800111
  0
LINE
  5
26A
100
AcDbEntity
  8
0
100
AcDbLine
 62
7
  6
BYLAYER
 10
206.1099409384
 20
231.9444108663
 11
203.9886294267
 21
230.7196784047
  0
LINE
  5
26B
100
AcDbEntity
  8
0
100
AcDbLine
 62
7
  6
BYLAYER
 10
207.5241486128
 20
231.9443967569
 11
206.7451353178
 21
231.4946359061
  0
LINE
  5
26C
100
AcDbEntity
  8
0
100
AcDbLine
 62
7
  6
BYLAYER
 10
59.0311063319
 20
146.209447609
 11
58.3240083826
 21
145.8012068545
  0
LINE
  5
26D
100
AcDbEntity
  8
0
100
AcDbLine
 62
7
  6
BYLAYER
 10
58.3240083826
 20
144.9847185467
 11
56.202696871
 21
143.7599860851
  0
LINE
  5
26E
100
AcDbEntity
  8
0
100
AcDbLine
 62
7
  6
BYLAYER
 10
39.740799795
 20
132.6224186506
 11
39.2320634675
 21
132.3287013482
  0
LINE
  5
26F
100
AcDbEntity
  8
0
100
AcDbLine
 62
7
  6
BYLAYER
 10
44.1818315435
 20
123.7554991467
 11
44.6905696601
 21
124.049217482
  0
LINE
  5
270
100
AcDbEntity
  8
0
100
AcDbLine
 62
7
  6
BYLAYER
 10
62.5666843973
 20
132.7372975402
 11
64.687995909
 21
133.9620300019
  0
LINE
  5
271
100
AcDbEntity
  8
0
100
AcDbLine
 62
7
  6
BYLAYER
 10
213.8162238259
 20
219.2471991416
 11
214.5952458643
 21
219.6969650404
  0
LINE
  5
272
100
AcDbEntity
  8
0
100
AcDbLine
 62
7
  6
BYLAYER
 10
65.3951178533
 20
133.5537821927
 11
66.1022035834
 21
133.9620158925
  0
LINE
  5
273
100
AcDbEntity
  8
0
100
AcDbLine
 62
7
  6
BYLAYER
 10
211.7668364033
 20
217.2475035165
 11
213.888147915
 21
218.4722359782
  0
LINE
  5
274
100
AcDbEntity
  8
0
100
AcDbLine
 62
7
  6
BYLAYER
 10
194.7962029998
 20
205.8162187797
 11
195.008334151
 21
205.9386920258
  0
LINE
  5
275
100
AcDbEntity
  8
0
100
AcDbLine
 62
7
  6
BYLAYER
 10
146.7127416898
 20
209.8980199903
 11
146.7127416898
 21
233.576590087
  0
LINE
  5
276
100
AcDbEntity
  8
_1
100
AcDbLine
 62
7
  6
BYLAYER
 10
146.924872841
 20
236.1485705846
 11
146.924872841
 21
235.6173050953
  0
LINE
  5
277
100
AcDbEntity
  8
0
100
AcDbLine
 62
7
  6
BYLAYER
 10
149.5411805904
 20
208.2650569722
 11
149.5411805904
 21
231.943627069
  0
LINE
  5
278
100
AcDbEntity
  8
0
100
AcDbLine
 62
7
  6
BYLAYER
 10
151.662492102
 20
209.4897894338
 11
151.662492102
 21
233.1683595306
  0
LINE
  5
279
100
AcDbEntity
  8
0
100
AcDbLine
 62
7
  6
BYLAYER
 10
152.3695900513
 20
234.3930885928
 11
152.3695900513
 21
210.7145184961
  0
LINE
  5
27A
100
AcDbEntity
  8
0
100
AcDbLine
 62
7
  6
BYLAYER
 10
154.1269317004
 20
236.0937507099
 11
154.1269317004
 21
213.1639630232
  0
LINE
  5
27B
100
AcDbEntity
  8
0
100
AcDbLine
 62
7
  6
BYLAYER
 10
141.7629736138
 20
203.7741786835
 11
106.4074873564
 21
224.1862164095
  0
LINE
  5
27C
100
AcDbEntity
  8
0
100
AcDbLine
 62
7
  6
BYLAYER
 10
141.7629736138
 20
207.040188352
 11
106.4074873564
 21
227.452226078
  0
LINE
  5
27D
100
AcDbEntity
  8
_1
100
AcDbLine
 62
7
  6
BYLAYER
 10
139.8537755895
 20
208.3873838617
 11
108.740947683
 21
226.3499770606
  0
LINE
  5
27E
100
AcDbEntity
  8
0
100
AcDbLine
 62
7
  6
BYLAYER
 10
134.4630100505
 20
221.2978173873
 11
133.1267352706
 21
222.0692985379
  0
LINE
  5
27F
100
AcDbEntity
  8
0
100
AcDbLine
 62
7
  6
BYLAYER
 10
130.8750308823
 20
223.3692912629
 11
129.5640101686
 21
224.1261923015
  0
LINE
  5
280
100
AcDbEntity
  8
0
100
AcDbLine
 62
7
  6
BYLAYER
 10
111.2525708946
 20
234.6980675278
 11
109.9162961147
 21
235.4695486785
  0
LINE
  5
281
100
AcDbEntity
  8
0
100
AcDbLine
 62
7
  6
BYLAYER
 10
107.6645917264
 20
236.7695414034
 11
106.3535710127
 21
237.526442442
  0
LINE
  5
282
100
AcDbEntity
  8
0
100
AcDbLine
 62
7
  6
BYLAYER
 10
106.3535710127
 20
238.3429448591
 11
107.6947797413
 21
237.5686151563
  0
LINE
  5
283
100
AcDbEntity
  8
0
100
AcDbLine
 62
7
  6
BYLAYER
 10
109.8861080998
 20
236.3034797599
 11
111.2525708946
 21
235.514569945
  0
LINE
  5
284
100
AcDbEntity
  8
0
100
AcDbLine
 62
7
  6
BYLAYER
 10
129.5640101686
 20
224.9426947186
 11
130.9052188973
 21
224.1683650158
  0
LINE
  5
285
100
AcDbEntity
  8
0
100
AcDbLine
 62
7
  6
BYLAYER
 10
133.0965472557
 20
222.9032296193
 11
134.4630100505
 21
222.1143198044
  0
LINE
  5
286
100
AcDbEntity
  8
0
100
AcDbLine
 62
7
  6
BYLAYER
 10
135.2761794633
 20
221.7672981643
 11
134.5690575189
 21
222.1755459734
  0
LINE
  5
287
100
AcDbEntity
  8
0
100
AcDbLine
 62
7
  6
BYLAYER
 10
131.6882002951
 20
223.8387720399
 11
131.0112663657
 21
224.2295911847
  0
LINE
  5
288
100
AcDbEntity
  8
0
100
AcDbLine
 62
7
  6
BYLAYER
 10
112.0657403074
 20
235.1675483048
 11
111.358618363
 21
235.5757961139
  0
LINE
  5
289
100
AcDbEntity
  8
0
100
AcDbLine
 62
7
  6
BYLAYER
 10
108.4777611392
 20
237.2390221804
 11
107.8008272097
 21
237.6298413253
  0
LINE
  5
28A
100
AcDbEntity
  8
_1
100
AcDbLine
 62
7
  6
BYLAYER
 10
200.9034109508
 20
217.2312880526
 11
201.2451585604
 21
217.9866125904
  0
LINE
  5
28B
100
AcDbEntity
  8
_1
100
AcDbLine
 62
7
  6
BYLAYER
 10
203.2368730437
 20
215.8840935627
 11
202.8951254341
 21
215.1287690249
  0
LINE
  5
28C
100
AcDbEntity
  8
0
100
AcDbLine
 62
7
  6
BYLAYER
 10
191.9677640992
 20
207.4491817977
 11
191.9677640992
 21
65.3777612172
  0
LINE
  5
28D
100
AcDbEntity
  8
0
100
AcDbLine
 62
7
  6
BYLAYER
 10
194.7962029998
 20
205.8162187797
 11
194.7962029998
 21
63.7447981991
  0
LINE
  5
28E
100
AcDbEntity
  8
_1
100
AcDbLine
 62
7
  6
BYLAYER
 10
195.008334151
 20
61.4177641939
 11
195.008334151
 21
208.3881992772
  0
LINE
  5
28F
100
AcDbEntity
  8
0
100
AcDbLine
 62
7
  6
BYLAYER
 10
92.2652928535
 20
272.3596499393
 11
62.5666843973
 21
289.5057616291
  0
LINE
  5
290
100
AcDbEntity
  8
0
100
AcDbLine
 62
7
  6
BYLAYER
 10
155.9051681167
 20
235.6179820324
 11
185.6037765729
 21
218.4718703426
  0
LINE
  5
291
100
AcDbEntity
  8
0
100
AcDbLine
 62
7
  6
BYLAYER
 10
134.4630100505
 20
248.2423971526
 11
133.1267352706
 21
249.0138783032
  0
LINE
  5
292
100
AcDbEntity
  8
0
100
AcDbLine
 62
7
  6
BYLAYER
 10
130.8750308823
 20
250.3138710282
 11
129.5640101686
 21
251.0707720668
  0
LINE
  5
293
100
AcDbEntity
  8
0
100
AcDbLine
 62
7
  6
BYLAYER
 10
111.2525708946
 20
261.6426472931
 11
109.9162961147
 21
262.4141284437
  0
LINE
  5
294
100
AcDbEntity
  8
0
100
AcDbLine
 62
7
  6
BYLAYER
 10
107.6645917264
 20
263.7141211687
 11
106.3535710127
 21
264.4710222073
  0
LINE
  5
295
100
AcDbEntity
  8
0
100
AcDbLine
 62
7
  6
BYLAYER
 10
106.3535710127
 20
265.2875246244
 11
107.6947797413
 21
264.5131949216
  0
LINE
  5
296
100
AcDbEntity
  8
0
100
AcDbLine
 62
7
  6
BYLAYER
 10
109.8861080998
 20
263.2480595251
 11
111.2525708946
 21
262.4591497102
  0
LINE
  5
297
100
AcDbEntity
  8
0
100
AcDbLine
 62
7
  6
BYLAYER
 10
129.5640101686
 20
251.8872744839
 11
130.9052188973
 21
251.1129447811
  0
LINE
  5
298
100
AcDbEntity
  8
0
100
AcDbLine
 62
7
  6
BYLAYER
 10
133.0965472557
 20
249.8478093846
 11
134.4630100505
 21
249.0588995697
  0
LINE
  5
299
100
AcDbEntity
  8
0
100
AcDbLine
 62
7
  6
BYLAYER
 10
135.2761794633
 20
248.7118779295
 11
134.5690575189
 21
249.1201257387
  0
LINE
  5
29A
100
AcDbEntity
  8
0
100
AcDbLine
 62
7
  6
BYLAYER
 10
131.6882002951
 20
250.7833518052
 11
131.0112663657
 21
251.17417095
  0
LINE
  5
29B
100
AcDbEntity
  8
0
100
AcDbLine
 62
7
  6
BYLAYER
 10
112.0657403074
 20
262.11212807
 11
111.358618363
 21
262.5203758792
  0
LINE
  5
29C
100
AcDbEntity
  8
0
100
AcDbLine
 62
7
  6
BYLAYER
 10
108.4777611392
 20
264.1836019457
 11
107.8008272097
 21
264.5744210905
  0
LINE
  5
29D
100
AcDbEntity
  8
0
100
AcDbLine
 62
7
  6
BYLAYER
 10
92.2652928535
 20
275.6256596078
 11
62.5666843973
 21
292.7717712976
  0
LINE
  5
29E
100
AcDbEntity
  8
0
100
AcDbLine
 62
7
  6
BYLAYER
 10
155.9051681167
 20
238.883991701
 11
185.6037765729
 21
221.7378800111
  0
LINE
  5
29F
100
AcDbEntity
  8
_1
100
AcDbLine
 62
7
  6
BYLAYER
 10
187.9372368995
 20
220.6356309937
 11
153.9959700924
 21
240.2311872107
  0
LINE
  5
2A0
100
AcDbEntity
  8
_1
100
AcDbLine
 62
7
  6
BYLAYER
 10
94.5987531801
 20
274.5234105904
 11
60.657486373
 21
294.1189668074
  0
LINE
  5
2A1
100
AcDbEntity
  8
0
100
AcDbLine
 62
7
  6
BYLAYER
 10
208.9383975027
 20
34.3509202633
 11
208.9383975027
 21
218.8804665346
  0
LINE
  5
2A2
100
AcDbEntity
  8
_1
100
AcDbLine
 62
7
  6
BYLAYER
 10
200.9034109508
 20
168.2411430248
 11
201.2451585604
 21
168.9964675626
  0
LINE
  5
2A3
100
AcDbEntity
  8
_1
100
AcDbLine
 62
7
  6
BYLAYER
 10
203.2368730437
 20
166.8939485349
 11
202.8951254341
 21
166.1386239971
  0
LINE
  5
2A4
100
AcDbEntity
  8
0
100
AcDbLine
 62
7
  6
BYLAYER
 10
211.7668364033
 20
32.7179572453
 11
211.7668364033
 21
217.2475035165
  0
LINE
  5
2A5
100
AcDbEntity
  8
0
100
AcDbLine
 62
7
  6
BYLAYER
 10
213.888147915
 20
33.9426897069
 11
213.888147915
 21
218.4722359782
  0
LINE
  5
2A6
100
AcDbEntity
  8
0
100
AcDbLine
 62
7
  6
BYLAYER
 10
214.5952458643
 20
219.6969650404
 11
214.5952458643
 21
35.1674187691
  0
LINE
  5
2A7
100
AcDbEntity
  8
0
100
AcDbLine
 62
7
  6
BYLAYER
 10
216.3525875134
 20
222.1464095675
 11
216.3525875134
 21
37.6168632963
  0
LINE
  5
2A8
100
AcDbEntity
  8
0
100
AcDbLine
 62
7
  6
BYLAYER
 10
44.1818315435
 20
319.7160792578
 11
203.9886294267
 21
227.4536687362
  0
LINE
  5
2A9
100
AcDbEntity
  8
0
100
AcDbLine
 62
7
  6
BYLAYER
 10
44.1818315435
 20
322.9820889263
 11
203.9886294267
 21
230.7196784047
  0
LINE
  5
2AA
100
AcDbEntity
  8
0
100
AcDbLine
 62
7
  6
BYLAYER
 10
46.3031430551
 20
324.2068213879
 11
206.1099409384
 21
231.9444108663
  0
LINE
  5
2AB
100
AcDbEntity
  8
0
100
AcDbLine
 62
7
  6
BYLAYER
 10
47.7173507296
 20
324.2068072785
 11
207.5241486128
 21
231.9443967569
  0
LINE
  5
2AC
100
AcDbEntity
  8
0
100
AcDbLine
 62
7
  6
BYLAYER
 10
210.5240977117
 20
232.2415640643
 11
50.7172998285
 21
324.5039745859
  0
LINE
  5
2AD
100
AcDbEntity
  8
_1
100
AcDbLine
 62
7
  6
BYLAYER
 10
200.9034109508
 20
45.7657804554
 11
201.2451585604
 21
46.5211049932
  0
LINE
  5
2AE
100
AcDbEntity
  8
_1
100
AcDbLine
 62
7
  6
BYLAYER
 10
203.2368730437
 20
44.4185859655
 11
202.8951254341
 21
43.6632614277
  0
LINE
  5
2AF
100
AcDbEntity
  8
0
100
AcDbLine
 62
7
  6
BYLAYER
 10
187.7250880845
 20
62.9281387153
 11
185.6037765729
 21
61.7034062537
  0
LINE
  5
2B0
100
AcDbEntity
  8
0
100
AcDbLine
 62
7
  6
BYLAYER
 10
189.139295759
 20
62.9281246059
 11
188.6914578477
 21
62.6695668107
  0
LINE
  5
2B1
100
AcDbEntity
  8
0
100
AcDbLine
 62
7
  6
BYLAYER
 10
195.008334151
 20
63.8672714453
 11
194.7962029998
 21
63.7447981991
  0
LINE
  5
2B2
100
AcDbEntity
  8
0
100
AcDbLine
 62
7
  6
BYLAYER
 10
192.1037474732
 20
57.793580958
 11
193.5179551476
 21
58.6100692657
  0
LINE
  5
2B3
100
AcDbEntity
  8
0
100
AcDbLine
 62
7
  6
BYLAYER
 10
205.0505505639
 20
32.1061854198
 11
203.9886294267
 21
31.4930886251
  0
LINE
  5
2B4
100
AcDbEntity
  8
_1
100
AcDbLine
 62
7
  6
BYLAYER
 10
207.079409018
 20
32.3450413446
 11
208.2814855413
 21
33.0390564062
  0
LINE
  5
2B5
100
AcDbEntity
  8
0
100
AcDbLine
 62
7
  6
BYLAYER
 10
214.5952458643
 20
35.1674187691
 11
213.888147915
 21
34.7591780146
  0
LINE
  5
2B6
100
AcDbEntity
  8
0
100
AcDbLine
 62
7
  6
BYLAYER
 10
213.888147915
 20
33.9426897069
 11
211.7668364033
 21
32.7179572453
  0
LINE
  5
2B7
100
AcDbEntity
  8
0
100
AcDbLine
 62
7
  6
BYLAYER
 10
209.4886048039
 20
27.6823118874
 11
211.6099163155
 21
28.907044349
  0
ARC
  5
2B8
100
AcDbEntity
  8
_1
100
AcDbCircle
 62
7
  6
BYLAYER
 10
196.190740042
 20
216.2027420035
 40
12.9824953433
100
AcDbArc
 50
10.53296984
 51
11.699184683
  0
ARC
  5
2B9
100
AcDbEntity
  8
_1
100
AcDbCircle
 62
7
  6
BYLAYER
 10
195.2960616179
 20
217.7528591347
 40
12.9822418635
100
AcDbArc
 50
48.3012398611
 51
49.4674798639
  0
ARC
  5
2BA
100
AcDbEntity
  8
_1
100
AcDbCircle
 62
7
  6
BYLAYER
 10
196.4815896052
 20
216.2574491733
 40
12.6865461037
100
AcDbArc
 50
10.1010012104
 51
10.5301802728
  0
ARC
  5
2BB
100
AcDbEntity
  8
_1
100
AcDbCircle
 62
7
  6
BYLAYER
 10
195.4888600076
 20
217.9773872565
 40
12.6862964192
100
AcDbArc
 50
49.4702697117
 51
49.8994067691
  0
ARC
  5
2BC
100
AcDbEntity
  8
0
100
AcDbCircle
 62
7
  6
BYLAYER
 10
44.0881360202
 20
318.3742396349
 40
6.8519328191
100
AcDbArc
 50
69.0928482992
 51
72.5409268627
  0
ARC
  5
2BD
100
AcDbEntity
  8
_1
100
AcDbCircle
 62
7
  6
BYLAYER
 10
43.0147639816
 20
313.1798267444
 40
6.4331141439
100
AcDbArc
 50
72.6402045696
 51
73.3150509161
  0
ARC
  5
2BE
100
AcDbEntity
  8
0
100
AcDbCircle
 62
7
  6
BYLAYER
 10
52.5714626274
 20
289.205272499
 40
4.5476103824
100
AcDbArc
 50
51.5247941487
 51
53.4549338553
  0
ARC
  5
2BF
100
AcDbEntity
  8
0
100
AcDbCircle
 62
7
  6
BYLAYER
 10
145.9099463468
 20
235.3174929023
 40
4.5476103824
100
AcDbArc
 50
51.5247941487
 51
53.4549338553
  0
ARC
  5
2C0
100
AcDbEntity
  8
0
100
AcDbCircle
 62
7
  6
BYLAYER
 10
186.7103013601
 20
56.8716211671
 40
4.5474160081
100
AcDbArc
 50
6.5473081733
 51
8.4781147899
  0
ARC
  5
2C1
100
AcDbEntity
  8
_1
100
AcDbCircle
 62
7
  6
BYLAYER
 10
152.045955373
 20
238.3228560257
 40
3.6117796905
100
AcDbArc
 50
131.9356903042
 51
139.9566871784
  0
ARC
  5
2C2
100
AcDbEntity
  8
_1
100
AcDbCircle
 62
7
  6
BYLAYER
 10
58.7074716536
 20
292.2106356224
 40
3.6117796906
100
AcDbArc
 50
131.9356903042
 51
139.9566871784
  0
ARC
  5
2C3
100
AcDbEntity
  8
_1
100
AcDbCircle
 62
7
  6
BYLAYER
 10
58.6004756613
 20
292.3242864771
 40
3.4557322602
100
AcDbArc
 50
131.0041899322
 51
131.8753160363
  0
ARC
  5
2C4
100
AcDbEntity
  8
_1
100
AcDbCircle
 62
7
  6
BYLAYER
 10
151.938959378
 20
238.4365068834
 40
3.4557322562
100
AcDbArc
 50
131.0041899317
 51
131.8753160368
  0
ARC
  5
2C5
100
AcDbEntity
  8
_1
100
AcDbCircle
 62
7
  6
BYLAYER
 10
206.6001434661
 20
35.9494599605
 40
3.3610810591
100
AcDbArc
 50
300.0150552937
 51
307.9183238786
  0
ARC
  5
2C6
100
AcDbEntity
  8
_1
100
AcDbCircle
 62
7
  6
BYLAYER
 10
144.3744876532
 20
211.4965596875
 40
3.3610810591
100
AcDbArc
 50
300.0150552937
 51
307.9183238786
  0
ARC
  5
2C7
100
AcDbEntity
  8
_1
100
AcDbCircle
 62
7
  6
BYLAYER
 10
44.3971838195
 20
316.8918014813
 40
3.3610712961
100
AcDbArc
 50
112.0827320783
 51
119.9846602276
  0
ARC
  5
2C8
100
AcDbEntity
  8
0
100
AcDbCircle
 62
7
  6
BYLAYER
 10
43.688104344
 20
318.4787637915
 40
2.9068856226
100
AcDbArc
 50
144.9144809196
 51
149.0893227463
  0
ARC
  5
2C9
100
AcDbEntity
  8
0
100
AcDbCircle
 62
7
  6
BYLAYER
 10
43.5309292975
 20
318.5891964143
 40
2.7147935642
100
AcDbArc
 50
139.7639181007
 51
144.9149555977
  0
SPLINE
  5
2CA
100
AcDbEntity
  8
0
100
AcDbSpline
 62
7
  6
BYLAYER
 70
0
 71
3
 72
14
 73
10
 74
0
 42
0.0000001
 43
0.0000001
 44
0.0000000001
 40
0.0
 40
0.0
 40
0.0
 40
0.0
 40
0.2892800659
 40
0.4225380549
 40
0.5484954973
 40
0.6678941597
 40
0.7818681198
 40
0.8919521346
 40
1.0
 40
1.0
 40
1.0
 40
1.0
 10
115.1670260963
 20
237.337006399
 30
0.0
 10
115.1670260963
 20
237.1596007776
 30
0.0
 10
115.146313495
 20
236.8991988839
 30
0.0
 10
115.0662602532
 20
236.5718983971
 30
0.0
 10
114.9848089013
 20
236.3538023965
 30
0.0
 10
114.8810054912
 20
236.1586283887
 30
0.0
 10
114.7556301569
 20
235.9883434671
 30
0.0
 10
114.6098432892
 20
235.8448814912
 30
0.0
 10
114.4995185825
 20
235.7678871465
 30
0.0
 10
114.4421323187
 20
235.7347589124
 30
0.0
  0
SPLINE
  5
2CB
100
AcDbEntity
  8
0
100
AcDbSpline
 62
7
  6
BYLAYER
 70
0
 71
3
 72
11
 73
7
 74
0
 42
0.0000001
 43
0.0000001
 44
0.0000000001
 40
0.0
 40
0.0
 40
0.0
 40
0.0
 40
0.2727486584
 40
0.527073745
 40
0.7673064176
 40
1.0
 40
1.0
 40
1.0
 40
1.0
 10
109.9162961147
 20
235.4695486785
 30
0.0
 10
109.903530637
 20
235.4227089377
 30
0.0
 10
109.872232913
 20
235.3337649665
 30
0.0
 10
109.8048531378
 20
235.2140643835
 30
0.0
 10
109.7196205761
 20
235.1154146926
 30
0.0
 10
109.6513044782
 20
235.0648136394
 30
0.0
 10
109.6154375705
 20
235.0440999999
 30
0.0
  0
SPLINE
  5
2CC
100
AcDbEntity
  8
0
100
AcDbSpline
 62
7
  6
BYLAYER
 70
0
 71
3
 72
23
 73
19
 74
0
 42
0.0000001
 43
0.0000001
 44
0.0000000001
 40
0.0
 40
0.0
 40
0.0
 40
0.0
 40
0.0661293061
 40
0.1353844402
 40
0.2070044943
 40
0.2801407969
 40
0.3538785798
 40
0.4272815261
 40
0.4994244734
 40
0.5694331904
 40
0.6365217228
 40
0.7000355535
 40
0.7595008246
 40
0.8146828245
 40
0.8656547676
 40
0.9128707953
 40
0.9572186435
 40
1.0
 40
1.0
 40
1.0
 40
1.0
 10
106.3535710127
 20
237.526442442
 30
0.0
 10
106.3703124441
 20
237.38284514
 30
0.0
 10
106.4203844649
 20
237.0905485283
 30
0.0
 10
106.5384242457
 20
236.6530788058
 30
0.0
 10
106.6991771988
 20
236.213095445
 30
0.0
 10
106.8995851955
 20
235.7789359264
 30
0.0
 10
107.1358924715
 20
235.3587553505
 30
0.0
 10
107.4036337901
 20
234.9604793435
 30
0.0
 10
107.6977688289
 20
234.5916145968
 30
0.0
 10
108.0127655272
 20
234.2591018581
 30
0.0
 10
108.3427330314
 20
233.9691819905
 30
0.0
 10
108.6815534306
 20
233.7272856541
 30
0.0
 10
109.0230297398
 20
233.5379572096
 30
0.0
 10
109.3610408099
 20
233.4048426259
 30
0.0
 10
109.6896133604
 20
233.330740378
 30
0.0
 10
110.0029535246
 20
233.3177897366
 30
0.0
 10
110.2947991151
 20
233.3672743799
 30
0.0
 10
110.4720614886
 20
233.4426570802
 30
0.0
 10
110.5530608952
 20
233.4894166427
 30
0.0
  0
SPLINE
  5
2CD
100
AcDbEntity
  8
0
100
AcDbSpline
 62
7
  6
BYLAYER
 70
0
 71
3
 72
12
 73
8
 74
0
 42
0.0000001
 43
0.0000001
 44
0.0000000001
 40
0.0
 40
0.0
 40
0.0
 40
0.0
 40
0.1124137365
 40
0.2262539809
 40
0.4629532353
 40
0.7191811438
 40
1.0
 40
1.0
 40
1.0
 40
1.0
 10
107.053081012
 20
239.5515957443
 30
0.0
 10
107.0062002062
 20
239.5245322625
 30
0.0
 10
106.9155332063
 20
239.4633582069
 30
0.0
 10
106.7491492555
 20
239.3141055784
 30
0.0
 10
106.5733310026
 20
239.0764474062
 30
0.0
 10
106.4259751522
 20
238.7313978802
 30
0.0
 10
106.371625768
 20
238.4769596505
 30
0.0
 10
106.3535710127
 20
238.3429448591
 30
0.0
  0
SPLINE
  5
2CE
100
AcDbEntity
  8
0
100
AcDbSpline
 62
7
  6
BYLAYER
 70
0
 71
3
 72
23
 73
19
 74
0
 42
0.0000001
 43
0.0000001
 44
0.0000000001
 40
0.0
 40
0.0
 40
0.0
 40
0.0
 40
0.0428145732
 40
0.0873965899
 40
0.1351794337
 40
0.1870886335
 40
0.2435352359
 40
0.3044927244
 40
0.3695906967
 40
0.4381987378
 40
0.5094963857
 40
0.58253212
 40
0.6562753053
 40
0.7296640647
 40
0.8016520722
 40
0.8712561022
 40
0.9376062752
 40
1.0
 40
1.0
 40
1.0
 40
1.0
 10
110.9421517979
 20
241.7969391671
 30
0.0
 10
111.0284433717
 20
241.8467540056
 30
0.0
 10
111.2186499574
 20
241.9258175685
 30
0.0
 10
111.532635081
 20
241.9718317073
 30
0.0
 10
111.8698021799
 20
241.9470132519
 30
0.0
 10
112.2226697216
 20
241.8532596705
 30
0.0
 10
112.5843079715
 20
241.6934324594
 30
0.0
 10
112.9475183186
 20
241.4712232064
 30
0.0
 10
113.3049228874
 20
241.1914181863
 30
0.0
 10
113.649100577
 20
240.859946573
 30
0.0
 10
113.9728082121
 20
240.4838346934
 30
0.0
 10
114.2691783714
 20
240.0710780328
 30
0.0
 10
114.5318975742
 20
239.6304729824
 30
0.0
 10
114.7553622627
 20
239.171416642
 30
0.0
 10
114.9348055358
 20
238.7037032995
 30
0.0
 10
115.0664083465
 20
238.2372463569
 30
0.0
 10
115.1473545158
 20
237.7820220748
 30
0.0
 10
115.1670260963
 20
237.4822091331
 30
0.0
 10
115.1670260963
 20
237.337006399
 30
0.0
  0
SPLINE
  5
2CF
100
AcDbEntity
  8
0
100
AcDbSpline
 62
7
  6
BYLAYER
 70
0
 71
3
 72
17
 73
13
 74
0
 42
0.0000001
 43
0.0000001
 44
0.0000000001
 40
0.0
 40
0.0
 40
0.0
 40
0.0
 40
0.0430983705
 40
0.0875019804
 40
0.1343333447
 40
0.1844121873
 40
0.2957388635
 40
0.4223413014
 40
0.56138207
 40
0.7079854159
 40
0.8562289062
 40
1.0
 40
1.0
 40
1.0
 40
1.0
 10
107.9654508506
 20
237.9019779053
 30
0.0
 10
108.0000311364
 20
237.9219427559
 30
0.0
 10
108.0749456861
 20
237.9548429177
 30
0.0
 10
108.1977136147
 20
237.979812288
 30
0.0
 10
108.3293805222
 20
237.9806667108
 30
0.0
 10
108.5204662133
 20
237.9489072747
 30
0.0
 10
108.7701660492
 20
237.845697564
 30
0.0
 10
109.0578188614
 20
237.6441881401
 30
0.0
 10
109.3289805059
 20
237.3727857621
 30
0.0
 10
109.5676479076
 20
237.0475328709
 30
0.0
 10
109.7596895558
 20
236.6879393146
 30
0.0
 10
109.8516374924
 20
236.4321434385
 30
0.0
 10
109.8861080998
 20
236.3034797599
 30
0.0
  0
SPLINE
  5
2D0
100
AcDbEntity
  8
0
100
AcDbSpline
 62
7
  6
BYLAYER
 70
0
 71
3
 72
9
 73
5
 74
0
 42
0.0000001
 43
0.0000001
 44
0.0000000001
 40
0.0
 40
0.0
 40
0.0
 40
0.0
 40
0.242892792
 40
1.0
 40
1.0
 40
1.0
 40
1.0
 10
112.0657403074
 20
235.1675483048
 30
0.0
 10
112.0700057485
 20
235.1992093376
 30
0.0
 10
112.0851863551
 20
235.3298749048
 30
0.0
 10
112.0911244044
 20
235.4615639621
 30
0.0
 10
112.0911244044
 20
235.5611443296
 30
0.0
  0
SPLINE
  5
2D1
100
AcDbEntity
  8
0
100
AcDbSpline
 62
7
  6
BYLAYER
 70
0
 71
3
 72
9
 73
5
 74
0
 42
0.0000001
 43
0.0000001
 44
0.0000000001
 40
0.0
 40
0.0
 40
0.0
 40
0.0
 40
0.2437922917
 40
1.0
 40
1.0
 40
1.0
 40
1.0
 10
112.0911244044
 20
235.5611443296
 30
0.0
 10
112.0911244044
 20
235.5955843133
 30
0.0
 10
112.0889122486
 20
235.7368476072
 30
0.0
 10
112.0781111342
 20
235.8779416738
 30
0.0
 10
112.0657403074
 20
235.9840507219
 30
0.0
  0
SPLINE
  5
2D2
100
AcDbEntity
  8
0
100
AcDbSpline
 62
7
  6
BYLAYER
 70
0
 71
3
 72
10
 73
6
 74
0
 42
0.0000001
 43
0.0000001
 44
0.0000000001
 40
0.0
 40
0.0
 40
0.0
 40
0.0
 40
0.5193698961
 40
0.7624131913
 40
1.0
 40
1.0
 40
1.0
 40
1.0
 10
107.6947797413
 20
237.5686151563
 30
0.0
 10
107.722120473
 20
237.6390964886
 30
0.0
 10
107.7766391043
 20
237.7385753508
 30
0.0
 10
107.8780938822
 20
237.8438263666
 30
0.0
 10
107.9355013313
 20
237.8846866173
 30
0.0
 10
107.9654508506
 20
237.9019779053
 30
0.0
  0
SPLINE
  5
2D3
100
AcDbEntity
  8
0
100
AcDbSpline
 62
7
  6
BYLAYER
 70
0
 71
3
 72
23
 73
19
 74
0
 42
0.0000001
 43
0.0000001
 44
0.0000000001
 40
0.0
 40
0.0
 40
0.0
 40
0.0
 40
0.0661293061
 40
0.1353844402
 40
0.2070044943
 40
0.2801407969
 40
0.3538785798
 40
0.4272815261
 40
0.4994244734
 40
0.5694331904
 40
0.6365217228
 40
0.7000355535
 40
0.7595008246
 40
0.8146828245
 40
0.8656547676
 40
0.9128707953
 40
0.9572186435
 40
1.0
 40
1.0
 40
1.0
 40
1.0
 10
111.2525708946
 20
235.514569945
 30
0.0
 10
111.2358294632
 20
235.658167247
 30
0.0
 10
111.1857574423
 20
235.9504638586
 30
0.0
 10
111.0677176615
 20
236.3879335812
 30
0.0
 10
110.9069647085
 20
236.827916942
 30
0.0
 10
110.7065567118
 20
237.2620764606
 30
0.0
 10
110.4702494357
 20
237.6822570364
 30
0.0
 10
110.2025081172
 20
238.0805330435
 30
0.0
 10
109.9083730784
 20
238.4493977901
 30
0.0
 10
109.5933763801
 20
238.7819105289
 30
0.0
 10
109.2634088758
 20
239.0718303965
 30
0.0
 10
108.9245884767
 20
239.3137267329
 30
0.0
 10
108.5831121675
 20
239.5030551773
 30
0.0
 10
108.2451010973
 20
239.6361697611
 30
0.0
 10
107.9165285468
 20
239.710272009
 30
0.0
 10
107.6031883827
 20
239.7232226504
 30
0.0
 10
107.3113427921
 20
239.6737380071
 30
0.0
 10
107.1340804186
 20
239.5983553067
 30
0.0
 10
107.053081012
 20
239.5515957443
 30
0.0
  0
SPLINE
  5
2D4
100
AcDbEntity
  8
0
100
AcDbSpline
 62
7
  6
BYLAYER
 70
0
 71
3
 72
12
 73
8
 74
0
 42
0.0000001
 43
0.0000001
 44
0.0000000001
 40
0.0
 40
0.0
 40
0.0
 40
0.0
 40
0.1124137365
 40
0.2262539809
 40
0.4629532353
 40
0.7191811438
 40
1.0
 40
1.0
 40
1.0
 40
1.0
 10
110.5530608952
 20
233.4894166427
 30
0.0
 10
110.599941701
 20
233.5164801245
 30
0.0
 10
110.690608701
 20
233.5776541801
 30
0.0
 10
110.8569926518
 20
233.7269068086
 30
0.0
 10
111.0328109046
 20
233.9645649808
 30
0.0
 10
111.1801667551
 20
234.3096145068
 30
0.0
 10
111.2345161393
 20
234.5640527365
 30
0.0
 10
111.2525708946
 20
234.6980675278
 30
0.0
  0
SPLINE
  5
2D5
100
AcDbEntity
  8
0
100
AcDbSpline
 62
7
  6
BYLAYER
 70
0
 71
3
 72
18
 73
14
 74
0
 42
0.0000001
 43
0.0000001
 44
0.0000000001
 40
0.0
 40
0.0
 40
0.0
 40
0.0
 40
0.0429277252
 40
0.0872642374
 40
0.1342058435
 40
0.1846023926
 40
0.2970983098
 40
0.3594480606
 40
0.4253851391
 40
0.5656691721
 40
0.7125529287
 40
0.8595032956
 40
1.0
 40
1.0
 40
1.0
 40
1.0
 10
109.6154375705
 20
235.0440999999
 30
0.0
 10
109.5793790248
 20
235.0232756868
 30
0.0
 10
109.5009261153
 20
234.9892850252
 30
0.0
 10
109.3721144498
 20
234.964881511
 30
0.0
 10
109.2338699656
 20
234.9667175777
 30
0.0
 10
109.0331311376
 20
235.005053915
 30
0.0
 10
108.8308345255
 20
235.095260986
 30
0.0
 10
108.6354048083
 20
235.2234223843
 30
0.0
 10
108.4325393679
 20
235.3875533963
 30
0.0
 10
108.1969051829
 20
235.6385040818
 30
0.0
 10
107.9585501863
 20
235.9875156289
 30
0.0
 10
107.7741909386
 20
236.3679751396
 30
0.0
 10
107.6922547371
 20
236.6360971054
 30
0.0
 10
107.6645917264
 20
236.7695414034
 30
0.0
  0
SPLINE
  5
2D6
100
AcDbEntity
  8
0
100
AcDbSpline
 62
7
  6
BYLAYER
 70
0
 71
3
 72
9
 73
5
 74
0
 42
0.0000001
 43
0.0000001
 44
0.0000000001
 40
0.0
 40
0.0
 40
0.0
 40
0.0
 40
0.263439987
 40
1.0
 40
1.0
 40
1.0
 40
1.0
 10
108.4368822868
 20
237.6161174874
 30
0.0
 10
108.4368822868
 20
237.644383638
 30
0.0
 10
108.4398064948
 20
237.7516232618
 30
0.0
 10
108.4549554793
 20
237.858808549
 30
0.0
 10
108.4749010983
 20
237.9352804109
 30
0.0
  0
SPLINE
  5
2D7
100
AcDbEntity
  8
0
100
AcDbSpline
 62
7
  6
BYLAYER
 70
0
 71
3
 72
9
 73
5
 74
0
 42
0.0000001
 43
0.0000001
 44
0.0000000001
 40
0.0
 40
0.0
 40
0.0
 40
0.0
 40
0.2605197037
 40
1.0
 40
1.0
 40
1.0
 40
1.0
 10
108.4777611392
 20
237.2390221804
 30
0.0
 10
108.4710687654
 20
237.2713056917
 30
0.0
 10
108.4481987763
 20
237.3957699615
 30
0.0
 10
108.4368822868
 20
237.5225331017
 30
0.0
 10
108.4368822868
 20
237.6161174874
 30
0.0
  0
SPLINE
  5
2D8
100
AcDbEntity
  8
0
100
AcDbSpline
 62
7
  6
BYLAYER
 70
0
 71
3
 72
14
 73
10
 74
0
 42
0.0000001
 43
0.0000001
 44
0.0000000001
 40
0.0
 40
0.0
 40
0.0
 40
0.0
 40
0.2892800659
 40
0.4225380549
 40
0.5484954973
 40
0.6678941597
 40
0.7818681198
 40
0.8919521346
 40
1.0
 40
1.0
 40
1.0
 40
1.0
 10
138.3774652522
 20
223.9367562584
 30
0.0
 10
138.3774652522
 20
223.7593506371
 30
0.0
 10
138.3567526509
 20
223.4989487434
 30
0.0
 10
138.2766994091
 20
223.1716482566
 30
0.0
 10
138.1952480572
 20
222.953552256
 30
0.0
 10
138.0914446471
 20
222.7583782481
 30
0.0
 10
137.9660693128
 20
222.5880933266
 30
0.0
 10
137.8202824451
 20
222.4446313507
 30
0.0
 10
137.7099577384
 20
222.367637006
 30
0.0
 10
137.6525714747
 20
222.3345087719
 30
0.0
  0
SPLINE
  5
2D9
100
AcDbEntity
  8
0
100
AcDbSpline
 62
7
  6
BYLAYER
 70
0
 71
3
 72
11
 73
7
 74
0
 42
0.0000001
 43
0.0000001
 44
0.0000000001
 40
0.0
 40
0.0
 40
0.0
 40
0.0
 40
0.2727486584
 40
0.527073745
 40
0.7673064176
 40
1.0
 40
1.0
 40
1.0
 40
1.0
 10
133.1267352706
 20
222.0692985379
 30
0.0
 10
133.1139697929
 20
222.0224587972
 30
0.0
 10
133.0826720689
 20
221.933514826
 30
0.0
 10
133.0152922937
 20
221.813814243
 30
0.0
 10
132.9300597321
 20
221.7151645521
 30
0.0
 10
132.8617436342
 20
221.6645634989
 30
0.0
 10
132.8258767264
 20
221.6438498594
 30
0.0
  0
SPLINE
  5
2DA
100
AcDbEntity
  8
0
100
AcDbSpline
 62
7
  6
BYLAYER
 70
0
 71
3
 72
23
 73
19
 74
0
 42
0.0000001
 43
0.0000001
 44
0.0000000001
 40
0.0
 40
0.0
 40
0.0
 40
0.0
 40
0.0661293061
 40
0.1353844402
 40
0.2070044943
 40
0.2801407969
 40
0.3538785798
 40
0.4272815261
 40
0.4994244734
 40
0.5694331904
 40
0.6365217228
 40
0.7000355535
 40
0.7595008246
 40
0.8146828245
 40
0.8656547676
 40
0.9128707953
 40
0.9572186435
 40
1.0
 40
1.0
 40
1.0
 40
1.0
 10
129.5640101686
 20
224.1261923015
 30
0.0
 10
129.5807516
 20
223.9825949995
 30
0.0
 10
129.6308236209
 20
223.6902983878
 30
0.0
 10
129.7488634017
 20
223.2528286653
 30
0.0
 10
129.9096163547
 20
222.8128453045
 30
0.0
 10
130.1100243514
 20
222.3786857859
 30
0.0
 10
130.3463316275
 20
221.95850521
 30
0.0
 10
130.614072946
 20
221.560229203
 30
0.0
 10
130.9082079848
 20
221.1913644563
 30
0.0
 10
131.2232046831
 20
220.8588517175
 30
0.0
 10
131.5531721874
 20
220.56893185
 30
0.0
 10
131.8919925865
 20
220.3270355135
 30
0.0
 10
132.2334688957
 20
220.1377070691
 30
0.0
 10
132.5714799659
 20
220.0045924853
 30
0.0
 10
132.9000525163
 20
219.9304902375
 30
0.0
 10
133.2133926805
 20
219.9175395961
 30
0.0
 10
133.5052382711
 20
219.9670242394
 30
0.0
 10
133.6825006446
 20
220.0424069397
 30
0.0
 10
133.7635000512
 20
220.0891665022
 30
0.0
  0
SPLINE
  5
2DB
100
AcDbEntity
  8
0
100
AcDbSpline
 62
7
  6
BYLAYER
 70
0
 71
3
 72
12
 73
8
 74
0
 42
0.0000001
 43
0.0000001
 44
0.0000000001
 40
0.0
 40
0.0
 40
0.0
 40
0.0
 40
0.1124137365
 40
0.2262539809
 40
0.4629532353
 40
0.7191811438
 40
1.0
 40
1.0
 40
1.0
 40
1.0
 10
130.263520168
 20
226.1513456037
 30
0.0
 10
130.2166393622
 20
226.1242821219
 30
0.0
 10
130.1259723622
 20
226.0631080664
 30
0.0
 10
129.9595884114
 20
225.9138554379
 30
0.0
 10
129.7837701585
 20
225.6761972656
 30
0.0
 10
129.6364143081
 20
225.3311477397
 30
0.0
 10
129.5820649239
 20
225.0767095099
 30
0.0
 10
129.5640101686
 20
224.9426947186
 30
0.0
  0
SPLINE
  5
2DC
100
AcDbEntity
  8
0
100
AcDbSpline
 62
7
  6
BYLAYER
 70
0
 71
3
 72
23
 73
19
 74
0
 42
0.0000001
 43
0.0000001
 44
0.0000000001
 40
0.0
 40
0.0
 40
0.0
 40
0.0
 40
0.0428145732
 40
0.0873965899
 40
0.1351794337
 40
0.1870886335
 40
0.2435352359
 40
0.3044927244
 40
0.3695906967
 40
0.4381987378
 40
0.5094963857
 40
0.58253212
 40
0.6562753053
 40
0.7296640647
 40
0.8016520722
 40
0.8712561022
 40
0.9376062752
 40
1.0
 40
1.0
 40
1.0
 40
1.0
 10
134.1525909538
 20
228.3966890266
 30
0.0
 10
134.2388825276
 20
228.446503865
 30
0.0
 10
134.4290891133
 20
228.5255674279
 30
0.0
 10
134.7430742369
 20
228.5715815667
 30
0.0
 10
135.0802413358
 20
228.5467631114
 30
0.0
 10
135.4331088776
 20
228.45300953
 30
0.0
 10
135.7947471274
 20
228.2931823189
 30
0.0
 10
136.1579574745
 20
228.0709730659
 30
0.0
 10
136.5153620434
 20
227.7911680458
 30
0.0
 10
136.859539733
 20
227.4596964325
 30
0.0
 10
137.183247368
 20
227.0835845528
 30
0.0
 10
137.4796175273
 20
226.6708278923
 30
0.0
 10
137.7423367301
 20
226.2302228419
 30
0.0
 10
137.9658014186
 20
225.7711665015
 30
0.0
 10
138.1452446917
 20
225.303453159
 30
0.0
 10
138.2768475024
 20
224.8369962164
 30
0.0
 10
138.3577936717
 20
224.3817719342
 30
0.0
 10
138.3774652522
 20
224.0819589925
 30
0.0
 10
138.3774652522
 20
223.9367562584
 30
0.0
  0
SPLINE
  5
2DD
100
AcDbEntity
  8
0
100
AcDbSpline
 62
7
  6
BYLAYER
 70
0
 71
3
 72
17
 73
13
 74
0
 42
0.0000001
 43
0.0000001
 44
0.0000000001
 40
0.0
 40
0.0
 40
0.0
 40
0.0
 40
0.0430983705
 40
0.0875019804
 40
0.1343333447
 40
0.1844121873
 40
0.2957388635
 40
0.4223413014
 40
0.56138207
 40
0.7079854159
 40
0.8562289062
 40
1.0
 40
1.0
 40
1.0
 40
1.0
 10
131.1758900065
 20
224.5017277647
 30
0.0
 10
131.2104702923
 20
224.5216926154
 30
0.0
 10
131.285384842
 20
224.5545927772
 30
0.0
 10
131.4081527706
 20
224.5795621475
 30
0.0
 10
131.5398196781
 20
224.5804165703
 30
0.0
 10
131.7309053692
 20
224.5486571342
 30
0.0
 10
131.9806052052
 20
224.4454474235
 30
0.0
 10
132.2682580173
 20
224.2439379996
 30
0.0
 10
132.5394196619
 20
223.9725356216
 30
0.0
 10
132.7780870635
 20
223.6472827304
 30
0.0
 10
132.9701287117
 20
223.2876891741
 30
0.0
 10
133.0620766483
 20
223.031893298
 30
0.0
 10
133.0965472557
 20
222.9032296193
 30
0.0
  0
SPLINE
  5
2DE
100
AcDbEntity
  8
0
100
AcDbSpline
 62
7
  6
BYLAYER
 70
0
 71
3
 72
9
 73
5
 74
0
 42
0.0000001
 43
0.0000001
 44
0.0000000001
 40
0.0
 40
0.0
 40
0.0
 40
0.0
 40
0.242892792
 40
1.0
 40
1.0
 40
1.0
 40
1.0
 10
135.2761794633
 20
221.7672981643
 30
0.0
 10
135.2804449044
 20
221.7989591971
 30
0.0
 10
135.295625511
 20
221.9296247643
 30
0.0
 10
135.3015635604
 20
222.0613138216
 30
0.0
 10
135.3015635604
 20
222.1608941891
 30
0.0
  0
SPLINE
  5
2DF
100
AcDbEntity
  8
0
100
AcDbSpline
 62
7
  6
BYLAYER
 70
0
 71
3
 72
9
 73
5
 74
0
 42
0.0000001
 43
0.0000001
 44
0.0000000001
 40
0.0
 40
0.0
 40
0.0
 40
0.0
 40
0.2437922917
 40
1.0
 40
1.0
 40
1.0
 40
1.0
 10
135.3015635604
 20
222.1608941891
 30
0.0
 10
135.3015635604
 20
222.1953341728
 30
0.0
 10
135.2993514045
 20
222.3365974667
 30
0.0
 10
135.2885502901
 20
222.4776915333
 30
0.0
 10
135.2761794633
 20
222.5838005814
 30
0.0
  0
SPLINE
  5
2E0
100
AcDbEntity
  8
0
100
AcDbSpline
 62
7
  6
BYLAYER
 70
0
 71
3
 72
10
 73
6
 74
0
 42
0.0000001
 43
0.0000001
 44
0.0000000001
 40
0.0
 40
0.0
 40
0.0
 40
0.0
 40
0.5193698961
 40
0.7624131913
 40
1.0
 40
1.0
 40
1.0
 40
1.0
 10
130.9052188973
 20
224.1683650158
 30
0.0
 10
130.9325596289
 20
224.2388463481
 30
0.0
 10
130.9870782602
 20
224.3383252103
 30
0.0
 10
131.0885330381
 20
224.4435762261
 30
0.0
 10
131.1459404873
 20
224.4844364768
 30
0.0
 10
131.1758900065
 20
224.5017277647
 30
0.0
  0
SPLINE
  5
2E1
100
AcDbEntity
  8
0
100
AcDbSpline
 62
7
  6
BYLAYER
 70
0
 71
3
 72
23
 73
19
 74
0
 42
0.0000001
 43
0.0000001
 44
0.0000000001
 40
0.0
 40
0.0
 40
0.0
 40
0.0
 40
0.0661293061
 40
0.1353844402
 40
0.2070044943
 40
0.2801407969
 40
0.3538785798
 40
0.4272815261
 40
0.4994244734
 40
0.5694331904
 40
0.6365217228
 40
0.7000355535
 40
0.7595008246
 40
0.8146828245
 40
0.8656547676
 40
0.9128707953
 40
0.9572186435
 40
1.0
 40
1.0
 40
1.0
 40
1.0
 10
134.4630100505
 20
222.1143198044
 30
0.0
 10
134.4462686191
 20
222.2579171064
 30
0.0
 10
134.3961965983
 20
222.5502137181
 30
0.0
 10
134.2781568174
 20
222.9876834406
 30
0.0
 10
134.1174038644
 20
223.4276668015
 30
0.0
 10
133.9169958677
 20
223.86182632
 30
0.0
 10
133.6806885917
 20
224.2820068959
 30
0.0
 10
133.4129472731
 20
224.680282903
 30
0.0
 10
133.1188122343
 20
225.0491476496
 30
0.0
 10
132.803815536
 20
225.3816603884
 30
0.0
 10
132.4738480318
 20
225.671580256
 30
0.0
 10
132.1350276326
 20
225.9134765924
 30
0.0
 10
131.7935513234
 20
226.1028050368
 30
0.0
 10
131.4555402533
 20
226.2359196206
 30
0.0
 10
131.1269677028
 20
226.3100218684
 30
0.0
 10
130.8136275386
 20
226.3229725099
 30
0.0
 10
130.521781948
 20
226.2734878666
 30
0.0
 10
130.3445195746
 20
226.1981051662
 30
0.0
 10
130.263520168
 20
226.1513456037
 30
0.0
  0
SPLINE
  5
2E2
100
AcDbEntity
  8
0
100
AcDbSpline
 62
7
  6
BYLAYER
 70
0
 71
3
 72
12
 73
8
 74
0
 42
0.0000001
 43
0.0000001
 44
0.0000000001
 40
0.0
 40
0.0
 40
0.0
 40
0.0
 40
0.1124137365
 40
0.2262539809
 40
0.4629532353
 40
0.7191811438
 40
1.0
 40
1.0
 40
1.0
 40
1.0
 10
133.7635000512
 20
220.0891665022
 30
0.0
 10
133.810380857
 20
220.116229984
 30
0.0
 10
133.9010478569
 20
220.1774040396
 30
0.0
 10
134.0674318077
 20
220.3266566681
 30
0.0
 10
134.2432500606
 20
220.5643148403
 30
0.0
 10
134.390605911
 20
220.9093643663
 30
0.0
 10
134.4449552952
 20
221.163802596
 30
0.0
 10
134.4630100505
 20
221.2978173873
 30
0.0
  0
SPLINE
  5
2E3
100
AcDbEntity
  8
0
100
AcDbSpline
 62
7
  6
BYLAYER
 70
0
 71
3
 72
18
 73
14
 74
0
 42
0.0000001
 43
0.0000001
 44
0.0000000001
 40
0.0
 40
0.0
 40
0.0
 40
0.0
 40
0.0429277252
 40
0.0872642374
 40
0.1342058435
 40
0.1846023926
 40
0.2970983098
 40
0.3594480606
 40
0.4253851391
 40
0.5656691721
 40
0.7125529287
 40
0.8595032956
 40
1.0
 40
1.0
 40
1.0
 40
1.0
 10
132.8258767264
 20
221.6438498594
 30
0.0
 10
132.7898181807
 20
221.6230255463
 30
0.0
 10
132.7113652713
 20
221.5890348847
 30
0.0
 10
132.5825536057
 20
221.5646313705
 30
0.0
 10
132.4443091215
 20
221.5664674371
 30
0.0
 10
132.2435702935
 20
221.6048037745
 30
0.0
 10
132.0412736814
 20
221.6950108455
 30
0.0
 10
131.8458439642
 20
221.8231722438
 30
0.0
 10
131.6429785239
 20
221.9873032558
 30
0.0
 10
131.4073443389
 20
222.2382539412
 30
0.0
 10
131.1689893422
 20
222.5872654884
 30
0.0
 10
130.9846300946
 20
222.9677249991
 30
0.0
 10
130.9026938931
 20
223.2358469649
 30
0.0
 10
130.8750308823
 20
223.3692912629
 30
0.0
  0
SPLINE
  5
2E4
100
AcDbEntity
  8
0
100
AcDbSpline
 62
7
  6
BYLAYER
 70
0
 71
3
 72
9
 73
5
 74
0
 42
0.0000001
 43
0.0000001
 44
0.0000000001
 40
0.0
 40
0.0
 40
0.0
 40
0.0
 40
0.263439987
 40
1.0
 40
1.0
 40
1.0
 40
1.0
 10
131.6473214428
 20
224.2158673468
 30
0.0
 10
131.6473214428
 20
224.2441334975
 30
0.0
 10
131.6502456507
 20
224.3513731213
 30
0.0
 10
131.6653946352
 20
224.4585584085
 30
0.0
 10
131.6853402542
 20
224.5350302704
 30
0.0
  0
SPLINE
  5
2E5
100
AcDbEntity
  8
0
100
AcDbSpline
 62
7
  6
BYLAYER
 70
0
 71
3
 72
9
 73
5
 74
0
 42
0.0000001
 43
0.0000001
 44
0.0000000001
 40
0.0
 40
0.0
 40
0.0
 40
0.0
 40
0.2605197037
 40
1.0
 40
1.0
 40
1.0
 40
1.0
 10
131.6882002951
 20
223.8387720399
 30
0.0
 10
131.6815079213
 20
223.8710555512
 30
0.0
 10
131.6586379322
 20
223.995519821
 30
0.0
 10
131.6473214428
 20
224.1222829612
 30
0.0
 10
131.6473214428
 20
224.2158673468
 30
0.0
  0
SPLINE
  5
2E6
100
AcDbEntity
  8
0
100
AcDbSpline
 62
7
  6
BYLAYER
 70
0
 71
3
 72
14
 73
10
 74
0
 42
0.0000001
 43
0.0000001
 44
0.0000000001
 40
0.0
 40
0.0
 40
0.0
 40
0.0
 40
0.2892800659
 40
0.4225380549
 40
0.5484954973
 40
0.6678941597
 40
0.7818681198
 40
0.8919521346
 40
1.0
 40
1.0
 40
1.0
 40
1.0
 10
115.1670260963
 20
264.2815861642
 30
0.0
 10
115.1670260963
 20
264.1041805429
 30
0.0
 10
115.146313495
 20
263.8437786492
 30
0.0
 10
115.0662602532
 20
263.5164781624
 30
0.0
 10
114.9848089013
 20
263.2983821618
 30
0.0
 10
114.8810054912
 20
263.1032081539
 30
0.0
 10
114.7556301569
 20
262.9329232324
 30
0.0
 10
114.6098432892
 20
262.7894612565
 30
0.0
 10
114.4995185825
 20
262.7124669118
 30
0.0
 10
114.4421323187
 20
262.6793386777
 30
0.0
  0
SPLINE
  5
2E7
100
AcDbEntity
  8
0
100
AcDbSpline
 62
7
  6
BYLAYER
 70
0
 71
3
 72
11
 73
7
 74
0
 42
0.0000001
 43
0.0000001
 44
0.0000000001
 40
0.0
 40
0.0
 40
0.0
 40
0.0
 40
0.2727486584
 40
0.527073745
 40
0.7673064176
 40
1.0
 40
1.0
 40
1.0
 40
1.0
 10
109.9162961147
 20
262.4141284437
 30
0.0
 10
109.903530637
 20
262.367288703
 30
0.0
 10
109.872232913
 20
262.2783447318
 30
0.0
 10
109.8048531378
 20
262.1586441488
 30
0.0
 10
109.7196205761
 20
262.0599944579
 30
0.0
 10
109.6513044782
 20
262.0093934047
 30
0.0
 10
109.6154375705
 20
261.9886797652
 30
0.0
  0
SPLINE
  5
2E8
100
AcDbEntity
  8
0
100
AcDbSpline
 62
7
  6
BYLAYER
 70
0
 71
3
 72
23
 73
19
 74
0
 42
0.0000001
 43
0.0000001
 44
0.0000000001
 40
0.0
 40
0.0
 40
0.0
 40
0.0
 40
0.0661293061
 40
0.1353844402
 40
0.2070044943
 40
0.2801407969
 40
0.3538785798
 40
0.4272815261
 40
0.4994244734
 40
0.5694331904
 40
0.6365217228
 40
0.7000355535
 40
0.7595008246
 40
0.8146828245
 40
0.8656547676
 40
0.9128707953
 40
0.9572186435
 40
1.0
 40
1.0
 40
1.0
 40
1.0
 10
106.3535710127
 20
264.4710222073
 30
0.0
 10
106.3703124441
 20
264.3274249053
 30
0.0
 10
106.4203844649
 20
264.0351282936
 30
0.0
 10
106.5384242457
 20
263.5976585711
 30
0.0
 10
106.6991771988
 20
263.1576752103
 30
0.0
 10
106.8995851955
 20
262.7235156917
 30
0.0
 10
107.1358924715
 20
262.3033351158
 30
0.0
 10
107.4036337901
 20
261.9050591088
 30
0.0
 10
107.6977688289
 20
261.5361943621
 30
0.0
 10
108.0127655272
 20
261.2036816233
 30
0.0
 10
108.3427330314
 20
260.9137617558
 30
0.0
 10
108.6815534306
 20
260.6718654193
 30
0.0
 10
109.0230297398
 20
260.4825369749
 30
0.0
 10
109.3610408099
 20
260.3494223911
 30
0.0
 10
109.6896133604
 20
260.2753201433
 30
0.0
 10
110.0029535246
 20
260.2623695019
 30
0.0
 10
110.2947991151
 20
260.3118541452
 30
0.0
 10
110.4720614886
 20
260.3872368455
 30
0.0
 10
110.5530608952
 20
260.433996408
 30
0.0
  0
SPLINE
  5
2E9
100
AcDbEntity
  8
0
100
AcDbSpline
 62
7
  6
BYLAYER
 70
0
 71
3
 72
12
 73
8
 74
0
 42
0.0000001
 43
0.0000001
 44
0.0000000001
 40
0.0
 40
0.0
 40
0.0
 40
0.0
 40
0.1124137365
 40
0.2262539809
 40
0.4629532353
 40
0.7191811438
 40
1.0
 40
1.0
 40
1.0
 40
1.0
 10
107.053081012
 20
266.4961755095
 30
0.0
 10
107.0062002062
 20
266.4691120277
 30
0.0
 10
106.9155332063
 20
266.4079379722
 30
0.0
 10
106.7491492555
 20
266.2586853437
 30
0.0
 10
106.5733310026
 20
266.0210271714
 30
0.0
 10
106.4259751522
 20
265.6759776455
 30
0.0
 10
106.371625768
 20
265.4215394157
 30
0.0
 10
106.3535710127
 20
265.2875246244
 30
0.0
  0
SPLINE
  5
2EA
100
AcDbEntity
  8
0
100
AcDbSpline
 62
7
  6
BYLAYER
 70
0
 71
3
 72
23
 73
19
 74
0
 42
0.0000001
 43
0.0000001
 44
0.0000000001
 40
0.0
 40
0.0
 40
0.0
 40
0.0
 40
0.0428145732
 40
0.0873965899
 40
0.1351794337
 40
0.1870886335
 40
0.2435352359
 40
0.3044927244
 40
0.3695906967
 40
0.4381987378
 40
0.5094963857
 40
0.58253212
 40
0.6562753053
 40
0.7296640647
 40
0.8016520722
 40
0.8712561022
 40
0.9376062752
 40
1.0
 40
1.0
 40
1.0
 40
1.0
 10
110.9421517979
 20
268.7415189324
 30
0.0
 10
111.0284433717
 20
268.7913337708
 30
0.0
 10
111.2186499574
 20
268.8703973337
 30
0.0
 10
111.532635081
 20
268.9164114725
 30
0.0
 10
111.8698021799
 20
268.8915930172
 30
0.0
 10
112.2226697216
 20
268.7978394358
 30
0.0
 10
112.5843079715
 20
268.6380122246
 30
0.0
 10
112.9475183186
 20
268.4158029717
 30
0.0
 10
113.3049228874
 20
268.1359979516
 30
0.0
 10
113.649100577
 20
267.8045263383
 30
0.0
 10
113.9728082121
 20
267.4284144586
 30
0.0
 10
114.2691783714
 20
267.015657798
 30
0.0
 10
114.5318975742
 20
266.5750527477
 30
0.0
 10
114.7553622627
 20
266.1159964073
 30
0.0
 10
114.9348055358
 20
265.6482830648
 30
0.0
 10
115.0664083465
 20
265.1818261222
 30
0.0
 10
115.1473545158
 20
264.72660184
 30
0.0
 10
115.1670260963
 20
264.4267888983
 30
0.0
 10
115.1670260963
 20
264.2815861642
 30
0.0
  0
SPLINE
  5
2EB
100
AcDbEntity
  8
0
100
AcDbSpline
 62
7
  6
BYLAYER
 70
0
 71
3
 72
17
 73
13
 74
0
 42
0.0000001
 43
0.0000001
 44
0.0000000001
 40
0.0
 40
0.0
 40
0.0
 40
0.0
 40
0.0430983705
 40
0.0875019804
 40
0.1343333447
 40
0.1844121873
 40
0.2957388635
 40
0.4223413014
 40
0.56138207
 40
0.7079854159
 40
0.8562289062
 40
1.0
 40
1.0
 40
1.0
 40
1.0
 10
107.9654508506
 20
264.8465576705
 30
0.0
 10
108.0000311364
 20
264.8665225212
 30
0.0
 10
108.0749456861
 20
264.899422683
 30
0.0
 10
108.1977136147
 20
264.9243920533
 30
0.0
 10
108.3293805222
 20
264.9252464761
 30
0.0
 10
108.5204662133
 20
264.89348704
 30
0.0
 10
108.7701660492
 20
264.7902773293
 30
0.0
 10
109.0578188614
 20
264.5887679053
 30
0.0
 10
109.3289805059
 20
264.3173655274
 30
0.0
 10
109.5676479076
 20
263.9921126362
 30
0.0
 10
109.7596895558
 20
263.6325190799
 30
0.0
 10
109.8516374924
 20
263.3767232038
 30
0.0
 10
109.8861080998
 20
263.2480595251
 30
0.0
  0
SPLINE
  5
2EC
100
AcDbEntity
  8
0
100
AcDbSpline
 62
7
  6
BYLAYER
 70
0
 71
3
 72
9
 73
5
 74
0
 42
0.0000001
 43
0.0000001
 44
0.0000000001
 40
0.0
 40
0.0
 40
0.0
 40
0.0
 40
0.242892792
 40
1.0
 40
1.0
 40
1.0
 40
1.0
 10
112.0657403074
 20
262.11212807
 30
0.0
 10
112.0700057485
 20
262.1437891029
 30
0.0
 10
112.0851863551
 20
262.2744546701
 30
0.0
 10
112.0911244044
 20
262.4061437273
 30
0.0
 10
112.0911244044
 20
262.5057240949
 30
0.0
  0
SPLINE
  5
2ED
100
AcDbEntity
  8
0
100
AcDbSpline
 62
7
  6
BYLAYER
 70
0
 71
3
 72
9
 73
5
 74
0
 42
0.0000001
 43
0.0000001
 44
0.0000000001
 40
0.0
 40
0.0
 40
0.0
 40
0.0
 40
0.2437922917
 40
1.0
 40
1.0
 40
1.0
 40
1.0
 10
112.0911244044
 20
262.5057240949
 30
0.0
 10
112.0911244044
 20
262.5401640786
 30
0.0
 10
112.0889122486
 20
262.6814273725
 30
0.0
 10
112.0781111342
 20
262.8225214391
 30
0.0
 10
112.0657403074
 20
262.9286304872
 30
0.0
  0
SPLINE
  5
2EE
100
AcDbEntity
  8
0
100
AcDbSpline
 62
7
  6
BYLAYER
 70
0
 71
3
 72
10
 73
6
 74
0
 42
0.0000001
 43
0.0000001
 44
0.0000000001
 40
0.0
 40
0.0
 40
0.0
 40
0.0
 40
0.5193698961
 40
0.7624131913
 40
1.0
 40
1.0
 40
1.0
 40
1.0
 10
107.6947797413
 20
264.5131949216
 30
0.0
 10
107.722120473
 20
264.5836762538
 30
0.0
 10
107.7766391043
 20
264.6831551161
 30
0.0
 10
107.8780938822
 20
264.7884061319
 30
0.0
 10
107.9355013313
 20
264.8292663826
 30
0.0
 10
107.9654508506
 20
264.8465576705
 30
0.0
  0
SPLINE
  5
2EF
100
AcDbEntity
  8
0
100
AcDbSpline
 62
7
  6
BYLAYER
 70
0
 71
3
 72
23
 73
19
 74
0
 42
0.0000001
 43
0.0000001
 44
0.0000000001
 40
0.0
 40
0.0
 40
0.0
 40
0.0
 40
0.0661293061
 40
0.1353844402
 40
0.2070044943
 40
0.2801407969
 40
0.3538785798
 40
0.4272815261
 40
0.4994244734
 40
0.5694331904
 40
0.6365217228
 40
0.7000355535
 40
0.7595008246
 40
0.8146828245
 40
0.8656547676
 40
0.9128707953
 40
0.9572186435
 40
1.0
 40
1.0
 40
1.0
 40
1.0
 10
111.2525708946
 20
262.4591497102
 30
0.0
 10
111.2358294632
 20
262.6027470122
 30
0.0
 10
111.1857574423
 20
262.8950436239
 30
0.0
 10
111.0677176615
 20
263.3325133464
 30
0.0
 10
110.9069647085
 20
263.7724967072
 30
0.0
 10
110.7065567118
 20
264.2066562258
 30
0.0
 10
110.4702494357
 20
264.6268368017
 30
0.0
 10
110.2025081172
 20
265.0251128088
 30
0.0
 10
109.9083730784
 20
265.3939775554
 30
0.0
 10
109.5933763801
 20
265.7264902942
 30
0.0
 10
109.2634088758
 20
266.0164101618
 30
0.0
 10
108.9245884767
 20
266.2583064982
 30
0.0
 10
108.5831121675
 20
266.4476349426
 30
0.0
 10
108.2451010973
 20
266.5807495264
 30
0.0
 10
107.9165285468
 20
266.6548517742
 30
0.0
 10
107.6031883827
 20
266.6678024157
 30
0.0
 10
107.3113427921
 20
266.6183177724
 30
0.0
 10
107.1340804186
 20
266.542935072
 30
0.0
 10
107.053081012
 20
266.4961755095
 30
0.0
  0
SPLINE
  5
2F0
100
AcDbEntity
  8
0
100
AcDbSpline
 62
7
  6
BYLAYER
 70
0
 71
3
 72
12
 73
8
 74
0
 42
0.0000001
 43
0.0000001
 44
0.0000000001
 40
0.0
 40
0.0
 40
0.0
 40
0.0
 40
0.1124137365
 40
0.2262539809
 40
0.4629532353
 40
0.7191811438
 40
1.0
 40
1.0
 40
1.0
 40
1.0
 10
110.5530608952
 20
260.433996408
 30
0.0
 10
110.599941701
 20
260.4610598898
 30
0.0
 10
110.690608701
 20
260.5222339454
 30
0.0
 10
110.8569926518
 20
260.6714865738
 30
0.0
 10
111.0328109046
 20
260.9091447461
 30
0.0
 10
111.1801667551
 20
261.2541942721
 30
0.0
 10
111.2345161393
 20
261.5086325018
 30
0.0
 10
111.2525708946
 20
261.6426472931
 30
0.0
  0
SPLINE
  5
2F1
100
AcDbEntity
  8
0
100
AcDbSpline
 62
7
  6
BYLAYER
 70
0
 71
3
 72
18
 73
14
 74
0
 42
0.0000001
 43
0.0000001
 44
0.0000000001
 40
0.0
 40
0.0
 40
0.0
 40
0.0
 40
0.0429277252
 40
0.0872642374
 40
0.1342058435
 40
0.1846023926
 40
0.2970983098
 40
0.3594480606
 40
0.4253851391
 40
0.5656691721
 40
0.7125529287
 40
0.8595032956
 40
1.0
 40
1.0
 40
1.0
 40
1.0
 10
109.6154375705
 20
261.9886797652
 30
0.0
 10
109.5793790248
 20
261.9678554521
 30
0.0
 10
109.5009261153
 20
261.9338647905
 30
0.0
 10
109.3721144498
 20
261.9094612763
 30
0.0
 10
109.2338699656
 20
261.9112973429
 30
0.0
 10
109.0331311376
 20
261.9496336803
 30
0.0
 10
108.8308345255
 20
262.0398407513
 30
0.0
 10
108.6354048083
 20
262.1680021496
 30
0.0
 10
108.4325393679
 20
262.3321331616
 30
0.0
 10
108.1969051829
 20
262.583083847
 30
0.0
 10
107.9585501863
 20
262.9320953942
 30
0.0
 10
107.7741909386
 20
263.3125549049
 30
0.0
 10
107.6922547371
 20
263.5806768707
 30
0.0
 10
107.6645917264
 20
263.7141211687
 30
0.0
  0
SPLINE
  5
2F2
100
AcDbEntity
  8
0
100
AcDbSpline
 62
7
  6
BYLAYER
 70
0
 71
3
 72
9
 73
5
 74
0
 42
0.0000001
 43
0.0000001
 44
0.0000000001
 40
0.0
 40
0.0
 40
0.0
 40
0.0
 40
0.263439987
 40
1.0
 40
1.0
 40
1.0
 40
1.0
 10
108.4368822868
 20
264.5606972526
 30
0.0
 10
108.4368822868
 20
264.5889634033
 30
0.0
 10
108.4398064948
 20
264.6962030271
 30
0.0
 10
108.4549554793
 20
264.8033883143
 30
0.0
 10
108.4749010983
 20
264.8798601762
 30
0.0
  0
SPLINE
  5
2F3
100
AcDbEntity
  8
0
100
AcDbSpline
 62
7
  6
BYLAYER
 70
0
 71
3
 72
9
 73
5
 74
0
 42
0.0000001
 43
0.0000001
 44
0.0000000001
 40
0.0
 40
0.0
 40
0.0
 40
0.0
 40
0.2605197037
 40
1.0
 40
1.0
 40
1.0
 40
1.0
 10
108.4777611392
 20
264.1836019457
 30
0.0
 10
108.4710687654
 20
264.215885457
 30
0.0
 10
108.4481987763
 20
264.3403497268
 30
0.0
 10
108.4368822868
 20
264.467112867
 30
0.0
 10
108.4368822868
 20
264.5606972526
 30
0.0
  0
SPLINE
  5
2F4
100
AcDbEntity
  8
0
100
AcDbSpline
 62
7
  6
BYLAYER
 70
0
 71
3
 72
14
 73
10
 74
0
 42
0.0000001
 43
0.0000001
 44
0.0000000001
 40
0.0
 40
0.0
 40
0.0
 40
0.0
 40
0.2892800659
 40
0.4225380549
 40
0.5484954973
 40
0.6678941597
 40
0.7818681198
 40
0.8919521346
 40
1.0
 40
1.0
 40
1.0
 40
1.0
 10
138.3774652522
 20
250.8813360237
 30
0.0
 10
138.3774652522
 20
250.7039304024
 30
0.0
 10
138.3567526509
 20
250.4435285086
 30
0.0
 10
138.2766994091
 20
250.1162280218
 30
0.0
 10
138.1952480572
 20
249.8981320213
 30
0.0
 10
138.0914446471
 20
249.7029580134
 30
0.0
 10
137.9660693128
 20
249.5326730919
 30
0.0
 10
137.8202824451
 20
249.389211116
 30
0.0
 10
137.7099577384
 20
249.3122167713
 30
0.0
 10
137.6525714747
 20
249.2790885372
 30
0.0
  0
SPLINE
  5
2F5
100
AcDbEntity
  8
0
100
AcDbSpline
 62
7
  6
BYLAYER
 70
0
 71
3
 72
11
 73
7
 74
0
 42
0.0000001
 43
0.0000001
 44
0.0000000001
 40
0.0
 40
0.0
 40
0.0
 40
0.0
 40
0.2727486584
 40
0.527073745
 40
0.7673064176
 40
1.0
 40
1.0
 40
1.0
 40
1.0
 10
133.1267352706
 20
249.0138783032
 30
0.0
 10
133.1139697929
 20
248.9670385625
 30
0.0
 10
133.0826720689
 20
248.8780945913
 30
0.0
 10
133.0152922937
 20
248.7583940083
 30
0.0
 10
132.9300597321
 20
248.6597443173
 30
0.0
 10
132.8617436342
 20
248.6091432641
 30
0.0
 10
132.8258767264
 20
248.5884296246
 30
0.0
  0
SPLINE
  5
2F6
100
AcDbEntity
  8
0
100
AcDbSpline
 62
7
  6
BYLAYER
 70
0
 71
3
 72
23
 73
19
 74
0
 42
0.0000001
 43
0.0000001
 44
0.0000000001
 40
0.0
 40
0.0
 40
0.0
 40
0.0
 40
0.0661293061
 40
0.1353844402
 40
0.2070044943
 40
0.2801407969
 40
0.3538785798
 40
0.4272815261
 40
0.4994244734
 40
0.5694331904
 40
0.6365217228
 40
0.7000355535
 40
0.7595008246
 40
0.8146828245
 40
0.8656547676
 40
0.9128707953
 40
0.9572186435
 40
1.0
 40
1.0
 40
1.0
 40
1.0
 10
129.5640101686
 20
251.0707720668
 30
0.0
 10
129.5807516
 20
250.9271747648
 30
0.0
 10
129.6308236209
 20
250.6348781531
 30
0.0
 10
129.7488634017
 20
250.1974084306
 30
0.0
 10
129.9096163547
 20
249.7574250698
 30
0.0
 10
130.1100243514
 20
249.3232655512
 30
0.0
 10
130.3463316275
 20
248.9030849753
 30
0.0
 10
130.614072946
 20
248.5048089683
 30
0.0
 10
130.9082079848
 20
248.1359442216
 30
0.0
 10
131.2232046831
 20
247.8034314828
 30
0.0
 10
131.5531721874
 20
247.5135116152
 30
0.0
 10
131.8919925865
 20
247.2716152788
 30
0.0
 10
132.2334688957
 20
247.0822868344
 30
0.0
 10
132.5714799659
 20
246.9491722506
 30
0.0
 10
132.9000525163
 20
246.8750700028
 30
0.0
 10
133.2133926805
 20
246.8621193613
 30
0.0
 10
133.5052382711
 20
246.9116040046
 30
0.0
 10
133.6825006446
 20
246.986986705
 30
0.0
 10
133.7635000512
 20
247.0337462675
 30
0.0
  0
SPLINE
  5
2F7
100
AcDbEntity
  8
0
100
AcDbSpline
 62
7
  6
BYLAYER
 70
0
 71
3
 72
12
 73
8
 74
0
 42
0.0000001
 43
0.0000001
 44
0.0000000001
 40
0.0
 40
0.0
 40
0.0
 40
0.0
 40
0.1124137365
 40
0.2262539809
 40
0.4629532353
 40
0.7191811438
 40
1.0
 40
1.0
 40
1.0
 40
1.0
 10
130.263520168
 20
253.095925369
 30
0.0
 10
130.2166393622
 20
253.0688618872
 30
0.0
 10
130.1259723622
 20
253.0076878316
 30
0.0
 10
129.9595884114
 20
252.8584352032
 30
0.0
 10
129.7837701585
 20
252.6207770309
 30
0.0
 10
129.6364143081
 20
252.2757275049
 30
0.0
 10
129.5820649239
 20
252.0212892752
 30
0.0
 10
129.5640101686
 20
251.8872744839
 30
0.0
  0
SPLINE
  5
2F8
100
AcDbEntity
  8
0
100
AcDbSpline
 62
7
  6
BYLAYER
 70
0
 71
3
 72
23
 73
19
 74
0
 42
0.0000001
 43
0.0000001
 44
0.0000000001
 40
0.0
 40
0.0
 40
0.0
 40
0.0
 40
0.0428145732
 40
0.0873965899
 40
0.1351794337
 40
0.1870886335
 40
0.2435352359
 40
0.3044927244
 40
0.3695906967
 40
0.4381987378
 40
0.5094963857
 40
0.58253212
 40
0.6562753053
 40
0.7296640647
 40
0.8016520722
 40
0.8712561022
 40
0.9376062752
 40
1.0
 40
1.0
 40
1.0
 40
1.0
 10
134.1525909538
 20
255.3412687919
 30
0.0
 10
134.2388825276
 20
255.3910836303
 30
0.0
 10
134.4290891133
 20
255.4701471932
 30
0.0
 10
134.7430742369
 20
255.516161332
 30
0.0
 10
135.0802413358
 20
255.4913428766
 30
0.0
 10
135.4331088776
 20
255.3975892953
 30
0.0
 10
135.7947471274
 20
255.2377620841
 30
0.0
 10
136.1579574745
 20
255.0155528312
 30
0.0
 10
136.5153620434
 20
254.7357478111
 30
0.0
 10
136.859539733
 20
254.4042761978
 30
0.0
 10
137.183247368
 20
254.0281643181
 30
0.0
 10
137.4796175273
 20
253.6154076575
 30
0.0
 10
137.7423367301
 20
253.1748026071
 30
0.0
 10
137.9658014186
 20
252.7157462668
 30
0.0
 10
138.1452446917
 20
252.2480329243
 30
0.0
 10
138.2768475024
 20
251.7815759816
 30
0.0
 10
138.3577936717
 20
251.3263516995
 30
0.0
 10
138.3774652522
 20
251.0265387578
 30
0.0
 10
138.3774652522
 20
250.8813360237
 30
0.0
  0
SPLINE
  5
2F9
100
AcDbEntity
  8
0
100
AcDbSpline
 62
7
  6
BYLAYER
 70
0
 71
3
 72
17
 73
13
 74
0
 42
0.0000001
 43
0.0000001
 44
0.0000000001
 40
0.0
 40
0.0
 40
0.0
 40
0.0
 40
0.0430983705
 40
0.0875019804
 40
0.1343333447
 40
0.1844121873
 40
0.2957388635
 40
0.4223413014
 40
0.56138207
 40
0.7079854159
 40
0.8562289062
 40
1.0
 40
1.0
 40
1.0
 40
1.0
 10
131.1758900065
 20
251.44630753
 30
0.0
 10
131.2104702923
 20
251.4662723807
 30
0.0
 10
131.285384842
 20
251.4991725424
 30
0.0
 10
131.4081527706
 20
251.5241419128
 30
0.0
 10
131.5398196781
 20
251.5249963356
 30
0.0
 10
131.7309053692
 20
251.4932368994
 30
0.0
 10
131.9806052052
 20
251.3900271888
 30
0.0
 10
132.2682580173
 20
251.1885177648
 30
0.0
 10
132.5394196619
 20
250.9171153869
 30
0.0
 10
132.7780870635
 20
250.5918624957
 30
0.0
 10
132.9701287117
 20
250.2322689394
 30
0.0
 10
133.0620766483
 20
249.9764730633
 30
0.0
 10
133.0965472557
 20
249.8478093846
 30
0.0
  0
SPLINE
  5
2FA
100
AcDbEntity
  8
0
100
AcDbSpline
 62
7
  6
BYLAYER
 70
0
 71
3
 72
9
 73
5
 74
0
 42
0.0000001
 43
0.0000001
 44
0.0000000001
 40
0.0
 40
0.0
 40
0.0
 40
0.0
 40
0.242892792
 40
1.0
 40
1.0
 40
1.0
 40
1.0
 10
135.2761794633
 20
248.7118779295
 30
0.0
 10
135.2804449044
 20
248.7435389624
 30
0.0
 10
135.295625511
 20
248.8742045296
 30
0.0
 10
135.3015635604
 20
249.0058935868
 30
0.0
 10
135.3015635604
 20
249.1054739544
 30
0.0
  0
SPLINE
  5
2FB
100
AcDbEntity
  8
0
100
AcDbSpline
 62
7
  6
BYLAYER
 70
0
 71
3
 72
9
 73
5
 74
0
 42
0.0000001
 43
0.0000001
 44
0.0000000001
 40
0.0
 40
0.0
 40
0.0
 40
0.0
 40
0.2437922917
 40
1.0
 40
1.0
 40
1.0
 40
1.0
 10
135.3015635604
 20
249.1054739544
 30
0.0
 10
135.3015635604
 20
249.1399139381
 30
0.0
 10
135.2993514045
 20
249.281177232
 30
0.0
 10
135.2885502901
 20
249.4222712985
 30
0.0
 10
135.2761794633
 20
249.5283803467
 30
0.0
  0
SPLINE
  5
2FC
100
AcDbEntity
  8
0
100
AcDbSpline
 62
7
  6
BYLAYER
 70
0
 71
3
 72
10
 73
6
 74
0
 42
0.0000001
 43
0.0000001
 44
0.0000000001
 40
0.0
 40
0.0
 40
0.0
 40
0.0
 40
0.5193698961
 40
0.7624131913
 40
1.0
 40
1.0
 40
1.0
 40
1.0
 10
130.9052188973
 20
251.1129447811
 30
0.0
 10
130.9325596289
 20
251.1834261133
 30
0.0
 10
130.9870782602
 20
251.2829049755
 30
0.0
 10
131.0885330381
 20
251.3881559914
 30
0.0
 10
131.1459404873
 20
251.4290162421
 30
0.0
 10
131.1758900065
 20
251.44630753
 30
0.0
  0
SPLINE
  5
2FD
100
AcDbEntity
  8
0
100
AcDbSpline
 62
7
  6
BYLAYER
 70
0
 71
3
 72
23
 73
19
 74
0
 42
0.0000001
 43
0.0000001
 44
0.0000000001
 40
0.0
 40
0.0
 40
0.0
 40
0.0
 40
0.0661293061
 40
0.1353844402
 40
0.2070044943
 40
0.2801407969
 40
0.3538785798
 40
0.4272815261
 40
0.4994244734
 40
0.5694331904
 40
0.6365217228
 40
0.7000355535
 40
0.7595008246
 40
0.8146828245
 40
0.8656547676
 40
0.9128707953
 40
0.9572186435
 40
1.0
 40
1.0
 40
1.0
 40
1.0
 10
134.4630100505
 20
249.0588995697
 30
0.0
 10
134.4462686191
 20
249.2024968717
 30
0.0
 10
134.3961965983
 20
249.4947934834
 30
0.0
 10
134.2781568174
 20
249.9322632059
 30
0.0
 10
134.1174038644
 20
250.3722465667
 30
0.0
 10
133.9169958677
 20
250.8064060853
 30
0.0
 10
133.6806885917
 20
251.2265866612
 30
0.0
 10
133.4129472731
 20
251.6248626682
 30
0.0
 10
133.1188122343
 20
251.9937274149
 30
0.0
 10
132.803815536
 20
252.3262401537
 30
0.0
 10
132.4738480318
 20
252.6161600212
 30
0.0
 10
132.1350276326
 20
252.8580563577
 30
0.0
 10
131.7935513234
 20
253.0473848021
 30
0.0
 10
131.4555402533
 20
253.1804993859
 30
0.0
 10
131.1269677028
 20
253.2546016337
 30
0.0
 10
130.8136275386
 20
253.2675522751
 30
0.0
 10
130.521781948
 20
253.2180676318
 30
0.0
 10
130.3445195746
 20
253.1426849315
 30
0.0
 10
130.263520168
 20
253.095925369
 30
0.0
  0
SPLINE
  5
2FE
100
AcDbEntity
  8
0
100
AcDbSpline
 62
7
  6
BYLAYER
 70
0
 71
3
 72
12
 73
8
 74
0
 42
0.0000001
 43
0.0000001
 44
0.0000000001
 40
0.0
 40
0.0
 40
0.0
 40
0.0
 40
0.1124137365
 40
0.2262539809
 40
0.4629532353
 40
0.7191811438
 40
1.0
 40
1.0
 40
1.0
 40
1.0
 10
133.7635000512
 20
247.0337462675
 30
0.0
 10
133.810380857
 20
247.0608097493
 30
0.0
 10
133.9010478569
 20
247.1219838048
 30
0.0
 10
134.0674318077
 20
247.2712364333
 30
0.0
 10
134.2432500606
 20
247.5088946056
 30
0.0
 10
134.390605911
 20
247.8539441315
 30
0.0
 10
134.4449552952
 20
248.1083823613
 30
0.0
 10
134.4630100505
 20
248.2423971526
 30
0.0
  0
SPLINE
  5
2FF
100
AcDbEntity
  8
0
100
AcDbSpline
 62
7
  6
BYLAYER
 70
0
 71
3
 72
18
 73
14
 74
0
 42
0.0000001
 43
0.0000001
 44
0.0000000001
 40
0.0
 40
0.0
 40
0.0
 40
0.0
 40
0.0429277252
 40
0.0872642374
 40
0.1342058435
 40
0.1846023926
 40
0.2970983098
 40
0.3594480606
 40
0.4253851391
 40
0.5656691721
 40
0.7125529287
 40
0.8595032956
 40
1.0
 40
1.0
 40
1.0
 40
1.0
 10
132.8258767264
 20
248.5884296246
 30
0.0
 10
132.7898181807
 20
248.5676053116
 30
0.0
 10
132.7113652713
 20
248.53361465
 30
0.0
 10
132.5825536057
 20
248.5092111358
 30
0.0
 10
132.4443091215
 20
248.5110472024
 30
0.0
 10
132.2435702935
 20
248.5493835398
 30
0.0
 10
132.0412736814
 20
248.6395906108
 30
0.0
 10
131.8458439642
 20
248.7677520091
 30
0.0
 10
131.6429785239
 20
248.9318830211
 30
0.0
 10
131.4073443389
 20
249.1828337065
 30
0.0
 10
131.1689893422
 20
249.5318452536
 30
0.0
 10
130.9846300946
 20
249.9123047644
 30
0.0
 10
130.9026938931
 20
250.1804267302
 30
0.0
 10
130.8750308823
 20
250.3138710282
 30
0.0
  0
SPLINE
  5
300
100
AcDbEntity
  8
0
100
AcDbSpline
 62
7
  6
BYLAYER
 70
0
 71
3
 72
9
 73
5
 74
0
 42
0.0000001
 43
0.0000001
 44
0.0000000001
 40
0.0
 40
0.0
 40
0.0
 40
0.0
 40
0.263439987
 40
1.0
 40
1.0
 40
1.0
 40
1.0
 10
131.6473214428
 20
251.1604471121
 30
0.0
 10
131.6473214428
 20
251.1887132628
 30
0.0
 10
131.6502456507
 20
251.2959528866
 30
0.0
 10
131.6653946352
 20
251.4031381738
 30
0.0
 10
131.6853402542
 20
251.4796100357
 30
0.0
  0
SPLINE
  5
301
100
AcDbEntity
  8
0
100
AcDbSpline
 62
7
  6
BYLAYER
 70
0
 71
3
 72
9
 73
5
 74
0
 42
0.0000001
 43
0.0000001
 44
0.0000000001
 40
0.0
 40
0.0
 40
0.0
 40
0.0
 40
0.2605197037
 40
1.0
 40
1.0
 40
1.0
 40
1.0
 10
131.6882002951
 20
250.7833518052
 30
0.0
 10
131.6815079213
 20
250.8156353164
 30
0.0
 10
131.6586379322
 20
250.9400995863
 30
0.0
 10
131.6473214428
 20
251.0668627265
 30
0.0
 10
131.6473214428
 20
251.1604471121
 30
0.0
  0
SPLINE
  5
302
100
AcDbEntity
  8
_1
100
AcDbSpline
 62
7
  6
BYLAYER
 70
0
 71
3
 72
11
 73
7
 74
0
 42
0.0000001
 43
0.0000001
 44
0.0000000001
 40
0.0
 40
0.0
 40
0.0
 40
0.0
 40
0.2372294888
 40
0.5000010919
 40
0.7627721007
 40
1.0
 40
1.0
 40
1.0
 40
1.0
 10
39.4441946186
 20
134.9006818458
 30
0.0
 10
39.4441946186
 20
133.7415382897
 30
0.0
 10
39.8789511539
 20
131.2968652426
 30
0.0
 10
41.3944279386
 20
127.8616625919
 30
0.0
 10
43.6116714164
 20
124.831636208
 30
0.0
 10
45.5114451526
 20
123.2328081905
 30
0.0
 10
46.5152918701
 20
122.6532501293
 30
0.0
  0
SPLINE
  5
303
100
AcDbEntity
  8
_1
100
AcDbSpline
 62
7
  6
BYLAYER
 70
0
 71
3
 72
11
 73
7
 74
0
 42
0.0000001
 43
0.0000001
 44
0.0000000001
 40
0.0
 40
0.0
 40
0.0
 40
0.0
 40
0.289775222
 40
0.5490688033
 40
0.782225076
 40
1.0
 40
1.0
 40
1.0
 40
1.0
 10
202.0794314024
 20
32.8402841348
 30
0.0
 10
202.5183331827
 20
32.5868898064
 30
0.0
 10
203.3911371984
 20
32.1714709267
 30
0.0
 10
204.7328698778
 20
31.8477576274
 30
0.0
 10
205.9916169378
 20
31.8795048937
 30
0.0
 10
206.7495255583
 20
32.154669045
 30
0.0
 10
207.0793722642
 20
32.3451050044
 30
0.0
  0
SPLINE
  5
304
100
AcDbEntity
  8
_1
100
AcDbSpline
 62
7
  6
BYLAYER
 70
0
 71
3
 72
11
 73
7
 74
0
 42
0.0000001
 43
0.0000001
 44
0.0000000001
 40
0.0
 40
0.0
 40
0.0
 40
0.0
 40
0.2372278993
 40
0.4999989081
 40
0.7627705112
 40
1.0
 40
1.0
 40
1.0
 40
1.0
 10
187.9372368995
 20
220.6356309937
 30
0.0
 10
188.941083617
 20
220.0560729325
 30
0.0
 10
190.8408573532
 20
218.457244915
 30
0.0
 10
193.058100831
 20
215.427218531
 30
0.0
 10
194.5735776157
 20
211.9920158803
 30
0.0
 10
195.008334151
 20
209.5473428332
 30
0.0
 10
195.008334151
 20
208.3881992772
 30
0.0
  0
SPLINE
  5
305
100
AcDbEntity
  8
_1
100
AcDbSpline
 62
7
  6
BYLAYER
 70
0
 71
3
 72
11
 73
7
 74
0
 42
0.0000001
 43
0.0000001
 44
0.0000000001
 40
0.0
 40
0.0
 40
0.0
 40
0.0
 40
0.289775222
 40
0.5490688033
 40
0.782225076
 40
1.0
 40
1.0
 40
1.0
 40
1.0
 10
139.8537755895
 20
208.3873838617
 30
0.0
 10
140.2926773697
 20
208.1339895333
 30
0.0
 10
141.1654813855
 20
207.7185706536
 30
0.0
 10
142.5072140648
 20
207.3948573543
 30
0.0
 10
143.7659611249
 20
207.4266046206
 30
0.0
 10
144.5238697453
 20
207.7017687719
 30
0.0
 10
144.8537164513
 20
207.8922047313
 30
0.0
  0
SPLINE
  5
306
100
AcDbEntity
  8
_1
100
AcDbSpline
 62
7
  6
BYLAYER
 70
0
 71
3
 72
11
 73
7
 74
0
 42
0.0000001
 43
0.0000001
 44
0.0000000001
 40
0.0
 40
0.0
 40
0.0
 40
0.0
 40
0.2372294888
 40
0.5000010919
 40
0.7627721007
 40
1.0
 40
1.0
 40
1.0
 40
1.0
 10
101.6698504316
 20
238.5974087771
 30
0.0
 10
101.6698504316
 20
237.4382652211
 30
0.0
 10
102.1046069668
 20
234.993592174
 30
0.0
 10
103.6200837516
 20
231.5583895233
 30
0.0
 10
105.8373272294
 20
228.5283631393
 30
0.0
 10
107.7371009655
 20
226.9295351219
 30
0.0
 10
108.740947683
 20
226.3499770606
 30
0.0
  0
SPLINE
  5
307
100
AcDbEntity
  8
_1
100
AcDbSpline
 62
7
  6
BYLAYER
 70
0
 71
3
 72
11
 73
7
 74
0
 42
0.0000001
 43
0.0000001
 44
0.0000000001
 40
0.0
 40
0.0
 40
0.0
 40
0.0
 40
0.2372278993
 40
0.4999989081
 40
0.7627705112
 40
1.0
 40
1.0
 40
1.0
 40
1.0
 10
94.5987531801
 20
274.5234105904
 30
0.0
 10
95.6025998976
 20
273.9438525292
 30
0.0
 10
97.5023736338
 20
272.3450245117
 30
0.0
 10
99.7196171116
 20
269.3149981277
 30
0.0
 10
101.2350938963
 20
265.879795477
 30
0.0
 10
101.6698504316
 20
263.4351224299
 30
0.0
 10
101.6698504316
 20
262.2759788739
 30
0.0
  0
SPLINE
  5
308
100
AcDbEntity
  8
_1
100
AcDbSpline
 62
7
  6
BYLAYER
 70
0
 71
3
 72
9
 73
5
 74
0
 42
0.0000001
 43
0.0000001
 44
0.0000000001
 40
0.0
 40
0.0
 40
0.0
 40
0.0
 40
0.2767329087
 40
1.0
 40
1.0
 40
1.0
 40
1.0
 10
195.008334151
 20
61.4177641939
 30
0.0
 10
195.008334151
 20
61.103636418
 30
0.0
 10
194.9526175862
 20
59.9725095658
 30
0.0
 10
194.6441915672
 20
58.8299173314
 30
0.0
 10
194.2202371864
 20
58.1268476095
 30
0.0
  0
SPLINE
  5
309
100
AcDbEntity
  8
_1
100
AcDbSpline
 62
7
  6
BYLAYER
 70
0
 71
3
 72
9
 73
5
 74
0
 42
0.0000001
 43
0.0000001
 44
0.0000000001
 40
0.0
 40
0.0
 40
0.0
 40
0.0
 40
0.5110433721
 40
1.0
 40
1.0
 40
1.0
 40
1.0
 10
194.2202371864
 20
58.1268476095
 30
0.0
 10
194.0590814459
 20
57.8595930963
 30
0.0
 10
193.684897575
 20
57.368567595
 30
0.0
 10
193.1957695557
 20
56.9892655975
 30
0.0
 10
192.9371777613
 20
56.8399684374
 30
0.0
  0
SPLINE
  5
30A
100
AcDbEntity
  8
_1
100
AcDbSpline
 62
7
  6
BYLAYER
 70
0
 71
3
 72
13
 73
9
 74
0
 42
0.0000001
 43
0.0000001
 44
0.0000000001
 40
0.0
 40
0.0
 40
0.0
 40
0.0
 40
0.0871398081
 40
0.1868484731
 40
0.3045123423
 40
0.4386460221
 40
0.7300494215
 40
1.0
 40
1.0
 40
1.0
 40
1.0
 10
201.2451583963
 20
217.9866128748
 30
0.0
 10
201.3275969533
 20
218.0341456981
 30
0.0
 10
201.5346390536
 20
218.0873284405
 30
0.0
 10
201.8678828171
 20
218.0205550962
 30
0.0
 10
202.208447839
 20
217.8346871037
 30
0.0
 10
202.6551605017
 20
217.4385209475
 30
0.0
 10
203.0747611564
 20
216.789907954
 30
0.0
 10
203.2368730437
 20
216.1788908756
 30
0.0
 10
203.2368730437
 20
215.8840935627
 30
0.0
  0
SPLINE
  5
30B
100
AcDbEntity
  8
_1
100
AcDbSpline
 62
7
  6
BYLAYER
 70
0
 71
3
 72
13
 73
9
 74
0
 42
0.0000001
 43
0.0000001
 44
0.0000000001
 40
0.0
 40
0.0
 40
0.0
 40
0.0
 40
0.0871398081
 40
0.1868484731
 40
0.3045123423
 40
0.4386460221
 40
0.7300494215
 40
1.0
 40
1.0
 40
1.0
 40
1.0
 10
201.2451583963
 20
168.996467847
 30
0.0
 10
201.3275969533
 20
169.0440006704
 30
0.0
 10
201.5346390536
 20
169.0971834128
 30
0.0
 10
201.8678828171
 20
169.0304100684
 30
0.0
 10
202.208447839
 20
168.844542076
 30
0.0
 10
202.6551605017
 20
168.4483759197
 30
0.0
 10
203.0747611564
 20
167.7997629262
 30
0.0
 10
203.2368730437
 20
167.1887458478
 30
0.0
 10
203.2368730437
 20
166.8939485349
 30
0.0
  0
SPLINE
  5
30C
100
AcDbEntity
  8
_1
100
AcDbSpline
 62
7
  6
BYLAYER
 70
0
 71
3
 72
9
 73
5
 74
0
 42
0.0000001
 43
0.0000001
 44
0.0000000001
 40
0.0
 40
0.0
 40
0.0
 40
0.0
 40
0.2593287631
 40
1.0
 40
1.0
 40
1.0
 40
1.0
 10
192.1690365039
 20
57.0674556713
 30
0.0
 10
192.2854838623
 20
57.0639964121
 30
0.0
 10
192.7347166547
 20
57.0679037371
 30
0.0
 10
193.184438756
 20
57.1457870865
 30
0.0
 10
193.5006598981
 20
57.2493027377
 30
0.0
  0
SPLINE
  5
30D
100
AcDbEntity
  8
_1
100
AcDbSpline
 62
7
  6
BYLAYER
 70
0
 71
3
 72
13
 73
9
 74
0
 42
0.0000001
 43
0.0000001
 44
0.0000000001
 40
0.0
 40
0.0
 40
0.0
 40
0.0
 40
0.0871398081
 40
0.1868484731
 40
0.3045123423
 40
0.4386460221
 40
0.7300494215
 40
1.0
 40
1.0
 40
1.0
 40
1.0
 10
201.2451583963
 20
46.5211052775
 30
0.0
 10
201.3275969533
 20
46.5686381009
 30
0.0
 10
201.5346390536
 20
46.6218208433
 30
0.0
 10
201.8678828171
 20
46.555047499
 30
0.0
 10
202.208447839
 20
46.3691795065
 30
0.0
 10
202.6551605017
 20
45.9730133503
 30
0.0
 10
203.0747611564
 20
45.3244003567
 30
0.0
 10
203.2368730437
 20
44.7133832783
 30
0.0
 10
203.2368730437
 20
44.4185859655
 30
0.0
  0
SPLINE
  5
30E
100
AcDbEntity
  8
_1
100
AcDbSpline
 62
7
  6
BYLAYER
 70
0
 71
3
 72
13
 73
9
 74
0
 42
0.0000001
 43
0.0000001
 44
0.0000000001
 40
0.0
 40
0.0
 40
0.0
 40
0.0
 40
0.0871398081
 40
0.1868484731
 40
0.3045123423
 40
0.4386460221
 40
0.7300494215
 40
1.0
 40
1.0
 40
1.0
 40
1.0
 10
45.6995976743
 20
136.3233450335
 30
0.0
 10
45.7820362314
 20
136.3708778569
 30
0.0
 10
45.9890783316
 20
136.4240605993
 30
0.0
 10
46.3223220952
 20
136.357287255
 30
0.0
 10
46.6628871171
 20
136.1714192625
 30
0.0
 10
47.1095997797
 20
135.7752531063
 30
0.0
 10
47.5292004345
 20
135.1266401127
 30
0.0
 10
47.6913123218
 20
134.5156230343
 30
0.0
 10
47.6913123218
 20
134.2208257214
 30
0.0
  0
SPLINE
  5
30F
100
AcDbEntity
  8
_1
100
AcDbSpline
 62
7
  6
BYLAYER
 70
0
 71
3
 72
13
 73
9
 74
0
 42
0.0000001
 43
0.0000001
 44
0.0000000001
 40
0.0
 40
0.0
 40
0.0
 40
0.0
 40
0.0871398081
 40
0.1868484731
 40
0.3045123423
 40
0.4386460221
 40
0.7300494215
 40
1.0
 40
1.0
 40
1.0
 40
1.0
 10
45.6995976743
 20
258.7987076029
 30
0.0
 10
45.7820362314
 20
258.8462404263
 30
0.0
 10
45.9890783316
 20
258.8994231687
 30
0.0
 10
46.3223220952
 20
258.8326498244
 30
0.0
 10
46.6628871171
 20
258.6467818319
 30
0.0
 10
47.1095997797
 20
258.2506156757
 30
0.0
 10
47.5292004345
 20
257.6020026821
 30
0.0
 10
47.6913123218
 20
256.9909856037
 30
0.0
 10
47.6913123218
 20
256.6961882909
 30
0.0
  0
SPLINE
  5
310
100
AcDbEntity
  8
_1
100
AcDbSpline
 62
7
  6
BYLAYER
 70
0
 71
3
 72
13
 73
9
 74
0
 42
0.0000001
 43
0.0000001
 44
0.0000000001
 40
0.0
 40
0.0
 40
0.0
 40
0.0
 40
0.0871398081
 40
0.1868484731
 40
0.3045123423
 40
0.4386460221
 40
0.7300494215
 40
1.0
 40
1.0
 40
1.0
 40
1.0
 10
45.6995976743
 20
307.7888526307
 30
0.0
 10
45.7820362314
 20
307.8363854541
 30
0.0
 10
45.9890783316
 20
307.8895681965
 30
0.0
 10
46.3223220952
 20
307.8227948522
 30
0.0
 10
46.6628871171
 20
307.6369268597
 30
0.0
 10
47.1095997797
 20
307.2407607035
 30
0.0
 10
47.5292004345
 20
306.5921477099
 30
0.0
 10
47.6913123218
 20
305.9811306315
 30
0.0
 10
47.6913123218
 20
305.6863333186
 30
0.0
  0
SPLINE
  5
311
100
AcDbEntity
  8
_1
100
AcDbSpline
 62
7
  6
BYLAYER
 70
0
 71
3
 72
11
 73
7
 74
0
 42
0.0000001
 43
0.0000001
 44
0.0000000001
 40
0.0
 40
0.0
 40
0.0
 40
0.0
 40
0.2391608626
 40
0.500250031
 40
0.7612617984
 40
1.0
 40
1.0
 40
1.0
 40
1.0
 10
46.5616912956
 20
307.6531960468
 30
0.0
 10
46.5701548213
 20
307.4720711506
 30
0.0
 10
46.6467102344
 20
307.0954819429
 30
0.0
 10
46.8852724513
 20
306.5657387263
 30
0.0
 10
47.2253167346
 20
306.0951016696
 30
0.0
 10
47.5132239075
 20
305.841099552
 30
0.0
 10
47.6658071654
 20
305.743733729
 30
0.0
  0
SPLINE
  5
312
100
AcDbEntity
  8
_1
100
AcDbSpline
 62
7
  6
BYLAYER
 70
0
 71
3
 72
11
 73
7
 74
0
 42
0.0000001
 43
0.0000001
 44
0.0000000001
 40
0.0
 40
0.0
 40
0.0
 40
0.0
 40
0.2391608626
 40
0.500250031
 40
0.7612617984
 40
1.0
 40
1.0
 40
1.0
 40
1.0
 10
46.5616912956
 20
258.6630510191
 30
0.0
 10
46.5701548213
 20
258.4819261228
 30
0.0
 10
46.6467102344
 20
258.1053369152
 30
0.0
 10
46.8852724513
 20
257.5755936985
 30
0.0
 10
47.2253167346
 20
257.1049566418
 30
0.0
 10
47.5132239075
 20
256.8509545242
 30
0.0
 10
47.6658071654
 20
256.7535887012
 30
0.0
  0
SPLINE
  5
313
100
AcDbEntity
  8
_1
100
AcDbSpline
 62
7
  6
BYLAYER
 70
0
 71
3
 72
11
 73
7
 74
0
 42
0.0000001
 43
0.0000001
 44
0.0000000001
 40
0.0
 40
0.0
 40
0.0
 40
0.0
 40
0.2391608626
 40
0.500250031
 40
0.7612617984
 40
1.0
 40
1.0
 40
1.0
 40
1.0
 10
46.5616912956
 20
136.1876884496
 30
0.0
 10
46.5701548213
 20
136.0065635534
 30
0.0
 10
46.6467102344
 20
135.6299743457
 30
0.0
 10
46.8852724513
 20
135.1002311291
 30
0.0
 10
47.2253167346
 20
134.6295940723
 30
0.0
 10
47.5132239075
 20
134.3755919548
 30
0.0
 10
47.6658071654
 20
134.2782261317
 30
0.0
  0
SPLINE
  5
314
100
AcDbEntity
  8
_1
100
AcDbSpline
 62
7
  6
BYLAYER
 70
0
 71
3
 72
11
 73
7
 74
0
 42
0.0000001
 43
0.0000001
 44
0.0000000001
 40
0.0
 40
0.0
 40
0.0
 40
0.0
 40
0.2391608626
 40
0.500250031
 40
0.7612617984
 40
1.0
 40
1.0
 40
1.0
 40
1.0
 10
202.1072520176
 20
46.3854486937
 30
0.0
 10
202.1157155432
 20
46.2043237975
 30
0.0
 10
202.1922709564
 20
45.8277345898
 30
0.0
 10
202.4308331733
 20
45.2979913731
 30
0.0
 10
202.7708774566
 20
44.8273543164
 30
0.0
 10
203.0587846295
 20
44.5733521988
 30
0.0
 10
203.2113678873
 20
44.4759863758
 30
0.0
  0
SPLINE
  5
315
100
AcDbEntity
  8
_1
100
AcDbSpline
 62
7
  6
BYLAYER
 70
0
 71
3
 72
11
 73
7
 74
0
 42
0.0000001
 43
0.0000001
 44
0.0000000001
 40
0.0
 40
0.0
 40
0.0
 40
0.0
 40
0.2391608626
 40
0.500250031
 40
0.7612617984
 40
1.0
 40
1.0
 40
1.0
 40
1.0
 10
202.1072520176
 20
168.8608112631
 30
0.0
 10
202.1157155432
 20
168.6796863669
 30
0.0
 10
202.1922709564
 20
168.3030971592
 30
0.0
 10
202.4308331733
 20
167.7733539426
 30
0.0
 10
202.7708774566
 20
167.3027168858
 30
0.0
 10
203.0587846295
 20
167.0487147683
 30
0.0
 10
203.2113678873
 20
166.9513489452
 30
0.0
  0
SPLINE
  5
316
100
AcDbEntity
  8
_1
100
AcDbSpline
 62
7
  6
BYLAYER
 70
0
 71
3
 72
11
 73
7
 74
0
 42
0.0000001
 43
0.0000001
 44
0.0000000001
 40
0.0
 40
0.0
 40
0.0
 40
0.0
 40
0.2391608626
 40
0.500250031
 40
0.7612617984
 40
1.0
 40
1.0
 40
1.0
 40
1.0
 10
202.1072520176
 20
217.8509562909
 30
0.0
 10
202.1157155432
 20
217.6698313947
 30
0.0
 10
202.1922709564
 20
217.293242187
 30
0.0
 10
202.4308331733
 20
216.7634989704
 30
0.0
 10
202.7708774566
 20
216.2928619136
 30
0.0
 10
203.0587846295
 20
216.038859796
 30
0.0
 10
203.2113678873
 20
215.941493973
 30
0.0
  0
SPLINE
  5
317
100
AcDbEntity
  8
_1
100
AcDbSpline
 62
7
  6
BYLAYER
 70
0
 71
3
 72
9
 73
5
 74
0
 42
0.0000001
 43
0.0000001
 44
0.0000000001
 40
0.0
 40
0.0
 40
0.0
 40
0.0
 40
0.2445745931
 40
1.0
 40
1.0
 40
1.0
 40
1.0
 10
149.2809274238
 20
240.6465541501
 30
0.0
 10
149.2365927117
 20
240.5938944381
 30
0.0
 10
149.0612246294
 20
240.3736468046
 30
0.0
 10
148.9097741162
 20
240.1346253864
 30
0.0
 10
148.808976176
 20
239.9474158916
 30
0.0
  0
SPLINE
  5
318
100
AcDbEntity
  8
_1
100
AcDbSpline
 62
7
  6
BYLAYER
 70
0
 71
3
 72
11
 73
7
 74
0
 42
0.0000001
 43
0.0000001
 44
0.0000000001
 40
0.0
 40
0.0
 40
0.0
 40
0.0
 40
0.217774924
 40
0.4509311967
 40
0.710224778
 40
1.0
 40
1.0
 40
1.0
 40
1.0
 10
148.9960292306
 20
240.7263663411
 30
0.0
 10
149.3258759366
 20
240.9168023005
 30
0.0
 10
150.0837845571
 20
241.1919664518
 30
0.0
 10
151.3425316171
 20
241.2237137181
 30
0.0
 10
152.6842642965
 20
240.9000004188
 30
0.0
 10
153.5570683122
 20
240.4845815391
 30
0.0
 10
153.9959700924
 20
240.2311872107
 30
0.0
  0
SPLINE
  5
319
100
AcDbEntity
  8
_1
100
AcDbSpline
 62
7
  6
BYLAYER
 70
0
 71
3
 72
9
 73
5
 74
0
 42
0.0000001
 43
0.0000001
 44
0.0000000001
 40
0.0
 40
0.0
 40
0.0
 40
0.0
 40
0.2445745931
 40
1.0
 40
1.0
 40
1.0
 40
1.0
 10
55.9424437044
 20
294.5343337468
 30
0.0
 10
55.8981089923
 20
294.4816740348
 30
0.0
 10
55.72274091
 20
294.2614264013
 30
0.0
 10
55.5712903968
 20
294.0224049831
 30
0.0
 10
55.4704924566
 20
293.8351954883
 30
0.0
  0
SPLINE
  5
31A
100
AcDbEntity
  8
_1
100
AcDbSpline
 62
7
  6
BYLAYER
 70
0
 71
3
 72
11
 73
7
 74
0
 42
0.0000001
 43
0.0000001
 44
0.0000000001
 40
0.0
 40
0.0
 40
0.0
 40
0.0
 40
0.217774924
 40
0.4509311967
 40
0.710224778
 40
1.0
 40
1.0
 40
1.0
 40
1.0
 10
55.6575455112
 20
294.6141459378
 30
0.0
 10
55.9873922172
 20
294.8045818972
 30
0.0
 10
56.7453008377
 20
295.0797460485
 30
0.0
 10
58.0040478977
 20
295.1114933148
 30
0.0
 10
59.3457805771
 20
294.7877800155
 30
0.0
 10
60.2185845928
 20
294.3723611358
 30
0.0
 10
60.657486373
 20
294.1189668074
 30
0.0
  0
SPLINE
  5
31B
100
AcDbEntity
  8
_1
100
AcDbSpline
 62
7
  6
BYLAYER
 70
0
 71
3
 72
11
 73
7
 74
0
 42
0.0000001
 43
0.0000001
 44
0.0000000001
 40
0.0
 40
0.0
 40
0.0
 40
0.0
 40
0.2177739674
 40
0.4509298424
 40
0.7102237828
 40
1.0
 40
1.0
 40
1.0
 40
1.0
 10
41.5153510083
 20
319.1090093708
 30
0.0
 10
41.1854969332
 20
318.9185691568
 30
0.0
 10
40.5682276647
 20
318.399771026
 30
0.0
 10
39.9113489072
 20
317.3255066109
 30
0.0
 10
39.5208263872
 20
316.0016349808
 30
0.0
 10
39.4441946186
 20
315.0380261593
 30
0.0
 10
39.4441946186
 20
314.5312136143
 30
0.0
  0
SPLINE
  5
31C
100
AcDbEntity
  8
_1
100
AcDbSpline
 62
7
  6
BYLAYER
 70
0
 71
3
 72
11
 73
7
 74
0
 42
0.0000001
 43
0.0000001
 44
0.0000000001
 40
0.0
 40
0.0
 40
0.0
 40
0.0
 40
0.2897762172
 40
0.5490701576
 40
0.7822260326
 40
1.0
 40
1.0
 40
1.0
 40
1.0
 10
53.5863891216
 20
290.0363501813
 30
0.0
 10
53.5863891216
 20
290.5431627263
 30
0.0
 10
53.6630208901
 20
291.5067715479
 30
0.0
 10
54.0535434101
 20
292.8306431779
 30
0.0
 10
54.7104221676
 20
293.904907593
 30
0.0
 10
55.3276914362
 20
294.4237057238
 30
0.0
 10
55.6575455112
 20
294.6141459378
 30
0.0
  0
SPLINE
  5
31D
100
AcDbEntity
  8
_1
100
AcDbSpline
 62
7
  6
BYLAYER
 70
0
 71
3
 72
11
 73
7
 74
0
 42
0.0000001
 43
0.0000001
 44
0.0000000001
 40
0.0
 40
0.0
 40
0.0
 40
0.0
 40
0.2372278993
 40
0.4999989081
 40
0.7627705112
 40
1.0
 40
1.0
 40
1.0
 40
1.0
 10
60.657486373
 20
130.8184833814
 30
0.0
 10
59.6536396555
 20
131.3980414427
 30
0.0
 10
57.7538659194
 20
132.9968694602
 30
0.0
 10
55.5366224416
 20
136.0268958441
 30
0.0
 10
54.0211456568
 20
139.4620984948
 30
0.0
 10
53.5863891216
 20
141.9067715419
 30
0.0
 10
53.5863891216
 20
143.0659150979
 30
0.0
  0
SPLINE
  5
31E
100
AcDbEntity
  8
_1
100
AcDbSpline
 62
7
  6
BYLAYER
 70
0
 71
3
 72
9
 73
5
 74
0
 42
0.0000001
 43
0.0000001
 44
0.0000000001
 40
0.0
 40
0.0
 40
0.0
 40
0.0
 40
0.2560193097
 40
1.0
 40
1.0
 40
1.0
 40
1.0
 10
44.8617683162
 20
319.3420935819
 30
0.0
 10
44.8001097808
 20
319.3605732316
 30
0.0
 10
44.5582046832
 20
319.4291032336
 30
0.0
 10
44.3119910257
 20
319.4826852438
 30
0.0
 10
44.1273772153
 20
319.5127837944
 30
0.0
  0
SPLINE
  5
31F
100
AcDbEntity
  8
_1
100
AcDbSpline
 62
7
  6
BYLAYER
 70
0
 71
3
 72
9
 73
5
 74
0
 42
0.0000001
 43
0.0000001
 44
0.0000000001
 40
0.0
 40
0.0
 40
0.0
 40
0.0
 40
0.5208789139
 40
1.0
 40
1.0
 40
1.0
 40
1.0
 10
44.1273772153
 20
319.5127837944
 30
0.0
 10
43.6675658211
 20
319.5877492398
 30
0.0
 10
42.7570092847
 20
319.6170978549
 30
0.0
 10
41.8864724192
 20
319.3232751514
 30
0.0
 10
41.5153510083
 20
319.1090093708
 30
0.0
  0
SPLINE
  5
320
100
AcDbEntity
  8
_1
100
AcDbSpline
 62
7
  6
BYLAYER
 70
0
 71
3
 72
13
 73
9
 74
0
 42
0.0000001
 43
0.0000001
 44
0.0000000001
 40
0.0
 40
0.0
 40
0.0
 40
0.0
 40
0.0871398081
 40
0.1868484731
 40
0.3045123423
 40
0.4386460221
 40
0.7300494215
 40
1.0
 40
1.0
 40
1.0
 40
1.0
 10
202.8951255982
 20
43.6632611433
 30
0.0
 10
202.8126870412
 20
43.6157283199
 30
0.0
 10
202.6056449409
 20
43.5625455775
 30
0.0
 10
202.2724011774
 20
43.6293189219
 30
0.0
 10
201.9318361555
 20
43.8151869143
 30
0.0
 10
201.4851234928
 20
44.2113530706
 30
0.0
 10
201.0655228381
 20
44.8599660641
 30
0.0
 10
200.9034109508
 20
45.4709831425
 30
0.0
 10
200.9034109508
 20
45.7657804554
 30
0.0
  0
SPLINE
  5
321
100
AcDbEntity
  8
_1
100
AcDbSpline
 62
7
  6
BYLAYER
 70
0
 71
3
 72
13
 73
9
 74
0
 42
0.0000001
 43
0.0000001
 44
0.0000000001
 40
0.0
 40
0.0
 40
0.0
 40
0.0
 40
0.0871398081
 40
0.1868484731
 40
0.3045123423
 40
0.4386460221
 40
0.7300494215
 40
1.0
 40
1.0
 40
1.0
 40
1.0
 10
47.3495648763
 20
133.4655008993
 30
0.0
 10
47.2671263192
 20
133.4179680759
 30
0.0
 10
47.060084219
 20
133.3647853335
 30
0.0
 10
46.7268404554
 20
133.4315586778
 30
0.0
 10
46.3862754335
 20
133.6174266703
 30
0.0
 10
45.9395627709
 20
134.0135928265
 30
0.0
 10
45.5199621161
 20
134.6622058201
 30
0.0
 10
45.3578502288
 20
135.2732228985
 30
0.0
 10
45.3578502288
 20
135.5680202113
 30
0.0
  0
SPLINE
  5
322
100
AcDbEntity
  8
_1
100
AcDbSpline
 62
7
  6
BYLAYER
 70
0
 71
3
 72
11
 73
7
 74
0
 42
0.0000001
 43
0.0000001
 44
0.0000000001
 40
0.0
 40
0.0
 40
0.0
 40
0.0
 40
0.2897762172
 40
0.5490701576
 40
0.7822260326
 40
1.0
 40
1.0
 40
1.0
 40
1.0
 10
146.924872841
 20
236.1485705846
 30
0.0
 10
146.924872841
 20
236.6553831296
 30
0.0
 10
147.0015046095
 20
237.6189919512
 30
0.0
 10
147.3920271295
 20
238.9428635812
 30
0.0
 10
148.048905887
 20
240.0171279964
 30
0.0
 10
148.6661751556
 20
240.5359261271
 30
0.0
 10
148.9960292306
 20
240.7263663411
 30
0.0
  0
SPLINE
  5
323
100
AcDbEntity
  8
_1
100
AcDbSpline
 62
7
  6
BYLAYER
 70
0
 71
3
 72
13
 73
9
 74
0
 42
0.0000001
 43
0.0000001
 44
0.0000000001
 40
0.0
 40
0.0
 40
0.0
 40
0.0
 40
0.0871398081
 40
0.1868484731
 40
0.3045123423
 40
0.4386460221
 40
0.7300494215
 40
1.0
 40
1.0
 40
1.0
 40
1.0
 10
47.3495648763
 20
255.9408634687
 30
0.0
 10
47.2671263192
 20
255.8933306453
 30
0.0
 10
47.060084219
 20
255.8401479029
 30
0.0
 10
46.7268404554
 20
255.9069212472
 30
0.0
 10
46.3862754335
 20
256.0927892397
 30
0.0
 10
45.9395627709
 20
256.488955396
 30
0.0
 10
45.5199621161
 20
257.1375683895
 30
0.0
 10
45.3578502288
 20
257.7485854679
 30
0.0
 10
45.3578502288
 20
258.0433827808
 30
0.0
  0
SPLINE
  5
324
100
AcDbEntity
  8
_1
100
AcDbSpline
 62
7
  6
BYLAYER
 70
0
 71
3
 72
9
 73
5
 74
0
 42
0.0000001
 43
0.0000001
 44
0.0000000001
 40
0.0
 40
0.0
 40
0.0
 40
0.0
 40
0.2472512254
 40
1.0
 40
1.0
 40
1.0
 40
1.0
 10
144.8537164513
 20
207.8922047313
 30
0.0
 10
144.939615508
 20
207.9417982818
 30
0.0
 10
145.278088865
 20
208.1576719265
 30
0.0
 10
145.5764093632
 20
208.4350268498
 30
0.0
 10
145.7708947815
 20
208.6660319839
 30
0.0
  0
SPLINE
  5
325
100
AcDbEntity
  8
_1
100
AcDbSpline
 62
7
  6
BYLAYER
 70
0
 71
3
 72
9
 73
5
 74
0
 42
0.0000001
 43
0.0000001
 44
0.0000000001
 40
0.0
 40
0.0
 40
0.0
 40
0.0
 40
0.2399880016
 40
1.0
 40
1.0
 40
1.0
 40
1.0
 10
145.7708947815
 20
208.6660319839
 30
0.0
 10
145.847532851
 20
208.7570608523
 30
0.0
 10
146.1489595434
 20
209.151401126
 30
0.0
 10
146.3760153513
 20
209.6000777889
 30
0.0
 10
146.5094604776
 20
209.9524992548
 30
0.0
  0
SPLINE
  5
326
100
AcDbEntity
  8
_1
100
AcDbSpline
 62
7
  6
BYLAYER
 70
0
 71
3
 72
9
 73
5
 74
0
 42
0.0000001
 43
0.0000001
 44
0.0000000001
 40
0.0
 40
0.0
 40
0.0
 40
0.0
 40
0.2442053331
 40
1.0
 40
1.0
 40
1.0
 40
1.0
 10
146.5094604776
 20
209.9524992548
 30
0.0
 10
146.5312027062
 20
210.0099193216
 30
0.0
 10
146.6161593552
 20
210.2465821729
 30
0.0
 10
146.6850587907
 20
210.488932731
 30
0.0
 10
146.7288229754
 20
210.6738478571
 30
0.0
  0
SPLINE
  5
327
100
AcDbEntity
  8
_1
100
AcDbSpline
 62
7
  6
BYLAYER
 70
0
 71
3
 72
11
 73
7
 74
0
 42
0.0000001
 43
0.0000001
 44
0.0000000001
 40
0.0
 40
0.0
 40
0.0
 40
0.0
 40
0.24435732
 40
0.5000007788
 40
0.7556438342
 40
1.0
 40
1.0
 40
1.0
 40
1.0
 10
208.9035330826
 20
218.8352462188
 30
0.0
 10
208.7369108445
 20
219.6401192594
 30
0.0
 10
208.2437113353
 20
221.2576290538
 30
0.0
 10
207.1344143615
 20
223.5544223138
 30
0.0
 10
205.6999727099
 20
225.6634876226
 30
0.0
 10
204.5457637561
 20
226.899355004
 30
0.0
 10
203.932033221
 20
227.4460834835
 30
0.0
  0
SPLINE
  5
328
100
AcDbEntity
  8
_1
100
AcDbSpline
 62
7
  6
BYLAYER
 70
0
 71
3
 72
13
 73
9
 74
0
 42
0.0000001
 43
0.0000001
 44
0.0000000001
 40
0.0
 40
0.0
 40
0.0
 40
0.0
 40
0.0871398081
 40
0.1868484731
 40
0.3045123423
 40
0.4386460221
 40
0.7300494215
 40
1.0
 40
1.0
 40
1.0
 40
1.0
 10
47.3495648763
 20
304.9310084965
 30
0.0
 10
47.2671263192
 20
304.8834756731
 30
0.0
 10
47.060084219
 20
304.8302929307
 30
0.0
 10
46.7268404554
 20
304.897066275
 30
0.0
 10
46.3862754335
 20
305.0829342675
 30
0.0
 10
45.9395627709
 20
305.4791004237
 30
0.0
 10
45.5199621161
 20
306.1277134173
 30
0.0
 10
45.3578502288
 20
306.7387304957
 30
0.0
 10
45.3578502288
 20
307.0335278086
 30
0.0
  0
SPLINE
  5
329
100
AcDbEntity
  8
_1
100
AcDbSpline
 62
7
  6
BYLAYER
 70
0
 71
3
 72
11
 73
7
 74
0
 42
0.0000001
 43
0.0000001
 44
0.0000000001
 40
0.0
 40
0.0
 40
0.0
 40
0.0
 40
0.217774924
 40
0.4509311967
 40
0.710224778
 40
1.0
 40
1.0
 40
1.0
 40
1.0
 10
192.9371777613
 20
56.8399684374
 30
0.0
 10
192.6073310553
 20
56.649532478
 30
0.0
 10
191.8494224348
 20
56.3743683267
 30
0.0
 10
190.5906753748
 20
56.3426210604
 30
0.0
 10
189.2489426955
 20
56.6663343597
 30
0.0
 10
188.3761386797
 20
57.0817532394
 30
0.0
 10
187.9372368995
 20
57.3351475678
 30
0.0
  0
SPLINE
  5
32A
100
AcDbEntity
  8
_1
100
AcDbSpline
 62
7
  6
BYLAYER
 70
0
 71
3
 72
9
 73
5
 74
0
 42
0.0000001
 43
0.0000001
 44
0.0000000001
 40
0.0
 40
0.0
 40
0.0
 40
0.0
 40
0.2472512254
 40
1.0
 40
1.0
 40
1.0
 40
1.0
 10
207.0793722642
 20
32.3451050044
 30
0.0
 10
207.1652713209
 20
32.3946985549
 30
0.0
 10
207.503744678
 20
32.6105721996
 30
0.0
 10
207.8020651762
 20
32.8879271228
 30
0.0
 10
207.9965505944
 20
33.118932257
 30
0.0
  0
SPLINE
  5
32B
100
AcDbEntity
  8
_1
100
AcDbSpline
 62
7
  6
BYLAYER
 70
0
 71
3
 72
9
 73
5
 74
0
 42
0.0000001
 43
0.0000001
 44
0.0000000001
 40
0.0
 40
0.0
 40
0.0
 40
0.0
 40
0.2399880016
 40
1.0
 40
1.0
 40
1.0
 40
1.0
 10
207.9965505944
 20
33.118932257
 30
0.0
 10
208.073188664
 20
33.2099611254
 30
0.0
 10
208.3746153563
 20
33.6043013991
 30
0.0
 10
208.6016711643
 20
34.052978062
 30
0.0
 10
208.7351162905
 20
34.4053995279
 30
0.0
  0
SPLINE
  5
32C
100
AcDbEntity
  8
_1
100
AcDbSpline
 62
7
  6
BYLAYER
 70
0
 71
3
 72
9
 73
5
 74
0
 42
0.0000001
 43
0.0000001
 44
0.0000000001
 40
0.0
 40
0.0
 40
0.0
 40
0.0
 40
0.2442053331
 40
1.0
 40
1.0
 40
1.0
 40
1.0
 10
208.7351162905
 20
34.4053995279
 30
0.0
 10
208.7568585191
 20
34.4628195946
 30
0.0
 10
208.8418151681
 20
34.699482446
 30
0.0
 10
208.9107146036
 20
34.941833004
 30
0.0
 10
208.9544787883
 20
35.1267481302
 30
0.0
  0
SPLINE
  5
32D
100
AcDbEntity
  8
_1
100
AcDbSpline
 62
7
  6
BYLAYER
 70
0
 71
3
 72
13
 73
9
 74
0
 42
0.0000001
 43
0.0000001
 44
0.0000000001
 40
0.0
 40
0.0
 40
0.0
 40
0.0
 40
0.0871398081
 40
0.1868484731
 40
0.3045123423
 40
0.4386460221
 40
0.7300494215
 40
1.0
 40
1.0
 40
1.0
 40
1.0
 10
202.8951255982
 20
215.1287687405
 30
0.0
 10
202.8126870412
 20
215.0812359172
 30
0.0
 10
202.6056449409
 20
215.0280531748
 30
0.0
 10
202.2724011774
 20
215.0948265191
 30
0.0
 10
201.9318361555
 20
215.2806945116
 30
0.0
 10
201.4851234928
 20
215.6768606678
 30
0.0
 10
201.0655228381
 20
216.3254736613
 30
0.0
 10
200.9034109508
 20
216.9364907397
 30
0.0
 10
200.9034109508
 20
217.2312880526
 30
0.0
  0
SPLINE
  5
32E
100
AcDbEntity
  8
_1
100
AcDbSpline
 62
7
  6
BYLAYER
 70
0
 71
3
 72
13
 73
9
 74
0
 42
0.0000001
 43
0.0000001
 44
0.0000000001
 40
0.0
 40
0.0
 40
0.0
 40
0.0
 40
0.0871398081
 40
0.1868484731
 40
0.3045123423
 40
0.4386460221
 40
0.7300494215
 40
1.0
 40
1.0
 40
1.0
 40
1.0
 10
202.8951255982
 20
166.1386237128
 30
0.0
 10
202.8126870412
 20
166.0910908894
 30
0.0
 10
202.6056449409
 20
166.037908147
 30
0.0
 10
202.2724011774
 20
166.1046814913
 30
0.0
 10
201.9318361555
 20
166.2905494838
 30
0.0
 10
201.4851234928
 20
166.68671564
 30
0.0
 10
201.0655228381
 20
167.3353286336
 30
0.0
 10
200.9034109508
 20
167.946345712
 30
0.0
 10
200.9034109508
 20
168.2411430248
 30
0.0
  0
SPLINE
  5
32F
100
AcDbEntity
  8
0
100
AcDbSpline
 62
7
  6
BYLAYER
 70
0
 71
3
 72
13
 73
9
 74
0
 42
0.0000001
 43
0.0000001
 44
0.0000000001
 40
0.0
 40
0.0
 40
0.0
 40
0.0
 40
0.114249308
 40
0.237548547
 40
0.5000010844
 40
0.7624530283
 40
0.8857515741
 40
1.0
 40
1.0
 40
1.0
 40
1.0
 10
53.3742579704
 20
145.3929491032
 30
0.0
 10
53.3742579704
 20
144.666352878
 30
0.0
 10
53.5073388192
 20
143.1540778756
 30
0.0
 10
54.2300993356
 20
140.049597657
 30
0.0
 10
55.9089192199
 20
136.2418535022
 30
0.0
 10
58.3671253396
 20
132.8840950473
 30
0.0
 10
60.6943076616
 20
130.7059500495
 30
0.0
 10
61.9374349075
 20
129.8345770154
 30
0.0
 10
62.5666843973
 20
129.4712878717
 30
0.0
  0
SPLINE
  5
330
100
AcDbEntity
  8
0
100
AcDbSpline
 62
7
  6
BYLAYER
 70
0
 71
3
 72
9
 73
5
 74
0
 42
0.0000001
 43
0.0000001
 44
0.0000000001
 40
0.0
 40
0.0
 40
0.0
 40
0.0
 40
0.2652597984
 40
1.0
 40
1.0
 40
1.0
 40
1.0
 10
146.7127416898
 20
209.8980199903
 30
0.0
 10
146.7127416898
 20
209.7606643771
 30
0.0
 10
146.6963969462
 20
209.2432695978
 30
0.0
 10
146.6122441269
 20
208.7258202322
 30
0.0
 10
146.4997472423
 20
208.3623726937
 30
0.0
  0
SPLINE
  5
331
100
AcDbEntity
  8
0
100
AcDbSpline
 62
7
  6
BYLAYER
 70
0
 71
3
 72
9
 73
5
 74
0
 42
0.0000001
 43
0.0000001
 44
0.0000000001
 40
0.0
 40
0.0
 40
0.0
 40
0.0
 40
0.5250649947
 40
1.0
 40
1.0
 40
1.0
 40
1.0
 10
146.4997472423
 20
208.3623726937
 30
0.0
 10
146.3903003222
 20
208.00877878
 30
0.0
 10
146.08796031
 20
207.3553566183
 30
0.0
 10
145.5528912772
 20
206.8609506918
 30
0.0
 10
145.2629404803
 20
206.6935486485
 30
0.0
  0
SPLINE
  5
332
100
AcDbEntity
  8
0
100
AcDbSpline
 62
7
  6
BYLAYER
 70
0
 71
3
 72
9
 73
5
 74
0
 42
0.0000001
 43
0.0000001
 44
0.0000000001
 40
0.0
 40
0.0
 40
0.0
 40
0.0
 40
0.2721299628
 40
1.0
 40
1.0
 40
1.0
 40
1.0
 10
185.6037765729
 20
58.4373965852
 30
0.0
 10
185.9047710823
 20
58.2636212555
 30
0.0
 10
187.035555778
 20
57.6732118962
 30
0.0
 10
188.2886689162
 20
57.2837623419
 30
0.0
 10
189.2150157809
 20
57.2058848227
 30
0.0
  0
SPLINE
  5
333
100
AcDbEntity
  8
0
100
AcDbSpline
 62
7
  6
BYLAYER
 70
0
 71
3
 72
9
 73
5
 74
0
 42
0.0000001
 43
0.0000001
 44
0.0000000001
 40
0.0
 40
0.0
 40
0.0
 40
0.0
 40
0.5162152957
 40
1.0
 40
1.0
 40
1.0
 40
1.0
 10
189.2150157809
 20
57.2058848227
 30
0.0
 10
189.7264893666
 20
57.1628854933
 30
0.0
 10
190.7351450242
 20
57.2016781926
 30
0.0
 10
191.6871133035
 20
57.5531488723
 30
0.0
 10
192.1036996932
 20
57.7936637157
 30
0.0
  0
SPLINE
  5
334
100
AcDbEntity
  8
0
100
AcDbSpline
 62
7
  6
BYLAYER
 70
0
 71
3
 72
11
 73
7
 74
0
 42
0.0000001
 43
0.0000001
 44
0.0000000001
 40
0.0
 40
0.0
 40
0.0
 40
0.0
 40
0.2372294888
 40
0.5000010919
 40
0.7627721007
 40
1.0
 40
1.0
 40
1.0
 40
1.0
 10
98.6292803798
 20
237.6583912977
 30
0.0
 10
98.6292803798
 20
236.383333386
 30
0.0
 10
99.1075125686
 20
233.6941930342
 30
0.0
 10
100.7745370318
 20
229.9154701185
 30
0.0
 10
103.2135048574
 20
226.5824410961
 30
0.0
 10
105.3032559672
 20
224.8237302769
 30
0.0
 10
106.4074873564
 20
224.1862164095
 30
0.0
  0
SPLINE
  5
335
100
AcDbEntity
  8
0
100
AcDbSpline
 62
7
  6
BYLAYER
 70
0
 71
3
 72
11
 73
7
 74
0
 42
0.0000001
 43
0.0000001
 44
0.0000000001
 40
0.0
 40
0.0
 40
0.0
 40
0.0
 40
0.237239768
 40
0.4999988393
 40
0.7627585384
 40
1.0
 40
1.0
 40
1.0
 40
1.0
 10
92.2652928535
 20
272.3596499393
 30
0.0
 10
93.1687997952
 20
271.8380217641
 30
0.0
 10
94.8785637576
 20
270.3990392766
 30
0.0
 10
96.8740906667
 20
267.672091321
 30
0.0
 10
98.2379507404
 20
264.5804398147
 30
0.0
 10
98.6292803798
 20
262.3802428934
 30
0.0
 10
98.6292803798
 20
261.3369613944
 30
0.0
  0
SPLINE
  5
336
100
AcDbEntity
  8
0
100
AcDbSpline
 62
7
  6
BYLAYER
 70
0
 71
3
 72
11
 73
7
 74
0
 42
0.0000001
 43
0.0000001
 44
0.0000000001
 40
0.0
 40
0.0
 40
0.0
 40
0.0
 40
0.2897033281
 40
0.5490895198
 40
0.7822165953
 40
1.0
 40
1.0
 40
1.0
 40
1.0
 10
191.9677640992
 20
65.3777612172
 30
0.0
 10
191.9677640992
 20
64.9217479177
 30
0.0
 10
191.8986257738
 20
64.0545072695
 30
0.0
 10
191.5474037162
 20
62.8629640657
 30
0.0
 10
190.9560624164
 20
61.8960941394
 30
0.0
 10
190.4006134457
 20
61.4291289242
 30
0.0
 10
190.1037339727
 20
61.2577266349
 30
0.0
  0
SPLINE
  5
337
100
AcDbEntity
  8
0
100
AcDbSpline
 62
7
  6
BYLAYER
 70
0
 71
3
 72
11
 73
7
 74
0
 42
0.0000001
 43
0.0000001
 44
0.0000000001
 40
0.0
 40
0.0
 40
0.0
 40
0.0
 40
0.237239768
 40
0.4999988393
 40
0.7627585384
 40
1.0
 40
1.0
 40
1.0
 40
1.0
 10
185.6037765729
 20
218.4718703426
 30
0.0
 10
186.5072835146
 20
217.9502421674
 30
0.0
 10
188.217047477
 20
216.5112596799
 30
0.0
 10
190.2125743861
 20
213.7843117243
 30
0.0
 10
191.5764344598
 20
210.692660218
 30
0.0
 10
191.9677640992
 20
208.4924632967
 30
0.0
 10
191.9677640992
 20
207.4491817977
 30
0.0
  0
SPLINE
  5
338
100
AcDbEntity
  8
0
100
AcDbSpline
 62
7
  6
BYLAYER
 70
0
 71
3
 72
11
 73
7
 74
0
 42
0.0000001
 43
0.0000001
 44
0.0000000001
 40
0.0
 40
0.0
 40
0.0
 40
0.0
 40
0.289775222
 40
0.5490688033
 40
0.782225076
 40
1.0
 40
1.0
 40
1.0
 40
1.0
 10
141.7629736138
 20
203.7741786835
 30
0.0
 10
142.245765572
 20
203.4954449222
 30
0.0
 10
143.2058499893
 20
203.0384841545
 30
0.0
 10
144.6817559366
 20
202.6823995253
 30
0.0
 10
146.0663777027
 20
202.7173215182
 30
0.0
 10
146.9000771852
 20
203.0200020847
 30
0.0
 10
147.2629085618
 20
203.2294816401
 30
0.0
  0
SPLINE
  5
339
100
AcDbEntity
  8
0
100
AcDbSpline
 62
7
  6
BYLAYER
 70
0
 71
3
 72
13
 73
9
 74
0
 42
0.0000001
 43
0.0000001
 44
0.0000000001
 40
0.0
 40
0.0
 40
0.0
 40
0.0
 40
0.1034582802
 40
0.2258201991
 40
0.4999948917
 40
0.7741744252
 40
0.8965399362
 40
1.0
 40
1.0
 40
1.0
 40
1.0
 10
60.788447981
 20
148.6588921361
 30
0.0
 10
60.788447981
 20
148.0654247555
 30
0.0
 10
60.911062719
 20
146.7694176179
 30
0.0
 10
61.5755133475
 20
143.9724542042
 30
0.0
 10
63.1544484107
 20
140.425154383
 30
0.0
 10
65.4370302985
 20
137.2840782224
 30
0.0
 10
67.527084631
 20
135.3101193603
 30
0.0
 10
68.5881830868
 20
134.5559169711
 30
0.0
 10
69.1021526823
 20
134.2591831998
 30
0.0
  0
SPLINE
  5
33A
100
AcDbEntity
  8
0
100
AcDbSpline
 62
7
  6
BYLAYER
 70
0
 71
3
 72
9
 73
5
 74
0
 42
0.0000001
 43
0.0000001
 44
0.0000000001
 40
0.0
 40
0.0
 40
0.0
 40
0.0
 40
0.2453060445
 40
1.0
 40
1.0
 40
1.0
 40
1.0
 10
59.2520255535
 20
290.341364042
 30
0.0
 10
59.2213396249
 20
290.3008946561
 30
0.0
 10
59.0998352729
 20
290.1332155763
 30
0.0
 10
58.9927679557
 20
289.9551868704
 30
0.0
 10
58.9199877222
 20
289.8169215669
 30
0.0
  0
SPLINE
  5
33B
100
AcDbEntity
  8
0
100
AcDbSpline
 62
7
  6
BYLAYER
 70
0
 71
3
 72
9
 73
5
 74
0
 42
0.0000001
 43
0.0000001
 44
0.0000000001
 40
0.0
 40
0.0
 40
0.0
 40
0.0
 40
0.2280555897
 40
1.0
 40
1.0
 40
1.0
 40
1.0
 10
58.9199877222
 20
289.8169215669
 30
0.0
 10
58.8194024914
 20
289.6258333167
 30
0.0
 10
58.4443851282
 20
288.7529004721
 30
0.0
 10
58.3240083826
 20
287.787089395
 30
0.0
 10
58.3240083826
 20
287.0561391273
 30
0.0
  0
SPLINE
  5
33C
100
AcDbEntity
  8
0
100
AcDbSpline
 62
7
  6
BYLAYER
 70
0
 71
3
 72
11
 73
7
 74
0
 42
0.0000001
 43
0.0000001
 44
0.0000000001
 40
0.0
 40
0.0
 40
0.0
 40
0.0
 40
0.2177843137
 40
0.4509117637
 40
0.7102976701
 40
1.0
 40
1.0
 40
1.0
 40
1.0
 10
58.0667269975
 20
289.951441248
 30
0.0
 10
58.3635997727
 20
290.1228396704
 30
0.0
 10
59.0457111277
 20
290.3703834676
 30
0.0
 10
60.1786864644
 20
290.3990701847
 30
0.0
 10
61.3861726484
 20
290.1074837973
 30
0.0
 10
62.1717749808
 20
289.7337575291
 30
0.0
 10
62.5666843973
 20
289.5057616291
 30
0.0
  0
SPLINE
  5
33D
100
AcDbEntity
  8
0
100
AcDbSpline
 62
7
  6
BYLAYER
 70
0
 71
3
 72
9
 73
5
 74
0
 42
0.0000001
 43
0.0000001
 44
0.0000000001
 40
0.0
 40
0.0
 40
0.0
 40
0.0
 40
0.2453060445
 40
1.0
 40
1.0
 40
1.0
 40
1.0
 10
152.5905092729
 20
236.4535844454
 30
0.0
 10
152.5598233443
 20
236.4131150594
 30
0.0
 10
152.4383189923
 20
236.2454359797
 30
0.0
 10
152.3312516751
 20
236.0674072737
 30
0.0
 10
152.2584714416
 20
235.9291419702
 30
0.0
  0
SPLINE
  5
33E
100
AcDbEntity
  8
0
100
AcDbSpline
 62
7
  6
BYLAYER
 70
0
 71
3
 72
9
 73
5
 74
0
 42
0.0000001
 43
0.0000001
 44
0.0000000001
 40
0.0
 40
0.0
 40
0.0
 40
0.0
 40
0.2280555897
 40
1.0
 40
1.0
 40
1.0
 40
1.0
 10
152.2584714416
 20
235.9291419702
 30
0.0
 10
152.1578862108
 20
235.73805372
 30
0.0
 10
151.7828688476
 20
234.8651208754
 30
0.0
 10
151.662492102
 20
233.8993097983
 30
0.0
 10
151.662492102
 20
233.1683595306
 30
0.0
  0
SPLINE
  5
33F
100
AcDbEntity
  8
0
100
AcDbSpline
 62
7
  6
BYLAYER
 70
0
 71
3
 72
11
 73
7
 74
0
 42
0.0000001
 43
0.0000001
 44
0.0000000001
 40
0.0
 40
0.0
 40
0.0
 40
0.0
 40
0.2177843137
 40
0.4509117637
 40
0.7102976701
 40
1.0
 40
1.0
 40
1.0
 40
1.0
 10
151.4052107169
 20
236.0636616513
 30
0.0
 10
151.7020834921
 20
236.2350600737
 30
0.0
 10
152.3841948471
 20
236.4826038709
 30
0.0
 10
153.5171701838
 20
236.511290588
 30
0.0
 10
154.7246563678
 20
236.2197042006
 30
0.0
 10
155.5102587002
 20
235.8459779324
 30
0.0
 10
155.9051681167
 20
235.6179820324
 30
0.0
  0
SPLINE
  5
340
100
AcDbEntity
  8
0
100
AcDbSpline
 62
7
  6
BYLAYER
 70
0
 71
3
 72
11
 73
7
 74
0
 42
0.0000001
 43
0.0000001
 44
0.0000000001
 40
0.0
 40
0.0
 40
0.0
 40
0.0
 40
0.2507265869
 40
0.5008794374
 40
0.7501968524
 40
1.0
 40
1.0
 40
1.0
 40
1.0
 10
151.2612652901
 20
206.8001118245
 30
0.0
 10
151.7282381139
 20
207.1799613172
 30
0.0
 10
152.5705414502
 20
208.0579323455
 30
0.0
 10
153.4812516939
 20
209.6300203489
 30
0.0
 10
154.016215528
 20
211.3620853914
 30
0.0
 10
154.1269317004
 20
212.5642255245
 30
0.0
 10
154.1269317004
 20
213.1639630232
 30
0.0
  0
SPLINE
  5
341
100
AcDbEntity
  8
0
100
AcDbSpline
 62
7
  6
BYLAYER
 70
0
 71
3
 72
11
 73
7
 74
0
 42
0.0000001
 43
0.0000001
 44
0.0000000001
 40
0.0
 40
0.0
 40
0.0
 40
0.0
 40
0.289775222
 40
0.5490688033
 40
0.782225076
 40
1.0
 40
1.0
 40
1.0
 40
1.0
 10
203.9886294267
 20
28.2270789566
 30
0.0
 10
204.471421385
 20
27.9483451953
 30
0.0
 10
205.4315058023
 20
27.4913844276
 30
0.0
 10
206.9074117496
 20
27.1352997984
 30
0.0
 10
208.2920335156
 20
27.1702217913
 30
0.0
 10
209.1257329981
 20
27.4729023578
 30
0.0
 10
209.4885643747
 20
27.6823819131
 30
0.0
  0
SPLINE
  5
342
100
AcDbEntity
  8
0
100
AcDbSpline
 62
7
  6
BYLAYER
 70
0
 71
3
 72
11
 73
7
 74
0
 42
0.0000001
 43
0.0000001
 44
0.0000000001
 40
0.0
 40
0.0
 40
0.0
 40
0.0
 40
0.2372294888
 40
0.5000010919
 40
0.7627721007
 40
1.0
 40
1.0
 40
1.0
 40
1.0
 10
36.4036245669
 20
133.9616643663
 30
0.0
 10
36.4036245669
 20
132.6866064547
 30
0.0
 10
36.8818567557
 20
129.9974661029
 30
0.0
 10
38.5488812189
 20
126.2187431871
 30
0.0
 10
40.9878490445
 20
122.8857141647
 30
0.0
 10
43.0776001542
 20
121.1270033455
 30
0.0
 10
44.1818315435
 20
120.4894894781
 30
0.0
  0
SPLINE
  5
343
100
AcDbEntity
  8
0
100
AcDbSpline
 62
7
  6
BYLAYER
 70
0
 71
3
 72
9
 73
5
 74
0
 42
0.0000001
 43
0.0000001
 44
0.0000000001
 40
0.0
 40
0.0
 40
0.0
 40
0.0
 40
0.2652597984
 40
1.0
 40
1.0
 40
1.0
 40
1.0
 10
208.9383975027
 20
34.3509202633
 30
0.0
 10
208.9383975027
 20
34.2135646502
 30
0.0
 10
208.9220527592
 20
33.6961698708
 30
0.0
 10
208.8378999398
 20
33.1787205053
 30
0.0
 10
208.7254030552
 20
32.8152729667
 30
0.0
  0
SPLINE
  5
344
100
AcDbEntity
  8
0
100
AcDbSpline
 62
7
  6
BYLAYER
 70
0
 71
3
 72
9
 73
5
 74
0
 42
0.0000001
 43
0.0000001
 44
0.0000000001
 40
0.0
 40
0.0
 40
0.0
 40
0.0
 40
0.5250649947
 40
1.0
 40
1.0
 40
1.0
 40
1.0
 10
208.7254030552
 20
32.8152729667
 30
0.0
 10
208.6159561352
 20
32.4616790531
 30
0.0
 10
208.3136161229
 20
31.8082568913
 30
0.0
 10
207.7785470901
 20
31.3138509648
 30
0.0
 10
207.4885962932
 20
31.1464489215
 30
0.0
  0
SPLINE
  5
345
100
AcDbEntity
  8
0
100
AcDbSpline
 62
7
  6
BYLAYER
 70
0
 71
3
 72
11
 73
7
 74
0
 42
0.0000001
 43
0.0000001
 44
0.0000000001
 40
0.0
 40
0.0
 40
0.0
 40
0.0
 40
0.237239768
 40
0.4999988393
 40
0.7627585384
 40
1.0
 40
1.0
 40
1.0
 40
1.0
 10
203.9886294267
 20
227.4536687362
 30
0.0
 10
204.691357048
 20
227.0479579332
 30
0.0
 10
206.0211734633
 20
225.9287493319
 30
0.0
 10
207.5732499481
 20
223.8077898108
 30
0.0
 10
208.6340300054
 20
221.4031719726
 30
0.0
 10
208.9383975027
 20
219.6919077005
 30
0.0
 10
208.9383975027
 20
218.8804665346
 30
0.0
  0
SPLINE
  5
346
100
AcDbEntity
  8
0
100
AcDbSpline
 62
7
  6
BYLAYER
 70
0
 71
3
 72
9
 73
5
 74
0
 42
0.0000001
 43
0.0000001
 44
0.0000000001
 40
0.0
 40
0.0
 40
0.0
 40
0.0
 40
0.5000218468
 40
1.0
 40
1.0
 40
1.0
 40
1.0
 10
216.3525875134
 20
222.1464095675
 30
0.0
 10
216.3525875134
 20
224.1509815059
 30
0.0
 10
215.1339555913
 20
228.1730818727
 30
0.0
 10
212.259966053
 20
231.2393826825
 30
0.0
 10
210.5240977117
 20
232.2415640643
 30
0.0
  0
SPLINE
  5
347
100
AcDbEntity
  8
0
100
AcDbSpline
 62
7
  6
BYLAYER
 70
0
 71
3
 72
11
 73
7
 74
0
 42
0.0000001
 43
0.0000001
 44
0.0000000001
 40
0.0
 40
0.0
 40
0.0
 40
0.0
 40
0.2498079067
 40
0.4991096588
 40
0.7492496814
 40
1.0
 40
1.0
 40
1.0
 40
1.0
 10
50.7172998285
 20
324.5039745859
 30
0.0
 10
50.1985727415
 20
324.803455034
 30
0.0
 10
49.103654261
 20
325.308092191
 30
0.0
 10
47.3387152983
 20
325.7109882802
 30
0.0
 10
45.5243013804
 20
325.7097751652
 30
0.0
 10
44.3440446419
 20
325.4209081906
 30
0.0
 10
43.7820061511
 20
325.2073874762
 30
0.0
  0
SPLINE
  5
348
100
AcDbEntity
  8
0
100
AcDbSpline
 62
7
  6
BYLAYER
 70
0
 71
3
 72
9
 73
5
 74
0
 42
0.0000001
 43
0.0000001
 44
0.0000000001
 40
0.0
 40
0.0
 40
0.0
 40
0.0
 40
0.2776519707
 40
1.0
 40
1.0
 40
1.0
 40
1.0
 10
213.888147915
 20
33.9426897069
 30
0.0
 10
213.888147915
 20
33.5869987421
 30
0.0
 10
213.8236585497
 20
32.3108863264
 30
0.0
 10
213.4635016898
 20
31.0199710307
 30
0.0
 10
212.9688709896
 20
30.237882463
 30
0.0
  0
SPLINE
  5
349
100
AcDbEntity
  8
0
100
AcDbSpline
 62
7
  6
BYLAYER
 70
0
 71
3
 72
9
 73
5
 74
0
 42
0.0000001
 43
0.0000001
 44
0.0000000001
 40
0.0
 40
0.0
 40
0.0
 40
0.0
 40
0.510105268
 40
1.0
 40
1.0
 40
1.0
 40
1.0
 10
212.9688709896
 20
30.237882463
 30
0.0
 10
212.7947080729
 20
29.9625036278
 30
0.0
 10
212.3944869389
 20
29.4564308665
 30
0.0
 10
211.8808747191
 20
29.0635746994
 30
0.0
 10
211.6098758863
 20
28.9071143747
 30
0.0
  0
SPLINE
  5
34A
100
AcDbEntity
  8
0
100
AcDbSpline
 62
7
  6
BYLAYER
 70
0
 71
3
 72
11
 73
7
 74
0
 42
0.0000001
 43
0.0000001
 44
0.0000000001
 40
0.0
 40
0.0
 40
0.0
 40
0.0
 40
0.2372278993
 40
0.4999989081
 40
0.7627705112
 40
1.0
 40
1.0
 40
1.0
 40
1.0
 10
206.1099409384
 20
231.9444108663
 30
0.0
 10
207.2141723276
 20
231.306896999
 30
0.0
 10
209.3039234374
 20
229.5481861797
 30
0.0
 10
211.742891263
 20
226.2151571574
 30
0.0
 10
213.4099157262
 20
222.4364342416
 30
0.0
 10
213.888147915
 20
219.7472938898
 30
0.0
 10
213.888147915
 20
218.4722359782
 30
0.0
  0
SPLINE
  5
34B
100
AcDbEntity
  8
0
100
AcDbSpline
 62
7
  6
BYLAYER
 70
0
 71
3
 72
11
 73
7
 74
0
 42
0.0000001
 43
0.0000001
 44
0.0000000001
 40
0.0
 40
0.0
 40
0.0
 40
0.0
 40
0.2507265869
 40
0.5008794374
 40
0.7501968524
 40
1.0
 40
1.0
 40
1.0
 40
1.0
 10
213.4869211031
 20
31.2530120976
 30
0.0
 10
213.9538939268
 20
31.6328615903
 30
0.0
 10
214.7961972632
 20
32.5108326185
 30
0.0
 10
215.7069075068
 20
34.082920622
 30
0.0
 10
216.241871341
 20
35.8149856645
 30
0.0
 10
216.3525875134
 20
37.0171257976
 30
0.0
 10
216.3525875134
 20
37.6168632963
 30
0.0
  0
SPLINE
  5
34C
100
AcDbEntity
  8
0
100
AcDbSpline
 62
7
  6
BYLAYER
 70
0
 71
3
 72
9
 73
5
 74
0
 42
0.0000001
 43
0.0000001
 44
0.0000000001
 40
0.0
 40
0.0
 40
0.0
 40
0.0
 40
0.4898948369
 40
1.0
 40
1.0
 40
1.0
 40
1.0
 10
40.8032081072
 20
324.7515184313
 30
0.0
 10
41.0742055105
 20
324.9079779308
 30
0.0
 10
41.6712328268
 20
325.1563469432
 30
0.0
 10
42.3096119874
 20
325.2499097152
 30
0.0
 10
42.6351766965
 20
325.2630487963
 30
0.0
  0
SPLINE
  5
34D
100
AcDbEntity
  8
0
100
AcDbSpline
 62
7
  6
BYLAYER
 70
0
 71
3
 72
9
 73
5
 74
0
 42
0.0000001
 43
0.0000001
 44
0.0000000001
 40
0.0
 40
0.0
 40
0.0
 40
0.0
 40
0.2257327466
 40
1.0
 40
1.0
 40
1.0
 40
1.0
 10
42.6351766965
 20
325.2630487963
 30
0.0
 10
42.924409817
 20
325.2747216138
 30
0.0
 10
44.2112434883
 20
325.2052082463
 30
0.0
 10
45.4432769527
 20
324.7032540828
 30
0.0
 10
46.3031430551
 20
324.2068213879
 30
0.0
  0
SPLINE
  5
34E
100
AcDbEntity
  8
0
100
AcDbSpline
 62
7
  6
BYLAYER
 70
0
 71
3
 72
11
 73
7
 74
0
 42
0.0000001
 43
0.0000001
 44
0.0000000001
 40
0.0
 40
0.0
 40
0.0
 40
0.0
 40
0.2177739674
 40
0.4509298424
 40
0.7102237828
 40
1.0
 40
1.0
 40
1.0
 40
1.0
 10
38.6818965955
 20
323.5267859697
 30
0.0
 10
38.3190571129
 20
323.3173017344
 30
0.0
 10
37.6400609175
 20
322.7466237905
 30
0.0
 10
36.9174942843
 20
321.5649329338
 30
0.0
 10
36.4879195123
 20
320.1086741408
 30
0.0
 10
36.4036245669
 20
319.0487044371
 30
0.0
 10
36.4036245669
 20
318.4912106376
 30
0.0
  0
SPLINE
  5
34F
100
AcDbEntity
  8
0
100
AcDbSpline
 62
7
  6
BYLAYER
 70
0
 71
3
 72
9
 73
5
 74
0
 42
0.0000001
 43
0.0000001
 44
0.0000000001
 40
0.0
 40
0.0
 40
0.0
 40
0.0
 40
0.474934871
 40
1.0
 40
1.0
 40
1.0
 40
1.0
 10
40.681864677
 20
320.0627189613
 30
0.0
 10
40.9718158451
 20
320.230121219
 30
0.0
 10
41.6675205838
 20
320.4462985071
 30
0.0
 10
42.3845716357
 20
320.3814171198
 30
0.0
 10
42.7455165568
 20
320.2994015942
 30
0.0
  0
SPLINE
  5
350
100
AcDbEntity
  8
0
100
AcDbSpline
 62
7
  6
BYLAYER
 70
0
 71
3
 72
9
 73
5
 74
0
 42
0.0000001
 43
0.0000001
 44
0.0000000001
 40
0.0
 40
0.0
 40
0.0
 40
0.0
 40
0.2351974828
 40
1.0
 40
1.0
 40
1.0
 40
1.0
 10
42.7455165568
 20
320.2994015942
 30
0.0
 10
42.8642912815
 20
320.2724130679
 30
0.0
 10
43.3640387003
 20
320.1346757125
 30
0.0
 10
43.8388226007
 20
319.9141110831
 30
0.0
 10
44.1818315435
 20
319.7160792578
 30
0.0
  0
SPLINE
  5
351
100
AcDbEntity
  8
0
100
AcDbSpline
 62
7
  6
BYLAYER
 70
0
 71
3
 72
9
 73
5
 74
0
 42
0.0000001
 43
0.0000001
 44
0.0000000001
 40
0.0
 40
0.0
 40
0.0
 40
0.0
 40
0.4837831073
 40
1.0
 40
1.0
 40
1.0
 40
1.0
 10
149.4052449964
 20
239.5277245705
 30
0.0
 10
148.9886353215
 20
239.2871962835
 30
0.0
 10
148.2082237669
 20
238.6384594779
 30
0.0
 10
147.6702853024
 20
237.7842718926
 30
0.0
 10
147.4517842507
 20
237.3197890794
 30
0.0
  0
SPLINE
  5
352
100
AcDbEntity
  8
0
100
AcDbSpline
 62
7
  6
BYLAYER
 70
0
 71
3
 72
9
 73
5
 74
0
 42
0.0000001
 43
0.0000001
 44
0.0000000001
 40
0.0
 40
0.0
 40
0.0
 40
0.0
 40
0.2295401453
 40
1.0
 40
1.0
 40
1.0
 40
1.0
 10
147.4517842507
 20
237.3197890794
 30
0.0
 10
147.3269281912
 20
237.0543739093
 30
0.0
 10
146.8644098474
 20
235.8595818946
 30
0.0
 10
146.7127416898
 20
234.561115761
 30
0.0
 10
146.7127416898
 20
233.576590087
 30
0.0
  0
SPLINE
  5
353
100
AcDbEntity
  8
0
100
AcDbSpline
 62
7
  6
BYLAYER
 70
0
 71
3
 72
9
 73
5
 74
0
 42
0.0000001
 43
0.0000001
 44
0.0000000001
 40
0.0
 40
0.0
 40
0.0
 40
0.0
 40
0.4837831073
 40
1.0
 40
1.0
 40
1.0
 40
1.0
 10
56.066761277
 20
293.4155041672
 30
0.0
 10
55.6501516021
 20
293.1749758802
 30
0.0
 10
54.8697400475
 20
292.5262390746
 30
0.0
 10
54.3318015829
 20
291.6720514893
 30
0.0
 10
54.1133005313
 20
291.2075686761
 30
0.0
  0
SPLINE
  5
354
100
AcDbEntity
  8
0
100
AcDbSpline
 62
7
  6
BYLAYER
 70
0
 71
3
 72
9
 73
5
 74
0
 42
0.0000001
 43
0.0000001
 44
0.0000000001
 40
0.0
 40
0.0
 40
0.0
 40
0.0
 40
0.2295401453
 40
1.0
 40
1.0
 40
1.0
 40
1.0
 10
54.1133005313
 20
291.2075686761
 30
0.0
 10
53.9884444718
 20
290.942153506
 30
0.0
 10
53.525926128
 20
289.7473614913
 30
0.0
 10
53.3742579704
 20
288.4488953577
 30
0.0
 10
53.3742579704
 20
287.4643696837
 30
0.0
  0
SPLINE
  5
355
100
AcDbEntity
  8
0
100
AcDbSpline
 62
7
  6
BYLAYER
 70
0
 71
3
 72
11
 73
7
 74
0
 42
0.0000001
 43
0.0000001
 44
0.0000000001
 40
0.0
 40
0.0
 40
0.0
 40
0.0
 40
0.2372413576
 40
0.5000010231
 40
0.762760128
 40
1.0
 40
1.0
 40
1.0
 40
1.0
 10
58.3240083826
 20
144.9847185467
 30
0.0
 10
58.3240083826
 20
143.941437505
 30
0.0
 10
58.7153377423
 20
141.7412411864
 30
0.0
 10
60.0791973232
 20
138.6495899582
 30
0.0
 10
62.0747242268
 20
135.9226414368
 30
0.0
 10
63.7844885712
 20
134.4836584057
 30
0.0
 10
64.687995909
 20
133.9620300019
 30
0.0
  0
SPLINE
  5
356
100
AcDbEntity
  8
0
100
AcDbSpline
 62
7
  6
BYLAYER
 70
0
 71
3
 72
9
 73
5
 74
0
 42
0.0000001
 43
0.0000001
 44
0.0000000001
 40
0.0
 40
0.0
 40
0.0
 40
0.0
 40
0.5387096546
 40
1.0
 40
1.0
 40
1.0
 40
1.0
 10
187.7250880845
 20
62.9281387153
 30
0.0
 10
188.2628214117
 20
62.6176852575
 30
0.0
 10
189.3281899852
 20
62.1427318393
 30
0.0
 10
190.5064554287
 20
62.0228912131
 30
0.0
 10
191.0339822075
 20
62.0892479626
 30
0.0
  0
SPLINE
  5
357
100
AcDbEntity
  8
0
100
AcDbSpline
 62
7
  6
BYLAYER
 70
0
 71
3
 72
9
 73
5
 74
0
 42
0.0000001
 43
0.0000001
 44
0.0000000001
 40
0.0
 40
0.0
 40
0.0
 40
0.0
 40
0.2776519707
 40
1.0
 40
1.0
 40
1.0
 40
1.0
 10
151.662492102
 20
209.4897894338
 30
0.0
 10
151.662492102
 20
209.134098469
 30
0.0
 10
151.5980027367
 20
207.8579860533
 30
0.0
 10
151.2378458768
 20
206.5670707577
 30
0.0
 10
150.7432151767
 20
205.7849821899
 30
0.0
  0
SPLINE
  5
358
100
AcDbEntity
  8
0
100
AcDbSpline
 62
7
  6
BYLAYER
 70
0
 71
3
 72
9
 73
5
 74
0
 42
0.0000001
 43
0.0000001
 44
0.0000000001
 40
0.0
 40
0.0
 40
0.0
 40
0.0
 40
0.510105268
 40
1.0
 40
1.0
 40
1.0
 40
1.0
 10
150.7432151767
 20
205.7849821899
 30
0.0
 10
150.56905226
 20
205.5096033547
 30
0.0
 10
150.1688311259
 20
205.0035305935
 30
0.0
 10
149.6552189061
 20
204.6106744264
 30
0.0
 10
149.3842200734
 20
204.4542141017
 30
0.0
  0
SPLINE
  5
359
100
AcDbEntity
  8
0
100
AcDbSpline
 62
7
  6
BYLAYER
 70
0
 71
3
 72
11
 73
7
 74
0
 42
0.0000001
 43
0.0000001
 44
0.0000000001
 40
0.0
 40
0.0
 40
0.0
 40
0.0
 40
0.289775222
 40
0.5490688033
 40
0.782225076
 40
1.0
 40
1.0
 40
1.0
 40
1.0
 10
155.9051681167
 20
238.883991701
 30
0.0
 10
155.3345958024
 20
239.2134043279
 30
0.0
 10
154.199950582
 20
239.7534488715
 30
0.0
 10
152.4556980988
 20
240.1742761606
 30
0.0
 10
150.8193269208
 20
240.1330047144
 30
0.0
 10
149.8340457141
 20
239.7752913177
 30
0.0
 10
149.4052449964
 20
239.5277245705
 30
0.0
  0
SPLINE
  5
35A
100
AcDbEntity
  8
0
100
AcDbSpline
 62
7
  6
BYLAYER
 70
0
 71
3
 72
11
 73
7
 74
0
 42
0.0000001
 43
0.0000001
 44
0.0000000001
 40
0.0
 40
0.0
 40
0.0
 40
0.0
 40
0.2897033281
 40
0.5490895198
 40
0.7822165953
 40
1.0
 40
1.0
 40
1.0
 40
1.0
 10
149.5411805904
 20
231.943627069
 30
0.0
 10
149.5411805904
 20
232.3996403685
 30
0.0
 10
149.6103189158
 20
233.2668810166
 30
0.0
 10
149.9615409734
 20
234.4584242204
 30
0.0
 10
150.5528822732
 20
235.4252941468
 30
0.0
 10
151.1083312439
 20
235.8922593619
 30
0.0
 10
151.4052107169
 20
236.0636616513
 30
0.0
  0
SPLINE
  5
35B
100
AcDbEntity
  8
0
100
AcDbSpline
 62
7
  6
BYLAYER
 70
0
 71
3
 72
9
 73
5
 74
0
 42
0.0000001
 43
0.0000001
 44
0.0000000001
 40
0.0
 40
0.0
 40
0.0
 40
0.0
 40
0.4881482571
 40
1.0
 40
1.0
 40
1.0
 40
1.0
 10
147.2629085618
 20
203.2294816401
 30
0.0
 10
147.5586201301
 20
203.400209785
 30
0.0
 10
148.1170445417
 20
203.8382572652
 30
0.0
 10
148.5374869153
 20
204.4074326669
 30
0.0
 10
148.7169461063
 20
204.7172484543
 30
0.0
  0
SPLINE
  5
35C
100
AcDbEntity
  8
0
100
AcDbSpline
 62
7
  6
BYLAYER
 70
0
 71
3
 72
9
 73
5
 74
0
 42
0.0000001
 43
0.0000001
 44
0.0000000001
 40
0.0
 40
0.0
 40
0.0
 40
0.0
 40
0.2268155391
 40
1.0
 40
1.0
 40
1.0
 40
1.0
 10
148.7169461063
 20
204.7172484543
 30
0.0
 10
148.8559107036
 20
204.9571549528
 30
0.0
 10
149.3766921078
 20
206.0685959667
 30
0.0
 10
149.5411805904
 20
207.3199558803
 30
0.0
 10
149.5411805904
 20
208.2650569722
 30
0.0
  0
SPLINE
  5
35D
100
AcDbEntity
  8
0
100
AcDbSpline
 62
7
  6
BYLAYER
 70
0
 71
3
 72
9
 73
5
 74
0
 42
0.0000001
 43
0.0000001
 44
0.0000000001
 40
0.0
 40
0.0
 40
0.0
 40
0.0
 40
0.2354391301
 40
1.0
 40
1.0
 40
1.0
 40
1.0
 10
152.6596862095
 20
236.5403705702
 30
0.0
 10
152.6106525149
 20
236.3771786652
 30
0.0
 10
152.4327632726
 20
235.6749460859
 30
0.0
 10
152.3695900513
 20
234.9464400737
 30
0.0
 10
152.3695900513
 20
234.3930885928
 30
0.0
  0
SPLINE
  5
35E
100
AcDbEntity
  8
0
100
AcDbSpline
 62
7
  6
BYLAYER
 70
0
 71
3
 72
9
 73
5
 74
0
 42
0.0000001
 43
0.0000001
 44
0.0000000001
 40
0.0
 40
0.0
 40
0.0
 40
0.0
 40
0.2404143635
 40
1.0
 40
1.0
 40
1.0
 40
1.0
 10
194.7962029998
 20
205.8162187797
 30
0.0
 10
194.7962029998
 20
206.0181976149
 30
0.0
 10
194.7752404108
 20
206.8582766227
 30
0.0
 10
194.6753763297
 20
207.6957028248
 30
0.0
 10
194.5634601703
 20
208.3239616195
 30
0.0
  0
SPLINE
  5
35F
100
AcDbEntity
  8
0
100
AcDbSpline
 62
7
  6
BYLAYER
 70
0
 71
3
 72
11
 73
7
 74
0
 42
0.0000001
 43
0.0000001
 44
0.0000000001
 40
0.0
 40
0.0
 40
0.0
 40
0.0
 40
0.243476986
 40
0.5000007939
 40
0.7565241882
 40
1.0
 40
1.0
 40
1.0
 40
1.0
 10
194.5634601703
 20
208.3239616195
 30
0.0
 10
194.3634988726
 20
209.4464755137
 30
0.0
 10
193.7160174276
 20
211.7125928106
 30
0.0
 10
192.1862043543
 20
214.9238203466
 30
0.0
 10
190.1700956788
 20
217.8542771646
 30
0.0
 10
188.531316584
 20
219.5480566938
 30
0.0
 10
187.659170662
 20
220.2824754537
 30
0.0
  0
SPLINE
  5
360
100
AcDbEntity
  8
0
100
AcDbSpline
 62
7
  6
BYLAYER
 70
0
 71
3
 72
9
 73
5
 74
0
 42
0.0000001
 43
0.0000001
 44
0.0000000001
 40
0.0
 40
0.0
 40
0.0
 40
0.0
 40
0.2593737635
 40
1.0
 40
1.0
 40
1.0
 40
1.0
 10
187.659170662
 20
220.2824754537
 30
0.0
 10
187.4924963426
 20
220.42282897
 30
0.0
 10
186.839221609
 20
220.9509953442
 30
0.0
 10
186.1426154509
 20
221.4267882777
 30
0.0
 10
185.6037765729
 20
221.7378800111
 30
0.0
  0
SPLINE
  5
361
100
AcDbEntity
  8
0
100
AcDbSpline
 62
7
  6
BYLAYER
 70
0
 71
3
 72
11
 73
7
 74
0
 42
0.0000001
 43
0.0000001
 44
0.0000000001
 40
0.0
 40
0.0
 40
0.0
 40
0.0
 40
0.2177847049
 40
0.4509136858
 40
0.7102980309
 40
1.0
 40
1.0
 40
1.0
 40
1.0
 10
154.1269317004
 20
213.1639774454
 30
0.0
 10
154.1269333484
 20
212.935444414
 30
0.0
 10
154.042478253
 20
212.4591088862
 30
0.0
 10
153.6813629592
 20
211.7954318186
 30
0.0
 10
153.1105077613
 20
211.195496176
 30
0.0
 10
152.6328618444
 20
210.8665176294
 30
0.0
 10
152.3695900513
 20
210.7145184961
 30
0.0
  0
SPLINE
  5
362
100
AcDbEntity
  8
0
100
AcDbSpline
 62
7
  6
BYLAYER
 70
0
 71
3
 72
11
 73
7
 74
0
 42
0.0000001
 43
0.0000001
 44
0.0000000001
 40
0.0
 40
0.0
 40
0.0
 40
0.0
 40
0.2372294888
 40
0.5000010919
 40
0.7627721007
 40
1.0
 40
1.0
 40
1.0
 40
1.0
 10
211.7668364033
 20
217.2475035165
 30
0.0
 10
211.7668364033
 20
218.5225614282
 30
0.0
 10
211.2886042146
 20
221.21170178
 30
0.0
 10
209.6215797513
 20
224.9904246957
 30
0.0
 10
207.1826119258
 20
228.3234537181
 30
0.0
 10
205.092860816
 20
230.0821645373
 30
0.0
 10
203.9886294267
 20
230.7196784047
 30
0.0
  0
SPLINE
  5
363
100
AcDbEntity
  8
0
100
AcDbSpline
 62
7
  6
BYLAYER
 70
0
 71
3
 72
11
 73
7
 74
0
 42
0.0000001
 43
0.0000001
 44
0.0000000001
 40
0.0
 40
0.0
 40
0.0
 40
0.0
 40
0.217784692
 40
0.4509137851
 40
0.7102981701
 40
1.0
 40
1.0
 40
1.0
 40
1.0
 10
60.788447981
 20
148.6588921361
 30
0.0
 10
60.7884479701
 20
148.4303601532
 30
0.0
 10
60.7039902694
 20
147.9540273533
 30
0.0
 10
60.3428741357
 20
147.2903546611
 30
0.0
 10
59.772020563
 20
146.6904227738
 30
0.0
 10
59.2943768063
 20
146.3614459809
 30
0.0
 10
59.0311063319
 20
146.209447609
 30
0.0
  0
SPLINE
  5
364
100
AcDbEntity
  8
0
100
AcDbSpline
 62
7
  6
BYLAYER
 70
0
 71
3
 72
11
 73
7
 74
0
 42
0.0000001
 43
0.0000001
 44
0.0000000001
 40
0.0
 40
0.0
 40
0.0
 40
0.0
 40
0.289775222
 40
0.5490688033
 40
0.782225076
 40
1.0
 40
1.0
 40
1.0
 40
1.0
 10
44.1818315435
 20
322.9820889263
 30
0.0
 10
43.6990395852
 20
323.2608226875
 30
0.0
 10
42.738955168
 20
323.7177834552
 30
0.0
 10
41.2630492206
 20
324.0738680844
 30
0.0
 10
39.8784274546
 20
324.0389460915
 30
0.0
 10
39.0447279721
 20
323.7362655251
 30
0.0
 10
38.6818965955
 20
323.5267859697
 30
0.0
  0
SPLINE
  5
365
100
AcDbEntity
  8
0
100
AcDbSpline
 62
7
  6
BYLAYER
 70
0
 71
3
 72
11
 73
7
 74
0
 42
0.0000001
 43
0.0000001
 44
0.0000000001
 40
0.0
 40
0.0
 40
0.0
 40
0.0
 40
0.2897033281
 40
0.5490895198
 40
0.7822165953
 40
1.0
 40
1.0
 40
1.0
 40
1.0
 10
39.2320634675
 20
316.8582476195
 30
0.0
 10
39.2320634675
 20
317.2129246302
 30
0.0
 10
39.2858377205
 20
317.8874451344
 30
0.0
 10
39.5590104321
 20
318.8142009595
 30
0.0
 10
40.0189425541
 20
319.5662109022
 30
0.0
 10
40.4509584202
 20
319.9294060696
 30
0.0
 10
40.681864677
 20
320.0627189613
 30
0.0
  0
SPLINE
  5
366
100
AcDbEntity
  8
0
100
AcDbSpline
 62
7
  6
BYLAYER
 70
0
 71
3
 72
11
 73
7
 74
0
 42
0.0000001
 43
0.0000001
 44
0.0000000001
 40
0.0
 40
0.0
 40
0.0
 40
0.0
 40
0.237239768
 40
0.4999988393
 40
0.7627585384
 40
1.0
 40
1.0
 40
1.0
 40
1.0
 10
44.1818315435
 20
123.7554991467
 30
0.0
 10
43.4791039222
 20
124.1612099496
 30
0.0
 10
42.1492875069
 20
125.2804185509
 30
0.0
 10
40.5972110221
 20
127.401378072
 30
0.0
 10
39.5364309648
 20
129.8059959102
 30
0.0
 10
39.2320634675
 20
131.5172601823
 30
0.0
 10
39.2320634675
 20
132.3287013482
 30
0.0
  0
SPLINE
  5
367
100
AcDbEntity
  8
0
100
AcDbSpline
 62
7
  6
BYLAYER
 70
0
 71
3
 72
9
 73
5
 74
0
 42
0.0000001
 43
0.0000001
 44
0.0000000001
 40
0.0
 40
0.0
 40
0.0
 40
0.0
 40
0.2354391301
 40
1.0
 40
1.0
 40
1.0
 40
1.0
 10
59.3212024901
 20
290.4281501669
 30
0.0
 10
59.2721687955
 20
290.2649582619
 30
0.0
 10
59.0942795532
 20
289.5627256825
 30
0.0
 10
59.0311063319
 20
288.8342196704
 30
0.0
 10
59.0311063319
 20
288.2808681895
 30
0.0
  0
SPLINE
  5
368
100
AcDbEntity
  8
0
100
AcDbSpline
 62
7
  6
BYLAYER
 70
0
 71
3
 72
9
 73
5
 74
0
 42
0.0000001
 43
0.0000001
 44
0.0000000001
 40
0.0
 40
0.0
 40
0.0
 40
0.0
 40
0.2404143635
 40
1.0
 40
1.0
 40
1.0
 40
1.0
 10
101.4577192804
 20
259.7039983763
 30
0.0
 10
101.4577192804
 20
259.9059772116
 30
0.0
 10
101.4367566914
 20
260.7460562194
 30
0.0
 10
101.3368926103
 20
261.5834824215
 30
0.0
 10
101.2249764509
 20
262.2117412161
 30
0.0
  0
SPLINE
  5
369
100
AcDbEntity
  8
0
100
AcDbSpline
 62
7
  6
BYLAYER
 70
0
 71
3
 72
11
 73
7
 74
0
 42
0.0000001
 43
0.0000001
 44
0.0000000001
 40
0.0
 40
0.0
 40
0.0
 40
0.0
 40
0.243476986
 40
0.5000007939
 40
0.7565241882
 40
1.0
 40
1.0
 40
1.0
 40
1.0
 10
101.2249764509
 20
262.2117412161
 30
0.0
 10
101.0250151532
 20
263.3342551104
 30
0.0
 10
100.3775337082
 20
265.6003724073
 30
0.0
 10
98.8477206349
 20
268.8115999433
 30
0.0
 10
96.8316119594
 20
271.7420567613
 30
0.0
 10
95.1928328646
 20
273.4358362904
 30
0.0
 10
94.3206869426
 20
274.1702550504
 30
0.0
  0
SPLINE
  5
36A
100
AcDbEntity
  8
0
100
AcDbSpline
 62
7
  6
BYLAYER
 70
0
 71
3
 72
9
 73
5
 74
0
 42
0.0000001
 43
0.0000001
 44
0.0000000001
 40
0.0
 40
0.0
 40
0.0
 40
0.0
 40
0.2593737635
 40
1.0
 40
1.0
 40
1.0
 40
1.0
 10
94.3206869426
 20
274.1702550504
 30
0.0
 10
94.1540126232
 20
274.3106085667
 30
0.0
 10
93.5007378896
 20
274.8387749408
 30
0.0
 10
92.8041317315
 20
275.3145678744
 30
0.0
 10
92.2652928535
 20
275.6256596078
 30
0.0
  0
SPLINE
  5
36B
100
AcDbEntity
  8
0
100
AcDbSpline
 62
7
  6
BYLAYER
 70
0
 71
3
 72
11
 73
7
 74
0
 42
0.0000001
 43
0.0000001
 44
0.0000000001
 40
0.0
 40
0.0
 40
0.0
 40
0.0
 40
0.2177864553
 40
0.4509163686
 40
0.7103001652
 40
1.0
 40
1.0
 40
1.0
 40
1.0
 10
210.5240977117
 20
232.2415640643
 30
0.0
 10
210.3261809614
 20
232.3558287294
 30
0.0
 10
209.8714341566
 20
232.5208509759
 30
0.0
 10
209.1161188359
 20
232.5399540591
 30
0.0
 10
208.3111385005
 20
232.3455520669
 30
0.0
 10
207.7874166209
 20
232.0963937049
 30
0.0
 10
207.5241486128
 20
231.9443967569
 30
0.0
  0
SPLINE
  5
36C
100
AcDbEntity
  8
0
100
AcDbSpline
 62
7
  6
BYLAYER
 70
0
 71
3
 72
11
 73
7
 74
0
 42
0.0000001
 43
0.0000001
 44
0.0000000001
 40
0.0
 40
0.0
 40
0.0
 40
0.0
 40
0.2177847049
 40
0.4509136858
 40
0.7102980309
 40
1.0
 40
1.0
 40
1.0
 40
1.0
 10
216.3525875133
 20
37.6168777185
 30
0.0
 10
216.3525891613
 20
37.3883446871
 30
0.0
 10
216.268134066
 20
36.9120091593
 30
0.0
 10
215.9070187722
 20
36.2483320917
 30
0.0
 10
215.3361635742
 20
35.648396449
 30
0.0
 10
214.8585176574
 20
35.3194179024
 30
0.0
 10
214.5952458643
 20
35.1674187691
 30
0.0
  0
SPLINE
  5
36D
100
AcDbEntity
  8
0
100
AcDbSpline
 62
7
  6
BYLAYER
 70
0
 71
3
 72
9
 73
5
 74
0
 42
0.0000001
 43
0.0000001
 44
0.0000000001
 40
0.0
 40
0.0
 40
0.0
 40
0.0
 40
0.4592068087
 40
1.0
 40
1.0
 40
1.0
 40
1.0
 10
191.4607896361
 20
63.469902554
 30
0.0
 10
191.0961048077
 20
63.5347545344
 30
0.0
 10
190.2653863303
 20
63.47581536
 30
0.0
 10
189.5170701406
 20
63.1462314449
 30
0.0
 10
189.139295759
 20
62.9281246059
 30
0.0
  0
SPLINE
  5
36E
100
AcDbEntity
  8
0
100
AcDbSpline
 62
7
  6
BYLAYER
 70
0
 71
3
 72
11
 73
7
 74
0
 42
0.0000001
 43
0.0000001
 44
0.0000000001
 40
0.0
 40
0.0
 40
0.0
 40
0.0
 40
0.2897033281
 40
0.5490895198
 40
0.7822165953
 40
1.0
 40
1.0
 40
1.0
 40
1.0
 10
56.202696871
 20
285.8314066656
 30
0.0
 10
56.202696871
 20
286.2874199652
 30
0.0
 10
56.2718351964
 20
287.1546606133
 30
0.0
 10
56.623057254
 20
288.3462038171
 30
0.0
 10
57.2143985538
 20
289.3130737435
 30
0.0
 10
57.7698475245
 20
289.7800389586
 30
0.0
 10
58.0667269975
 20
289.951441248
 30
0.0
  0
SPLINE
  5
36F
100
AcDbEntity
  8
0
100
AcDbSpline
 62
7
  6
BYLAYER
 70
0
 71
3
 72
9
 73
5
 74
0
 42
0.0000001
 43
0.0000001
 44
0.0000000001
 40
0.0
 40
0.0
 40
0.0
 40
0.0
 40
0.5096340977
 40
1.0
 40
1.0
 40
1.0
 40
1.0
 10
195.0914393597
 20
60.1319862723
 30
0.0
 10
194.8877524369
 20
59.8176930448
 30
0.0
 10
194.4221039689
 20
59.2399941184
 30
0.0
 10
193.8300100608
 20
58.7903033167
 30
0.0
 10
193.5179247817
 20
58.6101218613
 30
0.0
  0
SPLINE
  5
370
100
AcDbEntity
  8
0
100
AcDbSpline
 62
7
  6
BYLAYER
 70
0
 71
3
 72
9
 73
5
 74
0
 42
0.0000001
 43
0.0000001
 44
0.0000000001
 40
0.0
 40
0.0
 40
0.0
 40
0.0
 40
0.238132982
 40
1.0
 40
1.0
 40
1.0
 40
1.0
 10
44.5780853623
 20
325.1704421695
 30
0.0
 10
44.7043463892
 20
325.1698006432
 30
0.0
 10
45.234408148
 20
325.1442324348
 30
0.0
 10
45.7584730274
 20
325.0315081408
 30
0.0
 10
46.1438835651
 20
324.9105142152
 30
0.0
  0
SPLINE
  5
371
100
AcDbEntity
  8
0
100
AcDbSpline
 62
7
  6
BYLAYER
 70
0
 71
3
 72
9
 73
5
 74
0
 42
0.0000001
 43
0.0000001
 44
0.0000000001
 40
0.0
 40
0.0
 40
0.0
 40
0.0
 40
0.2418461862
 40
1.0
 40
1.0
 40
1.0
 40
1.0
 10
46.5332797973
 20
324.7750407775
 30
0.0
 10
46.6322649839
 20
324.7372860135
 30
0.0
 10
47.0380931341
 20
324.5721603642
 30
0.0
 10
47.4297333544
 20
324.3728594909
 30
0.0
 10
47.7173507296
 20
324.2068072785
 30
0.0
  0
SPLINE
  5
372
100
AcDbEntity
  8
0
100
AcDbSpline
 62
7
  6
BYLAYER
 70
0
 71
3
 72
9
 73
5
 74
0
 42
0.0000001
 43
0.0000001
 44
0.0000000001
 40
0.0
 40
0.0
 40
0.0
 40
0.0
 40
0.4881482571
 40
1.0
 40
1.0
 40
1.0
 40
1.0
 10
209.4885643747
 20
27.6823819131
 30
0.0
 10
209.784275943
 20
27.8531100581
 30
0.0
 10
210.3427003546
 20
28.2911575382
 30
0.0
 10
210.7631427282
 20
28.86033294
 30
0.0
 10
210.9426019192
 20
29.1701487274
 30
0.0
  0
SPLINE
  5
373
100
AcDbEntity
  8
0
100
AcDbSpline
 62
7
  6
BYLAYER
 70
0
 71
3
 72
9
 73
5
 74
0
 42
0.0000001
 43
0.0000001
 44
0.0000000001
 40
0.0
 40
0.0
 40
0.0
 40
0.0
 40
0.2268155391
 40
1.0
 40
1.0
 40
1.0
 40
1.0
 10
210.9426019192
 20
29.1701487274
 30
0.0
 10
211.0815665165
 20
29.4100552258
 30
0.0
 10
211.6023479207
 20
30.5214962398
 30
0.0
 10
211.7668364033
 20
31.7728561533
 30
0.0
 10
211.7668364033
 20
32.7179572453
 30
0.0
  0
SPLINE
  5
374
100
AcDbEntity
  8
0
100
AcDbSpline
 62
7
  6
BYLAYER
 70
0
 71
3
 72
11
 73
7
 74
0
 42
0.0000001
 43
0.0000001
 44
0.0000000001
 40
0.0
 40
0.0
 40
0.0
 40
0.0
 40
0.237239768
 40
0.4999988393
 40
0.7627585384
 40
1.0
 40
1.0
 40
1.0
 40
1.0
 10
62.5666843973
 20
132.7372975402
 30
0.0
 10
61.6631774556
 20
133.2589257154
 30
0.0
 10
59.9534134932
 20
134.6979082029
 30
0.0
 10
57.9578865841
 20
137.4248561585
 30
0.0
 10
56.5940265104
 20
140.5165076648
 30
0.0
 10
56.202696871
 20
142.7167045861
 30
0.0
 10
56.202696871
 20
143.7599860851
 30
0.0
  0
SPLINE
  5
375
100
AcDbEntity
  8
0
100
AcDbSpline
 62
7
  6
BYLAYER
 70
0
 71
3
 72
11
 73
7
 74
0
 42
0.0000001
 43
0.0000001
 44
0.0000000001
 40
0.0
 40
0.0
 40
0.0
 40
0.0
 40
0.237239768
 40
0.4999988393
 40
0.7627585384
 40
1.0
 40
1.0
 40
1.0
 40
1.0
 10
106.4074873564
 20
227.452226078
 30
0.0
 10
105.7047597351
 20
227.857936881
 30
0.0
 10
104.3749433199
 20
228.9771454823
 30
0.0
 10
102.8228668351
 20
231.0981050034
 30
0.0
 10
101.7620867777
 20
233.5027228416
 30
0.0
 10
101.4577192804
 20
235.2139871137
 30
0.0
 10
101.4577192804
 20
236.0254282796
 30
0.0
  0
SPLINE
  5
376
100
AcDbEntity
  8
0
100
AcDbSpline
 62
7
  6
BYLAYER
 70
0
 71
3
 72
11
 73
7
 74
0
 42
0.0000001
 43
0.0000001
 44
0.0000000001
 40
0.0
 40
0.0
 40
0.0
 40
0.0
 40
0.2177843137
 40
0.4509117637
 40
0.7102976701
 40
1.0
 40
1.0
 40
1.0
 40
1.0
 10
207.4885962932
 20
31.1464489215
 30
0.0
 10
207.2576952459
 20
31.0131390374
 30
0.0
 10
206.727164192
 20
30.820604973
 30
0.0
 10
205.8459611523
 20
30.7982930819
 30
0.0
 10
204.9068052314
 20
31.0250824943
 30
0.0
 10
204.2957811952
 20
31.3157584806
 30
0.0
 10
203.9886294267
 20
31.4930886251
 30
0.0
  0
SPLINE
  5
377
100
AcDbEntity
  8
0
100
AcDbSpline
 62
7
  6
BYLAYER
 70
0
 71
3
 72
9
 73
5
 74
0
 42
0.0000001
 43
0.0000001
 44
0.0000000001
 40
0.0
 40
0.0
 40
0.0
 40
0.0
 40
0.2613241236
 40
1.0
 40
1.0
 40
1.0
 40
1.0
 10
214.5952458643
 20
35.1674187691
 30
0.0
 10
214.5952458643
 20
35.0171098461
 30
0.0
 10
214.581366883
 20
34.4421387069
 30
0.0
 10
214.5104268821
 20
33.8675731675
 30
0.0
 10
214.417958693
 20
33.4528844452
 30
0.0
  0
SPLINE
  5
378
100
AcDbEntity
  8
0
100
AcDbSpline
 62
7
  6
BYLAYER
 70
0
 71
3
 72
9
 73
5
 74
0
 42
0.0000001
 43
0.0000001
 44
0.0000000001
 40
0.0
 40
0.0
 40
0.0
 40
0.0
 40
0.2631347348
 40
1.0
 40
1.0
 40
1.0
 40
1.0
 10
214.417958693
 20
33.4528844452
 30
0.0
 10
214.3875966123
 20
33.316720727
 30
0.0
 10
214.2557229325
 20
32.8032979081
 30
0.0
 10
214.053757638
 20
32.3061274805
 30
0.0
 10
213.8601458433
 20
31.9668101449
 30
0.0
  0
SPLINE
  5
379
100
AcDbEntity
  8
0
100
AcDbSpline
 62
7
  6
BYLAYER
 70
0
 71
3
 72
9
 73
5
 74
0
 42
0.0000001
 43
0.0000001
 44
0.0000000001
 40
0.0
 40
0.0
 40
0.0
 40
0.0
 40
0.2429422318
 40
1.0
 40
1.0
 40
1.0
 40
1.0
 10
41.1940860388
 20
319.972034268
 30
0.0
 10
41.1666026451
 20
319.9261766481
 30
0.0
 10
41.0585014654
 20
319.7344237124
 30
0.0
 10
40.9703714998
 20
319.5316284665
 30
0.0
 10
40.9141211619
 20
319.3748111154
 30
0.0
  0
SPLINE
  5
37A
100
AcDbEntity
  8
0
100
AcDbSpline
 62
7
  6
BYLAYER
 70
0
 71
3
 72
9
 73
5
 74
0
 42
0.0000001
 43
0.0000001
 44
0.0000000001
 40
0.0
 40
0.0
 40
0.0
 40
0.0
 40
0.2418167447
 40
1.0
 40
1.0
 40
1.0
 40
1.0
 10
40.9141211619
 20
319.3748111154
 30
0.0
 10
40.8934955296
 20
319.3173100026
 30
0.0
 10
40.8139249995
 20
319.077481749
 30
0.0
 10
40.7568939163
 20
318.8303883989
 30
0.0
 10
40.7246109851
 20
318.6415942716
 30
0.0
  0
SPLINE
  5
37B
100
AcDbEntity
  8
0
100
AcDbSpline
 62
7
  6
BYLAYER
 70
0
 71
3
 72
10
 73
6
 74
0
 42
0.0000001
 43
0.0000001
 44
0.0000000001
 40
0.0
 40
0.0
 40
0.0
 40
0.0
 40
0.2309868777
 40
0.4706396094
 40
1.0
 40
1.0
 40
1.0
 40
1.0
 10
192.1036996932
 20
57.7936637157
 30
0.0
 10
192.4082119855
 20
57.9694729309
 30
0.0
 10
192.9867160014
 20
58.4062797083
 30
0.0
 10
193.959723921
 20
59.5910515874
 30
0.0
 10
194.3871220162
 20
60.7195090076
 30
0.0
 10
194.5634601703
 20
61.50579755
 30
0.0
  0
SPLINE
  5
37C
100
AcDbEntity
  8
0
100
AcDbSpline
 62
7
  6
BYLAYER
 70
0
 71
3
 72
9
 73
5
 74
0
 42
0.0000001
 43
0.0000001
 44
0.0000000001
 40
0.0
 40
0.0
 40
0.0
 40
0.0
 40
0.2387985049
 40
1.0
 40
1.0
 40
1.0
 40
1.0
 10
194.5634601703
 20
61.50579755
 30
0.0
 10
194.602716837
 20
61.680842295
 30
0.0
 10
194.7437013179
 20
62.4190651851
 30
0.0
 10
194.7962029998
 20
63.1729604143
 30
0.0
 10
194.7962029998
 20
63.7447981991
 30
0.0
  0
SPLINE
  5
37D
100
AcDbEntity
  8
0
100
AcDbSpline
 62
7
  6
BYLAYER
 70
0
 71
3
 72
11
 73
7
 74
0
 42
0.0000001
 43
0.0000001
 44
0.0000000001
 40
0.0
 40
0.0
 40
0.0
 40
0.0
 40
0.289775222
 40
0.5490688033
 40
0.782225076
 40
1.0
 40
1.0
 40
1.0
 40
1.0
 10
62.5666843973
 20
292.7717712976
 30
0.0
 10
61.996112083
 20
293.1011839246
 30
0.0
 10
60.8614668626
 20
293.6412284682
 30
0.0
 10
59.1172143794
 20
294.0620557573
 30
0.0
 10
57.4808432014
 20
294.0207843111
 30
0.0
 10
56.4955619947
 20
293.6630709144
 30
0.0
 10
56.066761277
 20
293.4155041672
 30
0.0
  0
SPLINE
  5
37E
100
AcDbEntity
  8
0
100
AcDbSpline
 62
7
  6
BYLAYER
 70
0
 71
3
 72
9
 73
5
 74
0
 42
0.0000001
 43
0.0000001
 44
0.0000000001
 40
0.0
 40
0.0
 40
0.0
 40
0.0
 40
0.4903665041
 40
1.0
 40
1.0
 40
1.0
 40
1.0
 10
150.8194352567
 20
240.3442430404
 30
0.0
 10
151.1315100875
 20
240.5244184635
 30
0.0
 10
151.8169766551
 20
240.8123305689
 30
0.0
 10
152.5500762124
 20
240.9267454853
 30
0.0
 10
152.9240919957
 20
240.9459996197
 30
0.0
  0
SPLINE
  5
37F
100
AcDbEntity
  8
0
100
AcDbSpline
 62
7
  6
BYLAYER
 70
0
 71
3
 72
11
 73
7
 74
0
 42
0.0000001
 43
0.0000001
 44
0.0000000001
 40
0.0
 40
0.0
 40
0.0
 40
0.0
 40
0.2177843137
 40
0.4509117637
 40
0.7102976701
 40
1.0
 40
1.0
 40
1.0
 40
1.0
 10
145.2629404803
 20
206.6935486485
 30
0.0
 10
145.0320394329
 20
206.5602387644
 30
0.0
 10
144.5015083791
 20
206.3677046999
 30
0.0
 10
143.6203053394
 20
206.3453928088
 30
0.0
 10
142.6811494185
 20
206.5721822212
 30
0.0
 10
142.0701253822
 20
206.8628582076
 30
0.0
 10
141.7629736138
 20
207.040188352
 30
0.0
  0
SPLINE
  5
380
100
AcDbEntity
  8
0
100
AcDbSpline
 62
7
  6
BYLAYER
 70
0
 71
3
 72
9
 73
5
 74
0
 42
0.0000001
 43
0.0000001
 44
0.0000000001
 40
0.0
 40
0.0
 40
0.0
 40
0.0
 40
0.4903665041
 40
1.0
 40
1.0
 40
1.0
 40
1.0
 10
57.4809515373
 20
294.2320226371
 30
0.0
 10
57.793026368
 20
294.4121980602
 30
0.0
 10
58.4784929357
 20
294.7001101656
 30
0.0
 10
59.211592493
 20
294.814525082
 30
0.0
 10
59.5856082763
 20
294.8337792164
 30
0.0
  0
SPLINE
  5
381
100
AcDbEntity
  8
0
100
AcDbSpline
 62
7
  6
BYLAYER
 70
0
 71
3
 72
11
 73
7
 74
0
 42
0.0000001
 43
0.0000001
 44
0.0000000001
 40
0.0
 40
0.0
 40
0.0
 40
0.0
 40
0.2177843137
 40
0.4509117637
 40
0.7102976701
 40
1.0
 40
1.0
 40
1.0
 40
1.0
 10
190.1037339727
 20
61.2577266349
 30
0.0
 10
189.8068611975
 20
61.0863282124
 30
0.0
 10
189.1247498425
 20
60.8387844153
 30
0.0
 10
187.9917745058
 20
60.8100976982
 30
0.0
 10
186.7842883218
 20
61.1016840856
 30
0.0
 10
185.9986859895
 20
61.4754103537
 30
0.0
 10
185.6037765729
 20
61.7034062537
 30
0.0
  0
SPLINE
  5
382
100
AcDbEntity
  8
0
100
AcDbSpline
 62
7
  6
BYLAYER
 70
0
 71
3
 72
11
 73
7
 74
0
 42
0.0000001
 43
0.0000001
 44
0.0000000001
 40
0.0
 40
0.0
 40
0.0
 40
0.0
 40
0.2896998348
 40
0.5490836314
 40
0.7822135447
 40
1.0
 40
1.0
 40
1.0
 40
1.0
 10
47.7173507296
 20
324.2068072785
 30
0.0
 10
47.9806187376
 20
324.3588042265
 30
0.0
 10
48.5043406173
 20
324.6079625885
 30
0.0
 10
49.3093209527
 20
324.8023645807
 30
0.0
 10
50.0646362734
 20
324.7832614975
 30
0.0
 10
50.5193830782
 20
324.618239251
 30
0.0
 10
50.7172998285
 20
324.5039745859
 30
0.0
  0
SPLINE
  5
383
100
AcDbEntity
  8
0
100
AcDbSpline
 62
7
  6
BYLAYER
 70
0
 71
3
 72
9
 73
5
 74
0
 42
0.0000001
 43
0.0000001
 44
0.0000000001
 40
0.0
 40
0.0
 40
0.0
 40
0.0
 40
0.2585019258
 40
1.0
 40
1.0
 40
1.0
 40
1.0
 10
144.0535212924
 20
207.4411611108
 30
0.0
 10
144.1147719229
 20
207.4185066881
 30
0.0
 10
144.3533899806
 20
207.3355358883
 30
0.0
 10
144.5989829605
 20
207.2720383506
 30
0.0
 10
144.7833093886
 20
207.2386480466
 30
0.0
  0
SPLINE
  5
384
100
AcDbEntity
  8
0
100
AcDbSpline
 62
7
  6
BYLAYER
 70
0
 71
3
 72
9
 73
5
 74
0
 42
0.0000001
 43
0.0000001
 44
0.0000000001
 40
0.0
 40
0.0
 40
0.0
 40
0.0
 40
0.2628428805
 40
1.0
 40
1.0
 40
1.0
 40
1.0
 10
144.7833093886
 20
207.2386480466
 30
0.0
 10
144.8793229692
 20
207.2212554097
 30
0.0
 10
145.2467969499
 20
207.1690301905
 30
0.0
 10
145.6244122207
 20
207.1773115272
 30
0.0
 10
145.8936920553
 20
207.2260650604
 30
0.0
  0
SPLINE
  5
385
100
AcDbEntity
  8
0
100
AcDbSpline
 62
7
  6
BYLAYER
 70
0
 71
3
 72
11
 73
7
 74
0
 42
0.0000001
 43
0.0000001
 44
0.0000000001
 40
0.0
 40
0.0
 40
0.0
 40
0.0
 40
0.2897018299
 40
0.5490862149
 40
0.782215308
 40
1.0
 40
1.0
 40
1.0
 40
1.0
 10
214.5952458643
 20
219.6969650404
 30
0.0
 10
214.8585163387
 20
219.8489634124
 30
0.0
 10
215.3361600953
 20
220.1779402052
 30
0.0
 10
215.9070136681
 20
220.7778720926
 30
0.0
 10
216.2681298018
 20
221.4415447847
 30
0.0
 10
216.3525875024
 20
221.9178775846
 30
0.0
 10
216.3525875134
 20
222.1464095675
 30
0.0
  0
SPLINE
  5
386
100
AcDbEntity
  8
0
100
AcDbSpline
 62
7
  6
BYLAYER
 70
0
 71
3
 72
11
 73
7
 74
0
 42
0.0000001
 43
0.0000001
 44
0.0000000001
 40
0.0
 40
0.0
 40
0.0
 40
0.0
 40
0.2372243744
 40
0.4999989081
 40
0.7627740361
 40
1.0
 40
1.0
 40
1.0
 40
1.0
 10
207.5241486128
 20
231.9443967569
 30
0.0
 10
208.527981011
 20
231.3648469628
 30
0.0
 10
210.4277664121
 20
229.7660333958
 30
0.0
 10
212.6450304778
 20
226.7359946483
 30
0.0
 10
214.1605076758
 20
223.3007679861
 30
0.0
 10
214.5952458643
 20
220.856092062
 30
0.0
 10
214.5952458643
 20
219.6969650404
 30
0.0
  0
SPLINE
  5
387
100
AcDbEntity
  8
0
100
AcDbSpline
 62
7
  6
BYLAYER
 70
0
 71
3
 72
9
 73
5
 74
0
 42
0.0000001
 43
0.0000001
 44
0.0000000001
 40
0.0
 40
0.0
 40
0.0
 40
0.0
 40
0.5407966302
 40
1.0
 40
1.0
 40
1.0
 40
1.0
 10
59.0311063319
 20
288.2808681895
 30
0.0
 10
59.4088981103
 20
288.4989850725
 30
0.0
 10
60.0685127968
 20
288.9822713403
 30
0.0
 10
60.5349233978
 20
289.6722638588
 30
0.0
 10
60.6610929085
 20
290.0205322819
 30
0.0
  0
SPLINE
  5
388
100
AcDbEntity
  8
0
100
AcDbSpline
 62
7
  6
BYLAYER
 70
0
 71
3
 72
9
 73
5
 74
0
 42
0.0000001
 43
0.0000001
 44
0.0000000001
 40
0.0
 40
0.0
 40
0.0
 40
0.0
 40
0.2585019258
 40
1.0
 40
1.0
 40
1.0
 40
1.0
 10
206.2791771053
 20
31.8940613839
 30
0.0
 10
206.3404277358
 20
31.8714069612
 30
0.0
 10
206.5790457936
 20
31.7884361614
 30
0.0
 10
206.8246387734
 20
31.7249386236
 30
0.0
 10
207.0089652016
 20
31.6915483197
 30
0.0
  0
SPLINE
  5
389
100
AcDbEntity
  8
0
100
AcDbSpline
 62
7
  6
BYLAYER
 70
0
 71
3
 72
9
 73
5
 74
0
 42
0.0000001
 43
0.0000001
 44
0.0000000001
 40
0.0
 40
0.0
 40
0.0
 40
0.0
 40
0.2628428805
 40
1.0
 40
1.0
 40
1.0
 40
1.0
 10
207.0089652016
 20
31.6915483197
 30
0.0
 10
207.1049787822
 20
31.6741556827
 30
0.0
 10
207.4724527628
 20
31.6219304635
 30
0.0
 10
207.8500680336
 20
31.6302118003
 30
0.0
 10
208.1193478683
 20
31.6789653335
 30
0.0
  0
SPLINE
  5
38A
100
AcDbEntity
  8
0
100
AcDbSpline
 62
7
  6
BYLAYER
 70
0
 71
3
 72
11
 73
7
 74
0
 42
0.0000001
 43
0.0000001
 44
0.0000000001
 40
0.0
 40
0.0
 40
0.0
 40
0.0
 40
0.2336123871
 40
0.4921572231
 40
0.7549119479
 40
1.0
 40
1.0
 40
1.0
 40
1.0
 10
59.0311063319
 20
146.209447609
 30
0.0
 10
59.0311063319
 20
145.1554700557
 30
0.0
 10
59.3923886609
 20
142.9330480684
 30
0.0
 10
60.6817623054
 20
139.7569775588
 30
0.0
 10
62.6049345564
 20
136.8571406959
 30
0.0
 10
64.2623735576
 20
135.2373393154
 30
0.0
 10
65.1539776672
 20
134.5833293451
 30
0.0
  0
SPLINE
  5
38B
100
AcDbEntity
  8
0
100
AcDbSpline
 62
7
  6
BYLAYER
 70
0
 71
3
 72
9
 73
5
 74
0
 42
0.0000001
 43
0.0000001
 44
0.0000000001
 40
0.0
 40
0.0
 40
0.0
 40
0.0
 40
0.2560685026
 40
1.0
 40
1.0
 40
1.0
 40
1.0
 10
65.1539776672
 20
134.5833293451
 30
0.0
 10
65.232023101
 20
134.5260814126
 30
0.0
 10
65.5396307823
 20
134.3064115935
 30
0.0
 10
65.8586789237
 20
134.1026117396
 30
0.0
 10
66.1022035834
 20
133.9620158925
 30
0.0
  0
SPLINE
  5
38C
100
AcDbEntity
  8
0
100
AcDbSpline
 62
7
  6
BYLAYER
 70
0
 71
3
 72
11
 73
7
 74
0
 42
0.0000001
 43
0.0000001
 44
0.0000000001
 40
0.0
 40
0.0
 40
0.0
 40
0.0
 40
0.2896998348
 40
0.5490836314
 40
0.7822135447
 40
1.0
 40
1.0
 40
1.0
 40
1.0
 10
66.1022035834
 20
133.9620158925
 30
0.0
 10
66.3654715915
 20
134.1140128405
 30
0.0
 10
66.8891934711
 20
134.3631712024
 30
0.0
 10
67.6941738065
 20
134.5575731946
 30
0.0
 10
68.4494891272
 20
134.5384701115
 30
0.0
 10
68.904235932
 20
134.373447865
 30
0.0
 10
69.1021526823
 20
134.2591831998
 30
0.0
  0
SPLINE
  5
38D
100
AcDbEntity
  8
0
100
AcDbSpline
 62
7
  6
BYLAYER
 70
0
 71
3
 72
9
 73
5
 74
0
 42
0.0000001
 43
0.0000001
 44
0.0000000001
 40
0.0
 40
0.0
 40
0.0
 40
0.0
 40
0.2649997722
 40
1.0
 40
1.0
 40
1.0
 40
1.0
 10
189.139295759
 20
62.9281246059
 30
0.0
 10
189.3053637628
 20
62.8322473683
 30
0.0
 10
189.9426770485
 20
62.4899666488
 30
0.0
 10
190.6262620081
 20
62.2278873327
 30
0.0
 10
191.1439059139
 20
62.1057537279
 30
0.0
  0
SPLINE
  5
38E
100
AcDbEntity
  8
0
100
AcDbSpline
 62
7
  6
BYLAYER
 70
0
 71
3
 72
9
 73
5
 74
0
 42
0.0000001
 43
0.0000001
 44
0.0000000001
 40
0.0
 40
0.0
 40
0.0
 40
0.0
 40
0.2613241236
 40
1.0
 40
1.0
 40
1.0
 40
1.0
 10
152.3695900513
 20
210.7145184961
 30
0.0
 10
152.3695900513
 20
210.564209573
 30
0.0
 10
152.35571107
 20
209.9892384338
 30
0.0
 10
152.2847710692
 20
209.4146728944
 30
0.0
 10
152.1923028801
 20
208.9999841722
 30
0.0
  0
SPLINE
  5
38F
100
AcDbEntity
  8
0
100
AcDbSpline
 62
7
  6
BYLAYER
 70
0
 71
3
 72
9
 73
5
 74
0
 42
0.0000001
 43
0.0000001
 44
0.0000000001
 40
0.0
 40
0.0
 40
0.0
 40
0.0
 40
0.2631347348
 40
1.0
 40
1.0
 40
1.0
 40
1.0
 10
152.1923028801
 20
208.9999841722
 30
0.0
 10
152.1619407994
 20
208.863820454
 30
0.0
 10
152.0300671195
 20
208.350397635
 30
0.0
 10
151.828101825
 20
207.8532272074
 30
0.0
 10
151.6344900303
 20
207.5139098719
 30
0.0
  0
SPLINE
  5
390
100
AcDbEntity
  8
0
100
AcDbSpline
 62
7
  6
BYLAYER
 70
0
 71
3
 72
9
 73
5
 74
0
 42
0.0000001
 43
0.0000001
 44
0.0000000001
 40
0.0
 40
0.0
 40
0.0
 40
0.0
 40
0.5407966302
 40
1.0
 40
1.0
 40
1.0
 40
1.0
 10
152.3695900513
 20
234.3930885928
 30
0.0
 10
152.7473818297
 20
234.6112054758
 30
0.0
 10
153.4069965163
 20
235.0944917436
 30
0.0
 10
153.8734071172
 20
235.7844842622
 30
0.0
 10
153.9995766279
 20
236.1327526852
 30
0.0
  0
ENDSEC
  0
SECTION
  2
OBJECTS
  0
DICTIONARY
  5
C
100
AcDbDictionary
280
0
281
1
  3
ACAD_GROUP
350
D
  3
ACAD_MLINESTYLE
350
17
  3
ACAD_LAYOUT
350
1A
  3
ACAD_PLOTSETTINGS
350
19
  3
ACAD_PLOTSTYLENAME
350
E
  0
DICTIONARY
  5
D
102
{ACAD_REACTORS
330
C
102
}
100
AcDbDictionary
280
0
281
1
  0
ACDBDICTIONARYWDFLT
  5
E
102
{ACAD_REACTORS
330
C
102
}
100
AcDbDictionary
281
1
  3
Normal
350
F
100
AcDbDictionaryWithDefault
340
F
  0
DICTIONARY
  5
17
102
{ACAD_REACTORS
330
C
102
}
100
AcDbDictionary
280
0
281
1
  3
Standard
350
18
  0
DICTIONARY
  5
19
102
{ACAD_REACTORS
330
C
102
}
100
AcDbDictionary
281
1
  0
DICTIONARY
  5
1A
102
{ACAD_REACTORS
330
C
102
}
100
AcDbDictionary
281
1
  3
Model
350
391
  3
Layout1
350
392
  0
ACDBPLACEHOLDER
  5
F
102
{ACAD_REACTORS
330
E
102
}
  0
MLINESTYLE
  5
18
102
{ACAD_REACTORS
330
17
102
}
100
AcDbMlineStyle
  2
STANDARD
 70
0
  3

 62
256
 51
90.0
 52
90.0
 71
2
 49
0.5
 62
256
  6
BYLAYER
 49
-0.5
 62
256
  6
BYLAYER
  0
LAYOUT
  5
391
102
{ACAD_REACTORS
330
1A
102
}
100
AcDbPlotSettings
  1

  2
none_device
  4

  6

 40
0.0
 41
0.0
 42
0.0
 43
0.0
 44
210.0
 45
297.0
 46
0.0
 47
0.0
 48
0.0
 49
0.0
140
0.0
141
0.0
142
1.0
143
1.0
 70
1024
 72
1
 73
0
 74
0
  7

 75
0
147
1.0
148
0.0
149
0.0
100
AcDbLayout
  1
Model
 70
0
 71
0
 10
0.0
 20
0.0
 11
210.0
 21
297.0
 12
0.0
 22
0.0
 32
0.0
 14
0.0
 24
0.0
 34
0.0
 15
0.0
 25
0.0
 35
0.0
146
0.0
 13
0.0
 23
0.0
 33
0.0
 16
1.0
 26
0.0
 36
0.0
 17
0.0
 27
1.0
 37
0.0
 76
0
330
211
345
0
346
0
  0
LAYOUT
  5
392
102
{ACAD_REACTORS
330
1A
102
}
100
AcDbPlotSettings
  1

  2
none_device
  4

  6

 40
0.0
 41
0.0
 42
0.0
 43
0.0
 44
210.0
 45
297.0
 46
0.0
 47
0.0
 48
0.0
 49
0.0
140
0.0
141
0.0
142
1.0
143
1.0
 70
0
 72
1
 73
0
 74
0
  7

 75
0
147
1.0
148
0.0
149
0.0
100
AcDbLayout
  1
Layout1
 70
0
 71
1
 10
0.0
 20
0.0
 11
210.0
 21
297.0
 12
0.0
 22
0.0
 32
0.0
 14
0.0
 24
0.0
 34
0.0
 15
0.0
 25
0.0
 35
0.0
146
0.0
 13
0.0
 23
0.0
 33
0.0
 16
1.0
 26
0.0
 36
0.0
 17
0.0
 27
1.0
 37
0.0
 76
0
330
212
345
0
346
0
  0
ENDSEC
  0
EOF
