999
DXF file: C:\Users\sesa63760\Dev\_Creo\CAD\MCADID0003560_3D-CAD\drw0001_5.dxf
999
Pro/ENGINEER 2019471 by Parametric Technology Corporation
  0
SECTION
  2
HEADER
  9
$ACADVER
  1
AC1024
  9
$DWGCODEPAGE
  3
ANSI_1252
  9
$EXTMAX
 10
78.2520193108
 20
110.6707130252
 30
0.0
  9
$EXTMIN
 10
0.0
 20
0.0
 30
0.0
  9
$LIMMIN
 10
0.0
 20
0.0
  9
$LIMMAX
 10
78.2520193108
 20
110.6707130252
  9
$VIEWCTR
 10
39.1260096554
 20
55.3353565126
  9
$VIEWSIZE
 40
110.6707130252
  9
$CLAYER
  8
0
  9
$LTSCALE
 40
7.2140909231
  9
$CELTYPE
  6
BYLAYER
  9
$DIMSCALE
 40
1.0
  9
$DIMASZ
 40
0.9315716585
  9
$DIMEXO
 40
1.0
  9
$DIMDLI
 40
4.9842810014
  9
$DIMEXE
 40
1.0
  9
$DIMCEN
 40
1.1804876056
  9
$DIMLFAC
 40
1.0
  9
$DIMBLK
  1
_FILLED
  9
$DIMALT
 70
0
  9
$DIMALTF
 40
0.0393700787
  9
$DIMTXT
 40
1.3042003218
  9
$DIMTOL
 70
1
  9
$DIMLIM
 70
0
  9
$DIMTFAC
 40
1.0
  9
$DIMTP
 40
0.01
  9
$DIMTM
 40
0.01
  9
$DIMGAP
 40
0.625
  9
$DIMDSEP
 70
46
  9
$AUNITS
 70
0
  9
$PDMODE
 70
3
  9
$PDSIZE
 40
0.3125
  9
$HANDSEED
  5
276
  9
$TILEMODE
 70
1
  9
$MEASUREMENT
 70
1
  9
$INSUNITS
 70
4
  0
ENDSEC
  0
SECTION
  2
CLASSES
  0
CLASS
  1
ACDBDICTIONARYWDFLT
  2
AcDbDictionaryWithDefault
  3
AutoCAD 2000
 90
0
 91
1
280
0
281
0
  0
CLASS
  1
ACDBPLACEHOLDER
  2
AcDbPlaceHolder
  3
AutoCAD 2000
 90
0
 91
1
280
0
281
0
  0
CLASS
  1
LAYOUT
  2
AcDbLayout
  3
AutoCAD 2000
 90
0
 91
0
280
0
281
0
  0
ENDSEC
  0
SECTION
  2
TABLES
  0
TABLE
  2
VPORT
  5
8
100
AcDbSymbolTable
 70
2
  0
VPORT
  5
1F4
100
AcDbSymbolTableRecord
100
AcDbViewportTableRecord
  2
*ACTIVE
 70
0
 10
0.0
 20
0.0
 11
1.0
 21
1.0
 12
39.1260096554
 22
55.3353565126
 13
0.0
 23
0.0
 14
1.0
 24
1.0
 15
0.0
 25
0.0
 16
0.0
 26
0.0
 36
1.0
 17
0.0
 27
0.0
 37
0.0
 40
110.6707130252
 41
0.7070707071
 42
50.0
 43
0.0
 44
0.0
 50
0.0
 51
0.0
 71
0
 72
100
 73
1
 74
1
 75
0
 76
0
 77
0
 78
0
  0
ENDTAB
  0
TABLE
  2
LTYPE
  5
5
100
AcDbSymbolTable
 70
6
  0
LTYPE
  5
14
100
AcDbSymbolTableRecord
100
AcDbLinetypeTableRecord
  2
BYBLOCK
 70
0
  3

 72
65
 73
0
 40
0.0
  0
LTYPE
  5
15
100
AcDbSymbolTableRecord
100
AcDbLinetypeTableRecord
  2
BYLAYER
 70
0
  3

 72
65
 73
0
 40
0.0
  0
LTYPE
  5
16
100
AcDbSymbolTableRecord
100
AcDbLinetypeTableRecord
  2
CONTINUOUS
 70
64
  3
Solid line
 72
65
 73
0
 40
0.0
  0
LTYPE
  5
1F5
100
AcDbSymbolTableRecord
100
AcDbLinetypeTableRecord
  2
CENTER
 70
64
  3
____ _ ____ _ ____ _ ____ _ ____ _ ____ _ ____
 72
65
 73
4
 40
0.6
 49
0.375
 74
0
 49
-0.075
 74
0
 49
0.075
 74
0
 49
-0.075
 74
0
  0
LTYPE
  5
1F6
100
AcDbSymbolTableRecord
100
AcDbLinetypeTableRecord
  2
HIDDEN
 70
64
  3
- - - - - - - - - - - - - - - - - - - -
 72
65
 73
2
 40
0.2
 49
0.1
 74
0
 49
-0.1
 74
0
  0
LTYPE
  5
1F7
100
AcDbSymbolTableRecord
100
AcDbLinetypeTableRecord
  2
PHANTOM
 70
64
  3
_____ _ _ _____ _ _ _____ _ _ _____
 72
65
 73
6
 40
0.8
 49
0.45
 74
0
 49
-0.05
 74
0
 49
0.1
 74
0
 49
-0.05
 74
0
 49
0.1
 74
0
 49
-0.05
 74
0
  0
LTYPE
  5
1F8
100
AcDbSymbolTableRecord
100
AcDbLinetypeTableRecord
  2
DOT
 70
64
  3
. . . . . . . . . . . . . . . . . . . .
 72
65
 73
2
 40
0.2
 49
0.1
 74
0
 49
-0.1
 74
0
  0
LTYPE
  5
1F9
100
AcDbSymbolTableRecord
100
AcDbLinetypeTableRecord
  2
DASHED
 70
64
  3
- - - - - - - - - - - - - - - - - - - -
 72
65
 73
2
 40
0.2
 49
0.1
 74
0
 49
-0.1
 74
0
  0
ENDTAB
  0
TABLE
  2
LAYER
  5
2
100
AcDbSymbolTable
 70
36
  0
LAYER
  5
10
100
AcDbSymbolTableRecord
100
AcDbLayerTableRecord
  2
0
 70
0
 62
7
  6
CONTINUOUS
370
-3
390
F
  0
LAYER
  5
1FA
100
AcDbSymbolTableRecord
100
AcDbLayerTableRecord
  2
DEFAULT_1
 70
0
 62
7
  6
CENTER
370
-3
390
F
  0
LAYER
  5
1FB
100
AcDbSymbolTableRecord
100
AcDbLayerTableRecord
  2
DEFAULT_2
 70
0
 62
7
  6
HIDDEN
370
-3
390
F
  0
LAYER
  5
1FC
100
AcDbSymbolTableRecord
100
AcDbLayerTableRecord
  2
DEFAULT_3
 70
0
 62
7
  6
PHANTOM
370
-3
390
F
  0
LAYER
  5
1FD
100
AcDbSymbolTableRecord
100
AcDbLayerTableRecord
  2
00_COMPONENTS
 70
0
 62
7
  6
CONTINUOUS
370
-3
390
F
  0
LAYER
  5
1FE
100
AcDbSymbolTableRecord
100
AcDbLayerTableRecord
  2
01_1_DEFAULT_DATUMS
 70
0
 62
7
  6
CONTINUOUS
370
-3
390
F
  0
LAYER
  5
1FF
100
AcDbSymbolTableRecord
100
AcDbLayerTableRecord
  2
01_PLANES
 70
0
 62
7
  6
CONTINUOUS
370
-3
390
F
  0
LAYER
  5
200
100
AcDbSymbolTableRecord
100
AcDbLayerTableRecord
  2
02_COORD_SYS
 70
0
 62
7
  6
CONTINUOUS
370
-3
390
F
  0
LAYER
  5
201
100
AcDbSymbolTableRecord
100
AcDbLayerTableRecord
  2
03_AXES
 70
0
 62
7
  6
CONTINUOUS
370
-3
390
F
  0
LAYER
  5
202
100
AcDbSymbolTableRecord
100
AcDbLayerTableRecord
  2
04_POINTS
 70
0
 62
7
  6
CONTINUOUS
370
-3
390
F
  0
LAYER
  5
203
100
AcDbSymbolTableRecord
100
AcDbLayerTableRecord
  2
05_CURVES
 70
0
 62
7
  6
CONTINUOUS
370
-3
390
F
  0
LAYER
  5
204
100
AcDbSymbolTableRecord
100
AcDbLayerTableRecord
  2
06_SURFS
 70
0
 62
7
  6
CONTINUOUS
370
-3
390
F
  0
LAYER
  5
205
100
AcDbSymbolTableRecord
100
AcDbLayerTableRecord
  2
07_COSMETICS
 70
0
 62
7
  6
CONTINUOUS
370
-3
390
F
  0
LAYER
  5
206
100
AcDbSymbolTableRecord
100
AcDbLayerTableRecord
  2
10_NOTES
 70
0
 62
7
  6
CONTINUOUS
370
-3
390
F
  0
LAYER
  5
207
100
AcDbSymbolTableRecord
100
AcDbLayerTableRecord
  2
11_NOTES_PUB
 70
0
 62
7
  6
CONTINUOUS
370
-3
390
F
  0
LAYER
  5
208
100
AcDbSymbolTableRecord
100
AcDbLayerTableRecord
  2
13_REF_GTOL
 70
0
 62
7
  6
CONTINUOUS
370
-3
390
F
  0
LAYER
  5
209
100
AcDbSymbolTableRecord
100
AcDbLayerTableRecord
  2
16_MISC
 70
0
 62
7
  6
CONTINUOUS
370
-3
390
F
  0
LAYER
  5
20A
100
AcDbSymbolTableRecord
100
AcDbLayerTableRecord
  2
17_NO_PRINT
 70
0
 62
7
  6
CONTINUOUS
370
-3
390
F
  0
LAYER
  5
20B
100
AcDbSymbolTableRecord
100
AcDbLayerTableRecord
  2
18_DATUM_CAMS_JOINTS
 70
0
 62
7
  6
CONTINUOUS
370
-3
390
F
  0
LAYER
  5
20C
100
AcDbSymbolTableRecord
100
AcDbLayerTableRecord
  2
19_DATUM_FUNCTIONAL
 70
0
 62
7
  6
CONTINUOUS
370
-3
390
F
  0
LAYER
  5
20D
100
AcDbSymbolTableRecord
100
AcDbLayerTableRecord
  2
20_DATUM_KINEMATIC_SCHEME
 70
0
 62
7
  6
CONTINUOUS
370
-3
390
F
  0
ENDTAB
  0
TABLE
  2
STYLE
  5
3
100
AcDbSymbolTable
 70
1
  0
STYLE
  5
11
100
AcDbSymbolTableRecord
100
AcDbTextStyleTableRecord
  2
STANDARD
 70
0
 40
0.0
 41
1.0
 50
0.0
 71
0
 42
0.2
  3
ARIAL.TTF
  4

  0
STYLE
  5
20E
100
AcDbSymbolTableRecord
100
AcDbTextStyleTableRecord
  2
TEXTSTYLE_1
 70
0
 40
0.0
 41
0.8
 50
0.0
 71
0
 42
0.2
  3
gdt
  4

  0
ENDTAB
  0
TABLE
  2
VIEW
  5
6
100
AcDbSymbolTable
 70
0
  0
ENDTAB
  0
TABLE
  2
UCS
  5
7
100
AcDbSymbolTable
 70
0
  0
ENDTAB
  0
TABLE
  2
APPID
  5
9
100
AcDbSymbolTable
 70
1
  0
APPID
  5
20F
100
AcDbSymbolTableRecord
100
AcDbRegAppTableRecord
  2
ACAD
 70
0
  0
ENDTAB
  0
TABLE
  2
BLOCK_RECORD
  5
1
100
AcDbSymbolTable
 70
0
  0
BLOCK_RECORD
  5
210
100
AcDbSymbolTableRecord
100
AcDbBlockTableRecord
  2
*Model_Space
  0
BLOCK_RECORD
  5
211
100
AcDbSymbolTableRecord
100
AcDbBlockTableRecord
  2
*Paper_Space
  0
BLOCK_RECORD
  5
212
100
AcDbSymbolTableRecord
100
AcDbBlockTableRecord
  2
_FILLED
  0
ENDTAB
  0
TABLE
  2
DIMSTYLE
  5
A
100
AcDbSymbolTable
 70
1
100
AcDbDimStyleTable
 71
0
  0
DIMSTYLE
105
213
100
AcDbSymbolTableRecord
100
AcDbDimStyleTableRecord
  2
STANDARD
 70
0
  3

  4

 40
1.0
 41
0.9315716585
 42
1.0
 43
0.38
 44
1.0
 45
0.0
 46
0.0
 47
0.01
 48
0.01
140
1.3042003218
141
0.09
142
0.0
143
25.4
144
1.0
145
0.0
146
1.0
147
0.625
 71
1
 72
0
 73
0
 74
0
 75
0
 76
0
 77
1
 78
8
 79
2
170
0
171
1
172
0
173
0
174
0
175
0
176
0
177
0
178
0
270
2
179
2
271
2
272
2
273
2
274
2
275
0
280
0
281
0
282
0
283
1
284
8
285
0
286
0
287
3
288
0
340
11
278
46
341
212
342
212
343
212
344
212
  0
ENDTAB
  0
ENDSEC
  0
SECTION
  2
BLOCKS
  0
BLOCK
  5
20
100
AcDbEntity
  8
0
100
AcDbBlockBegin
  2
*Model_Space
 70
0
 10
0.0
 20
0.0
 30
0.0
  3
*Model_Space
  1

  0
ENDBLK
  5
21
100
AcDbEntity
  8
0
100
AcDbBlockEnd
  0
BLOCK
  5
1C
100
AcDbEntity
  8
0
100
AcDbBlockBegin
  2
*Paper_Space
 70
0
 10
0.0
 20
0.0
 30
0.0
  3
*Paper_Space
  1

  0
ENDBLK
  5
1D
100
AcDbEntity
  8
0
100
AcDbBlockEnd
  0
BLOCK
  5
214
100
AcDbEntity
  8
0
100
AcDbBlockBegin
  2
_FILLED
 70
64
 10
0.0
 20
0.0
  3
_FILLED
  1

  0
SOLID
  5
215
100
AcDbEntity
  8
0
  6
BYBLOCK
 62
0
100
AcDbTrace
 10
0.0
 20
0.0
 11
-1.0
 21
0.25
 12
-1.0
 22
-0.25
 13
-1.0
 23
-0.25
  0
ENDBLK
  5
216
100
AcDbEntity
  8
0
  6
BYBLOCK
 62
0
100
AcDbBlockEnd
  0
ENDSEC
  0
SECTION
  2
ENTITIES
  0
LINE
  5
217
100
AcDbEntity
  8
0
100
AcDbLine
 62
7
  6
BYLAYER
 10
32.1096886079
 20
13.9457640874
 11
48.1096886079
 21
13.9457640874
  0
LINE
  5
218
100
AcDbEntity
  8
0
100
AcDbLine
 62
7
  6
BYLAYER
 10
35.9706469484
 20
95.1977859385
 11
35.9008967831
 21
95.1458948755
  0
LINE
  5
219
100
AcDbEntity
  8
0
100
AcDbLine
 62
7
  6
BYLAYER
 10
35.9008908809
 20
95.1458905544
 11
35.4861345251
 21
94.7264608828
  0
LINE
  5
21A
100
AcDbEntity
  8
0
100
AcDbLine
 62
7
  6
BYLAYER
 10
35.4861345251
 20
82.9458905544
 11
34.1096886079
 21
82.1511991335
  0
LINE
  5
21B
100
AcDbEntity
  8
0
100
AcDbLine
 62
7
  6
BYLAYER
 10
32.8596886079
 20
65.9458905544
 11
32.3596886079
 21
65.4458905544
  0
LINE
  5
21C
100
AcDbEntity
  8
0
100
AcDbLine
 62
7
  6
BYLAYER
 10
35.1297890279
 20
66.3171767432
 11
34.1096886079
 21
65.9458905544
  0
LINE
  5
21D
100
AcDbEntity
  8
0
100
AcDbLine
 62
7
  6
BYLAYER
 10
32.1096886079
 20
13.9457640874
 11
32.1096886079
 21
63.9457128589
  0
LINE
  5
21E
100
AcDbEntity
  8
0
100
AcDbLine
 62
7
  6
BYLAYER
 10
32.3596886079
 20
63.9458905544
 11
32.3596886079
 21
65.4458905544
  0
LINE
  5
21F
100
AcDbEntity
  8
0
100
AcDbLine
 62
7
  6
BYLAYER
 10
32.5796886079
 20
66.4458905544
 11
32.5796886079
 21
69.9458905544
  0
LINE
  5
220
100
AcDbEntity
  8
0
100
AcDbLine
 62
7
  6
BYLAYER
 10
32.5796886079
 20
77.9458905544
 11
32.5796886079
 21
81.4458905544
  0
LINE
  5
221
100
AcDbEntity
  8
0
100
AcDbLine
 62
7
  6
BYLAYER
 10
34.1096886079
 20
69.9458905544
 11
34.1096886079
 21
77.9458905544
  0
LINE
  5
222
100
AcDbEntity
  8
0
100
AcDbLine
 62
7
  6
BYLAYER
 10
34.1096886079
 20
81.4458905544
 11
34.1096886079
 21
82.1511991335
  0
LINE
  5
223
100
AcDbEntity
  8
0
100
AcDbLine
 62
7
  6
BYLAYER
 10
45.0895881879
 20
66.3171767432
 11
45.4432264776
 21
66.4458905544
  0
LINE
  5
224
100
AcDbEntity
  8
0
100
AcDbLine
 62
7
  6
BYLAYER
 10
35.4861345251
 20
82.9458905544
 11
35.4861345251
 21
94.7264608828
  0
LINE
  5
225
100
AcDbEntity
  8
0
100
AcDbLine
 62
7
  6
BYLAYER
 10
36.6096886079
 20
10.0313822593
 11
36.6096886079
 21
13.9457640874
  0
LINE
  5
226
100
AcDbEntity
  8
0
100
AcDbLine
 62
7
  6
BYLAYER
 10
36.6096886079
 20
97.6458905544
 11
36.6096886079
 21
99.3458905544
  0
LINE
  5
227
100
AcDbEntity
  8
0
100
AcDbLine
 62
7
  6
BYLAYER
 10
38.1096886079
 20
86.9458905544
 11
38.1096886079
 21
95.7263744771
  0
LINE
  5
228
100
AcDbEntity
  8
0
100
AcDbLine
 62
7
  6
BYLAYER
 10
38.3596886079
 20
91.3459363518
 11
38.3596886079
 21
101.945844757
  0
LINE
  5
229
100
AcDbEntity
  8
0
100
AcDbLine
 62
7
  6
BYLAYER
 10
40.1096886079
 20
67.1184430274
 11
40.1096886079
 21
69.2733380814
  0
LINE
  5
22A
100
AcDbEntity
  8
0
100
AcDbLine
 62
7
  6
BYLAYER
 10
40.1096886079
 20
78.6184430274
 11
40.1096886079
 21
80.7733380814
  0
LINE
  5
22B
100
AcDbEntity
  8
0
100
AcDbLine
 62
7
  6
BYLAYER
 10
41.8596886079
 20
101.945844757
 11
41.8596886079
 21
91.3459363518
  0
LINE
  5
22C
100
AcDbEntity
  8
0
100
AcDbLine
 62
7
  6
BYLAYER
 10
42.1096886079
 20
95.7263744771
 11
42.1096886079
 21
86.9458905544
  0
LINE
  5
22D
100
AcDbEntity
  8
0
100
AcDbLine
 62
7
  6
BYLAYER
 10
43.6096886079
 20
10.0313822593
 11
43.6096886079
 21
13.9457640874
  0
LINE
  5
22E
100
AcDbEntity
  8
0
100
AcDbLine
 62
7
  6
BYLAYER
 10
43.6096886079
 20
97.6458905544
 11
43.6096886079
 21
99.3458905544
  0
LINE
  5
22F
100
AcDbEntity
  8
0
100
AcDbLine
 62
7
  6
BYLAYER
 10
44.7332426906
 20
82.9458905544
 11
44.7332426906
 21
94.7264608828
  0
LINE
  5
230
100
AcDbEntity
  8
0
100
AcDbLine
 62
7
  6
BYLAYER
 10
46.1096886079
 20
69.9458905544
 11
46.1096886079
 21
77.9458905544
  0
LINE
  5
231
100
AcDbEntity
  8
0
100
AcDbLine
 62
7
  6
BYLAYER
 10
46.1096886079
 20
81.4458905544
 11
46.1096886079
 21
82.1511991335
  0
LINE
  5
232
100
AcDbEntity
  8
0
100
AcDbLine
 62
7
  6
BYLAYER
 10
48.1096886079
 20
59.0608643424
 11
48.3096886079
 21
59.0608643424
  0
LINE
  5
233
100
AcDbEntity
  8
0
100
AcDbLine
 62
7
  6
BYLAYER
 10
48.1096886079
 20
61.2274561376
 11
48.3096886079
 21
61.2274561376
  0
LINE
  5
234
100
AcDbEntity
  8
0
100
AcDbLine
 62
7
  6
BYLAYER
 10
32.1096886079
 20
61.9457640874
 11
48.1096886079
 21
61.9457640874
  0
LINE
  5
235
100
AcDbEntity
  8
0
100
AcDbLine
 62
7
  6
BYLAYER
 10
47.6396886079
 20
66.4458905544
 11
47.6396886079
 21
69.9458905544
  0
LINE
  5
236
100
AcDbEntity
  8
0
100
AcDbLine
 62
7
  6
BYLAYER
 10
47.6396886079
 20
77.9458905544
 11
47.6396886079
 21
81.4458905544
  0
LINE
  5
237
100
AcDbEntity
  8
0
100
AcDbLine
 62
7
  6
BYLAYER
 10
47.8596886079
 20
63.9458905544
 11
47.8596886079
 21
65.4458905544
  0
LINE
  5
238
100
AcDbEntity
  8
0
100
AcDbLine
 62
7
  6
BYLAYER
 10
48.1096886079
 20
13.9457640874
 11
48.1096886079
 21
63.9457128589
  0
LINE
  5
239
100
AcDbEntity
  8
0
100
AcDbLine
 62
7
  6
BYLAYER
 10
48.3096886079
 20
59.0608643424
 11
48.3096886079
 21
61.2274561376
  0
LINE
  5
23A
100
AcDbEntity
  8
0
100
AcDbLine
 62
7
  6
BYLAYER
 10
32.1096886079
 20
63.9458905544
 11
32.3596886079
 21
63.9458905544
  0
LINE
  5
23B
100
AcDbEntity
  8
0
100
AcDbLine
 62
7
  6
BYLAYER
 10
47.8596886079
 20
63.9458905544
 11
48.1096886079
 21
63.9458905544
  0
LINE
  5
23C
100
AcDbEntity
  8
0
100
AcDbLine
 62
7
  6
BYLAYER
 10
35.1297890279
 20
66.3171767432
 11
34.7761507382
 21
66.4458905544
  0
LINE
  5
23D
100
AcDbEntity
  8
0
100
AcDbLine
 62
7
  6
BYLAYER
 10
32.3596886079
 20
65.4458905544
 11
47.8596886079
 21
65.4458905544
  0
LINE
  5
23E
100
AcDbEntity
  8
0
100
AcDbLine
 62
7
  6
BYLAYER
 10
32.859702355
 20
65.9458905544
 11
47.3596748608
 21
65.9458905544
  0
LINE
  5
23F
100
AcDbEntity
  8
0
100
AcDbLine
 62
7
  6
BYLAYER
 10
35.1297890279
 20
66.3171767432
 11
45.0895881879
 21
66.3171767432
  0
LINE
  5
240
100
AcDbEntity
  8
0
100
AcDbLine
 62
7
  6
BYLAYER
 10
47.6396886079
 20
66.4458905544
 11
32.5796886079
 21
66.4458905544
  0
LINE
  5
241
100
AcDbEntity
  8
0
100
AcDbLine
 62
7
  6
BYLAYER
 10
45.0895881879
 20
66.3171767432
 11
46.1096886079
 21
65.9458905544
  0
LINE
  5
242
100
AcDbEntity
  8
0
100
AcDbLine
 62
7
  6
BYLAYER
 10
47.3596886079
 20
65.9458905544
 11
47.8596886079
 21
65.4458905544
  0
LINE
  5
243
100
AcDbEntity
  8
0
100
AcDbLine
 62
7
  6
BYLAYER
 10
32.5796886079
 20
69.9458905544
 11
47.6396886079
 21
69.9458905544
  0
LINE
  5
244
100
AcDbEntity
  8
0
100
AcDbLine
 62
7
  6
BYLAYER
 10
47.6396886079
 20
77.9458905544
 11
32.5796886079
 21
77.9458905544
  0
LINE
  5
245
100
AcDbEntity
  8
0
100
AcDbLine
 62
7
  6
BYLAYER
 10
32.5796886079
 20
81.4458905544
 11
47.6396886079
 21
81.4458905544
  0
LINE
  5
246
100
AcDbEntity
  8
0
100
AcDbLine
 62
7
  6
BYLAYER
 10
34.1096886079
 20
82.1511991335
 11
46.1096886079
 21
82.1511991335
  0
LINE
  5
247
100
AcDbEntity
  8
0
100
AcDbLine
 62
7
  6
BYLAYER
 10
44.7332426906
 20
82.9458905544
 11
35.4861345251
 21
82.9458905544
  0
LINE
  5
248
100
AcDbEntity
  8
0
100
AcDbLine
 62
7
  6
BYLAYER
 10
44.7332426906
 20
82.9458905544
 11
46.1096886079
 21
82.1511991335
  0
LINE
  5
249
100
AcDbEntity
  8
0
100
AcDbLine
 62
7
  6
BYLAYER
 10
38.1096886079
 20
86.9458905544
 11
42.1096886079
 21
86.9458905544
  0
LINE
  5
24A
100
AcDbEntity
  8
0
100
AcDbLine
 62
7
  6
BYLAYER
 10
44.3184863349
 20
95.1458905544
 11
44.7332426906
 21
94.7264608828
  0
LINE
  5
24B
100
AcDbEntity
  8
0
100
AcDbLine
 62
7
  6
BYLAYER
 10
44.2487302674
 20
95.1977859385
 11
44.3184971968
 21
95.1458905544
  0
LINE
  5
24C
100
AcDbEntity
  8
0
100
AcDbLine
 62
7
  6
BYLAYER
 10
38.3596886079
 20
91.3458905544
 11
41.8596886079
 21
91.3458905544
  0
LINE
  5
24D
100
AcDbEntity
  8
0
100
AcDbLine
 62
7
  6
BYLAYER
 10
42.1096886079
 20
93.9458905544
 11
41.8596886079
 21
93.9458905544
  0
LINE
  5
24E
100
AcDbEntity
  8
0
100
AcDbLine
 62
7
  6
BYLAYER
 10
38.3596886079
 20
93.9458905544
 11
38.1096886079
 21
93.9458905544
  0
LINE
  5
24F
100
AcDbEntity
  8
0
100
AcDbLine
 62
7
  6
BYLAYER
 10
35.4861345251
 20
94.7264608828
 11
38.1096886079
 21
94.7264608828
  0
LINE
  5
250
100
AcDbEntity
  8
0
100
AcDbLine
 62
7
  6
BYLAYER
 10
42.1096886079
 20
94.7264608828
 11
44.7332426906
 21
94.7264608828
  0
LINE
  5
251
100
AcDbEntity
  8
0
100
AcDbLine
 62
7
  6
BYLAYER
 10
36.6735125933
 20
95.7263744771
 11
38.1096886079
 21
95.7263744771
  0
LINE
  5
252
100
AcDbEntity
  8
0
100
AcDbLine
 62
7
  6
BYLAYER
 10
42.1096886079
 20
95.7263744771
 11
43.5458592549
 21
95.7263744771
  0
LINE
  5
253
100
AcDbEntity
  8
0
100
AcDbLine
 62
7
  6
BYLAYER
 10
36.6096909704
 20
99.3458905544
 11
38.3596886079
 21
99.3458905544
  0
LINE
  5
254
100
AcDbEntity
  8
0
100
AcDbLine
 62
7
  6
BYLAYER
 10
41.8596886079
 20
99.3458905544
 11
43.6096862454
 21
99.3458905544
  0
LINE
  5
255
100
AcDbEntity
  8
0
100
AcDbLine
 62
7
  6
BYLAYER
 10
38.3596886079
 20
101.9458905544
 11
41.8596886079
 21
101.9458905544
  0
ARC
  5
256
100
AcDbEntity
  8
0
100
AcDbCircle
 62
7
  6
BYLAYER
 10
101.1835923244
 20
171.6616740225
 40
95.3326032379
100
AcDbArc
 50
232.8612035777
 51
233.3758924028
  0
ARC
  5
257
100
AcDbEntity
  8
0
100
AcDbCircle
 62
7
  6
BYLAYER
 10
-15.9893146973
 20
165.0312700864
 40
87.0434310273
100
AcDbArc
 50
306.5999089974
 51
307.1633344994
  0
ARC
  5
258
100
AcDbEntity
  8
0
100
AcDbCircle
 62
7
  6
BYLAYER
 10
47.6437454746
 20
96.8015840897
 40
4.1962885923
100
AcDbArc
 50
194.7917247073
 51
195.6509228451
  0
ARC
  5
259
100
AcDbEntity
  8
0
100
AcDbCircle
 62
7
  6
BYLAYER
 10
32.822783573
 20
96.7344568775
 40
3.9401907817
100
AcDbArc
 50
344.32127765
 51
345.2312745511
  0
SPLINE
  5
25A
100
AcDbEntity
  8
0
100
AcDbSpline
 62
7
  6
BYLAYER
 70
0
 71
3
 72
11
 73
7
 74
0
 42
0.0000001
 43
0.0000001
 44
0.0000000001
 40
0.0
 40
0.0
 40
0.0
 40
0.0
 40
0.2488498746
 40
0.4982504792
 40
0.7485811789
 40
1.0
 40
1.0
 40
1.0
 40
1.0
 10
36.3446886079
 20
66.4458905544
 30
0.0
 10
36.0261174137
 20
66.4458905544
 30
0.0
 10
35.3878558039
 20
66.4773469893
 30
0.0
 10
34.438179615
 20
66.614419573
 30
0.0
 10
33.5001335657
 20
66.8300582247
 30
0.0
 10
32.885031713
 20
67.0166619923
 30
0.0
 10
32.5796886079
 20
67.1184430274
 30
0.0
  0
SPLINE
  5
25B
100
AcDbEntity
  8
0
100
AcDbSpline
 62
7
  6
BYLAYER
 70
0
 71
3
 72
11
 73
7
 74
0
 42
0.0000001
 43
0.0000001
 44
0.0000000001
 40
0.0
 40
0.0
 40
0.0
 40
0.0
 40
0.2514188903
 40
0.5017496026
 40
0.7511502202
 40
1.0
 40
1.0
 40
1.0
 40
1.0
 10
47.6396886079
 20
67.1184430274
 30
0.0
 10
47.3343454203
 20
67.0166619648
 30
0.0
 10
46.719243581
 20
66.8300577852
 30
0.0
 10
45.7811972639
 20
66.614419689
 30
0.0
 10
44.8315211629
 20
66.4773473814
 30
0.0
 10
44.1932596791
 20
66.4458905544
 30
0.0
 10
43.8746886079
 20
66.4458905544
 30
0.0
  0
SPLINE
  5
25C
100
AcDbEntity
  8
0
100
AcDbSpline
 62
7
  6
BYLAYER
 70
0
 71
3
 72
11
 73
7
 74
0
 42
0.0000001
 43
0.0000001
 44
0.0000000001
 40
0.0
 40
0.0
 40
0.0
 40
0.0
 40
0.2514188903
 40
0.5017496026
 40
0.7511502202
 40
1.0
 40
1.0
 40
1.0
 40
1.0
 10
32.5796886079
 20
69.2733380814
 30
0.0
 10
32.8850317955
 20
69.3751191439
 30
0.0
 10
33.5001336347
 20
69.5617233236
 30
0.0
 10
34.4381799519
 20
69.7773614197
 30
0.0
 10
35.3878560529
 20
69.9144337274
 30
0.0
 10
36.0261175366
 20
69.9458905544
 30
0.0
 10
36.3446886079
 20
69.9458905544
 30
0.0
  0
SPLINE
  5
25D
100
AcDbEntity
  8
0
100
AcDbSpline
 62
7
  6
BYLAYER
 70
0
 71
3
 72
11
 73
7
 74
0
 42
0.0000001
 43
0.0000001
 44
0.0000000001
 40
0.0
 40
0.0
 40
0.0
 40
0.0
 40
0.2488498746
 40
0.4982504792
 40
0.7485811789
 40
1.0
 40
1.0
 40
1.0
 40
1.0
 10
43.8746886079
 20
69.9458905544
 30
0.0
 10
44.1932598021
 20
69.9458905544
 30
0.0
 10
44.8315214119
 20
69.9144341195
 30
0.0
 10
45.7811976008
 20
69.7773615357
 30
0.0
 10
46.71924365
 20
69.5617228841
 30
0.0
 10
47.3343455028
 20
69.3751191164
 30
0.0
 10
47.6396886079
 20
69.2733380814
 30
0.0
  0
SPLINE
  5
25E
100
AcDbEntity
  8
0
100
AcDbSpline
 62
7
  6
BYLAYER
 70
0
 71
3
 72
11
 73
7
 74
0
 42
0.0000001
 43
0.0000001
 44
0.0000000001
 40
0.0
 40
0.0
 40
0.0
 40
0.0
 40
0.2514188903
 40
0.5017496026
 40
0.7511502202
 40
1.0
 40
1.0
 40
1.0
 40
1.0
 10
40.1096886079
 20
69.2733380814
 30
0.0
 10
40.4150317955
 20
69.3751191439
 30
0.0
 10
41.0301336347
 20
69.5617233236
 30
0.0
 10
41.9681799519
 20
69.7773614197
 30
0.0
 10
42.9178560529
 20
69.9144337274
 30
0.0
 10
43.5561175366
 20
69.9458905544
 30
0.0
 10
43.8746886079
 20
69.9458905544
 30
0.0
  0
SPLINE
  5
25F
100
AcDbEntity
  8
0
100
AcDbSpline
 62
7
  6
BYLAYER
 70
0
 71
3
 72
11
 73
7
 74
0
 42
0.0000001
 43
0.0000001
 44
0.0000000001
 40
0.0
 40
0.0
 40
0.0
 40
0.0
 40
0.2488498746
 40
0.4982504792
 40
0.7485811789
 40
1.0
 40
1.0
 40
1.0
 40
1.0
 10
36.3446886079
 20
69.9458905544
 30
0.0
 10
36.6632598021
 20
69.9458905544
 30
0.0
 10
37.3015214119
 20
69.9144341195
 30
0.0
 10
38.2511976008
 20
69.7773615357
 30
0.0
 10
39.18924365
 20
69.5617228841
 30
0.0
 10
39.8043455028
 20
69.3751191164
 30
0.0
 10
40.1096886079
 20
69.2733380814
 30
0.0
  0
SPLINE
  5
260
100
AcDbEntity
  8
0
100
AcDbSpline
 62
7
  6
BYLAYER
 70
0
 71
3
 72
11
 73
7
 74
0
 42
0.0000001
 43
0.0000001
 44
0.0000000001
 40
0.0
 40
0.0
 40
0.0
 40
0.0
 40
0.2488498746
 40
0.4982504792
 40
0.7485811789
 40
1.0
 40
1.0
 40
1.0
 40
1.0
 10
43.8746886079
 20
66.4458905544
 30
0.0
 10
43.5561174137
 20
66.4458905544
 30
0.0
 10
42.9178558039
 20
66.4773469893
 30
0.0
 10
41.968179615
 20
66.614419573
 30
0.0
 10
41.0301335657
 20
66.8300582247
 30
0.0
 10
40.415031713
 20
67.0166619923
 30
0.0
 10
40.1096886079
 20
67.1184430274
 30
0.0
  0
SPLINE
  5
261
100
AcDbEntity
  8
0
100
AcDbSpline
 62
7
  6
BYLAYER
 70
0
 71
3
 72
11
 73
7
 74
0
 42
0.0000001
 43
0.0000001
 44
0.0000000001
 40
0.0
 40
0.0
 40
0.0
 40
0.0
 40
0.2514188903
 40
0.5017496026
 40
0.7511502202
 40
1.0
 40
1.0
 40
1.0
 40
1.0
 10
40.1096886079
 20
67.1184430274
 30
0.0
 10
39.8043454203
 20
67.0166619648
 30
0.0
 10
39.189243581
 20
66.8300577852
 30
0.0
 10
38.2511972639
 20
66.614419689
 30
0.0
 10
37.3015211629
 20
66.4773473814
 30
0.0
 10
36.6632596791
 20
66.4458905544
 30
0.0
 10
36.3446886079
 20
66.4458905544
 30
0.0
  0
SPLINE
  5
262
100
AcDbEntity
  8
0
100
AcDbSpline
 62
7
  6
BYLAYER
 70
0
 71
3
 72
11
 73
7
 74
0
 42
0.0000001
 43
0.0000001
 44
0.0000000001
 40
0.0
 40
0.0
 40
0.0
 40
0.0
 40
0.2488498746
 40
0.4982504792
 40
0.7485811789
 40
1.0
 40
1.0
 40
1.0
 40
1.0
 10
36.3446886079
 20
77.9458905544
 30
0.0
 10
36.0261174137
 20
77.9458905544
 30
0.0
 10
35.3878558039
 20
77.9773469893
 30
0.0
 10
34.438179615
 20
78.114419573
 30
0.0
 10
33.5001335657
 20
78.3300582247
 30
0.0
 10
32.885031713
 20
78.5166619923
 30
0.0
 10
32.5796886079
 20
78.6184430274
 30
0.0
  0
SPLINE
  5
263
100
AcDbEntity
  8
0
100
AcDbSpline
 62
7
  6
BYLAYER
 70
0
 71
3
 72
11
 73
7
 74
0
 42
0.0000001
 43
0.0000001
 44
0.0000000001
 40
0.0
 40
0.0
 40
0.0
 40
0.0
 40
0.2514188903
 40
0.5017496026
 40
0.7511502202
 40
1.0
 40
1.0
 40
1.0
 40
1.0
 10
47.6396886079
 20
78.6184430274
 30
0.0
 10
47.3343454203
 20
78.5166619648
 30
0.0
 10
46.719243581
 20
78.3300577852
 30
0.0
 10
45.7811972639
 20
78.114419689
 30
0.0
 10
44.8315211629
 20
77.9773473814
 30
0.0
 10
44.1932596791
 20
77.9458905544
 30
0.0
 10
43.8746886079
 20
77.9458905544
 30
0.0
  0
SPLINE
  5
264
100
AcDbEntity
  8
0
100
AcDbSpline
 62
7
  6
BYLAYER
 70
0
 71
3
 72
11
 73
7
 74
0
 42
0.0000001
 43
0.0000001
 44
0.0000000001
 40
0.0
 40
0.0
 40
0.0
 40
0.0
 40
0.2514188903
 40
0.5017496026
 40
0.7511502202
 40
1.0
 40
1.0
 40
1.0
 40
1.0
 10
32.5796886079
 20
80.7733380814
 30
0.0
 10
32.8850317955
 20
80.8751191439
 30
0.0
 10
33.5001336347
 20
81.0617233236
 30
0.0
 10
34.4381799519
 20
81.2773614197
 30
0.0
 10
35.3878560529
 20
81.4144337274
 30
0.0
 10
36.0261175366
 20
81.4458905544
 30
0.0
 10
36.3446886079
 20
81.4458905544
 30
0.0
  0
SPLINE
  5
265
100
AcDbEntity
  8
0
100
AcDbSpline
 62
7
  6
BYLAYER
 70
0
 71
3
 72
11
 73
7
 74
0
 42
0.0000001
 43
0.0000001
 44
0.0000000001
 40
0.0
 40
0.0
 40
0.0
 40
0.0
 40
0.2488498746
 40
0.4982504792
 40
0.7485811789
 40
1.0
 40
1.0
 40
1.0
 40
1.0
 10
43.8746886079
 20
81.4458905544
 30
0.0
 10
44.1932598021
 20
81.4458905544
 30
0.0
 10
44.8315214119
 20
81.4144341195
 30
0.0
 10
45.7811976008
 20
81.2773615357
 30
0.0
 10
46.71924365
 20
81.0617228841
 30
0.0
 10
47.3343455028
 20
80.8751191164
 30
0.0
 10
47.6396886079
 20
80.7733380814
 30
0.0
  0
SPLINE
  5
266
100
AcDbEntity
  8
0
100
AcDbSpline
 62
7
  6
BYLAYER
 70
0
 71
3
 72
11
 73
7
 74
0
 42
0.0000001
 43
0.0000001
 44
0.0000000001
 40
0.0
 40
0.0
 40
0.0
 40
0.0
 40
0.2514188903
 40
0.5017496026
 40
0.7511502202
 40
1.0
 40
1.0
 40
1.0
 40
1.0
 10
40.1096886079
 20
80.7733380814
 30
0.0
 10
40.4150317955
 20
80.8751191439
 30
0.0
 10
41.0301336347
 20
81.0617233236
 30
0.0
 10
41.9681799519
 20
81.2773614197
 30
0.0
 10
42.9178560529
 20
81.4144337274
 30
0.0
 10
43.5561175366
 20
81.4458905544
 30
0.0
 10
43.8746886079
 20
81.4458905544
 30
0.0
  0
SPLINE
  5
267
100
AcDbEntity
  8
0
100
AcDbSpline
 62
7
  6
BYLAYER
 70
0
 71
3
 72
11
 73
7
 74
0
 42
0.0000001
 43
0.0000001
 44
0.0000000001
 40
0.0
 40
0.0
 40
0.0
 40
0.0
 40
0.2488498746
 40
0.4982504792
 40
0.7485811789
 40
1.0
 40
1.0
 40
1.0
 40
1.0
 10
36.3446886079
 20
81.4458905544
 30
0.0
 10
36.6632598021
 20
81.4458905544
 30
0.0
 10
37.3015214119
 20
81.4144341195
 30
0.0
 10
38.2511976008
 20
81.2773615357
 30
0.0
 10
39.18924365
 20
81.0617228841
 30
0.0
 10
39.8043455028
 20
80.8751191164
 30
0.0
 10
40.1096886079
 20
80.7733380814
 30
0.0
  0
SPLINE
  5
268
100
AcDbEntity
  8
0
100
AcDbSpline
 62
7
  6
BYLAYER
 70
0
 71
3
 72
11
 73
7
 74
0
 42
0.0000001
 43
0.0000001
 44
0.0000000001
 40
0.0
 40
0.0
 40
0.0
 40
0.0
 40
0.2488498746
 40
0.4982504792
 40
0.7485811789
 40
1.0
 40
1.0
 40
1.0
 40
1.0
 10
43.8746886079
 20
77.9458905544
 30
0.0
 10
43.5561174137
 20
77.9458905544
 30
0.0
 10
42.9178558039
 20
77.9773469893
 30
0.0
 10
41.968179615
 20
78.114419573
 30
0.0
 10
41.0301335657
 20
78.3300582247
 30
0.0
 10
40.415031713
 20
78.5166619923
 30
0.0
 10
40.1096886079
 20
78.6184430274
 30
0.0
  0
SPLINE
  5
269
100
AcDbEntity
  8
0
100
AcDbSpline
 62
7
  6
BYLAYER
 70
0
 71
3
 72
11
 73
7
 74
0
 42
0.0000001
 43
0.0000001
 44
0.0000000001
 40
0.0
 40
0.0
 40
0.0
 40
0.0
 40
0.2514188903
 40
0.5017496026
 40
0.7511502202
 40
1.0
 40
1.0
 40
1.0
 40
1.0
 10
40.1096886079
 20
78.6184430274
 30
0.0
 10
39.8043454203
 20
78.5166619648
 30
0.0
 10
39.189243581
 20
78.3300577852
 30
0.0
 10
38.2511972639
 20
78.114419689
 30
0.0
 10
37.3015211629
 20
77.9773473814
 30
0.0
 10
36.6632596791
 20
77.9458905544
 30
0.0
 10
36.3446886079
 20
77.9458905544
 30
0.0
  0
SPLINE
  5
26A
100
AcDbEntity
  8
0
100
AcDbSpline
 62
7
  6
BYLAYER
 70
0
 71
3
 72
10
 73
6
 74
0
 42
0.0000001
 43
0.0000001
 44
0.0000000001
 40
0.0
 40
0.0
 40
0.0
 40
0.0
 40
0.4057330662
 40
0.6901253225
 40
1.0
 40
1.0
 40
1.0
 40
1.0
 10
43.5865207414
 20
95.730245948
 30
0.0
 10
43.5546045175
 20
95.851364134
 30
0.0
 10
43.5097624676
 20
96.0600843441
 30
0.0
 10
43.4716876661
 20
96.3666693243
 30
0.0
 10
43.4637905741
 20
96.5502299592
 30
0.0
 10
43.4637905741
 20
96.6458905544
 30
0.0
  0
SPLINE
  5
26B
100
AcDbEntity
  8
0
100
AcDbSpline
 62
7
  6
BYLAYER
 70
0
 71
3
 72
10
 73
6
 74
0
 42
0.0000001
 43
0.0000001
 44
0.0000000001
 40
0.0
 40
0.0
 40
0.0
 40
0.0
 40
0.3099288884
 40
0.5943461207
 40
1.0
 40
1.0
 40
1.0
 40
1.0
 10
36.7555866416
 20
96.6458905544
 30
0.0
 10
36.7555866416
 20
96.5501903405
 30
0.0
 10
36.7476853282
 20
96.3665610774
 30
0.0
 10
36.7095824749
 20
96.0599050283
 30
0.0
 10
36.6647258428
 20
95.851152991
 30
0.0
 10
36.6328010034
 20
95.7300313819
 30
0.0
  0
SPLINE
  5
26C
100
AcDbEntity
  8
0
100
AcDbSpline
 62
7
  6
BYLAYER
 70
0
 71
3
 72
27
 73
23
 74
0
 42
0.0000001
 43
0.0000001
 44
0.0000000001
 40
0.0
 40
0.0
 40
0.0
 40
0.0
 40
0.1933670012
 40
0.3793496355
 40
0.5510162295
 40
0.6295644849
 40
0.7022702001
 40
0.7684210834
 40
0.8274065416
 40
0.8786340961
 40
0.9214700822
 40
0.9395411984
 40
0.9553108797
 40
0.9687558661
 40
0.9798529446
 40
0.9885765044
 40
0.9920344723
 40
0.9948803773
 40
0.9971070512
 40
0.9987073254
 40
0.9996740313
 40
1.0
 40
1.0
 40
1.0
 40
1.0
 10
43.4637905741
 20
96.6458905544
 30
0.0
 10
43.4637905741
 20
96.7112477579
 30
0.0
 10
43.467560143
 20
96.8394976537
 30
0.0
 10
43.4835699406
 20
97.0251377816
 30
0.0
 10
43.5039211399
 20
97.1712243776
 30
0.0
 10
43.5227090798
 20
97.2787472437
 30
0.0
 10
43.5368422555
 20
97.3508623892
 30
0.0
 10
43.550931052
 20
97.4162346247
 30
0.0
 10
43.564449412
 20
97.4742940784
 30
0.0
 10
43.5768594681
 20
97.5245146866
 30
0.0
 10
43.5863863224
 20
97.5611996968
 30
0.0
 10
43.5931016119
 20
97.586231077
 30
0.0
 10
43.5973121441
 20
97.6016489071
 30
0.0
 10
43.600950522
 20
97.6147793819
 30
0.0
 10
43.6039807503
 20
97.6256069281
 30
0.0
 10
43.6061039196
 20
97.6331832656
 30
0.0
 10
43.6074676135
 20
97.6380757562
 30
0.0
 10
43.6082464973
 20
97.6408523323
 30
0.0
 10
43.6088394743
 20
97.6430271715
 30
0.0
 10
43.6093003028
 20
97.6445835667
 30
0.0
 10
43.60951386
 20
97.6455340832
 30
0.0
 10
43.6096801674
 20
97.6459465561
 30
0.0
 10
43.6096885905
 20
97.6460564097
 30
0.0
  0
SPLINE
  5
26D
100
AcDbEntity
  8
0
100
AcDbSpline
 62
7
  6
BYLAYER
 70
0
 71
3
 72
16
 73
12
 74
0
 42
0.0000001
 43
0.0000001
 44
0.0000000001
 40
0.0
 40
0.0
 40
0.0
 40
0.0
 40
0.0624999675
 40
0.1249996688
 40
0.1875015746
 40
0.2500033526
 40
0.3750039834
 40
0.500009794
 40
0.6250169828
 40
0.7500264963
 40
1.0
 40
1.0
 40
1.0
 40
1.0
 10
36.6096886253
 20
97.6460564097
 30
0.0
 10
36.6153692672
 20
97.6257101311
 30
0.0
 10
36.6267620223
 20
97.5850255905
 30
0.0
 10
36.6428166469
 20
97.5237154527
 30
0.0
 10
36.6578465058
 20
97.4621464365
 30
0.0
 10
36.6766661862
 20
97.3797669548
 30
0.0
 10
36.6976089573
 20
97.2762163396
 30
0.0
 10
36.7184737563
 20
97.151170275
 30
0.0
 10
36.7349575053
 20
97.0254621487
 30
0.0
 10
36.7507631313
 20
96.8571857234
 30
0.0
 10
36.7555881659
 20
96.7303792874
 30
0.0
 10
36.7555866416
 20
96.6458905544
 30
0.0
  0
SPLINE
  5
26E
100
AcDbEntity
  8
0
100
AcDbSpline
 62
7
  6
BYLAYER
 70
0
 71
3
 72
19
 73
15
 74
0
 42
0.0000001
 43
0.0000001
 44
0.0000000001
 40
0.0
 40
0.0
 40
0.0
 40
0.0
 40
0.1786824836
 40
0.3511822043
 40
0.5113858205
 40
0.6540885547
 40
0.7174933192
 40
0.7750322735
 40
0.8264263038
 40
0.8715996895
 40
0.9106907124
 40
0.9442498228
 40
0.973392644
 40
1.0
 40
1.0
 40
1.0
 40
1.0
 10
40.1096886079
 20
9.0080812928
 30
0.0
 10
39.8820283333
 20
9.0080812928
 30
0.0
 10
39.4344794399
 20
9.020767032
 30
0.0
 10
38.7849648724
 20
9.0772513189
 30
0.0
 10
38.1857843797
 20
9.168971795
 30
0.0
 10
37.7305432785
 20
9.2751101234
 30
0.0
 10
37.4104166838
 20
9.3774415261
 30
0.0
 10
37.2056811166
 20
9.4572796845
 30
0.0
 10
37.0285650852
 20
9.5425767466
 30
0.0
 10
36.8805340792
 20
9.6324796263
 30
0.0
 10
36.762811483
 20
9.7264934082
 30
0.0
 10
36.6763283118
 20
9.8243128236
 30
0.0
 10
36.6223207178
 20
9.9260135065
 30
0.0
 10
36.6097354725
 20
9.9974816891
 30
0.0
 10
36.609734728
 20
10.0313822587
 30
0.0
  0
LINE
  5
26F
100
AcDbEntity
  8
0
100
AcDbLine
 62
7
  6
BYLAYER
 10
43.6267320137
 20
95.6648775684
 11
43.5458601185
 21
95.7263317746
  0
SPLINE
  5
270
100
AcDbEntity
  8
0
100
AcDbSpline
 62
7
  6
BYLAYER
 70
0
 71
3
 72
19
 73
15
 74
0
 42
0.0000001
 43
0.0000001
 44
0.0000000001
 40
0.0
 40
0.0
 40
0.0
 40
0.0
 40
0.0266067123
 40
0.0557490986
 40
0.08930642
 40
0.1283967529
 40
0.1735680367
 40
0.2249603164
 40
0.2824991165
 40
0.3459032352
 40
0.4886082341
 40
0.6488145954
 40
0.8213185703
 40
1.0
 40
1.0
 40
1.0
 40
1.0
 10
43.6096424878
 20
10.0313822599
 30
0.0
 10
43.6096432324
 20
9.9974825146
 30
0.0
 10
43.5970592871
 20
9.9260147624
 30
0.0
 10
43.5430486253
 20
9.824320449
 30
0.0
 10
43.4565755118
 20
9.7264975272
 30
0.0
 10
43.3388528863
 20
9.6324922564
 30
0.0
 10
43.1908311655
 20
9.5425864861
 30
0.0
 10
43.0137201301
 20
9.4572898994
 30
0.0
 10
42.8089873797
 20
9.3774539628
 30
0.0
 10
42.4888611308
 20
9.2751154862
 30
0.0
 10
42.0336140537
 20
9.1689773498
 30
0.0
 10
41.4344225492
 20
9.0772522915
 30
0.0
 10
40.7849003834
 20
9.0207676276
 30
0.0
 10
40.3373475119
 20
9.0080812928
 30
0.0
 10
40.1096886079
 20
9.0080812928
 30
0.0
  0
LINE
  5
271
100
AcDbEntity
  8
0
100
AcDbLine
 62
7
  6
BYLAYER
 10
36.6735171048
 20
95.7263317985
 11
36.5926875539
 21
95.664909909
  0
SPLINE
  5
272
100
AcDbEntity
  8
0
100
AcDbSpline
 62
7
  6
BYLAYER
 70
0
 71
3
 72
35
 73
31
 74
0
 42
0.0000001
 43
0.0000001
 44
0.0000000001
 40
0.0
 40
0.0
 40
0.0
 40
0.0
 40
0.0000761675
 40
0.0003047614
 40
0.0006855628
 40
0.0012183499
 40
0.0019029011
 40
0.0027389946
 40
0.0048649218
 40
0.0075943583
 40
0.0109255313
 40
0.0148566686
 40
0.0193859982
 40
0.0302287082
 40
0.0434189466
 40
0.058916725
 40
0.0766821023
 40
0.0966730667
 40
0.1188358111
 40
0.1431125202
 40
0.1694455011
 40
0.228028039
 40
0.2939916377
 40
0.3666986956
 40
0.4454498275
 40
0.5295115349
 40
0.6180693965
 40
0.7102847168
 40
0.8053025132
 40
1.0
 40
1.0
 40
1.0
 40
1.0
 10
47.859825009
 20
63.9458904314
 30
0.0
 10
47.8599646854
 20
63.9460298804
 30
0.0
 10
47.858365496
 20
63.9455198397
 30
0.0
 10
47.8573941828
 20
63.9456705514
 30
0.0
 10
47.8540117351
 20
63.9450499151
 30
0.0
 10
47.850106704
 20
63.9445914759
 30
0.0
 10
47.8447569405
 20
63.9438393569
 30
0.0
 10
47.8354294738
 20
63.9425913618
 30
0.0
 10
47.8207895991
 20
63.9406087422
 30
0.0
 10
47.799775366
 20
63.9377888952
 30
0.0
 10
47.7741091369
 20
63.9343512061
 30
0.0
 10
47.7438232448
 20
63.9303115933
 30
0.0
 10
47.6942387303
 20
63.923721224
 30
0.0
 10
47.6208636917
 20
63.9140275079
 30
0.0
 10
47.5192894299
 20
63.9007724473
 30
0.0
 10
47.3998976745
 20
63.8854269252
 30
0.0
 10
47.2629891858
 20
63.8681316487
 30
0.0
 10
47.1089011927
 20
63.8490301557
 30
0.0
 10
46.9380110799
 20
63.8283220655
 30
0.0
 10
46.750737072
 20
63.8062153789
 30
0.0
 10
46.4696295905
 20
63.7739917962
 30
0.0
 10
46.0809554044
 20
63.7316416165
 30
0.0
 10
45.572376745
 20
63.6804830992
 30
0.0
 10
45.0112981932
 20
63.6292796581
 30
0.0
 10
44.4029843522
 20
63.5799582905
 30
0.0
 10
43.7531867352
 20
63.5344887162
 30
0.0
 10
43.0680736443
 20
63.4945184482
 30
0.0
 10
42.3541530991
 20
63.4617311854
 30
0.0
 10
41.3649906241
 20
63.4288745855
 30
0.0
 10
40.6142047899
 20
63.4188693
 30
0.0
 10
40.1096886079
 20
63.4188693
 30
0.0
  0
SPLINE
  5
273
100
AcDbEntity
  8
0
100
AcDbSpline
 62
7
  6
BYLAYER
 70
0
 71
3
 72
35
 73
31
 74
0
 42
0.0000001
 43
0.0000001
 44
0.0000000001
 40
0.0
 40
0.0
 40
0.0
 40
0.0
 40
0.1946926768
 40
0.2897078312
 40
0.3819212909
 40
0.4704782416
 40
0.55453915
 40
0.6332894383
 40
0.7059962651
 40
0.7719609263
 40
0.8305463423
 40
0.8568810257
 40
0.8811593227
 40
0.9033237164
 40
0.9233165643
 40
0.9410832444
 40
0.9565815094
 40
0.9697721524
 40
0.980615919
 40
0.9851457525
 40
0.9890768545
 40
0.9924076146
 40
0.995136425
 40
0.9972616774
 40
0.9980974667
 40
0.9987817634
 40
0.9993143662
 40
0.999695074
 40
0.9999236857
 40
1.0
 40
1.0
 40
1.0
 40
1.0
 10
40.1096886079
 20
63.4188693
 30
0.0
 10
39.6051848943
 20
63.4188693
 30
0.0
 10
38.8544184021
 20
63.4288757802
 30
0.0
 10
37.865280027
 20
63.4617305029
 30
0.0
 10
37.1513734562
 20
63.4945160948
 30
0.0
 10
36.4662694857
 20
63.5344836599
 30
0.0
 10
35.8164783254
 20
63.5799507007
 30
0.0
 10
35.2081692872
 20
63.6292712028
 30
0.0
 10
34.6470907611
 20
63.6804745488
 30
0.0
 10
34.1385026451
 20
63.7316350862
 30
0.0
 10
33.7498139861
 20
63.7739873521
 30
0.0
 10
33.4686904582
 20
63.806211273
 30
0.0
 10
33.2814035771
 20
63.8283180818
 30
0.0
 10
33.1105001472
 20
63.8490265676
 30
0.0
 10
32.9563998358
 20
63.8681305794
 30
0.0
 10
32.8194819048
 20
63.8854269129
 30
0.0
 10
32.7000842017
 20
63.9007710847
 30
0.0
 10
32.5985048119
 20
63.9140248654
 30
0.0
 10
32.5251246127
 20
63.923720802
 30
0.0
 10
32.4755369263
 20
63.9303133913
 30
0.0
 10
32.4452498342
 20
63.9343542044
 30
0.0
 10
32.4195894477
 20
63.937787942
 30
0.0
 10
32.3985708011
 20
63.940615103
 30
0.0
 10
32.3839549426
 20
63.942576644
 30
0.0
 10
32.3746000724
 20
63.9438542932
 30
0.0
 10
32.3693162981
 20
63.9445423463
 30
0.0
 10
32.3652470768
 20
63.9451654484
 30
0.0
 10
32.3622401771
 20
63.9454134007
 30
0.0
 10
32.3606111261
 20
63.945917716
 30
0.0
 10
32.3596921525
 20
63.9457507135
 30
0.0
 10
32.3595522068
 20
63.9458904314
 30
0.0
  0
ENDSEC
  0
SECTION
  2
OBJECTS
  0
DICTIONARY
  5
C
100
AcDbDictionary
280
0
281
1
  3
ACAD_GROUP
350
D
  3
ACAD_MLINESTYLE
350
17
  3
ACAD_LAYOUT
350
1A
  3
ACAD_PLOTSETTINGS
350
19
  3
ACAD_PLOTSTYLENAME
350
E
  0
DICTIONARY
  5
D
102
{ACAD_REACTORS
330
C
102
}
100
AcDbDictionary
280
0
281
1
  0
ACDBDICTIONARYWDFLT
  5
E
102
{ACAD_REACTORS
330
C
102
}
100
AcDbDictionary
281
1
  3
Normal
350
F
100
AcDbDictionaryWithDefault
340
F
  0
DICTIONARY
  5
17
102
{ACAD_REACTORS
330
C
102
}
100
AcDbDictionary
280
0
281
1
  3
Standard
350
18
  0
DICTIONARY
  5
19
102
{ACAD_REACTORS
330
C
102
}
100
AcDbDictionary
281
1
  0
DICTIONARY
  5
1A
102
{ACAD_REACTORS
330
C
102
}
100
AcDbDictionary
281
1
  3
Model
350
274
  3
Layout1
350
275
  0
ACDBPLACEHOLDER
  5
F
102
{ACAD_REACTORS
330
E
102
}
  0
MLINESTYLE
  5
18
102
{ACAD_REACTORS
330
17
102
}
100
AcDbMlineStyle
  2
STANDARD
 70
0
  3

 62
256
 51
90.0
 52
90.0
 71
2
 49
0.5
 62
256
  6
BYLAYER
 49
-0.5
 62
256
  6
BYLAYER
  0
LAYOUT
  5
274
102
{ACAD_REACTORS
330
1A
102
}
100
AcDbPlotSettings
  1

  2
none_device
  4

  6

 40
0.0
 41
0.0
 42
0.0
 43
0.0
 44
210.0
 45
297.0
 46
0.0
 47
0.0
 48
0.0
 49
0.0
140
0.0
141
0.0
142
1.0
143
1.0
 70
1024
 72
1
 73
0
 74
0
  7

 75
0
147
1.0
148
0.0
149
0.0
100
AcDbLayout
  1
Model
 70
0
 71
0
 10
0.0
 20
0.0
 11
210.0
 21
297.0
 12
0.0
 22
0.0
 32
0.0
 14
0.0
 24
0.0
 34
0.0
 15
0.0
 25
0.0
 35
0.0
146
0.0
 13
0.0
 23
0.0
 33
0.0
 16
1.0
 26
0.0
 36
0.0
 17
0.0
 27
1.0
 37
0.0
 76
0
330
210
345
0
346
0
  0
LAYOUT
  5
275
102
{ACAD_REACTORS
330
1A
102
}
100
AcDbPlotSettings
  1

  2
none_device
  4

  6

 40
0.0
 41
0.0
 42
0.0
 43
0.0
 44
210.0
 45
297.0
 46
0.0
 47
0.0
 48
0.0
 49
0.0
140
0.0
141
0.0
142
1.0
143
1.0
 70
0
 72
1
 73
0
 74
0
  7

 75
0
147
1.0
148
0.0
149
0.0
100
AcDbLayout
  1
Layout1
 70
0
 71
1
 10
0.0
 20
0.0
 11
210.0
 21
297.0
 12
0.0
 22
0.0
 32
0.0
 14
0.0
 24
0.0
 34
0.0
 15
0.0
 25
0.0
 35
0.0
146
0.0
 13
0.0
 23
0.0
 33
0.0
 16
1.0
 26
0.0
 36
0.0
 17
0.0
 27
1.0
 37
0.0
 76
0
330
211
345
0
346
0
  0
ENDSEC
  0
EOF
