999
DXF file: Y:\001_SCHNEIDER_PARIS\maxime fuentes - génération CAD 2D\TRAVAIL\XALK03_2D-Views\xalk03_2d-views_5.dxf
999
Pro/ENGINEER 2018260 by Parametric Technology Corporation
  0
SECTION
  2
HEADER
  9
$ACADVER
  1
AC1027
  9
$DWGCODEPAGE
  3
ANSI_1252
  9
$EXTMAX
 10
558.8
 20
431.8
 30
0.0
  9
$EXTMIN
 10
0.0
 20
0.0
 30
0.0
  9
$LIMMIN
 10
0.0
 20
0.0
  9
$LIMMAX
 10
558.8
 20
431.8
  9
$VIEWCTR
 10
279.4
 20
215.9
  9
$VIEWSIZE
 40
431.8
  9
$CLAYER
  8
0
  9
$LTSCALE
 40
30.734
  9
$CELTYPE
  6
BYLAYER
  9
$DIMSCALE
 40
1.0
  9
$DIMASZ
 40
3.5
  9
$DIMEXO
 40
1.0
  9
$DIMDLI
 40
21.2344
  9
$DIMEXE
 40
3.0
  9
$DIMCEN
 40
5.0292
  9
$DIMLFAC
 40
1.0
  9
$DIMBLK
  1
_FILLED
  9
$DIMALT
 70
0
  9
$DIMALTF
 40
0.0393700787
  9
$DIMTXT
 40
4.0
  9
$DIMTOL
 70
1
  9
$DIMLIM
 70
0
  9
$DIMTFAC
 40
1.0
  9
$DIMTP
 40
0.0001
  9
$DIMTM
 40
0.0001
  9
$DIMGAP
 40
0.625
  9
$DIMDSEP
 70
46
  9
$AUNITS
 70
0
  9
$PDMODE
 70
0
  9
$PDSIZE
 40
0.01
  9
$HANDSEED
  5
298
  9
$TILEMODE
 70
1
  9
$MEASUREMENT
 70
1
  9
$INSUNITS
 70
4
  0
ENDSEC
  0
SECTION
  2
CLASSES
  0
CLASS
  1
ACDBDICTIONARYWDFLT
  2
AcDbDictionaryWithDefault
  3
AutoCAD 2000
 90
0
 91
1
280
0
281
0
  0
CLASS
  1
ACDBPLACEHOLDER
  2
AcDbPlaceHolder
  3
AutoCAD 2000
 90
0
 91
1
280
0
281
0
  0
CLASS
  1
LAYOUT
  2
AcDbLayout
  3
AutoCAD 2000
 90
0
 91
0
280
0
281
0
  0
ENDSEC
  0
SECTION
  2
TABLES
  0
TABLE
  2
VPORT
  5
8
100
AcDbSymbolTable
 70
2
  0
VPORT
  5
1F4
100
AcDbSymbolTableRecord
100
AcDbViewportTableRecord
  2
*ACTIVE
 70
0
 10
0.0
 20
0.0
 11
1.0
 21
1.0
 12
279.4
 22
215.9
 13
0.0
 23
0.0
 14
1.0
 24
1.0
 15
0.0
 25
0.0
 16
0.0
 26
0.0
 36
1.0
 17
0.0
 27
0.0
 37
0.0
 40
431.8
 41
1.2941176471
 42
50.0
 43
0.0
 44
0.0
 50
0.0
 51
0.0
 71
0
 72
100
 73
1
 74
1
 75
0
 76
0
 77
0
 78
0
  0
ENDTAB
  0
TABLE
  2
LTYPE
  5
5
100
AcDbSymbolTable
 70
6
  0
LTYPE
  5
14
100
AcDbSymbolTableRecord
100
AcDbLinetypeTableRecord
  2
BYBLOCK
 70
0
  3

 72
65
 73
0
 40
0.0
  0
LTYPE
  5
15
100
AcDbSymbolTableRecord
100
AcDbLinetypeTableRecord
  2
BYLAYER
 70
0
  3

 72
65
 73
0
 40
0.0
  0
LTYPE
  5
16
100
AcDbSymbolTableRecord
100
AcDbLinetypeTableRecord
  2
CONTINUOUS
 70
64
  3
Solid line
 72
65
 73
0
 40
0.0
  0
LTYPE
  5
1F5
100
AcDbSymbolTableRecord
100
AcDbLinetypeTableRecord
  2
CENTER
 70
64
  3
____ _ ____ _ ____ _ ____ _ ____ _ ____ _ ____
 72
65
 73
4
 40
0.6
 49
0.375
 74
0
 49
-0.075
 74
0
 49
0.075
 74
0
 49
-0.075
 74
0
  0
LTYPE
  5
1F6
100
AcDbSymbolTableRecord
100
AcDbLinetypeTableRecord
  2
HIDDEN
 70
64
  3
- - - - - - - - - - - - - - - - - - - -
 72
65
 73
2
 40
0.2
 49
0.1
 74
0
 49
-0.1
 74
0
  0
LTYPE
  5
1F7
100
AcDbSymbolTableRecord
100
AcDbLinetypeTableRecord
  2
PHANTOM
 70
64
  3
_____ _ _ _____ _ _ _____ _ _ _____
 72
65
 73
6
 40
0.8
 49
0.45
 74
0
 49
-0.05
 74
0
 49
0.1
 74
0
 49
-0.05
 74
0
 49
0.1
 74
0
 49
-0.05
 74
0
  0
LTYPE
  5
1F8
100
AcDbSymbolTableRecord
100
AcDbLinetypeTableRecord
  2
DOT
 70
64
  3
. . . . . . . . . . . . . . . . . . . .
 72
65
 73
2
 40
0.2
 49
0.1
 74
0
 49
-0.1
 74
0
  0
LTYPE
  5
1F9
100
AcDbSymbolTableRecord
100
AcDbLinetypeTableRecord
  2
DASHED
 70
64
  3
- - - - - - - - - - - - - - - - - - - -
 72
65
 73
2
 40
0.2
 49
0.1
 74
0
 49
-0.1
 74
0
  0
ENDTAB
  0
TABLE
  2
LAYER
  5
2
100
AcDbSymbolTable
 70
36
  0
LAYER
  5
10
100
AcDbSymbolTableRecord
100
AcDbLayerTableRecord
  2
0
 70
0
 62
7
  6
CONTINUOUS
370
-3
390
F
  0
LAYER
  5
1FA
100
AcDbSymbolTableRecord
100
AcDbLayerTableRecord
  2
DEFAULT_1
 70
0
 62
7
  6
CENTER
370
-3
390
F
  0
LAYER
  5
1FB
100
AcDbSymbolTableRecord
100
AcDbLayerTableRecord
  2
DEFAULT_2
 70
0
 62
8
  6
HIDDEN
370
-3
390
F
  0
LAYER
  5
1FC
100
AcDbSymbolTableRecord
100
AcDbLayerTableRecord
  2
DEFAULT_3
 70
0
 62
7
  6
PHANTOM
370
-3
390
F
  0
LAYER
  5
1FD
100
AcDbSymbolTableRecord
100
AcDbLayerTableRecord
  2
01_ALL_DTM_PLN
 70
0
 62
7
  6
CONTINUOUS
370
-3
390
F
  0
LAYER
  5
1FE
100
AcDbSymbolTableRecord
100
AcDbLayerTableRecord
  2
01__ASM_ALL_DTM_PLN
 70
0
 62
7
  6
CONTINUOUS
370
-3
390
F
  0
LAYER
  5
1FF
100
AcDbSymbolTableRecord
100
AcDbLayerTableRecord
  2
01__ASM_DEF_DTM_PLN
 70
0
 62
7
  6
CONTINUOUS
370
-3
390
F
  0
LAYER
  5
200
100
AcDbSymbolTableRecord
100
AcDbLayerTableRecord
  2
01___PRT_ALL_DTM_PLN
 70
0
 62
7
  6
CONTINUOUS
370
-3
390
F
  0
LAYER
  5
201
100
AcDbSymbolTableRecord
100
AcDbLayerTableRecord
  2
01___PRT_DEF_DTM_PLN
 70
0
 62
7
  6
CONTINUOUS
370
-3
390
F
  0
LAYER
  5
202
100
AcDbSymbolTableRecord
100
AcDbLayerTableRecord
  2
02_ALL_AXES
 70
0
 62
7
  6
CONTINUOUS
370
-3
390
F
  0
LAYER
  5
203
100
AcDbSymbolTableRecord
100
AcDbLayerTableRecord
  2
02__ASM_ALL_AXES
 70
0
 62
7
  6
CONTINUOUS
370
-3
390
F
  0
LAYER
  5
204
100
AcDbSymbolTableRecord
100
AcDbLayerTableRecord
  2
02___PRT_ALL_AXES
 70
0
 62
7
  6
CONTINUOUS
370
-3
390
F
  0
LAYER
  5
205
100
AcDbSymbolTableRecord
100
AcDbLayerTableRecord
  2
03_ALL_CURVES
 70
0
 62
7
  6
CONTINUOUS
370
-3
390
F
  0
LAYER
  5
206
100
AcDbSymbolTableRecord
100
AcDbLayerTableRecord
  2
03__ASM_ALL_CURVES
 70
0
 62
7
  6
CONTINUOUS
370
-3
390
F
  0
LAYER
  5
207
100
AcDbSymbolTableRecord
100
AcDbLayerTableRecord
  2
03___PRT_ALL_CURVES
 70
0
 62
7
  6
CONTINUOUS
370
-3
390
F
  0
LAYER
  5
208
100
AcDbSymbolTableRecord
100
AcDbLayerTableRecord
  2
04_ALL_DTM_PNT
 70
0
 62
7
  6
CONTINUOUS
370
-3
390
F
  0
LAYER
  5
209
100
AcDbSymbolTableRecord
100
AcDbLayerTableRecord
  2
04__ASM_ALL_DTM_PNT
 70
0
 62
7
  6
CONTINUOUS
370
-3
390
F
  0
LAYER
  5
20A
100
AcDbSymbolTableRecord
100
AcDbLayerTableRecord
  2
04___PRT_ALL_DTM_PNT
 70
0
 62
7
  6
CONTINUOUS
370
-3
390
F
  0
LAYER
  5
20B
100
AcDbSymbolTableRecord
100
AcDbLayerTableRecord
  2
05_ALL_DTM_CSYS
 70
0
 62
7
  6
CONTINUOUS
370
-3
390
F
  0
LAYER
  5
20C
100
AcDbSymbolTableRecord
100
AcDbLayerTableRecord
  2
05__ASM_ALL_DTM_CSYS
 70
0
 62
7
  6
CONTINUOUS
370
-3
390
F
  0
LAYER
  5
20D
100
AcDbSymbolTableRecord
100
AcDbLayerTableRecord
  2
05__ASM_DEF_DTM_CSYS
 70
0
 62
7
  6
CONTINUOUS
370
-3
390
F
  0
LAYER
  5
20E
100
AcDbSymbolTableRecord
100
AcDbLayerTableRecord
  2
05___PRT_ALL_DTM_CSYS
 70
0
 62
7
  6
CONTINUOUS
370
-3
390
F
  0
LAYER
  5
20F
100
AcDbSymbolTableRecord
100
AcDbLayerTableRecord
  2
05___PRT_DEF_DTM_CSYS
 70
0
 62
7
  6
CONTINUOUS
370
-3
390
F
  0
LAYER
  5
210
100
AcDbSymbolTableRecord
100
AcDbLayerTableRecord
  2
06_ALL_SURFS
 70
0
 62
7
  6
CONTINUOUS
370
-3
390
F
  0
LAYER
  5
211
100
AcDbSymbolTableRecord
100
AcDbLayerTableRecord
  2
06__ASM_ALL_SURFS
 70
0
 62
7
  6
CONTINUOUS
370
-3
390
F
  0
LAYER
  5
212
100
AcDbSymbolTableRecord
100
AcDbLayerTableRecord
  2
06___PRT_ALL_SURFS
 70
0
 62
7
  6
CONTINUOUS
370
-3
390
F
  0
LAYER
  5
213
100
AcDbSymbolTableRecord
100
AcDbLayerTableRecord
  2
07__ASM_ALL_SKELETONS
 70
0
 62
7
  6
CONTINUOUS
370
-3
390
F
  0
LAYER
  5
214
100
AcDbSymbolTableRecord
100
AcDbLayerTableRecord
  2
CLOSED_SHELL
 70
0
 62
7
  6
CONTINUOUS
370
-3
390
F
  0
ENDTAB
  0
TABLE
  2
STYLE
  5
3
100
AcDbSymbolTable
 70
1
  0
STYLE
  5
11
100
AcDbSymbolTableRecord
100
AcDbTextStyleTableRecord
  2
STANDARD
 70
0
 40
0.0
 41
0.6
 50
0.0
 71
0
 42
0.2
  3
txt
  4

  0
STYLE
  5
215
100
AcDbSymbolTableRecord
100
AcDbTextStyleTableRecord
  2
TEXTSTYLE_1
 70
0
 40
0.0
 41
0.8
 50
0.0
 71
0
 42
0.2
  3
gdt
  4

  0
ENDTAB
  0
TABLE
  2
VIEW
  5
6
100
AcDbSymbolTable
 70
0
  0
ENDTAB
  0
TABLE
  2
UCS
  5
7
100
AcDbSymbolTable
 70
0
  0
ENDTAB
  0
TABLE
  2
APPID
  5
9
100
AcDbSymbolTable
 70
1
  0
APPID
  5
216
100
AcDbSymbolTableRecord
100
AcDbRegAppTableRecord
  2
ACAD
 70
0
  0
ENDTAB
  0
TABLE
  2
BLOCK_RECORD
  5
1
100
AcDbSymbolTable
 70
0
  0
BLOCK_RECORD
  5
217
100
AcDbSymbolTableRecord
100
AcDbBlockTableRecord
  2
*Model_Space
  0
BLOCK_RECORD
  5
218
100
AcDbSymbolTableRecord
100
AcDbBlockTableRecord
  2
*Paper_Space
  0
BLOCK_RECORD
  5
219
100
AcDbSymbolTableRecord
100
AcDbBlockTableRecord
  2
_FILLED
  0
ENDTAB
  0
TABLE
  2
DIMSTYLE
  5
A
100
AcDbSymbolTable
 70
1
100
AcDbDimStyleTable
 71
0
  0
DIMSTYLE
105
21A
100
AcDbSymbolTableRecord
100
AcDbDimStyleTableRecord
  2
STANDARD
 70
0
  3

  4

 40
1.0
 41
3.5
 42
1.0
 43
0.38
 44
3.0
 45
0.0
 46
0.0
 47
0.0001
 48
0.0001
140
4.0
141
0.09
142
0.0
143
25.4
144
1.0
145
0.0
146
1.0
147
0.625
 71
1.0
 72
0.0
 73
0
 74
0
 75
0
 76
0
 77
1
 78
8
 79
2
170
0
171
3
172
0
173
0
174
0
175
0
176
0
177
0
178
0
270
2
179
4
271
4
272
4
273
2
274
2
275
0
280
0
281
0
282
0
283
1
284
8
285
0
286
0
287
3
288
0
340
11
278
46
341
219
342
219
343
219
344
219
  0
ENDTAB
  0
ENDSEC
  0
SECTION
  2
BLOCKS
  0
BLOCK
  5
20
100
AcDbEntity
  8
0
100
AcDbBlockBegin
  2
*Model_Space
 70
0
 10
0.0
 20
0.0
 30
0.0
  3
*Model_Space
  1

  0
ENDBLK
  5
21
100
AcDbEntity
  8
0
100
AcDbBlockEnd
  0
BLOCK
  5
1C
100
AcDbEntity
  8
0
100
AcDbBlockBegin
  2
*Paper_Space
 70
0
 10
0.0
 20
0.0
 30
0.0
  3
*Paper_Space
  1

  0
ENDBLK
  5
1D
100
AcDbEntity
  8
0
100
AcDbBlockEnd
  0
BLOCK
  5
21B
100
AcDbEntity
  8
0
100
AcDbBlockBegin
  2
_FILLED
 70
64
 10
0.0
 20
0.0
  3
_FILLED
  1

  0
SOLID
  5
21C
100
AcDbEntity
  8
0
  6
BYBLOCK
 62
0
100
AcDbTrace
 10
0.0
 20
0.0
 11
-1.0
 21
0.2857142857
 12
-1.0
 22
-0.2857142857
 13
-1.0
 23
-0.2857142857
  0
ENDBLK
  5
21D
100
AcDbEntity
  8
0
  6
BYBLOCK
 62
0
100
AcDbBlockEnd
  0
ENDSEC
  0
SECTION
  2
ENTITIES
  0
LINE
  5
21E
100
AcDbEntity
  8
0
100
AcDbLine
 62
7
  6
CONTINUOUS
 10
309.5309759928
 20
126.2530526124
 11
309.5312127829
 21
126.2530643022
  0
LINE
  5
21F
100
AcDbEntity
  8
0
100
AcDbLine
 62
7
  6
CONTINUOUS
 10
309.5309759928
 20
126.2540941514
 11
316.9727973455
 21
126.4489651007
  0
LINE
  5
220
100
AcDbEntity
  8
0
100
AcDbLine
 62
9
  6
CONTINUOUS
 10
304.2496269715
 20
126.2482303204
 11
317.0513382241
 21
126.5833449675
  0
LINE
  5
221
100
AcDbEntity
  8
0
100
AcDbLine
 62
9
  6
CONTINUOUS
 10
303.1122651236
 20
126.3682907174
 11
317.1351747044
 21
126.7283970582
  0
LWPOLYLINE
  5
222
100
AcDbEntity
  8
0
100
AcDbPolyline
 62
7
  6
CONTINUOUS
 90
3
 70
0
 10
304.2496269716
 20
126.2482303204
 10
306.497314395
 20
126.2517749921
 10
309.0310758357
 20
126.2525536075
  0
LINE
  5
223
100
AcDbEntity
  8
0
100
AcDbLine
 62
7
  6
CONTINUOUS
 10
304.2496269716
 20
126.2482303204
 11
309.5309755828
 21
126.2530525729
  0
LINE
  5
224
100
AcDbEntity
  8
0
100
AcDbLine
 62
7
  6
CONTINUOUS
 10
303.6221329605
 20
126.2498698066
 11
303.7501446135
 21
126.2482111966
  0
LINE
  5
225
100
AcDbEntity
  8
0
100
AcDbLine
 62
9
  6
CONTINUOUS
 10
267.9788536069
 20
127.2635906414
 11
302.6122843073
 21
126.3688798592
  0
LINE
  5
226
100
AcDbEntity
  8
0
100
AcDbLine
 62
7
  6
CONTINUOUS
 10
267.9789107289
 20
127.183081635
 11
303.6221332527
 21
126.2499035243
  0
LINE
  5
227
100
AcDbEntity
  8
0
100
AcDbLine
 62
9
  6
CONTINUOUS
 10
294.531212783
 20
127.7720291276
 11
318.0569685852
 21
128.3734739927
  0
LINE
  5
228
100
AcDbEntity
  8
0
100
AcDbLine
 62
9
  6
CONTINUOUS
 10
317.6429300055
 20
129.4654998709
 11
292.031212783
 21
128.8165644008
  0
LINE
  5
229
100
AcDbEntity
  8
0
100
AcDbLine
 62
9
  6
CONTINUOUS
 10
292.031212783
 20
128.9054165081
 11
317.5531910626
 21
129.5515832957
  0
LINE
  5
22A
100
AcDbEntity
  8
0
100
AcDbLine
 62
9
  6
CONTINUOUS
 10
292.0312127829
 20
128.7401814573
 11
267.978858877
 21
129.3500075497
  0
LINE
  5
22B
100
AcDbEntity
  8
0
100
AcDbLine
 62
9
  6
CONTINUOUS
 10
267.9788588833
 20
129.5143752021
 11
292.0312127829
 21
128.905416431
  0
LINE
  5
22C
100
AcDbEntity
  8
0
100
AcDbLine
 62
9
  6
CONTINUOUS
 10
294.4599884118
 20
127.7161843939
 11
267.9789109898
 21
128.3938407414
  0
LINE
  5
22D
100
AcDbEntity
  8
0
100
AcDbLine
 62
7
  6
CONTINUOUS
 10
294.4599888903
 20
127.716459021
 11
294.524307321
 21
127.7079833352
  0
LINE
  5
22E
100
AcDbEntity
  8
0
100
AcDbLine
 62
7
  6
CONTINUOUS
 10
294.4599888903
 20
127.716459021
 11
294.5218930279
 21
127.7075161478
  0
LINE
  5
22F
100
AcDbEntity
  8
0
100
AcDbLine
 62
9
  6
CONTINUOUS
 10
319.7962927931
 20
135.6470229515
 11
317.4734461081
 21
135.6466283763
  0
LINE
  5
230
100
AcDbEntity
  8
0
100
AcDbLine
 62
9
  6
CONTINUOUS
 10
317.2765146764
 20
133.2558984032
 11
266.0312127829
 21
133.2560914177
  0
LINE
  5
231
100
AcDbEntity
  8
0
100
AcDbLine
 62
7
  6
CONTINUOUS
 10
266.0312127829
 20
129.1824016926
 11
266.0312127829
 21
259.3140201738
  0
LINE
  5
232
100
AcDbEntity
  8
0
100
AcDbLine
 62
9
  6
CONTINUOUS
 10
267.978858877
 20
129.3500075497
 11
267.9788588863
 21
259.1439303547
  0
LINE
  5
233
100
AcDbEntity
  8
0
100
AcDbLine
 62
9
  6
CONTINUOUS
 10
267.9788680422
 20
261.3133365902
 11
267.9788703586
 21
261.2319365833
  0
LINE
  5
234
100
AcDbEntity
  8
0
100
AcDbLine
 62
9
  6
CONTINUOUS
 10
267.9788708447
 20
127.2642442797
 11
267.9788681511
 21
127.183086948
  0
LINE
  5
235
100
AcDbEntity
  8
0
100
AcDbLine
 62
9
  6
CONTINUOUS
 10
267.9788684232
 20
261.3167075212
 11
267.9788682739
 21
261.314873882
  0
LINE
  5
236
100
AcDbEntity
  8
0
100
AcDbLine
 62
9
  6
CONTINUOUS
 10
267.9785917322
 20
261.3148666232
 11
267.9786326964
 21
261.3132936099
  0
LINE
  5
237
100
AcDbEntity
  8
0
100
AcDbLine
 62
9
  6
CONTINUOUS
 10
288.0366034324
 20
261.8401041419
 11
288.0365625887
 21
261.8416762859
  0
LINE
  5
238
100
AcDbEntity
  8
0
100
AcDbLine
 62
7
  6
CONTINUOUS
 10
292.0312127829
 20
259.7537253685
 11
292.0312127829
 21
128.7401814578
  0
LINE
  5
239
100
AcDbEntity
  8
0
100
AcDbLine
 62
9
  6
CONTINUOUS
 10
294.4558575392
 20
260.7777996081
 11
294.4565401135
 21
260.7220365686
  0
LINE
  5
23A
100
AcDbEntity
  8
0
100
AcDbLine
 62
9
  6
CONTINUOUS
 10
294.4599888903
 20
127.7720291275
 11
294.4599888903
 21
127.716459021
  0
LINE
  5
23B
100
AcDbEntity
  8
0
100
AcDbLine
 62
7
  6
CONTINUOUS
 10
317.4734461081
 20
252.8466278119
 11
317.4734461081
 21
135.6466283763
  0
LINE
  5
23C
100
AcDbEntity
  8
0
100
AcDbLine
 62
7
  6
CONTINUOUS
 10
319.7962927931
 20
135.6470229512
 11
319.7962927931
 21
131.3369624961
  0
LINE
  5
23D
100
AcDbEntity
  8
0
100
AcDbLine
 62
7
  6
CONTINUOUS
 10
319.7962927931
 20
252.8470223875
 11
319.7962927931
 21
257.1628319662
  0
LINE
  5
23E
100
AcDbEntity
  8
0
100
AcDbLine
 62
7
  6
CONTINUOUS
 10
319.8312127829
 20
257.0975160346
 11
319.8312127829
 21
131.3975166399
  0
LINE
  5
23F
100
AcDbEntity
  8
0
100
AcDbLine
 62
7
  6
CONTINUOUS
 10
317.9555070494
 20
128.1486280983
 11
319.8312127831
 21
131.3975166398
  0
LINE
  5
240
100
AcDbEntity
  8
0
100
AcDbLine
 62
7
  6
CONTINUOUS
 10
317.9555070494
 20
128.1486280983
 11
317.0513377733
 21
126.5833461553
  0
LINE
  5
241
100
AcDbEntity
  8
0
100
AcDbLine
 62
7
  6
CONTINUOUS
 10
317.0513377733
 20
126.5833461553
 11
316.972846027
 21
126.4490494194
  0
LINE
  5
242
100
AcDbEntity
  8
0
100
AcDbLine
 62
9
  6
CONTINUOUS
 10
317.4734461081
 20
252.8466278119
 11
319.7962927931
 21
252.8470223871
  0
LINE
  5
243
100
AcDbEntity
  8
0
100
AcDbLine
 62
7
  6
CONTINUOUS
 10
319.8312127831
 20
257.0975160347
 11
317.9555071022
 21
260.346262632
  0
LINE
  5
244
100
AcDbEntity
  8
0
100
AcDbLine
 62
7
  6
CONTINUOUS
 10
317.9555066785
 20
260.3511670064
 11
319.7962927931
 21
257.1628319456
  0
LINE
  5
245
100
AcDbEntity
  8
0
100
AcDbLine
 62
7
  6
CONTINUOUS
 10
317.0513374717
 20
261.9131155376
 11
317.9555071022
 21
260.346262632
  0
LINE
  5
246
100
AcDbEntity
  8
0
100
AcDbLine
 62
7
  6
CONTINUOUS
 10
316.9728681812
 20
262.0507066705
 11
317.0513374717
 21
261.9131155376
  0
LINE
  5
247
100
AcDbEntity
  8
0
100
AcDbLine
 62
9
  6
CONTINUOUS
 10
266.0312127829
 20
255.2375497896
 11
317.2765146763
 21
255.2373567749
  0
LINE
  5
248
100
AcDbEntity
  8
0
100
AcDbLine
 62
7
  6
CONTINUOUS
 10
294.5218871139
 20
260.7873236424
 11
294.4558575392
 21
260.7777996081
  0
LINE
  5
249
100
AcDbEntity
  8
0
100
AcDbLine
 62
7
  6
CONTINUOUS
 10
294.5243877802
 20
260.7868372227
 11
294.4558575392
 21
260.7777996081
  0
LINE
  5
24A
100
AcDbEntity
  8
0
100
AcDbLine
 62
7
  6
CONTINUOUS
 10
303.6235252411
 20
262.2465570293
 11
267.9789105665
 21
261.3133424129
  0
LINE
  5
24B
100
AcDbEntity
  8
0
100
AcDbLine
 62
9
  6
CONTINUOUS
 10
267.9788682901
 20
261.3148738652
 11
288.0366034324
 21
261.8401041419
  0
LINE
  5
24C
100
AcDbEntity
  8
0
100
AcDbLine
 62
9
  6
CONTINUOUS
 10
288.4525362938
 20
261.8509957271
 11
303.6221768312
 21
262.2482267426
  0
LINE
  5
24D
100
AcDbEntity
  8
0
100
AcDbLine
 62
7
  6
CONTINUOUS
 10
303.6221332527
 20
262.249890938
 11
267.9789107289
 21
261.3167128273
  0
LINE
  5
24E
100
AcDbEntity
  8
0
100
AcDbLine
 62
9
  6
CONTINUOUS
 10
267.9788709283
 20
261.2319371271
 11
302.6122669515
 21
262.1279348927
  0
LINE
  5
24F
100
AcDbEntity
  8
0
100
AcDbLine
 62
9
  6
CONTINUOUS
 10
294.45586663
 20
260.7774606783
 11
267.978898013
 21
260.1009542722
  0
LINE
  5
250
100
AcDbEntity
  8
0
100
AcDbLine
 62
9
  6
CONTINUOUS
 10
267.9788588863
 20
258.9794406262
 11
292.0312127829
 21
259.5883679199
  0
LINE
  5
251
100
AcDbEntity
  8
0
100
AcDbLine
 62
9
  6
CONTINUOUS
 10
267.9788588863
 20
259.1439303547
 11
292.0312127829
 21
259.7537255459
  0
LINE
  5
252
100
AcDbEntity
  8
0
100
AcDbLine
 62
7
  6
CONTINUOUS
 10
303.7509160091
 20
262.248277416
 11
303.623524695
 21
262.2466207514
  0
LINE
  5
253
100
AcDbEntity
  8
0
100
AcDbLine
 62
7
  6
CONTINUOUS
 10
309.5312127829
 20
262.2467301601
 11
308.1623286346
 21
262.2458515503
  0
LINE
  5
254
100
AcDbEntity
  8
0
100
AcDbLine
 62
7
  6
CONTINUOUS
 10
309.185869808
 20
262.2462850207
 11
304.2496269717
 21
262.2482296663
  0
LINE
  5
255
100
AcDbEntity
  8
0
100
AcDbLine
 62
7
  6
CONTINUOUS
 10
306.4973129453
 20
262.2454408497
 11
304.2496269717
 21
262.2482296663
  0
LINE
  5
256
100
AcDbEntity
  8
0
100
AcDbLine
 62
9
  6
CONTINUOUS
 10
292.031212783
 20
259.5883673085
 11
317.5531920378
 21
258.9422338888
  0
LINE
  5
257
100
AcDbEntity
  8
0
100
AcDbLine
 62
9
  6
CONTINUOUS
 10
292.031212783
 20
259.6772847133
 11
317.6429300055
 21
259.0283824711
  0
LINE
  5
258
100
AcDbEntity
  8
0
100
AcDbLine
 62
9
  6
CONTINUOUS
 10
294.5311952313
 20
260.7220199955
 11
318.0569861035
 21
260.121898744
  0
LINE
  5
259
100
AcDbEntity
  8
0
100
AcDbLine
 62
9
  6
CONTINUOUS
 10
303.1122669522
 20
262.1279348932
 11
317.1351746711
 21
261.7677600991
  0
LINE
  5
25A
100
AcDbEntity
  8
0
100
AcDbLine
 62
9
  6
CONTINUOUS
 10
304.2496269622
 20
262.2482296666
 11
317.0513378599
 21
261.9131143279
  0
LINE
  5
25B
100
AcDbEntity
  8
0
100
AcDbLine
 62
7
  6
CONTINUOUS
 10
316.9727973455
 20
262.0508293616
 11
309.5309759928
 21
262.2457003109
  0
LINE
  5
25C
100
AcDbEntity
  8
0
100
AcDbLine
 62
7
  6
CONTINUOUS
 10
309.5309759928
 20
262.2467418499
 11
309.5312127829
 21
262.2467301601
  0
ARC
  5
25D
100
AcDbEntity
  8
0
100
AcDbCircle
 62
7
  6
CONTINUOUS
 10
304.4506031216
 20
255.4161847178
 40
6.8438829727
100
AcDbArc
 50
97.8876528929
 51
101.276982458
  0
ARC
  5
25E
100
AcDbEntity
  8
0
100
AcDbCircle
 62
7
  6
CONTINUOUS
 10
303.9461177517
 20
133.0665776073
 40
6.8298701551
100
AcDbArc
 50
258.7379460908
 51
262.1220229775
  0
ARC
  5
25F
100
AcDbEntity
  8
0
100
AcDbCircle
 62
7
  6
CONTINUOUS
 10
303.9244119467
 20
255.5679175935
 40
6.6899934129
100
AcDbArc
 50
97.8450495483
 51
101.3201749275
  0
ARC
  5
260
100
AcDbEntity
  8
0
100
AcDbCircle
 62
7
  6
CONTINUOUS
 10
304.420624114
 20
132.9123761709
 40
6.6736611244
100
AcDbArc
 50
258.6940552652
 51
262.1683619987
  0
ARC
  5
261
100
AcDbEntity
  8
0
100
AcDbCircle
 62
7
  6
CONTINUOUS
 10
303.8173869086
 20
132.1655300882
 40
5.9196835458
100
AcDbArc
 50
262.1608826627
 51
265.8532792273
  0
ARC
  5
262
100
AcDbEntity
  8
0
100
AcDbCircle
 62
7
  6
CONTINUOUS
 10
304.317133122
 20
256.3477164535
 40
5.9028497892
100
AcDbArc
 50
94.14423702
 51
97.8452149613
  0
ARC
  5
263
100
AcDbEntity
  8
0
100
AcDbCircle
 62
7
  6
CONTINUOUS
 10
303.8031675042
 20
256.4806927877
 40
5.7692135773
100
AcDbArc
 50
94.1028105765
 51
97.8895329901
  0
ARC
  5
264
100
AcDbEntity
  8
0
100
AcDbCircle
 62
7
  6
CONTINUOUS
 10
304.3008121085
 20
132.0077377624
 40
5.7611364221
100
AcDbArc
 50
262.122873345
 51
265.9148539466
  0
ARC
  5
265
100
AcDbEntity
  8
0
100
AcDbCircle
 62
7
  6
CONTINUOUS
 10
303.7622645123
 20
257.0456267855
 40
5.2028009035
100
AcDbArc
 50
91.5280502435
 51
94.0986347464
  0
ARC
  5
266
100
AcDbEntity
  8
0
100
AcDbCircle
 62
7
  6
CONTINUOUS
 10
303.7607557479
 20
131.4445473468
 40
5.1964950056
100
AcDbArc
 50
265.9012206845
 51
268.4713847738
  0
ARC
  5
267
100
AcDbEntity
  8
0
100
AcDbCircle
 62
7
  6
CONTINUOUS
 10
304.2566659378
 20
257.126575226
 40
5.1216592773
100
AcDbArc
 50
90.0787446324
 51
94.09923322
  0
ARC
  5
268
100
AcDbEntity
  8
0
100
AcDbCircle
 62
7
  6
CONTINUOUS
 10
304.2509873465
 20
131.2524472356
 40
5.0042171002
100
AcDbArc
 50
265.8678209915
 51
269.9844243895
  0
ARC
  5
269
100
AcDbEntity
  8
0
100
AcDbCircle
 62
7
  6
CONTINUOUS
 10
314.8393078621
 20
261.8590047353
 40
3.9840581733
100
AcDbArc
 50
312.936371249
 51
314.7254324673
  0
ARC
  5
26A
100
AcDbEntity
  8
0
100
AcDbCircle
 62
7
  6
CONTINUOUS
 10
314.8409885824
 20
126.634388875
 40
3.9832229678
100
AcDbArc
 50
45.2966913607
 51
47.0854689795
  0
ARC
  5
26B
100
AcDbEntity
  8
0
100
AcDbCircle
 62
7
  6
CONTINUOUS
 10
268.0312092443
 20
259.3140215754
 40
2.0000000324
100
AcDbArc
 50
91.4996361797
 51
180.0
  0
ARC
  5
26C
100
AcDbEntity
  8
0
100
AcDbCircle
 62
7
  6
CONTINUOUS
 10
268.031208714
 20
129.182401872
 40
1.9999999259
100
AcDbArc
 50
180.0
 51
268.5003820484
  0
ARC
  5
26D
100
AcDbEntity
  8
0
100
AcDbCircle
 62
9
  6
CONTINUOUS
 10
267.9190711834
 20
131.2875710296
 40
1.8878592842
100
AcDbArc
 50
180.0533498362
 51
190.0244504582
  0
ARC
  5
26E
100
AcDbEntity
  8
0
100
AcDbCircle
 62
9
  6
CONTINUOUS
 10
267.9169440455
 20
131.4494932525
 40
1.8857323944
100
AcDbArc
 50
180.0627736462
 51
194.9449657564
  0
ARC
  5
26F
100
AcDbEntity
  8
0
100
AcDbCircle
 62
9
  6
CONTINUOUS
 10
267.9104618196
 20
131.4477199947
 40
1.8790121293
100
AcDbArc
 50
194.9436982743
 51
198.1865678983
  0
ARC
  5
270
100
AcDbEntity
  8
0
100
AcDbCircle
 62
9
  6
CONTINUOUS
 10
267.9013268486
 20
257.2075205289
 40
1.8701141764
100
AcDbArc
 50
173.4729813465
 51
179.9784848016
  0
ARC
  5
271
100
AcDbEntity
  8
0
100
AcDbCircle
 62
7
  6
CONTINUOUS
 10
292.3806887356
 20
128.8165746883
 40
0.3494759528
100
AcDbArc
 50
180.0016873968
 51
190.9496633753
  0
ARC
  5
272
100
AcDbEntity
  8
0
100
AcDbCircle
 62
7
  6
CONTINUOUS
 10
292.3772789678
 20
259.6771537374
 40
0.3460662097
100
AcDbArc
 50
168.8270234163
 51
179.9783144496
  0
SPLINE
  5
273
100
AcDbEntity
  8
0
100
AcDbSpline
 62
7
  6
CONTINUOUS
 70
0
 71
3
 72
12
 73
8
 74
0
 42
0.0000001
 43
0.0000001
 44
0.0000000001
 40
0.0
 40
0.0
 40
0.0
 40
0.0
 40
0.1346049664
 40
0.2283714115
 40
0.3428757009
 40
0.6340835721
 40
1.0
 40
1.0
 40
1.0
 40
1.0
 10
292.0377718699
 20
259.7442115629
 30
0.0
 10
292.0618770669
 20
259.8661995592
 30
0.0
 10
292.2153034545
 20
260.0416363947
 30
0.0
 10
292.4817874941
 20
260.2066133426
 30
0.0
 10
292.9059051081
 20
260.3953685619
 30
0.0
 10
293.596091225
 20
260.5816327601
 30
0.0
 10
294.1959300659
 20
260.6796586365
 30
0.0
 10
294.5312127829
 20
260.722669322
 30
0.0
  0
SPLINE
  5
274
100
AcDbEntity
  8
0
100
AcDbSpline
 62
7
  6
CONTINUOUS
 70
0
 71
3
 72
9
 73
5
 74
0
 42
0.0000001
 43
0.0000001
 44
0.0000000001
 40
0.0
 40
0.0
 40
0.0
 40
0.0
 40
0.2188010203
 40
1.0
 40
1.0
 40
1.0
 40
1.0
 10
303.1122669516
 20
126.3682219598
 30
0.0
 10
302.4901989061
 20
126.4918340829
 30
0.0
 10
299.643129802
 20
127.0363354694
 30
0.0
 10
296.777283068
 20
127.4842305079
 30
0.0
 10
294.531212783
 20
127.7720291275
 30
0.0
  0
SPLINE
  5
275
100
AcDbEntity
  8
0
100
AcDbSpline
 62
7
  6
CONTINUOUS
 70
0
 71
3
 72
13
 73
9
 74
0
 42
0.0000001
 43
0.0000001
 44
0.0000000001
 40
0.0
 40
0.0
 40
0.0
 40
0.0
 40
0.3589402993
 40
0.5157795803
 40
0.6520088989
 40
0.7667931303
 40
0.8624524577
 40
1.0
 40
1.0
 40
1.0
 40
1.0
 10
294.531212783
 20
127.7720291276
 30
0.0
 10
294.2022752017
 20
127.8141266438
 30
0.0
 10
293.7309367921
 20
127.8898236352
 30
0.0
 10
293.1460241124
 20
128.0359748181
 30
0.0
 10
292.7874952106
 20
128.151766575
 30
0.0
 10
292.492481087
 20
128.2820078374
 30
0.0
 10
292.2214817089
 20
128.4477192696
 30
0.0
 10
292.0617642752
 20
128.6254378949
 30
0.0
 10
292.037575189
 20
128.7501929461
 30
0.0
  0
SPLINE
  5
276
100
AcDbEntity
  8
0
100
AcDbSpline
 62
7
  6
CONTINUOUS
 70
0
 71
3
 72
9
 73
5
 74
0
 42
0.0000001
 43
0.0000001
 44
0.0000000001
 40
0.0
 40
0.0
 40
0.0
 40
0.0
 40
0.2789744998
 40
1.0
 40
1.0
 40
1.0
 40
1.0
 10
294.5312127829
 20
260.7226693345
 30
0.0
 10
295.3333356149
 20
260.8255396108
 30
0.0
 10
298.2049867551
 20
261.222195914
 30
0.0
 10
301.0623353235
 20
261.7200785
 30
0.0
 10
303.1122668575
 20
262.1279348762
 30
0.0
  0
SPLINE
  5
277
100
AcDbEntity
  8
0
100
AcDbSpline
 62
7
  6
CONTINUOUS
 70
0
 71
3
 72
9
 73
5
 74
0
 42
0.0000001
 43
0.0000001
 44
0.0000000001
 40
0.0
 40
0.0
 40
0.0
 40
0.0
 40
0.254759189
 40
1.0
 40
1.0
 40
1.0
 40
1.0
 10
317.9555071023
 20
260.3462626319
 30
0.0
 10
317.9659948146
 20
260.3280905156
 30
0.0
 10
318.0054935762
 20
260.2558211236
 30
0.0
 10
318.0379038816
 20
260.1795908794
 30
0.0
 10
318.0569685851
 20
260.1212506185
 30
0.0
  0
SPLINE
  5
278
100
AcDbEntity
  8
0
100
AcDbSpline
 62
7
  6
CONTINUOUS
 70
0
 71
3
 72
11
 73
7
 74
0
 42
0.0000001
 43
0.0000001
 44
0.0000000001
 40
0.0
 40
0.0
 40
0.0
 40
0.0
 40
0.2304358468
 40
0.4578036629
 40
0.7108104101
 40
1.0
 40
1.0
 40
1.0
 40
1.0
 10
318.0569685851
 20
260.1212506185
 30
0.0
 10
318.0864017131
 20
260.0312156261
 30
0.0
 10
318.1163238242
 20
259.8399856181
 30
0.0
 10
318.0437384595
 20
259.5505653001
 30
0.0
 10
317.8773811766
 20
259.2780342744
 30
0.0
 10
317.7273521711
 20
259.1120739272
 30
0.0
 10
317.6429300104
 20
259.0283824755
 30
0.0
  0
SPLINE
  5
279
100
AcDbEntity
  8
0
100
AcDbSpline
 62
7
  6
CONTINUOUS
 70
0
 71
3
 72
13
 73
9
 74
0
 42
0.0000001
 43
0.0000001
 44
0.0000000001
 40
0.0
 40
0.0
 40
0.0
 40
0.0
 40
0.0661260345
 40
0.1504279004
 40
0.2545626391
 40
0.3778648161
 40
0.6712062262
 40
1.0
 40
1.0
 40
1.0
 40
1.0
 10
317.5531915112
 20
258.9422333923
 30
0.0
 10
317.4919390177
 20
258.8851838561
 30
0.0
 10
317.3822342437
 20
258.7245836847
 30
0.0
 10
317.2687529916
 20
258.4217426628
 30
0.0
 10
317.1856358691
 20
258.0348256875
 30
0.0
 10
317.1144847328
 20
257.3786925496
 30
0.0
 10
317.1245379968
 20
256.4323199162
 30
0.0
 10
317.2101741526
 20
255.6482356562
 30
0.0
 10
317.2765146809
 20
255.237356741
 30
0.0
  0
SPLINE
  5
27A
100
AcDbEntity
  8
0
100
AcDbSpline
 62
7
  6
CONTINUOUS
 70
0
 71
3
 72
8
 73
4
 74
0
 42
0.0000001
 43
0.0000001
 44
0.0000000001
 40
0.0
 40
0.0
 40
0.0
 40
0.0
 40
1.0
 40
1.0
 40
1.0
 40
1.0
 10
317.2765146763
 20
255.2373567749
 30
0.0
 10
317.4039689014
 20
254.4479712346
 30
0.0
 10
317.4734461082
 20
253.6462365285
 30
0.0
 10
317.4734461082
 20
252.846627805
 30
0.0
  0
SPLINE
  5
27B
100
AcDbEntity
  8
0
100
AcDbSpline
 62
7
  6
CONTINUOUS
 70
0
 71
3
 72
11
 73
7
 74
0
 42
0.0000001
 43
0.0000001
 44
0.0000000001
 40
0.0
 40
0.0
 40
0.0
 40
0.0
 40
0.2304077419
 40
0.457745455
 40
0.7107596404
 40
1.0
 40
1.0
 40
1.0
 40
1.0
 10
318.0569685852
 20
128.3734739927
 30
0.0
 10
318.0864177943
 20
128.4634305901
 30
0.0
 10
318.1163193904
 20
128.654532147
 30
0.0
 10
318.0437309739
 20
128.9437444824
 30
0.0
 10
317.8773671172
 20
129.216062214
 30
0.0
 10
317.7273423862
 20
129.3818722523
 30
0.0
 10
317.6429300099
 20
129.4654998669
 30
0.0
  0
SPLINE
  5
27C
100
AcDbEntity
  8
0
100
AcDbSpline
 62
7
  6
CONTINUOUS
 70
0
 71
3
 72
9
 73
5
 74
0
 42
0.0000001
 43
0.0000001
 44
0.0000000001
 40
0.0
 40
0.0
 40
0.0
 40
0.0
 40
0.2461374163
 40
1.0
 40
1.0
 40
1.0
 40
1.0
 10
318.0569685852
 20
128.3734739927
 30
0.0
 10
318.0506713258
 20
128.3542175749
 30
0.0
 10
318.022855516
 20
128.276719681
 30
0.0
 10
317.9865416253
 20
128.2023612433
 30
0.0
 10
317.9555070505
 20
128.1486281002
 30
0.0
  0
SPLINE
  5
27D
100
AcDbEntity
  8
0
100
AcDbSpline
 62
7
  6
CONTINUOUS
 70
0
 71
3
 72
13
 73
9
 74
0
 42
0.0000001
 43
0.0000001
 44
0.0000000001
 40
0.0
 40
0.0
 40
0.0
 40
0.0
 40
0.3289094355
 40
0.6222053208
 40
0.7454796963
 40
0.8495999844
 40
0.9338870795
 40
1.0
 40
1.0
 40
1.0
 40
1.0
 10
317.2765146802
 20
133.2558984311
 30
0.0
 10
317.2101581339
 20
132.8449199688
 30
0.0
 10
317.1235423246
 20
132.0609258681
 30
0.0
 10
317.1142918133
 20
131.1145622988
 30
0.0
 10
317.1855495107
 20
130.458636277
 30
0.0
 10
317.2687006979
 20
130.0718457009
 30
0.0
 10
317.382193376
 20
129.7690992035
 30
0.0
 10
317.4919363057
 20
129.6085916313
 30
0.0
 10
317.5531915112
 20
129.5515828152
 30
0.0
  0
SPLINE
  5
27E
100
AcDbEntity
  8
0
100
AcDbSpline
 62
7
  6
CONTINUOUS
 70
0
 71
3
 72
8
 73
4
 74
0
 42
0.0000001
 43
0.0000001
 44
0.0000000001
 40
0.0
 40
0.0
 40
0.0
 40
0.0
 40
1.0
 40
1.0
 40
1.0
 40
1.0
 10
317.4734461082
 20
135.6466283882
 30
0.0
 10
317.4734461082
 20
134.8470193275
 30
0.0
 10
317.4039688526
 20
134.045284293
 30
0.0
 10
317.2765146764
 20
133.2558984032
 30
0.0
  0
SPLINE
  5
27F
100
AcDbEntity
  8
0
100
AcDbSpline
 62
9
  6
CONTINUOUS
 70
0
 71
3
 72
9
 73
5
 74
0
 42
0.0000001
 43
0.0000001
 44
0.0000000001
 40
0.0
 40
0.0
 40
0.0
 40
0.0
 40
0.2609325287
 40
1.0
 40
1.0
 40
1.0
 40
1.0
 10
267.9825897215
 20
261.2326899229
 30
0.0
 10
267.9816015596
 20
261.1342137927
 30
0.0
 10
267.9785392241
 20
260.756805665
 30
0.0
 10
267.9774178017
 20
260.3793853994
 30
0.0
 10
267.9768576851
 20
260.1004473067
 30
0.0
  0
SPLINE
  5
280
100
AcDbEntity
  8
0
100
AcDbSpline
 62
9
  6
CONTINUOUS
 70
0
 71
3
 72
9
 73
5
 74
0
 42
0.0000001
 43
0.0000001
 44
0.0000000001
 40
0.0
 40
0.0
 40
0.0
 40
0.0
 40
0.1560181439
 40
1.0
 40
1.0
 40
1.0
 40
1.0
 10
267.9803271108
 20
260.1009906755
 30
0.0
 10
267.9798778728
 20
260.0512237303
 30
0.0
 10
267.9780558635
 20
259.7322331169
 30
0.0
 10
267.9782536935
 20
259.4132349333
 30
0.0
 10
267.9788000277
 20
259.1440096853
 30
0.0
  0
SPLINE
  5
281
100
AcDbEntity
  8
0
100
AcDbSpline
 62
7
  6
CONTINUOUS
 70
0
 71
3
 72
11
 73
7
 74
0
 42
0.0000001
 43
0.0000001
 44
0.0000000001
 40
0.0
 40
0.0
 40
0.0
 40
0.0
 40
0.3390106584
 40
0.622241781
 40
0.8424505344
 40
1.0
 40
1.0
 40
1.0
 40
1.0
 10
294.4558587965
 20
260.7777996219
 30
0.0
 10
294.1786121399
 20
260.7412916089
 30
0.0
 10
293.6716077845
 20
260.6595830219
 30
0.0
 10
292.9954848344
 20
260.490722646
 30
0.0
 10
292.487305956
 20
260.2929765945
 30
0.0
 10
292.2219718612
 20
260.1140641951
 30
0.0
 10
292.1381678988
 20
260.0147366084
 30
0.0
  0
SPLINE
  5
282
100
AcDbEntity
  8
0
100
AcDbSpline
 62
7
  6
CONTINUOUS
 70
0
 71
3
 72
9
 73
5
 74
0
 42
0.0000001
 43
0.0000001
 44
0.0000000001
 40
0.0
 40
0.0
 40
0.0
 40
0.0
 40
0.5292365062
 40
1.0
 40
1.0
 40
1.0
 40
1.0
 10
292.1381678988
 20
260.0147366084
 30
0.0
 10
292.105560479
 20
259.9760890765
 30
0.0
 10
292.0518975878
 20
259.894925009
 30
0.0
 10
292.031212783
 20
259.7986833149
 30
0.0
 10
292.0312127829
 20
259.7537045238
 30
0.0
  0
SPLINE
  5
283
100
AcDbEntity
  8
0
100
AcDbSpline
 62
7
  6
CONTINUOUS
 70
0
 71
3
 72
9
 73
5
 74
0
 42
0.0000001
 43
0.0000001
 44
0.0000000001
 40
0.0
 40
0.0
 40
0.0
 40
0.0
 40
0.470531259
 40
1.0
 40
1.0
 40
1.0
 40
1.0
 10
292.0312127829
 20
128.7401814574
 30
0.0
 10
292.0312127829
 20
128.6950877942
 30
0.0
 10
292.0520825338
 20
128.5985441211
 30
0.0
 10
292.1061799156
 20
128.5173000634
 30
0.0
 10
292.1390110291
 20
128.4786107116
 30
0.0
  0
SPLINE
  5
284
100
AcDbEntity
  8
0
100
AcDbSpline
 62
7
  6
CONTINUOUS
 70
0
 71
3
 72
11
 73
7
 74
0
 42
0.0000001
 43
0.0000001
 44
0.0000000001
 40
0.0
 40
0.0
 40
0.0
 40
0.0
 40
0.1576082242
 40
0.3778722015
 40
0.6610782057
 40
1.0
 40
1.0
 40
1.0
 40
1.0
 10
292.1390110291
 20
128.4786107116
 30
0.0
 10
292.2232199895
 20
128.3793758776
 30
0.0
 10
292.4891035008
 20
128.2006262634
 30
0.0
 10
292.998065568
 20
128.0029610756
 30
0.0
 10
293.6750559448
 20
127.8347003581
 30
0.0
 10
294.1824987411
 20
127.7528249279
 30
0.0
 10
294.4599888937
 20
127.7163832855
 30
0.0
  0
SPLINE
  5
285
100
AcDbEntity
  8
0
100
AcDbSpline
 62
9
  6
CONTINUOUS
 70
0
 71
3
 72
9
 73
5
 74
0
 42
0.0000001
 43
0.0000001
 44
0.0000000001
 40
0.0
 40
0.0
 40
0.0
 40
0.0
 40
0.3328978717
 40
1.0
 40
1.0
 40
1.0
 40
1.0
 10
267.9788991917
 20
129.3499256497
 30
0.0
 10
267.9786835892
 20
129.243775671
 30
0.0
 10
267.9783917937
 20
128.9249099597
 30
0.0
 10
267.9785071382
 20
128.6060354781
 30
0.0
 10
267.9804291914
 20
128.3933272035
 30
0.0
  0
SPLINE
  5
286
100
AcDbEntity
  8
0
100
AcDbSpline
 62
9
  6
CONTINUOUS
 70
0
 71
3
 72
11
 73
7
 74
0
 42
0.0000001
 43
0.0000001
 44
0.0000000001
 40
0.0
 40
0.0
 40
0.0
 40
0.0
 40
0.2400497671
 40
0.4970983519
 40
0.7553826921
 40
1.0
 40
1.0
 40
1.0
 40
1.0
 10
267.978858866
 20
129.3500070225
 30
0.0
 10
267.7630902069
 20
129.3554776483
 30
0.0
 10
267.3149597039
 20
129.437709299
 30
0.0
 10
266.7113690281
 20
129.7774148374
 30
0.0
 10
266.2581400092
 20
130.3077604939
 30
0.0
 10
266.0982862683
 20
130.7423616214
 30
0.0
 10
266.0600327886
 20
130.9589543474
 30
0.0
  0
SPLINE
  5
287
100
AcDbEntity
  8
0
100
AcDbSpline
 62
9
  6
CONTINUOUS
 70
0
 71
3
 72
11
 73
7
 74
0
 42
0.0000001
 43
0.0000001
 44
0.0000000001
 40
0.0
 40
0.0
 40
0.0
 40
0.0
 40
0.2464993753
 40
0.4954657639
 40
0.7469394113
 40
1.0
 40
1.0
 40
1.0
 40
1.0
 10
266.1253152761
 20
130.861257378
 30
0.0
 10
266.1876830706
 20
130.6714418623
 30
0.0
 10
266.3757966666
 20
130.3076840539
 30
0.0
 10
266.8127393952
 20
129.8752017209
 30
0.0
 10
267.3639172053
 20
129.5915986708
 30
0.0
 10
267.7738073421
 20
129.5195662774
 30
0.0
 10
267.978858877
 20
129.5143747702
 30
0.0
  0
SPLINE
  5
288
100
AcDbEntity
  8
0
100
AcDbSpline
 62
7
  6
CONTINUOUS
 70
0
 71
3
 72
9
 73
5
 74
0
 42
0.0000001
 43
0.0000001
 44
0.0000000001
 40
0.0
 40
0.0
 40
0.0
 40
0.0
 40
0.2781274568
 40
1.0
 40
1.0
 40
1.0
 40
1.0
 10
294.524307321
 20
127.7079833352
 30
0.0
 10
295.2778920621
 20
127.6084713698
 30
0.0
 10
297.9839880366
 20
127.2251173777
 30
0.0
 10
300.6771533687
 20
126.7524436332
 30
0.0
 10
302.6122669515
 20
126.3682219599
 30
0.0
  0
SPLINE
  5
289
100
AcDbEntity
  8
0
100
AcDbSpline
 62
9
  6
CONTINUOUS
 70
0
 71
3
 72
11
 73
7
 74
0
 42
0.0000001
 43
0.0000001
 44
0.0000000001
 40
0.0
 40
0.0
 40
0.0
 40
0.0
 40
0.2529784849
 40
0.5043545074
 40
0.7533601816
 40
1.0
 40
1.0
 40
1.0
 40
1.0
 10
267.9788588863
 20
258.9794395081
 30
0.0
 10
267.775761464
 20
258.9742977427
 30
0.0
 10
267.3698194113
 20
258.9035729348
 30
0.0
 10
266.8227705551
 20
258.6250877155
 30
0.0
 10
266.3867359807
 20
258.1999296479
 30
0.0
 10
266.1965931006
 20
257.8414895132
 30
0.0
 10
266.132513008
 20
257.6540694762
 30
0.0
  0
SPLINE
  5
28A
100
AcDbEntity
  8
0
100
AcDbSpline
 62
9
  6
CONTINUOUS
 70
0
 71
3
 72
8
 73
4
 74
0
 42
0.0000001
 43
0.0000001
 44
0.0000000001
 40
0.0
 40
0.0
 40
0.0
 40
0.0
 40
1.0
 40
1.0
 40
1.0
 40
1.0
 10
266.132513008
 20
257.6540694762
 30
0.0
 10
266.0660869639
 20
257.4597880522
 30
0.0
 10
266.0312126679
 20
257.2518095435
 30
0.0
 10
266.0312127829
 20
257.0464861618
 30
0.0
  0
SPLINE
  5
28B
100
AcDbEntity
  8
0
100
AcDbSpline
 62
9
  6
CONTINUOUS
 70
0
 71
3
 72
11
 73
7
 74
0
 42
0.0000001
 43
0.0000001
 44
0.0000000001
 40
0.0
 40
0.0
 40
0.0
 40
0.0
 40
0.2420185848
 40
0.5002455437
 40
0.7586828525
 40
1.0
 40
1.0
 40
1.0
 40
1.0
 10
266.0433340742
 20
257.4200996507
 30
0.0
 10
266.0690549468
 20
257.6454724254
 30
0.0
 10
266.2091089776
 20
258.1055227699
 30
0.0
 10
266.6588742055
 20
258.6774645667
 30
0.0
 10
267.2829069836
 20
259.0483048906
 30
0.0
 10
267.7527532422
 20
259.1381976424
 30
0.0
 10
267.9788588895
 20
259.1439300606
 30
0.0
  0
SPLINE
  5
28C
100
AcDbEntity
  8
0
100
AcDbSpline
 62
9
  6
CONTINUOUS
 70
0
 71
3
 72
11
 73
7
 74
0
 42
0.0000001
 43
0.0000001
 44
0.0000000001
 40
0.0
 40
0.0
 40
0.0
 40
0.0
 40
0.2421268153
 40
0.5024371048
 40
0.7612181979
 40
1.0
 40
1.0
 40
1.0
 40
1.0
 10
267.9789072183
 20
260.1006169264
 30
0.0
 10
267.7330975111
 20
260.0942824757
 30
0.0
 10
267.2207477714
 20
259.986573247
 30
0.0
 10
266.5615933772
 20
259.5449745257
 30
0.0
 10
266.1281178316
 20
258.8839671305
 30
0.0
 10
266.0312177118
 20
258.3737914806
 30
0.0
 10
266.0312128159
 20
258.1312971886
 30
0.0
  0
SPLINE
  5
28D
100
AcDbEntity
  8
0
100
AcDbSpline
 62
9
  6
CONTINUOUS
 70
0
 71
3
 72
11
 73
7
 74
0
 42
0.0000001
 43
0.0000001
 44
0.0000000001
 40
0.0
 40
0.0
 40
0.0
 40
0.0
 40
0.2510594671
 40
0.5014348937
 40
0.7509747815
 40
1.0
 40
1.0
 40
1.0
 40
1.0
 10
267.9788703586
 20
261.2319365833
 30
0.0
 10
267.7231962414
 20
261.2253265346
 30
0.0
 10
267.2097278969
 20
261.1126789021
 30
0.0
 10
266.5638404601
 20
260.6691474836
 30
0.0
 10
266.1320672526
 20
260.0175594085
 30
0.0
 10
266.0312177588
 20
259.504180359
 30
0.0
 10
266.0312177139
 20
259.2504931416
 30
0.0
  0
SPLINE
  5
28E
100
AcDbEntity
  8
0
100
AcDbSpline
 62
7
  6
CONTINUOUS
 70
0
 71
3
 72
9
 73
5
 74
0
 42
0.0000001
 43
0.0000001
 44
0.0000000001
 40
0.0
 40
0.0
 40
0.0
 40
0.0
 40
0.2198788754
 40
1.0
 40
1.0
 40
1.0
 40
1.0
 10
302.6112236061
 20
262.127761208
 30
0.0
 10
302.0218994777
 20
262.0106142141
 30
0.0
 10
299.3382199574
 20
261.4955339751
 30
0.0
 10
296.6378154534
 20
261.0661695578
 30
0.0
 10
294.5243877802
 20
260.7868372227
 30
0.0
  0
SPLINE
  5
28F
100
AcDbEntity
  8
0
100
AcDbSpline
 62
9
  6
CONTINUOUS
 70
0
 71
3
 72
11
 73
7
 74
0
 42
0.0000001
 43
0.0000001
 44
0.0000000001
 40
0.0
 40
0.0
 40
0.0
 40
0.0
 40
0.2510694806
 40
0.5014576242
 40
0.7509970634
 40
1.0
 40
1.0
 40
1.0
 40
1.0
 10
267.9788708447
 20
127.2642442797
 30
0.0
 10
267.7231893917
 20
127.2709027908
 30
0.0
 10
267.2097252508
 20
127.3836347593
 30
0.0
 10
266.5638571105
 20
127.827210237
 30
0.0
 10
266.1320815133
 20
128.4787718061
 30
0.0
 10
266.0312181513
 20
128.9921223453
 30
0.0
 10
266.0312179687
 20
129.2457852663
 30
0.0
  0
SPLINE
  5
290
100
AcDbEntity
  8
0
100
AcDbSpline
 62
9
  6
CONTINUOUS
 70
0
 71
3
 72
11
 73
7
 74
0
 42
0.0000001
 43
0.0000001
 44
0.0000000001
 40
0.0
 40
0.0
 40
0.0
 40
0.0
 40
0.242122803
 40
0.5024310892
 40
0.7612139345
 40
1.0
 40
1.0
 40
1.0
 40
1.0
 10
267.9789087049
 20
128.3937281172
 30
0.0
 10
267.7331006155
 20
128.4000625677
 30
0.0
 10
267.2207518154
 20
128.5077746983
 30
0.0
 10
266.5616002448
 20
128.9493843241
 30
0.0
 10
266.1281251313
 20
129.6104052504
 30
0.0
 10
266.031220773
 20
130.1205905859
 30
0.0
 10
266.0312127252
 20
130.363091631
 30
0.0
  0
SPLINE
  5
291
100
AcDbEntity
  8
0
100
AcDbSpline
 62
9
  6
CONTINUOUS
 70
0
 71
3
 72
9
 73
5
 74
0
 42
0.0000001
 43
0.0000001
 44
0.0000000001
 40
0.0
 40
0.0
 40
0.0
 40
0.0
 40
0.2301601294
 40
1.0
 40
1.0
 40
1.0
 40
1.0
 10
267.9768724184
 20
128.3938931808
 30
0.0
 10
267.9770467913
 20
128.3071678907
 30
0.0
 10
267.9779233662
 20
127.9303644743
 30
0.0
 10
267.9796882101
 20
127.5535589916
 30
0.0
 10
267.9826028763
 20
127.2634941966
 30
0.0
  0
LINE
  5
292
100
AcDbEntity
  8
0
100
AcDbLine
 62
9
  6
CONTINUOUS
 10
288.4525362939
 20
261.8509957271
 11
288.1407924261
 21
261.8445638831
  0
LINE
  5
293
100
AcDbEntity
  8
0
100
AcDbLine
 62
9
  6
CONTINUOUS
 10
288.1407924261
 20
261.8445638831
 11
288.0365429826
 21
261.8424251349
  0
ELLIPSE
  5
294
100
AcDbEntity
  8
0
100
AcDbEllipse
 62
7
  6
CONTINUOUS
 10
322.310286669
 20
135.6474499963
 30
0.0
 11
0.0003698692
 21
4.3541439979
 31
0.0
 40
0.5773795836
 41
1.4040751153
 42
1.570943451
  0
ELLIPSE
  5
295
100
AcDbEntity
  8
0
100
AcDbEllipse
 62
7
  6
CONTINUOUS
 10
322.310286669
 20
252.8474494327
 30
0.0
 11
0.0003698692
 21
4.3541439979
 31
0.0
 40
0.5773795836
 41
-4.7122418561
 42
-4.5453735207
  0
ENDSEC
  0
SECTION
  2
OBJECTS
  0
DICTIONARY
  5
C
100
AcDbDictionary
280
0
281
1
  3
ACAD_GROUP
350
D
  3
ACAD_MLINESTYLE
350
17
  3
ACAD_LAYOUT
350
1A
  3
ACAD_PLOTSETTINGS
350
19
  3
ACAD_PLOTSTYLENAME
350
E
  0
DICTIONARY
  5
D
102
{ACAD_REACTORS
330
C
102
}
100
AcDbDictionary
280
0
281
1
  0
ACDBDICTIONARYWDFLT
  5
E
102
{ACAD_REACTORS
330
C
102
}
100
AcDbDictionary
281
1
  3
Normal
350
F
100
AcDbDictionaryWithDefault
340
F
  0
DICTIONARY
  5
17
102
{ACAD_REACTORS
330
C
102
}
100
AcDbDictionary
280
0
281
1
  3
Standard
350
18
  0
DICTIONARY
  5
19
102
{ACAD_REACTORS
330
C
102
}
100
AcDbDictionary
281
1
  0
DICTIONARY
  5
1A
102
{ACAD_REACTORS
330
C
102
}
100
AcDbDictionary
281
1
  3
Model
350
296
  3
Layout1
350
297
  0
ACDBPLACEHOLDER
  5
F
102
{ACAD_REACTORS
330
E
102
}
  0
MLINESTYLE
  5
18
102
{ACAD_REACTORS
330
17
102
}
100
AcDbMlineStyle
  2
STANDARD
 70
0
  3

 62
256
 51
90.0
 52
90.0
 71
2
 49
0.5
 62
256
  6
BYLAYER
 49
-0.5
 62
256
  6
BYLAYER
  0
LAYOUT
  5
296
102
{ACAD_REACTORS
330
1A
102
}
100
AcDbPlotSettings
  1

  2
none_device
  4
ANSI_C_(22.00_x_17.00_Inches)
  6

 40
0.0
 41
0.0
 42
0.0
 43
0.0
 44
558.8
 45
431.8
 46
0.0
 47
0.0
 48
0.0
 49
0.0
140
0.0
141
0.0
142
1.0
143
1.0
 70
1024
 72
1
 73
0
 74
0
  7

 75
0
147
1.0
148
0.0
149
0.0
100
AcDbLayout
  1
Model
 70
0
 71
0
 10
0.0
 20
0.0
 11
558.8
 21
431.8
 12
0.0
 22
0.0
 32
0.0
 14
0.0
 24
0.0
 34
0.0
 15
0.0
 25
0.0
 35
0.0
146
0.0
 13
0.0
 23
0.0
 33
0.0
 16
1.0
 26
0.0
 36
0.0
 17
0.0
 27
1.0
 37
0.0
 76
0
330
217
345
0
346
0
  0
LAYOUT
  5
297
102
{ACAD_REACTORS
330
1A
102
}
100
AcDbPlotSettings
  1

  2
none_device
  4
ANSI_C_(22.00_x_17.00_Inches)
  6

 40
0.0
 41
0.0
 42
0.0
 43
0.0
 44
558.8
 45
431.8
 46
0.0
 47
0.0
 48
0.0
 49
0.0
140
0.0
141
0.0
142
1.0
143
1.0
 70
0
 72
1
 73
0
 74
0
  7

 75
0
147
1.0
148
0.0
149
0.0
100
AcDbLayout
  1
Layout1
 70
0
 71
1
 10
0.0
 20
0.0
 11
558.8
 21
431.8
 12
0.0
 22
0.0
 32
0.0
 14
0.0
 24
0.0
 34
0.0
 15
0.0
 25
0.0
 35
0.0
146
0.0
 13
0.0
 23
0.0
 33
0.0
 16
1.0
 26
0.0
 36
0.0
 17
0.0
 27
1.0
 37
0.0
 76
0
330
218
345
0
346
0
  0
ENDSEC
  0
EOF
