999
DXF file: C:\Users\sesa63760\Dev\_Creo\CAD\MCADID0002410_3D-CAD\drw0001_5.dxf
999
Pro/ENGINEER 2019471 by Parametric Technology Corporation
  0
SECTION
  2
HEADER
  9
$ACADVER
  1
AC1024
  9
$DWGCODEPAGE
  3
ANSI_1252
  9
$EXTMAX
 10
42.8861439818
 20
60.6532607742
 30
0.0
  9
$EXTMIN
 10
0.0
 20
0.0
 30
0.0
  9
$LIMMIN
 10
0.0
 20
0.0
  9
$LIMMAX
 10
42.8861439818
 20
60.6532607742
  9
$VIEWCTR
 10
21.4430719909
 20
30.3266303871
  9
$VIEWSIZE
 40
60.6532607742
  9
$CLAYER
  8
0
  9
$LTSCALE
 40
3.9536940357
  9
$CELTYPE
  6
BYLAYER
  9
$DIMSCALE
 40
1.0
  9
$DIMASZ
 40
0.5105493331
  9
$DIMEXO
 40
1.0
  9
$DIMDLI
 40
2.7316431519
  9
$DIMEXE
 40
1.0
  9
$DIMCEN
 40
0.6469681149
  9
$DIMLFAC
 40
1.0
  9
$DIMBLK
  1
_FILLED
  9
$DIMALT
 70
0
  9
$DIMALTF
 40
0.0393700787
  9
$DIMTXT
 40
0.7147690664
  9
$DIMTOL
 70
1
  9
$DIMLIM
 70
0
  9
$DIMTFAC
 40
1.0
  9
$DIMTP
 40
0.01
  9
$DIMTM
 40
0.01
  9
$DIMGAP
 40
0.625
  9
$DIMDSEP
 70
46
  9
$AUNITS
 70
0
  9
$PDMODE
 70
3
  9
$PDSIZE
 40
0.3125
  9
$HANDSEED
  5
26A
  9
$TILEMODE
 70
1
  9
$MEASUREMENT
 70
1
  9
$INSUNITS
 70
4
  0
ENDSEC
  0
SECTION
  2
CLASSES
  0
CLASS
  1
ACDBDICTIONARYWDFLT
  2
AcDbDictionaryWithDefault
  3
AutoCAD 2000
 90
0
 91
1
280
0
281
0
  0
CLASS
  1
ACDBPLACEHOLDER
  2
AcDbPlaceHolder
  3
AutoCAD 2000
 90
0
 91
1
280
0
281
0
  0
CLASS
  1
LAYOUT
  2
AcDbLayout
  3
AutoCAD 2000
 90
0
 91
0
280
0
281
0
  0
ENDSEC
  0
SECTION
  2
TABLES
  0
TABLE
  2
VPORT
  5
8
100
AcDbSymbolTable
 70
2
  0
VPORT
  5
1F4
100
AcDbSymbolTableRecord
100
AcDbViewportTableRecord
  2
*ACTIVE
 70
0
 10
0.0
 20
0.0
 11
1.0
 21
1.0
 12
21.4430719909
 22
30.3266303871
 13
0.0
 23
0.0
 14
1.0
 24
1.0
 15
0.0
 25
0.0
 16
0.0
 26
0.0
 36
1.0
 17
0.0
 27
0.0
 37
0.0
 40
60.6532607742
 41
0.7070707071
 42
50.0
 43
0.0
 44
0.0
 50
0.0
 51
0.0
 71
0
 72
100
 73
1
 74
1
 75
0
 76
0
 77
0
 78
0
  0
ENDTAB
  0
TABLE
  2
LTYPE
  5
5
100
AcDbSymbolTable
 70
6
  0
LTYPE
  5
14
100
AcDbSymbolTableRecord
100
AcDbLinetypeTableRecord
  2
BYBLOCK
 70
0
  3

 72
65
 73
0
 40
0.0
  0
LTYPE
  5
15
100
AcDbSymbolTableRecord
100
AcDbLinetypeTableRecord
  2
BYLAYER
 70
0
  3

 72
65
 73
0
 40
0.0
  0
LTYPE
  5
16
100
AcDbSymbolTableRecord
100
AcDbLinetypeTableRecord
  2
CONTINUOUS
 70
64
  3
Solid line
 72
65
 73
0
 40
0.0
  0
LTYPE
  5
1F5
100
AcDbSymbolTableRecord
100
AcDbLinetypeTableRecord
  2
CENTER
 70
64
  3
____ _ ____ _ ____ _ ____ _ ____ _ ____ _ ____
 72
65
 73
4
 40
0.6
 49
0.375
 74
0
 49
-0.075
 74
0
 49
0.075
 74
0
 49
-0.075
 74
0
  0
LTYPE
  5
1F6
100
AcDbSymbolTableRecord
100
AcDbLinetypeTableRecord
  2
HIDDEN
 70
64
  3
- - - - - - - - - - - - - - - - - - - -
 72
65
 73
2
 40
0.2
 49
0.1
 74
0
 49
-0.1
 74
0
  0
LTYPE
  5
1F7
100
AcDbSymbolTableRecord
100
AcDbLinetypeTableRecord
  2
PHANTOM
 70
64
  3
_____ _ _ _____ _ _ _____ _ _ _____
 72
65
 73
6
 40
0.8
 49
0.45
 74
0
 49
-0.05
 74
0
 49
0.1
 74
0
 49
-0.05
 74
0
 49
0.1
 74
0
 49
-0.05
 74
0
  0
LTYPE
  5
1F8
100
AcDbSymbolTableRecord
100
AcDbLinetypeTableRecord
  2
DOT
 70
64
  3
. . . . . . . . . . . . . . . . . . . .
 72
65
 73
2
 40
0.2
 49
0.1
 74
0
 49
-0.1
 74
0
  0
LTYPE
  5
1F9
100
AcDbSymbolTableRecord
100
AcDbLinetypeTableRecord
  2
DASHED
 70
64
  3
- - - - - - - - - - - - - - - - - - - -
 72
65
 73
2
 40
0.2
 49
0.1
 74
0
 49
-0.1
 74
0
  0
ENDTAB
  0
TABLE
  2
LAYER
  5
2
100
AcDbSymbolTable
 70
36
  0
LAYER
  5
10
100
AcDbSymbolTableRecord
100
AcDbLayerTableRecord
  2
0
 70
0
 62
7
  6
CONTINUOUS
370
-3
390
F
  0
LAYER
  5
1FA
100
AcDbSymbolTableRecord
100
AcDbLayerTableRecord
  2
DEFAULT_1
 70
0
 62
7
  6
CENTER
370
-3
390
F
  0
LAYER
  5
1FB
100
AcDbSymbolTableRecord
100
AcDbLayerTableRecord
  2
DEFAULT_2
 70
0
 62
8
  6
HIDDEN
370
-3
390
F
  0
LAYER
  5
1FC
100
AcDbSymbolTableRecord
100
AcDbLayerTableRecord
  2
DEFAULT_3
 70
0
 62
7
  6
PHANTOM
370
-3
390
F
  0
LAYER
  5
1FD
100
AcDbSymbolTableRecord
100
AcDbLayerTableRecord
  2
00_COMPONENTS
 70
0
 62
7
  6
CONTINUOUS
370
-3
390
F
  0
LAYER
  5
1FE
100
AcDbSymbolTableRecord
100
AcDbLayerTableRecord
  2
01_1_DEFAULT_DATUMS
 70
0
 62
7
  6
CONTINUOUS
370
-3
390
F
  0
LAYER
  5
1FF
100
AcDbSymbolTableRecord
100
AcDbLayerTableRecord
  2
01_PLANES
 70
0
 62
7
  6
CONTINUOUS
370
-3
390
F
  0
LAYER
  5
200
100
AcDbSymbolTableRecord
100
AcDbLayerTableRecord
  2
02_COORD_SYS
 70
0
 62
7
  6
CONTINUOUS
370
-3
390
F
  0
LAYER
  5
201
100
AcDbSymbolTableRecord
100
AcDbLayerTableRecord
  2
03_AXES
 70
0
 62
7
  6
CONTINUOUS
370
-3
390
F
  0
LAYER
  5
202
100
AcDbSymbolTableRecord
100
AcDbLayerTableRecord
  2
04_POINTS
 70
0
 62
7
  6
CONTINUOUS
370
-3
390
F
  0
LAYER
  5
203
100
AcDbSymbolTableRecord
100
AcDbLayerTableRecord
  2
05_CURVES
 70
0
 62
7
  6
CONTINUOUS
370
-3
390
F
  0
LAYER
  5
204
100
AcDbSymbolTableRecord
100
AcDbLayerTableRecord
  2
06_SURFS
 70
0
 62
7
  6
CONTINUOUS
370
-3
390
F
  0
LAYER
  5
205
100
AcDbSymbolTableRecord
100
AcDbLayerTableRecord
  2
07_COSMETICS
 70
0
 62
7
  6
CONTINUOUS
370
-3
390
F
  0
LAYER
  5
206
100
AcDbSymbolTableRecord
100
AcDbLayerTableRecord
  2
10_NOTES
 70
0
 62
7
  6
CONTINUOUS
370
-3
390
F
  0
LAYER
  5
207
100
AcDbSymbolTableRecord
100
AcDbLayerTableRecord
  2
11_NOTES_PUB
 70
0
 62
7
  6
CONTINUOUS
370
-3
390
F
  0
LAYER
  5
208
100
AcDbSymbolTableRecord
100
AcDbLayerTableRecord
  2
13_REF_GTOL
 70
0
 62
7
  6
CONTINUOUS
370
-3
390
F
  0
LAYER
  5
209
100
AcDbSymbolTableRecord
100
AcDbLayerTableRecord
  2
16_MISC
 70
0
 62
7
  6
CONTINUOUS
370
-3
390
F
  0
LAYER
  5
20A
100
AcDbSymbolTableRecord
100
AcDbLayerTableRecord
  2
17_NO_PRINT
 70
0
 62
7
  6
CONTINUOUS
370
-3
390
F
  0
LAYER
  5
20B
100
AcDbSymbolTableRecord
100
AcDbLayerTableRecord
  2
18_DATUM_CAMS_JOINTS
 70
0
 62
7
  6
CONTINUOUS
370
-3
390
F
  0
LAYER
  5
20C
100
AcDbSymbolTableRecord
100
AcDbLayerTableRecord
  2
19_DATUM_FUNCTIONAL
 70
0
 62
7
  6
CONTINUOUS
370
-3
390
F
  0
LAYER
  5
20D
100
AcDbSymbolTableRecord
100
AcDbLayerTableRecord
  2
20_DATUM_KINEMATIC_SCHEME
 70
0
 62
7
  6
CONTINUOUS
370
-3
390
F
  0
ENDTAB
  0
TABLE
  2
STYLE
  5
3
100
AcDbSymbolTable
 70
1
  0
STYLE
  5
11
100
AcDbSymbolTableRecord
100
AcDbTextStyleTableRecord
  2
STANDARD
 70
0
 40
0.0
 41
0.8
 50
0.0
 71
0
 42
0.2
  3
txt
  4

  0
STYLE
  5
20E
100
AcDbSymbolTableRecord
100
AcDbTextStyleTableRecord
  2
TEXTSTYLE_1
 70
0
 40
0.0
 41
0.8
 50
0.0
 71
0
 42
0.2
  3
gdt
  4

  0
ENDTAB
  0
TABLE
  2
VIEW
  5
6
100
AcDbSymbolTable
 70
0
  0
ENDTAB
  0
TABLE
  2
UCS
  5
7
100
AcDbSymbolTable
 70
0
  0
ENDTAB
  0
TABLE
  2
APPID
  5
9
100
AcDbSymbolTable
 70
1
  0
APPID
  5
20F
100
AcDbSymbolTableRecord
100
AcDbRegAppTableRecord
  2
ACAD
 70
0
  0
ENDTAB
  0
TABLE
  2
BLOCK_RECORD
  5
1
100
AcDbSymbolTable
 70
0
  0
BLOCK_RECORD
  5
210
100
AcDbSymbolTableRecord
100
AcDbBlockTableRecord
  2
*Model_Space
  0
BLOCK_RECORD
  5
211
100
AcDbSymbolTableRecord
100
AcDbBlockTableRecord
  2
*Paper_Space
  0
BLOCK_RECORD
  5
212
100
AcDbSymbolTableRecord
100
AcDbBlockTableRecord
  2
_FILLED
  0
ENDTAB
  0
TABLE
  2
DIMSTYLE
  5
A
100
AcDbSymbolTable
 70
1
100
AcDbDimStyleTable
 71
0
  0
DIMSTYLE
105
213
100
AcDbSymbolTableRecord
100
AcDbDimStyleTableRecord
  2
STANDARD
 70
0
  3

  4

 40
1.0
 41
0.5105493331
 42
1.0
 43
0.38
 44
1.0
 45
0.0
 46
0.0
 47
0.01
 48
0.01
140
0.7147690664
141
0.09
142
0.0
143
25.4
144
1.0
145
0.0
146
1.0
147
0.625
 71
1
 72
0
 73
0
 74
0
 75
0
 76
0
 77
1
 78
8
 79
2
170
0
171
1
172
0
173
0
174
0
175
0
176
0
177
0
178
0
270
2
179
2
271
2
272
2
273
2
274
2
275
0
280
0
281
0
282
0
283
1
284
8
285
0
286
0
287
3
288
0
340
11
278
46
341
212
342
212
343
212
344
212
  0
ENDTAB
  0
ENDSEC
  0
SECTION
  2
BLOCKS
  0
BLOCK
  5
20
100
AcDbEntity
  8
0
100
AcDbBlockBegin
  2
*Model_Space
 70
0
 10
0.0
 20
0.0
 30
0.0
  3
*Model_Space
  1

  0
ENDBLK
  5
21
100
AcDbEntity
  8
0
100
AcDbBlockEnd
  0
BLOCK
  5
1C
100
AcDbEntity
  8
0
100
AcDbBlockBegin
  2
*Paper_Space
 70
0
 10
0.0
 20
0.0
 30
0.0
  3
*Paper_Space
  1

  0
ENDBLK
  5
1D
100
AcDbEntity
  8
0
100
AcDbBlockEnd
  0
BLOCK
  5
214
100
AcDbEntity
  8
0
100
AcDbBlockBegin
  2
_FILLED
 70
64
 10
0.0
 20
0.0
  3
_FILLED
  1

  0
SOLID
  5
215
100
AcDbEntity
  8
0
  6
BYBLOCK
 62
0
100
AcDbTrace
 10
0.0
 20
0.0
 11
-1.0
 21
0.25
 12
-1.0
 22
-0.25
 13
-1.0
 23
-0.25
  0
ENDBLK
  5
216
100
AcDbEntity
  8
0
  6
BYBLOCK
 62
0
100
AcDbBlockEnd
  0
ENDSEC
  0
SECTION
  2
ENTITIES
  0
LINE
  5
217
100
AcDbEntity
  8
0
100
AcDbLine
 62
7
  6
CONTINUOUS
 10
33.207860188
 20
5.7102882401
 11
26.4091336812
 21
5.6509567872
  0
LINE
  5
218
100
AcDbEntity
  8
0
100
AcDbLine
 62
7
  6
CONTINUOUS
 10
22.9591336372
 20
5.7508693481
 11
26.3991335974
 21
5.7508693481
  0
LINE
  5
219
100
AcDbEntity
  8
0
100
AcDbLine
 62
7
  6
CONTINUOUS
 10
34.1237740049
 20
6.3297496581
 11
26.4091336812
 21
6.3297496581
  0
LINE
  5
21A
100
AcDbEntity
  8
0
100
AcDbLine
 62
7
  6
CONTINUOUS
 10
26.4091336812
 20
6.5688136372
 11
22.9591336372
 21
6.5688136372
  0
LINE
  5
21B
100
AcDbEntity
  8
0
100
AcDbLine
 62
7
  6
CONTINUOUS
 10
34.1991336631
 20
7.7061649692
 11
38.6491336812
 21
7.7061649692
  0
LINE
  5
21C
100
AcDbEntity
  8
0
100
AcDbLine
 62
7
  6
CONTINUOUS
 10
22.9591336372
 20
7.7626309592
 11
26.4091336812
 21
7.7626309592
  0
LINE
  5
21D
100
AcDbEntity
  8
0
100
AcDbLine
 62
7
  6
CONTINUOUS
 10
34.19913367
 20
8.3709647352
 11
38.6491336812
 21
8.3709647352
  0
LINE
  5
21E
100
AcDbEntity
  8
0
100
AcDbLine
 62
7
  6
CONTINUOUS
 10
5.2991335847
 20
39.3667239169
 11
4.9991340943
 21
38.9407760868
  0
LINE
  5
21F
100
AcDbEntity
  8
0
100
AcDbLine
 62
7
  6
CONTINUOUS
 10
38.6491336812
 20
11.291147157
 11
34.1991336986
 21
11.291147157
  0
LINE
  5
220
100
AcDbEntity
  8
0
100
AcDbLine
 62
7
  6
CONTINUOUS
 10
26.4091336812
 20
11.5545486562
 11
22.9591336372
 21
11.5545486562
  0
LINE
  5
221
100
AcDbEntity
  8
0
100
AcDbLine
 62
7
  6
CONTINUOUS
 10
4.9991340943
 20
21.8609626809
 11
5.2991335847
 21
21.4350148508
  0
LINE
  5
222
100
AcDbEntity
  8
0
100
AcDbLine
 62
7
  6
CONTINUOUS
 10
4.9991340943
 20
21.8609626809
 11
4.9991340943
 21
38.9407760868
  0
LINE
  5
223
100
AcDbEntity
  8
0
100
AcDbLine
 62
7
  6
CONTINUOUS
 10
5.2991335847
 20
39.3667239169
 11
5.2991335847
 21
21.4350148508
  0
LINE
  5
224
100
AcDbEntity
  8
0
100
AcDbLine
 62
7
  6
CONTINUOUS
 10
7.429184383
 20
39.8748852539
 11
7.429184383
 21
20.9268535138
  0
LINE
  5
225
100
AcDbEntity
  8
0
100
AcDbLine
 62
7
  6
CONTINUOUS
 10
8.4991337367
 20
20.7447828198
 11
8.4991337367
 21
40.0569559479
  0
LINE
  5
226
100
AcDbEntity
  8
0
100
AcDbLine
 62
7
  6
CONTINUOUS
 10
22.9591336372
 20
16.8208693839
 11
21.7091336812
 21
16.8208693839
  0
LINE
  5
227
100
AcDbEntity
  8
0
100
AcDbLine
 62
7
  6
CONTINUOUS
 10
7.429184383
 20
20.9268535138
 11
8.4991337367
 21
20.7447828198
  0
LINE
  5
228
100
AcDbEntity
  8
0
100
AcDbLine
 62
7
  6
CONTINUOUS
 10
5.2991335847
 20
21.4350148508
 11
7.429184383
 21
20.9268535138
  0
LINE
  5
229
100
AcDbEntity
  8
0
100
AcDbLine
 62
7
  6
CONTINUOUS
 10
10.4991340645
 20
20.3008697772
 11
10.4991340645
 21
40.5008689905
  0
LINE
  5
22A
100
AcDbEntity
  8
0
100
AcDbLine
 62
7
  6
CONTINUOUS
 10
21.7091336812
 20
19.5258696968
 11
19.9991337591
 21
19.5258696968
  0
LINE
  5
22B
100
AcDbEntity
  8
0
100
AcDbLine
 62
7
  6
CONTINUOUS
 10
19.6991336533
 20
20.3008697772
 11
10.4991340645
 21
20.3008697772
  0
LINE
  5
22C
100
AcDbEntity
  8
0
100
AcDbLine
 62
7
  6
CONTINUOUS
 10
10.4991340645
 20
20.7447828198
 11
8.4991337367
 21
20.7447828198
  0
LINE
  5
22D
100
AcDbEntity
  8
0
100
AcDbLine
 62
7
  6
CONTINUOUS
 10
35.8508865751
 20
27.002788773
 11
34.4798056044
 21
26.7202574233
  0
LINE
  5
22E
100
AcDbEntity
  8
0
100
AcDbLine
 62
7
  6
CONTINUOUS
 10
34.4798056044
 20
26.7202574233
 11
34.1991338514
 21
26.7126156887
  0
LINE
  5
22F
100
AcDbEntity
  8
0
100
AcDbLine
 62
7
  6
CONTINUOUS
 10
22.9591336372
 20
25.3356546796
 11
21.7091336812
 21
25.3356546796
  0
LINE
  5
230
100
AcDbEntity
  8
0
100
AcDbLine
 62
7
  6
CONTINUOUS
 10
22.9591336372
 20
25.5992100808
 11
26.4091336812
 21
25.5992100808
  0
LINE
  5
231
100
AcDbEntity
  8
0
100
AcDbLine
 62
7
  6
CONTINUOUS
 10
34.1991338471
 20
26.2697901981
 11
38.6491336812
 21
26.2697901981
  0
LINE
  5
232
100
AcDbEntity
  8
0
100
AcDbLine
 62
7
  6
CONTINUOUS
 10
34.199133849
 20
26.469629145
 11
38.6491336812
 21
26.469629145
  0
LINE
  5
233
100
AcDbEntity
  8
0
100
AcDbLine
 62
7
  6
CONTINUOUS
 10
19.6991336533
 20
19.8258693839
 11
19.6991336533
 21
40.9756956101
  0
LINE
  5
234
100
AcDbEntity
  8
0
100
AcDbLine
 62
7
  6
CONTINUOUS
 10
19.9991337591
 20
19.5258696968
 11
19.9991337591
 21
41.2758690709
  0
LINE
  5
235
100
AcDbEntity
  8
0
100
AcDbLine
 62
7
  6
CONTINUOUS
 10
34.2091336533
 20
26.695571933
 11
38.6491336812
 21
26.695571933
  0
LINE
  5
236
100
AcDbEntity
  8
0
100
AcDbLine
 62
7
  6
CONTINUOUS
 10
21.7091336812
 20
16.8210458725
 11
21.7091336812
 21
43.9806928952
  0
LINE
  5
237
100
AcDbEntity
  8
0
100
AcDbLine
 62
7
  6
CONTINUOUS
 10
22.9591336372
 20
5.7508693481
 11
22.9591336372
 21
55.0408693839
  0
LINE
  5
238
100
AcDbEntity
  8
0
100
AcDbLine
 62
7
  6
CONTINUOUS
 10
34.1991338514
 20
34.0891989818
 11
34.4798056044
 21
34.0814813444
  0
LINE
  5
239
100
AcDbEntity
  8
0
100
AcDbLine
 62
7
  6
CONTINUOUS
 10
26.3991335974
 20
5.7408693839
 11
26.3991335974
 21
5.7508693481
  0
LINE
  5
23A
100
AcDbEntity
  8
0
100
AcDbLine
 62
7
  6
CONTINUOUS
 10
26.4091336812
 20
5.6509567872
 11
26.4091336812
 21
55.150781981
  0
LINE
  5
23B
100
AcDbEntity
  8
0
100
AcDbLine
 62
7
  6
CONTINUOUS
 10
22.9591336372
 20
35.1825286869
 11
26.4091336812
 21
35.1825286869
  0
LINE
  5
23C
100
AcDbEntity
  8
0
100
AcDbLine
 62
7
  6
CONTINUOUS
 10
21.7091336812
 20
35.4660840881
 11
22.9591336372
 21
35.4660840881
  0
LINE
  5
23D
100
AcDbEntity
  8
0
100
AcDbLine
 62
7
  6
CONTINUOUS
 10
34.4798056044
 20
34.0814813444
 11
35.879177864
 21
33.7911012059
  0
LINE
  5
23E
100
AcDbEntity
  8
0
100
AcDbLine
 62
7
  6
CONTINUOUS
 10
8.4991337367
 20
40.0569559479
 11
10.4991340645
 21
40.0569559479
  0
LINE
  5
23F
100
AcDbEntity
  8
0
100
AcDbLine
 62
7
  6
CONTINUOUS
 10
10.4991340645
 20
40.5008689905
 11
19.6991336533
 21
40.5008689905
  0
LINE
  5
240
100
AcDbEntity
  8
0
100
AcDbLine
 62
7
  6
CONTINUOUS
 10
33.21786018
 20
50.2829642927
 11
33.21786018
 21
10.5187748728
  0
LINE
  5
241
100
AcDbEntity
  8
0
100
AcDbLine
 62
7
  6
CONTINUOUS
 10
34.1991336533
 20
54.0914886038
 11
34.1991338514
 21
34.0891989818
  0
LINE
  5
242
100
AcDbEntity
  8
0
100
AcDbLine
 62
7
  6
CONTINUOUS
 10
34.1991338514
 20
26.7126156887
 11
34.1991336533
 21
6.7102501632
  0
LINE
  5
243
100
AcDbEntity
  8
0
100
AcDbLine
 62
7
  6
CONTINUOUS
 10
34.2091336533
 20
34.088924017
 11
34.2091336533
 21
26.7128879492
  0
LINE
  5
244
100
AcDbEntity
  8
0
100
AcDbLine
 62
7
  6
CONTINUOUS
 10
34.6748335185
 20
38.2008693123
 11
34.5049762761
 21
36.5610914493
  0
LINE
  5
245
100
AcDbEntity
  8
0
100
AcDbLine
 62
7
  6
CONTINUOUS
 10
34.1991764969
 20
35.1008599714
 11
34.5049762761
 21
36.5610914493
  0
LINE
  5
246
100
AcDbEntity
  8
0
100
AcDbLine
 62
7
  6
CONTINUOUS
 10
8.4991337367
 20
40.0569559479
 11
7.429184383
 21
39.8748852539
  0
LINE
  5
247
100
AcDbEntity
  8
0
100
AcDbLine
 62
7
  6
CONTINUOUS
 10
19.9991337591
 20
41.2758690709
 11
21.7091336812
 21
41.2758690709
  0
LINE
  5
248
100
AcDbEntity
  8
0
100
AcDbLine
 62
7
  6
CONTINUOUS
 10
34.4898065608
 20
34.0794060717
 11
34.4898065608
 21
26.7223182671
  0
LINE
  5
249
100
AcDbEntity
  8
0
100
AcDbLine
 62
7
  6
CONTINUOUS
 10
34.5049762761
 20
50.6406473184
 11
34.5049762761
 21
36.5610914493
  0
LINE
  5
24A
100
AcDbEntity
  8
0
100
AcDbLine
 62
7
  6
CONTINUOUS
 10
34.5848884245
 20
34.0596758787
 11
34.5848884245
 21
26.74191128
  0
LINE
  5
24B
100
AcDbEntity
  8
0
100
AcDbLine
 62
7
  6
CONTINUOUS
 10
34.6748338439
 20
49.0008590833
 11
34.6748335185
 21
38.2008796844
  0
LINE
  5
24C
100
AcDbEntity
  8
0
100
AcDbLine
 62
7
  6
CONTINUOUS
 10
35.9322087475
 20
27.1000929115
 11
35.9322087475
 21
33.7016458562
  0
LINE
  5
24D
100
AcDbEntity
  8
0
100
AcDbLine
 62
7
  6
CONTINUOUS
 10
7.429184383
 20
39.8748852539
 11
5.2991335847
 21
39.3667239169
  0
LINE
  5
24E
100
AcDbEntity
  8
0
100
AcDbLine
 62
7
  6
CONTINUOUS
 10
22.9591336372
 20
43.9808693839
 11
21.7091336812
 21
43.9808693839
  0
LINE
  5
24F
100
AcDbEntity
  8
0
100
AcDbLine
 62
7
  6
CONTINUOUS
 10
34.6748335185
 20
49.0008694554
 11
34.5049762761
 21
50.6406473184
  0
LINE
  5
250
100
AcDbEntity
  8
0
100
AcDbLine
 62
7
  6
CONTINUOUS
 10
39.0748335185
 20
22.6008694554
 11
38.9049762761
 21
24.2406473184
  0
LINE
  5
251
100
AcDbEntity
  8
0
100
AcDbLine
 62
7
  6
CONTINUOUS
 10
38.9049762761
 20
24.2406473184
 11
38.6491336812
 21
25.4623271099
  0
LINE
  5
252
100
AcDbEntity
  8
0
100
AcDbLine
 62
7
  6
CONTINUOUS
 10
38.6491336812
 20
26.6955690545
 11
38.6491336812
 21
7.7061662699
  0
LINE
  5
253
100
AcDbEntity
  8
0
100
AcDbLine
 62
7
  6
CONTINUOUS
 10
38.9049762761
 20
24.2406473184
 11
38.9049762761
 21
10.1610914493
  0
LINE
  5
254
100
AcDbEntity
  8
0
100
AcDbLine
 62
7
  6
CONTINUOUS
 10
39.0748335185
 20
11.8008714487
 11
39.0748335185
 21
22.6008590833
  0
LINE
  5
255
100
AcDbEntity
  8
0
100
AcDbLine
 62
7
  6
CONTINUOUS
 10
34.5049762761
 20
50.6406473184
 11
34.1991764969
 21
52.1008787963
  0
LINE
  5
256
100
AcDbEntity
  8
0
100
AcDbLine
 62
7
  6
CONTINUOUS
 10
39.0748335185
 20
11.8008693123
 11
38.9049762761
 21
10.1610914493
  0
LINE
  5
257
100
AcDbEntity
  8
0
100
AcDbLine
 62
7
  6
CONTINUOUS
 10
22.9591336372
 20
49.2271906931
 11
26.4091336812
 21
49.2271906931
  0
LINE
  5
258
100
AcDbEntity
  8
0
100
AcDbLine
 62
7
  6
CONTINUOUS
 10
38.6491336812
 20
8.9394116578
 11
38.9049762761
 21
10.1610914493
  0
LINE
  5
259
100
AcDbEntity
  8
0
100
AcDbLine
 62
7
  6
CONTINUOUS
 10
26.4091336812
 20
53.0191078085
 11
22.9591336372
 21
53.0191078085
  0
LINE
  5
25A
100
AcDbEntity
  8
0
100
AcDbLine
 62
7
  6
CONTINUOUS
 10
22.9591336372
 20
54.2129251305
 11
26.4091336812
 21
54.2129251305
  0
LINE
  5
25B
100
AcDbEntity
  8
0
100
AcDbLine
 62
7
  6
CONTINUOUS
 10
34.1239748231
 20
54.4719891096
 11
26.4091336812
 21
54.4719891096
  0
LINE
  5
25C
100
AcDbEntity
  8
0
100
AcDbLine
 62
7
  6
CONTINUOUS
 10
26.4091336812
 20
55.0408693839
 11
22.9591336372
 21
55.0408693839
  0
LINE
  5
25D
100
AcDbEntity
  8
0
100
AcDbLine
 62
7
  6
CONTINUOUS
 10
33.20786018
 20
55.0914508695
 11
26.4091336812
 21
55.150781981
  0
ARC
  5
25E
100
AcDbEntity
  8
0
100
AcDbCircle
 62
7
  6
CONTINUOUS
 10
33.1991330635
 20
54.0914883617
 40
1.0000005897
100
AcDbArc
 50
0.0000138722
 51
89.499967002
  0
ARC
  5
25F
100
AcDbEntity
  8
0
100
AcDbCircle
 62
7
  6
CONTINUOUS
 10
33.1991336533
 20
6.7102501632
 40
1.0
100
AcDbArc
 50
270.4999999545
 51
360.0
  0
ARC
  5
260
100
AcDbEntity
  8
0
100
AcDbCircle
 62
7
  6
CONTINUOUS
 10
19.9991331191
 20
40.9758696051
 40
0.2999994658
100
AcDbArc
 50
90.0
 51
180.0
  0
ARC
  5
261
100
AcDbEntity
  8
0
100
AcDbCircle
 62
7
  6
CONTINUOUS
 10
19.9991331191
 20
19.8258691626
 40
0.2999994658
100
AcDbArc
 50
180.0
 51
270.0
  0
ARC
  5
262
100
AcDbEntity
  8
0
100
AcDbCircle
 62
7
  6
CONTINUOUS
 10
35.819075522
 20
33.6950248123
 40
0.1133268058
100
AcDbArc
 50
3.3493754388
 51
57.9712098076
  0
ARC
  5
263
100
AcDbEntity
  8
0
100
AcDbCircle
 62
7
  6
CONTINUOUS
 10
35.8410022259
 20
27.0936843138
 40
0.0914313934
100
AcDbArc
 50
276.2061884461
 51
2.0096320883
  0
SPLINE
  5
264
100
AcDbEntity
  8
0
100
AcDbSpline
 62
7
  6
CONTINUOUS
 70
0
 71
3
 72
23
 73
19
 74
0
 42
0.0000001
 43
0.0000001
 44
0.0000000001
 40
0.0
 40
0.0
 40
0.0
 40
0.0
 40
0.0335632608
 40
0.067042748
 40
0.0837411957
 40
0.1003940704
 40
0.1336190798
 40
0.1667488487
 40
0.1997804886
 40
0.2327149566
 40
0.2655438961
 40
0.3308652653
 40
0.3956891664
 40
0.523573429
 40
0.6486281676
 40
0.770191464
 40
0.8875434438
 40
1.0
 40
1.0
 40
1.0
 40
1.0
 10
33.2178584938
 20
50.2829641961
 30
0.0
 10
33.244685987
 20
50.2844691227
 30
0.0
 10
33.2973967229
 20
50.3025419014
 30
0.0
 10
33.3511977229
 20
50.3432169499
 30
0.0
 10
33.3893303486
 20
50.3807951797
 30
0.0
 10
33.4251136731
 20
50.4203281693
 30
0.0
 10
33.4661786463
 20
50.4726627374
 30
0.0
 10
33.5117316833
 20
50.5379301112
 30
0.0
 10
33.5540235669
 20
50.6050787256
 30
0.0
 10
33.5939245277
 20
50.6733785287
 30
0.0
 10
33.6447938072
 20
50.7651744701
 30
0.0
 10
33.7048634833
 20
50.8810279006
 30
0.0
 10
33.7942624264
 20
51.0672744739
 30
0.0
 10
33.8957680599
 20
51.3006508076
 30
0.0
 10
34.0025537124
 20
51.5809178653
 30
0.0
 10
34.0919134523
 20
51.8584478067
 30
0.0
 10
34.1603741304
 20
52.1314995425
 30
0.0
 10
34.1900996946
 20
52.3134511266
 30
0.0
 10
34.1991336606
 20
52.4030258369
 30
0.0
  0
SPLINE
  5
265
100
AcDbEntity
  8
0
100
AcDbSpline
 62
7
  6
CONTINUOUS
 70
0
 71
3
 72
38
 73
34
 74
0
 42
0.0000001
 43
0.0000001
 44
0.0000000001
 40
0.0
 40
0.0
 40
0.0
 40
0.0
 40
0.1249988564
 40
0.2499976749
 40
0.3124971287
 40
0.3749965787
 40
0.4374960218
 40
0.4999954542
 40
0.5624948668
 40
0.6249942433
 40
0.6874935467
 40
0.7187432711
 40
0.7499929847
 40
0.7812426807
 40
0.8124923392
 40
0.8437419253
 40
0.8749913441
 40
0.8906161912
 40
0.9062410038
 40
0.921865745
 40
0.9374903158
 40
0.9531144138
 40
0.9609267867
 40
0.9687390089
 40
0.9765508025
 40
0.9804571521
 40
0.9843634871
 40
0.9882696887
 40
0.9921753563
 40
0.9941301174
 40
0.9960866267
 40
0.9980439215
 40
1.0
 40
1.0
 40
1.0
 40
1.0
 10
33.21786018
 20
10.5187748728
 30
0.0
 10
32.93093992
 20
10.5348713803
 30
0.0
 10
32.3571564793
 20
10.5680920246
 30
0.0
 10
31.6401140947
 20
10.6127502108
 30
0.0
 10
31.066634689
 20
10.6508502383
 30
0.0
 10
30.6366171711
 20
10.6807838798
 30
0.0
 10
30.206711321
 20
10.7122837917
 30
0.0
 10
29.776943564
 20
10.7456190863
 30
0.0
 10
29.3473506943
 20
10.7811450123
 30
0.0
 10
28.9179872761
 20
10.8193501319
 30
0.0
 10
28.5604425196
 20
10.8539966423
 30
0.0
 10
28.274634413
 20
10.8839417757
 30
0.0
 10
28.0604194569
 20
10.9077158939
 30
0.0
 10
27.8463840839
 20
10.9330600063
 30
0.0
 10
27.6325839641
 20
10.9603270973
 30
0.0
 10
27.4191071467
 20
10.9900254594
 30
0.0
 10
27.2415937556
 20
11.0174354018
 30
0.0
 10
27.0999556146
 20
11.0416200727
 30
0.0
 10
26.9939737123
 20
11.0611571271
 30
0.0
 10
26.8883299105
 20
11.0824598177
 30
0.0
 10
26.7831839518
 20
11.106102871
 30
0.0
 10
26.6961999946
 20
11.1285265097
 30
0.0
 10
26.6273357645
 20
11.1490261784
 30
0.0
 10
26.5762293537
 20
11.1661249833
 30
0.0
 10
26.5343375524
 20
11.1823718199
 30
0.0
 10
26.5016243191
 20
11.1972324994
 30
0.0
 10
26.4776767745
 20
11.2096159724
 30
0.0
 10
26.4546772686
 20
11.2236882314
 30
0.0
 10
26.4368353425
 20
11.2374794289
 30
0.0
 10
26.4243308471
 20
11.2504363448
 30
0.0
 10
26.4163240913
 20
11.2613733656
 30
0.0
 10
26.4106292533
 20
11.273732493
 30
0.0
 10
26.4091438865
 20
11.2827701079
 30
0.0
 10
26.4091438419
 20
11.2872671174
 30
0.0
  0
SPLINE
  5
266
100
AcDbEntity
  8
0
100
AcDbSpline
 62
7
  6
CONTINUOUS
 70
0
 71
3
 72
23
 73
19
 74
0
 42
0.0000001
 43
0.0000001
 44
0.0000000001
 40
0.0
 40
0.0
 40
0.0
 40
0.0
 40
0.1124566243
 40
0.2298086298
 40
0.3513718571
 40
0.4764264799
 40
0.604310599
 40
0.6691344315
 40
0.7344557203
 40
0.7672846088
 40
0.8002190325
 40
0.8332506086
 40
0.8663803048
 40
0.8996053337
 40
0.9162581468
 40
0.932956284
 40
0.9664363952
 40
1.0
 40
1.0
 40
1.0
 40
1.0
 10
34.1991336606
 20
8.3987133817
 30
0.0
 10
34.1900996936
 20
8.4882881263
 30
0.0
 10
34.1603741073
 20
8.6702397434
 30
0.0
 10
34.0919133599
 20
8.9432914166
 30
0.0
 10
34.0025535912
 20
9.2208211516
 30
0.0
 10
33.895767906
 20
9.5010878264
 30
0.0
 10
33.7942631143
 20
9.7344641886
 30
0.0
 10
33.7048637299
 20
9.9207102456
 30
0.0
 10
33.6447941222
 20
10.036563487
 30
0.0
 10
33.593925154
 20
10.128359419
 30
0.0
 10
33.5540239916
 20
10.1966589302
 30
0.0
 10
33.5117328465
 20
10.2638078127
 30
0.0
 10
33.4661798442
 20
10.329075097
 30
0.0
 10
33.4251145976
 20
10.3814093118
 30
0.0
 10
33.3893318567
 20
10.4209423768
 30
0.0
 10
33.3511997834
 20
10.4585215924
 30
0.0
 10
33.2973966475
 20
10.4991941625
 30
0.0
 10
33.2446862583
 20
10.5172700264
 30
0.0
 10
33.2178584962
 20
10.5187749692
 30
0.0
  0
ELLIPSE
  5
267
100
AcDbEntity
  8
0
100
AcDbEllipse
 62
7
  6
CONTINUOUS
 10
599.3480725132
 20
49.5144185632
 30
0.0
 11
572.9389389161
 21
0.0
 31
0.0
 40
0.0087269346
 41
2.9872717325
 42
3.1415926539
  0
ENDSEC
  0
SECTION
  2
OBJECTS
  0
DICTIONARY
  5
C
100
AcDbDictionary
280
0
281
1
  3
ACAD_GROUP
350
D
  3
ACAD_MLINESTYLE
350
17
  3
ACAD_LAYOUT
350
1A
  3
ACAD_PLOTSETTINGS
350
19
  3
ACAD_PLOTSTYLENAME
350
E
  0
DICTIONARY
  5
D
102
{ACAD_REACTORS
330
C
102
}
100
AcDbDictionary
280
0
281
1
  0
ACDBDICTIONARYWDFLT
  5
E
102
{ACAD_REACTORS
330
C
102
}
100
AcDbDictionary
281
1
  3
Normal
350
F
100
AcDbDictionaryWithDefault
340
F
  0
DICTIONARY
  5
17
102
{ACAD_REACTORS
330
C
102
}
100
AcDbDictionary
280
0
281
1
  3
Standard
350
18
  0
DICTIONARY
  5
19
102
{ACAD_REACTORS
330
C
102
}
100
AcDbDictionary
281
1
  0
DICTIONARY
  5
1A
102
{ACAD_REACTORS
330
C
102
}
100
AcDbDictionary
281
1
  3
Model
350
268
  3
Layout1
350
269
  0
ACDBPLACEHOLDER
  5
F
102
{ACAD_REACTORS
330
E
102
}
  0
MLINESTYLE
  5
18
102
{ACAD_REACTORS
330
17
102
}
100
AcDbMlineStyle
  2
STANDARD
 70
0
  3

 62
256
 51
90.0
 52
90.0
 71
2
 49
0.5
 62
256
  6
BYLAYER
 49
-0.5
 62
256
  6
BYLAYER
  0
LAYOUT
  5
268
102
{ACAD_REACTORS
330
1A
102
}
100
AcDbPlotSettings
  1

  2
none_device
  4

  6

 40
0.0
 41
0.0
 42
0.0
 43
0.0
 44
210.0
 45
297.0
 46
0.0
 47
0.0
 48
0.0
 49
0.0
140
0.0
141
0.0
142
1.0
143
1.0
 70
1024
 72
1
 73
0
 74
0
  7

 75
0
147
1.0
148
0.0
149
0.0
100
AcDbLayout
  1
Model
 70
0
 71
0
 10
0.0
 20
0.0
 11
210.0
 21
297.0
 12
0.0
 22
0.0
 32
0.0
 14
0.0
 24
0.0
 34
0.0
 15
0.0
 25
0.0
 35
0.0
146
0.0
 13
0.0
 23
0.0
 33
0.0
 16
1.0
 26
0.0
 36
0.0
 17
0.0
 27
1.0
 37
0.0
 76
0
330
210
345
0
346
0
  0
LAYOUT
  5
269
102
{ACAD_REACTORS
330
1A
102
}
100
AcDbPlotSettings
  1

  2
none_device
  4

  6

 40
0.0
 41
0.0
 42
0.0
 43
0.0
 44
210.0
 45
297.0
 46
0.0
 47
0.0
 48
0.0
 49
0.0
140
0.0
141
0.0
142
1.0
143
1.0
 70
0
 72
1
 73
0
 74
0
  7

 75
0
147
1.0
148
0.0
149
0.0
100
AcDbLayout
  1
Layout1
 70
0
 71
1
 10
0.0
 20
0.0
 11
210.0
 21
297.0
 12
0.0
 22
0.0
 32
0.0
 14
0.0
 24
0.0
 34
0.0
 15
0.0
 25
0.0
 35
0.0
146
0.0
 13
0.0
 23
0.0
 33
0.0
 16
1.0
 26
0.0
 36
0.0
 17
0.0
 27
1.0
 37
0.0
 76
0
330
211
345
0
346
0
  0
ENDSEC
  0
EOF
