999
DXF file: C:\Users\sesa63760\Dev\_Creo\CAD\MCADID0001883_3D-CAD\drw0001_1.dxf
999
Pro/ENGINEER 2019471 by Parametric Technology Corporation
  0
SECTION
  2
HEADER
  9
$ACADVER
  1
AC1024
  9
$DWGCODEPAGE
  3
ANSI_1252
  9
$EXTMAX
 10
115.0740999568
 20
162.7476556532
 30
0.0
  9
$EXTMIN
 10
0.0
 20
0.0
 30
0.0
  9
$LIMMIN
 10
0.0
 20
0.0
  9
$LIMMAX
 10
115.0740999568
 20
162.7476556532
  9
$VIEWCTR
 10
57.5370499784
 20
81.3738278266
  9
$VIEWSIZE
 40
162.7476556532
  9
$CLAYER
  8
0
  9
$LTSCALE
 40
10.6087360722
  9
$CELTYPE
  6
BYLAYER
  9
$DIMSCALE
 40
1.0
  9
$DIMASZ
 40
1.3699297614
  9
$DIMEXO
 40
1.0
  9
$DIMDLI
 40
7.3296721953
  9
$DIMEXE
 40
1.0
  9
$DIMCEN
 40
1.7359749936
  9
$DIMLFAC
 40
1.0
  9
$DIMBLK
  1
_FILLED
  9
$DIMALT
 70
0
  9
$DIMALTF
 40
0.0393700787
  9
$DIMTXT
 40
1.9179016659
  9
$DIMTOL
 70
1
  9
$DIMLIM
 70
0
  9
$DIMTFAC
 40
1.0
  9
$DIMTP
 40
0.01
  9
$DIMTM
 40
0.01
  9
$DIMGAP
 40
0.625
  9
$DIMDSEP
 70
46
  9
$AUNITS
 70
0
  9
$PDMODE
 70
3
  9
$PDSIZE
 40
0.3125
  9
$HANDSEED
  5
2D9
  9
$TILEMODE
 70
1
  9
$MEASUREMENT
 70
1
  9
$INSUNITS
 70
4
  0
ENDSEC
  0
SECTION
  2
CLASSES
  0
CLASS
  1
ACDBDICTIONARYWDFLT
  2
AcDbDictionaryWithDefault
  3
AutoCAD 2000
 90
0
 91
1
280
0
281
0
  0
CLASS
  1
ACDBPLACEHOLDER
  2
AcDbPlaceHolder
  3
AutoCAD 2000
 90
0
 91
1
280
0
281
0
  0
CLASS
  1
LAYOUT
  2
AcDbLayout
  3
AutoCAD 2000
 90
0
 91
0
280
0
281
0
  0
ENDSEC
  0
SECTION
  2
TABLES
  0
TABLE
  2
VPORT
  5
8
100
AcDbSymbolTable
 70
2
  0
VPORT
  5
1F4
100
AcDbSymbolTableRecord
100
AcDbViewportTableRecord
  2
*ACTIVE
 70
0
 10
0.0
 20
0.0
 11
1.0
 21
1.0
 12
57.5370499784
 22
81.3738278266
 13
0.0
 23
0.0
 14
1.0
 24
1.0
 15
0.0
 25
0.0
 16
0.0
 26
0.0
 36
1.0
 17
0.0
 27
0.0
 37
0.0
 40
162.7476556532
 41
0.7070707071
 42
50.0
 43
0.0
 44
0.0
 50
0.0
 51
0.0
 71
0
 72
100
 73
1
 74
1
 75
0
 76
0
 77
0
 78
0
  0
ENDTAB
  0
TABLE
  2
LTYPE
  5
5
100
AcDbSymbolTable
 70
6
  0
LTYPE
  5
14
100
AcDbSymbolTableRecord
100
AcDbLinetypeTableRecord
  2
BYBLOCK
 70
0
  3

 72
65
 73
0
 40
0.0
  0
LTYPE
  5
15
100
AcDbSymbolTableRecord
100
AcDbLinetypeTableRecord
  2
BYLAYER
 70
0
  3

 72
65
 73
0
 40
0.0
  0
LTYPE
  5
16
100
AcDbSymbolTableRecord
100
AcDbLinetypeTableRecord
  2
CONTINUOUS
 70
64
  3
Solid line
 72
65
 73
0
 40
0.0
  0
LTYPE
  5
1F5
100
AcDbSymbolTableRecord
100
AcDbLinetypeTableRecord
  2
CENTER
 70
64
  3
____ _ ____ _ ____ _ ____ _ ____ _ ____ _ ____
 72
65
 73
4
 40
0.6
 49
0.375
 74
0
 49
-0.075
 74
0
 49
0.075
 74
0
 49
-0.075
 74
0
  0
LTYPE
  5
1F6
100
AcDbSymbolTableRecord
100
AcDbLinetypeTableRecord
  2
HIDDEN
 70
64
  3
- - - - - - - - - - - - - - - - - - - -
 72
65
 73
2
 40
0.2
 49
0.1
 74
0
 49
-0.1
 74
0
  0
LTYPE
  5
1F7
100
AcDbSymbolTableRecord
100
AcDbLinetypeTableRecord
  2
PHANTOM
 70
64
  3
_____ _ _ _____ _ _ _____ _ _ _____
 72
65
 73
6
 40
0.8
 49
0.45
 74
0
 49
-0.05
 74
0
 49
0.1
 74
0
 49
-0.05
 74
0
 49
0.1
 74
0
 49
-0.05
 74
0
  0
LTYPE
  5
1F8
100
AcDbSymbolTableRecord
100
AcDbLinetypeTableRecord
  2
DOT
 70
64
  3
. . . . . . . . . . . . . . . . . . . .
 72
65
 73
2
 40
0.2
 49
0.1
 74
0
 49
-0.1
 74
0
  0
LTYPE
  5
1F9
100
AcDbSymbolTableRecord
100
AcDbLinetypeTableRecord
  2
DASHED
 70
64
  3
- - - - - - - - - - - - - - - - - - - -
 72
65
 73
2
 40
0.2
 49
0.1
 74
0
 49
-0.1
 74
0
  0
ENDTAB
  0
TABLE
  2
LAYER
  5
2
100
AcDbSymbolTable
 70
36
  0
LAYER
  5
10
100
AcDbSymbolTableRecord
100
AcDbLayerTableRecord
  2
0
 70
0
 62
7
  6
CONTINUOUS
370
-3
390
F
  0
LAYER
  5
1FA
100
AcDbSymbolTableRecord
100
AcDbLayerTableRecord
  2
DEFAULT_1
 70
0
 62
7
  6
CENTER
370
-3
390
F
  0
LAYER
  5
1FB
100
AcDbSymbolTableRecord
100
AcDbLayerTableRecord
  2
DEFAULT_2
 70
0
 62
8
  6
HIDDEN
370
-3
390
F
  0
LAYER
  5
1FC
100
AcDbSymbolTableRecord
100
AcDbLayerTableRecord
  2
DEFAULT_3
 70
0
 62
7
  6
PHANTOM
370
-3
390
F
  0
LAYER
  5
1FD
100
AcDbSymbolTableRecord
100
AcDbLayerTableRecord
  2
00_COMPONENTS
 70
0
 62
7
  6
CONTINUOUS
370
-3
390
F
  0
LAYER
  5
1FE
100
AcDbSymbolTableRecord
100
AcDbLayerTableRecord
  2
01_1_DEFAULT_DATUMS
 70
0
 62
7
  6
CONTINUOUS
370
-3
390
F
  0
LAYER
  5
1FF
100
AcDbSymbolTableRecord
100
AcDbLayerTableRecord
  2
01_PLANES
 70
0
 62
7
  6
CONTINUOUS
370
-3
390
F
  0
LAYER
  5
200
100
AcDbSymbolTableRecord
100
AcDbLayerTableRecord
  2
02_COORD_SYS
 70
0
 62
7
  6
CONTINUOUS
370
-3
390
F
  0
LAYER
  5
201
100
AcDbSymbolTableRecord
100
AcDbLayerTableRecord
  2
03_AXES
 70
0
 62
7
  6
CONTINUOUS
370
-3
390
F
  0
LAYER
  5
202
100
AcDbSymbolTableRecord
100
AcDbLayerTableRecord
  2
04_POINTS
 70
0
 62
7
  6
CONTINUOUS
370
-3
390
F
  0
LAYER
  5
203
100
AcDbSymbolTableRecord
100
AcDbLayerTableRecord
  2
05_CURVES
 70
0
 62
7
  6
CONTINUOUS
370
-3
390
F
  0
LAYER
  5
204
100
AcDbSymbolTableRecord
100
AcDbLayerTableRecord
  2
06_SURFS
 70
0
 62
7
  6
CONTINUOUS
370
-3
390
F
  0
LAYER
  5
205
100
AcDbSymbolTableRecord
100
AcDbLayerTableRecord
  2
07_COSMETICS
 70
0
 62
7
  6
CONTINUOUS
370
-3
390
F
  0
LAYER
  5
206
100
AcDbSymbolTableRecord
100
AcDbLayerTableRecord
  2
10_NOTES
 70
0
 62
7
  6
CONTINUOUS
370
-3
390
F
  0
LAYER
  5
207
100
AcDbSymbolTableRecord
100
AcDbLayerTableRecord
  2
11_NOTES_PUB
 70
0
 62
7
  6
CONTINUOUS
370
-3
390
F
  0
LAYER
  5
208
100
AcDbSymbolTableRecord
100
AcDbLayerTableRecord
  2
13_REF_GTOL
 70
0
 62
7
  6
CONTINUOUS
370
-3
390
F
  0
LAYER
  5
209
100
AcDbSymbolTableRecord
100
AcDbLayerTableRecord
  2
16_MISC
 70
0
 62
7
  6
CONTINUOUS
370
-3
390
F
  0
LAYER
  5
20A
100
AcDbSymbolTableRecord
100
AcDbLayerTableRecord
  2
17_NO_PRINT
 70
0
 62
7
  6
CONTINUOUS
370
-3
390
F
  0
LAYER
  5
20B
100
AcDbSymbolTableRecord
100
AcDbLayerTableRecord
  2
18_DATUM_CAMS_JOINTS
 70
0
 62
7
  6
CONTINUOUS
370
-3
390
F
  0
LAYER
  5
20C
100
AcDbSymbolTableRecord
100
AcDbLayerTableRecord
  2
19_DATUM_FUNCTIONAL
 70
0
 62
7
  6
CONTINUOUS
370
-3
390
F
  0
LAYER
  5
20D
100
AcDbSymbolTableRecord
100
AcDbLayerTableRecord
  2
20_DATUM_KINEMATIC_SCHEME
 70
0
 62
7
  6
CONTINUOUS
370
-3
390
F
  0
ENDTAB
  0
TABLE
  2
STYLE
  5
3
100
AcDbSymbolTable
 70
1
  0
STYLE
  5
11
100
AcDbSymbolTableRecord
100
AcDbTextStyleTableRecord
  2
STANDARD
 70
0
 40
0.0
 41
0.8
 50
0.0
 71
0
 42
0.2
  3
txt
  4

  0
STYLE
  5
20E
100
AcDbSymbolTableRecord
100
AcDbTextStyleTableRecord
  2
TEXTSTYLE_1
 70
0
 40
0.0
 41
0.8
 50
0.0
 71
0
 42
0.2
  3
gdt
  4

  0
ENDTAB
  0
TABLE
  2
VIEW
  5
6
100
AcDbSymbolTable
 70
0
  0
ENDTAB
  0
TABLE
  2
UCS
  5
7
100
AcDbSymbolTable
 70
0
  0
ENDTAB
  0
TABLE
  2
APPID
  5
9
100
AcDbSymbolTable
 70
1
  0
APPID
  5
20F
100
AcDbSymbolTableRecord
100
AcDbRegAppTableRecord
  2
ACAD
 70
0
  0
ENDTAB
  0
TABLE
  2
BLOCK_RECORD
  5
1
100
AcDbSymbolTable
 70
0
  0
BLOCK_RECORD
  5
210
100
AcDbSymbolTableRecord
100
AcDbBlockTableRecord
  2
*Model_Space
  0
BLOCK_RECORD
  5
211
100
AcDbSymbolTableRecord
100
AcDbBlockTableRecord
  2
*Paper_Space
  0
BLOCK_RECORD
  5
212
100
AcDbSymbolTableRecord
100
AcDbBlockTableRecord
  2
_FILLED
  0
ENDTAB
  0
TABLE
  2
DIMSTYLE
  5
A
100
AcDbSymbolTable
 70
1
100
AcDbDimStyleTable
 71
0
  0
DIMSTYLE
105
213
100
AcDbSymbolTableRecord
100
AcDbDimStyleTableRecord
  2
STANDARD
 70
0
  3

  4

 40
1.0
 41
1.3699297614
 42
1.0
 43
0.38
 44
1.0
 45
0.0
 46
0.0
 47
0.01
 48
0.01
140
1.9179016659
141
0.09
142
0.0
143
25.4
144
1.0
145
0.0
146
1.0
147
0.625
 71
1
 72
0
 73
0
 74
0
 75
0
 76
0
 77
1
 78
8
 79
2
170
0
171
1
172
0
173
0
174
0
175
0
176
0
177
0
178
0
270
2
179
2
271
2
272
2
273
2
274
2
275
0
280
0
281
0
282
0
283
1
284
8
285
0
286
0
287
3
288
0
340
11
278
46
341
212
342
212
343
212
344
212
  0
ENDTAB
  0
ENDSEC
  0
SECTION
  2
BLOCKS
  0
BLOCK
  5
20
100
AcDbEntity
  8
0
100
AcDbBlockBegin
  2
*Model_Space
 70
0
 10
0.0
 20
0.0
 30
0.0
  3
*Model_Space
  1

  0
ENDBLK
  5
21
100
AcDbEntity
  8
0
100
AcDbBlockEnd
  0
BLOCK
  5
1C
100
AcDbEntity
  8
0
100
AcDbBlockBegin
  2
*Paper_Space
 70
0
 10
0.0
 20
0.0
 30
0.0
  3
*Paper_Space
  1

  0
ENDBLK
  5
1D
100
AcDbEntity
  8
0
100
AcDbBlockEnd
  0
BLOCK
  5
214
100
AcDbEntity
  8
0
100
AcDbBlockBegin
  2
_FILLED
 70
64
 10
0.0
 20
0.0
  3
_FILLED
  1

  0
SOLID
  5
215
100
AcDbEntity
  8
0
  6
BYBLOCK
 62
0
100
AcDbTrace
 10
0.0
 20
0.0
 11
-1.0
 21
0.25
 12
-1.0
 22
-0.25
 13
-1.0
 23
-0.25
  0
ENDBLK
  5
216
100
AcDbEntity
  8
0
  6
BYBLOCK
 62
0
100
AcDbBlockEnd
  0
ENDSEC
  0
SECTION
  2
ENTITIES
  0
LINE
  5
217
100
AcDbEntity
  8
0
100
AcDbLine
 62
7
  6
CONTINUOUS
 10
13.349919554
 20
72.1778014524
 11
13.349919554
 21
91.2163516131
  0
LINE
  5
218
100
AcDbEntity
  8
0
100
AcDbLine
 62
7
  6
CONTINUOUS
 10
15.1818994299
 20
85.2227610542
 11
15.1818994299
 21
71.1201313056
  0
LINE
  5
219
100
AcDbEntity
  8
0
100
AcDbLine
 62
7
  6
CONTINUOUS
 10
52.1446648806
 20
34.3912582692
 11
51.3903202258
 21
34.8267695061
  0
LINE
  5
21A
100
AcDbEntity
  8
0
100
AcDbLine
 62
7
  6
CONTINUOUS
 10
45.82253825
 20
38.0412572072
 11
43.4337801765
 21
39.4203761242
  0
LINE
  5
21B
100
AcDbEntity
  8
0
100
AcDbLine
 62
7
  6
CONTINUOUS
 10
37.8659982007
 20
42.6348638252
 11
35.4772401272
 21
44.0139827422
  0
LINE
  5
21C
100
AcDbEntity
  8
0
100
AcDbLine
 62
7
  6
CONTINUOUS
 10
29.9094581514
 20
47.2284704433
 11
29.1551134966
 21
47.6639816802
  0
LINE
  5
21D
100
AcDbEntity
  8
0
100
AcDbLine
 62
7
  6
CONTINUOUS
 10
30.9870843993
 20
47.8506345338
 11
35.4772401272
 21
45.258300562
  0
LINE
  5
21E
100
AcDbEntity
  8
0
100
AcDbLine
 62
7
  6
CONTINUOUS
 10
38.9436244486
 20
43.2570279157
 11
43.4337801765
 21
40.664693944
  0
LINE
  5
21F
100
AcDbEntity
  8
0
100
AcDbLine
 62
7
  6
CONTINUOUS
 10
46.9001644979
 20
38.6634212977
 11
51.3903202258
 21
36.071087326
  0
LINE
  5
220
100
AcDbEntity
  8
0
100
AcDbLine
 62
7
  6
CONTINUOUS
 10
16.2595256778
 20
71.7422953961
 11
16.2595256778
 21
84.6006073249
  0
LINE
  5
221
100
AcDbEntity
  8
0
100
AcDbLine
 62
7
  6
CONTINUOUS
 10
17.9593249107
 20
79.5676047577
 11
17.9593249107
 21
83.6192499815
  0
LINE
  5
222
100
AcDbEntity
  8
0
100
AcDbLine
 62
7
  6
CONTINUOUS
 10
44.6192415826
 20
44.7712836277
 11
43.8648969278
 21
45.2067948647
  0
LINE
  5
223
100
AcDbEntity
  8
0
100
AcDbLine
 62
7
  6
CONTINUOUS
 10
38.297114952
 20
48.4212825658
 11
35.9083568785
 21
49.8004014827
  0
LINE
  5
224
100
AcDbEntity
  8
0
100
AcDbLine
 62
7
  6
CONTINUOUS
 10
30.3405749027
 20
53.0148891838
 11
27.9518168292
 21
54.3940081007
  0
LINE
  5
225
100
AcDbEntity
  8
0
100
AcDbLine
 62
7
  6
CONTINUOUS
 10
22.3840348534
 20
57.6084958018
 11
21.6296901986
 21
58.0440070387
  0
LINE
  5
226
100
AcDbEntity
  8
0
100
AcDbLine
 62
7
  6
CONTINUOUS
 10
20.7496814057
 20
67.9056436045
 11
20.7496814057
 21
82.0082733531
  0
LINE
  5
227
100
AcDbEntity
  8
0
100
AcDbLine
 62
7
  6
CONTINUOUS
 10
21.6296901986
 20
58.0440070387
 11
21.6296901986
 21
67.3975817849
  0
LINE
  5
228
100
AcDbEntity
  8
0
100
AcDbLine
 62
7
  6
CONTINUOUS
 10
22.3840348534
 20
66.9620705479
 11
22.3840348534
 21
57.6084958018
  0
LINE
  5
229
100
AcDbEntity
  8
0
100
AcDbLine
 62
7
  6
CONTINUOUS
 10
23.1384394792
 20
80.6291544362
 11
23.1384394792
 21
66.5265246875
  0
LINE
  5
22A
100
AcDbEntity
  8
0
100
AcDbLine
 62
7
  6
CONTINUOUS
 10
23.4616611013
 20
58.2306598923
 11
23.4616611013
 21
66.7131356642
  0
LINE
  5
22B
100
AcDbEntity
  8
0
100
AcDbLine
 62
7
  6
CONTINUOUS
 10
23.4616611013
 20
58.2306598923
 11
27.9518168292
 21
55.6383259205
  0
LINE
  5
22C
100
AcDbEntity
  8
0
100
AcDbLine
 62
7
  6
CONTINUOUS
 10
31.4182011506
 20
53.6370532743
 11
35.9083568785
 21
51.0447193025
  0
LINE
  5
22D
100
AcDbEntity
  8
0
100
AcDbLine
 62
7
  6
CONTINUOUS
 10
39.3747411999
 20
49.0434466563
 11
43.8648969278
 21
46.4511126845
  0
LINE
  5
22E
100
AcDbEntity
  8
0
100
AcDbLine
 62
7
  6
CONTINUOUS
 10
46.9001644979
 20
45.5073445581
 11
51.3903202258
 21
42.9150105863
  0
LINE
  5
22F
100
AcDbEntity
  8
0
100
AcDbLine
 62
7
  6
CONTINUOUS
 10
51.3903202258
 20
44.877754031
 11
48.5999637308
 21
46.4887306594
  0
LINE
  5
230
100
AcDbEntity
  8
0
100
AcDbLine
 62
7
  6
CONTINUOUS
 10
24.2160657271
 20
67.148688778
 11
24.2160657271
 21
80.0070007069
  0
LINE
  5
231
100
AcDbEntity
  8
0
100
AcDbLine
 62
7
  6
CONTINUOUS
 10
25.1614603343
 20
66.0559692539
 11
25.1614603343
 21
66.602877295
  0
LINE
  5
232
100
AcDbEntity
  8
0
100
AcDbLine
 62
7
  6
CONTINUOUS
 10
25.91586496
 20
74.9739981397
 11
25.91586496
 21
79.0256433635
  0
LINE
  5
233
100
AcDbEntity
  8
0
100
AcDbLine
 62
7
  6
CONTINUOUS
 10
27.9518168292
 20
54.3940081007
 11
27.9518168292
 21
64.9919006667
  0
LINE
  5
234
100
AcDbEntity
  8
0
100
AcDbLine
 62
7
  6
CONTINUOUS
 10
13.349919554
 20
91.2163516131
 11
36.05191251
 21
104.3232751196
  0
LINE
  5
235
100
AcDbEntity
  8
0
100
AcDbLine
 62
7
  6
CONTINUOUS
 10
46.8281749891
 20
110.5449160246
 11
47.9237616745
 21
111.1774495166
  0
LINE
  5
236
100
AcDbEntity
  8
0
100
AcDbLine
 62
7
  6
CONTINUOUS
 10
51.3362447929
 20
113.1476358032
 11
52.4318314783
 21
113.7801692952
  0
LINE
  5
237
100
AcDbEntity
  8
0
100
AcDbLine
 62
7
  6
CONTINUOUS
 10
61.4479710858
 20
118.9856088524
 11
78.3667031781
 21
128.7535850732
  0
LINE
  5
238
100
AcDbEntity
  8
0
100
AcDbLine
 62
7
  6
CONTINUOUS
 10
23.4616611013
 20
65.0745831527
 11
27.9518168292
 21
62.4822491809
  0
LINE
  5
239
100
AcDbEntity
  8
0
100
AcDbLine
 62
7
  6
CONTINUOUS
 10
31.4182011506
 20
60.4809765346
 11
35.9083568785
 21
57.8886425629
  0
LINE
  5
23A
100
AcDbEntity
  8
0
100
AcDbLine
 62
7
  6
CONTINUOUS
 10
39.3747411999
 20
55.8873699166
 11
43.8648969278
 21
53.2950359449
  0
LINE
  5
23B
100
AcDbEntity
  8
0
100
AcDbLine
 62
7
  6
CONTINUOUS
 10
38.4947413802
 20
57.6607602216
 11
36.6627615043
 21
58.7184303684
  0
LINE
  5
23C
100
AcDbEntity
  8
0
100
AcDbLine
 62
7
  6
CONTINUOUS
 10
31.0949795285
 20
61.9329180695
 11
28.706221455
 21
63.3120369865
  0
LINE
  5
23D
100
AcDbEntity
  8
0
100
AcDbLine
 62
7
  6
CONTINUOUS
 10
23.1384394792
 20
66.5265246875
 11
20.7496814057
 21
67.9056436045
  0
LINE
  5
23E
100
AcDbEntity
  8
0
100
AcDbLine
 62
7
  6
CONTINUOUS
 10
15.1818994299
 20
71.1201313056
 11
13.349919554
 21
72.1778014524
  0
LINE
  5
23F
100
AcDbEntity
  8
0
100
AcDbLine
 62
7
  6
CONTINUOUS
 10
43.8648969278
 20
55.2577793895
 11
41.0745404329
 21
56.8687560179
  0
LINE
  5
240
100
AcDbEntity
  8
0
100
AcDbLine
 62
7
  6
CONTINUOUS
 10
35.9083568785
 20
59.8513860076
 11
33.1180003836
 21
61.4623626359
  0
LINE
  5
241
100
AcDbEntity
  8
0
100
AcDbLine
 62
7
  6
CONTINUOUS
 10
27.9518168292
 20
64.4449926256
 11
25.1614603343
 21
66.0559692539
  0
LINE
  5
242
100
AcDbEntity
  8
0
100
AcDbLine
 62
7
  6
CONTINUOUS
 10
28.706221455
 20
63.3120369865
 11
28.706221455
 21
77.4146667351
  0
LINE
  5
243
100
AcDbEntity
  8
0
100
AcDbLine
 62
7
  6
CONTINUOUS
 10
29.1551134966
 20
47.6639816802
 11
29.1551134966
 21
53.6993001623
  0
LINE
  5
244
100
AcDbEntity
  8
0
100
AcDbLine
 62
7
  6
CONTINUOUS
 10
29.9094581514
 20
53.2637889254
 11
29.9094581514
 21
47.2284704433
  0
LINE
  5
245
100
AcDbEntity
  8
0
100
AcDbLine
 62
7
  6
CONTINUOUS
 10
30.3405749027
 20
62.3684639299
 11
30.3405749027
 21
53.0148891838
  0
LINE
  5
246
100
AcDbEntity
  8
0
100
AcDbLine
 62
7
  6
CONTINUOUS
 10
30.9870843993
 20
47.8506345338
 11
30.9870843993
 21
53.3881493876
  0
LINE
  5
247
100
AcDbEntity
  8
0
100
AcDbLine
 62
7
  6
CONTINUOUS
 10
31.0949795285
 20
76.0355478182
 11
31.0949795285
 21
61.9329180695
  0
LINE
  5
248
100
AcDbEntity
  8
0
100
AcDbLine
 62
7
  6
CONTINUOUS
 10
31.4182011506
 20
53.6370532743
 11
31.4182011506
 21
62.1195290462
  0
LINE
  5
249
100
AcDbEntity
  8
0
100
AcDbLine
 62
7
  6
CONTINUOUS
 10
32.1726057764
 20
62.55508216
 11
32.1726057764
 21
75.4133940889
  0
LINE
  5
24A
100
AcDbEntity
  8
0
100
AcDbLine
 62
7
  6
CONTINUOUS
 10
61.4479710858
 20
116.0821262571
 11
54.9463571125
 21
112.3284400859
  0
LINE
  5
24B
100
AcDbEntity
  8
0
100
AcDbLine
 62
7
  6
CONTINUOUS
 10
46.8281749891
 20
107.6414334293
 11
38.5664381442
 21
102.8715459103
  0
LINE
  5
24C
100
AcDbEntity
  8
0
100
AcDbLine
 62
7
  6
CONTINUOUS
 10
16.2595256778
 20
71.7422953961
 11
20.7496814057
 21
69.1499614243
  0
LINE
  5
24D
100
AcDbEntity
  8
0
100
AcDbLine
 62
7
  6
CONTINUOUS
 10
24.2160657271
 20
67.148688778
 11
28.706221455
 21
64.5563548063
  0
LINE
  5
24E
100
AcDbEntity
  8
0
100
AcDbLine
 62
7
  6
CONTINUOUS
 10
32.1726057764
 20
62.55508216
 11
36.6627615043
 21
59.9627481883
  0
LINE
  5
24F
100
AcDbEntity
  8
0
100
AcDbLine
 62
7
  6
CONTINUOUS
 10
43.8648969278
 20
59.3094246133
 11
42.6076024531
 21
60.0353074951
  0
LINE
  5
250
100
AcDbEntity
  8
0
100
AcDbLine
 62
7
  6
CONTINUOUS
 10
33.1180003836
 20
61.4623626359
 11
33.1180003836
 21
62.009270677
  0
LINE
  5
251
100
AcDbEntity
  8
0
100
AcDbLine
 62
7
  6
CONTINUOUS
 10
33.8724050093
 20
70.3803915217
 11
33.8724050093
 21
74.4320367454
  0
LINE
  5
252
100
AcDbEntity
  8
0
100
AcDbLine
 62
7
  6
CONTINUOUS
 10
35.4772401272
 20
44.0139827422
 11
35.4772401272
 21
51.2936190441
  0
LINE
  5
253
100
AcDbEntity
  8
0
100
AcDbLine
 62
7
  6
CONTINUOUS
 10
35.9083568785
 20
49.8004014827
 11
35.9083568785
 21
60.3982940486
  0
LINE
  5
254
100
AcDbEntity
  8
0
100
AcDbLine
 62
7
  6
CONTINUOUS
 10
36.6627615043
 20
58.7184303684
 11
36.6627615043
 21
72.8210601171
  0
LINE
  5
255
100
AcDbEntity
  8
0
100
AcDbLine
 62
7
  6
CONTINUOUS
 10
85.4611283206
 20
125.5909478334
 11
84.6529086347
 21
125.1243247656
  0
LINE
  5
256
100
AcDbEntity
  8
0
100
AcDbLine
 62
7
  6
CONTINUOUS
 10
43.4157442145
 20
101.3161789024
 11
42.3381179666
 21
100.6940148119
  0
LINE
  5
257
100
AcDbEntity
  8
0
100
AcDbLine
 62
7
  6
CONTINUOUS
 10
87.885814298
 20
123.2578480359
 11
88.424627422
 21
123.5689300811
  0
LINE
  5
258
100
AcDbEntity
  8
0
100
AcDbLine
 62
7
  6
CONTINUOUS
 10
16.2595256778
 20
78.5862186564
 11
20.7496814057
 21
75.9938846847
  0
LINE
  5
259
100
AcDbEntity
  8
0
100
AcDbLine
 62
7
  6
CONTINUOUS
 10
24.2160657271
 20
73.9926120384
 11
28.706221455
 21
71.4002780667
  0
LINE
  5
25A
100
AcDbEntity
  8
0
100
AcDbLine
 62
7
  6
CONTINUOUS
 10
32.1726057764
 20
69.3990054204
 11
36.6627615043
 21
66.8066714486
  0
LINE
  5
25B
100
AcDbEntity
  8
0
100
AcDbLine
 62
7
  6
CONTINUOUS
 10
36.6627615043
 20
68.7694148933
 11
33.8724050093
 21
70.3803915217
  0
LINE
  5
25C
100
AcDbEntity
  8
0
100
AcDbLine
 62
7
  6
CONTINUOUS
 10
28.706221455
 20
73.3630215113
 11
25.91586496
 21
74.9739981397
  0
LINE
  5
25D
100
AcDbEntity
  8
0
100
AcDbLine
 62
7
  6
CONTINUOUS
 10
20.7496814057
 20
77.9566281293
 11
17.9593249107
 21
79.5676047577
  0
LINE
  5
25E
100
AcDbEntity
  8
0
100
AcDbLine
 62
7
  6
CONTINUOUS
 10
37.8659982007
 20
48.6701823073
 11
37.8659982007
 21
42.6348638252
  0
LINE
  5
25F
100
AcDbEntity
  8
0
100
AcDbLine
 62
7
  6
CONTINUOUS
 10
38.297114952
 20
57.7748573119
 11
38.297114952
 21
48.4212825658
  0
LINE
  5
260
100
AcDbEntity
  8
0
100
AcDbLine
 62
7
  6
CONTINUOUS
 10
38.4947413802
 20
76.6993103823
 11
38.4947413802
 21
57.6607602216
  0
LINE
  5
261
100
AcDbEntity
  8
0
100
AcDbLine
 62
7
  6
CONTINUOUS
 10
38.9436244486
 20
43.2570279157
 11
38.9436244486
 21
48.7945427696
  0
LINE
  5
262
100
AcDbEntity
  8
0
100
AcDbLine
 62
7
  6
CONTINUOUS
 10
39.3747411999
 20
49.0434466563
 11
39.3747411999
 21
58.1688253217
  0
LINE
  5
263
100
AcDbEntity
  8
0
100
AcDbLine
 62
7
  6
CONTINUOUS
 10
41.0745404329
 20
56.8687560179
 11
41.0745404329
 21
59.1501990084
  0
LINE
  5
264
100
AcDbEntity
  8
0
100
AcDbLine
 62
7
  6
CONTINUOUS
 10
17.9593249107
 20
79.5676047577
 11
16.2595256778
 21
78.5862186564
  0
LINE
  5
265
100
AcDbEntity
  8
0
100
AcDbLine
 62
7
  6
CONTINUOUS
 10
36.6627615043
 20
72.8210601171
 11
31.0949795285
 21
76.0355478182
  0
LINE
  5
266
100
AcDbEntity
  8
0
100
AcDbLine
 62
7
  6
CONTINUOUS
 10
28.706221455
 20
77.4146667351
 11
23.1384394792
 21
80.6291544362
  0
LINE
  5
267
100
AcDbEntity
  8
0
100
AcDbLine
 62
7
  6
CONTINUOUS
 10
20.7496814057
 20
82.0082733531
 11
15.1818994299
 21
85.2227610542
  0
LINE
  5
268
100
AcDbEntity
  8
0
100
AcDbLine
 62
7
  6
CONTINUOUS
 10
43.4337801765
 20
39.4203761242
 11
43.4337801765
 21
46.7000124261
  0
LINE
  5
269
100
AcDbEntity
  8
0
100
AcDbLine
 62
7
  6
CONTINUOUS
 10
43.8648969278
 20
45.2067948647
 11
43.8648969278
 21
59.3094246133
  0
LINE
  5
26A
100
AcDbEntity
  8
0
100
AcDbLine
 62
7
  6
CONTINUOUS
 10
44.6192415826
 20
61.1967209553
 11
44.6192415826
 21
44.7712836277
  0
LINE
  5
26B
100
AcDbEntity
  8
0
100
AcDbLine
 62
7
  6
CONTINUOUS
 10
45.6968768037
 20
65.5104609548
 11
45.6968768037
 21
61.8188902265
  0
LINE
  5
26C
100
AcDbEntity
  8
0
100
AcDbLine
 62
7
  6
CONTINUOUS
 10
45.82253825
 20
45.4660031356
 11
45.82253825
 21
38.0412572072
  0
LINE
  5
26D
100
AcDbEntity
  8
0
100
AcDbLine
 62
7
  6
CONTINUOUS
 10
94.5312270084
 20
120.0433629251
 11
93.9924138844
 21
119.7322808798
  0
LINE
  5
26E
100
AcDbEntity
  8
0
100
AcDbLine
 62
7
  6
CONTINUOUS
 10
15.1818994299
 20
71.1201313056
 11
16.2595256778
 21
71.7422953961
  0
LINE
  5
26F
100
AcDbEntity
  8
0
100
AcDbLine
 62
7
  6
CONTINUOUS
 10
38.4947413802
 20
76.6993103823
 11
13.349919554
 21
91.2163516131
  0
LINE
  5
270
100
AcDbEntity
  8
0
100
AcDbLine
 62
7
  6
CONTINUOUS
 10
46.8281749891
 20
110.5449160246
 11
46.8281749891
 21
107.6414334293
  0
LINE
  5
271
100
AcDbEntity
  8
0
100
AcDbLine
 62
7
  6
CONTINUOUS
 10
46.9001644979
 20
38.6634212977
 11
46.9001644979
 21
46.0881672261
  0
LINE
  5
272
100
AcDbEntity
  8
0
100
AcDbLine
 62
7
  6
CONTINUOUS
 10
48.5999637308
 20
46.4887306594
 11
48.5999637308
 21
47.0695409128
  0
LINE
  5
273
100
AcDbEntity
  8
0
100
AcDbLine
 62
7
  6
CONTINUOUS
 10
55.9881551276
 20
94.057658287
 11
54.9105288797
 21
93.4354941965
  0
LINE
  5
274
100
AcDbEntity
  8
0
100
AcDbLine
 62
7
  6
CONTINUOUS
 10
97.2253195478
 20
117.8658041502
 11
98.0335392337
 21
118.3324272181
  0
LINE
  5
275
100
AcDbEntity
  8
0
100
AcDbLine
 62
7
  6
CONTINUOUS
 10
25.91586496
 20
74.9739981397
 11
24.2160657271
 21
73.9926120384
  0
LINE
  5
276
100
AcDbEntity
  8
0
100
AcDbLine
 62
7
  6
CONTINUOUS
 10
79.2289612076
 20
105.4017476993
 11
80.3065874555
 21
106.0239117898
  0
LINE
  5
277
100
AcDbEntity
  8
0
100
AcDbLine
 62
7
  6
CONTINUOUS
 10
51.3362447929
 20
113.1476358032
 11
51.3362447929
 21
109.6757177378
  0
LINE
  5
278
100
AcDbEntity
  8
0
100
AcDbLine
 62
7
  6
CONTINUOUS
 10
51.3903202258
 20
34.8267695061
 11
51.3903202258
 21
48.6805443699
  0
LINE
  5
279
100
AcDbEntity
  8
0
100
AcDbLine
 62
7
  6
CONTINUOUS
 10
52.1446648806
 20
49.1160628597
 11
52.1446648806
 21
34.3912582692
  0
LINE
  5
27A
100
AcDbEntity
  8
0
100
AcDbLine
 62
7
  6
CONTINUOUS
 10
53.311909365
 20
112.0070111351
 11
53.311909365
 21
110.0384603469
  0
LINE
  5
27B
100
AcDbEntity
  8
0
100
AcDbLine
 62
7
  6
CONTINUOUS
 10
66.6565502945
 20
113.0750515426
 11
67.7341765424
 21
115.3563485447
  0
LINE
  5
27C
100
AcDbEntity
  8
0
100
AcDbLine
 62
7
  6
CONTINUOUS
 10
103.5115250043
 20
114.2365438425
 11
86.5927929121
 21
104.4685676216
  0
LINE
  5
27D
100
AcDbEntity
  8
0
100
AcDbLine
 62
7
  6
CONTINUOUS
 10
77.5766533045
 20
99.2631280645
 11
76.4810666191
 21
98.6305945725
  0
LINE
  5
27E
100
AcDbEntity
  8
0
100
AcDbLine
 62
7
  6
CONTINUOUS
 10
73.0685835008
 20
96.6604082859
 11
71.9729968154
 21
96.0278747939
  0
LINE
  5
27F
100
AcDbEntity
  8
0
100
AcDbLine
 62
7
  6
CONTINUOUS
 10
61.1967343362
 20
89.8062338889
 11
38.4947413802
 21
76.6993103823
  0
LINE
  5
280
100
AcDbEntity
  8
0
100
AcDbLine
 62
7
  6
CONTINUOUS
 10
23.1384394792
 20
66.5265246875
 11
24.2160657271
 21
67.148688778
  0
LINE
  5
281
100
AcDbEntity
  8
0
100
AcDbLine
 62
7
  6
CONTINUOUS
 10
55.9881551276
 20
92.8133404672
 11
55.9881551276
 21
94.057658287
  0
LINE
  5
282
100
AcDbEntity
  8
0
100
AcDbLine
 62
7
  6
CONTINUOUS
 10
61.1967343362
 20
86.9027512935
 11
71.9729968154
 21
93.1243921985
  0
LINE
  5
283
100
AcDbEntity
  8
0
100
AcDbLine
 62
7
  6
CONTINUOUS
 10
77.5766533045
 20
96.3596454691
 11
86.5927929121
 21
101.5650850263
  0
LINE
  5
284
100
AcDbEntity
  8
0
100
AcDbLine
 62
7
  6
CONTINUOUS
 10
25.1614603343
 20
66.0559692539
 11
23.4616611013
 21
65.0745831527
  0
LINE
  5
285
100
AcDbEntity
  8
0
100
AcDbLine
 62
7
  6
CONTINUOUS
 10
33.8724050093
 20
70.3803915217
 11
32.1726057764
 21
69.3990054204
  0
LINE
  5
286
100
AcDbEntity
  8
0
100
AcDbLine
 62
7
  6
CONTINUOUS
 10
75.2238195457
 20
68.2476867525
 11
76.1218488966
 21
67.7292209942
  0
LINE
  5
287
100
AcDbEntity
  8
0
100
AcDbLine
 62
7
  6
CONTINUOUS
 10
60.9991605509
 20
39.5033732128
 11
60.9991605509
 21
58.9981849242
  0
LINE
  5
288
100
AcDbEntity
  8
0
100
AcDbLine
 62
7
  6
CONTINUOUS
 10
61.1967343362
 20
89.8062338889
 11
61.1967343362
 21
86.9027512935
  0
LINE
  5
289
100
AcDbEntity
  8
0
100
AcDbLine
 62
7
  6
CONTINUOUS
 10
61.4479710858
 20
118.9856088524
 11
61.4479710858
 21
116.0821262571
  0
LINE
  5
28A
100
AcDbEntity
  8
0
100
AcDbLine
 62
7
  6
CONTINUOUS
 10
22.3840348534
 20
57.6084958018
 11
23.4616611013
 21
58.2306598923
  0
LINE
  5
28B
100
AcDbEntity
  8
0
100
AcDbLine
 62
7
  6
CONTINUOUS
 10
31.0949795285
 20
61.9329180695
 11
32.1726057764
 21
62.55508216
  0
LINE
  5
28C
100
AcDbEntity
  8
0
100
AcDbLine
 62
7
  6
CONTINUOUS
 10
33.1180003836
 20
61.4623626359
 11
31.4182011506
 21
60.4809765346
  0
LINE
  5
28D
100
AcDbEntity
  8
0
100
AcDbLine
 62
7
  6
CONTINUOUS
 10
66.6565502945
 20
113.0750515426
 11
66.6565502945
 21
112.6602683147
  0
LINE
  5
28E
100
AcDbEntity
  8
0
100
AcDbLine
 62
7
  6
CONTINUOUS
 10
80.3065874555
 20
108.0978279293
 11
79.2289612076
 21
105.8165309272
  0
LINE
  5
28F
100
AcDbEntity
  8
0
100
AcDbLine
 62
7
  6
CONTINUOUS
 10
87.401012598
 20
89.5882112572
 11
76.4810666191
 21
83.2836151401
  0
LINE
  5
290
100
AcDbEntity
  8
0
100
AcDbLine
 62
7
  6
CONTINUOUS
 10
73.0685835008
 20
81.3134288535
 11
45.6968768037
 21
65.5104609548
  0
LINE
  5
291
100
AcDbEntity
  8
0
100
AcDbLine
 62
7
  6
CONTINUOUS
 10
86.3233773769
 20
73.619041051
 11
87.401012598
 21
72.9968821411
  0
LINE
  5
292
100
AcDbEntity
  8
0
100
AcDbLine
 62
7
  6
CONTINUOUS
 10
36.05191251
 20
104.3232751196
 11
42.3381179666
 21
100.6940148119
  0
LINE
  5
293
100
AcDbEntity
  8
0
100
AcDbLine
 62
7
  6
CONTINUOUS
 10
54.9105288797
 20
93.4354941965
 11
61.1967343362
 21
89.8062338889
  0
LINE
  5
294
100
AcDbEntity
  8
0
100
AcDbLine
 62
7
  6
CONTINUOUS
 10
71.272530781
 20
80.276483522
 11
71.272530781
 21
64.929482587
  0
LINE
  5
295
100
AcDbEntity
  8
0
100
AcDbLine
 62
7
  6
CONTINUOUS
 10
71.9729968154
 20
93.1243921985
 11
71.9729968154
 21
96.0278747939
  0
LINE
  5
296
100
AcDbEntity
  8
0
100
AcDbLine
 62
7
  6
CONTINUOUS
 10
30.3405749027
 20
53.0148891838
 11
31.4182011506
 21
53.6370532743
  0
LINE
  5
297
100
AcDbEntity
  8
0
100
AcDbLine
 62
7
  6
CONTINUOUS
 10
38.4947413802
 20
57.6607602216
 11
45.6968768037
 21
61.8188902265
  0
LINE
  5
298
100
AcDbEntity
  8
0
100
AcDbLine
 62
7
  6
CONTINUOUS
 10
41.0745404329
 20
56.8687560179
 11
39.3747411999
 21
55.8873699166
  0
LINE
  5
299
100
AcDbEntity
  8
0
100
AcDbLine
 62
7
  6
CONTINUOUS
 10
55.9881551276
 20
94.057658287
 11
43.4157442145
 21
101.3161789024
  0
LINE
  5
29A
100
AcDbEntity
  8
0
100
AcDbLine
 62
7
  6
CONTINUOUS
 10
74.5054020471
 20
84.4242398082
 11
76.4810666191
 21
83.2836151401
  0
LINE
  5
29B
100
AcDbEntity
  8
0
100
AcDbLine
 62
7
  6
CONTINUOUS
 10
73.0685835008
 20
96.6604082859
 11
73.0685835008
 21
81.3134288535
  0
LINE
  5
29C
100
AcDbEntity
  8
0
100
AcDbLine
 62
7
  6
CONTINUOUS
 10
74.5054020471
 20
84.4242398082
 11
74.5054020471
 21
99.7712192406
  0
LINE
  5
29D
100
AcDbEntity
  8
0
100
AcDbLine
 62
7
  6
CONTINUOUS
 10
75.2238195457
 20
68.2476867525
 11
75.2238195457
 21
84.0094706553
  0
LINE
  5
29E
100
AcDbEntity
  8
0
100
AcDbLine
 62
7
  6
CONTINUOUS
 10
76.1218488966
 20
67.7292209942
 11
76.1218488966
 21
83.4910048971
  0
LINE
  5
29F
100
AcDbEntity
  8
0
100
AcDbLine
 62
7
  6
CONTINUOUS
 10
29.9094581514
 20
47.2284704433
 11
30.9870843993
 21
47.8506345338
  0
LINE
  5
2A0
100
AcDbEntity
  8
0
100
AcDbLine
 62
7
  6
CONTINUOUS
 10
103.5115250043
 20
88.6029403582
 11
94.5672271466
 21
83.438978407
  0
LINE
  5
2A1
100
AcDbEntity
  8
0
100
AcDbLine
 62
7
  6
CONTINUOUS
 10
71.9729968154
 20
93.1243921985
 11
46.8281749891
 21
107.6414334293
  0
LINE
  5
2A2
100
AcDbEntity
  8
0
100
AcDbLine
 62
7
  6
CONTINUOUS
 10
76.4810666191
 20
83.2836151401
 11
76.4810666191
 21
98.6305945725
  0
LINE
  5
2A3
100
AcDbEntity
  8
0
100
AcDbLine
 62
7
  6
CONTINUOUS
 10
77.5766533045
 20
99.2631280645
 11
77.5766533045
 21
96.3596454691
  0
LINE
  5
2A4
100
AcDbEntity
  8
0
100
AcDbLine
 62
7
  6
CONTINUOUS
 10
79.2289612076
 20
105.8165309272
 11
79.2289612076
 21
105.4017476993
  0
LINE
  5
2A5
100
AcDbEntity
  8
0
100
AcDbLine
 62
7
  6
CONTINUOUS
 10
80.3065874555
 20
106.0239117898
 11
80.3065874555
 21
108.0978279293
  0
LINE
  5
2A6
100
AcDbEntity
  8
0
100
AcDbLine
 62
7
  6
CONTINUOUS
 10
38.297114952
 20
48.4212825658
 11
39.3747411999
 21
49.0434466563
  0
LINE
  5
2A7
100
AcDbEntity
  8
0
100
AcDbLine
 62
7
  6
CONTINUOUS
 10
60.9991605509
 20
58.9981849242
 11
71.272530781
 21
64.929482587
  0
LINE
  5
2A8
100
AcDbEntity
  8
0
100
AcDbLine
 62
7
  6
CONTINUOUS
 10
76.1218488966
 20
67.7292209942
 11
86.3233773769
 21
73.619041051
  0
LINE
  5
2A9
100
AcDbEntity
  8
0
100
AcDbLine
 62
7
  6
CONTINUOUS
 10
87.401012598
 20
72.9968821411
 11
94.5672271466
 21
77.1342733429
  0
LINE
  5
2AA
100
AcDbEntity
  8
0
100
AcDbLine
 62
7
  6
CONTINUOUS
 10
71.9729968154
 20
96.0278747939
 11
46.8281749891
 21
110.5449160246
  0
LINE
  5
2AB
100
AcDbEntity
  8
0
100
AcDbLine
 62
7
  6
CONTINUOUS
 10
47.9237616745
 20
111.1774495166
 11
49.8994262466
 21
110.0368248485
  0
LINE
  5
2AC
100
AcDbEntity
  8
0
100
AcDbLine
 62
7
  6
CONTINUOUS
 10
71.0929189287
 20
97.801032954
 11
73.0685835008
 21
96.6604082859
  0
LINE
  5
2AD
100
AcDbEntity
  8
0
100
AcDbLine
 62
7
  6
CONTINUOUS
 10
37.8659982007
 20
42.6348638252
 11
38.9436244486
 21
43.2570279157
  0
LINE
  5
2AE
100
AcDbEntity
  8
0
100
AcDbLine
 62
7
  6
CONTINUOUS
 10
44.6192415826
 20
44.7712836277
 11
52.1446648806
 21
49.1160628597
  0
LINE
  5
2AF
100
AcDbEntity
  8
0
100
AcDbLine
 62
7
  6
CONTINUOUS
 10
48.5999637308
 20
46.4887306594
 11
46.9001644979
 21
45.5073445581
  0
LINE
  5
2B0
100
AcDbEntity
  8
0
100
AcDbLine
 62
7
  6
CONTINUOUS
 10
76.4810666191
 20
98.6305945725
 11
74.5054020471
 21
99.7712192406
  0
LINE
  5
2B1
100
AcDbEntity
  8
0
100
AcDbLine
 62
7
  6
CONTINUOUS
 10
53.311909365
 20
112.0070111351
 11
51.3362447929
 21
113.1476358032
  0
LINE
  5
2B2
100
AcDbEntity
  8
0
100
AcDbLine
 62
7
  6
CONTINUOUS
 10
52.4318314783
 20
113.7801692952
 11
77.5766533045
 21
99.2631280645
  0
LINE
  5
2B3
100
AcDbEntity
  8
0
100
AcDbLine
 62
7
  6
CONTINUOUS
 10
86.3233773769
 20
88.966041986
 11
86.3233773769
 21
73.619041051
  0
LINE
  5
2B4
100
AcDbEntity
  8
0
100
AcDbLine
 62
7
  6
CONTINUOUS
 10
86.5927929121
 20
101.5650850263
 11
86.5927929121
 21
104.4685676216
  0
LINE
  5
2B5
100
AcDbEntity
  8
0
100
AcDbLine
 62
7
  6
CONTINUOUS
 10
87.401012598
 20
72.9968821411
 11
87.401012598
 21
89.5882112572
  0
LINE
  5
2B6
100
AcDbEntity
  8
0
100
AcDbLine
 62
7
  6
CONTINUOUS
 10
88.424627422
 20
122.9467711712
 11
88.424627422
 21
123.5689300811
  0
LINE
  5
2B7
100
AcDbEntity
  8
0
100
AcDbLine
 62
7
  6
CONTINUOUS
 10
89.3547001812
 20
123.031964471
 11
89.3547001812
 21
122.4098055611
  0
LINE
  5
2B8
100
AcDbEntity
  8
0
100
AcDbLine
 62
7
  6
CONTINUOUS
 10
93.6868249178
 20
121.0284414226
 11
93.6011542491
 21
120.5803285352
  0
LINE
  5
2B9
100
AcDbEntity
  8
0
100
AcDbLine
 62
7
  6
CONTINUOUS
 10
96.0838287232
 20
120.4949991573
 11
96.3272677638
 21
121.4950774094
  0
LINE
  5
2BA
100
AcDbEntity
  8
0
100
AcDbLine
 62
7
  6
CONTINUOUS
 10
79.2289612076
 20
105.4017476993
 11
66.6565502945
 21
112.6602683147
  0
LINE
  5
2BB
100
AcDbEntity
  8
0
100
AcDbLine
 62
7
  6
CONTINUOUS
 10
93.6011542491
 20
119.9581696253
 11
93.6011542491
 21
120.5803285352
  0
LINE
  5
2BC
100
AcDbEntity
  8
0
100
AcDbLine
 62
7
  6
CONTINUOUS
 10
45.82253825
 20
38.0412572072
 11
46.9001644979
 21
38.6634212977
  0
LINE
  5
2BD
100
AcDbEntity
  8
0
100
AcDbLine
 62
7
  6
CONTINUOUS
 10
86.5927929121
 20
101.5650850263
 11
79.58815156
 21
105.6091251081
  0
LINE
  5
2BE
100
AcDbEntity
  8
0
100
AcDbLine
 62
7
  6
CONTINUOUS
 10
79.2289612076
 20
105.8165309272
 11
61.4479710858
 21
116.0821262571
  0
LINE
  5
2BF
100
AcDbEntity
  8
0
100
AcDbLine
 62
7
  6
CONTINUOUS
 10
86.5927929121
 20
104.4685676216
 11
61.4479710858
 21
118.9856088524
  0
LINE
  5
2C0
100
AcDbEntity
  8
0
100
AcDbLine
 62
7
  6
CONTINUOUS
 10
94.5672271466
 20
83.438978407
 11
94.5672271466
 21
77.1342733429
  0
LINE
  5
2C1
100
AcDbEntity
  8
0
100
AcDbLine
 62
7
  6
CONTINUOUS
 10
96.3272677638
 20
120.3544527412
 11
96.3272677638
 21
121.4950774094
  0
LINE
  5
2C2
100
AcDbEntity
  8
0
100
AcDbLine
 62
7
  6
CONTINUOUS
 10
98.0335392337
 20
117.3991888532
 11
98.0335392337
 21
118.3324272181
  0
LINE
  5
2C3
100
AcDbEntity
  8
0
100
AcDbLine
 62
7
  6
CONTINUOUS
 10
52.1446648806
 20
34.3912582692
 11
60.9991605509
 21
39.5033732128
  0
LINE
  5
2C4
100
AcDbEntity
  8
0
100
AcDbLine
 62
7
  6
CONTINUOUS
 10
90.9390916582
 20
124.6058719588
 11
89.2068825776
 21
124.465316045
  0
LINE
  5
2C5
100
AcDbEntity
  8
0
100
AcDbLine
 62
7
  6
CONTINUOUS
 10
103.5115250043
 20
114.2365438425
 11
103.5115250043
 21
88.6029403582
  0
LINE
  5
2C6
100
AcDbEntity
  8
0
100
AcDbLine
 62
7
  6
CONTINUOUS
 10
87.6416690214
 20
125.3689720696
 11
85.4611283206
 21
125.5909478334
  0
LINE
  5
2C7
100
AcDbEntity
  8
0
100
AcDbLine
 62
7
  6
CONTINUOUS
 10
103.5115250043
 20
114.2365438425
 11
97.2253195478
 21
117.8658041502
  0
LINE
  5
2C8
100
AcDbEntity
  8
0
100
AcDbLine
 62
7
  6
CONTINUOUS
 10
93.9924138844
 20
119.7322808798
 11
87.885814298
 21
123.2578480359
  0
LINE
  5
2C9
100
AcDbEntity
  8
0
100
AcDbLine
 62
7
  6
CONTINUOUS
 10
84.6529086347
 20
125.1243247656
 11
78.3667031781
 21
128.7535850732
  0
LINE
  5
2CA
100
AcDbEntity
  8
0
100
AcDbLine
 62
7
  6
CONTINUOUS
 10
88.424627422
 20
123.5689300811
 11
89.3545906738
 21
123.0320276937
  0
LINE
  5
2CB
100
AcDbEntity
  8
0
100
AcDbLine
 62
7
  6
CONTINUOUS
 10
93.6011542491
 20
120.5803285352
 11
94.5312270084
 21
120.0433629251
  0
LINE
  5
2CC
100
AcDbEntity
  8
0
100
AcDbLine
 62
7
  6
CONTINUOUS
 10
97.6490422794
 20
119.5913431327
 11
96.0838287232
 21
120.4949991573
  0
LINE
  5
2CD
100
AcDbEntity
  8
0
100
AcDbLine
 62
7
  6
CONTINUOUS
 10
89.2068825776
 20
124.465316045
 11
87.6416690214
 21
125.3689720696
  0
LINE
  5
2CE
100
AcDbEntity
  8
0
100
AcDbLine
 62
7
  6
CONTINUOUS
 10
98.0335392337
 20
118.3324272181
 11
97.6490422794
 21
119.5913431327
  0
LINE
  5
2CF
100
AcDbEntity
  8
0
100
AcDbLine
 62
7
  6
CONTINUOUS
 10
96.3272677638
 20
121.4950774094
 11
90.9390916582
 21
124.6058719588
  0
SPLINE
  5
2D0
100
AcDbEntity
  8
0
100
AcDbSpline
 62
7
  6
CONTINUOUS
 70
0
 71
3
 72
17
 73
13
 74
0
 42
0.0000001
 43
0.0000001
 44
0.0000000001
 40
0.0
 40
0.0
 40
0.0
 40
0.0
 40
0.0428584554
 40
0.0874839031
 40
0.1353177481
 40
0.1872794187
 40
0.3045395902
 40
0.4382053041
 40
0.582547581
 40
0.729712444
 40
0.8713059798
 40
1.0
 40
1.0
 40
1.0
 40
1.0
 10
54.0186595806
 20
111.0219179871
 30
0.0
 10
54.0186647744
 20
110.9532284693
 30
0.0
 10
54.0002525277
 20
110.8124264178
 30
0.0
 10
53.9195431
 20
110.6090977387
 30
0.0
 10
53.7884823049
 20
110.4163520092
 30
0.0
 10
53.5418080078
 20
110.16876903
 30
0.0
 10
53.1214616061
 20
109.9129002332
 30
0.0
 10
52.517081176
 20
109.7110128022
 30
0.0
 10
51.838811363
 20
109.6156805449
 30
0.0
 10
51.141646647
 20
109.6349772926
 30
0.0
 10
50.4824870355
 20
109.7668245903
 30
0.0
 10
50.0780525494
 20
109.9336972375
 30
0.0
 10
49.8994262466
 20
110.0368248485
 30
0.0
  0
SPLINE
  5
2D1
100
AcDbEntity
  8
0
100
AcDbSpline
 62
7
  6
CONTINUOUS
 70
0
 71
3
 72
11
 73
7
 74
0
 42
0.0000001
 43
0.0000001
 44
0.0000000001
 40
0.0
 40
0.0
 40
0.0
 40
0.0
 40
0.2301999299
 40
0.484085981
 40
0.7463841772
 40
1.0
 40
1.0
 40
1.0
 40
1.0
 10
75.2238195457
 20
68.2476867525
 30
0.0
 10
74.9511249
 20
68.4051235179
 30
0.0
 10
74.3298188271
 20
68.6547406852
 30
0.0
 10
73.3196818747
 20
68.836436831
 30
0.0
 10
72.2614050817
 20
68.8351014312
 30
0.0
 10
71.5621259657
 20
68.7068036776
 30
0.0
 10
71.2296037552
 20
68.6079384018
 30
0.0
  0
SPLINE
  5
2D2
100
AcDbEntity
  8
0
100
AcDbSpline
 62
7
  6
CONTINUOUS
 70
0
 71
3
 72
11
 73
7
 74
0
 42
0.0000001
 43
0.0000001
 44
0.0000000001
 40
0.0
 40
0.0
 40
0.0
 40
0.0
 40
0.2897036169
 40
0.5490920547
 40
0.7822205729
 40
1.0
 40
1.0
 40
1.0
 40
1.0
 10
71.0929189287
 20
97.801032954
 30
0.0
 10
70.9870382293
 20
97.8621618214
 30
0.0
 10
70.7949427986
 20
97.9944689474
 30
0.0
 10
70.5653573209
 20
98.2357418897
 30
0.0
 10
70.4201319126
 20
98.5026559079
 30
0.0
 10
70.3861756623
 20
98.6942195134
 30
0.0
 10
70.3861687131
 20
98.7861261019
 30
0.0
  0
SPLINE
  5
2D3
100
AcDbEntity
  8
0
100
AcDbSpline
 62
7
  6
CONTINUOUS
 70
0
 71
3
 72
9
 73
5
 74
0
 42
0.0000001
 43
0.0000001
 44
0.0000000001
 40
0.0
 40
0.0
 40
0.0
 40
0.0
 40
0.4750753615
 40
1.0
 40
1.0
 40
1.0
 40
1.0
 10
74.5054020471
 20
84.4242398082
 30
0.0
 10
74.3006315937
 20
84.5424614101
 30
0.0
 10
73.8315371933
 20
84.7261436888
 30
0.0
 10
73.3368283448
 20
84.805635254
 30
0.0
 10
73.0761510363
 20
84.8230360239
 30
0.0
  0
SPLINE
  5
2D4
100
AcDbEntity
  8
0
100
AcDbSpline
 62
7
  6
CONTINUOUS
 70
0
 71
3
 72
11
 73
7
 74
0
 42
0.0000001
 43
0.0000001
 44
0.0000000001
 40
0.0
 40
0.0
 40
0.0
 40
0.0
 40
0.2897036169
 40
0.5490920547
 40
0.7822205729
 40
1.0
 40
1.0
 40
1.0
 40
1.0
 10
53.311909365
 20
112.0070111351
 30
0.0
 10
53.4177900644
 20
111.9458822677
 30
0.0
 10
53.6098854951
 20
111.8135751417
 30
0.0
 10
53.8394709728
 20
111.5723021994
 30
0.0
 10
53.9846963811
 20
111.3053881811
 30
0.0
 10
54.0186526314
 20
111.1138245757
 30
0.0
 10
54.0186595806
 20
111.0219179871
 30
0.0
  0
SPLINE
  5
2D5
100
AcDbEntity
  8
0
100
AcDbSpline
 62
7
  6
CONTINUOUS
 70
0
 71
3
 72
17
 73
13
 74
0
 42
0.0000001
 43
0.0000001
 44
0.0000000001
 40
0.0
 40
0.0
 40
0.0
 40
0.0
 40
0.0428584554
 40
0.0874839031
 40
0.1353177481
 40
0.1872794187
 40
0.3045395902
 40
0.4382053041
 40
0.582547581
 40
0.729712444
 40
0.8713059798
 40
1.0
 40
1.0
 40
1.0
 40
1.0
 10
70.3861687131
 20
98.7861261019
 30
0.0
 10
70.3861635193
 20
98.8548156197
 30
0.0
 10
70.404575766
 20
98.9956176713
 30
0.0
 10
70.4852851936
 20
99.1989463504
 30
0.0
 10
70.6163459888
 20
99.3916920798
 30
0.0
 10
70.8630202858
 20
99.6392750591
 30
0.0
 10
71.2833666876
 20
99.8951438559
 30
0.0
 10
71.8877471177
 20
100.0970312868
 30
0.0
 10
72.5660169307
 20
100.1923635442
 30
0.0
 10
73.2631816467
 20
100.1730667965
 30
0.0
 10
73.9223412581
 20
100.0412194987
 30
0.0
 10
74.3267757443
 20
99.8743468515
 30
0.0
 10
74.5054020471
 20
99.7712192406
 30
0.0
  0
SPLINE
  5
2D6
100
AcDbEntity
  8
0
100
AcDbSpline
 62
7
  6
CONTINUOUS
 70
0
 71
3
 72
16
 73
12
 74
0
 42
0.0000001
 43
0.0000001
 44
0.0000000001
 40
0.0
 40
0.0
 40
0.0
 40
0.0
 40
0.1505576197
 40
0.3010650922
 40
0.446509128
 40
0.5825365242
 40
0.7058338215
 40
0.8149627364
 40
0.91123808
 40
0.9561402733
 40
1.0
 40
1.0
 40
1.0
 40
1.0
 10
89.3545906738
 20
123.0320276937
 30
0.0
 10
89.6161603873
 20
123.0658053756
 30
0.0
 10
90.1443148999
 20
123.0982568028
 30
0.0
 10
90.9268362412
 20
123.0466629711
 30
0.0
 10
91.6711790872
 20
122.8974916478
 30
0.0
 10
92.3416092798
 20
122.6579895188
 30
0.0
 10
92.9068747169
 20
122.3383654572
 30
0.0
 10
93.3407604659
 20
121.9517769446
 30
0.0
 10
93.5787960831
 20
121.5735165562
 30
0.0
 10
93.6715625272
 20
121.2611754901
 30
0.0
 10
93.6869010306
 20
121.1052733588
 30
0.0
 10
93.6868635725
 20
121.0284414163
 30
0.0
  0
ENDSEC
  0
SECTION
  2
OBJECTS
  0
DICTIONARY
  5
C
100
AcDbDictionary
280
0
281
1
  3
ACAD_GROUP
350
D
  3
ACAD_MLINESTYLE
350
17
  3
ACAD_LAYOUT
350
1A
  3
ACAD_PLOTSETTINGS
350
19
  3
ACAD_PLOTSTYLENAME
350
E
  0
DICTIONARY
  5
D
102
{ACAD_REACTORS
330
C
102
}
100
AcDbDictionary
280
0
281
1
  0
ACDBDICTIONARYWDFLT
  5
E
102
{ACAD_REACTORS
330
C
102
}
100
AcDbDictionary
281
1
  3
Normal
350
F
100
AcDbDictionaryWithDefault
340
F
  0
DICTIONARY
  5
17
102
{ACAD_REACTORS
330
C
102
}
100
AcDbDictionary
280
0
281
1
  3
Standard
350
18
  0
DICTIONARY
  5
19
102
{ACAD_REACTORS
330
C
102
}
100
AcDbDictionary
281
1
  0
DICTIONARY
  5
1A
102
{ACAD_REACTORS
330
C
102
}
100
AcDbDictionary
281
1
  3
Model
350
2D7
  3
Layout1
350
2D8
  0
ACDBPLACEHOLDER
  5
F
102
{ACAD_REACTORS
330
E
102
}
  0
MLINESTYLE
  5
18
102
{ACAD_REACTORS
330
17
102
}
100
AcDbMlineStyle
  2
STANDARD
 70
0
  3

 62
256
 51
90.0
 52
90.0
 71
2
 49
0.5
 62
256
  6
BYLAYER
 49
-0.5
 62
256
  6
BYLAYER
  0
LAYOUT
  5
2D7
102
{ACAD_REACTORS
330
1A
102
}
100
AcDbPlotSettings
  1

  2
none_device
  4

  6

 40
0.0
 41
0.0
 42
0.0
 43
0.0
 44
210.0
 45
297.0
 46
0.0
 47
0.0
 48
0.0
 49
0.0
140
0.0
141
0.0
142
1.0
143
1.0
 70
1024
 72
1
 73
0
 74
0
  7

 75
0
147
1.0
148
0.0
149
0.0
100
AcDbLayout
  1
Model
 70
0
 71
0
 10
0.0
 20
0.0
 11
210.0
 21
297.0
 12
0.0
 22
0.0
 32
0.0
 14
0.0
 24
0.0
 34
0.0
 15
0.0
 25
0.0
 35
0.0
146
0.0
 13
0.0
 23
0.0
 33
0.0
 16
1.0
 26
0.0
 36
0.0
 17
0.0
 27
1.0
 37
0.0
 76
0
330
210
345
0
346
0
  0
LAYOUT
  5
2D8
102
{ACAD_REACTORS
330
1A
102
}
100
AcDbPlotSettings
  1

  2
none_device
  4

  6

 40
0.0
 41
0.0
 42
0.0
 43
0.0
 44
210.0
 45
297.0
 46
0.0
 47
0.0
 48
0.0
 49
0.0
140
0.0
141
0.0
142
1.0
143
1.0
 70
0
 72
1
 73
0
 74
0
  7

 75
0
147
1.0
148
0.0
149
0.0
100
AcDbLayout
  1
Layout1
 70
0
 71
1
 10
0.0
 20
0.0
 11
210.0
 21
297.0
 12
0.0
 22
0.0
 32
0.0
 14
0.0
 24
0.0
 34
0.0
 15
0.0
 25
0.0
 35
0.0
146
0.0
 13
0.0
 23
0.0
 33
0.0
 16
1.0
 26
0.0
 36
0.0
 17
0.0
 27
1.0
 37
0.0
 76
0
330
211
345
0
346
0
  0
ENDSEC
  0
EOF
