999
DXF file: C:\Vinayak\New 2D genarating\updateCreo8 with 3dPdf\CAD\NSYS3D32515P_3D-CAD\drw0001_5.dxf
999
Pro/ENGINEER 2021284 by Parametric Technology Corporation
  0
SECTION
  2
HEADER
  9
$ACADVER
  1
AC1024
  9
$DWGCODEPAGE
  3
ANSI_1252
  9
$EXTMAX
 10
253.0742098084
 20
357.9192395862
 30
0.0
  9
$EXTMIN
 10
0.0
 20
0.0
 30
0.0
  9
$LIMMIN
 10
0.0
 20
0.0
  9
$LIMMAX
 10
253.0742098084
 20
357.9192395862
  9
$VIEWCTR
 10
126.5371049042
 20
178.9596197931
  9
$VIEWSIZE
 40
357.9192395862
  9
$CLAYER
  8
0
  9
$LTSCALE
 40
23.3310319138
  9
$CELTYPE
  6
BYLAYER
  9
$DIMSCALE
 40
1.0
  9
$DIMASZ
 40
3.012788212
  9
$DIMEXO
 40
1.0
  9
$DIMDLI
 40
16.1196220495
  9
$DIMEXE
 40
1.0
  9
$DIMCEN
 40
3.8178052223
  9
$DIMLFAC
 40
1.0
  9
$DIMBLK
  1
_FILLED
  9
$DIMALT
 70
0
  9
$DIMALTF
 40
0.0393700787
  9
$DIMTXT
 40
4.2179034968
  9
$DIMTOL
 70
1
  9
$DIMLIM
 70
0
  9
$DIMTFAC
 40
1.0
  9
$DIMTP
 40
0.01
  9
$DIMTM
 40
0.01
  9
$DIMGAP
 40
0.625
  9
$DIMDSEP
 70
46
  9
$AUNITS
 70
0
  9
$PDMODE
 70
3
  9
$PDSIZE
 40
0.3125
  9
$HANDSEED
  5
34E
  9
$TILEMODE
 70
1
  9
$MEASUREMENT
 70
1
  9
$INSUNITS
 70
4
  0
ENDSEC
  0
SECTION
  2
CLASSES
  0
CLASS
  1
ACDBDICTIONARYWDFLT
  2
AcDbDictionaryWithDefault
  3
AutoCAD 2000
 90
0
 91
1
280
0
281
0
  0
CLASS
  1
ACDBPLACEHOLDER
  2
AcDbPlaceHolder
  3
AutoCAD 2000
 90
0
 91
1
280
0
281
0
  0
CLASS
  1
LAYOUT
  2
AcDbLayout
  3
AutoCAD 2000
 90
0
 91
0
280
0
281
0
  0
ENDSEC
  0
SECTION
  2
TABLES
  0
TABLE
  2
VPORT
  5
8
100
AcDbSymbolTable
 70
2
  0
VPORT
  5
1F4
100
AcDbSymbolTableRecord
100
AcDbViewportTableRecord
  2
*ACTIVE
 70
0
 10
0.0
 20
0.0
 11
1.0
 21
1.0
 12
126.5371049042
 22
178.9596197931
 13
0.0
 23
0.0
 14
1.0
 24
1.0
 15
0.0
 25
0.0
 16
0.0
 26
0.0
 36
1.0
 17
0.0
 27
0.0
 37
0.0
 40
357.9192395862
 41
0.7070707071
 42
50.0
 43
0.0
 44
0.0
 50
0.0
 51
0.0
 71
0
 72
100
 73
1
 74
1
 75
0
 76
0
 77
0
 78
0
  0
ENDTAB
  0
TABLE
  2
LTYPE
  5
5
100
AcDbSymbolTable
 70
6
  0
LTYPE
  5
14
100
AcDbSymbolTableRecord
100
AcDbLinetypeTableRecord
  2
BYBLOCK
 70
0
  3

 72
65
 73
0
 40
0.0
  0
LTYPE
  5
15
100
AcDbSymbolTableRecord
100
AcDbLinetypeTableRecord
  2
BYLAYER
 70
0
  3

 72
65
 73
0
 40
0.0
  0
LTYPE
  5
16
100
AcDbSymbolTableRecord
100
AcDbLinetypeTableRecord
  2
CONTINUOUS
 70
64
  3
Solid line
 72
65
 73
0
 40
0.0
  0
LTYPE
  5
1F5
100
AcDbSymbolTableRecord
100
AcDbLinetypeTableRecord
  2
CENTER
 70
64
  3
____ _ ____ _ ____ _ ____ _ ____ _ ____ _ ____
 72
65
 73
4
 40
0.6
 49
0.375
 74
0
 49
-0.075
 74
0
 49
0.075
 74
0
 49
-0.075
 74
0
  0
LTYPE
  5
1F6
100
AcDbSymbolTableRecord
100
AcDbLinetypeTableRecord
  2
HIDDEN
 70
64
  3
- - - - - - - - - - - - - - - - - - - -
 72
65
 73
2
 40
0.2
 49
0.1
 74
0
 49
-0.1
 74
0
  0
LTYPE
  5
1F7
100
AcDbSymbolTableRecord
100
AcDbLinetypeTableRecord
  2
PHANTOM
 70
64
  3
_____ _ _ _____ _ _ _____ _ _ _____
 72
65
 73
6
 40
0.8
 49
0.45
 74
0
 49
-0.05
 74
0
 49
0.1
 74
0
 49
-0.05
 74
0
 49
0.1
 74
0
 49
-0.05
 74
0
  0
LTYPE
  5
1F8
100
AcDbSymbolTableRecord
100
AcDbLinetypeTableRecord
  2
DOT
 70
64
  3
. . . . . . . . . . . . . . . . . . . .
 72
65
 73
2
 40
0.2
 49
0.1
 74
0
 49
-0.1
 74
0
  0
LTYPE
  5
1F9
100
AcDbSymbolTableRecord
100
AcDbLinetypeTableRecord
  2
DASHED
 70
64
  3
- - - - - - - - - - - - - - - - - - - -
 72
65
 73
2
 40
0.2
 49
0.1
 74
0
 49
-0.1
 74
0
  0
ENDTAB
  0
TABLE
  2
LAYER
  5
2
100
AcDbSymbolTable
 70
36
  0
LAYER
  5
10
100
AcDbSymbolTableRecord
100
AcDbLayerTableRecord
  2
0
 70
0
 62
7
  6
CONTINUOUS
370
-3
390
F
  0
LAYER
  5
1FA
100
AcDbSymbolTableRecord
100
AcDbLayerTableRecord
  2
DEFAULT_1
 70
0
 62
7
  6
CENTER
370
-3
390
F
  0
LAYER
  5
1FB
100
AcDbSymbolTableRecord
100
AcDbLayerTableRecord
  2
DEFAULT_2
 70
0
 62
8
  6
HIDDEN
370
-3
390
F
  0
LAYER
  5
1FC
100
AcDbSymbolTableRecord
100
AcDbLayerTableRecord
  2
DEFAULT_3
 70
0
 62
7
  6
PHANTOM
370
-3
390
F
  0
LAYER
  5
1FD
100
AcDbSymbolTableRecord
100
AcDbLayerTableRecord
  2
00_COMPONENTS
 70
0
 62
7
  6
CONTINUOUS
370
-3
390
F
  0
LAYER
  5
1FE
100
AcDbSymbolTableRecord
100
AcDbLayerTableRecord
  2
00_COMPONENTS_1
 70
0
 62
7
  6
CONTINUOUS
370
-3
390
F
  0
LAYER
  5
1FF
100
AcDbSymbolTableRecord
100
AcDbLayerTableRecord
  2
00_COMPONENTS_10
 70
0
 62
7
  6
CONTINUOUS
370
-3
390
F
  0
LAYER
  5
200
100
AcDbSymbolTableRecord
100
AcDbLayerTableRecord
  2
00_COMPONENTS_11
 70
0
 62
7
  6
CONTINUOUS
370
-3
390
F
  0
LAYER
  5
201
100
AcDbSymbolTableRecord
100
AcDbLayerTableRecord
  2
00_COMPONENTS_13
 70
0
 62
7
  6
CONTINUOUS
370
-3
390
F
  0
LAYER
  5
202
100
AcDbSymbolTableRecord
100
AcDbLayerTableRecord
  2
00_COMPONENTS_14
 70
0
 62
7
  6
CONTINUOUS
370
-3
390
F
  0
LAYER
  5
203
100
AcDbSymbolTableRecord
100
AcDbLayerTableRecord
  2
00_COMPONENTS_15
 70
0
 62
7
  6
CONTINUOUS
370
-3
390
F
  0
LAYER
  5
204
100
AcDbSymbolTableRecord
100
AcDbLayerTableRecord
  2
00_COMPONENTS_16
 70
0
 62
7
  6
CONTINUOUS
370
-3
390
F
  0
LAYER
  5
205
100
AcDbSymbolTableRecord
100
AcDbLayerTableRecord
  2
00_COMPONENTS_17
 70
0
 62
7
  6
CONTINUOUS
370
-3
390
F
  0
LAYER
  5
206
100
AcDbSymbolTableRecord
100
AcDbLayerTableRecord
  2
00_COMPONENTS_18
 70
0
 62
7
  6
CONTINUOUS
370
-3
390
F
  0
LAYER
  5
207
100
AcDbSymbolTableRecord
100
AcDbLayerTableRecord
  2
00_COMPONENTS_21
 70
0
 62
7
  6
CONTINUOUS
370
-3
390
F
  0
LAYER
  5
208
100
AcDbSymbolTableRecord
100
AcDbLayerTableRecord
  2
00_COMPONENTS_24
 70
0
 62
7
  6
CONTINUOUS
370
-3
390
F
  0
LAYER
  5
209
100
AcDbSymbolTableRecord
100
AcDbLayerTableRecord
  2
00_COMPONENTS_3
 70
0
 62
7
  6
CONTINUOUS
370
-3
390
F
  0
LAYER
  5
20A
100
AcDbSymbolTableRecord
100
AcDbLayerTableRecord
  2
00_COMPONENTS_30
 70
0
 62
7
  6
CONTINUOUS
370
-3
390
F
  0
LAYER
  5
20B
100
AcDbSymbolTableRecord
100
AcDbLayerTableRecord
  2
00_COMPONENTS_4
 70
0
 62
7
  6
CONTINUOUS
370
-3
390
F
  0
LAYER
  5
20C
100
AcDbSymbolTableRecord
100
AcDbLayerTableRecord
  2
00_COMPONENTS_5
 70
0
 62
7
  6
CONTINUOUS
370
-3
390
F
  0
LAYER
  5
20D
100
AcDbSymbolTableRecord
100
AcDbLayerTableRecord
  2
00_COMPONENTS_6
 70
0
 62
7
  6
CONTINUOUS
370
-3
390
F
  0
LAYER
  5
20E
100
AcDbSymbolTableRecord
100
AcDbLayerTableRecord
  2
00_COMPONENTS_7
 70
0
 62
7
  6
CONTINUOUS
370
-3
390
F
  0
LAYER
  5
20F
100
AcDbSymbolTableRecord
100
AcDbLayerTableRecord
  2
00_COMPONENTS_8
 70
0
 62
7
  6
CONTINUOUS
370
-3
390
F
  0
LAYER
  5
210
100
AcDbSymbolTableRecord
100
AcDbLayerTableRecord
  2
00_COMPONENTS_9
 70
0
 62
7
  6
CONTINUOUS
370
-3
390
F
  0
LAYER
  5
211
100
AcDbSymbolTableRecord
100
AcDbLayerTableRecord
  2
01_1_DEFAULT_DATUMS
 70
0
 62
7
  6
CONTINUOUS
370
-3
390
F
  0
LAYER
  5
212
100
AcDbSymbolTableRecord
100
AcDbLayerTableRecord
  2
01_PLANES
 70
0
 62
7
  6
CONTINUOUS
370
-3
390
F
  0
LAYER
  5
213
100
AcDbSymbolTableRecord
100
AcDbLayerTableRecord
  2
02_COORD_SYS
 70
0
 62
7
  6
CONTINUOUS
370
-3
390
F
  0
LAYER
  5
214
100
AcDbSymbolTableRecord
100
AcDbLayerTableRecord
  2
03_AXES
 70
0
 62
7
  6
CONTINUOUS
370
-3
390
F
  0
LAYER
  5
215
100
AcDbSymbolTableRecord
100
AcDbLayerTableRecord
  2
04_POINTS
 70
0
 62
7
  6
CONTINUOUS
370
-3
390
F
  0
LAYER
  5
216
100
AcDbSymbolTableRecord
100
AcDbLayerTableRecord
  2
05_CURVES
 70
0
 62
7
  6
CONTINUOUS
370
-3
390
F
  0
LAYER
  5
217
100
AcDbSymbolTableRecord
100
AcDbLayerTableRecord
  2
06_SURFS
 70
0
 62
7
  6
CONTINUOUS
370
-3
390
F
  0
LAYER
  5
218
100
AcDbSymbolTableRecord
100
AcDbLayerTableRecord
  2
07_COSMETICS
 70
0
 62
7
  6
CONTINUOUS
370
-3
390
F
  0
LAYER
  5
219
100
AcDbSymbolTableRecord
100
AcDbLayerTableRecord
  2
10_NOTES
 70
0
 62
7
  6
CONTINUOUS
370
-3
390
F
  0
LAYER
  5
21A
100
AcDbSymbolTableRecord
100
AcDbLayerTableRecord
  2
11_NOTES_PUB
 70
0
 62
7
  6
CONTINUOUS
370
-3
390
F
  0
LAYER
  5
21B
100
AcDbSymbolTableRecord
100
AcDbLayerTableRecord
  2
13_REF_GTOL
 70
0
 62
7
  6
CONTINUOUS
370
-3
390
F
  0
LAYER
  5
21C
100
AcDbSymbolTableRecord
100
AcDbLayerTableRecord
  2
16_MISC
 70
0
 62
7
  6
CONTINUOUS
370
-3
390
F
  0
LAYER
  5
21D
100
AcDbSymbolTableRecord
100
AcDbLayerTableRecord
  2
17_NO_PRINT
 70
0
 62
7
  6
CONTINUOUS
370
-3
390
F
  0
LAYER
  5
21E
100
AcDbSymbolTableRecord
100
AcDbLayerTableRecord
  2
18_DATUM_CAMS_JOINTS
 70
0
 62
7
  6
CONTINUOUS
370
-3
390
F
  0
LAYER
  5
21F
100
AcDbSymbolTableRecord
100
AcDbLayerTableRecord
  2
19_DATUM_FUNCTIONAL
 70
0
 62
7
  6
CONTINUOUS
370
-3
390
F
  0
LAYER
  5
220
100
AcDbSymbolTableRecord
100
AcDbLayerTableRecord
  2
20_DATUM_KINEMATIC_SCHEME
 70
0
 62
7
  6
CONTINUOUS
370
-3
390
F
  0
ENDTAB
  0
TABLE
  2
STYLE
  5
3
100
AcDbSymbolTable
 70
1
  0
STYLE
  5
11
100
AcDbSymbolTableRecord
100
AcDbTextStyleTableRecord
  2
STANDARD
 70
0
 40
0.0
 41
0.8
 50
0.0
 71
0
 42
0.2
  3
txt
  4

  0
STYLE
  5
221
100
AcDbSymbolTableRecord
100
AcDbTextStyleTableRecord
  2
TEXTSTYLE_1
 70
0
 40
0.0
 41
0.8
 50
0.0
 71
0
 42
0.2
  3
gdt
  4

  0
ENDTAB
  0
TABLE
  2
VIEW
  5
6
100
AcDbSymbolTable
 70
0
  0
ENDTAB
  0
TABLE
  2
UCS
  5
7
100
AcDbSymbolTable
 70
0
  0
ENDTAB
  0
TABLE
  2
APPID
  5
9
100
AcDbSymbolTable
 70
1
  0
APPID
  5
222
100
AcDbSymbolTableRecord
100
AcDbRegAppTableRecord
  2
ACAD
 70
0
  0
ENDTAB
  0
TABLE
  2
BLOCK_RECORD
  5
1
100
AcDbSymbolTable
 70
0
  0
BLOCK_RECORD
  5
223
100
AcDbSymbolTableRecord
100
AcDbBlockTableRecord
  2
*Model_Space
  0
BLOCK_RECORD
  5
224
100
AcDbSymbolTableRecord
100
AcDbBlockTableRecord
  2
*Paper_Space
  0
BLOCK_RECORD
  5
225
100
AcDbSymbolTableRecord
100
AcDbBlockTableRecord
  2
_FILLED
  0
ENDTAB
  0
TABLE
  2
DIMSTYLE
  5
A
100
AcDbSymbolTable
 70
1
100
AcDbDimStyleTable
 71
0
  0
DIMSTYLE
105
226
100
AcDbSymbolTableRecord
100
AcDbDimStyleTableRecord
  2
STANDARD
 70
0
  3

  4

 40
1.0
 41
3.012788212
 42
1.0
 43
0.38
 44
1.0
 45
0.0
 46
0.0
 47
0.01
 48
0.01
140
4.2179034968
141
0.09
142
0.0
143
25.4
144
1.0
145
0.0
146
1.0
147
0.625
 71
1
 72
0
 73
0
 74
0
 75
0
 76
0
 77
1
 78
8
 79
2
170
0
171
1
172
0
173
0
174
0
175
0
176
0
177
0
178
0
270
2
179
2
271
2
272
2
273
2
274
2
275
0
280
0
281
0
282
0
283
1
284
8
285
0
286
0
287
3
288
0
340
11
278
46
341
225
342
225
343
225
344
225
  0
ENDTAB
  0
ENDSEC
  0
SECTION
  2
BLOCKS
  0
BLOCK
  5
20
100
AcDbEntity
  8
0
100
AcDbBlockBegin
  2
*Model_Space
 70
0
 10
0.0
 20
0.0
 30
0.0
  3
*Model_Space
  1

  0
ENDBLK
  5
21
100
AcDbEntity
  8
0
100
AcDbBlockEnd
  0
BLOCK
  5
1C
100
AcDbEntity
  8
0
100
AcDbBlockBegin
  2
*Paper_Space
 70
0
 10
0.0
 20
0.0
 30
0.0
  3
*Paper_Space
  1

  0
ENDBLK
  5
1D
100
AcDbEntity
  8
0
100
AcDbBlockEnd
  0
BLOCK
  5
227
100
AcDbEntity
  8
0
100
AcDbBlockBegin
  2
_FILLED
 70
64
 10
0.0
 20
0.0
  3
_FILLED
  1

  0
SOLID
  5
228
100
AcDbEntity
  8
0
  6
BYBLOCK
 62
0
100
AcDbTrace
 10
0.0
 20
0.0
 11
-1.0
 21
0.25
 12
-1.0
 22
-0.25
 13
-1.0
 23
-0.25
  0
ENDBLK
  5
229
100
AcDbEntity
  8
0
  6
BYBLOCK
 62
0
100
AcDbBlockEnd
  0
ENDSEC
  0
SECTION
  2
ENTITIES
  0
LINE
  5
22A
100
AcDbEntity
  8
00_COMPONENTS_5
100
AcDbLine
 62
7
  6
CONTINUOUS
 10
202.9734336688
 20
33.3868928108
 11
200.352147127
 21
32.6624575043
  0
LINE
  5
22B
100
AcDbEntity
  8
00_COMPONENTS_6
100
AcDbLine
 62
7
  6
CONTINUOUS
 10
73.2203512216
 20
29.160016866
 11
73.2238984733
 21
29.1593156039
  0
LINE
  5
22C
100
AcDbEntity
  8
00_COMPONENTS_6
100
AcDbLine
 62
7
  6
CONTINUOUS
 10
73.2205778295
 20
29.1592460631
 11
73.224130336
 21
29.15852854
  0
LINE
  5
22D
100
AcDbEntity
  8
00_COMPONENTS_6
100
AcDbLine
 62
7
  6
CONTINUOUS
 10
141.8628491601
 20
29.1640905833
 11
141.8577877129
 21
29.1630491265
  0
LINE
  5
22E
100
AcDbEntity
  8
00_COMPONENTS_6
100
AcDbLine
 62
7
  6
CONTINUOUS
 10
141.8631018381
 20
29.1592417406
 11
141.8588584456
 21
29.158384985
  0
LINE
  5
22F
100
AcDbEntity
  8
00_COMPONENTS_6
100
AcDbLine
 62
7
  6
CONTINUOUS
 10
141.86332848
 20
29.1600126493
 11
141.8590912696
 21
29.1591749881
  0
LINE
  5
230
100
AcDbEntity
  8
00_COMPONENTS_6
100
AcDbLine
 62
7
  6
CONTINUOUS
 10
141.8631706559
 20
29.1651967641
 11
141.8581242346
 21
29.164203607
  0
LINE
  5
231
100
AcDbEntity
  8
00_COMPONENTS_6
100
AcDbLine
 62
7
  6
CONTINUOUS
 10
141.70311926
 20
29.1336920671
 11
141.7518708795
 21
29.1379784092
  0
LINE
  5
232
100
AcDbEntity
  8
00_COMPONENTS_6
100
AcDbLine
 62
7
  6
CONTINUOUS
 10
141.7031187673
 20
29.1336978742
 11
141.7135663967
 21
29.1345847637
  0
LINE
  5
233
100
AcDbEntity
  8
00_COMPONENTS_6
100
AcDbLine
 62
7
  6
CONTINUOUS
 10
143.1039569539
 20
29.338116097
 11
143.038612385
 21
29.338116097
  0
LINE
  5
234
100
AcDbEntity
  8
00_COMPONENTS_6
100
AcDbLine
 62
7
  6
CONTINUOUS
 10
141.5568505157
 20
29.338116097
 11
140.5268505157
 21
29.338116097
  0
LINE
  5
235
100
AcDbEntity
  8
00_COMPONENTS_6
100
AcDbLine
 62
7
  6
CONTINUOUS
 10
139.0450886463
 20
29.338116097
 11
138.9797440774
 21
29.338116097
  0
LINE
  5
236
100
AcDbEntity
  8
00_COMPONENTS_6
100
AcDbLine
 62
7
  6
CONTINUOUS
 10
76.1039569539
 20
29.338116097
 11
76.038612385
 21
29.338116097
  0
LINE
  5
237
100
AcDbEntity
  8
00_COMPONENTS_6
100
AcDbLine
 62
7
  6
CONTINUOUS
 10
74.5568505157
 20
29.338116097
 11
73.5268505157
 21
29.338116097
  0
LINE
  5
238
100
AcDbEntity
  8
00_COMPONENTS_6
100
AcDbLine
 62
7
  6
CONTINUOUS
 10
72.0450886463
 20
29.338116097
 11
71.9797440774
 21
29.338116097
  0
LINE
  5
239
100
AcDbEntity
  8
00_COMPONENTS_7
100
AcDbLine
 62
7
  6
CONTINUOUS
 10
52.7418505156
 20
29.6624575043
 11
174.3418505157
 21
29.6624575043
  0
LINE
  5
23A
100
AcDbEntity
  8
00_COMPONENTS_7
100
AcDbLine
 62
7
  6
CONTINUOUS
 10
52.7418505156
 20
30.6624575043
 11
174.3418505157
 21
30.6624575043
  0
LINE
  5
23B
100
AcDbEntity
  8
00_COMPONENTS_5
100
AcDbLine
 62
7
  6
CONTINUOUS
 10
184.652147127
 20
31.6624575043
 11
200.352147127
 21
31.6624575043
  0
LINE
  5
23C
100
AcDbEntity
  8
00_COMPONENTS_5
100
AcDbLine
 62
7
  6
CONTINUOUS
 10
184.6521471271
 20
32.6624575043
 11
200.352147127
 21
32.6624575043
  0
LINE
  5
23D
100
AcDbEntity
  8
00_COMPONENTS_6
100
AcDbLine
 62
7
  6
CONTINUOUS
 10
74.8628491601
 20
29.1640905833
 11
74.8577877129
 21
29.1630491265
  0
LINE
  5
23E
100
AcDbEntity
  8
00_COMPONENTS_6
100
AcDbLine
 62
7
  6
CONTINUOUS
 10
74.8631018381
 20
29.1592417406
 11
74.8588584456
 21
29.158384985
  0
LINE
  5
23F
100
AcDbEntity
  8
00_COMPONENTS_6
100
AcDbLine
 62
7
  6
CONTINUOUS
 10
74.86332848
 20
29.1600126493
 11
74.8590912696
 21
29.1591749881
  0
LINE
  5
240
100
AcDbEntity
  8
00_COMPONENTS_6
100
AcDbLine
 62
7
  6
CONTINUOUS
 10
74.8631706559
 20
29.1651967641
 11
74.8581242346
 21
29.164203607
  0
LINE
  5
241
100
AcDbEntity
  8
00_COMPONENTS_6
100
AcDbLine
 62
7
  6
CONTINUOUS
 10
74.70311926
 20
29.1336920671
 11
74.7518708795
 21
29.1379784092
  0
LINE
  5
242
100
AcDbEntity
  8
00_COMPONENTS_6
100
AcDbLine
 62
7
  6
CONTINUOUS
 10
74.7031187673
 20
29.1336978742
 11
74.7135663967
 21
29.1345847637
  0
LINE
  5
243
100
AcDbEntity
  8
00_COMPONENTS_6
100
AcDbLine
 62
7
  6
CONTINUOUS
 10
140.2203512216
 20
29.160016866
 11
140.2238984733
 21
29.1593156039
  0
LINE
  5
244
100
AcDbEntity
  8
00_COMPONENTS_6
100
AcDbLine
 62
7
  6
CONTINUOUS
 10
140.2205778295
 20
29.1592460631
 11
140.224130336
 21
29.15852854
  0
LINE
  5
245
100
AcDbEntity
  8
00_COMPONENTS_7
100
AcDbLine
 62
7
  6
CONTINUOUS
 10
179.9234685064
 20
49.199517863
 11
183.5521471271
 21
48.494174191
  0
LINE
  5
246
100
AcDbEntity
  8
00_COMPONENTS_7
100
AcDbLine
 62
7
  6
CONTINUOUS
 10
183.5521471271
 20
49.4758013745
 11
179.9234685065
 21
50.1811450465
  0
LINE
  5
247
100
AcDbEntity
  8
00_COMPONENTS_7
100
AcDbLine
 62
7
  6
CONTINUOUS
 10
50.5418505157
 20
31.8624591914
 11
50.5418505157
 21
327.4624558172
  0
LINE
  5
248
100
AcDbEntity
  8
00_COMPONENTS_5
100
AcDbLine
 62
7
  6
CONTINUOUS
 10
202.9734336686
 20
326.2979021005
 11
202.6049209331
 21
326.0398667052
  0
LINE
  5
249
100
AcDbEntity
  8
00_COMPONENTS_5
100
AcDbLine
 62
7
  6
CONTINUOUS
 10
202.9734336688
 20
33.027012908
 11
202.6049209331
 21
33.2850483034
  0
LINE
  5
24A
100
AcDbEntity
  8
00_COMPONENTS_7
100
AcDbLine
 62
7
  6
CONTINUOUS
 10
52.7418505156
 20
329.6624575043
 11
52.7418505156
 21
29.6624575043
  0
LINE
  5
24B
100
AcDbEntity
  8
00_COMPONENTS_6
100
AcDbLine
 62
7
  6
CONTINUOUS
 10
74.8641299142
 20
29.1336875996
 11
74.8631706559
 21
29.1651967641
  0
LINE
  5
24C
100
AcDbEntity
  8
00_COMPONENTS_6
100
AcDbLine
 62
7
  6
CONTINUOUS
 10
73.5268505157
 20
29.338116097
 11
73.5268505157
 21
29.1383566148
  0
LINE
  5
24D
100
AcDbEntity
  8
00_COMPONENTS_6
100
AcDbLine
 62
7
  6
CONTINUOUS
 10
74.5568505157
 20
29.1383566148
 11
74.5568505157
 21
29.338116097
  0
LINE
  5
24E
100
AcDbEntity
  8
00_COMPONENTS_6
100
AcDbLine
 62
7
  6
CONTINUOUS
 10
73.2195528127
 20
29.1329613617
 11
73.2196802875
 21
29.1379784092
  0
LINE
  5
24F
100
AcDbEntity
  8
00_COMPONENTS_6
100
AcDbLine
 62
7
  6
CONTINUOUS
 10
73.2196802875
 20
29.1379784092
 11
73.2203512216
 21
29.160016866
  0
LINE
  5
250
100
AcDbEntity
  8
00_COMPONENTS_30
100
AcDbLine
 62
7
  6
CONTINUOUS
 10
204.3907624109
 20
149.8917425953
 11
205.1332087032
 21
150.0628875289
  0
LINE
  5
251
100
AcDbEntity
  8
00_COMPONENTS_30
100
AcDbLine
 62
7
  6
CONTINUOUS
 10
204.3907613327
 20
149.8917425577
 11
203.5521471271
 21
149.8624575043
  0
LINE
  5
252
100
AcDbEntity
  8
00_COMPONENTS_30
100
AcDbLine
 62
7
  6
CONTINUOUS
 10
209.5324175522
 20
156.6484060356
 11
209.5419138292
 21
156.6484091125
  0
LINE
  5
253
100
AcDbEntity
  8
00_COMPONENTS_6
100
AcDbLine
 62
7
  6
CONTINUOUS
 10
141.8641299142
 20
29.1336875996
 11
141.8631706559
 21
29.1651967641
  0
LINE
  5
254
100
AcDbEntity
  8
00_COMPONENTS_6
100
AcDbLine
 62
7
  6
CONTINUOUS
 10
140.5268505157
 20
29.338116097
 11
140.5268505157
 21
29.1383566148
  0
LINE
  5
255
100
AcDbEntity
  8
00_COMPONENTS_6
100
AcDbLine
 62
7
  6
CONTINUOUS
 10
141.5568505157
 20
29.1383566148
 11
141.5568505157
 21
29.338116097
  0
LINE
  5
256
100
AcDbEntity
  8
00_COMPONENTS_30
100
AcDbLine
 62
7
  6
CONTINUOUS
 10
209.5419138292
 20
191.6479214603
 11
209.5324200023
 21
191.6479214603
  0
LINE
  5
257
100
AcDbEntity
  8
00_COMPONENTS_6
100
AcDbLine
 62
7
  6
CONTINUOUS
 10
140.2195528127
 20
29.1329613617
 11
140.2196802875
 21
29.1379784092
  0
LINE
  5
258
100
AcDbEntity
  8
00_COMPONENTS_6
100
AcDbLine
 62
7
  6
CONTINUOUS
 10
140.2196802875
 20
29.1379784092
 11
140.2203512216
 21
29.160016866
  0
LINE
  5
259
100
AcDbEntity
  8
00_COMPONENTS_30
100
AcDbLine
 62
7
  6
CONTINUOUS
 10
209.5419138292
 20
193.0765125228
 11
209.5324186837
 21
193.0765125228
  0
LINE
  5
25A
100
AcDbEntity
  8
00_COMPONENTS_30
100
AcDbLine
 62
7
  6
CONTINUOUS
 10
204.3907613327
 20
199.8331724509
 11
203.5521471271
 21
199.8624575043
  0
LINE
  5
25B
100
AcDbEntity
  8
00_COMPONENTS_7
100
AcDbLine
 62
7
  6
CONTINUOUS
 10
174.3418505156
 20
29.6624575043
 11
174.3418505157
 21
329.6624575043
  0
LINE
  5
25C
100
AcDbEntity
  8
00_COMPONENTS_30
100
AcDbLine
 62
7
  6
CONTINUOUS
 10
204.3907624109
 20
199.8331724133
 11
205.1332087032
 21
199.6620274797
  0
LINE
  5
25D
100
AcDbEntity
  8
00_COMPONENTS_7
100
AcDbLine
 62
7
  6
CONTINUOUS
 10
177.5418505157
 20
326.4624575043
 11
177.5418505157
 21
32.8624575043
  0
LINE
  5
25E
100
AcDbEntity
  8
00_COMPONENTS_7
100
AcDbLine
 62
7
  6
CONTINUOUS
 10
179.9234703899
 20
309.1437667568
 11
179.9234685065
 21
50.1811450465
  0
LINE
  5
25F
100
AcDbEntity
  8
00_COMPONENTS_5
100
AcDbLine
 62
7
  6
CONTINUOUS
 10
183.5521471271
 20
325.7707042204
 11
183.5521471271
 21
33.5542107882
  0
LINE
  5
260
100
AcDbEntity
  8
00_COMPONENTS_5
100
AcDbLine
 62
7
  6
CONTINUOUS
 10
184.652147127
 20
327.6624575043
 11
184.652147127
 21
31.6624575043
  0
LINE
  5
261
100
AcDbEntity
  8
00_COMPONENTS_6
100
AcDbLine
 62
7
  6
CONTINUOUS
 10
74.7518708795
 20
29.1379784092
 11
74.7574532079
 21
29.1443911223
  0
LINE
  5
262
100
AcDbEntity
  8
00_COMPONENTS_5
100
AcDbLine
 62
7
  6
CONTINUOUS
 10
194.8842571832
 20
31.6624575043
 11
194.8842571832
 21
327.6624575043
  0
LINE
  5
263
100
AcDbEntity
  8
00_COMPONENTS_5
100
AcDbLine
 62
7
  6
CONTINUOUS
 10
196.6863916806
 20
327.6624575043
 11
196.6863916806
 21
326.6624575043
  0
LINE
  5
264
100
AcDbEntity
  8
00_COMPONENTS_5
100
AcDbLine
 62
7
  6
CONTINUOUS
 10
196.6863916806
 20
32.6624575043
 11
196.6863916806
 21
31.6624575043
  0
LINE
  5
265
100
AcDbEntity
  8
00_COMPONENTS_5
100
AcDbLine
 62
7
  6
CONTINUOUS
 10
197.5055437249
 20
326.6624575043
 11
197.5055437249
 21
32.6624575043
  0
LWPOLYLINE
  5
266
100
AcDbEntity
  8
00_COMPONENTS_30
100
AcDbPolyline
 62
7
  6
CONTINUOUS
 90
3
 70
0
 10
209.2109931407
 20
191.8234217771
 10
209.1661170559
 20
192.2942139168
 10
209.152147437
 20
192.6140244226
  0
LWPOLYLINE
  5
267
100
AcDbEntity
  8
00_COMPONENTS_30
100
AcDbPolyline
 62
7
  6
CONTINUOUS
 90
3
 70
0
 10
209.5417071794
 20
191.6570108138
 10
209.4551459798
 20
192.6494097657
 10
209.3435680909
 20
193.4088670911
  0
LWPOLYLINE
  5
268
100
AcDbEntity
  8
00_COMPONENTS_30
100
AcDbPolyline
 62
7
  6
CONTINUOUS
 90
4
 70
0
 10
209.5416435266
 20
193.0867816653
 10
209.5089269118
 20
193.5095028886
 10
209.3581191198
 20
194.4634227708
 10
209.2742503465
 20
194.8243459137
  0
LWPOLYLINE
  5
269
100
AcDbEntity
  8
00_COMPONENTS_30
100
AcDbPolyline
 62
7
  6
CONTINUOUS
 90
4
 70
0
 10
209.3560891888
 20
189.6038200129
 10
209.3131052205
 20
190.6091682809
 10
209.2788945228
 20
191.0978213227
 10
209.2109904392
 20
191.8235082624
  0
LINE
  5
26A
100
AcDbEntity
  8
00_COMPONENTS_30
100
AcDbLine
 62
7
  6
CONTINUOUS
 10
209.3459880603
 20
189.603634397
 11
209.3458136763
 21
189.6102030106
  0
LINE
  5
26B
100
AcDbEntity
  8
00_COMPONENTS_30
100
AcDbLine
 62
7
  6
CONTINUOUS
 10
209.3459466703
 20
189.6036157299
 11
209.3458136763
 21
189.6102030106
  0
LINE
  5
26C
100
AcDbEntity
  8
00_COMPONENTS_30
100
AcDbLine
 62
7
  6
CONTINUOUS
 10
209.1521474253
 20
157.110757438
 11
209.1521471273
 21
157.1120537361
  0
LINE
  5
26D
100
AcDbEntity
  8
00_COMPONENTS_5
100
AcDbLine
 62
7
  6
CONTINUOUS
 10
200.352147127
 20
31.6624575043
 11
200.352147127
 21
32.6624575043
  0
LINE
  5
26E
100
AcDbEntity
  8
00_COMPONENTS_5
100
AcDbLine
 62
7
  6
CONTINUOUS
 10
200.352147127
 20
326.6624575043
 11
200.352147127
 21
327.6624575043
  0
LINE
  5
26F
100
AcDbEntity
  8
00_COMPONENTS_5
100
AcDbLine
 62
7
  6
CONTINUOUS
 10
202.9734336688
 20
33.3868928108
 11
202.9734336688
 21
325.9380221978
  0
LINE
  5
270
100
AcDbEntity
  8
00_COMPONENTS_5
100
AcDbLine
 62
7
  6
CONTINUOUS
 10
203.5521471271
 20
324.4624575043
 11
203.5521471271
 21
34.8624575043
  0
LINE
  5
271
100
AcDbEntity
  8
00_COMPONENTS_30
100
AcDbLine
 62
7
  6
CONTINUOUS
 10
204.3907624109
 20
149.8917425953
 11
204.3907624109
 21
152.760605155
  0
LINE
  5
272
100
AcDbEntity
  8
00_COMPONENTS_30
100
AcDbLine
 62
7
  6
CONTINUOUS
 10
204.3907624109
 20
196.9643113595
 11
204.3907624109
 21
199.8331724133
  0
LINE
  5
273
100
AcDbEntity
  8
00_COMPONENTS_30
100
AcDbLine
 62
7
  6
CONTINUOUS
 10
205.1332143191
 20
199.6620249839
 11
205.1332143191
 21
196.8127886827
  0
LINE
  5
274
100
AcDbEntity
  8
00_COMPONENTS_30
100
AcDbLine
 62
7
  6
CONTINUOUS
 10
205.1332143191
 20
152.9121219474
 11
205.1332143191
 21
150.0628900247
  0
LINE
  5
275
100
AcDbEntity
  8
00_COMPONENTS_30
100
AcDbLine
 62
7
  6
CONTINUOUS
 10
205.6917452919
 20
159.6320363141
 11
205.6917452919
 21
190.0928776934
  0
LINE
  5
276
100
AcDbEntity
  8
00_COMPONENTS_30
100
AcDbLine
 62
7
  6
CONTINUOUS
 10
209.515289045
 20
174.4902615745
 11
209.5153149049
 21
175.2195732937
  0
LINE
  5
277
100
AcDbEntity
  8
00_COMPONENTS_30
100
AcDbLine
 62
7
  6
CONTINUOUS
 10
209.5172662772
 20
174.4902539317
 11
209.5172719568
 21
175.2195805533
  0
LINE
  5
278
100
AcDbEntity
  8
00_COMPONENTS_30
100
AcDbLine
 62
7
  6
CONTINUOUS
 10
209.532418684
 20
193.0764809854
 11
209.532418684
 21
191.7635007101
  0
LINE
  5
279
100
AcDbEntity
  8
00_COMPONENTS_30
100
AcDbLine
 62
7
  6
CONTINUOUS
 10
209.5324200024
 20
191.6479002771
 11
209.5324200024
 21
183.223425391
  0
LINE
  5
27A
100
AcDbEntity
  8
00_COMPONENTS_30
100
AcDbLine
 62
7
  6
CONTINUOUS
 10
209.5324157872
 20
157.918170415
 11
209.5324155893
 21
156.6484132488
  0
LINE
  5
27B
100
AcDbEntity
  8
00_COMPONENTS_30
100
AcDbLine
 62
7
  6
CONTINUOUS
 10
209.5324257469
 20
176.1014713568
 11
209.5324327748
 21
158.0775020093
  0
LINE
  5
27C
100
AcDbEntity
  8
00_COMPONENTS_30
100
AcDbLine
 62
7
  6
CONTINUOUS
 10
209.5419138292
 20
193.0765125228
 11
209.5419138292
 21
191.6570108138
  0
LINE
  5
27D
100
AcDbEntity
  8
00_COMPONENTS_30
100
AcDbLine
 62
7
  6
CONTINUOUS
 10
209.5419138292
 20
191.6479214603
 11
209.5419138292
 21
183.3503182665
  0
LINE
  5
27E
100
AcDbEntity
  8
00_COMPONENTS_30
100
AcDbLine
 62
7
  6
CONTINUOUS
 10
209.5419138292
 20
175.974596742
 11
209.5419138292
 21
156.6484060356
  0
LINE
  5
27F
100
AcDbEntity
  8
00_COMPONENTS_30
100
AcDbLine
 62
7
  6
CONTINUOUS
 10
209.1521471272
 20
192.6128390707
 11
209.1521473946
 21
192.6140656315
  0
LINE
  5
280
100
AcDbEntity
  8
00_COMPONENTS_30
100
AcDbLine
 62
7
  6
CONTINUOUS
 10
209.1521471271
 20
194.6126450939
 11
209.1521471299
 21
194.6126980137
  0
LINE
  5
281
100
AcDbEntity
  8
00_COMPONENTS_30
100
AcDbLine
 62
7
  6
CONTINUOUS
 10
209.1521471271
 20
155.1120100347
 11
209.1521473882
 21
155.1125401741
  0
LWPOLYLINE
  5
282
100
AcDbEntity
  8
00_COMPONENTS_30
100
AcDbPolyline
 62
7
  6
CONTINUOUS
 90
3
 70
0
 10
209.3560791532
 20
160.1211033221
 10
209.5193405656
 20
174.8559231527
 10
209.356079265
 20
189.6038117332
  0
LINE
  5
283
100
AcDbEntity
  8
00_COMPONENTS_30
100
AcDbLine
 62
7
  6
CONTINUOUS
 10
209.3458136494
 20
160.1147103206
 11
209.3459471525
 21
160.1213083313
  0
LINE
  5
284
100
AcDbEntity
  8
00_COMPONENTS_30
100
AcDbLine
 62
7
  6
CONTINUOUS
 10
209.3458136494
 20
160.1147103206
 11
209.3459882367
 21
160.1212897442
  0
LWPOLYLINE
  5
285
100
AcDbEntity
  8
00_COMPONENTS_30
100
AcDbPolyline
 62
7
  6
CONTINUOUS
 90
3
 70
0
 10
209.1521447448
 20
157.1108192793
 10
209.1658740486
 20
157.427413457
 10
209.2782692721
 20
158.6191970103
  0
LWPOLYLINE
  5
286
100
AcDbEntity
  8
00_COMPONENTS_30
100
AcDbPolyline
 62
7
  6
CONTINUOUS
 90
9
 70
0
 10
209.1521592195
 20
155.1125879275
 10
209.1545743893
 20
155.1635673529
 10
209.1773473436
 20
155.3483325732
 10
209.2290953918
 20
155.6592975105
 10
209.266154215
 20
155.8685383648
 10
209.3554467995
 20
156.3882421807
 10
209.4494854022
 20
157.0305820866
 10
209.5239054981
 20
157.7705586061
 10
209.5407765672
 20
158.063188974
  0
LWPOLYLINE
  5
287
100
AcDbEntity
  8
00_COMPONENTS_30
100
AcDbPolyline
 62
7
  6
CONTINUOUS
 90
3
 70
0
 10
209.2782692721
 20
158.6191970103
 10
209.3125982512
 20
159.1074657655
 10
209.3560892142
 20
160.1210943761
  0
LINE
  5
288
100
AcDbEntity
  8
00_COMPONENTS_7
100
AcDbLine
 62
7
  6
CONTINUOUS
 10
180.1142775018
 20
50.1811450464
 11
179.9234685064
 21
49.1995178629
  0
LINE
  5
289
100
AcDbEntity
  8
00_COMPONENTS_30
100
AcDbLine
 62
7
  6
CONTINUOUS
 10
209.151518168
 20
195.2670152099
 11
209.1410661553
 21
195.3014290967
  0
LINE
  5
28A
100
AcDbEntity
  8
00_COMPONENTS_30
100
AcDbLine
 62
7
  6
CONTINUOUS
 10
209.1594622531
 20
195.2377434232
 11
209.1451238548
 21
195.2881169861
  0
LINE
  5
28B
100
AcDbEntity
  8
00_COMPONENTS_30
100
AcDbLine
 62
7
  6
CONTINUOUS
 10
209.2742503465
 20
194.8243459137
 11
209.1589144814
 21
195.2428249982
  0
LINE
  5
28C
100
AcDbEntity
  8
00_COMPONENTS_7
100
AcDbLine
 62
7
  6
CONTINUOUS
 10
179.9234685064
 20
310.1253971456
 11
180.1142775017
 21
309.1437699621
  0
LWPOLYLINE
  5
28D
100
AcDbEntity
  8
00_COMPONENTS_30
100
AcDbPolyline
 62
7
  6
CONTINUOUS
 90
4
 70
0
 10
209.3435680909
 20
193.4088670911
 10
209.1915479058
 20
194.2859173694
 10
209.161262631
 20
194.4948701369
 10
209.1521567229
 20
194.6125751399
  0
LINE
  5
28E
100
AcDbEntity
  8
00_COMPONENTS_30
100
AcDbLine
 62
7
  6
CONTINUOUS
 10
209.5416298078
 20
191.6576466017
 11
209.5417063103
 21
191.6570299448
  0
LINE
  5
28F
100
AcDbEntity
  8
00_COMPONENTS_30
100
AcDbLine
 62
7
  6
CONTINUOUS
 10
209.2109904392
 20
191.8235082624
 11
209.2109998694
 21
191.8234225594
  0
LINE
  5
290
100
AcDbEntity
  8
00_COMPONENTS_30
100
AcDbLine
 62
7
  6
CONTINUOUS
 10
209.210981426
 20
157.901382045
 11
209.2109915778
 21
157.9014736995
  0
LINE
  5
291
100
AcDbEntity
  8
00_COMPONENTS_30
100
AcDbLine
 62
7
  6
CONTINUOUS
 10
209.5409788619
 20
158.0551241271
 11
209.5397716192
 21
158.0457580513
  0
LWPOLYLINE
  5
292
100
AcDbEntity
  8
00_COMPONENTS_30
100
AcDbPolyline
 62
7
  6
CONTINUOUS
 90
5
 70
0
 10
209.1592824472
 20
154.4832694508
 10
209.273870348
 20
154.8990828092
 10
209.3576409364
 20
155.2592372744
 10
209.5082963953
 20
156.2092598101
 10
209.5416263312
 20
156.6381742619
  0
LINE
  5
293
100
AcDbEntity
  8
00_COMPONENTS_30
100
AcDbLine
 62
7
  6
CONTINUOUS
 10
209.1469179531
 20
154.4427075803
 11
209.1594612252
 21
154.4870937904
  0
LINE
  5
294
100
AcDbEntity
  8
00_COMPONENTS_30
100
AcDbLine
 62
7
  6
CONTINUOUS
 10
209.1411237042
 20
154.4236157606
 11
209.1527738007
 21
154.462073791
  0
LINE
  5
295
100
AcDbEntity
  8
00_COMPONENTS_6
100
AcDbLine
 62
7
  6
CONTINUOUS
 10
141.7518708795
 20
29.1379784092
 11
141.7574532079
 21
29.1443911223
  0
LINE
  5
296
100
AcDbEntity
  8
00_COMPONENTS_7
100
AcDbLine
 62
7
  6
CONTINUOUS
 10
179.9234703899
 20
309.1437667568
 11
183.5521471271
 21
309.8491112143
  0
LINE
  5
297
100
AcDbEntity
  8
00_COMPONENTS_7
100
AcDbLine
 62
7
  6
CONTINUOUS
 10
183.5521471271
 20
310.8307408177
 11
179.9234685064
 21
310.1253971456
  0
LINE
  5
298
100
AcDbEntity
  8
00_COMPONENTS_5
100
AcDbLine
 62
7
  6
CONTINUOUS
 10
184.652147127
 20
326.6624575043
 11
200.352147127
 21
326.6624575043
  0
LINE
  5
299
100
AcDbEntity
  8
00_COMPONENTS_5
100
AcDbLine
 62
7
  6
CONTINUOUS
 10
200.352147127
 20
327.6624575043
 11
184.6521471271
 21
327.6624575043
  0
LINE
  5
29A
100
AcDbEntity
  8
00_COMPONENTS_7
100
AcDbLine
 62
7
  6
CONTINUOUS
 10
52.7418505156
 20
328.6624575043
 11
174.3418505157
 21
328.6624575043
  0
LINE
  5
29B
100
AcDbEntity
  8
00_COMPONENTS_7
100
AcDbLine
 62
7
  6
CONTINUOUS
 10
52.7418505156
 20
329.6624575043
 11
174.3418505157
 21
329.6624575043
  0
LINE
  5
29C
100
AcDbEntity
  8
00_COMPONENTS_5
100
AcDbLine
 62
7
  6
CONTINUOUS
 10
200.352147127
 20
326.6624575043
 11
202.9734336688
 21
325.9380221978
  0
ARC
  5
29D
100
AcDbEntity
  8
00_COMPONENTS_30
100
AcDbCircle
 62
7
  6
CONTINUOUS
 10
-141.4964402256
 20
169.4036933828
 40
350.9652014469
100
AcDbArc
 50
358.4844520931
 51
358.6648659418
  0
ARC
  5
29E
100
AcDbEntity
  8
00_COMPONENTS_30
100
AcDbCircle
 62
7
  6
CONTINUOUS
 10
-140.8701384145
 20
180.3333161786
 40
350.3387989403
100
AcDbArc
 50
1.3348548419
 51
1.5162811361
  0
ARC
  5
29F
100
AcDbEntity
  8
00_COMPONENTS_6
100
AcDbCircle
 62
7
  6
CONTINUOUS
 10
74.0418505157
 20
36.9132387543
 40
7.85078125
100
AcDbArc
 50
247.7363165305
 51
254.7718910881
  0
ARC
  5
2A0
100
AcDbEntity
  8
00_COMPONENTS_6
100
AcDbCircle
 62
7
  6
CONTINUOUS
 10
74.0418505157
 20
36.9132387543
 40
7.85078125
100
AcDbArc
 50
285.2281089067
 51
292.2294220766
  0
ARC
  5
2A1
100
AcDbEntity
  8
00_COMPONENTS_6
100
AcDbCircle
 62
7
  6
CONTINUOUS
 10
74.0418505157
 20
36.9132387543
 40
7.8338714079
100
AcDbArc
 50
277.035724314
 51
284.7669642634
  0
ARC
  5
2A2
100
AcDbEntity
  8
00_COMPONENTS_6
100
AcDbCircle
 62
7
  6
CONTINUOUS
 10
74.0418505157
 20
36.9132387543
 40
7.8338714079
100
AcDbArc
 50
255.2330357366
 51
262.964275686
  0
ARC
  5
2A3
100
AcDbEntity
  8
00_COMPONENTS_6
100
AcDbCircle
 62
7
  6
CONTINUOUS
 10
74.0422409686
 20
36.938599715
 40
7.832903439
100
AcDbArc
 50
264.7963673976
 51
265.2180422598
  0
ARC
  5
2A4
100
AcDbEntity
  8
00_COMPONENTS_6
100
AcDbCircle
 62
7
  6
CONTINUOUS
 10
74.3637862382
 20
34.7748051016
 40
5.7307441734
100
AcDbArc
 50
254.1312029905
 51
258.4930438549
  0
ARC
  5
2A5
100
AcDbEntity
  8
00_COMPONENTS_6
100
AcDbCircle
 62
7
  6
CONTINUOUS
 10
73.7998203142
 20
34.3156956106
 40
5.2601388581
100
AcDbArc
 50
279.8875643752
 51
281.6029979853
  0
ARC
  5
2A6
100
AcDbEntity
  8
00_COMPONENTS_6
100
AcDbCircle
 62
7
  6
CONTINUOUS
 10
74.2620621788
 20
34.3056631346
 40
5.2507425232
100
AcDbArc
 50
258.5990644961
 51
259.7955024518
  0
ARC
  5
2A7
100
AcDbEntity
  8
00_COMPONENTS_6
100
AcDbCircle
 62
7
  6
CONTINUOUS
 10
73.8217631466
 20
34.3050062878
 40
5.2500740465
100
AcDbArc
 50
280.2044325088
 51
281.3930934826
  0
ARC
  5
2A8
100
AcDbEntity
  8
00_COMPONENTS_6
100
AcDbCircle
 62
7
  6
CONTINUOUS
 10
74.7797140377
 20
33.0647545128
 40
3.9327177121
100
AcDbArc
 50
266.7513601303
 51
268.7575826022
  0
ARC
  5
2A9
100
AcDbEntity
  8
00_COMPONENTS_6
100
AcDbCircle
 62
7
  6
CONTINUOUS
 10
73.3039869936
 20
33.0647545128
 40
3.9327177121
100
AcDbArc
 50
271.2424173978
 51
273.2486398697
  0
ARC
  5
2AA
100
AcDbEntity
  8
00_COMPONENTS_6
100
AcDbCircle
 62
7
  6
CONTINUOUS
 10
74.7794539789
 20
33.0363193512
 40
3.9042767203
100
AcDbArc
 50
271.2429967188
 51
273.2589493847
  0
ARC
  5
2AB
100
AcDbEntity
  8
00_COMPONENTS_6
100
AcDbCircle
 62
7
  6
CONTINUOUS
 10
73.3042470524
 20
33.0363193512
 40
3.9042767203
100
AcDbArc
 50
266.7410506153
 51
268.7570032812
  0
ARC
  5
2AC
100
AcDbEntity
  8
00_COMPONENTS_6
100
AcDbCircle
 62
7
  6
CONTINUOUS
 10
74.2489797794
 20
32.1160608973
 40
3.0451535552
100
AcDbArc
 50
281.6544973822
 51
284.195477626
  0
ARC
  5
2AD
100
AcDbEntity
  8
00_COMPONENTS_7
100
AcDbCircle
 62
7
  6
CONTINUOUS
 10
52.7418505157
 20
31.8624575043
 40
2.2
100
AcDbArc
 50
180.0
 51
269.9999999999
  0
ARC
  5
2AE
100
AcDbEntity
  8
00_COMPONENTS_7
100
AcDbCircle
 62
7
  6
CONTINUOUS
 10
52.7418505157
 20
31.8624575043
 40
1.2
100
AcDbArc
 50
232.1514410369
 51
270.0
  0
ARC
  5
2AF
100
AcDbEntity
  8
00_COMPONENTS_7
100
AcDbCircle
 62
7
  6
CONTINUOUS
 10
139.9613105238
 20
97.3695721021
 40
61.8363533221
100
AcDbArc
 50
309.7981615168
 51
310.2054112911
  0
ARC
  5
2B0
100
AcDbEntity
  8
00_COMPONENTS_5
100
AcDbCircle
 62
7
  6
CONTINUOUS
 10
210.918692372
 20
83.6131124137
 40
57.3227758818
100
AcDbArc
 50
242.5861648782
 51
242.7275774352
  0
ARC
  5
2B1
100
AcDbEntity
  8
00_COMPONENTS_7
100
AcDbCircle
 62
7
  6
CONTINUOUS
 10
156.0375622449
 20
92.6461047009
 40
48.8155886759
100
AcDbArc
 50
299.358433909
 51
299.4869486964
  0
ARC
  5
2B2
100
AcDbEntity
  8
00_COMPONENTS_7
100
AcDbCircle
 62
7
  6
CONTINUOUS
 10
161.7152787259
 20
71.5802380139
 40
28.0973193545
100
AcDbArc
 50
310.2737566213
 51
310.3939966481
  0
ARC
  5
2B3
100
AcDbEntity
  8
00_COMPONENTS_6
100
AcDbCircle
 62
7
  6
CONTINUOUS
 10
141.0418505157
 20
36.9132387543
 40
7.85078125
100
AcDbArc
 50
247.7363165305
 51
254.7718910881
  0
ARC
  5
2B4
100
AcDbEntity
  8
00_COMPONENTS_6
100
AcDbCircle
 62
7
  6
CONTINUOUS
 10
141.0418505157
 20
36.9132387543
 40
7.85078125
100
AcDbArc
 50
285.2281089067
 51
292.2294220766
  0
ARC
  5
2B5
100
AcDbEntity
  8
00_COMPONENTS_6
100
AcDbCircle
 62
7
  6
CONTINUOUS
 10
141.0418505157
 20
36.9132387543
 40
7.8338714079
100
AcDbArc
 50
277.035724314
 51
284.7669642634
  0
ARC
  5
2B6
100
AcDbEntity
  8
00_COMPONENTS_6
100
AcDbCircle
 62
7
  6
CONTINUOUS
 10
141.0418505157
 20
36.9132387543
 40
7.8338714079
100
AcDbArc
 50
255.2330357366
 51
262.964275686
  0
ARC
  5
2B7
100
AcDbEntity
  8
00_COMPONENTS_6
100
AcDbCircle
 62
7
  6
CONTINUOUS
 10
141.0422409686
 20
36.9385997151
 40
7.8329034392
100
AcDbArc
 50
264.7963673976
 51
265.2180422598
  0
ARC
  5
2B8
100
AcDbEntity
  8
00_COMPONENTS_6
100
AcDbCircle
 62
7
  6
CONTINUOUS
 10
141.3637862382
 20
34.7748051016
 40
5.7307441734
100
AcDbArc
 50
254.1312029905
 51
258.4930438549
  0
ARC
  5
2B9
100
AcDbEntity
  8
00_COMPONENTS_6
100
AcDbCircle
 62
7
  6
CONTINUOUS
 10
140.7998203142
 20
34.3156956106
 40
5.2601388581
100
AcDbArc
 50
279.8875643752
 51
281.6029979853
  0
ARC
  5
2BA
100
AcDbEntity
  8
00_COMPONENTS_6
100
AcDbCircle
 62
7
  6
CONTINUOUS
 10
141.2620621788
 20
34.3056631345
 40
5.2507425231
100
AcDbArc
 50
258.5990644961
 51
259.7955024518
  0
ARC
  5
2BB
100
AcDbEntity
  8
00_COMPONENTS_6
100
AcDbCircle
 62
7
  6
CONTINUOUS
 10
140.8217631465
 20
34.3050062881
 40
5.2500740467
100
AcDbArc
 50
280.2044325089
 51
281.3930934826
  0
ARC
  5
2BC
100
AcDbEntity
  8
00_COMPONENTS_6
100
AcDbCircle
 62
7
  6
CONTINUOUS
 10
141.7797140377
 20
33.0647545128
 40
3.9327177121
100
AcDbArc
 50
266.7513601303
 51
268.7575826022
  0
ARC
  5
2BD
100
AcDbEntity
  8
00_COMPONENTS_6
100
AcDbCircle
 62
7
  6
CONTINUOUS
 10
140.3039869936
 20
33.0647545128
 40
3.9327177121
100
AcDbArc
 50
271.2424173978
 51
273.2486398697
  0
ARC
  5
2BE
100
AcDbEntity
  8
00_COMPONENTS_6
100
AcDbCircle
 62
7
  6
CONTINUOUS
 10
141.7794539789
 20
33.0363193512
 40
3.9042767203
100
AcDbArc
 50
271.2429967188
 51
273.2589493847
  0
ARC
  5
2BF
100
AcDbEntity
  8
00_COMPONENTS_6
100
AcDbCircle
 62
7
  6
CONTINUOUS
 10
140.3042470524
 20
33.0363193512
 40
3.9042767203
100
AcDbArc
 50
266.7410506153
 51
268.7570032812
  0
ARC
  5
2C0
100
AcDbEntity
  8
00_COMPONENTS_5
100
AcDbCircle
 62
7
  6
CONTINUOUS
 10
200.3521471271
 20
34.8624575043
 40
3.2
100
AcDbArc
 50
269.9999999999
 51
360.0
  0
ARC
  5
2C1
100
AcDbEntity
  8
00_COMPONENTS_7
100
AcDbCircle
 62
7
  6
CONTINUOUS
 10
174.3418505157
 20
32.8624575043
 40
3.2
100
AcDbArc
 50
270.0
 51
360.0
  0
ARC
  5
2C2
100
AcDbEntity
  8
00_COMPONENTS_6
100
AcDbCircle
 62
7
  6
CONTINUOUS
 10
141.2489797794
 20
32.1160608973
 40
3.0451535553
100
AcDbArc
 50
281.6544973823
 51
284.195477626
  0
ARC
  5
2C3
100
AcDbEntity
  8
00_COMPONENTS_5
100
AcDbCircle
 62
7
  6
CONTINUOUS
 10
200.3521471271
 20
34.8624575043
 40
2.2
100
AcDbArc
 50
269.9999999999
 51
297.942334985
  0
ARC
  5
2C4
100
AcDbEntity
  8
00_COMPONENTS_7
100
AcDbCircle
 62
7
  6
CONTINUOUS
 10
174.3418505157
 20
32.8624575043
 40
2.2
100
AcDbArc
 50
270.0
 51
317.994353355
  0
ARC
  5
2C5
100
AcDbEntity
  8
00_COMPONENTS_7
100
AcDbCircle
 62
7
  6
CONTINUOUS
 10
179.5418505157
 20
47.2362634961
 40
2.0
100
AcDbArc
 50
79.0
 51
180.0000137416
  0
ARC
  5
2C6
100
AcDbEntity
  8
00_COMPONENTS_5
100
AcDbCircle
 62
7
  6
CONTINUOUS
 10
184.6521471271
 20
32.7624575043
 40
1.1
100
AcDbArc
 50
151.0196068337
 51
269.9999999999
  0
ARC
  5
2C7
100
AcDbEntity
  8
00_COMPONENTS_30
100
AcDbCircle
 62
7
  6
CONTINUOUS
 10
190.2244294795
 20
159.5428306055
 40
19.3883388819
100
AcDbArc
 50
351.2143999156
 51
351.6384705516
  0
ARC
  5
2C8
100
AcDbEntity
  8
00_COMPONENTS_30
100
AcDbCircle
 62
7
  6
CONTINUOUS
 10
199.4471536267
 20
157.3847503125
 40
10.1361207279
100
AcDbArc
 50
343.788712304
 51
345.4251840136
  0
ARC
  5
2C9
100
AcDbEntity
  8
00_COMPONENTS_30
100
AcDbCircle
 62
7
  6
CONTINUOUS
 10
199.8231412538
 20
157.2870466121
 40
9.7476458824
100
AcDbArc
 50
345.4248581354
 51
348.6209315526
  0
ARC
  5
2CA
100
AcDbEntity
  8
00_COMPONENTS_30
100
AcDbCircle
 62
7
  6
CONTINUOUS
 10
200.0423362745
 20
157.2078219254
 40
9.5152091273
100
AcDbArc
 50
343.2279873343
 51
343.811173825
  0
ARC
  5
2CB
100
AcDbEntity
  8
00_COMPONENTS_30
100
AcDbCircle
 62
7
  6
CONTINUOUS
 10
200.3148843017
 20
157.1858892138
 40
9.2456108459
100
AcDbArc
 50
348.6342457569
 51
351.4997091529
  0
ARC
  5
2CC
100
AcDbEntity
  8
00_COMPONENTS_30
100
AcDbCircle
 62
7
  6
CONTINUOUS
 10
202.1113137937
 20
156.8624575043
 40
7.4408333333
100
AcDbArc
 50
293.9615779879
 51
340.8667596862
  0
ARC
  5
2CD
100
AcDbEntity
  8
00_COMPONENTS_30
100
AcDbCircle
 62
7
  6
CONTINUOUS
 10
212.0501493811
 20
157.0551578862
 40
2.9090597221
100
AcDbArc
 50
179.091569329
 51
179.8067202623
  0
ARC
  5
2CE
100
AcDbEntity
  8
00_COMPONENTS_30
100
AcDbCircle
 62
7
  6
CONTINUOUS
 10
210.2192910539
 20
155.0269973931
 40
1.0787006369
100
AcDbArc
 50
175.9253760199
 51
176.8308505019
  0
ARC
  5
2CF
100
AcDbEntity
  8
00_COMPONENTS_30
100
AcDbCircle
 62
7
  6
CONTINUOUS
 10
208.6830867361
 20
175.9741235421
 40
0.8588295049
100
AcDbArc
 50
0.0315802026
 51
8.5241047207
  0
ARC
  5
2D0
100
AcDbEntity
  8
00_COMPONENTS_30
100
AcDbCircle
 62
7
  6
CONTINUOUS
 10
209.3419138292
 20
158.0769935483
 40
0.2
100
AcDbArc
 50
355.9929755443
 51
0.1788296323
  0
ARC
  5
2D1
100
AcDbEntity
  8
00_COMPONENTS_30
100
AcDbCircle
 62
7
  6
CONTINUOUS
 10
209.3419138292
 20
156.6484024858
 40
0.2
100
AcDbArc
 50
357.0682251473
 51
360.0
  0
ARC
  5
2D2
100
AcDbEntity
  8
00_COMPONENTS_7
100
AcDbCircle
 62
7
  6
CONTINUOUS
 10
139.871596499
 20
261.8538333703
 40
61.9717915968
100
AcDbArc
 50
49.7919172594
 51
50.198183881
  0
ARC
  5
2D3
100
AcDbEntity
  8
00_COMPONENTS_5
100
AcDbCircle
 62
7
  6
CONTINUOUS
 10
211.7350364665
 20
274.1274276554
 40
59.1050950105
100
AcDbArc
 50
117.2720371657
 51
117.4090936498
  0
ARC
  5
2D4
100
AcDbEntity
  8
00_COMPONENTS_7
100
AcDbCircle
 62
7
  6
CONTINUOUS
 10
155.8755035347
 20
266.3906905465
 40
49.146174906
100
AcDbArc
 50
60.5138867199
 51
60.6415454967
  0
ARC
  5
2D5
100
AcDbEntity
  8
00_COMPONENTS_7
100
AcDbCircle
 62
7
  6
CONTINUOUS
 10
161.4774581406
 20
287.4654403368
 40
28.4641024711
100
AcDbArc
 50
49.6056649078
 51
49.7245566159
  0
ARC
  5
2D6
100
AcDbEntity
  8
00_COMPONENTS_30
100
AcDbCircle
 62
7
  6
CONTINUOUS
 10
189.7938876173
 20
190.1172160747
 40
19.8237510764
100
AcDbArc
 50
8.1863131564
 51
9.1505761091
  0
ARC
  5
2D7
100
AcDbEntity
  8
00_COMPONENTS_30
100
AcDbCircle
 62
7
  6
CONTINUOUS
 10
193.3563198636
 20
190.6345135865
 40
16.2239604564
100
AcDbArc
 50
6.7989438809
 51
8.1694931142
  0
ARC
  5
2D8
100
AcDbEntity
  8
00_COMPONENTS_30
100
AcDbCircle
 62
7
  6
CONTINUOUS
 10
199.5228447855
 20
192.3612276921
 40
10.057566513
100
AcDbArc
 50
14.717171527
 51
16.3896151224
  0
ARC
  5
2D9
100
AcDbEntity
  8
00_COMPONENTS_30
100
AcDbCircle
 62
7
  6
CONTINUOUS
 10
199.8915660919
 20
192.4539048583
 40
9.6773987506
100
AcDbArc
 50
11.324000296
 51
14.7410685324
  0
ARC
  5
2DA
100
AcDbEntity
  8
00_COMPONENTS_30
100
AcDbCircle
 62
7
  6
CONTINUOUS
 10
199.959083326
 20
192.4933707698
 40
9.601768681
100
AcDbArc
 50
16.3676492827
 51
16.7902014874
  0
ARC
  5
2DB
100
AcDbEntity
  8
00_COMPONENTS_30
100
AcDbCircle
 62
7
  6
CONTINUOUS
 10
200.3989279693
 20
192.5536354606
 40
9.1603313365
100
AcDbArc
 50
8.4296436363
 51
11.3354772052
  0
ARC
  5
2DC
100
AcDbEntity
  8
00_COMPONENTS_30
100
AcDbCircle
 62
7
  6
CONTINUOUS
 10
201.0866618657
 20
192.6462893604
 40
8.4664496681
100
AcDbArc
 50
2.9841439082
 51
8.4916689195
  0
ARC
  5
2DD
100
AcDbEntity
  8
00_COMPONENTS_30
100
AcDbCircle
 62
7
  6
CONTINUOUS
 10
202.1113137937
 20
192.8624575043
 40
7.4408333333
100
AcDbArc
 50
19.1334460692
 51
66.0384220121
  0
ARC
  5
2DE
100
AcDbEntity
  8
00_COMPONENTS_30
100
AcDbCircle
 62
7
  6
CONTINUOUS
 10
202.5243688311
 20
191.2909160748
 40
7.0268373368
100
AcDbArc
 50
2.9918339818
 51
3.5956312564
  0
ARC
  5
2DF
100
AcDbEntity
  8
00_COMPONENTS_5
100
AcDbCircle
 62
7
  6
CONTINUOUS
 10
200.3521471271
 20
324.4624575043
 40
3.2
100
AcDbArc
 50
0.0
 51
90.0000000001
  0
ARC
  5
2E0
100
AcDbEntity
  8
00_COMPONENTS_7
100
AcDbCircle
 62
7
  6
CONTINUOUS
 10
174.3418505157
 20
326.4624575043
 40
3.2
100
AcDbArc
 50
4.6876057731
 51
90.0
  0
ARC
  5
2E1
100
AcDbEntity
  8
00_COMPONENTS_5
100
AcDbCircle
 62
7
  6
CONTINUOUS
 10
200.3521471271
 20
324.4624575043
 40
2.2
100
AcDbArc
 50
62.0576650139
 51
90.0000000001
  0
ARC
  5
2E2
100
AcDbEntity
  8
00_COMPONENTS_7
100
AcDbCircle
 62
7
  6
CONTINUOUS
 10
52.7418505157
 20
327.4624575043
 40
2.2
100
AcDbArc
 50
90.0000000001
 51
180.0
  0
ARC
  5
2E3
100
AcDbEntity
  8
00_COMPONENTS_7
100
AcDbCircle
 62
7
  6
CONTINUOUS
 10
174.3418505157
 20
326.4624575043
 40
2.2
100
AcDbArc
 50
42.0058325016
 51
90.0
  0
ARC
  5
2E4
100
AcDbEntity
  8
00_COMPONENTS_7
100
AcDbCircle
 62
7
  6
CONTINUOUS
 10
179.5418505157
 20
312.0886515125
 40
2.0
100
AcDbArc
 50
180.0
 51
281.0000000013
  0
ARC
  5
2E5
100
AcDbEntity
  8
00_COMPONENTS_7
100
AcDbCircle
 62
7
  6
CONTINUOUS
 10
52.7418505157
 20
327.4624575043
 40
1.2
100
AcDbArc
 50
90.0
 51
127.8486108372
  0
ARC
  5
2E6
100
AcDbEntity
  8
00_COMPONENTS_5
100
AcDbCircle
 62
7
  6
CONTINUOUS
 10
184.6521471271
 20
326.5624575043
 40
1.1
100
AcDbArc
 50
90.0000000001
 51
208.9162486675
  0
ARC
  5
2E7
100
AcDbEntity
  8
00_COMPONENTS_30
100
AcDbCircle
 62
7
  6
CONTINUOUS
 10
208.6830983379
 20
183.3507894768
 40
0.8588178698
100
AcDbArc
 50
351.4716869662
 51
359.968552742
  0
ARC
  5
2E8
100
AcDbEntity
  8
00_COMPONENTS_30
100
AcDbCircle
 62
7
  6
CONTINUOUS
 10
209.3419138292
 20
193.0765125228
 40
0.2
100
AcDbArc
 50
0.0
 51
2.9438011919
  0
ARC
  5
2E9
100
AcDbEntity
  8
00_COMPONENTS_30
100
AcDbCircle
 62
7
  6
CONTINUOUS
 10
209.3419138292
 20
191.6479214603
 40
0.2
100
AcDbArc
 50
0.0
 51
2.6051944181
  0
SPLINE
  5
2EA
100
AcDbEntity
  8
00_COMPONENTS_6
100
AcDbSpline
 62
7
  6
CONTINUOUS
 70
0
 71
3
 72
9
 73
5
 74
0
 42
0.0000001
 43
0.0000001
 44
0.0000000001
 40
0.0
 40
0.0
 40
0.0
 40
0.0
 40
0.2550951084
 40
1.0
 40
1.0
 40
1.0
 40
1.0
 10
75.4316149966
 20
29.3124575043
 30
0.0
 10
75.3839174122
 20
29.2974819705
 30
0.0
 10
75.1962518146
 20
29.2409969993
 30
0.0
 10
75.0058250495
 20
29.1935813383
 30
0.0
 10
74.8628491601
 20
29.1640905833
 30
0.0
  0
LINE
  5
2EB
100
AcDbEntity
  8
00_COMPONENTS_6
100
AcDbLine
 62
7
  6
CONTINUOUS
 10
74.7030665602
 20
29.1336875996
 11
74.6944425911
 21
29.1329613617
  0
SPLINE
  5
2EC
100
AcDbEntity
  8
00_COMPONENTS_6
100
AcDbSpline
 62
7
  6
CONTINUOUS
 70
0
 71
3
 72
9
 73
5
 74
0
 42
0.0000001
 43
0.0000001
 44
0.0000000001
 40
0.0
 40
0.0
 40
0.0
 40
0.0
 40
0.2542764768
 40
1.0
 40
1.0
 40
1.0
 40
1.0
 10
73.2196802875
 20
29.1379784092
 30
0.0
 10
73.183129545
 20
29.1458268
 30
0.0
 10
73.0399613059
 20
29.1792927152
 30
0.0
 10
72.8992370775
 20
29.2233883118
 30
0.0
 10
72.7967978059
 20
29.2624575043
 30
0.0
  0
SPLINE
  5
2ED
100
AcDbEntity
  8
00_COMPONENTS_6
100
AcDbSpline
 62
7
  6
CONTINUOUS
 70
0
 71
3
 72
9
 73
5
 74
0
 42
0.0000001
 43
0.0000001
 44
0.0000000001
 40
0.0
 40
0.0
 40
0.0
 40
0.0
 40
0.2462187459
 40
1.0
 40
1.0
 40
1.0
 40
1.0
 10
75.4316149966
 20
29.3124575043
 30
0.0
 10
75.3969713878
 20
29.2972900848
 30
0.0
 10
75.2549536362
 20
29.2387206217
 30
0.0
 10
75.1079861945
 20
29.1922931534
 30
0.0
 10
74.9957454244
 20
29.1638919918
 30
0.0
  0
SPLINE
  5
2EE
100
AcDbEntity
  8
00_COMPONENTS_6
100
AcDbSpline
 62
7
  6
CONTINUOUS
 70
0
 71
3
 72
9
 73
5
 74
0
 42
0.0000001
 43
0.0000001
 44
0.0000000001
 40
0.0
 40
0.0
 40
0.0
 40
0.0
 40
0.2550951084
 40
1.0
 40
1.0
 40
1.0
 40
1.0
 10
142.4316149966
 20
29.3124575043
 30
0.0
 10
142.3839174122
 20
29.2974819705
 30
0.0
 10
142.1962518146
 20
29.2409969993
 30
0.0
 10
142.0058250495
 20
29.1935813383
 30
0.0
 10
141.8628491601
 20
29.1640905833
 30
0.0
  0
LINE
  5
2EF
100
AcDbEntity
  8
00_COMPONENTS_6
100
AcDbLine
 62
7
  6
CONTINUOUS
 10
141.7030665602
 20
29.1336875996
 11
141.6944425911
 21
29.1329613617
  0
SPLINE
  5
2F0
100
AcDbEntity
  8
00_COMPONENTS_6
100
AcDbSpline
 62
7
  6
CONTINUOUS
 70
0
 71
3
 72
9
 73
5
 74
0
 42
0.0000001
 43
0.0000001
 44
0.0000000001
 40
0.0
 40
0.0
 40
0.0
 40
0.0
 40
0.2542764768
 40
1.0
 40
1.0
 40
1.0
 40
1.0
 10
140.2196802875
 20
29.1379784092
 30
0.0
 10
140.183129545
 20
29.1458268
 30
0.0
 10
140.0399613059
 20
29.1792927152
 30
0.0
 10
139.8992370775
 20
29.2233883118
 30
0.0
 10
139.7967978059
 20
29.2624575043
 30
0.0
  0
SPLINE
  5
2F1
100
AcDbEntity
  8
00_COMPONENTS_6
100
AcDbSpline
 62
7
  6
CONTINUOUS
 70
0
 71
3
 72
9
 73
5
 74
0
 42
0.0000001
 43
0.0000001
 44
0.0000000001
 40
0.0
 40
0.0
 40
0.0
 40
0.0
 40
0.2462187459
 40
1.0
 40
1.0
 40
1.0
 40
1.0
 10
142.4316149966
 20
29.3124575043
 30
0.0
 10
142.3969713878
 20
29.2972900848
 30
0.0
 10
142.2549536362
 20
29.2387206217
 30
0.0
 10
142.1079861945
 20
29.1922931534
 30
0.0
 10
141.9957454244
 20
29.1638919918
 30
0.0
  0
LINE
  5
2F2
100
AcDbEntity
  8
00_COMPONENTS_30
100
AcDbLine
 62
7
  6
CONTINUOUS
 10
209.5324155893
 20
156.6484132488
 11
209.5318972089
 21
156.6388641859
  0
SPLINE
  5
2F3
100
AcDbEntity
  8
00_COMPONENTS_30
100
AcDbSpline
 62
7
  6
CONTINUOUS
 70
0
 71
3
 72
25
 73
21
 74
0
 42
0.0000001
 43
0.0000001
 44
0.0000000001
 40
0.0
 40
0.0
 40
0.0
 40
0.0
 40
0.227457776
 40
0.4389492598
 40
0.5355314824
 40
0.6242390739
 40
0.7040120425
 40
0.773842639
 40
0.8325177384
 40
0.8791387638
 40
0.9138615966
 40
0.9373126906
 40
0.9450426134
 40
0.9504593101
 40
0.9546078472
 40
0.9594003088
 40
0.9661196974
 40
0.9751098554
 40
0.9864038677
 40
1.0
 40
1.0
 40
1.0
 40
1.0
 10
209.5318972089
 20
156.6388641859
 30
0.0
 10
209.5246344199
 20
156.5066142768
 30
0.0
 10
209.5037546515
 20
156.2517077527
 30
0.0
 10
209.4598512513
 20
155.9427588406
 30
0.0
 10
209.4163305411
 20
155.7158116934
 30
0.0
 10
209.3822629701
 20
155.5652405644
 30
0.0
 10
209.3471509639
 20
155.430963634
 30
0.0
 10
209.312410663
 20
155.3147258361
 30
0.0
 10
209.279131841
 20
155.2183187515
 30
0.0
 10
209.2482701348
 20
155.1427183334
 30
0.0
 10
209.2209521264
 20
155.0882413416
 30
0.0
 10
209.2003209877
 20
155.0554333145
 30
0.0
 10
209.185370068
 20
155.0402760951
 30
0.0
 10
209.1764520892
 20
155.0348285019
 30
0.0
 10
209.1673886652
 20
155.0357876139
 30
0.0
 10
209.1612678266
 20
155.043323693
 30
0.0
 10
209.1571664208
 20
155.0545122428
 30
0.0
 10
209.1541812988
 20
155.0700338833
 30
0.0
 10
209.152461873
 20
155.0896925532
 30
0.0
 10
209.1521478089
 20
155.1041950264
 30
0.0
 10
209.1521474477
 20
155.1121120855
 30
0.0
  0
SPLINE
  5
2F4
100
AcDbEntity
  8
00_COMPONENTS_30
100
AcDbSpline
 62
7
  6
CONTINUOUS
 70
0
 71
3
 72
13
 73
9
 74
0
 42
0.0000001
 43
0.0000001
 44
0.0000000001
 40
0.0
 40
0.0
 40
0.0
 40
0.0
 40
0.0794924539
 40
0.1720201701
 40
0.4015339105
 40
0.5373677548
 40
0.6840281927
 40
1.0
 40
1.0
 40
1.0
 40
1.0
 10
205.133260933
 20
152.9121440143
 30
0.0
 10
205.1247704817
 20
152.9634682366
 30
0.0
 10
205.0816082954
 20
153.0703205925
 30
0.0
 10
204.9217538318
 20
153.2806427621
 30
0.0
 10
204.6806899074
 20
153.4662441103
 30
0.0
 10
204.3905235044
 20
153.633316907
 30
0.0
 10
204.036590218
 20
153.8022046634
 30
0.0
 10
203.750056417
 20
153.902704131
 30
0.0
 10
203.5521460428
 20
153.9626144337
 30
0.0
  0
SPLINE
  5
2F5
100
AcDbEntity
  8
00_COMPONENTS_30
100
AcDbSpline
 62
7
  6
CONTINUOUS
 70
0
 71
3
 72
23
 73
19
 74
0
 42
0.0000001
 43
0.0000001
 44
0.0000000001
 40
0.0
 40
0.0
 40
0.0
 40
0.0
 40
0.055809333
 40
0.1039195473
 40
0.1434478015
 40
0.1734929255
 40
0.1849411026
 40
0.1943105466
 40
0.2023667875
 40
0.2104723088
 40
0.2201711819
 40
0.2325890237
 40
0.2680292934
 40
0.3191814507
 40
0.3854874536
 40
0.55845623
 40
0.7694300511
 40
1.0
 40
1.0
 40
1.0
 40
1.0
 10
209.1521597271
 20
192.6139367792
 30
0.0
 10
209.1521761845
 20
192.6454625939
 30
0.0
 10
209.1532168822
 20
192.7041661045
 30
0.0
 10
209.1588666205
 20
192.7850911424
 30
0.0
 10
209.1688592293
 20
192.8508207839
 30
0.0
 10
209.1815489355
 20
192.8952298758
 30
0.0
 10
209.1956242709
 20
192.9204502393
 30
0.0
 10
209.2068492503
 20
192.9326165173
 30
0.0
 10
209.2203463972
 20
192.9389999865
 30
0.0
 10
209.2354764156
 20
192.9380551418
 30
0.0
 10
209.2509235145
 20
192.9300726281
 30
0.0
 10
209.2751390709
 20
192.9080687272
 30
0.0
 10
209.3057064574
 20
192.86045071
 30
0.0
 10
209.3418786682
 20
192.7820339515
 30
0.0
 10
209.3964368675
 20
192.6270304868
 30
0.0
 10
209.4544012725
 20
192.3788124123
 30
0.0
 10
209.5056574986
 20
192.0352486287
 30
0.0
 10
209.5252184122
 20
191.7863853985
 30
0.0
 10
209.531991179
 20
191.6563162534
 30
0.0
  0
LINE
  5
2F6
100
AcDbEntity
  8
00_COMPONENTS_30
100
AcDbLine
 62
7
  6
CONTINUOUS
 10
209.531991179
 20
191.6563162534
 11
209.5324242364
 21
191.6479028565
  0
SPLINE
  5
2F7
100
AcDbEntity
  8
00_COMPONENTS_30
100
AcDbSpline
 62
7
  6
CONTINUOUS
 70
0
 71
3
 72
14
 73
10
 74
0
 42
0.0000001
 43
0.0000001
 44
0.0000000001
 40
0.0
 40
0.0
 40
0.0
 40
0.0
 40
0.3092911189
 40
0.4616127744
 40
0.6049550208
 40
0.7338636044
 40
0.8442642576
 40
0.9331281344
 40
1.0
 40
1.0
 40
1.0
 40
1.0
 10
205.6917452081
 20
159.6320349096
 30
0.0
 10
206.073850177
 20
159.634394092
 30
0.0
 10
206.6442489852
 20
159.6519304883
 30
0.0
 10
207.3896438046
 20
159.7076738089
 30
0.0
 10
207.9112674374
 20
159.7641619551
 30
0.0
 10
208.378849516
 20
159.8347291779
 30
0.0
 10
208.7764562217
 20
159.915676561
 30
0.0
 10
209.0931690304
 20
160.0047201332
 30
0.0
 10
209.2728108341
 20
160.0760738093
 30
0.0
 10
209.3458380011
 20
160.1147070073
 30
0.0
  0
SPLINE
  5
2F8
100
AcDbEntity
  8
00_COMPONENTS_30
100
AcDbSpline
 62
7
  6
CONTINUOUS
 70
0
 71
3
 72
9
 73
5
 74
0
 42
0.0000001
 43
0.0000001
 44
0.0000000001
 40
0.0
 40
0.0
 40
0.0
 40
0.0
 40
0.4055315946
 40
1.0
 40
1.0
 40
1.0
 40
1.0
 10
209.5413309395
 20
158.0630251231
 30
0.0
 10
209.5413803293
 20
158.064553389
 30
0.0
 10
209.541502854
 20
158.0682253649
 30
0.0
 10
209.5405330307
 20
158.0723875455
 30
0.0
 10
209.5388586672
 20
158.0738777198
 30
0.0
  0
LINE
  5
2F9
100
AcDbEntity
  8
00_COMPONENTS_30
100
AcDbLine
 62
7
  6
CONTINUOUS
 10
209.5388586672
 20
158.0738777198
 11
209.5352407231
 21
158.0769935483
  0
SPLINE
  5
2FA
100
AcDbEntity
  8
00_COMPONENTS_30
100
AcDbSpline
 62
7
  6
CONTINUOUS
 70
0
 71
3
 72
9
 73
5
 74
0
 42
0.0000001
 43
0.0000001
 44
0.0000000001
 40
0.0
 40
0.0
 40
0.0
 40
0.0
 40
0.2492552694
 40
1.0
 40
1.0
 40
1.0
 40
1.0
 10
205.1332074434
 20
152.912145333
 30
0.0
 10
205.0744598271
 20
152.8890324321
 30
0.0
 10
204.8346336189
 20
152.8071434257
 30
0.0
 10
204.5808181108
 20
152.7665094618
 30
0.0
 10
204.3907624016
 20
152.7606285885
 30
0.0
  0
SPLINE
  5
2FB
100
AcDbEntity
  8
00_COMPONENTS_30
100
AcDbSpline
 62
7
  6
CONTINUOUS
 70
0
 71
3
 72
25
 73
21
 74
0
 42
0.0000001
 43
0.0000001
 44
0.0000000001
 40
0.0
 40
0.0
 40
0.0
 40
0.0
 40
0.0136138023
 40
0.0248653657
 40
0.0337521632
 40
0.040375951
 40
0.0451457975
 40
0.0492795369
 40
0.0545731375
 40
0.0620794333
 40
0.085174871
 40
0.1199557745
 40
0.1665676892
 40
0.22486796
 40
0.2942274083
 40
0.3738359537
 40
0.4626018632
 40
0.5592580891
 40
0.771253425
 40
1.0
 40
1.0
 40
1.0
 40
1.0
 10
209.1523682662
 20
194.6125871081
 30
0.0
 10
209.1523761304
 20
194.6205130587
 30
0.0
 10
209.152693316
 20
194.6349975496
 30
0.0
 10
209.1543819958
 20
194.654581544
 30
0.0
 10
209.1572950753
 20
194.6699641942
 30
0.0
 10
209.1613533707
 20
194.6810480193
 30
0.0
 10
209.1673490841
 20
194.6885067729
 30
0.0
 10
209.1762246298
 20
194.6898180514
 30
0.0
 10
209.1851928259
 20
194.6848646639
 30
0.0
 10
209.2002420262
 20
194.6703571737
 30
0.0
 10
209.2208331366
 20
194.6378270969
 30
0.0
 10
209.2477666123
 20
194.5833890374
 30
0.0
 10
209.2783651307
 20
194.5079040969
 30
0.0
 10
209.3116843573
 20
194.4120642685
 30
0.0
 10
209.346548227
 20
194.2964966833
 30
0.0
 10
209.3816470594
 20
194.162586842
 30
0.0
 10
209.4157191462
 20
194.0120637788
 30
0.0
 10
209.4592763042
 20
193.7847854143
 30
0.0
 10
209.5032121819
 20
193.4748129966
 30
0.0
 10
209.5247340029
 20
193.2189501807
 30
0.0
 10
209.5319176867
 20
193.0859678339
 30
0.0
  0
LINE
  5
2FC
100
AcDbEntity
  8
00_COMPONENTS_30
100
AcDbLine
 62
7
  6
CONTINUOUS
 10
209.5319176867
 20
193.0859678339
 11
209.5324231825
 21
193.0764836364
  0
SPLINE
  5
2FD
100
AcDbEntity
  8
00_COMPONENTS_30
100
AcDbSpline
 62
7
  6
CONTINUOUS
 70
0
 71
3
 72
9
 73
5
 74
0
 42
0.0000001
 43
0.0000001
 44
0.0000000001
 40
0.0
 40
0.0
 40
0.0
 40
0.0
 40
0.2397363996
 40
1.0
 40
1.0
 40
1.0
 40
1.0
 10
209.4589331576
 20
155.8192545018
 30
0.0
 10
209.4686349969
 20
155.8842973135
 30
0.0
 10
209.5061277976
 20
156.1560368753
 30
0.0
 10
209.5309148026
 20
156.4295770538
 30
0.0
 10
209.5416299396
 20
156.6378504834
 30
0.0
  0
SPLINE
  5
2FE
100
AcDbEntity
  8
00_COMPONENTS_30
100
AcDbSpline
 62
7
  6
CONTINUOUS
 70
0
 71
3
 72
23
 73
19
 74
0
 42
0.0000001
 43
0.0000001
 44
0.0000000001
 40
0.0
 40
0.0
 40
0.0
 40
0.0
 40
0.2303266132
 40
0.4409688515
 40
0.6137892343
 40
0.6802568112
 40
0.731400299
 40
0.7670772402
 40
0.7797426684
 40
0.7896696726
 40
0.7979104084
 40
0.8060307953
 40
0.8154405672
 40
0.8268998966
 40
0.8568301813
 40
0.8961936168
 40
0.9442308618
 40
1.0
 40
1.0
 40
1.0
 40
1.0
 10
209.5404350971
 20
158.0452905149
 30
0.0
 10
209.532977105
 20
157.912091981
 30
0.0
 10
209.5118310095
 20
157.6573444047
 30
0.0
 10
209.457599038
 20
157.3057082155
 30
0.0
 10
209.395751249
 20
157.0519515722
 30
0.0
 10
209.3385549757
 20
156.8934699287
 30
0.0
 10
209.3004461259
 20
156.8132569447
 30
0.0
 10
209.2682053694
 20
156.7647108805
 30
0.0
 10
209.2428940597
 20
156.7420862843
 30
0.0
 10
209.2267740915
 20
156.7337121556
 30
0.0
 10
209.2110235343
 20
156.7325468308
 30
0.0
 10
209.1969846877
 20
156.7390137996
 30
0.0
 10
209.1853126116
 20
156.7514305143
 30
0.0
 10
209.1706712495
 20
156.7771347986
 30
0.0
 10
209.1575292934
 20
156.8224937225
 30
0.0
 10
209.1473961623
 20
156.8897040778
 30
0.0
 10
209.1418517927
 20
156.9725391414
 30
0.0
 10
209.141001939
 20
157.0326693979
 30
0.0
 10
209.141106211
 20
157.0649711959
 30
0.0
  0
SPLINE
  5
2FF
100
AcDbEntity
  8
00_COMPONENTS_30
100
AcDbSpline
 62
7
  6
CONTINUOUS
 70
0
 71
3
 72
9
 73
5
 74
0
 42
0.0000001
 43
0.0000001
 44
0.0000000001
 40
0.0
 40
0.0
 40
0.0
 40
0.0
 40
0.2350953926
 40
1.0
 40
1.0
 40
1.0
 40
1.0
 10
209.1414552974
 20
157.1012794047
 30
0.0
 10
209.1417026478
 20
157.1170229747
 30
0.0
 10
209.1432633077
 20
157.1839817173
 30
0.0
 10
209.1466169525
 20
157.250890368
 30
0.0
 10
209.1498402325
 20
157.3020183487
 30
0.0
  0
SPLINE
  5
300
100
AcDbEntity
  8
00_COMPONENTS_30
100
AcDbSpline
 62
7
  6
CONTINUOUS
 70
0
 71
3
 72
9
 73
5
 74
0
 42
0.0000001
 43
0.0000001
 44
0.0000000001
 40
0.0
 40
0.0
 40
0.0
 40
0.0
 40
0.2383443423
 40
1.0
 40
1.0
 40
1.0
 40
1.0
 10
209.1498402325
 20
157.3020183487
 30
0.0
 10
209.1510881883
 20
157.3218135455
 30
0.0
 10
209.1567526542
 20
157.4048396847
 30
0.0
 10
209.1639545823
 20
157.4877543799
 30
0.0
 10
209.1698839087
 20
157.5508597547
 30
0.0
  0
SPLINE
  5
301
100
AcDbEntity
  8
00_COMPONENTS_30
100
AcDbSpline
 62
7
  6
CONTINUOUS
 70
0
 71
3
 72
9
 73
5
 74
0
 42
0.0000001
 43
0.0000001
 44
0.0000000001
 40
0.0
 40
0.0
 40
0.0
 40
0.0
 40
0.2422337279
 40
1.0
 40
1.0
 40
1.0
 40
1.0
 10
209.1698839087
 20
157.5508597547
 30
0.0
 10
209.1723267189
 20
157.5768583992
 30
0.0
 10
209.1827377669
 20
157.6841565987
 30
0.0
 10
209.1941088062
 20
157.7913584932
 30
0.0
 10
209.2028013875
 20
157.8725830068
 30
0.0
  0
SPLINE
  5
302
100
AcDbEntity
  8
00_COMPONENTS_30
100
AcDbSpline
 62
7
  6
CONTINUOUS
 70
0
 71
3
 72
9
 73
5
 74
0
 42
0.0000001
 43
0.0000001
 44
0.0000000001
 40
0.0
 40
0.0
 40
0.0
 40
0.0
 40
0.255074433
 40
1.0
 40
1.0
 40
1.0
 40
1.0
 10
209.5373739316
 20
191.7316001087
 30
0.0
 10
209.5353583363
 20
191.7636587633
 30
0.0
 10
209.5265767249
 20
191.8892837157
 30
0.0
 10
209.5141567524
 20
192.0146678583
 30
0.0
 10
209.5024449138
 20
192.1077436303
 30
0.0
  0
SPLINE
  5
303
100
AcDbEntity
  8
00_COMPONENTS_30
100
AcDbSpline
 62
7
  6
CONTINUOUS
 70
0
 71
3
 72
23
 73
19
 74
0
 42
0.0000001
 43
0.0000001
 44
0.0000000001
 40
0.0
 40
0.0
 40
0.0
 40
0.0
 40
0.2409773895
 40
0.3486095328
 40
0.4447423953
 40
0.5272188647
 40
0.5945723204
 40
0.6461191201
 40
0.6824256594
 40
0.7061440775
 40
0.7154595208
 40
0.7248064156
 40
0.7354272528
 40
0.7480553307
 40
0.7803666875
 40
0.8223900122
 40
0.8735561954
 40
1.0
 40
1.0
 40
1.0
 40
1.0
 10
209.5024449138
 20
192.1077436303
 30
0.0
 10
209.4890192041
 20
192.2144397973
 30
0.0
 10
209.46501927
 20
192.3683326102
 30
0.0
 10
209.4223227968
 20
192.5622101027
 30
0.0
 10
209.3890292585
 20
192.6855846754
 30
0.0
 10
209.3543879178
 20
192.7898365429
 30
0.0
 10
209.3199575404
 20
192.8728921686
 30
0.0
 10
209.2866773058
 20
192.9340325473
 30
0.0
 10
209.2563936514
 20
192.9734504632
 30
0.0
 10
209.2292509791
 20
192.9918195609
 30
0.0
 10
209.2097423061
 20
192.9918004551
 30
0.0
 10
209.1976108543
 20
192.9860736025
 30
0.0
 10
209.1871499789
 20
192.9757025503
 30
0.0
 10
209.1738726563
 20
192.9546036545
 30
0.0
 10
209.1612940307
 20
192.9174905938
 30
0.0
 10
209.1508886383
 20
192.8624297745
 30
0.0
 10
209.1412809004
 20
192.7647766319
 30
0.0
 10
209.1405767037
 20
192.6853954059
 30
0.0
 10
209.1414021354
 20
192.6289751736
 30
0.0
  0
SPLINE
  5
304
100
AcDbEntity
  8
00_COMPONENTS_30
100
AcDbSpline
 62
7
  6
CONTINUOUS
 70
0
 71
3
 72
9
 73
5
 74
0
 42
0.0000001
 43
0.0000001
 44
0.0000000001
 40
0.0
 40
0.0
 40
0.0
 40
0.0
 40
0.4549021244
 40
1.0
 40
1.0
 40
1.0
 40
1.0
 10
209.1414021354
 20
192.6289751736
 30
0.0
 10
209.1431308201
 20
192.510815449
 30
0.0
 10
209.1602711786
 20
192.2513568757
 30
0.0
 10
209.1870565688
 20
191.9929899516
 30
0.0
 10
209.2028122577
 20
191.8522662184
 30
0.0
  0
SPLINE
  5
305
100
AcDbEntity
  8
00_COMPONENTS_30
100
AcDbSpline
 62
7
  6
CONTINUOUS
 70
0
 71
3
 72
11
 73
7
 74
0
 42
0.0000001
 43
0.0000001
 44
0.0000000001
 40
0.0
 40
0.0
 40
0.0
 40
0.0
 40
0.307388396
 40
0.5880210048
 40
0.8243528713
 40
1.0
 40
1.0
 40
1.0
 40
1.0
 10
209.5416308588
 20
193.0870492801
 30
0.0
 10
209.5332587643
 20
193.2423250672
 30
0.0
 10
209.5074502506
 20
193.5389397546
 30
0.0
 10
209.4425571049
 20
193.9512589484
 30
0.0
 10
209.3631124165
 20
194.2927570413
 30
0.0
 10
209.3003745113
 20
194.4919251355
 30
0.0
 10
209.267997482
 20
194.5746726441
 30
0.0
  0
SPLINE
  5
306
100
AcDbEntity
  8
00_COMPONENTS_30
100
AcDbSpline
 62
7
  6
CONTINUOUS
 70
0
 71
3
 72
9
 73
5
 74
0
 42
0.0000001
 43
0.0000001
 44
0.0000000001
 40
0.0
 40
0.0
 40
0.0
 40
0.0
 40
0.586098859
 40
1.0
 40
1.0
 40
1.0
 40
1.0
 10
209.267997482
 20
194.5746726441
 30
0.0
 10
209.2567652485
 20
194.6033793959
 30
0.0
 10
209.236317992
 20
194.6518399412
 30
0.0
 10
209.2119558991
 20
194.6986660249
 30
0.0
 10
209.2000005757
 20
194.7168585645
 30
0.0
  0
SPLINE
  5
307
100
AcDbEntity
  8
00_COMPONENTS_30
100
AcDbSpline
 62
7
  6
CONTINUOUS
 70
0
 71
3
 72
13
 73
9
 74
0
 42
0.0000001
 43
0.0000001
 44
0.0000000001
 40
0.0
 40
0.0
 40
0.0
 40
0.0
 40
0.3596677218
 40
0.5583731891
 40
0.6321229197
 40
0.7214286587
 40
0.8421754982
 40
1.0
 40
1.0
 40
1.0
 40
1.0
 10
209.2000005757
 20
194.7168585645
 30
0.0
 10
209.1938488379
 20
194.7262197277
 30
0.0
 10
209.1842760489
 20
194.7397390491
 30
0.0
 10
209.1664463398
 20
194.7534608175
 30
0.0
 10
209.1549611687
 20
194.7495941464
 30
0.0
 10
209.1496834507
 20
194.7420814497
 30
0.0
 10
209.1458068108
 20
194.7312940332
 30
0.0
 10
209.1442042746
 20
194.7227214095
 30
0.0
 10
209.1435048981
 20
194.7178560969
 30
0.0
  0
SPLINE
  5
308
100
AcDbEntity
  8
00_COMPONENTS_30
100
AcDbSpline
 62
7
  6
CONTINUOUS
 70
0
 71
3
 72
9
 73
5
 74
0
 42
0.0000001
 43
0.0000001
 44
0.0000000001
 40
0.0
 40
0.0
 40
0.0
 40
0.0
 40
0.1945675046
 40
1.0
 40
1.0
 40
1.0
 40
1.0
 10
209.1435048981
 20
194.7178560969
 30
0.0
 10
209.1426624583
 20
194.7119955435
 30
0.0
 10
209.139969207
 20
194.6816466923
 30
0.0
 10
209.1413255384
 20
194.6511162969
 30
0.0
 10
209.1429240912
 20
194.6266587413
 30
0.0
  0
SPLINE
  5
309
100
AcDbEntity
  8
00_COMPONENTS_30
100
AcDbSpline
 62
7
  6
CONTINUOUS
 70
0
 71
3
 72
9
 73
5
 74
0
 42
0.0000001
 43
0.0000001
 44
0.0000000001
 40
0.0
 40
0.0
 40
0.0
 40
0.0
 40
0.2303016383
 40
1.0
 40
1.0
 40
1.0
 40
1.0
 10
209.1429240912
 20
194.6266587413
 30
0.0
 10
209.1432903281
 20
194.6210553866
 30
0.0
 10
209.1450658339
 20
194.596736979
 30
0.0
 10
209.1474822318
 20
194.5724685949
 30
0.0
 10
209.1495605304
 20
194.5538169203
 30
0.0
  0
SPLINE
  5
30A
100
AcDbEntity
  8
00_COMPONENTS_30
100
AcDbSpline
 62
7
  6
CONTINUOUS
 70
0
 71
3
 72
9
 73
5
 74
0
 42
0.0000001
 43
0.0000001
 44
0.0000000001
 40
0.0
 40
0.0
 40
0.0
 40
0.0
 40
0.3036615998
 40
1.0
 40
1.0
 40
1.0
 40
1.0
 10
209.5324190258
 20
191.6479026526
 30
0.0
 10
209.5333348417
 20
191.6484183169
 30
0.0
 10
209.5362750629
 20
191.6502110897
 30
0.0
 10
209.5390908826
 20
191.6524418344
 30
0.0
 10
209.540423453
 20
191.6544500507
 30
0.0
  0
SPLINE
  5
30B
100
AcDbEntity
  8
00_COMPONENTS_30
100
AcDbSpline
 62
7
  6
CONTINUOUS
 70
0
 71
3
 72
8
 73
4
 74
0
 42
0.0000001
 43
0.0000001
 44
0.0000000001
 40
0.0
 40
0.0
 40
0.0
 40
0.0
 40
1.0
 40
1.0
 40
1.0
 40
1.0
 10
209.540423453
 20
191.6544500507
 30
0.0
 10
209.5410531416
 20
191.6553990069
 30
0.0
 10
209.5415341859
 20
191.6565117528
 30
0.0
 10
209.5416298078
 20
191.6576466017
 30
0.0
  0
SPLINE
  5
30C
100
AcDbEntity
  8
00_COMPONENTS_30
100
AcDbSpline
 62
7
  6
CONTINUOUS
 70
0
 71
3
 72
9
 73
5
 74
0
 42
0.0000001
 43
0.0000001
 44
0.0000000001
 40
0.0
 40
0.0
 40
0.0
 40
0.0
 40
0.3046438746
 40
1.0
 40
1.0
 40
1.0
 40
1.0
 10
209.5324099454
 20
193.0765118969
 30
0.0
 10
209.5333658556
 20
193.0770680866
 30
0.0
 10
209.5364174294
 20
193.0789939937
 30
0.0
 10
209.5393286671
 20
193.0814246494
 30
0.0
 10
209.5406109011
 20
193.0835990845
 30
0.0
  0
SPLINE
  5
30D
100
AcDbEntity
  8
00_COMPONENTS_30
100
AcDbSpline
 62
7
  6
CONTINUOUS
 70
0
 71
3
 72
8
 73
4
 74
0
 42
0.0000001
 43
0.0000001
 44
0.0000000001
 40
0.0
 40
0.0
 40
0.0
 40
0.0
 40
1.0
 40
1.0
 40
1.0
 40
1.0
 10
209.5406109011
 20
193.0835990845
 30
0.0
 10
209.5412200326
 20
193.0846320603
 30
0.0
 10
209.5416421292
 20
193.0858500987
 30
0.0
 10
209.5416302874
 20
193.08704924
 30
0.0
  0
SPLINE
  5
30E
100
AcDbEntity
  8
00_COMPONENTS_30
100
AcDbSpline
 62
7
  6
CONTINUOUS
 70
0
 71
3
 72
8
 73
4
 74
0
 42
0.0000001
 43
0.0000001
 44
0.0000000001
 40
0.0
 40
0.0
 40
0.0
 40
0.0
 40
1.0
 40
1.0
 40
1.0
 40
1.0
 10
209.2028007685
 20
157.8725839806
 30
0.0
 10
209.207029807
 20
157.8816228119
 30
0.0
 10
209.2098779321
 20
157.8914642469
 30
0.0
 10
209.2109815735
 20
157.9013822716
 30
0.0
  0
SPLINE
  5
30F
100
AcDbEntity
  8
00_COMPONENTS_30
100
AcDbSpline
 62
7
  6
CONTINUOUS
 70
0
 71
3
 72
9
 73
5
 74
0
 42
0.0000001
 43
0.0000001
 44
0.0000000001
 40
0.0
 40
0.0
 40
0.0
 40
0.0
 40
0.2095302301
 40
1.0
 40
1.0
 40
1.0
 40
1.0
 10
209.5416143822
 20
156.6378709488
 30
0.0
 10
209.5416204132
 20
156.6384475174
 30
0.0
 10
209.5411838726
 20
156.6412158689
 30
0.0
 10
209.5391571978
 20
156.6434248143
 30
0.0
 10
209.537512393
 20
156.6448483382
 30
0.0
  0
SPLINE
  5
310
100
AcDbEntity
  8
00_COMPONENTS_30
100
AcDbSpline
 62
7
  6
CONTINUOUS
 70
0
 71
3
 72
8
 73
4
 74
0
 42
0.0000001
 43
0.0000001
 44
0.0000000001
 40
0.0
 40
0.0
 40
0.0
 40
0.0
 40
1.0
 40
1.0
 40
1.0
 40
1.0
 10
209.537512393
 20
156.6448483382
 30
0.0
 10
209.5359460058
 20
156.6462039944
 30
0.0
 10
209.5342031746
 20
156.6473581374
 30
0.0
 10
209.5324131279
 20
156.6484007808
 30
0.0
  0
SPLINE
  5
311
100
AcDbEntity
  8
00_COMPONENTS_30
100
AcDbSpline
 62
7
  6
CONTINUOUS
 70
0
 71
3
 72
11
 73
7
 74
0
 42
0.0000001
 43
0.0000001
 44
0.0000000001
 40
0.0
 40
0.0
 40
0.0
 40
0.0
 40
0.3080107342
 40
0.5891209194
 40
0.8250141945
 40
1.0
 40
1.0
 40
1.0
 40
1.0
 10
209.5416299396
 20
156.6378504834
 30
0.0
 10
209.5331781527
 20
156.4817349627
 30
0.0
 10
209.5071898951
 20
156.1835630711
 30
0.0
 10
209.4418311917
 20
155.7695349537
 30
0.0
 10
209.3617734099
 20
155.4272880573
 30
0.0
 10
209.2987399198
 20
155.228044978
 30
0.0
 10
209.2661411481
 20
155.1454217631
 30
0.0
  0
SPLINE
  5
312
100
AcDbEntity
  8
00_COMPONENTS_30
100
AcDbSpline
 62
7
  6
CONTINUOUS
 70
0
 71
3
 72
9
 73
5
 74
0
 42
0.0000001
 43
0.0000001
 44
0.0000000001
 40
0.0
 40
0.0
 40
0.0
 40
0.0
 40
0.5774636402
 40
1.0
 40
1.0
 40
1.0
 40
1.0
 10
209.2661411481
 20
155.1454217631
 30
0.0
 10
209.2559008741
 20
155.1194672772
 30
0.0
 10
209.2370665065
 20
155.074955764
 30
0.0
 10
209.2148577779
 20
155.0319061665
 30
0.0
 10
209.2040471504
 20
155.0145874208
 30
0.0
  0
SPLINE
  5
313
100
AcDbEntity
  8
00_COMPONENTS_30
100
AcDbSpline
 62
7
  6
CONTINUOUS
 70
0
 71
3
 72
14
 73
10
 74
0
 42
0.0000001
 43
0.0000001
 44
0.0000000001
 40
0.0
 40
0.0
 40
0.0
 40
0.0
 40
0.1781596374
 40
0.3074626139
 40
0.3941233019
 40
0.4568393809
 40
0.5330385564
 40
0.6460476025
 40
1.0
 40
1.0
 40
1.0
 40
1.0
 10
209.2040471504
 20
155.0145874208
 30
0.0
 10
209.1994918924
 20
155.0072898466
 30
0.0
 10
209.1911598874
 20
154.9948740738
 30
0.0
 10
209.1784544052
 20
154.9808793358
 30
0.0
 10
209.1670020137
 20
154.972674616
 30
0.0
 10
209.1549657571
 20
154.9741212479
 30
0.0
 10
209.1480212049
 20
154.9852962945
 30
0.0
 10
209.1414884175
 20
155.0104374252
 30
0.0
 10
209.1409850512
 20
155.0334193872
 30
0.0
 10
209.1410685493
 20
155.0505101239
 30
0.0
  0
LINE
  5
314
100
AcDbEntity
  8
00_COMPONENTS_30
100
AcDbLine
 62
7
  6
CONTINUOUS
 10
209.5324448601
 20
158.0774911769
 11
209.5317322308
 21
158.0637153782
  0
SPLINE
  5
315
100
AcDbEntity
  8
00_COMPONENTS_30
100
AcDbSpline
 62
7
  6
CONTINUOUS
 70
0
 71
3
 72
23
 73
19
 74
0
 42
0.0000001
 43
0.0000001
 44
0.0000000001
 40
0.0
 40
0.0
 40
0.0
 40
0.0
 40
0.2306920246
 40
0.4416655903
 40
0.6144770899
 40
0.680678868
 40
0.7317186181
 40
0.7670481052
 40
0.7794248773
 40
0.7890985009
 40
0.7972015557
 40
0.8052789167
 40
0.8146839168
 40
0.826173605
 40
0.8563050508
 40
0.8959172065
 40
0.9441094992
 40
1.0
 40
1.0
 40
1.0
 40
1.0
 10
209.5317322308
 20
158.0637153782
 30
0.0
 10
209.5248926479
 20
157.9339622148
 30
0.0
 10
209.5052188491
 20
157.6857704884
 30
0.0
 10
209.4538556278
 20
157.3432695789
 30
0.0
 10
209.3958864177
 20
157.0959678446
 30
0.0
 10
209.3413848951
 20
156.9416755682
 30
0.0
 10
209.3052919394
 20
156.8637045541
 30
0.0
 10
209.2747894469
 20
156.8164107619
 30
0.0
 10
209.250633128
 20
156.7946295969
 30
0.0
 10
209.2352165516
 20
156.786774519
 30
0.0
 10
209.2201268585
 20
156.7859501294
 30
0.0
 10
209.2066873732
 20
156.7924153466
 30
0.0
 10
209.1955052714
 20
156.8046254604
 30
0.0
 10
209.1814774272
 20
156.829879759
 30
0.0
 10
209.1688231172
 20
156.8742789795
 30
0.0
 10
209.1588558154
 20
156.9399604429
 30
0.0
 10
209.153217928
 20
157.0207874838
 30
0.0
 10
209.1521771848
 20
157.0794113766
 30
0.0
 10
209.1521594832
 20
157.1108907321
 30
0.0
  0
SPLINE
  5
316
100
AcDbEntity
  8
00_COMPONENTS_30
100
AcDbSpline
 62
7
  6
CONTINUOUS
 70
0
 71
3
 72
9
 73
5
 74
0
 42
0.0000001
 43
0.0000001
 44
0.0000000001
 40
0.0
 40
0.0
 40
0.0
 40
0.0
 40
0.4996001326
 40
1.0
 40
1.0
 40
1.0
 40
1.0
 10
209.3734774595
 20
161.2260720746
 30
0.0
 10
209.4250987496
 20
163.4345669417
 30
0.0
 10
209.4991259149
 20
167.8558389004
 30
0.0
 10
209.5162755535
 20
172.2776198585
 30
0.0
 10
209.5172662772
 20
174.4902539317
 30
0.0
  0
SPLINE
  5
317
100
AcDbEntity
  8
00_COMPONENTS_30
100
AcDbSpline
 62
7
  6
CONTINUOUS
 70
0
 71
3
 72
9
 73
5
 74
0
 42
0.0000001
 43
0.0000001
 44
0.0000000001
 40
0.0
 40
0.0
 40
0.0
 40
0.0
 40
0.5003992451
 40
1.0
 40
1.0
 40
1.0
 40
1.0
 10
209.5172719568
 20
175.2195805533
 30
0.0
 10
209.5163152201
 20
177.4340252375
 30
0.0
 10
209.4992375066
 20
181.8594301928
 30
0.0
 10
209.4252393493
 20
186.2843274163
 30
0.0
 10
209.3735866027
 20
188.494635249
 30
0.0
  0
SPLINE
  5
318
100
AcDbEntity
  8
00_COMPONENTS_30
100
AcDbSpline
 62
7
  6
CONTINUOUS
 70
0
 71
3
 72
9
 73
5
 74
0
 42
0.0000001
 43
0.0000001
 44
0.0000000001
 40
0.0
 40
0.0
 40
0.0
 40
0.0
 40
0.6583232088
 40
1.0
 40
1.0
 40
1.0
 40
1.0
 10
209.3458137283
 20
189.6102024191
 30
0.0
 10
209.3484132816
 20
189.6094402087
 30
0.0
 10
209.3521503302
 20
189.6083595162
 30
0.0
 10
209.3558925116
 20
189.605221942
 30
0.0
 10
209.3559519896
 20
189.6038172044
 30
0.0
  0
SPLINE
  5
319
100
AcDbEntity
  8
00_COMPONENTS_30
100
AcDbSpline
 62
7
  6
CONTINUOUS
 70
0
 71
3
 72
12
 73
8
 74
0
 42
0.0000001
 43
0.0000001
 44
0.0000000001
 40
0.0
 40
0.0
 40
0.0
 40
0.0
 40
0.23253949
 40
0.3537288365
 40
0.4779901627
 40
0.7342985638
 40
1.0
 40
1.0
 40
1.0
 40
1.0
 10
203.5521461215
 20
194.5407777872
 30
0.0
 10
203.9059637635
 20
194.3537714261
 30
0.0
 10
204.3877167694
 20
193.9531145427
 30
0.0
 10
204.8758511456
 20
193.2892365484
 30
0.0
 10
205.2841861622
 20
192.5250246761
 30
0.0
 10
205.6121679192
 20
191.4510545725
 30
0.0
 10
205.6917458183
 20
190.5501464254
 30
0.0
 10
205.6917464098
 20
190.0928772616
 30
0.0
  0
SPLINE
  5
31A
100
AcDbEntity
  8
00_COMPONENTS_30
100
AcDbSpline
 62
7
  6
CONTINUOUS
 70
0
 71
3
 72
12
 73
8
 74
0
 42
0.0000001
 43
0.0000001
 44
0.0000000001
 40
0.0
 40
0.0
 40
0.0
 40
0.0
 40
0.2657014307
 40
0.5220098326
 40
0.6462711596
 40
0.7674605071
 40
1.0
 40
1.0
 40
1.0
 40
1.0
 10
205.6917464149
 20
159.6320367458
 30
0.0
 10
205.6917457601
 20
159.1747676789
 30
0.0
 10
205.6121677669
 20
158.2738597235
 30
0.0
 10
205.2841859644
 20
157.1998898671
 30
0.0
 10
204.8758509589
 20
156.4356781721
 30
0.0
 10
204.3877166243
 20
155.7718003329
 30
0.0
 10
203.905963694
 20
155.3711435436
 30
0.0
 10
203.5521461144
 20
155.1841372173
 30
0.0
  0
SPLINE
  5
31B
100
AcDbEntity
  8
00_COMPONENTS_30
100
AcDbSpline
 62
7
  6
CONTINUOUS
 70
0
 71
3
 72
14
 73
10
 74
0
 42
0.0000001
 43
0.0000001
 44
0.0000000001
 40
0.0
 40
0.0
 40
0.0
 40
0.0
 40
0.0668714878
 40
0.1557349142
 40
0.2661351512
 40
0.3950434653
 40
0.5383856879
 40
0.6907075975
 40
1.0
 40
1.0
 40
1.0
 40
1.0
 10
209.3458380218
 20
189.6102060153
 30
0.0
 10
209.272811271
 20
189.6488390069
 30
0.0
 10
209.0931704742
 20
189.7201924292
 30
0.0
 10
208.7764592021
 20
189.809235828
 30
0.0
 10
208.3788539238
 20
189.8901832348
 30
0.0
 10
207.9112727444
 20
189.9607506369
 30
0.0
 10
207.3896491764
 20
190.0172390724
 30
0.0
 10
206.6442524961
 20
190.0729828808
 30
0.0
 10
206.073851773
 20
190.0905194905
 30
0.0
 10
205.6917452081
 20
190.0928787506
 30
0.0
  0
SPLINE
  5
31C
100
AcDbEntity
  8
00_COMPONENTS_30
100
AcDbSpline
 62
7
  6
CONTINUOUS
 70
0
 71
3
 72
12
 73
8
 74
0
 42
0.0000001
 43
0.0000001
 44
0.0000000001
 40
0.0
 40
0.0
 40
0.0
 40
0.0
 40
0.2504356077
 40
0.3757789524
 40
0.5010349636
 40
0.7508432925
 40
1.0
 40
1.0
 40
1.0
 40
1.0
 10
205.1332143191
 20
196.8127939914
 30
0.0
 10
205.6300689722
 20
196.5748457272
 30
0.0
 10
206.3364431031
 20
196.1273541983
 30
0.0
 10
207.1569955075
 20
195.3893564932
 30
0.0
 10
207.8928848991
 20
194.5680263787
 30
0.0
 10
208.6437472399
 20
193.4065809335
 30
0.0
 10
209.0501170653
 20
192.3786466998
 30
0.0
 10
209.2028122577
 20
191.8522662184
 30
0.0
  0
SPLINE
  5
31D
100
AcDbEntity
  8
00_COMPONENTS_30
100
AcDbSpline
 62
7
  6
CONTINUOUS
 70
0
 71
3
 72
9
 73
5
 74
0
 42
0.0000001
 43
0.0000001
 44
0.0000000001
 40
0.0
 40
0.0
 40
0.0
 40
0.0
 40
0.5284610632
 40
1.0
 40
1.0
 40
1.0
 40
1.0
 10
209.3458400476
 20
189.6102053429
 30
0.0
 10
209.3362441887
 20
190.0015796671
 30
0.0
 10
209.3019760993
 20
190.7418230307
 30
0.0
 10
209.2413525163
 20
191.4803388337
 30
0.0
 10
209.2053862022
 20
191.8278055269
 30
0.0
  0
LINE
  5
31E
100
AcDbEntity
  8
00_COMPONENTS_30
100
AcDbLine
 62
7
  6
CONTINUOUS
 10
209.2053862022
 20
191.8278055269
 11
209.2028409154
 21
191.8522738476
  0
SPLINE
  5
31F
100
AcDbEntity
  8
00_COMPONENTS_30
100
AcDbSpline
 62
7
  6
CONTINUOUS
 70
0
 71
3
 72
8
 73
4
 74
0
 42
0.0000001
 43
0.0000001
 44
0.0000000001
 40
0.0
 40
0.0
 40
0.0
 40
0.0
 40
1.0
 40
1.0
 40
1.0
 40
1.0
 10
209.2028409154
 20
191.8522738476
 30
0.0
 10
209.2070571435
 20
191.8432435869
 30
0.0
 10
209.2098958766
 20
191.8334136003
 30
0.0
 10
209.2109906065
 20
191.8235078568
 30
0.0
  0
SPLINE
  5
320
100
AcDbEntity
  8
00_COMPONENTS_30
100
AcDbSpline
 62
7
  6
CONTINUOUS
 70
0
 71
3
 72
14
 73
10
 74
0
 42
0.0000001
 43
0.0000001
 44
0.0000000001
 40
0.0
 40
0.0
 40
0.0
 40
0.0
 40
0.0794074448
 40
0.1716361146
 40
0.2791905256
 40
0.4016878768
 40
0.5374109817
 40
0.6840467272
 40
1.0
 40
1.0
 40
1.0
 40
1.0
 10
205.1332558069
 20
196.812755979
 30
0.0
 10
205.1216149779
 20
196.7620898865
 30
0.0
 10
205.0804214485
 20
196.6558037136
 30
0.0
 10
204.9715492306
 20
196.5070404747
 30
0.0
 10
204.8159238416
 20
196.3633104416
 30
0.0
 10
204.6205060391
 20
196.2241522705
 30
0.0
 10
204.3907067984
 20
196.0914533134
 30
0.0
 10
204.0369651538
 20
195.9222981596
 30
0.0
 10
203.7494942719
 20
195.8242987036
 30
0.0
 10
203.5521484052
 20
195.762328263
 30
0.0
  0
SPLINE
  5
321
100
AcDbEntity
  8
00_COMPONENTS_30
100
AcDbSpline
 62
7
  6
CONTINUOUS
 70
0
 71
3
 72
9
 73
5
 74
0
 42
0.0000001
 43
0.0000001
 44
0.0000000001
 40
0.0
 40
0.0
 40
0.0
 40
0.0
 40
0.7507446361
 40
1.0
 40
1.0
 40
1.0
 40
1.0
 10
204.3907624019
 20
196.9642832515
 30
0.0
 10
204.580818191
 20
196.9584017381
 30
0.0
 10
204.8346337192
 20
196.9177668946
 30
0.0
 10
205.074459835
 20
196.8358771134
 30
0.0
 10
205.1332074447
 20
196.8127640181
 30
0.0
  0
LINE
  5
322
100
AcDbEntity
  8
00_COMPONENTS_30
100
AcDbLine
 62
7
  6
CONTINUOUS
 10
209.2028320969
 20
157.8725825339
 11
209.2053778884
 21
157.8970800877
  0
SPLINE
  5
323
100
AcDbEntity
  8
00_COMPONENTS_30
100
AcDbSpline
 62
7
  6
CONTINUOUS
 70
0
 71
3
 72
9
 73
5
 74
0
 42
0.0000001
 43
0.0000001
 44
0.0000000001
 40
0.0
 40
0.0
 40
0.0
 40
0.0
 40
0.4715500334
 40
1.0
 40
1.0
 40
1.0
 40
1.0
 10
209.2053778884
 20
157.8970800877
 30
0.0
 10
209.2413119762
 20
158.2445632834
 30
0.0
 10
209.3020511931
 20
158.9830796062
 30
0.0
 10
209.336227223
 20
159.7233386921
 30
0.0
 10
209.3458399302
 20
160.1147098479
 30
0.0
  0
SPLINE
  5
324
100
AcDbEntity
  8
00_COMPONENTS_30
100
AcDbSpline
 62
7
  6
CONTINUOUS
 70
0
 71
3
 72
14
 73
10
 74
0
 42
0.0000001
 43
0.0000001
 44
0.0000000001
 40
0.0
 40
0.0
 40
0.0
 40
0.0
 40
0.0789117598
 40
0.1648203743
 40
0.2643020392
 40
0.3804165014
 40
0.5136359301
 40
0.6627310966
 40
1.0
 40
1.0
 40
1.0
 40
1.0
 10
204.3907438252
 20
196.964311671
 30
0.0
 10
204.3907336563
 20
196.9376074339
 30
0.0
 10
204.3799982233
 20
196.8813598509
 30
0.0
 10
204.3326701528
 20
196.803697966
 30
0.0
 10
204.2565728109
 20
196.7342720088
 30
0.0
 10
204.1549173309
 20
196.6732110631
 30
0.0
 10
204.0299857256
 20
196.6215349414
 30
0.0
 10
203.8285420062
 20
196.5624279672
 30
0.0
 10
203.665458771
 20
196.5359614486
 30
0.0
 10
203.5521467642
 20
196.52228872
 30
0.0
  0
LINE
  5
325
100
AcDbEntity
  8
00_COMPONENTS_30
100
AcDbLine
 62
7
  6
CONTINUOUS
 10
209.5352407231
 20
158.0769935483
 11
209.5408072871
 21
158.0770146211
  0
LINE
  5
326
100
AcDbEntity
  8
00_COMPONENTS_30
100
AcDbLine
 62
7
  6
CONTINUOUS
 10
209.5408072871
 20
158.0770146211
 11
209.5419140981
 21
158.0772081716
  0
SPLINE
  5
327
100
AcDbEntity
  8
00_COMPONENTS_30
100
AcDbSpline
 62
7
  6
CONTINUOUS
 70
0
 71
3
 72
9
 73
5
 74
0
 42
0.0000001
 43
0.0000001
 44
0.0000000001
 40
0.0
 40
0.0
 40
0.0
 40
0.0
 40
0.6583569993
 40
1.0
 40
1.0
 40
1.0
 40
1.0
 10
209.3458399003
 20
160.114708609
 30
0.0
 10
209.3484372297
 20
160.1154711814
 30
0.0
 10
209.3521717863
 20
160.1165505778
 30
0.0
 10
209.355906554
 20
160.1196940802
 30
0.0
 10
209.3559621969
 20
160.1210977083
 30
0.0
  0
SPLINE
  5
328
100
AcDbEntity
  8
00_COMPONENTS_30
100
AcDbSpline
 62
7
  6
CONTINUOUS
 70
0
 71
3
 72
14
 73
10
 74
0
 42
0.0000001
 43
0.0000001
 44
0.0000000001
 40
0.0
 40
0.0
 40
0.0
 40
0.0
 40
0.337268649
 40
0.4863637737
 40
0.6195832091
 40
0.7356977469
 40
0.8351795421
 40
0.9210882485
 40
1.0
 40
1.0
 40
1.0
 40
1.0
 10
203.5521467647
 20
153.2026262912
 30
0.0
 10
203.6654585196
 20
153.1889535903
 30
0.0
 10
203.8285414159
 20
153.1624871479
 30
0.0
 10
204.0299847748
 20
153.1033803935
 30
0.0
 10
204.1549162588
 20
153.0517044691
 30
0.0
 10
204.2565717495
 20
152.9906437492
 30
0.0
 10
204.3326692561
 20
152.9212180687
 30
0.0
 10
204.379997681
 20
152.8435564875
 30
0.0
 10
204.3907334636
 20
152.7873090387
 30
0.0
 10
204.3907438233
 20
152.7606048437
 30
0.0
  0
SPLINE
  5
329
100
AcDbEntity
  8
00_COMPONENTS_30
100
AcDbSpline
 62
7
  6
CONTINUOUS
 70
0
 71
3
 72
12
 73
8
 74
0
 42
0.0000001
 43
0.0000001
 44
0.0000000001
 40
0.0
 40
0.0
 40
0.0
 40
0.0
 40
0.2491565432
 40
0.4989655069
 40
0.6242215802
 40
0.7495647001
 40
1.0
 40
1.0
 40
1.0
 40
1.0
 10
209.2028013875
 20
157.8725830068
 30
0.0
 10
209.0501053279
 20
157.3462085684
 30
0.0
 10
208.6437178183
 20
156.3182914575
 30
0.0
 10
207.8928616968
 20
155.1568577294
 30
0.0
 10
207.1569740384
 20
154.3355382626
 30
0.0
 10
206.3364272299
 20
153.5975521069
 30
0.0
 10
205.6300636857
 20
153.1500611766
 30
0.0
 10
205.1332143191
 20
152.9121155431
 30
0.0
  0
SPLINE
  5
32A
100
AcDbEntity
  8
00_COMPONENTS_30
100
AcDbSpline
 62
7
  6
CONTINUOUS
 70
0
 71
3
 72
8
 73
4
 74
0
 42
0.0000001
 43
0.0000001
 44
0.0000000001
 40
0.0
 40
0.0
 40
0.0
 40
0.0
 40
1.0
 40
1.0
 40
1.0
 40
1.0
 10
209.5352407231
 20
158.0769935483
 30
0.0
 10
209.5343315829
 20
158.077277164
 30
0.0
 10
209.5333718244
 20
158.0776380934
 30
0.0
 10
209.5324292594
 20
158.0775019138
 30
0.0
  0
SPLINE
  5
32B
100
AcDbEntity
  8
00_COMPONENTS_30
100
AcDbSpline
 62
7
  6
CONTINUOUS
 70
0
 71
3
 72
9
 73
5
 74
0
 42
0.0000001
 43
0.0000001
 44
0.0000000001
 40
0.0
 40
0.0
 40
0.0
 40
0.0
 40
0.2333235431
 40
1.0
 40
1.0
 40
1.0
 40
1.0
 10
209.1410685493
 20
155.0505101239
 30
0.0
 10
209.1410822826
 20
155.0533211138
 30
0.0
 10
209.1412364787
 20
155.0653682487
 30
0.0
 10
209.1417321207
 20
155.0774094179
 30
0.0
 10
209.1422400995
 20
155.0866321644
 30
0.0
  0
SPLINE
  5
32C
100
AcDbEntity
  8
00_COMPONENTS_30
100
AcDbSpline
 62
7
  6
CONTINUOUS
 70
0
 71
3
 72
9
 73
5
 74
0
 42
0.0000001
 43
0.0000001
 44
0.0000000001
 40
0.0
 40
0.0
 40
0.0
 40
0.0
 40
0.4250100374
 40
1.0
 40
1.0
 40
1.0
 40
1.0
 10
209.1433169935
 20
155.1036451957
 30
0.0
 10
209.1477285424
 20
155.1658272041
 30
0.0
 10
209.1672116397
 20
155.3113800779
 30
0.0
 10
209.1914129867
 20
155.4560038665
 30
0.0
 10
209.2058423281
 20
155.5390969158
 30
0.0
  0
SPLINE
  5
32D
100
AcDbEntity
  8
00_COMPONENTS_30
100
AcDbSpline
 62
7
  6
CONTINUOUS
 70
0
 71
3
 72
9
 73
5
 74
0
 42
0.0000001
 43
0.0000001
 44
0.0000000001
 40
0.0
 40
0.0
 40
0.0
 40
0.0
 40
0.4570393621
 40
1.0
 40
1.0
 40
1.0
 40
1.0
 10
209.2058423281
 20
155.5390969158
 30
0.0
 10
209.2334130368
 20
155.6978660644
 30
0.0
 10
209.2971819387
 20
156.0446372605
 30
0.0
 10
209.3560463332
 20
156.3923104911
 30
0.0
 10
209.3852810948
 20
156.5815048929
 30
0.0
  0
SPLINE
  5
32E
100
AcDbEntity
  8
00_COMPONENTS_30
100
AcDbSpline
 62
7
  6
CONTINUOUS
 70
0
 71
3
 72
9
 73
5
 74
0
 42
0.0000001
 43
0.0000001
 44
0.0000000001
 40
0.0
 40
0.0
 40
0.0
 40
0.0
 40
0.2379130481
 40
1.0
 40
1.0
 40
1.0
 40
1.0
 10
209.406674112
 20
156.7234023903
 30
0.0
 10
209.4219265241
 20
156.8272346233
 30
0.0
 10
209.4822723799
 20
157.2641755543
 30
0.0
 10
209.5242087616
 20
157.703935064
 30
0.0
 10
209.5402541066
 20
158.0397182718
 30
0.0
  0
LINE
  5
32F
100
AcDbEntity
  8
00_COMPONENTS_30
100
AcDbLine
 62
7
  6
CONTINUOUS
 10
209.5402541066
 20
158.0397182718
 11
209.5409788619
 21
158.0551241271
  0
SPLINE
  5
330
100
AcDbEntity
  8
00_COMPONENTS_30
100
AcDbSpline
 62
7
  6
CONTINUOUS
 70
0
 71
3
 72
11
 73
7
 74
0
 42
0.0000001
 43
0.0000001
 44
0.0000000001
 40
0.0
 40
0.0
 40
0.0
 40
0.0
 40
0.1796180004
 40
0.4128336385
 40
0.6891920414
 40
1.0
 40
1.0
 40
1.0
 40
1.0
 10
209.1495605304
 20
194.5538169203
 30
0.0
 10
209.1581941949
 20
194.4763341645
 30
0.0
 10
209.1856109576
 20
194.2991546245
 30
0.0
 10
209.2377676542
 20
194.0046287856
 30
0.0
 10
209.3011066848
 20
193.6542135
 30
0.0
 10
209.3439262809
 20
193.4029709477
 30
0.0
 10
209.3653579273
 20
193.2697795777
 30
0.0
  0
SPLINE
  5
331
100
AcDbEntity
  8
00_COMPONENTS_30
100
AcDbSpline
 62
7
  6
CONTINUOUS
 70
0
 71
3
 72
9
 73
5
 74
0
 42
0.0000001
 43
0.0000001
 44
0.0000000001
 40
0.0
 40
0.0
 40
0.0
 40
0.0
 40
0.2436321358
 40
1.0
 40
1.0
 40
1.0
 40
1.0
 10
209.4661884079
 20
192.5551979372
 30
0.0
 10
209.474810276
 20
192.482553726
 30
0.0
 10
209.5079732094
 20
192.1841294662
 30
0.0
 10
209.5312443927
 20
191.8845450695
 30
0.0
 10
209.5416284743
 20
191.6576722026
 30
0.0
  0
SPLINE
  5
332
100
AcDbEntity
  8
00_COMPONENTS_5
100
AcDbSpline
 62
7
  6
CONTINUOUS
 70
0
 71
3
 72
9
 73
5
 74
0
 42
0.0000001
 43
0.0000001
 44
0.0000000001
 40
0.0
 40
0.0
 40
0.0
 40
0.0
 40
0.468335973
 40
1.0
 40
1.0
 40
1.0
 40
1.0
 10
203.5521471271
 20
34.8624575043
 30
0.0
 10
203.5521471271
 20
34.6116239688
 30
0.0
 10
203.4337617361
 20
34.0733705299
 30
0.0
 10
203.1457103593
 20
33.6136171182
 30
0.0
 10
202.9734336688
 20
33.3868928108
 30
0.0
  0
SPLINE
  5
333
100
AcDbEntity
  8
00_COMPONENTS_5
100
AcDbSpline
 62
7
  6
CONTINUOUS
 70
0
 71
3
 72
9
 73
5
 74
0
 42
0.0000001
 43
0.0000001
 44
0.0000000001
 40
0.0
 40
0.0
 40
0.0
 40
0.0
 40
0.531664027
 40
1.0
 40
1.0
 40
1.0
 40
1.0
 10
202.9734336688
 20
325.9380221978
 30
0.0
 10
203.1457103593
 20
325.7112978904
 30
0.0
 10
203.4337617361
 20
325.2515444787
 30
0.0
 10
203.5521471271
 20
324.7132910398
 30
0.0
 10
203.5521471271
 20
324.4624575043
 30
0.0
  0
SPLINE
  5
334
100
AcDbEntity
  8
00_COMPONENTS_5
100
AcDbSpline
 62
7
  6
CONTINUOUS
 70
0
 71
3
 72
9
 73
5
 74
0
 42
0.0000001
 43
0.0000001
 44
0.0000000001
 40
0.0
 40
0.0
 40
0.0
 40
0.0
 40
0.2702777827
 40
1.0
 40
1.0
 40
1.0
 40
1.0
 10
184.5265563749
 20
326.5975226363
 30
0.0
 10
184.466235354
 20
326.5662074454
 30
0.0
 10
184.2437678233
 20
326.449351171
 30
0.0
 10
184.023549422
 20
326.3254375146
 30
0.0
 10
183.8753030141
 20
326.2172945916
 30
0.0
  0
SPLINE
  5
335
100
AcDbEntity
  8
00_COMPONENTS_5
100
AcDbSpline
 62
7
  6
CONTINUOUS
 70
0
 71
3
 72
9
 73
5
 74
0
 42
0.0000001
 43
0.0000001
 44
0.0000000001
 40
0.0
 40
0.0
 40
0.0
 40
0.0
 40
0.3157260162
 40
1.0
 40
1.0
 40
1.0
 40
1.0
 10
183.8753030141
 20
326.2172945916
 30
0.0
 10
183.8276930542
 20
326.1825640352
 30
0.0
 10
183.6841418627
 20
326.0701446316
 30
0.0
 10
183.5522279767
 20
325.8984256577
 30
0.0
 10
183.5521497425
 20
325.7707032914
 30
0.0
  0
SPLINE
  5
336
100
AcDbEntity
  8
00_COMPONENTS_5
100
AcDbSpline
 62
7
  6
CONTINUOUS
 70
0
 71
3
 72
9
 73
5
 74
0
 42
0.0000001
 43
0.0000001
 44
0.0000000001
 40
0.0
 40
0.0
 40
0.0
 40
0.0
 40
0.2707808534
 40
1.0
 40
1.0
 40
1.0
 40
1.0
 10
184.5264751957
 20
32.7274414707
 30
0.0
 10
184.4654085473
 20
32.7591496425
 30
0.0
 10
184.2406397395
 20
32.877283426
 30
0.0
 10
184.0180359789
 20
33.0025305849
 30
0.0
 10
183.8687754088
 20
33.1123393556
 30
0.0
  0
SPLINE
  5
337
100
AcDbEntity
  8
00_COMPONENTS_5
100
AcDbSpline
 62
7
  6
CONTINUOUS
 70
0
 71
3
 72
9
 73
5
 74
0
 42
0.0000001
 43
0.0000001
 44
0.0000000001
 40
0.0
 40
0.0
 40
0.0
 40
0.0
 40
0.3150713363
 40
1.0
 40
1.0
 40
1.0
 40
1.0
 10
183.8687754088
 20
33.1123393556
 30
0.0
 10
183.8220630423
 20
33.1467049455
 30
0.0
 10
183.680937752
 20
33.2582813878
 30
0.0
 10
183.552228006
 20
33.4281445926
 30
0.0
 10
183.5521497762
 20
33.5542118519
 30
0.0
  0
LINE
  5
338
100
AcDbEntity
  8
00_COMPONENTS_7
100
AcDbLine
 62
7
  6
CONTINUOUS
 10
179.5418356335
 20
49.8604506177
 11
179.4172512753
 21
49.7563298572
  0
SPLINE
  5
339
100
AcDbEntity
  8
00_COMPONENTS_7
100
AcDbSpline
 62
7
  6
CONTINUOUS
 70
0
 71
3
 72
9
 73
5
 74
0
 42
0.0000001
 43
0.0000001
 44
0.0000000001
 40
0.0
 40
0.0
 40
0.0
 40
0.0
 40
0.2596887219
 40
1.0
 40
1.0
 40
1.0
 40
1.0
 10
179.4172512753
 20
49.7563298572
 30
0.0
 10
179.3227094283
 20
49.6772118649
 30
0.0
 10
178.9595430441
 20
49.3717029201
 30
0.0
 10
178.6033540611
 20
49.0562153014
 30
0.0
 10
178.3592091079
 20
48.8034234633
 30
0.0
  0
SPLINE
  5
33A
100
AcDbEntity
  8
00_COMPONENTS_7
100
AcDbSpline
 62
7
  6
CONTINUOUS
 70
0
 71
3
 72
10
 73
6
 74
0
 42
0.0000001
 43
0.0000001
 44
0.0000000001
 40
0.0
 40
0.0
 40
0.0
 40
0.0
 40
0.288467489
 40
0.5490917984
 40
1.0
 40
1.0
 40
1.0
 40
1.0
 10
178.3592091079
 20
48.8034234633
 30
0.0
 10
178.2387860874
 20
48.6787354191
 30
0.0
 10
178.0189851784
 20
48.4310717615
 30
0.0
 10
177.6792328667
 20
47.9359521069
 30
0.0
 10
177.5418505157
 20
47.5072233289
 30
0.0
 10
177.5418505157
 20
47.2362634961
 30
0.0
  0
SPLINE
  5
33B
100
AcDbEntity
  8
00_COMPONENTS_7
100
AcDbSpline
 62
7
  6
CONTINUOUS
 70
0
 71
3
 72
10
 73
6
 74
0
 42
0.0000001
 43
0.0000001
 44
0.0000000001
 40
0.0
 40
0.0
 40
0.0
 40
0.0
 40
0.3947338095
 40
0.667520391
 40
1.0
 40
1.0
 40
1.0
 40
1.0
 10
50.5418505157
 20
327.4624558172
 30
0.0
 10
50.5418505157
 20
327.555242828
 30
0.0
 10
50.6337224277
 20
327.7050732696
 30
0.0
 10
50.8138830524
 20
327.8517740899
 30
0.0
 10
50.9354278055
 20
327.927858937
 30
0.0
 10
51.0034218856
 20
327.9663915065
 30
0.0
  0
SPLINE
  5
33C
100
AcDbEntity
  8
00_COMPONENTS_7
100
AcDbSpline
 62
7
  6
CONTINUOUS
 70
0
 71
3
 72
9
 73
5
 74
0
 42
0.0000001
 43
0.0000001
 44
0.0000000001
 40
0.0
 40
0.0
 40
0.0
 40
0.0
 40
0.2357404639
 40
1.0
 40
1.0
 40
1.0
 40
1.0
 10
51.0034218856
 20
327.9663915065
 30
0.0
 10
51.0236587006
 20
327.977859806
 30
0.0
 10
51.1101077081
 20
328.0254397583
 30
0.0
 10
51.1986357428
 20
328.0691725954
 30
0.0
 10
51.2669402123
 20
328.1011269648
 30
0.0
  0
SPLINE
  5
33D
100
AcDbEntity
  8
00_COMPONENTS_7
100
AcDbSpline
 62
7
  6
CONTINUOUS
 70
0
 71
3
 72
9
 73
5
 74
0
 42
0.0000001
 43
0.0000001
 44
0.0000000001
 40
0.0
 40
0.0
 40
0.0
 40
0.0
 40
0.230600974
 40
1.0
 40
1.0
 40
1.0
 40
1.0
 10
51.2669402123
 20
328.1011269648
 30
0.0
 10
51.3197017102
 20
328.1258099819
 30
0.0
 10
51.5503115588
 20
328.2289852401
 30
0.0
 10
51.7859999965
 20
328.3203591988
 30
0.0
 10
51.9682176605
 20
328.3879504489
 30
0.0
  0
SPLINE
  5
33E
100
AcDbEntity
  8
00_COMPONENTS_7
100
AcDbSpline
 62
7
  6
CONTINUOUS
 70
0
 71
3
 72
9
 73
5
 74
0
 42
0.0000001
 43
0.0000001
 44
0.0000000001
 40
0.0
 40
0.0
 40
0.0
 40
0.0
 40
0.2442275581
 40
1.0
 40
1.0
 40
1.0
 40
1.0
 10
51.9682176605
 20
328.3879504489
 30
0.0
 10
52.0308748837
 20
328.4111923232
 30
0.0
 10
52.2879645871
 20
328.5049122858
 30
0.0
 10
52.54648871
 20
328.5946186746
 30
0.0
 10
52.7418505156
 20
328.6624575043
 30
0.0
  0
SPLINE
  5
33F
100
AcDbEntity
  8
00_COMPONENTS_7
100
AcDbSpline
 62
7
  6
CONTINUOUS
 70
0
 71
3
 72
9
 73
5
 74
0
 42
0.0000001
 43
0.0000001
 44
0.0000000001
 40
0.0
 40
0.0
 40
0.0
 40
0.0
 40
0.2536471072
 40
1.0
 40
1.0
 40
1.0
 40
1.0
 10
52.7418505156
 20
30.6624575043
 30
0.0
 10
52.6762851448
 20
30.6852248922
 30
0.0
 10
52.4178040512
 20
30.7750012521
 30
0.0
 10
52.1596964823
 20
30.8659380273
 30
0.0
 10
51.9682194389
 20
30.9369639013
 30
0.0
  0
SPLINE
  5
340
100
AcDbEntity
  8
00_COMPONENTS_7
100
AcDbSpline
 62
7
  6
CONTINUOUS
 70
0
 71
3
 72
9
 73
5
 74
0
 42
0.0000001
 43
0.0000001
 44
0.0000000001
 40
0.0
 40
0.0
 40
0.0
 40
0.0
 40
0.267796912
 40
1.0
 40
1.0
 40
1.0
 40
1.0
 10
51.9682194389
 20
30.9369639013
 30
0.0
 10
51.9047997353
 20
30.9604886007
 30
0.0
 10
51.6685377602
 20
31.0497475131
 30
0.0
 10
51.4344631444
 20
31.1454171579
 30
0.0
 10
51.2669428478
 20
31.2237868125
 30
0.0
  0
SPLINE
  5
341
100
AcDbEntity
  8
00_COMPONENTS_7
100
AcDbSpline
 62
7
  6
CONTINUOUS
 70
0
 71
3
 72
9
 73
5
 74
0
 42
0.0000001
 43
0.0000001
 44
0.0000000001
 40
0.0
 40
0.0
 40
0.0
 40
0.0
 40
0.2640638286
 40
1.0
 40
1.0
 40
1.0
 40
1.0
 10
51.2669428478
 20
31.2237868125
 30
0.0
 10
51.2433427367
 20
31.2348274601
 30
0.0
 10
51.1542930675
 20
31.2773137677
 30
0.0
 10
51.0665967446
 20
31.322722009
 30
0.0
 10
51.0034217906
 20
31.3585235581
 30
0.0
  0
SPLINE
  5
342
100
AcDbEntity
  8
00_COMPONENTS_7
100
AcDbSpline
 62
7
  6
CONTINUOUS
 70
0
 71
3
 72
10
 73
6
 74
0
 42
0.0000001
 43
0.0000001
 44
0.0000000001
 40
0.0
 40
0.0
 40
0.0
 40
0.0
 40
0.3324795981
 40
0.6052661665
 40
1.0
 40
1.0
 40
1.0
 40
1.0
 10
51.0034217906
 20
31.3585235581
 30
0.0
 10
50.9354277244
 20
31.3970561212
 30
0.0
 10
50.8138829913
 20
31.4731409494
 30
0.0
 10
50.6337224276
 20
31.6198417813
 30
0.0
 10
50.5418505157
 20
31.76967219
 30
0.0
 10
50.5418505157
 20
31.8624591914
 30
0.0
  0
SPLINE
  5
343
100
AcDbEntity
  8
00_COMPONENTS_7
100
AcDbSpline
 62
7
  6
CONTINUOUS
 70
0
 71
3
 72
10
 73
6
 74
0
 42
0.0000001
 43
0.0000001
 44
0.0000000001
 40
0.0
 40
0.0
 40
0.0
 40
0.0
 40
0.4508528291
 40
0.7114048251
 40
1.0
 40
1.0
 40
1.0
 40
1.0
 10
177.5418710108
 20
312.0886515125
 30
0.0
 10
177.5418710108
 20
311.8176195007
 30
0.0
 10
177.6792927883
 20
311.3887812844
 30
0.0
 10
178.0193194446
 20
310.8935723466
 30
0.0
 10
178.2391829743
 20
310.6457500578
 30
0.0
 10
178.3597171344
 20
310.5209688375
 30
0.0
  0
SPLINE
  5
344
100
AcDbEntity
  8
00_COMPONENTS_7
100
AcDbSpline
 62
7
  6
CONTINUOUS
 70
0
 71
3
 72
9
 73
5
 74
0
 42
0.0000001
 43
0.0000001
 44
0.0000000001
 40
0.0
 40
0.0
 40
0.0
 40
0.0
 40
0.238068157
 40
1.0
 40
1.0
 40
1.0
 40
1.0
 10
178.3597171344
 20
310.5209688375
 30
0.0
 10
178.4382044331
 20
310.4397160132
 30
0.0
 10
178.7770813756
 20
310.107253614
 30
0.0
 10
179.1399630632
 20
309.8006859043
 30
0.0
 10
179.4172330978
 20
309.5686383323
 30
0.0
  0
LINE
  5
345
100
AcDbEntity
  8
00_COMPONENTS_7
100
AcDbLine
 62
7
  6
CONTINUOUS
 10
179.4172330978
 20
309.5686383323
 11
179.5418505414
 21
309.4644823674
  0
SPLINE
  5
346
100
AcDbEntity
  8
00_COMPONENTS_7
100
AcDbSpline
 62
7
  6
CONTINUOUS
 70
0
 71
3
 72
9
 73
5
 74
0
 42
0.0000001
 43
0.0000001
 44
0.0000000001
 40
0.0
 40
0.0
 40
0.0
 40
0.0
 40
0.2318620341
 40
1.0
 40
1.0
 40
1.0
 40
1.0
 10
177.5418505157
 20
32.8624575043
 30
0.0
 10
177.5418505157
 20
32.8232484521
 30
0.0
 10
177.5252929941
 20
32.6538571908
 30
0.0
 10
177.4418858485
 20
32.4970036841
 30
0.0
 10
177.3638795252
 20
32.3931384037
 30
0.0
  0
SPLINE
  5
347
100
AcDbEntity
  8
00_COMPONENTS_7
100
AcDbSpline
 62
7
  6
CONTINUOUS
 70
0
 71
3
 72
9
 73
5
 74
0
 42
0.0000001
 43
0.0000001
 44
0.0000000001
 40
0.0
 40
0.0
 40
0.0
 40
0.0
 40
0.4286605817
 40
1.0
 40
1.0
 40
1.0
 40
1.0
 10
177.3638795252
 20
32.3931384037
 30
0.0
 10
177.2176186059
 20
32.1983922505
 30
0.0
 10
176.764349124
 20
31.8359298125
 30
0.0
 10
176.2683722926
 20
31.5620329839
 30
0.0
 10
175.9791143098
 20
31.414697103
 30
0.0
  0
SPLINE
  5
348
100
AcDbEntity
  8
00_COMPONENTS_7
100
AcDbSpline
 62
7
  6
CONTINUOUS
 70
0
 71
3
 72
9
 73
5
 74
0
 42
0.0000001
 43
0.0000001
 44
0.0000000001
 40
0.0
 40
0.0
 40
0.0
 40
0.0
 40
0.2366460344
 40
1.0
 40
1.0
 40
1.0
 40
1.0
 10
175.9791143098
 20
31.414697103
 30
0.0
 10
175.8524538433
 20
31.3501815753
 30
0.0
 10
175.3126901563
 20
31.0864284402
 30
0.0
 10
174.7618990797
 20
30.8463027184
 30
0.0
 10
174.3418505157
 20
30.6624575043
 30
0.0
  0
SPLINE
  5
349
100
AcDbEntity
  8
00_COMPONENTS_7
100
AcDbSpline
 62
7
  6
CONTINUOUS
 70
0
 71
3
 72
9
 73
5
 74
0
 42
0.0000001
 43
0.0000001
 44
0.0000000001
 40
0.0
 40
0.0
 40
0.0
 40
0.0
 40
0.2592759043
 40
1.0
 40
1.0
 40
1.0
 40
1.0
 10
174.3418505157
 20
328.6624575043
 30
0.0
 10
174.484513409
 20
328.6000173666
 30
0.0
 10
175.0346112174
 20
328.3590425126
 30
0.0
 10
175.5826726025
 20
328.1121483513
 30
0.0
 10
175.9791091979
 20
327.9102203662
 30
0.0
  0
SPLINE
  5
34A
100
AcDbEntity
  8
00_COMPONENTS_7
100
AcDbSpline
 62
7
  6
CONTINUOUS
 70
0
 71
3
 72
9
 73
5
 74
0
 42
0.0000001
 43
0.0000001
 44
0.0000000001
 40
0.0
 40
0.0
 40
0.0
 40
0.0
 40
0.571339622
 40
1.0
 40
1.0
 40
1.0
 40
1.0
 10
175.9791091979
 20
327.9102203662
 30
0.0
 10
176.2683684606
 20
327.762883968
 30
0.0
 10
176.7643473126
 20
327.4889863284
 30
0.0
 10
177.2176188036
 20
327.1265226648
 30
0.0
 10
177.3638801028
 20
326.9317757598
 30
0.0
  0
SPLINE
  5
34B
100
AcDbEntity
  8
00_COMPONENTS_7
100
AcDbSpline
 62
7
  6
CONTINUOUS
 70
0
 71
3
 72
9
 73
5
 74
0
 42
0.0000001
 43
0.0000001
 44
0.0000000001
 40
0.0
 40
0.0
 40
0.0
 40
0.0
 40
0.2776537253
 40
1.0
 40
1.0
 40
1.0
 40
1.0
 10
177.3638801028
 20
326.9317757598
 30
0.0
 10
177.392038044
 20
326.8942834638
 30
0.0
 10
177.4860437989
 20
326.7545051312
 30
0.0
 10
177.5418505157
 20
326.5844433122
 30
0.0
 10
177.5418505157
 20
326.4624575043
 30
0.0
  0
ENDSEC
  0
SECTION
  2
OBJECTS
  0
DICTIONARY
  5
C
100
AcDbDictionary
280
0
281
1
  3
ACAD_GROUP
350
D
  3
ACAD_MLINESTYLE
350
17
  3
ACAD_LAYOUT
350
1A
  3
ACAD_PLOTSETTINGS
350
19
  3
ACAD_PLOTSTYLENAME
350
E
  0
DICTIONARY
  5
D
102
{ACAD_REACTORS
330
C
102
}
100
AcDbDictionary
280
0
281
1
  0
ACDBDICTIONARYWDFLT
  5
E
102
{ACAD_REACTORS
330
C
102
}
100
AcDbDictionary
281
1
  3
Normal
350
F
100
AcDbDictionaryWithDefault
340
F
  0
DICTIONARY
  5
17
102
{ACAD_REACTORS
330
C
102
}
100
AcDbDictionary
280
0
281
1
  3
Standard
350
18
  0
DICTIONARY
  5
19
102
{ACAD_REACTORS
330
C
102
}
100
AcDbDictionary
281
1
  0
DICTIONARY
  5
1A
102
{ACAD_REACTORS
330
C
102
}
100
AcDbDictionary
281
1
  3
Model
350
34C
  3
Layout1
350
34D
  0
ACDBPLACEHOLDER
  5
F
102
{ACAD_REACTORS
330
E
102
}
  0
MLINESTYLE
  5
18
102
{ACAD_REACTORS
330
17
102
}
100
AcDbMlineStyle
  2
STANDARD
 70
0
  3

 62
256
 51
90.0
 52
90.0
 71
2
 49
0.5
 62
256
  6
BYLAYER
 49
-0.5
 62
256
  6
BYLAYER
  0
LAYOUT
  5
34C
102
{ACAD_REACTORS
330
1A
102
}
100
AcDbPlotSettings
  1

  2
none_device
  4

  6

 40
0.0
 41
0.0
 42
0.0
 43
0.0
 44
210.0
 45
297.0
 46
0.0
 47
0.0
 48
0.0
 49
0.0
140
0.0
141
0.0
142
1.0
143
1.0
 70
1024
 72
1
 73
0
 74
0
  7

 75
0
147
1.0
148
0.0
149
0.0
100
AcDbLayout
  1
Model
 70
0
 71
0
 10
0.0
 20
0.0
 11
210.0
 21
297.0
 12
0.0
 22
0.0
 32
0.0
 14
0.0
 24
0.0
 34
0.0
 15
0.0
 25
0.0
 35
0.0
146
0.0
 13
0.0
 23
0.0
 33
0.0
 16
1.0
 26
0.0
 36
0.0
 17
0.0
 27
1.0
 37
0.0
 76
0
330
223
345
0
346
0
  0
LAYOUT
  5
34D
102
{ACAD_REACTORS
330
1A
102
}
100
AcDbPlotSettings
  1

  2
none_device
  4

  6

 40
0.0
 41
0.0
 42
0.0
 43
0.0
 44
210.0
 45
297.0
 46
0.0
 47
0.0
 48
0.0
 49
0.0
140
0.0
141
0.0
142
1.0
143
1.0
 70
0
 72
1
 73
0
 74
0
  7

 75
0
147
1.0
148
0.0
149
0.0
100
AcDbLayout
  1
Layout1
 70
0
 71
1
 10
0.0
 20
0.0
 11
210.0
 21
297.0
 12
0.0
 22
0.0
 32
0.0
 14
0.0
 24
0.0
 34
0.0
 15
0.0
 25
0.0
 35
0.0
146
0.0
 13
0.0
 23
0.0
 33
0.0
 16
1.0
 26
0.0
 36
0.0
 17
0.0
 27
1.0
 37
0.0
 76
0
330
224
345
0
346
0
  0
ENDSEC
  0
EOF
