999
DXF file: C:\Vinayak\New 2D genarating\updateCreo8 with 3dPdf\CAD\NSYS3D5525_3D-CAD\drw0001_2.dxf
999
Pro/ENGINEER 2021284 by Parametric Technology Corporation
  0
SECTION
  2
HEADER
  9
$ACADVER
  1
AC1024
  9
$DWGCODEPAGE
  3
ANSI_1252
  9
$EXTMAX
 10
629.2775289779
 20
889.9782195544
 30
0.0
  9
$EXTMIN
 10
0.0
 20
0.0
 30
0.0
  9
$LIMMIN
 10
0.0
 20
0.0
  9
$LIMMAX
 10
629.2775289779
 20
889.9782195544
  9
$VIEWCTR
 10
314.6387644889
 20
444.9891097772
  9
$VIEWSIZE
 40
889.9782195544
  9
$CLAYER
  8
0
  9
$LTSCALE
 40
58.0133950524
  9
$CELTYPE
  6
BYLAYER
  9
$DIMSCALE
 40
1.0
  9
$DIMASZ
 40
7.4913991545
  9
$DIMEXO
 40
1.0
  9
$DIMDLI
 40
40.0819820362
  9
$DIMEXE
 40
1.0
  9
$DIMCEN
 40
9.4931010086
  9
$DIMLFAC
 40
1.0
  9
$DIMBLK
  1
_FILLED
  9
$DIMALT
 70
0
  9
$DIMALTF
 40
0.0393700787
  9
$DIMTXT
 40
10.4879588163
  9
$DIMTOL
 70
1
  9
$DIMLIM
 70
0
  9
$DIMTFAC
 40
1.0
  9
$DIMTP
 40
0.01
  9
$DIMTM
 40
0.01
  9
$DIMGAP
 40
0.625
  9
$DIMDSEP
 70
46
  9
$AUNITS
 70
0
  9
$PDMODE
 70
3
  9
$PDSIZE
 40
0.3125
  9
$HANDSEED
  5
326
  9
$TILEMODE
 70
1
  9
$MEASUREMENT
 70
1
  9
$INSUNITS
 70
4
  0
ENDSEC
  0
SECTION
  2
CLASSES
  0
CLASS
  1
ACDBDICTIONARYWDFLT
  2
AcDbDictionaryWithDefault
  3
AutoCAD 2000
 90
0
 91
1
280
0
281
0
  0
CLASS
  1
ACDBPLACEHOLDER
  2
AcDbPlaceHolder
  3
AutoCAD 2000
 90
0
 91
1
280
0
281
0
  0
CLASS
  1
LAYOUT
  2
AcDbLayout
  3
AutoCAD 2000
 90
0
 91
0
280
0
281
0
  0
ENDSEC
  0
SECTION
  2
TABLES
  0
TABLE
  2
VPORT
  5
8
100
AcDbSymbolTable
 70
2
  0
VPORT
  5
1F4
100
AcDbSymbolTableRecord
100
AcDbViewportTableRecord
  2
*ACTIVE
 70
0
 10
0.0
 20
0.0
 11
1.0
 21
1.0
 12
314.6387644889
 22
444.9891097772
 13
0.0
 23
0.0
 14
1.0
 24
1.0
 15
0.0
 25
0.0
 16
0.0
 26
0.0
 36
1.0
 17
0.0
 27
0.0
 37
0.0
 40
889.9782195544
 41
0.7070707071
 42
50.0
 43
0.0
 44
0.0
 50
0.0
 51
0.0
 71
0
 72
100
 73
1
 74
1
 75
0
 76
0
 77
0
 78
0
  0
ENDTAB
  0
TABLE
  2
LTYPE
  5
5
100
AcDbSymbolTable
 70
6
  0
LTYPE
  5
14
100
AcDbSymbolTableRecord
100
AcDbLinetypeTableRecord
  2
BYBLOCK
 70
0
  3

 72
65
 73
0
 40
0.0
  0
LTYPE
  5
15
100
AcDbSymbolTableRecord
100
AcDbLinetypeTableRecord
  2
BYLAYER
 70
0
  3

 72
65
 73
0
 40
0.0
  0
LTYPE
  5
16
100
AcDbSymbolTableRecord
100
AcDbLinetypeTableRecord
  2
CONTINUOUS
 70
64
  3
Solid line
 72
65
 73
0
 40
0.0
  0
LTYPE
  5
1F5
100
AcDbSymbolTableRecord
100
AcDbLinetypeTableRecord
  2
CENTER
 70
64
  3
____ _ ____ _ ____ _ ____ _ ____ _ ____ _ ____
 72
65
 73
4
 40
0.6
 49
0.375
 74
0
 49
-0.075
 74
0
 49
0.075
 74
0
 49
-0.075
 74
0
  0
LTYPE
  5
1F6
100
AcDbSymbolTableRecord
100
AcDbLinetypeTableRecord
  2
HIDDEN
 70
64
  3
- - - - - - - - - - - - - - - - - - - -
 72
65
 73
2
 40
0.2
 49
0.1
 74
0
 49
-0.1
 74
0
  0
LTYPE
  5
1F7
100
AcDbSymbolTableRecord
100
AcDbLinetypeTableRecord
  2
PHANTOM
 70
64
  3
_____ _ _ _____ _ _ _____ _ _ _____
 72
65
 73
6
 40
0.8
 49
0.45
 74
0
 49
-0.05
 74
0
 49
0.1
 74
0
 49
-0.05
 74
0
 49
0.1
 74
0
 49
-0.05
 74
0
  0
LTYPE
  5
1F8
100
AcDbSymbolTableRecord
100
AcDbLinetypeTableRecord
  2
DOT
 70
64
  3
. . . . . . . . . . . . . . . . . . . .
 72
65
 73
2
 40
0.2
 49
0.1
 74
0
 49
-0.1
 74
0
  0
LTYPE
  5
1F9
100
AcDbSymbolTableRecord
100
AcDbLinetypeTableRecord
  2
DASHED
 70
64
  3
- - - - - - - - - - - - - - - - - - - -
 72
65
 73
2
 40
0.2
 49
0.1
 74
0
 49
-0.1
 74
0
  0
ENDTAB
  0
TABLE
  2
LAYER
  5
2
100
AcDbSymbolTable
 70
36
  0
LAYER
  5
10
100
AcDbSymbolTableRecord
100
AcDbLayerTableRecord
  2
0
 70
0
 62
7
  6
CONTINUOUS
370
-3
390
F
  0
LAYER
  5
1FA
100
AcDbSymbolTableRecord
100
AcDbLayerTableRecord
  2
DEFAULT_1
 70
0
 62
7
  6
CENTER
370
-3
390
F
  0
LAYER
  5
1FB
100
AcDbSymbolTableRecord
100
AcDbLayerTableRecord
  2
DEFAULT_2
 70
0
 62
8
  6
HIDDEN
370
-3
390
F
  0
LAYER
  5
1FC
100
AcDbSymbolTableRecord
100
AcDbLayerTableRecord
  2
DEFAULT_3
 70
0
 62
7
  6
PHANTOM
370
-3
390
F
  0
LAYER
  5
1FD
100
AcDbSymbolTableRecord
100
AcDbLayerTableRecord
  2
00_COMPONENTS
 70
0
 62
7
  6
CONTINUOUS
370
-3
390
F
  0
LAYER
  5
1FE
100
AcDbSymbolTableRecord
100
AcDbLayerTableRecord
  2
00_COMPONENTS_1
 70
0
 62
7
  6
CONTINUOUS
370
-3
390
F
  0
LAYER
  5
1FF
100
AcDbSymbolTableRecord
100
AcDbLayerTableRecord
  2
00_COMPONENTS_10
 70
0
 62
7
  6
CONTINUOUS
370
-3
390
F
  0
LAYER
  5
200
100
AcDbSymbolTableRecord
100
AcDbLayerTableRecord
  2
00_COMPONENTS_12
 70
0
 62
7
  6
CONTINUOUS
370
-3
390
F
  0
LAYER
  5
201
100
AcDbSymbolTableRecord
100
AcDbLayerTableRecord
  2
00_COMPONENTS_13
 70
0
 62
7
  6
CONTINUOUS
370
-3
390
F
  0
LAYER
  5
202
100
AcDbSymbolTableRecord
100
AcDbLayerTableRecord
  2
00_COMPONENTS_14
 70
0
 62
7
  6
CONTINUOUS
370
-3
390
F
  0
LAYER
  5
203
100
AcDbSymbolTableRecord
100
AcDbLayerTableRecord
  2
00_COMPONENTS_17
 70
0
 62
7
  6
CONTINUOUS
370
-3
390
F
  0
LAYER
  5
204
100
AcDbSymbolTableRecord
100
AcDbLayerTableRecord
  2
00_COMPONENTS_18
 70
0
 62
7
  6
CONTINUOUS
370
-3
390
F
  0
LAYER
  5
205
100
AcDbSymbolTableRecord
100
AcDbLayerTableRecord
  2
00_COMPONENTS_19
 70
0
 62
7
  6
CONTINUOUS
370
-3
390
F
  0
LAYER
  5
206
100
AcDbSymbolTableRecord
100
AcDbLayerTableRecord
  2
00_COMPONENTS_2
 70
0
 62
7
  6
CONTINUOUS
370
-3
390
F
  0
LAYER
  5
207
100
AcDbSymbolTableRecord
100
AcDbLayerTableRecord
  2
00_COMPONENTS_21
 70
0
 62
7
  6
CONTINUOUS
370
-3
390
F
  0
LAYER
  5
208
100
AcDbSymbolTableRecord
100
AcDbLayerTableRecord
  2
00_COMPONENTS_24
 70
0
 62
7
  6
CONTINUOUS
370
-3
390
F
  0
LAYER
  5
209
100
AcDbSymbolTableRecord
100
AcDbLayerTableRecord
  2
00_COMPONENTS_28
 70
0
 62
7
  6
CONTINUOUS
370
-3
390
F
  0
LAYER
  5
20A
100
AcDbSymbolTableRecord
100
AcDbLayerTableRecord
  2
00_COMPONENTS_29
 70
0
 62
7
  6
CONTINUOUS
370
-3
390
F
  0
LAYER
  5
20B
100
AcDbSymbolTableRecord
100
AcDbLayerTableRecord
  2
00_COMPONENTS_3
 70
0
 62
7
  6
CONTINUOUS
370
-3
390
F
  0
LAYER
  5
20C
100
AcDbSymbolTableRecord
100
AcDbLayerTableRecord
  2
00_COMPONENTS_31
 70
0
 62
7
  6
CONTINUOUS
370
-3
390
F
  0
LAYER
  5
20D
100
AcDbSymbolTableRecord
100
AcDbLayerTableRecord
  2
00_COMPONENTS_32
 70
0
 62
7
  6
CONTINUOUS
370
-3
390
F
  0
LAYER
  5
20E
100
AcDbSymbolTableRecord
100
AcDbLayerTableRecord
  2
00_COMPONENTS_4
 70
0
 62
7
  6
CONTINUOUS
370
-3
390
F
  0
LAYER
  5
20F
100
AcDbSymbolTableRecord
100
AcDbLayerTableRecord
  2
00_COMPONENTS_5
 70
0
 62
7
  6
CONTINUOUS
370
-3
390
F
  0
LAYER
  5
210
100
AcDbSymbolTableRecord
100
AcDbLayerTableRecord
  2
00_COMPONENTS_6
 70
0
 62
7
  6
CONTINUOUS
370
-3
390
F
  0
LAYER
  5
211
100
AcDbSymbolTableRecord
100
AcDbLayerTableRecord
  2
00_COMPONENTS_7
 70
0
 62
7
  6
CONTINUOUS
370
-3
390
F
  0
LAYER
  5
212
100
AcDbSymbolTableRecord
100
AcDbLayerTableRecord
  2
00_COMPONENTS_8
 70
0
 62
7
  6
CONTINUOUS
370
-3
390
F
  0
LAYER
  5
213
100
AcDbSymbolTableRecord
100
AcDbLayerTableRecord
  2
01_1_DEFAULT_DATUMS
 70
0
 62
7
  6
CONTINUOUS
370
-3
390
F
  0
LAYER
  5
214
100
AcDbSymbolTableRecord
100
AcDbLayerTableRecord
  2
01_PLANES
 70
0
 62
7
  6
CONTINUOUS
370
-3
390
F
  0
LAYER
  5
215
100
AcDbSymbolTableRecord
100
AcDbLayerTableRecord
  2
02_COORD_SYS
 70
0
 62
7
  6
CONTINUOUS
370
-3
390
F
  0
LAYER
  5
216
100
AcDbSymbolTableRecord
100
AcDbLayerTableRecord
  2
03_AXES
 70
0
 62
7
  6
CONTINUOUS
370
-3
390
F
  0
LAYER
  5
217
100
AcDbSymbolTableRecord
100
AcDbLayerTableRecord
  2
04_POINTS
 70
0
 62
7
  6
CONTINUOUS
370
-3
390
F
  0
LAYER
  5
218
100
AcDbSymbolTableRecord
100
AcDbLayerTableRecord
  2
05_CURVES
 70
0
 62
7
  6
CONTINUOUS
370
-3
390
F
  0
LAYER
  5
219
100
AcDbSymbolTableRecord
100
AcDbLayerTableRecord
  2
06_SURFS
 70
0
 62
7
  6
CONTINUOUS
370
-3
390
F
  0
LAYER
  5
21A
100
AcDbSymbolTableRecord
100
AcDbLayerTableRecord
  2
07_COSMETICS
 70
0
 62
7
  6
CONTINUOUS
370
-3
390
F
  0
LAYER
  5
21B
100
AcDbSymbolTableRecord
100
AcDbLayerTableRecord
  2
10_NOTES
 70
0
 62
7
  6
CONTINUOUS
370
-3
390
F
  0
LAYER
  5
21C
100
AcDbSymbolTableRecord
100
AcDbLayerTableRecord
  2
11_NOTES_PUB
 70
0
 62
7
  6
CONTINUOUS
370
-3
390
F
  0
LAYER
  5
21D
100
AcDbSymbolTableRecord
100
AcDbLayerTableRecord
  2
13_REF_GTOL
 70
0
 62
7
  6
CONTINUOUS
370
-3
390
F
  0
LAYER
  5
21E
100
AcDbSymbolTableRecord
100
AcDbLayerTableRecord
  2
16_MISC
 70
0
 62
7
  6
CONTINUOUS
370
-3
390
F
  0
LAYER
  5
21F
100
AcDbSymbolTableRecord
100
AcDbLayerTableRecord
  2
17_NO_PRINT
 70
0
 62
7
  6
CONTINUOUS
370
-3
390
F
  0
LAYER
  5
220
100
AcDbSymbolTableRecord
100
AcDbLayerTableRecord
  2
18_DATUM_CAMS_JOINTS
 70
0
 62
7
  6
CONTINUOUS
370
-3
390
F
  0
LAYER
  5
221
100
AcDbSymbolTableRecord
100
AcDbLayerTableRecord
  2
19_DATUM_FUNCTIONAL
 70
0
 62
7
  6
CONTINUOUS
370
-3
390
F
  0
LAYER
  5
222
100
AcDbSymbolTableRecord
100
AcDbLayerTableRecord
  2
20_DATUM_KINEMATIC_SCHEME
 70
0
 62
7
  6
CONTINUOUS
370
-3
390
F
  0
ENDTAB
  0
TABLE
  2
STYLE
  5
3
100
AcDbSymbolTable
 70
1
  0
STYLE
  5
11
100
AcDbSymbolTableRecord
100
AcDbTextStyleTableRecord
  2
STANDARD
 70
0
 40
0.0
 41
0.8
 50
0.0
 71
0
 42
0.2
  3
txt
  4

  0
STYLE
  5
223
100
AcDbSymbolTableRecord
100
AcDbTextStyleTableRecord
  2
TEXTSTYLE_1
 70
0
 40
0.0
 41
0.8
 50
0.0
 71
0
 42
0.2
  3
gdt
  4

  0
ENDTAB
  0
TABLE
  2
VIEW
  5
6
100
AcDbSymbolTable
 70
0
  0
ENDTAB
  0
TABLE
  2
UCS
  5
7
100
AcDbSymbolTable
 70
0
  0
ENDTAB
  0
TABLE
  2
APPID
  5
9
100
AcDbSymbolTable
 70
1
  0
APPID
  5
224
100
AcDbSymbolTableRecord
100
AcDbRegAppTableRecord
  2
ACAD
 70
0
  0
ENDTAB
  0
TABLE
  2
BLOCK_RECORD
  5
1
100
AcDbSymbolTable
 70
0
  0
BLOCK_RECORD
  5
225
100
AcDbSymbolTableRecord
100
AcDbBlockTableRecord
  2
*Model_Space
  0
BLOCK_RECORD
  5
226
100
AcDbSymbolTableRecord
100
AcDbBlockTableRecord
  2
*Paper_Space
  0
BLOCK_RECORD
  5
227
100
AcDbSymbolTableRecord
100
AcDbBlockTableRecord
  2
_FILLED
  0
ENDTAB
  0
TABLE
  2
DIMSTYLE
  5
A
100
AcDbSymbolTable
 70
1
100
AcDbDimStyleTable
 71
0
  0
DIMSTYLE
105
228
100
AcDbSymbolTableRecord
100
AcDbDimStyleTableRecord
  2
STANDARD
 70
0
  3

  4

 40
1.0
 41
7.4913991545
 42
1.0
 43
0.38
 44
1.0
 45
0.0
 46
0.0
 47
0.01
 48
0.01
140
10.4879588163
141
0.09
142
0.0
143
25.4
144
1.0
145
0.0
146
1.0
147
0.625
 71
1
 72
0
 73
0
 74
0
 75
0
 76
0
 77
1
 78
8
 79
2
170
0
171
1
172
0
173
0
174
0
175
0
176
0
177
0
178
0
270
2
179
2
271
2
272
2
273
2
274
2
275
0
280
0
281
0
282
0
283
1
284
8
285
0
286
0
287
3
288
0
340
11
278
46
341
227
342
227
343
227
344
227
  0
ENDTAB
  0
ENDSEC
  0
SECTION
  2
BLOCKS
  0
BLOCK
  5
20
100
AcDbEntity
  8
0
100
AcDbBlockBegin
  2
*Model_Space
 70
0
 10
0.0
 20
0.0
 30
0.0
  3
*Model_Space
  1

  0
ENDBLK
  5
21
100
AcDbEntity
  8
0
100
AcDbBlockEnd
  0
BLOCK
  5
1C
100
AcDbEntity
  8
0
100
AcDbBlockBegin
  2
*Paper_Space
 70
0
 10
0.0
 20
0.0
 30
0.0
  3
*Paper_Space
  1

  0
ENDBLK
  5
1D
100
AcDbEntity
  8
0
100
AcDbBlockEnd
  0
BLOCK
  5
229
100
AcDbEntity
  8
0
100
AcDbBlockBegin
  2
_FILLED
 70
64
 10
0.0
 20
0.0
  3
_FILLED
  1

  0
SOLID
  5
22A
100
AcDbEntity
  8
0
  6
BYBLOCK
 62
0
100
AcDbTrace
 10
0.0
 20
0.0
 11
-1.0
 21
0.25
 12
-1.0
 22
-0.25
 13
-1.0
 23
-0.25
  0
ENDBLK
  5
22B
100
AcDbEntity
  8
0
  6
BYBLOCK
 62
0
100
AcDbBlockEnd
  0
ENDSEC
  0
SECTION
  2
ENTITIES
  0
LINE
  5
22C
100
AcDbEntity
  8
00_COMPONENTS
100
AcDbLine
 62
7
  6
CONTINUOUS
 10
102.2860426297
 20
192.9453918142
 11
102.2803794301
 21
192.9518974283
  0
LINE
  5
22D
100
AcDbEntity
  8
00_COMPONENTS
100
AcDbLine
 62
7
  6
CONTINUOUS
 10
535.8137831731
 20
192.965941945
 11
535.8173356796
 21
192.9666594681
  0
LINE
  5
22E
100
AcDbEntity
  8
00_COMPONENTS
100
AcDbLine
 62
7
  6
CONTINUOUS
 10
535.8140150358
 20
192.9667290089
 11
535.8175622876
 21
192.967430271
  0
LINE
  5
22F
100
AcDbEntity
  8
00_COMPONENTS
100
AcDbLine
 62
7
  6
CONTINUOUS
 10
102.1789427948
 20
192.9665645603
 11
102.1745850291
 21
192.9674260543
  0
LINE
  5
230
100
AcDbEntity
  8
00_COMPONENTS
100
AcDbLine
 62
7
  6
CONTINUOUS
 10
102.1747497011
 20
192.972835105
 11
102.1798725749
 21
192.971819661
  0
LINE
  5
231
100
AcDbEntity
  8
00_COMPONENTS
100
AcDbLine
 62
7
  6
CONTINUOUS
 10
102.1791757786
 20
192.9657740698
 11
102.174811671
 21
192.9666551457
  0
LINE
  5
232
100
AcDbEntity
  8
00_COMPONENTS
100
AcDbLine
 62
7
  6
CONTINUOUS
 10
102.1751417839
 20
192.9714861689
 11
102.1802778335
 21
192.9704295503
  0
LINE
  5
233
100
AcDbEntity
  8
00_COMPONENTS
100
AcDbLine
 62
7
  6
CONTINUOUS
 10
439.8137831731
 20
192.965941945
 11
439.8173356796
 21
192.9666594681
  0
LINE
  5
234
100
AcDbEntity
  8
00_COMPONENTS
100
AcDbLine
 62
7
  6
CONTINUOUS
 10
439.8140150358
 20
192.9667290089
 11
439.8175622876
 21
192.967430271
  0
LINE
  5
235
100
AcDbEntity
  8
00_COMPONENTS
100
AcDbLine
 62
7
  6
CONTINUOUS
 10
535.6573313992
 20
192.9411113835
 11
535.648655069
 21
192.9403747667
  0
LINE
  5
236
100
AcDbEntity
  8
00_COMPONENTS
100
AcDbLine
 62
7
  6
CONTINUOUS
 10
439.6573313992
 20
192.9411113835
 11
439.648655069
 21
192.9403747667
  0
LINE
  5
237
100
AcDbEntity
  8
00_COMPONENTS
100
AcDbLine
 62
7
  6
CONTINUOUS
 10
102.33479528
 20
192.9411112463
 11
102.3051812673
 21
192.9436725057
  0
LINE
  5
238
100
AcDbEntity
  8
00_COMPONENTS
100
AcDbLine
 62
7
  6
CONTINUOUS
 10
198.33479528
 20
192.9411112463
 11
198.3051812673
 21
192.9436725057
  0
LINE
  5
239
100
AcDbEntity
  8
00_COMPONENTS
100
AcDbLine
 62
7
  6
CONTINUOUS
 10
102.3051812673
 20
192.9436725057
 11
102.2860426297
 21
192.9453918142
  0
LINE
  5
23A
100
AcDbEntity
  8
00_COMPONENTS
100
AcDbLine
 62
7
  6
CONTINUOUS
 10
198.3051812673
 20
192.9436725057
 11
198.2860426297
 21
192.9453918142
  0
LINE
  5
23B
100
AcDbEntity
  8
00_COMPONENTS
100
AcDbLine
 62
7
  6
CONTINUOUS
 10
198.1789427948
 20
192.9665645603
 11
198.1745850291
 21
192.9674260543
  0
LINE
  5
23C
100
AcDbEntity
  8
00_COMPONENTS
100
AcDbLine
 62
7
  6
CONTINUOUS
 10
198.1747497011
 20
192.972835105
 11
198.1798725749
 21
192.971819661
  0
LINE
  5
23D
100
AcDbEntity
  8
00_COMPONENTS
100
AcDbLine
 62
7
  6
CONTINUOUS
 10
198.1791757786
 20
192.9657740698
 11
198.174811671
 21
192.9666551457
  0
LINE
  5
23E
100
AcDbEntity
  8
00_COMPONENTS
100
AcDbLine
 62
7
  6
CONTINUOUS
 10
198.1751417839
 20
192.9714861689
 11
198.1802778335
 21
192.9704295503
  0
LINE
  5
23F
100
AcDbEntity
  8
00_COMPONENTS_24
100
AcDbLine
 62
7
  6
CONTINUOUS
 10
68.9960629935
 20
193.7698709093
 11
68.9960629935
 21
693.7698709093
  0
LINE
  5
240
100
AcDbEntity
  8
00_COMPONENTS_24
100
AcDbLine
 62
7
  6
CONTINUOUS
 10
71.1960629935
 20
691.5698709093
 11
71.1960629935
 21
195.9698709093
  0
LINE
  5
241
100
AcDbEntity
  8
00_COMPONENTS
100
AcDbLine
 62
7
  6
CONTINUOUS
 10
319.8137831731
 20
192.965941945
 11
319.8173356796
 21
192.9666594681
  0
LINE
  5
242
100
AcDbEntity
  8
00_COMPONENTS
100
AcDbLine
 62
7
  6
CONTINUOUS
 10
319.8140150358
 20
192.9667290089
 11
319.8175622876
 21
192.967430271
  0
LINE
  5
243
100
AcDbEntity
  8
00_COMPONENTS
100
AcDbLine
 62
7
  6
CONTINUOUS
 10
319.6573313992
 20
192.9411113835
 11
319.648655069
 21
192.9403747667
  0
LINE
  5
244
100
AcDbEntity
  8
00_COMPONENTS
100
AcDbLine
 62
7
  6
CONTINUOUS
 10
199.6573313992
 20
192.9411113835
 11
199.648655069
 21
192.9403747667
  0
LINE
  5
245
100
AcDbEntity
  8
00_COMPONENTS
100
AcDbLine
 62
7
  6
CONTINUOUS
 10
537.0581694317
 20
193.1455295021
 11
536.9928248628
 21
193.1455295021
  0
LINE
  5
246
100
AcDbEntity
  8
00_COMPONENTS
100
AcDbLine
 62
7
  6
CONTINUOUS
 10
535.5110629935
 20
193.1455295021
 11
534.4810629935
 21
193.1455295021
  0
LINE
  5
247
100
AcDbEntity
  8
00_COMPONENTS
100
AcDbLine
 62
7
  6
CONTINUOUS
 10
532.9993011242
 20
193.1455295021
 11
532.9339565552
 21
193.1455295021
  0
LINE
  5
248
100
AcDbEntity
  8
00_COMPONENTS
100
AcDbLine
 62
7
  6
CONTINUOUS
 10
441.0581694317
 20
193.1455295021
 11
440.9928248628
 21
193.1455295021
  0
LINE
  5
249
100
AcDbEntity
  8
00_COMPONENTS
100
AcDbLine
 62
7
  6
CONTINUOUS
 10
439.5110629935
 20
193.1455295021
 11
438.4810629935
 21
193.1455295021
  0
LINE
  5
24A
100
AcDbEntity
  8
00_COMPONENTS
100
AcDbLine
 62
7
  6
CONTINUOUS
 10
436.9993011242
 20
193.1455295021
 11
436.9339565552
 21
193.1455295021
  0
LINE
  5
24B
100
AcDbEntity
  8
00_COMPONENTS
100
AcDbLine
 62
7
  6
CONTINUOUS
 10
321.0581694317
 20
193.1455295021
 11
320.9928248628
 21
193.1455295021
  0
LINE
  5
24C
100
AcDbEntity
  8
00_COMPONENTS
100
AcDbLine
 62
7
  6
CONTINUOUS
 10
319.5110629935
 20
193.1455295021
 11
318.4810629935
 21
193.1455295021
  0
LINE
  5
24D
100
AcDbEntity
  8
00_COMPONENTS
100
AcDbLine
 62
7
  6
CONTINUOUS
 10
316.9993011242
 20
193.1455295021
 11
316.9339565552
 21
193.1455295021
  0
LINE
  5
24E
100
AcDbEntity
  8
00_COMPONENTS
100
AcDbLine
 62
7
  6
CONTINUOUS
 10
201.0581694317
 20
193.1455295021
 11
200.9928248628
 21
193.1455295021
  0
LINE
  5
24F
100
AcDbEntity
  8
00_COMPONENTS
100
AcDbLine
 62
7
  6
CONTINUOUS
 10
199.5110629935
 20
193.1455295021
 11
198.4810629935
 21
193.1455295021
  0
LINE
  5
250
100
AcDbEntity
  8
00_COMPONENTS
100
AcDbLine
 62
7
  6
CONTINUOUS
 10
196.9993011242
 20
193.1455295021
 11
196.9339565552
 21
193.1455295021
  0
LINE
  5
251
100
AcDbEntity
  8
00_COMPONENTS
100
AcDbLine
 62
7
  6
CONTINUOUS
 10
105.0581694317
 20
193.1455295021
 11
104.9928248628
 21
193.1455295021
  0
LINE
  5
252
100
AcDbEntity
  8
00_COMPONENTS
100
AcDbLine
 62
7
  6
CONTINUOUS
 10
103.5110629935
 20
193.1455295021
 11
102.4810629935
 21
193.1455295021
  0
LINE
  5
253
100
AcDbEntity
  8
00_COMPONENTS
100
AcDbLine
 62
7
  6
CONTINUOUS
 10
100.9993011242
 20
193.1455295021
 11
100.9339565552
 21
193.1455295021
  0
LINE
  5
254
100
AcDbEntity
  8
00_COMPONENTS_24
100
AcDbLine
 62
7
  6
CONTINUOUS
 10
568.9960629935
 20
193.7698709093
 11
68.9960629935
 21
193.7698709093
  0
LINE
  5
255
100
AcDbEntity
  8
00_COMPONENTS_24
100
AcDbLine
 62
7
  6
CONTINUOUS
 10
71.1960629935
 20
195.9698709093
 11
566.7960629935
 21
195.9698709093
  0
LINE
  5
256
100
AcDbEntity
  8
00_COMPONENTS
100
AcDbLine
 62
7
  6
CONTINUOUS
 10
318.33479528
 20
192.9411112463
 11
318.3051812673
 21
192.9436725057
  0
LINE
  5
257
100
AcDbEntity
  8
00_COMPONENTS
100
AcDbLine
 62
7
  6
CONTINUOUS
 10
438.33479528
 20
192.9411112463
 11
438.3051812673
 21
192.9436725057
  0
LINE
  5
258
100
AcDbEntity
  8
00_COMPONENTS
100
AcDbLine
 62
7
  6
CONTINUOUS
 10
318.3051812673
 20
192.9436725057
 11
318.2860426297
 21
192.9453918142
  0
LINE
  5
259
100
AcDbEntity
  8
00_COMPONENTS
100
AcDbLine
 62
7
  6
CONTINUOUS
 10
438.3051812673
 20
192.9436725057
 11
438.2860426297
 21
192.9453918142
  0
LINE
  5
25A
100
AcDbEntity
  8
00_COMPONENTS
100
AcDbLine
 62
7
  6
CONTINUOUS
 10
318.1789427948
 20
192.9665645603
 11
318.1745850291
 21
192.9674260543
  0
LINE
  5
25B
100
AcDbEntity
  8
00_COMPONENTS
100
AcDbLine
 62
7
  6
CONTINUOUS
 10
318.1747497011
 20
192.972835105
 11
318.1798725749
 21
192.971819661
  0
LINE
  5
25C
100
AcDbEntity
  8
00_COMPONENTS
100
AcDbLine
 62
7
  6
CONTINUOUS
 10
318.1791757786
 20
192.9657740698
 11
318.174811671
 21
192.9666551457
  0
LINE
  5
25D
100
AcDbEntity
  8
00_COMPONENTS
100
AcDbLine
 62
7
  6
CONTINUOUS
 10
318.1751417839
 20
192.9714861689
 11
318.1802778335
 21
192.9704295503
  0
LINE
  5
25E
100
AcDbEntity
  8
00_COMPONENTS
100
AcDbLine
 62
7
  6
CONTINUOUS
 10
198.2860426297
 20
192.9453918142
 11
198.2803794301
 21
192.9518974283
  0
LINE
  5
25F
100
AcDbEntity
  8
00_COMPONENTS
100
AcDbLine
 62
7
  6
CONTINUOUS
 10
103.8182332217
 20
192.9453918142
 11
103.8175622876
 21
192.967430271
  0
LINE
  5
260
100
AcDbEntity
  8
00_COMPONENTS
100
AcDbLine
 62
7
  6
CONTINUOUS
 10
103.8183606964
 20
192.9403747667
 11
103.8182332217
 21
192.9453918142
  0
LINE
  5
261
100
AcDbEntity
  8
00_COMPONENTS
100
AcDbLine
 62
7
  6
CONTINUOUS
 10
102.4810629935
 20
192.9457700198
 11
102.4810629935
 21
193.1455295021
  0
LINE
  5
262
100
AcDbEntity
  8
00_COMPONENTS
100
AcDbLine
 62
7
  6
CONTINUOUS
 10
103.5110629935
 20
193.1455295021
 11
103.5110629935
 21
192.9457700198
  0
LINE
  5
263
100
AcDbEntity
  8
00_COMPONENTS
100
AcDbLine
 62
7
  6
CONTINUOUS
 10
102.173783595
 20
192.9411010046
 11
102.1737652905
 21
192.9403747667
  0
LINE
  5
264
100
AcDbEntity
  8
00_COMPONENTS
100
AcDbLine
 62
7
  6
CONTINUOUS
 10
199.8137831731
 20
192.965941945
 11
199.8173356796
 21
192.9666594681
  0
LINE
  5
265
100
AcDbEntity
  8
00_COMPONENTS
100
AcDbLine
 62
7
  6
CONTINUOUS
 10
199.8140150358
 20
192.9667290089
 11
199.8175622876
 21
192.967430271
  0
LINE
  5
266
100
AcDbEntity
  8
00_COMPONENTS
100
AcDbLine
 62
7
  6
CONTINUOUS
 10
103.6573313992
 20
192.9411113835
 11
103.648655069
 21
192.9403747667
  0
LINE
  5
267
100
AcDbEntity
  8
00_COMPONENTS
100
AcDbLine
 62
7
  6
CONTINUOUS
 10
534.33479528
 20
192.9411112463
 11
534.3051812673
 21
192.9436725057
  0
LINE
  5
268
100
AcDbEntity
  8
00_COMPONENTS
100
AcDbLine
 62
7
  6
CONTINUOUS
 10
534.3051812673
 20
192.9436725057
 11
534.2860426297
 21
192.9453918142
  0
LINE
  5
269
100
AcDbEntity
  8
00_COMPONENTS
100
AcDbLine
 62
7
  6
CONTINUOUS
 10
438.1789427948
 20
192.9665645603
 11
438.1745850291
 21
192.9674260543
  0
LINE
  5
26A
100
AcDbEntity
  8
00_COMPONENTS
100
AcDbLine
 62
7
  6
CONTINUOUS
 10
438.1747497011
 20
192.972835105
 11
438.1798725749
 21
192.971819661
  0
LINE
  5
26B
100
AcDbEntity
  8
00_COMPONENTS
100
AcDbLine
 62
7
  6
CONTINUOUS
 10
438.1791757786
 20
192.9657740698
 11
438.174811671
 21
192.9666551457
  0
LINE
  5
26C
100
AcDbEntity
  8
00_COMPONENTS
100
AcDbLine
 62
7
  6
CONTINUOUS
 10
438.1751417839
 20
192.9714861689
 11
438.1802778335
 21
192.9704295503
  0
LINE
  5
26D
100
AcDbEntity
  8
00_COMPONENTS
100
AcDbLine
 62
7
  6
CONTINUOUS
 10
102.1747497011
 20
192.972835105
 11
102.173783595
 21
192.9411010046
  0
LINE
  5
26E
100
AcDbEntity
  8
00_COMPONENTS
100
AcDbLine
 62
7
  6
CONTINUOUS
 10
103.8137831731
 20
192.965941945
 11
103.8173356796
 21
192.9666594681
  0
LINE
  5
26F
100
AcDbEntity
  8
00_COMPONENTS
100
AcDbLine
 62
7
  6
CONTINUOUS
 10
103.8140150358
 20
192.9667290089
 11
103.8175622876
 21
192.967430271
  0
LINE
  5
270
100
AcDbEntity
  8
00_COMPONENTS
100
AcDbLine
 62
7
  6
CONTINUOUS
 10
534.1789427948
 20
192.9665645603
 11
534.1745850291
 21
192.9674260543
  0
LINE
  5
271
100
AcDbEntity
  8
00_COMPONENTS
100
AcDbLine
 62
7
  6
CONTINUOUS
 10
534.1747497011
 20
192.972835105
 11
534.1798725749
 21
192.971819661
  0
LINE
  5
272
100
AcDbEntity
  8
00_COMPONENTS
100
AcDbLine
 62
7
  6
CONTINUOUS
 10
534.1791757786
 20
192.9657740698
 11
534.174811671
 21
192.9666551457
  0
LINE
  5
273
100
AcDbEntity
  8
00_COMPONENTS
100
AcDbLine
 62
7
  6
CONTINUOUS
 10
534.1751417839
 20
192.9714861689
 11
534.1802778335
 21
192.9704295503
  0
LINE
  5
274
100
AcDbEntity
  8
00_COMPONENTS
100
AcDbLine
 62
7
  6
CONTINUOUS
 10
318.2860426297
 20
192.9453918142
 11
318.2803794301
 21
192.9518974283
  0
LINE
  5
275
100
AcDbEntity
  8
00_COMPONENTS
100
AcDbLine
 62
7
  6
CONTINUOUS
 10
199.8182332217
 20
192.9453918142
 11
199.8175622876
 21
192.967430271
  0
LINE
  5
276
100
AcDbEntity
  8
00_COMPONENTS
100
AcDbLine
 62
7
  6
CONTINUOUS
 10
199.8183606964
 20
192.9403747667
 11
199.8182332217
 21
192.9453918142
  0
LINE
  5
277
100
AcDbEntity
  8
00_COMPONENTS
100
AcDbLine
 62
7
  6
CONTINUOUS
 10
198.4810629935
 20
192.9457700198
 11
198.4810629935
 21
193.1455295021
  0
LINE
  5
278
100
AcDbEntity
  8
00_COMPONENTS
100
AcDbLine
 62
7
  6
CONTINUOUS
 10
199.5110629935
 20
193.1455295021
 11
199.5110629935
 21
192.9457700198
  0
LINE
  5
279
100
AcDbEntity
  8
00_COMPONENTS
100
AcDbLine
 62
7
  6
CONTINUOUS
 10
198.173783595
 20
192.9411010046
 11
198.1737652905
 21
192.9403747667
  0
LINE
  5
27A
100
AcDbEntity
  8
00_COMPONENTS
100
AcDbLine
 62
7
  6
CONTINUOUS
 10
198.1747497011
 20
192.972835105
 11
198.173783595
 21
192.9411010046
  0
LINE
  5
27B
100
AcDbEntity
  8
00_COMPONENTS
100
AcDbLine
 62
7
  6
CONTINUOUS
 10
438.2860426297
 20
192.9453918142
 11
438.2803794301
 21
192.9518974283
  0
LINE
  5
27C
100
AcDbEntity
  8
00_COMPONENTS
100
AcDbLine
 62
7
  6
CONTINUOUS
 10
319.8182332217
 20
192.9453918142
 11
319.8175622876
 21
192.967430271
  0
LINE
  5
27D
100
AcDbEntity
  8
00_COMPONENTS
100
AcDbLine
 62
7
  6
CONTINUOUS
 10
319.8183606964
 20
192.9403747667
 11
319.8182332217
 21
192.9453918142
  0
LINE
  5
27E
100
AcDbEntity
  8
00_COMPONENTS
100
AcDbLine
 62
7
  6
CONTINUOUS
 10
318.4810629935
 20
192.9457700198
 11
318.4810629935
 21
193.1455295021
  0
LINE
  5
27F
100
AcDbEntity
  8
00_COMPONENTS
100
AcDbLine
 62
7
  6
CONTINUOUS
 10
319.5110629935
 20
193.1455295021
 11
319.5110629935
 21
192.9457700198
  0
LINE
  5
280
100
AcDbEntity
  8
00_COMPONENTS
100
AcDbLine
 62
7
  6
CONTINUOUS
 10
534.2860426297
 20
192.9453918142
 11
534.2803794301
 21
192.9518974283
  0
LINE
  5
281
100
AcDbEntity
  8
00_COMPONENTS
100
AcDbLine
 62
7
  6
CONTINUOUS
 10
318.173783595
 20
192.9411010046
 11
318.1737652905
 21
192.9403747667
  0
LINE
  5
282
100
AcDbEntity
  8
00_COMPONENTS
100
AcDbLine
 62
7
  6
CONTINUOUS
 10
318.1747497011
 20
192.972835105
 11
318.173783595
 21
192.9411010046
  0
LINE
  5
283
100
AcDbEntity
  8
00_COMPONENTS
100
AcDbLine
 62
7
  6
CONTINUOUS
 10
439.8182332217
 20
192.9453918142
 11
439.8175622876
 21
192.967430271
  0
LINE
  5
284
100
AcDbEntity
  8
00_COMPONENTS
100
AcDbLine
 62
7
  6
CONTINUOUS
 10
439.8183606964
 20
192.9403747667
 11
439.8182332217
 21
192.9453918142
  0
LINE
  5
285
100
AcDbEntity
  8
00_COMPONENTS
100
AcDbLine
 62
7
  6
CONTINUOUS
 10
438.4810629935
 20
192.9457700198
 11
438.4810629935
 21
193.1455295021
  0
LINE
  5
286
100
AcDbEntity
  8
00_COMPONENTS
100
AcDbLine
 62
7
  6
CONTINUOUS
 10
439.5110629935
 20
193.1455295021
 11
439.5110629935
 21
192.9457700198
  0
LINE
  5
287
100
AcDbEntity
  8
00_COMPONENTS
100
AcDbLine
 62
7
  6
CONTINUOUS
 10
438.173783595
 20
192.9411010046
 11
438.1737652905
 21
192.9403747667
  0
LINE
  5
288
100
AcDbEntity
  8
00_COMPONENTS
100
AcDbLine
 62
7
  6
CONTINUOUS
 10
438.1747497011
 20
192.972835105
 11
438.173783595
 21
192.9411010046
  0
LINE
  5
289
100
AcDbEntity
  8
00_COMPONENTS
100
AcDbLine
 62
7
  6
CONTINUOUS
 10
535.8182332217
 20
192.9453918142
 11
535.8175622876
 21
192.967430271
  0
LINE
  5
28A
100
AcDbEntity
  8
00_COMPONENTS
100
AcDbLine
 62
7
  6
CONTINUOUS
 10
535.8183606964
 20
192.9403747667
 11
535.8182332217
 21
192.9453918142
  0
LINE
  5
28B
100
AcDbEntity
  8
00_COMPONENTS
100
AcDbLine
 62
7
  6
CONTINUOUS
 10
534.4810629935
 20
192.9457700198
 11
534.4810629935
 21
193.1455295021
  0
LINE
  5
28C
100
AcDbEntity
  8
00_COMPONENTS
100
AcDbLine
 62
7
  6
CONTINUOUS
 10
535.5110629935
 20
193.1455295021
 11
535.5110629935
 21
192.9457700198
  0
LINE
  5
28D
100
AcDbEntity
  8
00_COMPONENTS
100
AcDbLine
 62
7
  6
CONTINUOUS
 10
534.173783595
 20
192.9411010046
 11
534.1737652905
 21
192.9403747667
  0
LINE
  5
28E
100
AcDbEntity
  8
00_COMPONENTS
100
AcDbLine
 62
7
  6
CONTINUOUS
 10
534.1747497011
 20
192.972835105
 11
534.173783595
 21
192.9411010046
  0
LINE
  5
28F
100
AcDbEntity
  8
00_COMPONENTS_24
100
AcDbLine
 62
7
  6
CONTINUOUS
 10
566.7960629935
 20
195.9698709093
 11
566.7960629935
 21
691.5698709093
  0
LINE
  5
290
100
AcDbEntity
  8
00_COMPONENTS_24
100
AcDbLine
 62
7
  6
CONTINUOUS
 10
568.9960629935
 20
693.7698709093
 11
568.9960629935
 21
193.7698709093
  0
LINE
  5
291
100
AcDbEntity
  8
00_COMPONENTS_24
100
AcDbLine
 62
7
  6
CONTINUOUS
 10
566.7960629935
 20
691.5698709093
 11
71.1960629935
 21
691.5698709093
  0
LINE
  5
292
100
AcDbEntity
  8
00_COMPONENTS_24
100
AcDbLine
 62
7
  6
CONTINUOUS
 10
68.9960629935
 20
693.7698709093
 11
568.9960629935
 21
693.7698709093
  0
ARC
  5
293
100
AcDbEntity
  8
00_COMPONENTS
100
AcDbCircle
 62
7
  6
CONTINUOUS
 10
103.2383111543
 20
198.124568067
 40
5.2616136648
100
AcDbArc
 50
258.3995666442
 51
260.1128256773
  0
ARC
  5
294
100
AcDbEntity
  8
00_COMPONENTS
100
AcDbCircle
 62
7
  6
CONTINUOUS
 10
102.7785859458
 20
198.0987448752
 40
5.2361530936
100
AcDbArc
 50
280.2028306771
 51
281.402602375
  0
ARC
  5
295
100
AcDbEntity
  8
00_COMPONENTS
100
AcDbCircle
 62
7
  6
CONTINUOUS
 10
103.2134169619
 20
198.098087218
 40
5.2354840346
100
AcDbArc
 50
258.6065941211
 51
259.7972201016
  0
ARC
  5
296
100
AcDbEntity
  8
00_COMPONENTS_24
100
AcDbCircle
 62
7
  6
CONTINUOUS
 10
66.5795882041
 20
197.5745439789
 40
4.727910637
100
AcDbArc
 50
318.0495852586
 51
320.4252579777
  0
ARC
  5
297
100
AcDbEntity
  8
00_COMPONENTS
100
AcDbCircle
 62
7
  6
CONTINUOUS
 10
102.2581994714
 20
196.8721679178
 40
3.932717712
100
AcDbArc
 50
271.2424173978
 51
273.2486398697
  0
ARC
  5
298
100
AcDbEntity
  8
00_COMPONENTS
100
AcDbCircle
 62
7
  6
CONTINUOUS
 10
103.7339265156
 20
196.8721679178
 40
3.932717712
100
AcDbArc
 50
266.7513601303
 51
268.7575826022
  0
ARC
  5
299
100
AcDbEntity
  8
00_COMPONENTS
100
AcDbCircle
 62
7
  6
CONTINUOUS
 10
102.2584595303
 20
196.8437327562
 40
3.9042767202
100
AcDbArc
 50
266.7410506153
 51
268.7570032812
  0
ARC
  5
29A
100
AcDbEntity
  8
00_COMPONENTS
100
AcDbCircle
 62
7
  6
CONTINUOUS
 10
103.7336664567
 20
196.8437327562
 40
3.9042767202
100
AcDbArc
 50
271.2429967188
 51
273.2589493847
  0
ARC
  5
29B
100
AcDbEntity
  8
00_COMPONENTS
100
AcDbCircle
 62
7
  6
CONTINUOUS
 10
102.7911494467
 20
195.9329087193
 40
3.0548410755
100
AcDbArc
 50
255.8082266865
 51
258.3405474595
  0
ARC
  5
29C
100
AcDbEntity
  8
00_COMPONENTS
100
AcDbCircle
 62
7
  6
CONTINUOUS
 10
102.9960629935
 20
200.7206521593
 40
7.85078125
100
AcDbArc
 50
242.4949845239
 51
254.771891088
  0
ARC
  5
29D
100
AcDbEntity
  8
00_COMPONENTS
100
AcDbCircle
 62
7
  6
CONTINUOUS
 10
102.9960629935
 20
200.7206521593
 40
7.85078125
100
AcDbArc
 50
285.228108912
 51
297.5050154761
  0
ARC
  5
29E
100
AcDbEntity
  8
00_COMPONENTS
100
AcDbCircle
 62
7
  6
CONTINUOUS
 10
102.9960629935
 20
200.7206521593
 40
7.8338714079
100
AcDbArc
 50
277.035724314
 51
284.7669642634
  0
ARC
  5
29F
100
AcDbEntity
  8
00_COMPONENTS
100
AcDbCircle
 62
7
  6
CONTINUOUS
 10
102.9960629935
 20
200.7206521593
 40
7.8338714079
100
AcDbArc
 50
255.2330357366
 51
262.964275686
  0
ARC
  5
2A0
100
AcDbEntity
  8
00_COMPONENTS
100
AcDbCircle
 62
7
  6
CONTINUOUS
 10
102.9956697957
 20
200.7460445181
 40
7.8329349566
100
AcDbArc
 50
274.8456519188
 51
275.2036317677
  0
ARC
  5
2A1
100
AcDbEntity
  8
00_COMPONENTS_24
100
AcDbCircle
 62
7
  6
CONTINUOUS
 10
65.5832319516
 20
198.4003608207
 40
6.0220113955
100
AcDbArc
 50
320.4083992373
 51
322.1702340198
  0
ARC
  5
2A2
100
AcDbEntity
  8
00_COMPONENTS
100
AcDbCircle
 62
7
  6
CONTINUOUS
 10
199.2383111544
 20
198.124568067
 40
5.2616136648
100
AcDbArc
 50
258.3995666442
 51
260.1128256773
  0
ARC
  5
2A3
100
AcDbEntity
  8
00_COMPONENTS
100
AcDbCircle
 62
7
  6
CONTINUOUS
 10
198.7785859458
 20
198.0987448752
 40
5.2361530936
100
AcDbArc
 50
280.2028306771
 51
281.402602375
  0
ARC
  5
2A4
100
AcDbEntity
  8
00_COMPONENTS
100
AcDbCircle
 62
7
  6
CONTINUOUS
 10
318.7785859459
 20
198.0987448748
 40
5.2361530932
100
AcDbArc
 50
280.202830677
 51
281.402602375
  0
ARC
  5
2A5
100
AcDbEntity
  8
00_COMPONENTS
100
AcDbCircle
 62
7
  6
CONTINUOUS
 10
199.2134169619
 20
198.098087218
 40
5.2354840346
100
AcDbArc
 50
258.6065941211
 51
259.7972201016
  0
ARC
  5
2A6
100
AcDbEntity
  8
00_COMPONENTS
100
AcDbCircle
 62
7
  6
CONTINUOUS
 10
198.2581994714
 20
196.8721679178
 40
3.932717712
100
AcDbArc
 50
271.2424173978
 51
273.2486398697
  0
ARC
  5
2A7
100
AcDbEntity
  8
00_COMPONENTS
100
AcDbCircle
 62
7
  6
CONTINUOUS
 10
199.7339265156
 20
196.8721679178
 40
3.932717712
100
AcDbArc
 50
266.7513601303
 51
268.7575826022
  0
ARC
  5
2A8
100
AcDbEntity
  8
00_COMPONENTS
100
AcDbCircle
 62
7
  6
CONTINUOUS
 10
318.2581994714
 20
196.8721679178
 40
3.932717712
100
AcDbArc
 50
271.2424173978
 51
273.2486398697
  0
ARC
  5
2A9
100
AcDbEntity
  8
00_COMPONENTS
100
AcDbCircle
 62
7
  6
CONTINUOUS
 10
198.2584595303
 20
196.8437327562
 40
3.9042767202
100
AcDbArc
 50
266.7410506153
 51
268.7570032812
  0
ARC
  5
2AA
100
AcDbEntity
  8
00_COMPONENTS
100
AcDbCircle
 62
7
  6
CONTINUOUS
 10
199.7336664567
 20
196.8437327562
 40
3.9042767202
100
AcDbArc
 50
271.2429967188
 51
273.2589493847
  0
ARC
  5
2AB
100
AcDbEntity
  8
00_COMPONENTS
100
AcDbCircle
 62
7
  6
CONTINUOUS
 10
318.2584595303
 20
196.8437327562
 40
3.9042767202
100
AcDbArc
 50
266.7410506153
 51
268.7570032812
  0
ARC
  5
2AC
100
AcDbEntity
  8
00_COMPONENTS
100
AcDbCircle
 62
7
  6
CONTINUOUS
 10
198.7911494467
 20
195.9329087193
 40
3.0548410755
100
AcDbArc
 50
255.8082266865
 51
258.3405474595
  0
ARC
  5
2AD
100
AcDbEntity
  8
00_COMPONENTS
100
AcDbCircle
 62
7
  6
CONTINUOUS
 10
318.7911494467
 20
195.9329087193
 40
3.0548410755
100
AcDbArc
 50
255.8082266865
 51
258.3405474595
  0
ARC
  5
2AE
100
AcDbEntity
  8
00_COMPONENTS
100
AcDbCircle
 62
7
  6
CONTINUOUS
 10
198.9960629935
 20
200.7206521593
 40
7.85078125
100
AcDbArc
 50
242.4949845239
 51
254.771891088
  0
ARC
  5
2AF
100
AcDbEntity
  8
00_COMPONENTS
100
AcDbCircle
 62
7
  6
CONTINUOUS
 10
198.9960629935
 20
200.7206521593
 40
7.85078125
100
AcDbArc
 50
285.228108912
 51
297.5050154761
  0
ARC
  5
2B0
100
AcDbEntity
  8
00_COMPONENTS
100
AcDbCircle
 62
7
  6
CONTINUOUS
 10
198.9960629935
 20
200.7206521593
 40
7.8338714079
100
AcDbArc
 50
277.035724314
 51
284.7669642634
  0
ARC
  5
2B1
100
AcDbEntity
  8
00_COMPONENTS
100
AcDbCircle
 62
7
  6
CONTINUOUS
 10
198.9960629935
 20
200.7206521593
 40
7.8338714079
100
AcDbArc
 50
255.2330357366
 51
262.964275686
  0
ARC
  5
2B2
100
AcDbEntity
  8
00_COMPONENTS
100
AcDbCircle
 62
7
  6
CONTINUOUS
 10
198.9956697958
 20
200.7460445176
 40
7.8329349561
100
AcDbArc
 50
274.8456519188
 51
275.2036317677
  0
ARC
  5
2B3
100
AcDbEntity
  8
00_COMPONENTS
100
AcDbCircle
 62
7
  6
CONTINUOUS
 10
318.9956697957
 20
200.7460445181
 40
7.8329349567
100
AcDbArc
 50
274.8456519188
 51
275.2036317677
  0
ARC
  5
2B4
100
AcDbEntity
  8
00_COMPONENTS_24
100
AcDbCircle
 62
7
  6
CONTINUOUS
 10
72.4009281408
 20
697.8776401486
 40
6.3405642914
100
AcDbArc
 50
244.9986288661
 51
247.0689453999
  0
ARC
  5
2B5
100
AcDbEntity
  8
00_COMPONENTS
100
AcDbCircle
 62
7
  6
CONTINUOUS
 10
318.9960629935
 20
200.7206521593
 40
7.85078125
100
AcDbArc
 50
242.4949845239
 51
254.771891088
  0
ARC
  5
2B6
100
AcDbEntity
  8
00_COMPONENTS
100
AcDbCircle
 62
7
  6
CONTINUOUS
 10
318.9960629935
 20
200.7206521593
 40
7.85078125
100
AcDbArc
 50
285.228108912
 51
297.5050154761
  0
ARC
  5
2B7
100
AcDbEntity
  8
00_COMPONENTS
100
AcDbCircle
 62
7
  6
CONTINUOUS
 10
438.9960629935
 20
200.7206521593
 40
7.85078125
100
AcDbArc
 50
242.4949845239
 51
254.771891088
  0
ARC
  5
2B8
100
AcDbEntity
  8
00_COMPONENTS
100
AcDbCircle
 62
7
  6
CONTINUOUS
 10
438.9960629935
 20
200.7206521593
 40
7.85078125
100
AcDbArc
 50
285.228108912
 51
297.5050154761
  0
ARC
  5
2B9
100
AcDbEntity
  8
00_COMPONENTS
100
AcDbCircle
 62
7
  6
CONTINUOUS
 10
318.9960629935
 20
200.7206521593
 40
7.8338714079
100
AcDbArc
 50
277.035724314
 51
284.7669642634
  0
ARC
  5
2BA
100
AcDbEntity
  8
00_COMPONENTS
100
AcDbCircle
 62
7
  6
CONTINUOUS
 10
318.9960629935
 20
200.7206521593
 40
7.8338714079
100
AcDbArc
 50
255.2330357366
 51
262.964275686
  0
ARC
  5
2BB
100
AcDbEntity
  8
00_COMPONENTS
100
AcDbCircle
 62
7
  6
CONTINUOUS
 10
438.9960629935
 20
200.7206521593
 40
7.8338714079
100
AcDbArc
 50
277.035724314
 51
284.7669642634
  0
ARC
  5
2BC
100
AcDbEntity
  8
00_COMPONENTS
100
AcDbCircle
 62
7
  6
CONTINUOUS
 10
438.9960629935
 20
200.7206521593
 40
7.8338714079
100
AcDbArc
 50
255.2330357366
 51
262.964275686
  0
ARC
  5
2BD
100
AcDbEntity
  8
00_COMPONENTS
100
AcDbCircle
 62
7
  6
CONTINUOUS
 10
438.9956697956
 20
200.7460445197
 40
7.8329349583
100
AcDbArc
 50
274.8456519189
 51
275.2036317676
  0
ARC
  5
2BE
100
AcDbEntity
  8
00_COMPONENTS
100
AcDbCircle
 62
7
  6
CONTINUOUS
 10
319.2383111544
 20
198.1245680671
 40
5.2616136648
100
AcDbArc
 50
258.3995666442
 51
260.1128256773
  0
ARC
  5
2BF
100
AcDbEntity
  8
00_COMPONENTS
100
AcDbCircle
 62
7
  6
CONTINUOUS
 10
439.2383111543
 20
198.1245680668
 40
5.2616136645
100
AcDbArc
 50
258.3995666441
 51
260.1128256773
  0
ARC
  5
2C0
100
AcDbEntity
  8
00_COMPONENTS
100
AcDbCircle
 62
7
  6
CONTINUOUS
 10
438.7785859458
 20
198.098744875
 40
5.2361530934
100
AcDbArc
 50
280.2028306771
 51
281.402602375
  0
ARC
  5
2C1
100
AcDbEntity
  8
00_COMPONENTS
100
AcDbCircle
 62
7
  6
CONTINUOUS
 10
319.2134169619
 20
198.0980872181
 40
5.2354840347
100
AcDbArc
 50
258.6065941211
 51
259.7972201016
  0
ARC
  5
2C2
100
AcDbEntity
  8
00_COMPONENTS
100
AcDbCircle
 62
7
  6
CONTINUOUS
 10
439.2134169619
 20
198.0980872178
 40
5.2354840343
100
AcDbArc
 50
258.6065941211
 51
259.7972201016
  0
ARC
  5
2C3
100
AcDbEntity
  8
00_COMPONENTS
100
AcDbCircle
 62
7
  6
CONTINUOUS
 10
319.7339265156
 20
196.8721679178
 40
3.932717712
100
AcDbArc
 50
266.7513601303
 51
268.7575826022
  0
ARC
  5
2C4
100
AcDbEntity
  8
00_COMPONENTS
100
AcDbCircle
 62
7
  6
CONTINUOUS
 10
438.2581994714
 20
196.8721679178
 40
3.932717712
100
AcDbArc
 50
271.2424173978
 51
273.2486398697
  0
ARC
  5
2C5
100
AcDbEntity
  8
00_COMPONENTS
100
AcDbCircle
 62
7
  6
CONTINUOUS
 10
439.7339265156
 20
196.8721679178
 40
3.932717712
100
AcDbArc
 50
266.7513601303
 51
268.7575826022
  0
ARC
  5
2C6
100
AcDbEntity
  8
00_COMPONENTS
100
AcDbCircle
 62
7
  6
CONTINUOUS
 10
319.7336664567
 20
196.8437327562
 40
3.9042767202
100
AcDbArc
 50
271.2429967188
 51
273.2589493847
  0
ARC
  5
2C7
100
AcDbEntity
  8
00_COMPONENTS
100
AcDbCircle
 62
7
  6
CONTINUOUS
 10
438.2584595303
 20
196.8437327562
 40
3.9042767203
100
AcDbArc
 50
266.7410506153
 51
268.7570032812
  0
ARC
  5
2C8
100
AcDbEntity
  8
00_COMPONENTS
100
AcDbCircle
 62
7
  6
CONTINUOUS
 10
439.7336664567
 20
196.8437327562
 40
3.9042767203
100
AcDbArc
 50
271.2429967188
 51
273.2589493847
  0
ARC
  5
2C9
100
AcDbEntity
  8
00_COMPONENTS
100
AcDbCircle
 62
7
  6
CONTINUOUS
 10
438.7911494467
 20
195.9329087192
 40
3.0548410754
100
AcDbArc
 50
255.8082266865
 51
258.3405474596
  0
ARC
  5
2CA
100
AcDbEntity
  8
00_COMPONENTS_24
100
AcDbCircle
 62
7
  6
CONTINUOUS
 10
565.591197846
 20
189.6621016697
 40
6.3405642919
100
AcDbArc
 50
64.9986288661
 51
67.0689453998
  0
ARC
  5
2CB
100
AcDbEntity
  8
00_COMPONENTS
100
AcDbCircle
 62
7
  6
CONTINUOUS
 10
534.9960629935
 20
200.7206521593
 40
7.85078125
100
AcDbArc
 50
242.4949845239
 51
254.771891088
  0
ARC
  5
2CC
100
AcDbEntity
  8
00_COMPONENTS
100
AcDbCircle
 62
7
  6
CONTINUOUS
 10
534.9960629935
 20
200.7206521593
 40
7.85078125
100
AcDbArc
 50
285.228108912
 51
297.5050154761
  0
ARC
  5
2CD
100
AcDbEntity
  8
00_COMPONENTS
100
AcDbCircle
 62
7
  6
CONTINUOUS
 10
534.9960629935
 20
200.7206521593
 40
7.8338714079
100
AcDbArc
 50
277.035724314
 51
284.7669642634
  0
ARC
  5
2CE
100
AcDbEntity
  8
00_COMPONENTS
100
AcDbCircle
 62
7
  6
CONTINUOUS
 10
534.9960629935
 20
200.7206521593
 40
7.8338714079
100
AcDbArc
 50
255.2330357366
 51
262.964275686
  0
ARC
  5
2CF
100
AcDbEntity
  8
00_COMPONENTS
100
AcDbCircle
 62
7
  6
CONTINUOUS
 10
534.9956697961
 20
200.7460445136
 40
7.8329349522
100
AcDbArc
 50
274.8456519187
 51
275.2036317678
  0
ARC
  5
2D0
100
AcDbEntity
  8
00_COMPONENTS
100
AcDbCircle
 62
7
  6
CONTINUOUS
 10
535.2383111543
 20
198.124568067
 40
5.2616136647
100
AcDbArc
 50
258.3995666441
 51
260.1128256773
  0
ARC
  5
2D1
100
AcDbEntity
  8
00_COMPONENTS
100
AcDbCircle
 62
7
  6
CONTINUOUS
 10
534.7785859458
 20
198.0987448751
 40
5.2361530935
100
AcDbArc
 50
280.2028306771
 51
281.402602375
  0
ARC
  5
2D2
100
AcDbEntity
  8
00_COMPONENTS
100
AcDbCircle
 62
7
  6
CONTINUOUS
 10
535.2134169619
 20
198.0980872178
 40
5.2354840343
100
AcDbArc
 50
258.6065941211
 51
259.7972201016
  0
ARC
  5
2D3
100
AcDbEntity
  8
00_COMPONENTS
100
AcDbCircle
 62
7
  6
CONTINUOUS
 10
534.2581994714
 20
196.8721679178
 40
3.932717712
100
AcDbArc
 50
271.2424173978
 51
273.2486398697
  0
ARC
  5
2D4
100
AcDbEntity
  8
00_COMPONENTS
100
AcDbCircle
 62
7
  6
CONTINUOUS
 10
535.7339265156
 20
196.8721679178
 40
3.932717712
100
AcDbArc
 50
266.7513601303
 51
268.7575826022
  0
ARC
  5
2D5
100
AcDbEntity
  8
00_COMPONENTS
100
AcDbCircle
 62
7
  6
CONTINUOUS
 10
534.2584595303
 20
196.8437327562
 40
3.9042767202
100
AcDbArc
 50
266.7410506153
 51
268.7570032812
  0
ARC
  5
2D6
100
AcDbEntity
  8
00_COMPONENTS
100
AcDbCircle
 62
7
  6
CONTINUOUS
 10
535.7336664567
 20
196.8437327562
 40
3.9042767202
100
AcDbArc
 50
271.2429967188
 51
273.2589493847
  0
ARC
  5
2D7
100
AcDbEntity
  8
00_COMPONENTS
100
AcDbCircle
 62
7
  6
CONTINUOUS
 10
534.7911494467
 20
195.9329087193
 40
3.0548410755
100
AcDbArc
 50
255.8082266865
 51
258.3405474595
  0
ARC
  5
2D8
100
AcDbEntity
  8
00_COMPONENTS_24
100
AcDbCircle
 62
7
  6
CONTINUOUS
 10
572.4088940353
 20
689.139380998
 40
6.0220113954
100
AcDbArc
 50
140.4083992373
 51
142.1702340198
  0
ARC
  5
2D9
100
AcDbEntity
  8
00_COMPONENTS_24
100
AcDbCircle
 62
7
  6
CONTINUOUS
 10
571.4125377829
 20
689.9651978397
 40
4.7279106371
100
AcDbArc
 50
138.0495852586
 51
140.4252579777
  0
LINE
  5
2DA
100
AcDbEntity
  8
00_COMPONENTS
100
AcDbLine
 62
7
  6
CONTINUOUS
 10
534.343470918
 20
192.9403747667
 11
534.3392131327
 21
192.9407373469
  0
LINE
  5
2DB
100
AcDbEntity
  8
00_COMPONENTS
100
AcDbLine
 62
7
  6
CONTINUOUS
 10
534.3392131327
 20
192.9407373469
 11
534.3348469489
 21
192.9411010046
  0
SPLINE
  5
2DC
100
AcDbEntity
  8
00_COMPONENTS
100
AcDbSpline
 62
7
  6
CONTINUOUS
 70
0
 71
3
 72
9
 73
5
 74
0
 42
0.0000001
 43
0.0000001
 44
0.0000000001
 40
0.0
 40
0.0
 40
0.0
 40
0.0
 40
0.2550942543
 40
1.0
 40
1.0
 40
1.0
 40
1.0
 10
533.6062985125
 20
193.1198709093
 30
0.0
 10
533.6540023826
 20
193.104893402
 30
0.0
 10
533.8416937478
 20
193.0484023161
 30
0.0
 10
534.0321455861
 20
193.0009769479
 30
0.0
 10
534.1751417839
 20
192.9714861689
 30
0.0
  0
SPLINE
  5
2DD
100
AcDbEntity
  8
00_COMPONENTS
100
AcDbSpline
 62
7
  6
CONTINUOUS
 70
0
 71
3
 72
9
 73
5
 74
0
 42
0.0000001
 43
0.0000001
 44
0.0000000001
 40
0.0
 40
0.0
 40
0.0
 40
0.0
 40
0.2461603863
 40
1.0
 40
1.0
 40
1.0
 40
1.0
 10
535.8173356796
 20
192.9666594681
 30
0.0
 10
535.8524188402
 20
192.9737578665
 30
0.0
 10
535.9946474373
 20
193.0040297951
 30
0.0
 10
536.1356661118
 20
193.0399387203
 30
0.0
 10
536.2411157032
 20
193.0698709093
 30
0.0
  0
SPLINE
  5
2DE
100
AcDbEntity
  8
00_COMPONENTS
100
AcDbSpline
 62
7
  6
CONTINUOUS
 70
0
 71
3
 72
9
 73
5
 74
0
 42
0.0000001
 43
0.0000001
 44
0.0000000001
 40
0.0
 40
0.0
 40
0.0
 40
0.0
 40
0.2461010597
 40
1.0
 40
1.0
 40
1.0
 40
1.0
 10
536.2411157032
 20
193.0698709093
 30
0.0
 10
536.2073086504
 20
193.0569772775
 30
0.0
 10
536.0688994872
 20
193.0073346397
 30
0.0
 10
535.9266030388
 20
192.9686616201
 30
0.0
 10
535.8182332217
 20
192.9453918142
 30
0.0
  0
SPLINE
  5
2DF
100
AcDbEntity
  8
00_COMPONENTS
100
AcDbSpline
 62
7
  6
CONTINUOUS
 70
0
 71
3
 72
9
 73
5
 74
0
 42
0.0000001
 43
0.0000001
 44
0.0000000001
 40
0.0
 40
0.0
 40
0.0
 40
0.0
 40
0.2462189315
 40
1.0
 40
1.0
 40
1.0
 40
1.0
 10
533.6062985125
 20
193.1198709093
 30
0.0
 10
533.6409445384
 20
193.1047024316
 30
0.0
 10
533.7829716646
 20
193.0461276496
 30
0.0
 10
533.9299513736
 20
192.9997038437
 30
0.0
 10
534.0421995965
 20
192.9712996772
 30
0.0
  0
LINE
  5
2E0
100
AcDbEntity
  8
00_COMPONENTS
100
AcDbLine
 62
7
  6
CONTINUOUS
 10
102.343470918
 20
192.9403747667
 11
102.3392131327
 21
192.9407373469
  0
LINE
  5
2E1
100
AcDbEntity
  8
00_COMPONENTS
100
AcDbLine
 62
7
  6
CONTINUOUS
 10
102.3392131327
 20
192.9407373469
 11
102.3348469489
 21
192.9411010046
  0
SPLINE
  5
2E2
100
AcDbEntity
  8
00_COMPONENTS
100
AcDbSpline
 62
7
  6
CONTINUOUS
 70
0
 71
3
 72
9
 73
5
 74
0
 42
0.0000001
 43
0.0000001
 44
0.0000000001
 40
0.0
 40
0.0
 40
0.0
 40
0.0
 40
0.2550942543
 40
1.0
 40
1.0
 40
1.0
 40
1.0
 10
101.6062985125
 20
193.1198709093
 30
0.0
 10
101.6540023826
 20
193.104893402
 30
0.0
 10
101.8416937478
 20
193.0484023161
 30
0.0
 10
102.0321455861
 20
193.0009769479
 30
0.0
 10
102.1751417839
 20
192.9714861689
 30
0.0
  0
SPLINE
  5
2E3
100
AcDbEntity
  8
00_COMPONENTS
100
AcDbSpline
 62
7
  6
CONTINUOUS
 70
0
 71
3
 72
9
 73
5
 74
0
 42
0.0000001
 43
0.0000001
 44
0.0000000001
 40
0.0
 40
0.0
 40
0.0
 40
0.0
 40
0.2461603863
 40
1.0
 40
1.0
 40
1.0
 40
1.0
 10
103.8173356796
 20
192.9666594681
 30
0.0
 10
103.8524188402
 20
192.9737578665
 30
0.0
 10
103.9946474373
 20
193.0040297951
 30
0.0
 10
104.1356661118
 20
193.0399387203
 30
0.0
 10
104.2411157032
 20
193.0698709093
 30
0.0
  0
SPLINE
  5
2E4
100
AcDbEntity
  8
00_COMPONENTS
100
AcDbSpline
 62
7
  6
CONTINUOUS
 70
0
 71
3
 72
9
 73
5
 74
0
 42
0.0000001
 43
0.0000001
 44
0.0000000001
 40
0.0
 40
0.0
 40
0.0
 40
0.0
 40
0.2461010597
 40
1.0
 40
1.0
 40
1.0
 40
1.0
 10
104.2411157032
 20
193.0698709093
 30
0.0
 10
104.2073086504
 20
193.0569772775
 30
0.0
 10
104.0688994872
 20
193.0073346397
 30
0.0
 10
103.9266030388
 20
192.9686616201
 30
0.0
 10
103.8182332217
 20
192.9453918142
 30
0.0
  0
SPLINE
  5
2E5
100
AcDbEntity
  8
00_COMPONENTS
100
AcDbSpline
 62
7
  6
CONTINUOUS
 70
0
 71
3
 72
9
 73
5
 74
0
 42
0.0000001
 43
0.0000001
 44
0.0000000001
 40
0.0
 40
0.0
 40
0.0
 40
0.0
 40
0.2462189315
 40
1.0
 40
1.0
 40
1.0
 40
1.0
 10
101.6062985125
 20
193.1198709093
 30
0.0
 10
101.6409445384
 20
193.1047024316
 30
0.0
 10
101.7829716646
 20
193.0461276496
 30
0.0
 10
101.9299513736
 20
192.9997038437
 30
0.0
 10
102.0421995965
 20
192.9712996772
 30
0.0
  0
LINE
  5
2E6
100
AcDbEntity
  8
00_COMPONENTS
100
AcDbLine
 62
7
  6
CONTINUOUS
 10
198.343470918
 20
192.9403747667
 11
198.3392131327
 21
192.9407373469
  0
LINE
  5
2E7
100
AcDbEntity
  8
00_COMPONENTS
100
AcDbLine
 62
7
  6
CONTINUOUS
 10
198.3392131327
 20
192.9407373469
 11
198.3348469489
 21
192.9411010046
  0
SPLINE
  5
2E8
100
AcDbEntity
  8
00_COMPONENTS
100
AcDbSpline
 62
7
  6
CONTINUOUS
 70
0
 71
3
 72
9
 73
5
 74
0
 42
0.0000001
 43
0.0000001
 44
0.0000000001
 40
0.0
 40
0.0
 40
0.0
 40
0.0
 40
0.2550942543
 40
1.0
 40
1.0
 40
1.0
 40
1.0
 10
197.6062985125
 20
193.1198709093
 30
0.0
 10
197.6540023826
 20
193.104893402
 30
0.0
 10
197.8416937478
 20
193.0484023161
 30
0.0
 10
198.0321455861
 20
193.0009769479
 30
0.0
 10
198.1751417839
 20
192.9714861689
 30
0.0
  0
SPLINE
  5
2E9
100
AcDbEntity
  8
00_COMPONENTS
100
AcDbSpline
 62
7
  6
CONTINUOUS
 70
0
 71
3
 72
9
 73
5
 74
0
 42
0.0000001
 43
0.0000001
 44
0.0000000001
 40
0.0
 40
0.0
 40
0.0
 40
0.0
 40
0.2461603863
 40
1.0
 40
1.0
 40
1.0
 40
1.0
 10
199.8173356796
 20
192.9666594681
 30
0.0
 10
199.8524188402
 20
192.9737578665
 30
0.0
 10
199.9946474373
 20
193.0040297951
 30
0.0
 10
200.1356661118
 20
193.0399387203
 30
0.0
 10
200.2411157032
 20
193.0698709093
 30
0.0
  0
SPLINE
  5
2EA
100
AcDbEntity
  8
00_COMPONENTS
100
AcDbSpline
 62
7
  6
CONTINUOUS
 70
0
 71
3
 72
9
 73
5
 74
0
 42
0.0000001
 43
0.0000001
 44
0.0000000001
 40
0.0
 40
0.0
 40
0.0
 40
0.0
 40
0.2461010597
 40
1.0
 40
1.0
 40
1.0
 40
1.0
 10
200.2411157032
 20
193.0698709093
 30
0.0
 10
200.2073086504
 20
193.0569772775
 30
0.0
 10
200.0688994872
 20
193.0073346397
 30
0.0
 10
199.9266030388
 20
192.9686616201
 30
0.0
 10
199.8182332217
 20
192.9453918142
 30
0.0
  0
SPLINE
  5
2EB
100
AcDbEntity
  8
00_COMPONENTS
100
AcDbSpline
 62
7
  6
CONTINUOUS
 70
0
 71
3
 72
9
 73
5
 74
0
 42
0.0000001
 43
0.0000001
 44
0.0000000001
 40
0.0
 40
0.0
 40
0.0
 40
0.0
 40
0.2462189315
 40
1.0
 40
1.0
 40
1.0
 40
1.0
 10
197.6062985125
 20
193.1198709093
 30
0.0
 10
197.6409445384
 20
193.1047024316
 30
0.0
 10
197.7829716646
 20
193.0461276496
 30
0.0
 10
197.9299513736
 20
192.9997038437
 30
0.0
 10
198.0421995965
 20
192.9712996772
 30
0.0
  0
LINE
  5
2EC
100
AcDbEntity
  8
00_COMPONENTS
100
AcDbLine
 62
7
  6
CONTINUOUS
 10
318.343470918
 20
192.9403747667
 11
318.3392131327
 21
192.9407373469
  0
LINE
  5
2ED
100
AcDbEntity
  8
00_COMPONENTS
100
AcDbLine
 62
7
  6
CONTINUOUS
 10
318.3392131327
 20
192.9407373469
 11
318.3348469489
 21
192.9411010046
  0
SPLINE
  5
2EE
100
AcDbEntity
  8
00_COMPONENTS
100
AcDbSpline
 62
7
  6
CONTINUOUS
 70
0
 71
3
 72
9
 73
5
 74
0
 42
0.0000001
 43
0.0000001
 44
0.0000000001
 40
0.0
 40
0.0
 40
0.0
 40
0.0
 40
0.2550942543
 40
1.0
 40
1.0
 40
1.0
 40
1.0
 10
317.6062985125
 20
193.1198709093
 30
0.0
 10
317.6540023826
 20
193.104893402
 30
0.0
 10
317.8416937478
 20
193.0484023161
 30
0.0
 10
318.0321455861
 20
193.0009769479
 30
0.0
 10
318.1751417839
 20
192.9714861689
 30
0.0
  0
SPLINE
  5
2EF
100
AcDbEntity
  8
00_COMPONENTS
100
AcDbSpline
 62
7
  6
CONTINUOUS
 70
0
 71
3
 72
9
 73
5
 74
0
 42
0.0000001
 43
0.0000001
 44
0.0000000001
 40
0.0
 40
0.0
 40
0.0
 40
0.0
 40
0.2461603863
 40
1.0
 40
1.0
 40
1.0
 40
1.0
 10
319.8173356796
 20
192.9666594681
 30
0.0
 10
319.8524188402
 20
192.9737578665
 30
0.0
 10
319.9946474373
 20
193.0040297951
 30
0.0
 10
320.1356661118
 20
193.0399387203
 30
0.0
 10
320.2411157032
 20
193.0698709093
 30
0.0
  0
SPLINE
  5
2F0
100
AcDbEntity
  8
00_COMPONENTS
100
AcDbSpline
 62
7
  6
CONTINUOUS
 70
0
 71
3
 72
9
 73
5
 74
0
 42
0.0000001
 43
0.0000001
 44
0.0000000001
 40
0.0
 40
0.0
 40
0.0
 40
0.0
 40
0.2461010597
 40
1.0
 40
1.0
 40
1.0
 40
1.0
 10
320.2411157032
 20
193.0698709093
 30
0.0
 10
320.2073086504
 20
193.0569772775
 30
0.0
 10
320.0688994872
 20
193.0073346397
 30
0.0
 10
319.9266030388
 20
192.9686616201
 30
0.0
 10
319.8182332217
 20
192.9453918142
 30
0.0
  0
SPLINE
  5
2F1
100
AcDbEntity
  8
00_COMPONENTS
100
AcDbSpline
 62
7
  6
CONTINUOUS
 70
0
 71
3
 72
9
 73
5
 74
0
 42
0.0000001
 43
0.0000001
 44
0.0000000001
 40
0.0
 40
0.0
 40
0.0
 40
0.0
 40
0.2462189315
 40
1.0
 40
1.0
 40
1.0
 40
1.0
 10
317.6062985125
 20
193.1198709093
 30
0.0
 10
317.6409445384
 20
193.1047024316
 30
0.0
 10
317.7829716646
 20
193.0461276496
 30
0.0
 10
317.9299513736
 20
192.9997038437
 30
0.0
 10
318.0421995965
 20
192.9712996772
 30
0.0
  0
LINE
  5
2F2
100
AcDbEntity
  8
00_COMPONENTS
100
AcDbLine
 62
7
  6
CONTINUOUS
 10
438.343470918
 20
192.9403747667
 11
438.3392131327
 21
192.9407373469
  0
LINE
  5
2F3
100
AcDbEntity
  8
00_COMPONENTS
100
AcDbLine
 62
7
  6
CONTINUOUS
 10
438.3392131327
 20
192.9407373469
 11
438.3348469489
 21
192.9411010046
  0
SPLINE
  5
2F4
100
AcDbEntity
  8
00_COMPONENTS
100
AcDbSpline
 62
7
  6
CONTINUOUS
 70
0
 71
3
 72
9
 73
5
 74
0
 42
0.0000001
 43
0.0000001
 44
0.0000000001
 40
0.0
 40
0.0
 40
0.0
 40
0.0
 40
0.2550942543
 40
1.0
 40
1.0
 40
1.0
 40
1.0
 10
437.6062985125
 20
193.1198709093
 30
0.0
 10
437.6540023826
 20
193.104893402
 30
0.0
 10
437.8416937478
 20
193.0484023161
 30
0.0
 10
438.0321455861
 20
193.0009769479
 30
0.0
 10
438.1751417839
 20
192.9714861689
 30
0.0
  0
SPLINE
  5
2F5
100
AcDbEntity
  8
00_COMPONENTS
100
AcDbSpline
 62
7
  6
CONTINUOUS
 70
0
 71
3
 72
9
 73
5
 74
0
 42
0.0000001
 43
0.0000001
 44
0.0000000001
 40
0.0
 40
0.0
 40
0.0
 40
0.0
 40
0.2461603863
 40
1.0
 40
1.0
 40
1.0
 40
1.0
 10
439.8173356796
 20
192.9666594681
 30
0.0
 10
439.8524188402
 20
192.9737578665
 30
0.0
 10
439.9946474373
 20
193.0040297951
 30
0.0
 10
440.1356661118
 20
193.0399387203
 30
0.0
 10
440.2411157032
 20
193.0698709093
 30
0.0
  0
SPLINE
  5
2F6
100
AcDbEntity
  8
00_COMPONENTS
100
AcDbSpline
 62
7
  6
CONTINUOUS
 70
0
 71
3
 72
9
 73
5
 74
0
 42
0.0000001
 43
0.0000001
 44
0.0000000001
 40
0.0
 40
0.0
 40
0.0
 40
0.0
 40
0.2461010597
 40
1.0
 40
1.0
 40
1.0
 40
1.0
 10
440.2411157032
 20
193.0698709093
 30
0.0
 10
440.2073086504
 20
193.0569772775
 30
0.0
 10
440.0688994872
 20
193.0073346397
 30
0.0
 10
439.9266030388
 20
192.9686616201
 30
0.0
 10
439.8182332217
 20
192.9453918142
 30
0.0
  0
SPLINE
  5
2F7
100
AcDbEntity
  8
00_COMPONENTS
100
AcDbSpline
 62
7
  6
CONTINUOUS
 70
0
 71
3
 72
9
 73
5
 74
0
 42
0.0000001
 43
0.0000001
 44
0.0000000001
 40
0.0
 40
0.0
 40
0.0
 40
0.0
 40
0.2462189315
 40
1.0
 40
1.0
 40
1.0
 40
1.0
 10
437.6062985125
 20
193.1198709093
 30
0.0
 10
437.6409445384
 20
193.1047024316
 30
0.0
 10
437.7829716646
 20
193.0461276496
 30
0.0
 10
437.9299513736
 20
192.9997038437
 30
0.0
 10
438.0421995965
 20
192.9712996772
 30
0.0
  0
SPLINE
  5
2F8
100
AcDbEntity
  8
00_COMPONENTS_24
100
AcDbSpline
 62
7
  6
CONTINUOUS
 70
0
 71
3
 72
9
 73
5
 74
0
 42
0.0000001
 43
0.0000001
 44
0.0000000001
 40
0.0
 40
0.0
 40
0.0
 40
0.0
 40
0.2573247222
 40
1.0
 40
1.0
 40
1.0
 40
1.0
 10
71.1960629935
 20
195.9698709093
 30
0.0
 10
71.1144192736
 20
195.8999187337
 30
0.0
 10
70.7971464549
 20
195.6283971583
 30
0.0
 10
70.4715230289
 20
195.3640861665
 30
0.0
 10
70.2117821636
 20
195.1943247234
 30
0.0
  0
SPLINE
  5
2F9
100
AcDbEntity
  8
00_COMPONENTS_24
100
AcDbSpline
 62
7
  6
CONTINUOUS
 70
0
 71
3
 72
8
 73
4
 74
0
 42
0.0000001
 43
0.0000001
 44
0.0000000001
 40
0.0
 40
0.0
 40
0.0
 40
0.0
 40
1.0
 40
1.0
 40
1.0
 40
1.0
 10
70.2117821636
 20
195.1943247234
 30
0.0
 10
70.1410349323
 20
195.1480857457
 30
0.0
 10
70.0688936439
 20
195.103867191
 30
0.0
 10
69.9951851588
 20
195.0625117438
 30
0.0
  0
SPLINE
  5
2FA
100
AcDbEntity
  8
00_COMPONENTS_24
100
AcDbSpline
 62
7
  6
CONTINUOUS
 70
0
 71
3
 72
8
 73
4
 74
0
 42
0.0000001
 43
0.0000001
 44
0.0000000001
 40
0.0
 40
0.0
 40
0.0
 40
0.0
 40
1.0
 40
1.0
 40
1.0
 40
1.0
 10
69.9951851588
 20
195.0625117438
 30
0.0
 10
69.9088606394
 20
195.0140778478
 30
0.0
 10
69.8201837013
 20
194.9694549874
 30
0.0
 10
69.7291657244
 20
194.9305513524
 30
0.0
  0
SPLINE
  5
2FB
100
AcDbEntity
  8
00_COMPONENTS_24
100
AcDbSpline
 62
7
  6
CONTINUOUS
 70
0
 71
3
 72
8
 73
4
 74
0
 42
0.0000001
 43
0.0000001
 44
0.0000000001
 40
0.0
 40
0.0
 40
0.0
 40
0.0
 40
1.0
 40
1.0
 40
1.0
 40
1.0
 10
69.7291657244
 20
194.9305513524
 30
0.0
 10
69.4991296064
 20
194.8322274667
 30
0.0
 10
69.246231341
 20
194.7698709093
 30
0.0
 10
68.9960629935
 20
194.7698709093
 30
0.0
  0
SPLINE
  5
2FC
100
AcDbEntity
  8
00_COMPONENTS_24
100
AcDbSpline
 62
7
  6
CONTINUOUS
 70
0
 71
3
 72
9
 73
5
 74
0
 42
0.0000001
 43
0.0000001
 44
0.0000000001
 40
0.0
 40
0.0
 40
0.0
 40
0.0
 40
0.2389886121
 40
1.0
 40
1.0
 40
1.0
 40
1.0
 10
568.9960629935
 20
194.7698709093
 30
0.0
 10
568.9125624538
 20
194.7698709093
 30
0.0
 10
568.5627974257
 20
194.7968587256
 30
0.0
 10
568.2289359021
 20
194.9325157988
 30
0.0
 10
567.9969753156
 20
195.0624857103
 30
0.0
  0
SPLINE
  5
2FD
100
AcDbEntity
  8
00_COMPONENTS_24
100
AcDbSpline
 62
7
  6
CONTINUOUS
 70
0
 71
3
 72
8
 73
4
 74
0
 42
0.0000001
 43
0.0000001
 44
0.0000000001
 40
0.0
 40
0.0
 40
0.0
 40
0.0
 40
1.0
 40
1.0
 40
1.0
 40
1.0
 10
567.9969753156
 20
195.0624857103
 30
0.0
 10
567.923221334
 20
195.1038108277
 30
0.0
 10
567.8510515542
 20
195.1480355006
 30
0.0
 10
567.7802988066
 20
195.1943114537
 30
0.0
  0
SPLINE
  5
2FE
100
AcDbEntity
  8
00_COMPONENTS_24
100
AcDbSpline
 62
7
  6
CONTINUOUS
 70
0
 71
3
 72
8
 73
4
 74
0
 42
0.0000001
 43
0.0000001
 44
0.0000000001
 40
0.0
 40
0.0
 40
0.0
 40
0.0
 40
1.0
 40
1.0
 40
1.0
 40
1.0
 10
567.7802988066
 20
195.1943114537
 30
0.0
 10
567.6947901303
 20
195.2502385466
 30
0.0
 10
567.611231425
 20
195.3091959501
 30
0.0
 10
567.5291748757
 20
195.3700753074
 30
0.0
  0
SPLINE
  5
2FF
100
AcDbEntity
  8
00_COMPONENTS_24
100
AcDbSpline
 62
7
  6
CONTINUOUS
 70
0
 71
3
 72
8
 73
4
 74
0
 42
0.0000001
 43
0.0000001
 44
0.0000000001
 40
0.0
 40
0.0
 40
0.0
 40
0.0
 40
1.0
 40
1.0
 40
1.0
 40
1.0
 10
567.5291748757
 20
195.3700753074
 30
0.0
 10
567.2756049949
 20
195.5582037565
 30
0.0
 10
567.0358285452
 20
195.7644402648
 30
0.0
 10
566.7960621176
 20
195.9698716597
 30
0.0
  0
SPLINE
  5
300
100
AcDbEntity
  8
00_COMPONENTS_24
100
AcDbSpline
 62
7
  6
CONTINUOUS
 70
0
 71
3
 72
9
 73
5
 74
0
 42
0.0000001
 43
0.0000001
 44
0.0000000001
 40
0.0
 40
0.0
 40
0.0
 40
0.0
 40
0.2767995512
 40
1.0
 40
1.0
 40
1.0
 40
1.0
 10
566.7960629935
 20
195.9698709093
 30
0.0
 10
566.8935114939
 20
195.9078332684
 30
0.0
 10
567.2433771449
 20
195.682920297
 30
0.0
 10
567.597609681
 20
195.4458129601
 30
0.0
 10
567.7955532297
 20
195.2179648527
 30
0.0
  0
SPLINE
  5
301
100
AcDbEntity
  8
00_COMPONENTS_24
100
AcDbSpline
 62
7
  6
CONTINUOUS
 70
0
 71
3
 72
9
 73
5
 74
0
 42
0.0000001
 43
0.0000001
 44
0.0000000001
 40
0.0
 40
0.0
 40
0.0
 40
0.0
 40
0.2142305714
 40
1.0
 40
1.0
 40
1.0
 40
1.0
 10
567.7955577184
 20
692.3217821219
 30
0.0
 10
567.7368471685
 20
692.2542010649
 30
0.0
 10
567.431808661
 20
691.9660297621
 30
0.0
 10
567.0730501633
 20
691.7462064183
 30
0.0
 10
566.7960629935
 20
691.5698709093
 30
0.0
  0
SPLINE
  5
302
100
AcDbEntity
  8
00_COMPONENTS_24
100
AcDbSpline
 62
7
  6
CONTINUOUS
 70
0
 71
3
 72
9
 73
5
 74
0
 42
0.0000001
 43
0.0000001
 44
0.0000000001
 40
0.0
 40
0.0
 40
0.0
 40
0.0
 40
0.2573247222
 40
1.0
 40
1.0
 40
1.0
 40
1.0
 10
566.7960629935
 20
691.5698709093
 30
0.0
 10
566.8777067134
 20
691.6398230849
 30
0.0
 10
567.1949795321
 20
691.9113446603
 30
0.0
 10
567.520602958
 20
692.1756556521
 30
0.0
 10
567.7803438234
 20
692.3454170953
 30
0.0
  0
SPLINE
  5
303
100
AcDbEntity
  8
00_COMPONENTS_24
100
AcDbSpline
 62
7
  6
CONTINUOUS
 70
0
 71
3
 72
8
 73
4
 74
0
 42
0.0000001
 43
0.0000001
 44
0.0000000001
 40
0.0
 40
0.0
 40
0.0
 40
0.0
 40
1.0
 40
1.0
 40
1.0
 40
1.0
 10
567.7803438234
 20
692.3454170953
 30
0.0
 10
567.8510910547
 20
692.3916560729
 30
0.0
 10
567.9232323431
 20
692.4358746277
 30
0.0
 10
567.9969408282
 20
692.4772300749
 30
0.0
  0
SPLINE
  5
304
100
AcDbEntity
  8
00_COMPONENTS_24
100
AcDbSpline
 62
7
  6
CONTINUOUS
 70
0
 71
3
 72
8
 73
4
 74
0
 42
0.0000001
 43
0.0000001
 44
0.0000000001
 40
0.0
 40
0.0
 40
0.0
 40
0.0
 40
1.0
 40
1.0
 40
1.0
 40
1.0
 10
567.9969408282
 20
692.4772300749
 30
0.0
 10
568.0832653476
 20
692.5256639709
 30
0.0
 10
568.1719422857
 20
692.5702868312
 30
0.0
 10
568.2629602625
 20
692.6091904662
 30
0.0
  0
SPLINE
  5
305
100
AcDbEntity
  8
00_COMPONENTS_24
100
AcDbSpline
 62
7
  6
CONTINUOUS
 70
0
 71
3
 72
8
 73
4
 74
0
 42
0.0000001
 43
0.0000001
 44
0.0000000001
 40
0.0
 40
0.0
 40
0.0
 40
0.0
 40
1.0
 40
1.0
 40
1.0
 40
1.0
 10
568.2629602625
 20
692.6091904662
 30
0.0
 10
568.4929963806
 20
692.707514352
 30
0.0
 10
568.745894646
 20
692.7698709093
 30
0.0
 10
568.9960629935
 20
692.7698709093
 30
0.0
  0
SPLINE
  5
306
100
AcDbEntity
  8
00_COMPONENTS_24
100
AcDbSpline
 62
7
  6
CONTINUOUS
 70
0
 71
3
 72
9
 73
5
 74
0
 42
0.0000001
 43
0.0000001
 44
0.0000000001
 40
0.0
 40
0.0
 40
0.0
 40
0.0
 40
0.2389886121
 40
1.0
 40
1.0
 40
1.0
 40
1.0
 10
68.9960629935
 20
692.7698709093
 30
0.0
 10
69.0795635332
 20
692.7698709093
 30
0.0
 10
69.4293285613
 20
692.742883093
 30
0.0
 10
69.7631900849
 20
692.6072260198
 30
0.0
 10
69.9951506713
 20
692.4772561083
 30
0.0
  0
SPLINE
  5
307
100
AcDbEntity
  8
00_COMPONENTS_24
100
AcDbSpline
 62
7
  6
CONTINUOUS
 70
0
 71
3
 72
8
 73
4
 74
0
 42
0.0000001
 43
0.0000001
 44
0.0000000001
 40
0.0
 40
0.0
 40
0.0
 40
0.0
 40
1.0
 40
1.0
 40
1.0
 40
1.0
 10
69.9951506713
 20
692.4772561083
 30
0.0
 10
70.068904653
 20
692.4359309909
 30
0.0
 10
70.1410744328
 20
692.3917063181
 30
0.0
 10
70.2118271804
 20
692.345430365
 30
0.0
  0
SPLINE
  5
308
100
AcDbEntity
  8
00_COMPONENTS_24
100
AcDbSpline
 62
7
  6
CONTINUOUS
 70
0
 71
3
 72
8
 73
4
 74
0
 42
0.0000001
 43
0.0000001
 44
0.0000000001
 40
0.0
 40
0.0
 40
0.0
 40
0.0
 40
1.0
 40
1.0
 40
1.0
 40
1.0
 10
70.2118271804
 20
692.345430365
 30
0.0
 10
70.2973358566
 20
692.289503272
 30
0.0
 10
70.3808945619
 20
692.2305458686
 30
0.0
 10
70.4629511113
 20
692.1696665113
 30
0.0
  0
SPLINE
  5
309
100
AcDbEntity
  8
00_COMPONENTS_24
100
AcDbSpline
 62
7
  6
CONTINUOUS
 70
0
 71
3
 72
8
 73
4
 74
0
 42
0.0000001
 43
0.0000001
 44
0.0000000001
 40
0.0
 40
0.0
 40
0.0
 40
0.0
 40
1.0
 40
1.0
 40
1.0
 40
1.0
 10
70.4629511113
 20
692.1696665113
 30
0.0
 10
70.7165209921
 20
691.9815380621
 30
0.0
 10
70.9562974418
 20
691.7753015539
 30
0.0
 10
71.1960638693
 20
691.5698701589
 30
0.0
  0
SPLINE
  5
30A
100
AcDbEntity
  8
00_COMPONENTS_24
100
AcDbSpline
 62
7
  6
CONTINUOUS
 70
0
 71
3
 72
9
 73
5
 74
0
 42
0.0000001
 43
0.0000001
 44
0.0000000001
 40
0.0
 40
0.0
 40
0.0
 40
0.0
 40
0.2767995512
 40
1.0
 40
1.0
 40
1.0
 40
1.0
 10
71.1960629935
 20
691.5698709093
 30
0.0
 10
71.098614493
 20
691.6319085502
 30
0.0
 10
70.7487488421
 20
691.8568215216
 30
0.0
 10
70.394516306
 20
692.0939288585
 30
0.0
 10
70.1965727573
 20
692.3217769659
 30
0.0
  0
SPLINE
  5
30B
100
AcDbEntity
  8
00_COMPONENTS_24
100
AcDbSpline
 62
7
  6
CONTINUOUS
 70
0
 71
3
 72
9
 73
5
 74
0
 42
0.0000001
 43
0.0000001
 44
0.0000000001
 40
0.0
 40
0.0
 40
0.0
 40
0.0
 40
0.2142305714
 40
1.0
 40
1.0
 40
1.0
 40
1.0
 10
70.1965682686
 20
195.2179596967
 30
0.0
 10
70.2552788184
 20
195.2855407537
 30
0.0
 10
70.5603173259
 20
195.5737120566
 30
0.0
 10
70.9190758237
 20
195.7935354004
 30
0.0
 10
71.1960629935
 20
195.9698709093
 30
0.0
  0
SPLINE
  5
30C
100
AcDbEntity
  8
00_COMPONENTS_24
100
AcDbSpline
 62
7
  6
CONTINUOUS
 70
0
 71
3
 72
9
 73
5
 74
0
 42
0.0000001
 43
0.0000001
 44
0.0000000001
 40
0.0
 40
0.0
 40
0.0
 40
0.0
 40
0.2628147276
 40
1.0
 40
1.0
 40
1.0
 40
1.0
 10
71.1960629935
 20
195.9698709093
 30
0.0
 10
71.0843815092
 20
195.9310898329
 30
0.0
 10
70.6595805289
 20
195.7833310261
 30
0.0
 10
70.2357478556
 20
195.6311747959
 30
0.0
 10
69.9304995233
 20
195.5015997639
 30
0.0
  0
SPLINE
  5
30D
100
AcDbEntity
  8
00_COMPONENTS_24
100
AcDbSpline
 62
7
  6
CONTINUOUS
 70
0
 71
3
 72
9
 73
5
 74
0
 42
0.0000001
 43
0.0000001
 44
0.0000000001
 40
0.0
 40
0.0
 40
0.0
 40
0.0
 40
0.2713144161
 40
1.0
 40
1.0
 40
1.0
 40
1.0
 10
69.9304995233
 20
195.5015997639
 30
0.0
 10
69.8867933267
 20
195.4830468966
 30
0.0
 10
69.7263785747
 20
195.4131666107
 30
0.0
 10
69.568580672
 20
195.3366787033
 30
0.0
 10
69.4576351296
 20
195.2738052945
 30
0.0
  0
SPLINE
  5
30E
100
AcDbEntity
  8
00_COMPONENTS_24
100
AcDbSpline
 62
7
  6
CONTINUOUS
 70
0
 71
3
 72
9
 73
5
 74
0
 42
0.0000001
 43
0.0000001
 44
0.0000000001
 40
0.0
 40
0.0
 40
0.0
 40
0.0
 40
0.3371579603
 40
1.0
 40
1.0
 40
1.0
 40
1.0
 10
69.4576351296
 20
195.2738052945
 30
0.0
 10
69.3896409786
 20
195.2352726599
 30
0.0
 10
69.1994243252
 20
195.1189673929
 30
0.0
 10
68.9960629935
 20
194.9235182406
 30
0.0
 10
68.9960629935
 20
194.7698709093
 30
0.0
  0
SPLINE
  5
30F
100
AcDbEntity
  8
00_COMPONENTS_24
100
AcDbSpline
 62
7
  6
CONTINUOUS
 70
0
 71
3
 72
9
 73
5
 74
0
 42
0.0000001
 43
0.0000001
 44
0.0000000001
 40
0.0
 40
0.0
 40
0.0
 40
0.0
 40
0.3732337849
 40
1.0
 40
1.0
 40
1.0
 40
1.0
 10
68.9960629935
 20
692.7698709093
 30
0.0
 10
68.9960629935
 20
692.6460912652
 30
0.0
 10
69.2411585884
 20
692.3551061183
 30
0.0
 10
69.5328753688
 20
692.2192817717
 30
0.0
 10
69.7211523639
 20
692.1312014845
 30
0.0
  0
SPLINE
  5
310
100
AcDbEntity
  8
00_COMPONENTS_24
100
AcDbSpline
 62
7
  6
CONTINUOUS
 70
0
 71
3
 72
9
 73
5
 74
0
 42
0.0000001
 43
0.0000001
 44
0.0000000001
 40
0.0
 40
0.0
 40
0.0
 40
0.0
 40
0.2313556814
 40
1.0
 40
1.0
 40
1.0
 40
1.0
 10
69.9304973182
 20
692.0381429883
 30
0.0
 10
70.0263023529
 20
691.997474621
 30
0.0
 10
70.4439121443
 20
691.8299375609
 30
0.0
 10
70.8694086237
 20
691.6833007062
 30
0.0
 10
71.1960629935
 20
691.5698709093
 30
0.0
  0
SPLINE
  5
311
100
AcDbEntity
  8
00_COMPONENTS_24
100
AcDbSpline
 62
7
  6
CONTINUOUS
 70
0
 71
3
 72
9
 73
5
 74
0
 42
0.0000001
 43
0.0000001
 44
0.0000000001
 40
0.0
 40
0.0
 40
0.0
 40
0.0
 40
0.2605129597
 40
1.0
 40
1.0
 40
1.0
 40
1.0
 10
566.7960629935
 20
195.9698709093
 30
0.0
 10
566.867224581
 20
195.8580905491
 30
0.0
 10
567.1405240156
 20
195.4292740337
 30
0.0
 10
567.4215422598
 20
195.0040595509
 30
0.0
 10
567.6523891102
 20
194.7070904792
 30
0.0
  0
SPLINE
  5
312
100
AcDbEntity
  8
00_COMPONENTS_24
100
AcDbSpline
 62
7
  6
CONTINUOUS
 70
0
 71
3
 72
8
 73
4
 74
0
 42
0.0000001
 43
0.0000001
 44
0.0000000001
 40
0.0
 40
0.0
 40
0.0
 40
0.0
 40
1.0
 40
1.0
 40
1.0
 40
1.0
 10
567.6523891102
 20
194.7070904792
 30
0.0
 10
567.7302609809
 20
194.6069135128
 30
0.0
 10
567.8109515362
 20
194.508774362
 30
0.0
 10
567.8958470292
 20
194.4144758565
 30
0.0
  0
SPLINE
  5
313
100
AcDbEntity
  8
00_COMPONENTS_24
100
AcDbSpline
 62
7
  6
CONTINUOUS
 70
0
 71
3
 72
9
 73
5
 74
0
 42
0.0000001
 43
0.0000001
 44
0.0000000001
 40
0.0
 40
0.0
 40
0.0
 40
0.0
 40
0.2797605547
 40
1.0
 40
1.0
 40
1.0
 40
1.0
 10
567.8958470292
 20
194.4144758565
 30
0.0
 10
567.9496455489
 20
194.3547186205
 30
0.0
 10
568.1476648962
 20
194.1473448342
 30
0.0
 10
568.3771793587
 20
193.9627335993
 30
0.0
 10
568.5640851104
 20
193.8737534043
 30
0.0
  0
SPLINE
  5
314
100
AcDbEntity
  8
00_COMPONENTS_24
100
AcDbSpline
 62
7
  6
CONTINUOUS
 70
0
 71
3
 72
8
 73
4
 74
0
 42
0.0000001
 43
0.0000001
 44
0.0000000001
 40
0.0
 40
0.0
 40
0.0
 40
0.0
 40
1.0
 40
1.0
 40
1.0
 40
1.0
 10
568.5640851104
 20
193.8737534043
 30
0.0
 10
568.6978029724
 20
193.8100943605
 30
0.0
 10
568.8479652539
 20
193.7698709093
 30
0.0
 10
568.9960629935
 20
193.7698709093
 30
0.0
  0
SPLINE
  5
315
100
AcDbEntity
  8
00_COMPONENTS_24
100
AcDbSpline
 62
7
  6
CONTINUOUS
 70
0
 71
3
 72
8
 73
4
 74
0
 42
0.0000001
 43
0.0000001
 44
0.0000000001
 40
0.0
 40
0.0
 40
0.0
 40
0.0
 40
1.0
 40
1.0
 40
1.0
 40
1.0
 10
68.9960629935
 20
193.7698709093
 30
0.0
 10
69.1441266631
 20
193.7698709093
 30
0.0
 10
69.2942066708
 20
193.810213036
 30
0.0
 10
69.4279280687
 20
193.8737853412
 30
0.0
  0
SPLINE
  5
316
100
AcDbEntity
  8
00_COMPONENTS_24
100
AcDbSpline
 62
7
  6
CONTINUOUS
 70
0
 71
3
 72
9
 73
5
 74
0
 42
0.0000001
 43
0.0000001
 44
0.0000000001
 40
0.0
 40
0.0
 40
0.0
 40
0.0
 40
0.2225181608
 40
1.0
 40
1.0
 40
1.0
 40
1.0
 10
69.4279280687
 20
193.8737853412
 30
0.0
 10
69.4857019631
 20
193.9012515486
 30
0.0
 10
69.7359564835
 20
194.044678565
 30
0.0
 10
69.9462840632
 20
194.2478960057
 30
0.0
 10
70.0958470661
 20
194.4139961455
 30
0.0
  0
SPLINE
  5
317
100
AcDbEntity
  8
00_COMPONENTS_24
100
AcDbSpline
 62
7
  6
CONTINUOUS
 70
0
 71
3
 72
9
 73
5
 74
0
 42
0.0000001
 43
0.0000001
 44
0.0000000001
 40
0.0
 40
0.0
 40
0.0
 40
0.0
 40
0.2356406327
 40
1.0
 40
1.0
 40
1.0
 40
1.0
 10
70.3396363055
 20
194.7069560405
 30
0.0
 10
70.4132211216
 20
194.8016051485
 30
0.0
 10
70.7148619207
 20
195.211574226
 30
0.0
 10
70.9872190982
 20
195.6418196858
 30
0.0
 10
71.1960629935
 20
195.9698709093
 30
0.0
  0
SPLINE
  5
318
100
AcDbEntity
  8
00_COMPONENTS_24
100
AcDbSpline
 62
7
  6
CONTINUOUS
 70
0
 71
3
 72
9
 73
5
 74
0
 42
0.0000001
 43
0.0000001
 44
0.0000000001
 40
0.0
 40
0.0
 40
0.0
 40
0.0
 40
0.2628147276
 40
1.0
 40
1.0
 40
1.0
 40
1.0
 10
566.7960629935
 20
691.5698709093
 30
0.0
 10
566.9077444778
 20
691.6086519857
 30
0.0
 10
567.3325454581
 20
691.7564107925
 30
0.0
 10
567.7563781314
 20
691.9085670228
 30
0.0
 10
568.0616264637
 20
692.0381420547
 30
0.0
  0
SPLINE
  5
319
100
AcDbEntity
  8
00_COMPONENTS_24
100
AcDbSpline
 62
7
  6
CONTINUOUS
 70
0
 71
3
 72
9
 73
5
 74
0
 42
0.0000001
 43
0.0000001
 44
0.0000000001
 40
0.0
 40
0.0
 40
0.0
 40
0.0
 40
0.2713144161
 40
1.0
 40
1.0
 40
1.0
 40
1.0
 10
568.0616264637
 20
692.0381420547
 30
0.0
 10
568.1053326603
 20
692.0566949221
 30
0.0
 10
568.2657474123
 20
692.126575208
 30
0.0
 10
568.423545315
 20
692.2030631153
 30
0.0
 10
568.5344908574
 20
692.2659365241
 30
0.0
  0
SPLINE
  5
31A
100
AcDbEntity
  8
00_COMPONENTS_24
100
AcDbSpline
 62
7
  6
CONTINUOUS
 70
0
 71
3
 72
9
 73
5
 74
0
 42
0.0000001
 43
0.0000001
 44
0.0000000001
 40
0.0
 40
0.0
 40
0.0
 40
0.0
 40
0.3371579603
 40
1.0
 40
1.0
 40
1.0
 40
1.0
 10
568.5344908574
 20
692.2659365241
 30
0.0
 10
568.6024850084
 20
692.3044691587
 30
0.0
 10
568.7927016618
 20
692.4207744257
 30
0.0
 10
568.9960629935
 20
692.616223578
 30
0.0
 10
568.9960629935
 20
692.7698709093
 30
0.0
  0
SPLINE
  5
31B
100
AcDbEntity
  8
00_COMPONENTS_24
100
AcDbSpline
 62
7
  6
CONTINUOUS
 70
0
 71
3
 72
9
 73
5
 74
0
 42
0.0000001
 43
0.0000001
 44
0.0000000001
 40
0.0
 40
0.0
 40
0.0
 40
0.0
 40
0.3732337849
 40
1.0
 40
1.0
 40
1.0
 40
1.0
 10
568.9960629935
 20
194.7698709093
 30
0.0
 10
568.9960629935
 20
194.8936505534
 30
0.0
 10
568.7509673986
 20
195.1846357003
 30
0.0
 10
568.4592506181
 20
195.3204600469
 30
0.0
 10
568.2709736231
 20
195.4085403341
 30
0.0
  0
SPLINE
  5
31C
100
AcDbEntity
  8
00_COMPONENTS_24
100
AcDbSpline
 62
7
  6
CONTINUOUS
 70
0
 71
3
 72
9
 73
5
 74
0
 42
0.0000001
 43
0.0000001
 44
0.0000000001
 40
0.0
 40
0.0
 40
0.0
 40
0.0
 40
0.2313556814
 40
1.0
 40
1.0
 40
1.0
 40
1.0
 10
568.0616286688
 20
195.5015988303
 30
0.0
 10
567.9658236341
 20
195.5422671977
 30
0.0
 10
567.5482138427
 20
195.7098042578
 30
0.0
 10
567.1227173633
 20
195.8564411125
 30
0.0
 10
566.7960629935
 20
195.9698709093
 30
0.0
  0
SPLINE
  5
31D
100
AcDbEntity
  8
00_COMPONENTS_24
100
AcDbSpline
 62
7
  6
CONTINUOUS
 70
0
 71
3
 72
9
 73
5
 74
0
 42
0.0000001
 43
0.0000001
 44
0.0000000001
 40
0.0
 40
0.0
 40
0.0
 40
0.0
 40
0.2605129597
 40
1.0
 40
1.0
 40
1.0
 40
1.0
 10
71.1960629935
 20
691.5698709093
 30
0.0
 10
71.124901406
 20
691.6816512696
 30
0.0
 10
70.8516019713
 20
692.110467785
 30
0.0
 10
70.5705837271
 20
692.5356822677
 30
0.0
 10
70.3397368768
 20
692.8326513394
 30
0.0
  0
SPLINE
  5
31E
100
AcDbEntity
  8
00_COMPONENTS_24
100
AcDbSpline
 62
7
  6
CONTINUOUS
 70
0
 71
3
 72
8
 73
4
 74
0
 42
0.0000001
 43
0.0000001
 44
0.0000000001
 40
0.0
 40
0.0
 40
0.0
 40
0.0
 40
1.0
 40
1.0
 40
1.0
 40
1.0
 10
70.3397368768
 20
692.8326513394
 30
0.0
 10
70.2618650061
 20
692.9328283059
 30
0.0
 10
70.1811744508
 20
693.0309674567
 30
0.0
 10
70.0962789578
 20
693.1252659621
 30
0.0
  0
SPLINE
  5
31F
100
AcDbEntity
  8
00_COMPONENTS_24
100
AcDbSpline
 62
7
  6
CONTINUOUS
 70
0
 71
3
 72
9
 73
5
 74
0
 42
0.0000001
 43
0.0000001
 44
0.0000000001
 40
0.0
 40
0.0
 40
0.0
 40
0.0
 40
0.2797605547
 40
1.0
 40
1.0
 40
1.0
 40
1.0
 10
70.0962789578
 20
693.1252659621
 30
0.0
 10
70.0424804381
 20
693.1850231981
 30
0.0
 10
69.8444610908
 20
693.3923969844
 30
0.0
 10
69.6149466283
 20
693.5770082194
 30
0.0
 10
69.4280408766
 20
693.6659884144
 30
0.0
  0
SPLINE
  5
320
100
AcDbEntity
  8
00_COMPONENTS_24
100
AcDbSpline
 62
7
  6
CONTINUOUS
 70
0
 71
3
 72
8
 73
4
 74
0
 42
0.0000001
 43
0.0000001
 44
0.0000000001
 40
0.0
 40
0.0
 40
0.0
 40
0.0
 40
1.0
 40
1.0
 40
1.0
 40
1.0
 10
69.4280408766
 20
693.6659884144
 30
0.0
 10
69.2943230146
 20
693.7296474582
 30
0.0
 10
69.1441607331
 20
693.7698709093
 30
0.0
 10
68.9960629935
 20
693.7698709093
 30
0.0
  0
SPLINE
  5
321
100
AcDbEntity
  8
00_COMPONENTS_24
100
AcDbSpline
 62
7
  6
CONTINUOUS
 70
0
 71
3
 72
8
 73
4
 74
0
 42
0.0000001
 43
0.0000001
 44
0.0000000001
 40
0.0
 40
0.0
 40
0.0
 40
0.0
 40
1.0
 40
1.0
 40
1.0
 40
1.0
 10
568.9960629935
 20
693.7698709093
 30
0.0
 10
568.8479993239
 20
693.7698709093
 30
0.0
 10
568.6979193162
 20
693.7295287827
 30
0.0
 10
568.5641979182
 20
693.6659564774
 30
0.0
  0
SPLINE
  5
322
100
AcDbEntity
  8
00_COMPONENTS_24
100
AcDbSpline
 62
7
  6
CONTINUOUS
 70
0
 71
3
 72
9
 73
5
 74
0
 42
0.0000001
 43
0.0000001
 44
0.0000000001
 40
0.0
 40
0.0
 40
0.0
 40
0.0
 40
0.2225181608
 40
1.0
 40
1.0
 40
1.0
 40
1.0
 10
568.5641979182
 20
693.6659564774
 30
0.0
 10
568.5064240238
 20
693.63849027
 30
0.0
 10
568.2561695035
 20
693.4950632536
 30
0.0
 10
568.0458419237
 20
693.291845813
 30
0.0
 10
567.8962789208
 20
693.1257456731
 30
0.0
  0
SPLINE
  5
323
100
AcDbEntity
  8
00_COMPONENTS_24
100
AcDbSpline
 62
7
  6
CONTINUOUS
 70
0
 71
3
 72
9
 73
5
 74
0
 42
0.0000001
 43
0.0000001
 44
0.0000000001
 40
0.0
 40
0.0
 40
0.0
 40
0.0
 40
0.2356406327
 40
1.0
 40
1.0
 40
1.0
 40
1.0
 10
567.6524896815
 20
692.8327857781
 30
0.0
 10
567.5789048654
 20
692.7381366701
 30
0.0
 10
567.2772640663
 20
692.3281675926
 30
0.0
 10
567.0049068887
 20
691.8979221328
 30
0.0
 10
566.7960629935
 20
691.5698709093
 30
0.0
  0
ENDSEC
  0
SECTION
  2
OBJECTS
  0
DICTIONARY
  5
C
100
AcDbDictionary
280
0
281
1
  3
ACAD_GROUP
350
D
  3
ACAD_MLINESTYLE
350
17
  3
ACAD_LAYOUT
350
1A
  3
ACAD_PLOTSETTINGS
350
19
  3
ACAD_PLOTSTYLENAME
350
E
  0
DICTIONARY
  5
D
102
{ACAD_REACTORS
330
C
102
}
100
AcDbDictionary
280
0
281
1
  0
ACDBDICTIONARYWDFLT
  5
E
102
{ACAD_REACTORS
330
C
102
}
100
AcDbDictionary
281
1
  3
Normal
350
F
100
AcDbDictionaryWithDefault
340
F
  0
DICTIONARY
  5
17
102
{ACAD_REACTORS
330
C
102
}
100
AcDbDictionary
280
0
281
1
  3
Standard
350
18
  0
DICTIONARY
  5
19
102
{ACAD_REACTORS
330
C
102
}
100
AcDbDictionary
281
1
  0
DICTIONARY
  5
1A
102
{ACAD_REACTORS
330
C
102
}
100
AcDbDictionary
281
1
  3
Model
350
324
  3
Layout1
350
325
  0
ACDBPLACEHOLDER
  5
F
102
{ACAD_REACTORS
330
E
102
}
  0
MLINESTYLE
  5
18
102
{ACAD_REACTORS
330
17
102
}
100
AcDbMlineStyle
  2
STANDARD
 70
0
  3

 62
256
 51
90.0
 52
90.0
 71
2
 49
0.5
 62
256
  6
BYLAYER
 49
-0.5
 62
256
  6
BYLAYER
  0
LAYOUT
  5
324
102
{ACAD_REACTORS
330
1A
102
}
100
AcDbPlotSettings
  1

  2
none_device
  4

  6

 40
0.0
 41
0.0
 42
0.0
 43
0.0
 44
210.0
 45
297.0
 46
0.0
 47
0.0
 48
0.0
 49
0.0
140
0.0
141
0.0
142
1.0
143
1.0
 70
1024
 72
1
 73
0
 74
0
  7

 75
0
147
1.0
148
0.0
149
0.0
100
AcDbLayout
  1
Model
 70
0
 71
0
 10
0.0
 20
0.0
 11
210.0
 21
297.0
 12
0.0
 22
0.0
 32
0.0
 14
0.0
 24
0.0
 34
0.0
 15
0.0
 25
0.0
 35
0.0
146
0.0
 13
0.0
 23
0.0
 33
0.0
 16
1.0
 26
0.0
 36
0.0
 17
0.0
 27
1.0
 37
0.0
 76
0
330
225
345
0
346
0
  0
LAYOUT
  5
325
102
{ACAD_REACTORS
330
1A
102
}
100
AcDbPlotSettings
  1

  2
none_device
  4

  6

 40
0.0
 41
0.0
 42
0.0
 43
0.0
 44
210.0
 45
297.0
 46
0.0
 47
0.0
 48
0.0
 49
0.0
140
0.0
141
0.0
142
1.0
143
1.0
 70
0
 72
1
 73
0
 74
0
  7

 75
0
147
1.0
148
0.0
149
0.0
100
AcDbLayout
  1
Layout1
 70
0
 71
1
 10
0.0
 20
0.0
 11
210.0
 21
297.0
 12
0.0
 22
0.0
 32
0.0
 14
0.0
 24
0.0
 34
0.0
 15
0.0
 25
0.0
 35
0.0
146
0.0
 13
0.0
 23
0.0
 33
0.0
 16
1.0
 26
0.0
 36
0.0
 17
0.0
 27
1.0
 37
0.0
 76
0
330
226
345
0
346
0
  0
ENDSEC
  0
EOF
