999
DXF file: C:\Users\sesa63760\Dev\_Creo\CAD\MCADID0001246_3D-CAD\drw0001_1.dxf
999
Pro/ENGINEER 2019471 by Parametric Technology Corporation
  0
SECTION
  2
HEADER
  9
$ACADVER
  1
AC1024
  9
$DWGCODEPAGE
  3
ANSI_1252
  9
$EXTMAX
 10
204.8403796684
 20
289.7028226739
 30
0.0
  9
$EXTMIN
 10
0.0
 20
0.0
 30
0.0
  9
$LIMMIN
 10
0.0
 20
0.0
  9
$LIMMAX
 10
204.8403796684
 20
289.7028226739
  9
$VIEWCTR
 10
102.4201898342
 20
144.851411337
  9
$VIEWSIZE
 40
289.7028226739
  9
$CLAYER
  8
0
  9
$LTSCALE
 40
18.8843321447
  9
$CELTYPE
  6
BYLAYER
  9
$DIMSCALE
 40
1.0
  9
$DIMASZ
 40
2.4385759484
  9
$DIMEXO
 40
1.0
  9
$DIMDLI
 40
13.0473567545
  9
$DIMEXE
 40
1.0
  9
$DIMCEN
 40
3.0901634419
  9
$DIMLFAC
 40
1.0
  9
$DIMBLK
  1
_FILLED
  9
$DIMALT
 70
0
  9
$DIMALTF
 40
0.0393700787
  9
$DIMTXT
 40
3.4140063278
  9
$DIMTOL
 70
1
  9
$DIMLIM
 70
0
  9
$DIMTFAC
 40
1.0
  9
$DIMTP
 40
0.01
  9
$DIMTM
 40
0.01
  9
$DIMGAP
 40
0.625
  9
$DIMDSEP
 70
46
  9
$AUNITS
 70
0
  9
$PDMODE
 70
3
  9
$PDSIZE
 40
0.3125
  9
$HANDSEED
  5
452
  9
$TILEMODE
 70
1
  9
$MEASUREMENT
 70
1
  9
$INSUNITS
 70
4
  0
ENDSEC
  0
SECTION
  2
CLASSES
  0
CLASS
  1
ACDBDICTIONARYWDFLT
  2
AcDbDictionaryWithDefault
  3
AutoCAD 2000
 90
0
 91
1
280
0
281
0
  0
CLASS
  1
ACDBPLACEHOLDER
  2
AcDbPlaceHolder
  3
AutoCAD 2000
 90
0
 91
1
280
0
281
0
  0
CLASS
  1
LAYOUT
  2
AcDbLayout
  3
AutoCAD 2000
 90
0
 91
0
280
0
281
0
  0
ENDSEC
  0
SECTION
  2
TABLES
  0
TABLE
  2
VPORT
  5
8
100
AcDbSymbolTable
 70
2
  0
VPORT
  5
1F4
100
AcDbSymbolTableRecord
100
AcDbViewportTableRecord
  2
*ACTIVE
 70
0
 10
0.0
 20
0.0
 11
1.0
 21
1.0
 12
102.4201898342
 22
144.851411337
 13
0.0
 23
0.0
 14
1.0
 24
1.0
 15
0.0
 25
0.0
 16
0.0
 26
0.0
 36
1.0
 17
0.0
 27
0.0
 37
0.0
 40
289.7028226739
 41
0.7070707071
 42
50.0
 43
0.0
 44
0.0
 50
0.0
 51
0.0
 71
0
 72
100
 73
1
 74
1
 75
0
 76
0
 77
0
 78
0
  0
ENDTAB
  0
TABLE
  2
LTYPE
  5
5
100
AcDbSymbolTable
 70
6
  0
LTYPE
  5
14
100
AcDbSymbolTableRecord
100
AcDbLinetypeTableRecord
  2
BYBLOCK
 70
0
  3

 72
65
 73
0
 40
0.0
  0
LTYPE
  5
15
100
AcDbSymbolTableRecord
100
AcDbLinetypeTableRecord
  2
BYLAYER
 70
0
  3

 72
65
 73
0
 40
0.0
  0
LTYPE
  5
16
100
AcDbSymbolTableRecord
100
AcDbLinetypeTableRecord
  2
CONTINUOUS
 70
64
  3
Solid line
 72
65
 73
0
 40
0.0
  0
LTYPE
  5
1F5
100
AcDbSymbolTableRecord
100
AcDbLinetypeTableRecord
  2
CENTER
 70
64
  3
____ _ ____ _ ____ _ ____ _ ____ _ ____ _ ____
 72
65
 73
4
 40
0.6
 49
0.375
 74
0
 49
-0.075
 74
0
 49
0.075
 74
0
 49
-0.075
 74
0
  0
LTYPE
  5
1F6
100
AcDbSymbolTableRecord
100
AcDbLinetypeTableRecord
  2
HIDDEN
 70
64
  3
- - - - - - - - - - - - - - - - - - - -
 72
65
 73
2
 40
0.2
 49
0.1
 74
0
 49
-0.1
 74
0
  0
LTYPE
  5
1F7
100
AcDbSymbolTableRecord
100
AcDbLinetypeTableRecord
  2
PHANTOM
 70
64
  3
_____ _ _ _____ _ _ _____ _ _ _____
 72
65
 73
6
 40
0.8
 49
0.45
 74
0
 49
-0.05
 74
0
 49
0.1
 74
0
 49
-0.05
 74
0
 49
0.1
 74
0
 49
-0.05
 74
0
  0
LTYPE
  5
1F8
100
AcDbSymbolTableRecord
100
AcDbLinetypeTableRecord
  2
DOT
 70
64
  3
. . . . . . . . . . . . . . . . . . . .
 72
65
 73
2
 40
0.2
 49
0.1
 74
0
 49
-0.1
 74
0
  0
LTYPE
  5
1F9
100
AcDbSymbolTableRecord
100
AcDbLinetypeTableRecord
  2
DASHED
 70
64
  3
- - - - - - - - - - - - - - - - - - - -
 72
65
 73
2
 40
0.2
 49
0.1
 74
0
 49
-0.1
 74
0
  0
ENDTAB
  0
TABLE
  2
LAYER
  5
2
100
AcDbSymbolTable
 70
36
  0
LAYER
  5
10
100
AcDbSymbolTableRecord
100
AcDbLayerTableRecord
  2
0
 70
0
 62
7
  6
CONTINUOUS
370
-3
390
F
  0
LAYER
  5
1FA
100
AcDbSymbolTableRecord
100
AcDbLayerTableRecord
  2
DEFAULT_1
 70
0
 62
7
  6
CENTER
370
-3
390
F
  0
LAYER
  5
1FB
100
AcDbSymbolTableRecord
100
AcDbLayerTableRecord
  2
DEFAULT_2
 70
0
 62
8
  6
HIDDEN
370
-3
390
F
  0
LAYER
  5
1FC
100
AcDbSymbolTableRecord
100
AcDbLayerTableRecord
  2
DEFAULT_3
 70
0
 62
7
  6
PHANTOM
370
-3
390
F
  0
LAYER
  5
1FD
100
AcDbSymbolTableRecord
100
AcDbLayerTableRecord
  2
00_COMPONENTS
 70
0
 62
7
  6
CONTINUOUS
370
-3
390
F
  0
LAYER
  5
1FE
100
AcDbSymbolTableRecord
100
AcDbLayerTableRecord
  2
01_1_DEFAULT_DATUMS
 70
0
 62
7
  6
CONTINUOUS
370
-3
390
F
  0
LAYER
  5
1FF
100
AcDbSymbolTableRecord
100
AcDbLayerTableRecord
  2
01_PLANES
 70
0
 62
7
  6
CONTINUOUS
370
-3
390
F
  0
LAYER
  5
200
100
AcDbSymbolTableRecord
100
AcDbLayerTableRecord
  2
02_COORD_SYS
 70
0
 62
7
  6
CONTINUOUS
370
-3
390
F
  0
LAYER
  5
201
100
AcDbSymbolTableRecord
100
AcDbLayerTableRecord
  2
03_AXES
 70
0
 62
7
  6
CONTINUOUS
370
-3
390
F
  0
LAYER
  5
202
100
AcDbSymbolTableRecord
100
AcDbLayerTableRecord
  2
04_POINTS
 70
0
 62
7
  6
CONTINUOUS
370
-3
390
F
  0
LAYER
  5
203
100
AcDbSymbolTableRecord
100
AcDbLayerTableRecord
  2
05_CURVES
 70
0
 62
7
  6
CONTINUOUS
370
-3
390
F
  0
LAYER
  5
204
100
AcDbSymbolTableRecord
100
AcDbLayerTableRecord
  2
06_SURFS
 70
0
 62
7
  6
CONTINUOUS
370
-3
390
F
  0
LAYER
  5
205
100
AcDbSymbolTableRecord
100
AcDbLayerTableRecord
  2
07_COSMETICS
 70
0
 62
7
  6
CONTINUOUS
370
-3
390
F
  0
LAYER
  5
206
100
AcDbSymbolTableRecord
100
AcDbLayerTableRecord
  2
10_NOTES
 70
0
 62
7
  6
CONTINUOUS
370
-3
390
F
  0
LAYER
  5
207
100
AcDbSymbolTableRecord
100
AcDbLayerTableRecord
  2
11_NOTES_PUB
 70
0
 62
7
  6
CONTINUOUS
370
-3
390
F
  0
LAYER
  5
208
100
AcDbSymbolTableRecord
100
AcDbLayerTableRecord
  2
13_REF_GTOL
 70
0
 62
7
  6
CONTINUOUS
370
-3
390
F
  0
LAYER
  5
209
100
AcDbSymbolTableRecord
100
AcDbLayerTableRecord
  2
16_MISC
 70
0
 62
7
  6
CONTINUOUS
370
-3
390
F
  0
LAYER
  5
20A
100
AcDbSymbolTableRecord
100
AcDbLayerTableRecord
  2
17_NO_PRINT
 70
0
 62
7
  6
CONTINUOUS
370
-3
390
F
  0
LAYER
  5
20B
100
AcDbSymbolTableRecord
100
AcDbLayerTableRecord
  2
18_DATUM_CAMS_JOINTS
 70
0
 62
7
  6
CONTINUOUS
370
-3
390
F
  0
LAYER
  5
20C
100
AcDbSymbolTableRecord
100
AcDbLayerTableRecord
  2
19_DATUM_FUNCTIONAL
 70
0
 62
7
  6
CONTINUOUS
370
-3
390
F
  0
LAYER
  5
20D
100
AcDbSymbolTableRecord
100
AcDbLayerTableRecord
  2
20_DATUM_KINEMATIC_SCHEME
 70
0
 62
7
  6
CONTINUOUS
370
-3
390
F
  0
ENDTAB
  0
TABLE
  2
STYLE
  5
3
100
AcDbSymbolTable
 70
1
  0
STYLE
  5
11
100
AcDbSymbolTableRecord
100
AcDbTextStyleTableRecord
  2
STANDARD
 70
0
 40
0.0
 41
0.8
 50
0.0
 71
0
 42
0.2
  3
txt
  4

  0
STYLE
  5
20E
100
AcDbSymbolTableRecord
100
AcDbTextStyleTableRecord
  2
TEXTSTYLE_1
 70
0
 40
0.0
 41
0.8
 50
0.0
 71
0
 42
0.2
  3
gdt
  4

  0
ENDTAB
  0
TABLE
  2
VIEW
  5
6
100
AcDbSymbolTable
 70
0
  0
ENDTAB
  0
TABLE
  2
UCS
  5
7
100
AcDbSymbolTable
 70
0
  0
ENDTAB
  0
TABLE
  2
APPID
  5
9
100
AcDbSymbolTable
 70
1
  0
APPID
  5
20F
100
AcDbSymbolTableRecord
100
AcDbRegAppTableRecord
  2
ACAD
 70
0
  0
ENDTAB
  0
TABLE
  2
BLOCK_RECORD
  5
1
100
AcDbSymbolTable
 70
0
  0
BLOCK_RECORD
  5
210
100
AcDbSymbolTableRecord
100
AcDbBlockTableRecord
  2
*Model_Space
  0
BLOCK_RECORD
  5
211
100
AcDbSymbolTableRecord
100
AcDbBlockTableRecord
  2
*Paper_Space
  0
BLOCK_RECORD
  5
212
100
AcDbSymbolTableRecord
100
AcDbBlockTableRecord
  2
_FILLED
  0
ENDTAB
  0
TABLE
  2
DIMSTYLE
  5
A
100
AcDbSymbolTable
 70
1
100
AcDbDimStyleTable
 71
0
  0
DIMSTYLE
105
213
100
AcDbSymbolTableRecord
100
AcDbDimStyleTableRecord
  2
STANDARD
 70
0
  3

  4

 40
1.0
 41
2.4385759484
 42
1.0
 43
0.38
 44
1.0
 45
0.0
 46
0.0
 47
0.01
 48
0.01
140
3.4140063278
141
0.09
142
0.0
143
25.4
144
1.0
145
0.0
146
1.0
147
0.625
 71
1
 72
0
 73
0
 74
0
 75
0
 76
0
 77
1
 78
8
 79
2
170
0
171
1
172
0
173
0
174
0
175
0
176
0
177
0
178
0
270
2
179
2
271
2
272
2
273
2
274
2
275
0
280
0
281
0
282
0
283
1
284
8
285
0
286
0
287
3
288
0
340
11
278
46
341
212
342
212
343
212
344
212
  0
ENDTAB
  0
ENDSEC
  0
SECTION
  2
BLOCKS
  0
BLOCK
  5
20
100
AcDbEntity
  8
0
100
AcDbBlockBegin
  2
*Model_Space
 70
0
 10
0.0
 20
0.0
 30
0.0
  3
*Model_Space
  1

  0
ENDBLK
  5
21
100
AcDbEntity
  8
0
100
AcDbBlockEnd
  0
BLOCK
  5
1C
100
AcDbEntity
  8
0
100
AcDbBlockBegin
  2
*Paper_Space
 70
0
 10
0.0
 20
0.0
 30
0.0
  3
*Paper_Space
  1

  0
ENDBLK
  5
1D
100
AcDbEntity
  8
0
100
AcDbBlockEnd
  0
BLOCK
  5
214
100
AcDbEntity
  8
0
100
AcDbBlockBegin
  2
_FILLED
 70
64
 10
0.0
 20
0.0
  3
_FILLED
  1

  0
SOLID
  5
215
100
AcDbEntity
  8
0
  6
BYBLOCK
 62
0
100
AcDbTrace
 10
0.0
 20
0.0
 11
-1.0
 21
0.25
 12
-1.0
 22
-0.25
 13
-1.0
 23
-0.25
  0
ENDBLK
  5
216
100
AcDbEntity
  8
0
  6
BYBLOCK
 62
0
100
AcDbBlockEnd
  0
ENDSEC
  0
SECTION
  2
ENTITIES
  0
LINE
  5
217
100
AcDbEntity
  8
0
100
AcDbLine
 62
7
  6
CONTINUOUS
 10
23.7638407861
 20
154.3640616435
 11
23.7638407861
 21
150.2815495579
  0
LINE
  5
218
100
AcDbEntity
  8
0
100
AcDbLine
 62
7
  6
CONTINUOUS
 10
24.4709505112
 20
153.9558205353
 11
24.4709505112
 21
149.8733088034
  0
LINE
  5
219
100
AcDbEntity
  8
0
100
AcDbLine
 62
7
  6
CONTINUOUS
 10
24.5912996998
 20
144.7988103499
 11
24.5913677073
 21
149.4655749768
  0
LINE
  5
21A
100
AcDbEntity
  8
0
100
AcDbLine
 62
7
  6
CONTINUOUS
 10
24.5914577537
 20
155.6446787219
 11
24.5914679805
 21
156.3464540354
  0
LINE
  5
21B
100
AcDbEntity
  8
0
100
AcDbLine
 62
7
  6
CONTINUOUS
 10
25.2799683458
 20
149.5324154112
 11
25.2800513635
 21
155.2292012384
  0
LINE
  5
21C
100
AcDbEntity
  8
0
100
AcDbLine
 62
7
  6
CONTINUOUS
 10
27.6085973037
 20
156.1043995925
 11
27.6085973037
 21
137.8756162342
  0
LINE
  5
21D
100
AcDbEntity
  8
0
100
AcDbLine
 62
7
  6
CONTINUOUS
 10
31.0824332125
 20
154.0988266924
 11
31.0824332125
 21
135.727522307
  0
LINE
  5
21E
100
AcDbEntity
  8
0
100
AcDbLine
 62
7
  6
CONTINUOUS
 10
34.1017917389
 20
151.6534465919
 11
34.1017917389
 21
134.6865263639
  0
LINE
  5
21F
100
AcDbEntity
  8
0
100
AcDbLine
 62
7
  6
CONTINUOUS
 10
36.1876900923
 20
146.0818431347
 11
36.1876900923
 21
129.7517947922
  0
LINE
  5
220
100
AcDbEntity
  8
0
100
AcDbLine
 62
7
  6
CONTINUOUS
 10
37.185401528
 20
145.9594086552
 11
37.185401528
 21
129.6293603126
  0
LINE
  5
221
100
AcDbEntity
  8
0
100
AcDbLine
 62
7
  6
CONTINUOUS
 10
37.4558261926
 20
129.802758943
 11
37.4558261926
 21
146.1328072856
  0
LINE
  5
222
100
AcDbEntity
  8
0
100
AcDbLine
 62
7
  6
CONTINUOUS
 10
38.5033834984
 20
129.6742076116
 11
38.5033834984
 21
146.0042559541
  0
LINE
  5
223
100
AcDbEntity
  8
0
100
AcDbLine
 62
7
  6
CONTINUOUS
 10
38.7575629782
 20
129.4482368081
 11
38.7575629782
 21
145.7782851507
  0
LINE
  5
224
100
AcDbEntity
  8
0
100
AcDbLine
 62
7
  6
CONTINUOUS
 10
37.5137078049
 20
149.6836204961
 11
36.1876900923
 21
146.0818431347
  0
LINE
  5
225
100
AcDbEntity
  8
0
100
AcDbLine
 62
7
  6
CONTINUOUS
 10
42.1233709024
 20
162.3984269948
 11
42.1233709024
 21
162.9263978434
  0
LINE
  5
226
100
AcDbEntity
  8
0
100
AcDbLine
 62
7
  6
CONTINUOUS
 10
43.633526323
 20
160.9369196691
 11
43.633526323
 21
161.3451604236
  0
LINE
  5
227
100
AcDbEntity
  8
0
100
AcDbLine
 62
7
  6
CONTINUOUS
 10
44.0544275172
 20
144.3148574404
 11
44.0544275172
 21
141.6897251408
  0
LINE
  5
228
100
AcDbEntity
  8
0
100
AcDbLine
 62
7
  6
CONTINUOUS
 10
44.0544275172
 20
140.4018081206
 11
44.0544275172
 21
137.6072130551
  0
LINE
  5
229
100
AcDbEntity
  8
0
100
AcDbLine
 62
7
  6
CONTINUOUS
 10
44.0544275172
 20
136.3192960349
 11
44.0544275172
 21
133.5247009695
  0
LINE
  5
22A
100
AcDbEntity
  8
0
100
AcDbLine
 62
7
  6
CONTINUOUS
 10
44.0544275172
 20
129.6116516497
 11
44.0544275172
 21
132.2367839493
  0
LINE
  5
22B
100
AcDbEntity
  8
0
100
AcDbLine
 62
7
  6
CONTINUOUS
 10
44.3916712559
 20
145.0868934381
 11
44.3916843128
 21
144.2734699706
  0
LINE
  5
22C
100
AcDbEntity
  8
0
100
AcDbLine
 62
7
  6
CONTINUOUS
 10
44.3916900397
 20
141.6483350116
 11
44.3916900397
 21
140.3604204949
  0
LINE
  5
22D
100
AcDbEntity
  8
0
100
AcDbLine
 62
7
  6
CONTINUOUS
 10
44.3916900397
 20
137.565822926
 11
44.3916900397
 21
136.2779084092
  0
LINE
  5
22E
100
AcDbEntity
  8
0
100
AcDbLine
 62
7
  6
CONTINUOUS
 10
44.391689691
 20
133.483310926
 11
44.391689691
 21
132.1953963716
  0
LINE
  5
22F
100
AcDbEntity
  8
0
100
AcDbLine
 62
7
  6
CONTINUOUS
 10
44.3916844071
 20
129.5702635396
 11
44.3916712833
 21
128.7568450903
  0
LINE
  5
230
100
AcDbEntity
  8
0
100
AcDbLine
 62
7
  6
CONTINUOUS
 10
45.3305837754
 20
161.2018204649
 11
45.3305837754
 21
161.0185698596
  0
LINE
  5
231
100
AcDbEntity
  8
0
100
AcDbLine
 62
7
  6
CONTINUOUS
 10
45.5780624642
 20
162.332051993
 11
45.5780624642
 21
162.434070771
  0
LINE
  5
232
100
AcDbEntity
  8
0
100
AcDbLine
 62
7
  6
CONTINUOUS
 10
45.7107396588
 20
130.169808393
 11
45.7107396588
 21
132.0138094083
  0
LINE
  5
233
100
AcDbEntity
  8
0
100
AcDbLine
 62
7
  6
CONTINUOUS
 10
45.7107396588
 20
134.398056834
 11
45.7107396588
 21
136.096321494
  0
LINE
  5
234
100
AcDbEntity
  8
0
100
AcDbLine
 62
7
  6
CONTINUOUS
 10
45.7107396588
 20
138.4805689196
 11
45.7107396588
 21
140.1788335796
  0
LINE
  5
235
100
AcDbEntity
  8
0
100
AcDbLine
 62
7
  6
CONTINUOUS
 10
45.7107396588
 20
142.5630810053
 11
45.7107396588
 21
144.0444402471
  0
LINE
  5
236
100
AcDbEntity
  8
0
100
AcDbLine
 62
7
  6
CONTINUOUS
 10
46.8508401344
 20
164.3809532222
 11
46.8508402037
 21
163.8207234677
  0
LINE
  5
237
100
AcDbEntity
  8
0
100
AcDbLine
 62
7
  6
CONTINUOUS
 10
47.4872242776
 20
165.4888183408
 11
47.4872242776
 21
166.0169011196
  0
LINE
  5
238
100
AcDbEntity
  8
0
100
AcDbLine
 62
7
  6
CONTINUOUS
 10
41.4831065523
 20
162.9132145907
 11
41.3450383896
 21
162.7260006707
  0
LINE
  5
239
100
AcDbEntity
  8
0
100
AcDbLine
 62
7
  6
CONTINUOUS
 10
46.8414470425
 20
166.0068350971
 11
46.7032918826
 21
165.8195702101
  0
LINE
  5
23A
100
AcDbEntity
  8
0
100
AcDbLine
 62
7
  6
CONTINUOUS
 10
48.2137543834
 20
129.8626501499
 11
48.7607677762
 21
128.6545202366
  0
LINE
  5
23B
100
AcDbEntity
  8
0
100
AcDbLine
 62
7
  6
CONTINUOUS
 10
48.2137543834
 20
134.0908985775
 11
48.7607677762
 21
132.4104313852
  0
LINE
  5
23C
100
AcDbEntity
  8
0
100
AcDbLine
 62
7
  6
CONTINUOUS
 10
47.8407947432
 20
163.7404520634
 11
47.8407947432
 21
163.6384332854
  0
LINE
  5
23D
100
AcDbEntity
  8
0
100
AcDbLine
 62
7
  6
CONTINUOUS
 10
48.2137543834
 20
143.5060854782
 11
48.2137543834
 21
142.2559227488
  0
LINE
  5
23E
100
AcDbEntity
  8
0
100
AcDbLine
 62
7
  6
CONTINUOUS
 10
48.2137543834
 20
139.8342561535
 11
48.2137543834
 21
138.1734106632
  0
LINE
  5
23F
100
AcDbEntity
  8
0
100
AcDbLine
 62
7
  6
CONTINUOUS
 10
48.2137543834
 20
135.7517440679
 11
48.2137543834
 21
134.0908985775
  0
LINE
  5
240
100
AcDbEntity
  8
0
100
AcDbLine
 62
7
  6
CONTINUOUS
 10
48.2137543834
 20
129.8626501366
 11
48.2137543834
 21
131.6692319822
  0
LINE
  5
241
100
AcDbEntity
  8
0
100
AcDbLine
 62
7
  6
CONTINUOUS
 10
48.7606631862
 20
127.9196809258
 11
48.7607677762
 21
143.1902742932
  0
LINE
  5
242
100
AcDbEntity
  8
0
100
AcDbLine
 62
7
  6
CONTINUOUS
 10
49.107937198
 20
127.8770650838
 11
49.107937198
 21
142.9898404684
  0
LINE
  5
243
100
AcDbEntity
  8
0
100
AcDbLine
 62
7
  6
CONTINUOUS
 10
49.5224429315
 20
128.0032707767
 11
49.5224429315
 21
142.7505308856
  0
LINE
  5
244
100
AcDbEntity
  8
0
100
AcDbLine
 62
7
  6
CONTINUOUS
 10
49.6439089393
 20
164.8152357315
 11
49.6439089393
 21
164.2436840395
  0
LINE
  5
245
100
AcDbEntity
  8
0
100
AcDbLine
 62
7
  6
CONTINUOUS
 10
49.9267587173
 20
163.6721568598
 11
49.9267587173
 21
163.8554074651
  0
LINE
  5
246
100
AcDbEntity
  8
0
100
AcDbLine
 62
7
  6
CONTINUOUS
 10
50.82041464
 20
142.0011635232
 11
50.82041464
 21
127.8439897613
  0
LINE
  5
247
100
AcDbEntity
  8
0
100
AcDbLine
 62
7
  6
CONTINUOUS
 10
51.4612601555
 20
137.2638428371
 11
51.4612601555
 21
120.9337944945
  0
LINE
  5
248
100
AcDbEntity
  8
0
100
AcDbLine
 62
7
  6
CONTINUOUS
 10
52.4589715912
 20
137.1414083576
 11
52.4589715912
 21
120.811360015
  0
LINE
  5
249
100
AcDbEntity
  8
0
100
AcDbLine
 62
7
  6
CONTINUOUS
 10
52.7293962557
 20
120.9847586454
 11
52.7293962557
 21
137.314806988
  0
LINE
  5
24A
100
AcDbEntity
  8
0
100
AcDbLine
 62
7
  6
CONTINUOUS
 10
53.7769535616
 20
120.8562073139
 11
53.7769535616
 21
137.1862556565
  0
LINE
  5
24B
100
AcDbEntity
  8
0
100
AcDbLine
 62
7
  6
CONTINUOUS
 10
54.0311330414
 20
120.6302365105
 11
54.0311330414
 21
136.9602848531
  0
LINE
  5
24C
100
AcDbEntity
  8
0
100
AcDbLine
 62
7
  6
CONTINUOUS
 10
27.2993599727
 20
161.0020207889
 11
88.25171074
 21
196.1926668523
  0
LINE
  5
24D
100
AcDbEntity
  8
0
100
AcDbLine
 62
7
  6
CONTINUOUS
 10
38.7575629782
 20
129.4482368081
 11
38.5033834984
 21
129.6742076116
  0
LINE
  5
24E
100
AcDbEntity
  8
0
100
AcDbLine
 62
7
  6
CONTINUOUS
 10
54.0311330414
 20
120.6302365105
 11
53.7769535616
 21
120.8562073139
  0
LINE
  5
24F
100
AcDbEntity
  8
0
100
AcDbLine
 62
7
  6
CONTINUOUS
 10
48.2137543834
 20
138.1734106632
 11
48.7607677762
 21
136.4929434709
  0
LINE
  5
250
100
AcDbEntity
  8
0
100
AcDbLine
 62
7
  6
CONTINUOUS
 10
48.2137543834
 20
142.2559227488
 11
48.7607677762
 21
140.5754555565
  0
LINE
  5
251
100
AcDbEntity
  8
0
100
AcDbLine
 62
7
  6
CONTINUOUS
 10
50.0670247324
 20
164.4879685984
 11
49.9974608579
 21
165.0193578085
  0
LINE
  5
252
100
AcDbEntity
  8
0
100
AcDbLine
 62
7
  6
CONTINUOUS
 10
59.3279975804
 20
135.4968571428
 11
59.3279975804
 21
132.8717248432
  0
LINE
  5
253
100
AcDbEntity
  8
0
100
AcDbLine
 62
7
  6
CONTINUOUS
 10
59.3279975804
 20
131.5838078229
 11
59.3279975804
 21
128.7892127575
  0
LINE
  5
254
100
AcDbEntity
  8
0
100
AcDbLine
 62
7
  6
CONTINUOUS
 10
59.3279975804
 20
127.5012957373
 11
59.3279975804
 21
124.7067006719
  0
LINE
  5
255
100
AcDbEntity
  8
0
100
AcDbLine
 62
7
  6
CONTINUOUS
 10
59.3279975804
 20
120.793651352
 11
59.3279975804
 21
123.4187836516
  0
LINE
  5
256
100
AcDbEntity
  8
0
100
AcDbLine
 62
7
  6
CONTINUOUS
 10
59.6652413191
 20
136.2688931405
 11
59.665254376
 21
135.4554696729
  0
LINE
  5
257
100
AcDbEntity
  8
0
100
AcDbLine
 62
7
  6
CONTINUOUS
 10
59.6652601029
 20
132.830334714
 11
59.6652601029
 21
131.5424201972
  0
LINE
  5
258
100
AcDbEntity
  8
0
100
AcDbLine
 62
7
  6
CONTINUOUS
 10
59.6652601029
 20
128.7478226283
 11
59.6652601029
 21
127.4599081116
  0
LINE
  5
259
100
AcDbEntity
  8
0
100
AcDbLine
 62
7
  6
CONTINUOUS
 10
59.6652597542
 20
124.6653106283
 11
59.6652597542
 21
123.3773960739
  0
LINE
  5
25A
100
AcDbEntity
  8
0
100
AcDbLine
 62
7
  6
CONTINUOUS
 10
59.6652544703
 20
120.752263242
 11
59.6652413465
 21
119.9388447927
  0
LINE
  5
25B
100
AcDbEntity
  8
0
100
AcDbLine
 62
7
  6
CONTINUOUS
 10
52.7872778681
 20
140.8656201985
 11
51.4612601555
 21
137.2638428371
  0
LINE
  5
25C
100
AcDbEntity
  8
0
100
AcDbLine
 62
7
  6
CONTINUOUS
 10
50.830012125
 20
127.8700587979
 11
50.82041464
 21
127.8439897613
  0
LINE
  5
25D
100
AcDbEntity
  8
0
100
AcDbLine
 62
7
  6
CONTINUOUS
 10
27.6085973037
 20
156.1043995925
 11
97.488451754
 21
196.4493115437
  0
LINE
  5
25E
100
AcDbEntity
  8
0
100
AcDbLine
 62
7
  6
CONTINUOUS
 10
85.7415511812
 20
186.8343816851
 11
83.2401670115
 21
185.3902154819
  0
LINE
  5
25F
100
AcDbEntity
  8
0
100
AcDbLine
 62
7
  6
CONTINUOUS
 10
46.8508401344
 20
164.3809532222
 11
44.3494559647
 21
162.936787019
  0
LINE
  5
260
100
AcDbEntity
  8
0
100
AcDbLine
 62
7
  6
CONTINUOUS
 10
85.7415512505
 20
186.2741519307
 11
83.7338161857
 21
185.1149924698
  0
LINE
  5
261
100
AcDbEntity
  8
0
100
AcDbLine
 62
7
  6
CONTINUOUS
 10
46.8508402037
 20
163.8207234677
 11
44.8431051389
 21
162.6615640068
  0
LINE
  5
262
100
AcDbEntity
  8
0
100
AcDbLine
 62
7
  6
CONTINUOUS
 10
45.3128061121
 20
162.3996927764
 11
47.2014804332
 21
163.4901128952
  0
LINE
  5
263
100
AcDbEntity
  8
0
100
AcDbLine
 62
7
  6
CONTINUOUS
 10
84.2035171589
 20
184.8531212394
 11
86.091362248
 21
185.9430626037
  0
LINE
  5
264
100
AcDbEntity
  8
0
100
AcDbLine
 62
7
  6
CONTINUOUS
 10
31.0824332125
 20
154.0988266924
 11
43.633526323
 21
161.3451604236
  0
LINE
  5
265
100
AcDbEntity
  8
0
100
AcDbLine
 62
7
  6
CONTINUOUS
 10
49.6439089393
 20
164.8152357315
 11
82.5242373698
 21
183.7985888865
  0
LINE
  5
266
100
AcDbEntity
  8
0
100
AcDbLine
 62
7
  6
CONTINUOUS
 10
88.5346199861
 20
187.2686641944
 11
101.0857130966
 21
194.5149979257
  0
LINE
  5
267
100
AcDbEntity
  8
0
100
AcDbLine
 62
7
  6
CONTINUOUS
 10
86.7306765581
 20
186.1934017719
 11
84.4688590827
 21
184.8875486385
  0
LINE
  5
268
100
AcDbEntity
  8
0
100
AcDbLine
 62
7
  6
CONTINUOUS
 10
47.8407947432
 20
163.7404520634
 11
45.5780624642
 21
162.434070771
  0
LINE
  5
269
100
AcDbEntity
  8
0
100
AcDbLine
 62
7
  6
CONTINUOUS
 10
45.5073524882
 20
162.291227813
 11
48.0094424412
 21
163.735801498
  0
LINE
  5
26A
100
AcDbEntity
  8
0
100
AcDbLine
 62
7
  6
CONTINUOUS
 10
84.3980635349
 20
184.7446562759
 11
86.900153488
 21
186.1892299609
  0
LINE
  5
26B
100
AcDbEntity
  8
0
100
AcDbLine
 62
7
  6
CONTINUOUS
 10
88.9577357792
 20
186.9413970613
 11
88.5346199861
 21
186.6971125025
  0
LINE
  5
26C
100
AcDbEntity
  8
0
100
AcDbLine
 62
7
  6
CONTINUOUS
 10
50.0670247324
 20
164.4879685984
 11
49.6439089393
 21
164.2436840395
  0
LINE
  5
26D
100
AcDbEntity
  8
0
100
AcDbLine
 62
7
  6
CONTINUOUS
 10
86.091362248
 20
185.9430626037
 11
86.7306765581
 21
186.1934017719
  0
LINE
  5
26E
100
AcDbEntity
  8
0
100
AcDbLine
 62
7
  6
CONTINUOUS
 10
84.4688590827
 20
184.8875486385
 11
84.2767165882
 21
184.8123105412
  0
LINE
  5
26F
100
AcDbEntity
  8
0
100
AcDbLine
 62
7
  6
CONTINUOUS
 10
97.6909703946
 20
95.5953805254
 11
100.928505603
 21
93.8544982692
  0
LINE
  5
270
100
AcDbEntity
  8
0
100
AcDbLine
 62
7
  6
CONTINUOUS
 10
96.7729019493
 20
93.8826710731
 11
91.8231338733
 21
96.7403563548
  0
LINE
  5
271
100
AcDbEntity
  8
0
100
AcDbLine
 62
7
  6
CONTINUOUS
 10
70.8281516745
 20
111.2294521317
 11
70.9995609551
 21
111.1304911761
  0
LINE
  5
272
100
AcDbEntity
  8
0
100
AcDbLine
 62
7
  6
CONTINUOUS
 10
71.1579040958
 20
111.0390737894
 11
74.110050567
 21
109.3346897879
  0
LINE
  5
273
100
AcDbEntity
  8
0
100
AcDbLine
 62
7
  6
CONTINUOUS
 10
73.4272451396
 20
110.0835776277
 11
71.7824023571
 21
111.0332065675
  0
LINE
  5
274
100
AcDbEntity
  8
0
100
AcDbLine
 62
7
  6
CONTINUOUS
 10
73.8979194158
 20
110.3553199257
 11
72.2572204138
 21
111.3025565068
  0
LINE
  5
275
100
AcDbEntity
  8
0
100
AcDbLine
 62
7
  6
CONTINUOUS
 10
68.382471214
 20
114.192822506
 11
58.0963739866
 21
120.1313691613
  0
LINE
  5
276
100
AcDbEntity
  8
0
100
AcDbLine
 62
7
  6
CONTINUOUS
 10
51.4612601555
 20
123.9620672558
 11
42.8228039235
 21
128.9493694589
  0
LINE
  5
277
100
AcDbEntity
  8
0
100
AcDbLine
 62
7
  6
CONTINUOUS
 10
36.1876900923
 20
132.7800675534
 11
31.0824332125
 21
135.727522307
  0
LINE
  5
278
100
AcDbEntity
  8
0
100
AcDbLine
 62
7
  6
CONTINUOUS
 10
74.0393490152
 20
110.9268964699
 11
97.6909703946
 21
97.2719354162
  0
LINE
  5
279
100
AcDbEntity
  8
0
100
AcDbLine
 62
7
  6
CONTINUOUS
 10
34.1017917389
 20
134.6865263639
 11
36.1876900923
 21
133.4822596322
  0
LINE
  5
27A
100
AcDbEntity
  8
0
100
AcDbLine
 62
7
  6
CONTINUOUS
 10
44.3868850984
 20
128.7485592789
 11
51.4612601555
 21
124.6642593345
  0
LINE
  5
27B
100
AcDbEntity
  8
0
100
AcDbLine
 62
7
  6
CONTINUOUS
 10
59.6604551616
 20
119.9305589812
 11
65.9217293705
 21
116.3156924105
  0
LINE
  5
27C
100
AcDbEntity
  8
0
100
AcDbLine
 62
7
  6
CONTINUOUS
 10
27.6085973037
 20
137.8756162342
 11
31.0824332125
 21
135.727522307
  0
LINE
  5
27D
100
AcDbEntity
  8
0
100
AcDbLine
 62
7
  6
CONTINUOUS
 10
73.4272451396
 20
110.0835776277
 11
74.110050567
 21
109.3346897879
  0
LINE
  5
27E
100
AcDbEntity
  8
0
100
AcDbLine
 62
7
  6
CONTINUOUS
 10
68.548156275
 20
113.5218316412
 11
68.6211724381
 21
113.4192476774
  0
LINE
  5
27F
100
AcDbEntity
  8
0
100
AcDbLine
 62
7
  6
CONTINUOUS
 10
63.4873244466
 20
121.0446498522
 11
64.0343378394
 21
119.836519939
  0
LINE
  5
280
100
AcDbEntity
  8
0
100
AcDbLine
 62
7
  6
CONTINUOUS
 10
63.4873244466
 20
125.2728982799
 11
64.0343378394
 21
123.5924310876
  0
LINE
  5
281
100
AcDbEntity
  8
0
100
AcDbLine
 62
7
  6
CONTINUOUS
 10
60.984309722
 20
121.3518080954
 11
60.984309722
 21
123.1958091107
  0
LINE
  5
282
100
AcDbEntity
  8
0
100
AcDbLine
 62
7
  6
CONTINUOUS
 10
60.984309722
 20
125.5800565363
 11
60.984309722
 21
127.2783211963
  0
LINE
  5
283
100
AcDbEntity
  8
0
100
AcDbLine
 62
7
  6
CONTINUOUS
 10
60.984309722
 20
129.662568622
 11
60.984309722
 21
131.360833282
  0
LINE
  5
284
100
AcDbEntity
  8
0
100
AcDbLine
 62
7
  6
CONTINUOUS
 10
60.984309722
 20
133.7450807076
 11
60.984309722
 21
135.2264399495
  0
LINE
  5
285
100
AcDbEntity
  8
0
100
AcDbLine
 62
7
  6
CONTINUOUS
 10
63.4873244466
 20
134.6880851805
 11
63.4873244466
 21
133.4379224512
  0
LINE
  5
286
100
AcDbEntity
  8
0
100
AcDbLine
 62
7
  6
CONTINUOUS
 10
63.4873244466
 20
131.0162558559
 11
63.4873244466
 21
129.3554103656
  0
LINE
  5
287
100
AcDbEntity
  8
0
100
AcDbLine
 62
7
  6
CONTINUOUS
 10
63.4873244466
 20
126.9337437703
 11
63.4873244466
 21
125.2728982799
  0
LINE
  5
288
100
AcDbEntity
  8
0
100
AcDbLine
 62
7
  6
CONTINUOUS
 10
63.4873244466
 20
121.044649839
 11
63.4873244466
 21
122.8512316846
  0
LINE
  5
289
100
AcDbEntity
  8
0
100
AcDbLine
 62
7
  6
CONTINUOUS
 10
64.0342332494
 20
119.1016806282
 11
64.0343378394
 21
134.3722739955
  0
LINE
  5
28A
100
AcDbEntity
  8
0
100
AcDbLine
 62
7
  6
CONTINUOUS
 10
64.3815072612
 20
119.0590647862
 11
64.3815072612
 21
134.1718401708
  0
LINE
  5
28B
100
AcDbEntity
  8
0
100
AcDbLine
 62
7
  6
CONTINUOUS
 10
64.7960129946
 20
119.185270479
 11
64.7960129946
 21
133.932530588
  0
LINE
  5
28C
100
AcDbEntity
  8
0
100
AcDbLine
 62
7
  6
CONTINUOUS
 10
65.9217293705
 20
133.2826126384
 11
65.9217293705
 21
116.3156924105
  0
LINE
  5
28D
100
AcDbEntity
  8
0
100
AcDbLine
 62
7
  6
CONTINUOUS
 10
80.3738175991
 20
185.3666430537
 11
80.2357494364
 21
185.1794291336
  0
LINE
  5
28E
100
AcDbEntity
  8
0
100
AcDbLine
 62
7
  6
CONTINUOUS
 10
85.7321580893
 20
188.4602635601
 11
85.5940029294
 21
188.272998673
  0
LINE
  5
28F
100
AcDbEntity
  8
0
100
AcDbLine
 62
7
  6
CONTINUOUS
 10
88.8174697641
 20
186.308835928
 11
84.2212948222
 21
183.6552489279
  0
LINE
  5
290
100
AcDbEntity
  8
0
100
AcDbLine
 62
7
  6
CONTINUOUS
 10
49.9267587173
 20
163.8554074651
 11
45.3305837754
 21
161.2018204649
  0
LINE
  5
291
100
AcDbEntity
  8
0
100
AcDbLine
 62
7
  6
CONTINUOUS
 10
44.4113499646
 20
160.4878531394
 11
51.1288364182
 21
164.3661726012
  0
LINE
  5
292
100
AcDbEntity
  8
0
100
AcDbLine
 62
7
  6
CONTINUOUS
 10
83.3020610114
 20
182.9412816024
 11
90.0195474649
 21
186.8196010642
  0
LINE
  5
293
100
AcDbEntity
  8
0
100
AcDbLine
 62
7
  6
CONTINUOUS
 10
47.2014804332
 20
163.4901128952
 11
47.8407947432
 21
163.7404520634
  0
LINE
  5
294
100
AcDbEntity
  8
0
100
AcDbLine
 62
7
  6
CONTINUOUS
 10
45.5780624642
 20
162.434070771
 11
45.3860222908
 21
162.3588727401
  0
LINE
  5
295
100
AcDbEntity
  8
0
100
AcDbLine
 62
7
  6
CONTINUOUS
 10
104.4097117102
 20
95.0259608975
 11
102.9680095897
 21
95.8583091746
  0
LINE
  5
296
100
AcDbEntity
  8
0
100
AcDbLine
 62
7
  6
CONTINUOUS
 10
73.8979194158
 20
113.2130783857
 11
70.3623707901
 21
115.2542821583
  0
LINE
  5
297
100
AcDbEntity
  8
0
100
AcDbLine
 62
7
  6
CONTINUOUS
 10
51.4612601555
 20
127.4729557257
 11
50.8199599494
 21
127.8432021963
  0
LINE
  5
298
100
AcDbEntity
  8
0
100
AcDbLine
 62
7
  6
CONTINUOUS
 10
74.0393490152
 20
115.0094085555
 11
68.382471214
 21
118.2753345917
  0
LINE
  5
299
100
AcDbEntity
  8
0
100
AcDbLine
 62
7
  6
CONTINUOUS
 10
110.5508567648
 20
95.3055500338
 11
107.7223934257
 21
96.9385271612
  0
LINE
  5
29A
100
AcDbEntity
  8
0
100
AcDbLine
 62
7
  6
CONTINUOUS
 10
104.1104944116
 20
99.0771264148
 11
102.0240587146
 21
100.2817044333
  0
LINE
  5
29B
100
AcDbEntity
  8
0
100
AcDbLine
 62
7
  6
CONTINUOUS
 10
102.0240587146
 20
102.3225315077
 11
104.4097117102
 21
100.8971213986
  0
LINE
  5
29C
100
AcDbEntity
  8
0
100
AcDbLine
 62
7
  6
CONTINUOUS
 10
102.5881644303
 20
101.2749469554
 11
102.0240571799
 21
101.6173078376
  0
LINE
  5
29D
100
AcDbEntity
  8
0
100
AcDbLine
 62
7
  6
CONTINUOUS
 10
27.6085973037
 20
142.9631288927
 11
24.5912996998
 21
144.7988103498
  0
LINE
  5
29E
100
AcDbEntity
  8
0
100
AcDbLine
 62
7
  6
CONTINUOUS
 10
25.3493678554
 20
143.0666265354
 11
27.6085973037
 21
141.6638426769
  0
LINE
  5
29F
100
AcDbEntity
  8
0
100
AcDbLine
 62
7
  6
CONTINUOUS
 10
38.5033834984
 20
146.0042559541
 11
38.7575629782
 21
145.7782851507
  0
LINE
  5
2A0
100
AcDbEntity
  8
0
100
AcDbLine
 62
7
  6
CONTINUOUS
 10
53.7769535616
 20
137.1862556565
 11
54.0311330414
 21
136.9602848531
  0
LINE
  5
2A1
100
AcDbEntity
  8
0
100
AcDbLine
 62
7
  6
CONTINUOUS
 10
41.3450383896
 20
162.7260006707
 11
41.4768416613
 21
162.5468258116
  0
LINE
  5
2A2
100
AcDbEntity
  8
0
100
AcDbLine
 62
7
  6
CONTINUOUS
 10
63.4873244466
 20
129.3554103656
 11
64.0343378394
 21
127.6749431732
  0
LINE
  5
2A3
100
AcDbEntity
  8
0
100
AcDbLine
 62
7
  6
CONTINUOUS
 10
63.4873244466
 20
133.4379224512
 11
64.0343378394
 21
131.7574552589
  0
LINE
  5
2A4
100
AcDbEntity
  8
0
100
AcDbLine
 62
7
  6
CONTINUOUS
 10
68.154439766
 20
113.9572908028
 11
68.154439766
 21
113.0219866894
  0
LINE
  5
2A5
100
AcDbEntity
  8
0
100
AcDbLine
 62
7
  6
CONTINUOUS
 10
68.2932574004
 20
113.5558994072
 11
68.2932574004
 21
112.626153884
  0
LINE
  5
2A6
100
AcDbEntity
  8
0
100
AcDbLine
 62
7
  6
CONTINUOUS
 10
68.382471214
 20
118.2753345917
 11
68.382471214
 21
114.192822506
  0
LINE
  5
2A7
100
AcDbEntity
  8
0
100
AcDbLine
 62
7
  6
CONTINUOUS
 10
68.4641859059
 20
113.2832653371
 11
68.4641859059
 21
112.3565297133
  0
LINE
  5
2A8
100
AcDbEntity
  8
0
100
AcDbLine
 62
7
  6
CONTINUOUS
 10
69.1305629097
 20
112.6774570398
 11
69.1305629097
 21
111.7545468723
  0
LINE
  5
2A9
100
AcDbEntity
  8
0
100
AcDbLine
 62
7
  6
CONTINUOUS
 10
69.4839450959
 20
112.473436355
 11
69.4839450959
 21
111.5505261875
  0
LINE
  5
2AA
100
AcDbEntity
  8
0
100
AcDbLine
 62
7
  6
CONTINUOUS
 10
70.3623707901
 20
115.2542821583
 11
70.3623707901
 21
117.1322648981
  0
LINE
  5
2AB
100
AcDbEntity
  8
0
100
AcDbLine
 62
7
  6
CONTINUOUS
 10
70.5299434063
 20
112.0906266693
 11
70.5299434063
 21
111.1638910454
  0
LINE
  5
2AC
100
AcDbEntity
  8
0
100
AcDbLine
 62
7
  6
CONTINUOUS
 10
70.9995609551
 20
111.9934496687
 11
70.9995609551
 21
111.0637041456
  0
LINE
  5
2AD
100
AcDbEntity
  8
0
100
AcDbLine
 62
7
  6
CONTINUOUS
 10
71.6899883918
 20
110.9807829168
 11
71.6899883918
 21
111.9160870302
  0
LINE
  5
2AE
100
AcDbEntity
  8
0
100
AcDbLine
 62
7
  6
CONTINUOUS
 10
37.185401528
 20
145.9594086552
 11
37.4558261926
 21
146.1328072856
  0
LINE
  5
2AF
100
AcDbEntity
  8
0
100
AcDbLine
 62
7
  6
CONTINUOUS
 10
112.6207235415
 20
189.5290219632
 11
112.9210608211
 21
189.6851509279
  0
LINE
  5
2B0
100
AcDbEntity
  8
0
100
AcDbLine
 62
7
  6
CONTINUOUS
 10
64.0342444439
 20
119.1016792544
 11
59.6652391979
 21
119.9388453626
  0
LINE
  5
2B1
100
AcDbEntity
  8
0
100
AcDbLine
 62
7
  6
CONTINUOUS
 10
64.0342332494
 20
119.8365328282
 11
59.6652544703
 21
120.752263242
  0
LINE
  5
2B2
100
AcDbEntity
  8
0
100
AcDbLine
 62
7
  6
CONTINUOUS
 10
109.5632131126
 20
100.2480196652
 11
110.4835899033
 21
99.7166518984
  0
LINE
  5
2B3
100
AcDbEntity
  8
0
100
AcDbLine
 62
7
  6
CONTINUOUS
 10
23.9709531068
 20
149.8237634101
 11
24.678062832
 21
149.4155226556
  0
LINE
  5
2B4
100
AcDbEntity
  8
0
100
AcDbLine
 62
7
  6
CONTINUOUS
 10
100.928505603
 20
105.6500150555
 11
97.6909703946
 21
107.519166236
  0
LINE
  5
2B5
100
AcDbEntity
  8
0
100
AcDbLine
 62
7
  6
CONTINUOUS
 10
24.4709505112
 20
149.8733088034
 11
23.7638407861
 21
150.2815495579
  0
LINE
  5
2B6
100
AcDbEntity
  8
0
100
AcDbLine
 62
7
  6
CONTINUOUS
 10
111.6221826257
 20
100.3740147893
 11
110.7018058349
 21
100.905382556
  0
LINE
  5
2B7
100
AcDbEntity
  8
0
100
AcDbLine
 62
7
  6
CONTINUOUS
 10
23.7638407861
 20
154.3640616435
 11
24.4709505112
 21
153.955820889
  0
LINE
  5
2B8
100
AcDbEntity
  8
0
100
AcDbLine
 62
7
  6
CONTINUOUS
 10
118.4103794629
 20
99.8432204931
 11
115.5819161239
 21
101.4761976204
  0
LINE
  5
2B9
100
AcDbEntity
  8
0
100
AcDbLine
 62
7
  6
CONTINUOUS
 10
103.56118004
 20
107.5736312248
 11
104.4097117102
 21
107.075191709
  0
LINE
  5
2BA
100
AcDbEntity
  8
0
100
AcDbLine
 62
7
  6
CONTINUOUS
 10
101.9348276722
 20
109.9693437521
 11
103.56118004
 21
108.9976101804
  0
LINE
  5
2BB
100
AcDbEntity
  8
0
100
AcDbLine
 62
7
  6
CONTINUOUS
 10
24.5914577537
 20
155.6446787219
 11
25.2800513635
 21
155.2292012384
  0
LINE
  5
2BC
100
AcDbEntity
  8
0
100
AcDbLine
 62
7
  6
CONTINUOUS
 10
101.4259439581
 20
107.7648384124
 11
102.9680095897
 21
106.8275162025
  0
LINE
  5
2BD
100
AcDbEntity
  8
0
100
AcDbLine
 62
7
  6
CONTINUOUS
 10
27.6085973037
 20
154.5113907092
 11
24.5914679805
 21
156.3464540354
  0
LINE
  5
2BE
100
AcDbEntity
  8
0
100
AcDbLine
 62
7
  6
CONTINUOUS
 10
46.7032918826
 20
165.8195702101
 11
46.8295883469
 21
165.6435175328
  0
LINE
  5
2BF
100
AcDbEntity
  8
0
100
AcDbLine
 62
7
  6
CONTINUOUS
 10
73.8979194158
 20
115.0910611255
 11
73.8979194158
 21
113.2130783857
  0
LINE
  5
2C0
100
AcDbEntity
  8
0
100
AcDbLine
 62
7
  6
CONTINUOUS
 10
73.8979194158
 20
110.3553199257
 11
73.8979194158
 21
112.2332754851
  0
LINE
  5
2C1
100
AcDbEntity
  8
0
100
AcDbLine
 62
7
  6
CONTINUOUS
 10
74.0393490152
 20
110.9268964699
 11
74.0393490152
 21
115.0094085555
  0
LINE
  5
2C2
100
AcDbEntity
  8
0
100
AcDbLine
 62
7
  6
CONTINUOUS
 10
74.6757336367
 20
109.661285111
 11
74.6757336367
 21
110.5594879492
  0
LINE
  5
2C3
100
AcDbEntity
  8
0
100
AcDbLine
 62
7
  6
CONTINUOUS
 10
44.0544275172
 20
141.6897251408
 11
45.7107396588
 21
142.5630810053
  0
LINE
  5
2C4
100
AcDbEntity
  8
0
100
AcDbLine
 62
7
  6
CONTINUOUS
 10
64.3815072612
 20
119.0590647862
 11
64.0342444439
 21
119.1016792544
  0
LINE
  5
2C5
100
AcDbEntity
  8
0
100
AcDbLine
 62
7
  6
CONTINUOUS
 10
65.9217293705
 20
119.0471278322
 11
64.7960129946
 21
119.185270479
  0
LINE
  5
2C6
100
AcDbEntity
  8
0
100
AcDbLine
 62
7
  6
CONTINUOUS
 10
52.4589715912
 20
120.811360015
 11
51.4612601555
 21
120.9337944945
  0
LINE
  5
2C7
100
AcDbEntity
  8
0
100
AcDbLine
 62
7
  6
CONTINUOUS
 10
59.6652391979
 20
119.9388453626
 11
54.0311330414
 21
120.6302365105
  0
LINE
  5
2C8
100
AcDbEntity
  8
0
100
AcDbLine
 62
7
  6
CONTINUOUS
 10
53.7769535616
 20
120.8562073139
 11
52.7293962557
 21
120.9847586454
  0
LINE
  5
2C9
100
AcDbEntity
  8
0
100
AcDbLine
 62
7
  6
CONTINUOUS
 10
59.3279975804
 20
120.793651352
 11
59.6652371328
 21
120.752266892
  0
LINE
  5
2CA
100
AcDbEntity
  8
0
100
AcDbLine
 62
7
  6
CONTINUOUS
 10
63.4873246415
 20
121.044649815
 11
60.984309722
 21
121.3518080954
  0
LINE
  5
2CB
100
AcDbEntity
  8
0
100
AcDbLine
 62
7
  6
CONTINUOUS
 10
59.6652369012
 20
123.37739922
 11
59.3279975804
 21
123.4187836516
  0
LINE
  5
2CC
100
AcDbEntity
  8
0
100
AcDbLine
 62
7
  6
CONTINUOUS
 10
59.3279975804
 20
124.7067006719
 11
59.6652369012
 21
124.6653162402
  0
LINE
  5
2CD
100
AcDbEntity
  8
0
100
AcDbLine
 62
7
  6
CONTINUOUS
 10
63.4873244466
 20
125.2728982799
 11
60.984309722
 21
125.5800565363
  0
LINE
  5
2CE
100
AcDbEntity
  8
0
100
AcDbLine
 62
7
  6
CONTINUOUS
 10
59.6652597542
 20
123.3773960739
 11
64.0342332494
 21
122.7759415052
  0
LINE
  5
2CF
100
AcDbEntity
  8
0
100
AcDbLine
 62
7
  6
CONTINUOUS
 10
48.7606743808
 20
127.9196795521
 11
44.3916691347
 21
128.7568456602
  0
LINE
  5
2D0
100
AcDbEntity
  8
0
100
AcDbLine
 62
7
  6
CONTINUOUS
 10
48.7606631862
 20
128.6545331258
 11
44.3916844071
 21
129.5702635396
  0
LINE
  5
2D1
100
AcDbEntity
  8
0
100
AcDbLine
 62
7
  6
CONTINUOUS
 10
64.0342332494
 20
123.5924439224
 11
59.6652597542
 21
124.6653106283
  0
LINE
  5
2D2
100
AcDbEntity
  8
0
100
AcDbLine
 62
7
  6
CONTINUOUS
 10
64.0342332494
 20
127.674956008
 11
59.6652601029
 21
128.7478226283
  0
LINE
  5
2D3
100
AcDbEntity
  8
0
100
AcDbLine
 62
7
  6
CONTINUOUS
 10
48.7606631862
 20
132.41044422
 11
44.391689691
 21
133.483310926
  0
LINE
  5
2D4
100
AcDbEntity
  8
0
100
AcDbLine
 62
7
  6
CONTINUOUS
 10
101.9348276722
 20
111.5600982552
 11
104.4097117102
 21
110.1312556144
  0
LINE
  5
2D5
100
AcDbEntity
  8
0
100
AcDbLine
 62
7
  6
CONTINUOUS
 10
34.1017917389
 20
151.6534465919
 11
65.9217293705
 21
133.2826126384
  0
LINE
  5
2D6
100
AcDbEntity
  8
0
100
AcDbLine
 62
7
  6
CONTINUOUS
 10
27.6085973037
 20
156.1043995925
 11
101.9101423799
 21
113.2073548272
  0
LINE
  5
2D7
100
AcDbEntity
  8
0
100
AcDbLine
 62
7
  6
CONTINUOUS
 10
117.4900026722
 20
104.8245264332
 11
118.4103794629
 21
104.2931586664
  0
LINE
  5
2D8
100
AcDbEntity
  8
0
100
AcDbLine
 62
7
  6
CONTINUOUS
 10
110.4829727761
 20
109.1468985199
 11
109.0687533258
 21
109.9633800289
  0
LINE
  5
2D9
100
AcDbEntity
  8
0
100
AcDbLine
 62
7
  6
CONTINUOUS
 10
119.5489721853
 20
104.9505215573
 11
118.6285953946
 21
105.481889324
  0
LINE
  5
2DA
100
AcDbEntity
  8
0
100
AcDbLine
 62
7
  6
CONTINUOUS
 10
109.1119522277
 20
112.8460792376
 11
106.6370681897
 21
114.2749218784
  0
LINE
  5
2DB
100
AcDbEntity
  8
0
100
AcDbLine
 62
7
  6
CONTINUOUS
 10
81.0140819492
 20
184.8518554577
 11
81.0140819492
 21
185.3798263064
  0
LINE
  5
2DC
100
AcDbEntity
  8
0
100
AcDbLine
 62
7
  6
CONTINUOUS
 10
82.5242373698
 20
183.390348132
 11
82.5242373698
 21
183.7985888865
  0
LINE
  5
2DD
100
AcDbEntity
  8
0
100
AcDbLine
 62
7
  6
CONTINUOUS
 10
84.2212948222
 20
183.4719983225
 11
84.2212948222
 21
183.6552489279
  0
LINE
  5
2DE
100
AcDbEntity
  8
0
100
AcDbLine
 62
7
  6
CONTINUOUS
 10
84.4688590827
 20
184.7855298605
 11
84.4688590827
 21
184.8875486385
  0
LINE
  5
2DF
100
AcDbEntity
  8
0
100
AcDbLine
 62
7
  6
CONTINUOUS
 10
85.7415511812
 20
186.8343816851
 11
85.7415512505
 21
186.2741519307
  0
LINE
  5
2E0
100
AcDbEntity
  8
0
100
AcDbLine
 62
7
  6
CONTINUOUS
 10
71.0120537682
 20
112.0390087681
 11
70.9995609551
 21
111.9934496687
  0
LINE
  5
2E1
100
AcDbEntity
  8
0
100
AcDbLine
 62
7
  6
CONTINUOUS
 10
37.4558261926
 20
129.802758943
 11
37.185401528
 21
129.6293603126
  0
LINE
  5
2E2
100
AcDbEntity
  8
0
100
AcDbLine
 62
7
  6
CONTINUOUS
 10
52.4589715912
 20
137.1414083576
 11
52.7293962557
 21
137.314806988
  0
LINE
  5
2E3
100
AcDbEntity
  8
0
100
AcDbLine
 62
7
  6
CONTINUOUS
 10
44.0544275172
 20
137.6072130551
 11
45.7107396588
 21
138.4805689196
  0
LINE
  5
2E4
100
AcDbEntity
  8
0
100
AcDbLine
 62
7
  6
CONTINUOUS
 10
127.8942936046
 20
180.7110216655
 11
128.1946308843
 21
180.8671506302
  0
LINE
  5
2E5
100
AcDbEntity
  8
0
100
AcDbLine
 62
7
  6
CONTINUOUS
 10
49.107937198
 20
127.8770650838
 11
48.7606743808
 21
127.9196795521
  0
LINE
  5
2E6
100
AcDbEntity
  8
0
100
AcDbLine
 62
7
  6
CONTINUOUS
 10
50.82041464
 20
127.8439897613
 11
49.5224429315
 21
128.0032707767
  0
LINE
  5
2E7
100
AcDbEntity
  8
0
100
AcDbLine
 62
7
  6
CONTINUOUS
 10
37.185401528
 20
129.6293603126
 11
36.1876900923
 21
129.7517947922
  0
LINE
  5
2E8
100
AcDbEntity
  8
0
100
AcDbLine
 62
7
  6
CONTINUOUS
 10
44.3916691347
 20
128.7568456602
 11
38.7575629782
 21
129.4482368081
  0
LINE
  5
2E9
100
AcDbEntity
  8
0
100
AcDbLine
 62
7
  6
CONTINUOUS
 10
38.5033834984
 20
129.6742076116
 11
37.4558261926
 21
129.802758943
  0
LINE
  5
2EA
100
AcDbEntity
  8
0
100
AcDbLine
 62
7
  6
CONTINUOUS
 10
59.6652369012
 20
127.4599113056
 11
59.3279975804
 21
127.5012957373
  0
LINE
  5
2EB
100
AcDbEntity
  8
0
100
AcDbLine
 62
7
  6
CONTINUOUS
 10
44.0544275172
 20
129.6116516497
 11
44.3916670696
 21
129.5702671896
  0
LINE
  5
2EC
100
AcDbEntity
  8
0
100
AcDbLine
 62
7
  6
CONTINUOUS
 10
48.2137545783
 20
129.8626501127
 11
45.7107396588
 21
130.169808393
  0
LINE
  5
2ED
100
AcDbEntity
  8
0
100
AcDbLine
 62
7
  6
CONTINUOUS
 10
59.3279975804
 20
128.7892127575
 11
59.6652369012
 21
128.7478283259
  0
LINE
  5
2EE
100
AcDbEntity
  8
0
100
AcDbLine
 62
7
  6
CONTINUOUS
 10
63.4873244466
 20
129.3554103656
 11
60.984309722
 21
129.662568622
  0
LINE
  5
2EF
100
AcDbEntity
  8
0
100
AcDbLine
 62
7
  6
CONTINUOUS
 10
44.3916668381
 20
132.1953995176
 11
44.0544275172
 21
132.2367839493
  0
LINE
  5
2F0
100
AcDbEntity
  8
0
100
AcDbLine
 62
7
  6
CONTINUOUS
 10
59.6652369012
 20
131.5424233913
 11
59.3279975804
 21
131.5838078229
  0
LINE
  5
2F1
100
AcDbEntity
  8
0
100
AcDbLine
 62
7
  6
CONTINUOUS
 10
44.0544275172
 20
133.5247009695
 11
44.3916668381
 21
133.4833165378
  0
LINE
  5
2F2
100
AcDbEntity
  8
0
100
AcDbLine
 62
7
  6
CONTINUOUS
 10
59.6652601029
 20
127.4599081116
 11
64.0342332494
 21
126.8584535909
  0
LINE
  5
2F3
100
AcDbEntity
  8
0
100
AcDbLine
 62
7
  6
CONTINUOUS
 10
44.391689691
 20
132.1953963716
 11
48.7606631862
 21
131.5939418029
  0
LINE
  5
2F4
100
AcDbEntity
  8
0
100
AcDbLine
 62
7
  6
CONTINUOUS
 10
59.6652601029
 20
131.5424201972
 11
64.0342332494
 21
130.9409656765
  0
LINE
  5
2F5
100
AcDbEntity
  8
0
100
AcDbLine
 62
7
  6
CONTINUOUS
 10
64.0342332494
 20
131.7574680937
 11
59.6652601029
 21
132.830334714
  0
LINE
  5
2F6
100
AcDbEntity
  8
0
100
AcDbLine
 62
7
  6
CONTINUOUS
 10
48.7606631862
 20
136.4929563057
 11
44.3916900397
 21
137.565822926
  0
LINE
  5
2F7
100
AcDbEntity
  8
0
100
AcDbLine
 62
7
  6
CONTINUOUS
 10
31.8137196471
 20
158.5322136174
 11
27.2993599727
 21
161.0020207889
  0
LINE
  5
2F8
100
AcDbEntity
  8
0
100
AcDbLine
 62
7
  6
CONTINUOUS
 10
110.5508567648
 20
113.6768544193
 11
106.6370679841
 21
115.9364303069
  0
LINE
  5
2F9
100
AcDbEntity
  8
0
100
AcDbLine
 62
7
  6
CONTINUOUS
 10
106.8138364947
 20
117.0714181321
 11
111.6221826257
 21
114.2953810013
  0
LINE
  5
2FA
100
AcDbEntity
  8
0
100
AcDbLine
 62
7
  6
CONTINUOUS
 10
118.4103794629
 20
113.7237615843
 11
116.9961600126
 21
114.5402430933
  0
LINE
  5
2FB
100
AcDbEntity
  8
0
100
AcDbLine
 62
7
  6
CONTINUOUS
 10
91.7633710743
 20
100.6941590584
 11
91.8231338733
 21
96.7403563548
  0
LINE
  5
2FC
100
AcDbEntity
  8
0
100
AcDbLine
 62
7
  6
CONTINUOUS
 10
86.3779353244
 20
187.9422468037
 11
86.3779353244
 21
188.4703295825
  0
LINE
  5
2FD
100
AcDbEntity
  8
0
100
AcDbLine
 62
7
  6
CONTINUOUS
 10
86.7306765581
 20
186.1934017719
 11
86.7306765581
 21
186.0913829939
  0
LINE
  5
2FE
100
AcDbEntity
  8
0
100
AcDbLine
 62
7
  6
CONTINUOUS
 10
88.5346199861
 20
187.2686641944
 11
88.5346199861
 21
186.6971125025
  0
LINE
  5
2FF
100
AcDbEntity
  8
0
100
AcDbLine
 62
7
  6
CONTINUOUS
 10
88.8174697641
 20
186.1255853227
 11
88.8174697641
 21
186.308835928
  0
LINE
  5
300
100
AcDbEntity
  8
0
100
AcDbLine
 62
7
  6
CONTINUOUS
 10
44.0544275172
 20
133.5247009695
 11
45.7107396588
 21
134.398056834
  0
LINE
  5
301
100
AcDbEntity
  8
0
100
AcDbLine
 62
7
  6
CONTINUOUS
 10
157.4425053892
 20
127.8909769435
 11
156.1258233906
 21
127.940157574
  0
LINE
  5
302
100
AcDbEntity
  8
0
100
AcDbLine
 62
7
  6
CONTINUOUS
 10
48.2137543834
 20
134.0908985775
 11
45.7107396588
 21
134.398056834
  0
LINE
  5
303
100
AcDbEntity
  8
0
100
AcDbLine
 62
7
  6
CONTINUOUS
 10
59.3279975804
 20
132.8717248432
 11
59.6652369012
 21
132.8303404115
  0
LINE
  5
304
100
AcDbEntity
  8
0
100
AcDbLine
 62
7
  6
CONTINUOUS
 10
63.4873244466
 20
133.4379224512
 11
60.984309722
 21
133.7450807076
  0
LINE
  5
305
100
AcDbEntity
  8
0
100
AcDbLine
 62
7
  6
CONTINUOUS
 10
44.3916668381
 20
136.2779116033
 11
44.0544275172
 21
136.3192960349
  0
LINE
  5
306
100
AcDbEntity
  8
0
100
AcDbLine
 62
7
  6
CONTINUOUS
 10
59.6652371328
 20
135.4554726827
 11
59.3279975804
 21
135.4968571428
  0
LINE
  5
307
100
AcDbEntity
  8
0
100
AcDbLine
 62
7
  6
CONTINUOUS
 10
44.0544275172
 20
137.6072130551
 11
44.3916668381
 21
137.5658286235
  0
LINE
  5
308
100
AcDbEntity
  8
0
100
AcDbLine
 62
7
  6
CONTINUOUS
 10
51.4612601555
 20
137.2638428371
 11
52.4589715912
 21
137.1414083576
  0
LINE
  5
309
100
AcDbEntity
  8
0
100
AcDbLine
 62
7
  6
CONTINUOUS
 10
54.0311330414
 20
136.9602848531
 11
59.6652391979
 21
136.2688937052
  0
LINE
  5
30A
100
AcDbEntity
  8
0
100
AcDbLine
 62
7
  6
CONTINUOUS
 10
52.7293962557
 20
137.314806988
 11
53.7769535616
 21
137.1862556565
  0
LINE
  5
30B
100
AcDbEntity
  8
0
100
AcDbLine
 62
7
  6
CONTINUOUS
 10
48.2137543834
 20
138.1734106632
 11
45.7107396588
 21
138.4805689196
  0
LINE
  5
30C
100
AcDbEntity
  8
0
100
AcDbLine
 62
7
  6
CONTINUOUS
 10
44.3916668381
 20
140.3604236889
 11
44.0544275172
 21
140.4018081206
  0
LINE
  5
30D
100
AcDbEntity
  8
0
100
AcDbLine
 62
7
  6
CONTINUOUS
 10
44.3916900397
 20
136.2779084092
 11
48.7606631862
 21
135.6764538885
  0
LINE
  5
30E
100
AcDbEntity
  8
0
100
AcDbLine
 62
7
  6
CONTINUOUS
 10
44.3916900397
 20
140.3604204949
 11
48.7606631862
 21
139.7589659742
  0
LINE
  5
30F
100
AcDbEntity
  8
0
100
AcDbLine
 62
7
  6
CONTINUOUS
 10
59.665254376
 20
135.4554696729
 11
63.2303246456
 21
134.8364607281
  0
LINE
  5
310
100
AcDbEntity
  8
0
100
AcDbLine
 62
7
  6
CONTINUOUS
 10
59.6652391979
 20
136.2688937052
 11
61.2877104473
 21
135.9580041857
  0
LINE
  5
311
100
AcDbEntity
  8
0
100
AcDbLine
 62
7
  6
CONTINUOUS
 10
48.7606631862
 20
140.5754683913
 11
44.3916900397
 21
141.6483350116
  0
LINE
  5
312
100
AcDbEntity
  8
0
100
AcDbLine
 62
7
  6
CONTINUOUS
 10
45.3305837754
 20
161.2018204649
 11
42.1233709024
 21
162.9263978434
  0
LINE
  5
313
100
AcDbEntity
  8
0
100
AcDbLine
 62
7
  6
CONTINUOUS
 10
41.4768416613
 20
162.5468258116
 11
43.633526323
 21
161.3451604236
  0
LINE
  5
314
100
AcDbEntity
  8
0
100
AcDbLine
 62
7
  6
CONTINUOUS
 10
44.9708489384
 20
160.8108780944
 11
42.1233709024
 21
162.3984269948
  0
LINE
  5
315
100
AcDbEntity
  8
0
100
AcDbLine
 62
7
  6
CONTINUOUS
 10
44.3494559647
 20
162.936787019
 11
45.5073524882
 21
162.291227813
  0
LINE
  5
316
100
AcDbEntity
  8
0
100
AcDbLine
 62
7
  6
CONTINUOUS
 10
116.9961600126
 20
117.3980015533
 11
113.6020333319
 21
119.357557175
  0
LINE
  5
317
100
AcDbEntity
  8
0
100
AcDbLine
 62
7
  6
CONTINUOUS
 10
43.2799744044
 20
161.1410383467
 11
44.4113499646
 21
160.4878531394
  0
LINE
  5
318
100
AcDbEntity
  8
0
100
AcDbLine
 62
7
  6
CONTINUOUS
 10
118.4103794629
 20
118.2145248785
 11
113.6020333319
 21
120.9905620092
  0
LINE
  5
319
100
AcDbEntity
  8
0
100
AcDbLine
 62
7
  6
CONTINUOUS
 10
116.2496421713
 20
120.6990417774
 11
119.4817053238
 21
118.8330514606
  0
LINE
  5
31A
100
AcDbEntity
  8
0
100
AcDbLine
 62
7
  6
CONTINUOUS
 10
47.3337658861
 20
163.5419125026
 11
46.8508402037
 21
163.8207234677
  0
LINE
  5
31B
100
AcDbEntity
  8
0
100
AcDbLine
 62
7
  6
CONTINUOUS
 10
96.7729021981
 20
97.8019703455
 11
96.7729019493
 21
93.8826710731
  0
LINE
  5
31C
100
AcDbEntity
  8
0
100
AcDbLine
 62
7
  6
CONTINUOUS
 10
97.6909703946
 20
95.5953805254
 11
97.6909703946
 21
107.519166236
  0
LINE
  5
31D
100
AcDbEntity
  8
0
100
AcDbLine
 62
7
  6
CONTINUOUS
 10
52.7293962557
 20
120.9847586454
 11
52.4589715912
 21
120.811360015
  0
LINE
  5
31E
100
AcDbEntity
  8
0
100
AcDbLine
 62
7
  6
CONTINUOUS
 10
59.3279975804
 20
132.8717248432
 11
60.984309722
 21
133.7450807076
  0
LINE
  5
31F
100
AcDbEntity
  8
0
100
AcDbLine
 62
7
  6
CONTINUOUS
 10
59.3279975804
 20
128.7892127575
 11
60.984309722
 21
129.662568622
  0
LINE
  5
320
100
AcDbEntity
  8
0
100
AcDbLine
 62
7
  6
CONTINUOUS
 10
156.1258233906
 20
136.9333244801
 11
157.4425053892
 21
136.8698928323
  0
LINE
  5
321
100
AcDbEntity
  8
0
100
AcDbLine
 62
7
  6
CONTINUOUS
 10
44.0544275172
 20
141.6897251408
 11
44.3916668381
 21
141.6483407091
  0
LINE
  5
322
100
AcDbEntity
  8
0
100
AcDbLine
 62
7
  6
CONTINUOUS
 10
48.2137543834
 20
142.2559227488
 11
45.7107396588
 21
142.5630810053
  0
LINE
  5
323
100
AcDbEntity
  8
0
100
AcDbLine
 62
7
  6
CONTINUOUS
 10
44.3916670696
 20
144.2734729803
 11
44.0544275172
 21
144.3148574404
  0
LINE
  5
324
100
AcDbEntity
  8
0
100
AcDbLine
 62
7
  6
CONTINUOUS
 10
36.1876900923
 20
146.0818431347
 11
37.185401528
 21
145.9594086552
  0
LINE
  5
325
100
AcDbEntity
  8
0
100
AcDbLine
 62
7
  6
CONTINUOUS
 10
38.7575629782
 20
145.7782851507
 11
44.3916691347
 21
145.0868940028
  0
LINE
  5
326
100
AcDbEntity
  8
0
100
AcDbLine
 62
7
  6
CONTINUOUS
 10
37.4558261926
 20
146.1328072856
 11
38.5033834984
 21
146.0042559541
  0
LINE
  5
327
100
AcDbEntity
  8
0
100
AcDbLine
 62
7
  6
CONTINUOUS
 10
44.3916843128
 20
144.2734699706
 11
47.9567545825
 21
143.6544610257
  0
LINE
  5
328
100
AcDbEntity
  8
0
100
AcDbLine
 62
7
  6
CONTINUOUS
 10
44.3916691347
 20
145.0868940028
 11
46.0141403841
 21
144.7760044834
  0
LINE
  5
329
100
AcDbEntity
  8
0
100
AcDbLine
 62
7
  6
CONTINUOUS
 10
145.0637179807
 20
119.7221264986
 11
142.7347025932
 21
120.6636441259
  0
LINE
  5
32A
100
AcDbEntity
  8
0
100
AcDbLine
 62
7
  6
CONTINUOUS
 10
48.0094424412
 20
163.735801498
 11
46.8508401344
 21
164.3809532222
  0
LINE
  5
32B
100
AcDbEntity
  8
0
100
AcDbLine
 62
7
  6
CONTINUOUS
 10
49.6439089393
 20
164.8152357315
 11
47.4872242776
 21
166.0169011196
  0
LINE
  5
32C
100
AcDbEntity
  8
0
100
AcDbLine
 62
7
  6
CONTINUOUS
 10
46.8295883469
 20
165.6435175328
 11
49.9267587173
 21
163.8554074651
  0
LINE
  5
32D
100
AcDbEntity
  8
0
100
AcDbLine
 62
7
  6
CONTINUOUS
 10
47.4872242776
 20
165.4888183408
 11
49.6439089393
 21
164.2436840395
  0
LINE
  5
32E
100
AcDbEntity
  8
0
100
AcDbLine
 62
7
  6
CONTINUOUS
 10
50.7034149316
 20
164.1205568575
 11
50.0670247324
 21
164.4879685984
  0
LINE
  5
32F
100
AcDbEntity
  8
0
100
AcDbLine
 62
7
  6
CONTINUOUS
 10
51.1288364182
 20
164.3661726012
 11
49.9974608579
 21
165.0193578085
  0
LINE
  5
330
100
AcDbEntity
  8
0
100
AcDbLine
 62
7
  6
CONTINUOUS
 10
127.5317123161
 20
121.3947830267
 11
127.5159860688
 21
121.4038623785
  0
LINE
  5
331
100
AcDbEntity
  8
0
100
AcDbLine
 62
7
  6
CONTINUOUS
 10
126.542061815
 20
122.9092976306
 11
124.7489034051
 21
123.9445547006
  0
LINE
  5
332
100
AcDbEntity
  8
0
100
AcDbLine
 62
7
  6
CONTINUOUS
 10
124.0424926902
 20
125.9568932492
 11
124.699533026
 21
125.5775594162
  0
LINE
  5
333
100
AcDbEntity
  8
0
100
AcDbLine
 62
7
  6
CONTINUOUS
 10
88.9577357792
 20
186.9413970613
 11
88.8881719047
 21
187.4727862714
  0
LINE
  5
334
100
AcDbEntity
  8
0
100
AcDbLine
 62
7
  6
CONTINUOUS
 10
101.9348276722
 20
111.5600982552
 11
101.9101423799
 21
113.2073548272
  0
LINE
  5
335
100
AcDbEntity
  8
0
100
AcDbLine
 62
7
  6
CONTINUOUS
 10
100.928505603
 20
93.8544982692
 11
100.928505603
 21
105.6500150555
  0
LINE
  5
336
100
AcDbEntity
  8
0
100
AcDbLine
 62
7
  6
CONTINUOUS
 10
102.0240587146
 20
97.872529394
 11
102.0240587146
 21
102.8945728022
  0
LINE
  5
337
100
AcDbEntity
  8
0
100
AcDbLine
 62
7
  6
CONTINUOUS
 10
102.9680095897
 20
96.4402998649
 11
102.9680095897
 21
95.0319994162
  0
LINE
  5
338
100
AcDbEntity
  8
0
100
AcDbLine
 62
7
  6
CONTINUOUS
 10
102.9680095897
 20
105.4192157537
 11
102.9680095897
 21
106.8275162025
  0
LINE
  5
339
100
AcDbEntity
  8
0
100
AcDbLine
 62
7
  6
CONTINUOUS
 10
103.56118004
 20
107.5736312248
 11
103.56118004
 21
108.9976101804
  0
LINE
  5
33A
100
AcDbEntity
  8
0
100
AcDbLine
 62
7
  6
CONTINUOUS
 10
104.1104944116
 20
104.099169823
 11
104.1104944116
 21
102.8243743915
  0
LINE
  5
33B
100
AcDbEntity
  8
0
100
AcDbLine
 62
7
  6
CONTINUOUS
 10
104.1104944116
 20
100.3543611914
 11
104.1104944116
 21
99.0771264148
  0
LINE
  5
33C
100
AcDbEntity
  8
0
100
AcDbLine
 62
7
  6
CONTINUOUS
 10
104.4097117102
 20
95.0259608975
 11
104.4097117102
 21
97.2726620038
  0
LINE
  5
33D
100
AcDbEntity
  8
0
100
AcDbLine
 62
7
  6
CONTINUOUS
 10
104.4097117102
 20
100.8971213986
 11
104.4097117102
 21
103.1698325159
  0
LINE
  5
33E
100
AcDbEntity
  8
0
100
AcDbLine
 62
7
  6
CONTINUOUS
 10
104.4097117102
 20
107.075191709
 11
104.4097117102
 21
110.1312556144
  0
LINE
  5
33F
100
AcDbEntity
  8
0
100
AcDbLine
 62
7
  6
CONTINUOUS
 10
59.3279975804
 20
124.7067006719
 11
60.984309722
 21
125.5800565363
  0
LINE
  5
340
100
AcDbEntity
  8
0
100
AcDbLine
 62
7
  6
CONTINUOUS
 10
44.0544275172
 20
129.6116516497
 11
45.7107396588
 21
130.169808393
  0
LINE
  5
341
100
AcDbEntity
  8
0
100
AcDbLine
 62
7
  6
CONTINUOUS
 10
49.5224429315
 20
128.0032707767
 11
49.107937198
 21
127.8770650838
  0
LINE
  5
342
100
AcDbEntity
  8
0
100
AcDbLine
 62
7
  6
CONTINUOUS
 10
36.1876900923
 20
135.0092167229
 11
34.1017917389
 21
134.6865263639
  0
LINE
  5
343
100
AcDbEntity
  8
0
100
AcDbLine
 62
7
  6
CONTINUOUS
 10
109.1119522277
 20
97.7407845207
 11
109.077990288
 21
99.967877809
  0
LINE
  5
344
100
AcDbEntity
  8
0
100
AcDbLine
 62
7
  6
CONTINUOUS
 10
110.4835899033
 20
99.7166518984
 11
110.5508567648
 21
95.3055500338
  0
LINE
  5
345
100
AcDbEntity
  8
0
100
AcDbLine
 62
7
  6
CONTINUOUS
 10
106.6370681897
 20
114.2749218784
 11
106.6370679841
 21
115.9364303069
  0
LINE
  5
346
100
AcDbEntity
  8
0
100
AcDbLine
 62
7
  6
CONTINUOUS
 10
109.0687533258
 20
109.9633800289
 11
109.1119522277
 21
112.8460792376
  0
LINE
  5
347
100
AcDbEntity
  8
0
100
AcDbLine
 62
7
  6
CONTINUOUS
 10
110.5508567648
 20
113.6768544193
 11
110.4829727761
 21
109.1468985199
  0
LINE
  5
348
100
AcDbEntity
  8
0
100
AcDbLine
 62
7
  6
CONTINUOUS
 10
150.6119801301
 20
120.0676889459
 11
149.3609655695
 21
120.7899461996
  0
LINE
  5
349
100
AcDbEntity
  8
0
100
AcDbLine
 62
7
  6
CONTINUOUS
 10
149.3282454861
 20
122.0122127402
 11
150.593466315
 21
121.2817536793
  0
LINE
  5
34A
100
AcDbEntity
  8
0
100
AcDbLine
 62
7
  6
CONTINUOUS
 10
149.6005957938
 20
122.284561773
 11
149.5513037665
 21
122.3130198945
  0
LINE
  5
34B
100
AcDbEntity
  8
0
100
AcDbLine
 62
7
  6
CONTINUOUS
 10
149.5327899514
 20
123.5270846279
 11
150.3635142009
 21
123.047476609
  0
LINE
  5
34C
100
AcDbEntity
  8
0
100
AcDbLine
 62
7
  6
CONTINUOUS
 10
150.72499244
 20
124.2153989469
 11
153.199876478
 21
122.786556306
  0
LINE
  5
34D
100
AcDbEntity
  8
0
100
AcDbLine
 62
7
  6
CONTINUOUS
 10
128.8092172479
 20
128.7089465282
 11
127.1784181745
 21
130.0535771262
  0
LINE
  5
34E
100
AcDbEntity
  8
0
100
AcDbLine
 62
7
  6
CONTINUOUS
 10
80.2357494364
 20
185.1794291336
 11
80.3675527081
 21
185.0002542746
  0
LINE
  5
34F
100
AcDbEntity
  8
0
100
AcDbLine
 62
7
  6
CONTINUOUS
 10
111.6221826257
 20
95.9240766159
 11
111.6221826257
 21
100.3740147893
  0
LINE
  5
350
100
AcDbEntity
  8
0
100
AcDbLine
 62
7
  6
CONTINUOUS
 10
111.6221826257
 20
109.8046177071
 11
111.6221826257
 21
114.2953810013
  0
LINE
  5
351
100
AcDbEntity
  8
0
100
AcDbLine
 62
7
  6
CONTINUOUS
 10
112.9210608211
 20
188.895104391
 11
112.9210608211
 21
189.6851509279
  0
LINE
  5
352
100
AcDbEntity
  8
0
100
AcDbLine
 62
7
  6
CONTINUOUS
 10
113.6020333319
 20
119.357557175
 11
113.6020333319
 21
120.9905620092
  0
LINE
  5
353
100
AcDbEntity
  8
0
100
AcDbLine
 62
7
  6
CONTINUOUS
 10
116.9961600126
 20
102.2927068364
 11
116.9961600126
 21
104.5394079427
  0
LINE
  5
354
100
AcDbEntity
  8
0
100
AcDbLine
 62
7
  6
CONTINUOUS
 10
116.9961600126
 20
114.5402430933
 11
116.9961600126
 21
117.3980015533
  0
LINE
  5
355
100
AcDbEntity
  8
0
100
AcDbLine
 62
7
  6
CONTINUOUS
 10
70.3623707901
 20
115.2542821583
 11
68.154439766
 21
113.9572908028
  0
LINE
  5
356
100
AcDbEntity
  8
0
100
AcDbLine
 62
7
  6
CONTINUOUS
 10
71.6899883918
 20
111.9160870302
 11
73.8979194158
 21
113.2130783857
  0
LINE
  5
357
100
AcDbEntity
  8
0
100
AcDbLine
 62
7
  6
CONTINUOUS
 10
70.3623707901
 20
115.3359112359
 11
68.382471214
 21
114.192822506
  0
LINE
  5
358
100
AcDbEntity
  8
0
100
AcDbLine
 62
7
  6
CONTINUOUS
 10
59.3279975804
 20
120.793651352
 11
60.984309722
 21
121.3518080954
  0
LINE
  5
359
100
AcDbEntity
  8
0
100
AcDbLine
 62
7
  6
CONTINUOUS
 10
64.7960129946
 20
119.185270479
 11
64.3815072612
 21
119.0590647862
  0
LINE
  5
35A
100
AcDbEntity
  8
0
100
AcDbLine
 62
7
  6
CONTINUOUS
 10
142.7347025932
 20
139.0349485113
 11
145.0637179807
 21
138.093430884
  0
LINE
  5
35B
100
AcDbEntity
  8
0
100
AcDbLine
 62
7
  6
CONTINUOUS
 10
162.1694368814
 20
125.1073732665
 11
159.3409735423
 21
126.7403503938
  0
LINE
  5
35C
100
AcDbEntity
  8
0
100
AcDbLine
 62
7
  6
CONTINUOUS
 10
150.7802211152
 20
132.2081836141
 11
153.2551051532
 21
130.7793409732
  0
LINE
  5
35D
100
AcDbEntity
  8
0
100
AcDbLine
 62
7
  6
CONTINUOUS
 10
85.5940029294
 20
188.272998673
 11
85.7202993936
 21
188.0969459958
  0
LINE
  5
35E
100
AcDbEntity
  8
0
100
AcDbLine
 62
7
  6
CONTINUOUS
 10
119.5495893125
 20
114.3814807715
 11
119.4817053238
 21
118.8330514606
  0
LINE
  5
35F
100
AcDbEntity
  8
0
100
AcDbLine
 62
7
  6
CONTINUOUS
 10
118.4103794629
 20
118.2145248785
 11
118.4103794629
 21
113.7237615843
  0
LINE
  5
360
100
AcDbEntity
  8
0
100
AcDbLine
 62
7
  6
CONTINUOUS
 10
118.4103794629
 20
104.2931586664
 11
118.4103794629
 21
99.8432204931
  0
LINE
  5
361
100
AcDbEntity
  8
0
100
AcDbLine
 62
7
  6
CONTINUOUS
 10
119.4817053238
 20
100.4617470752
 11
119.5489721853
 21
104.9505215573
  0
LINE
  5
362
100
AcDbEntity
  8
0
100
AcDbLine
 62
7
  6
CONTINUOUS
 10
73.8979194158
 20
110.3553199257
 11
73.4272451396
 21
110.0835776277
  0
LINE
  5
363
100
AcDbEntity
  8
0
100
AcDbLine
 62
7
  6
CONTINUOUS
 10
74.6757336367
 20
109.661285111
 11
74.110050567
 21
109.3346897879
  0
LINE
  5
364
100
AcDbEntity
  8
0
100
AcDbLine
 62
7
  6
CONTINUOUS
 10
73.8979194158
 20
112.2332754851
 11
71.6899883918
 21
110.9807829168
  0
LINE
  5
365
100
AcDbEntity
  8
0
100
AcDbLine
 62
7
  6
CONTINUOUS
 10
161.1817932292
 20
130.0498428978
 11
162.1021700199
 21
129.5184751311
  0
LINE
  5
366
100
AcDbEntity
  8
0
100
AcDbLine
 62
7
  6
CONTINUOUS
 10
150.593466315
 20
137.2035508133
 11
149.3282454861
 21
137.9340098743
  0
LINE
  5
367
100
AcDbEntity
  8
0
100
AcDbLine
 62
7
  6
CONTINUOUS
 10
163.2407627423
 20
130.1758380219
 11
162.3203859516
 21
130.7072057886
  0
LINE
  5
368
100
AcDbEntity
  8
0
100
AcDbLine
 62
7
  6
CONTINUOUS
 10
150.6119801301
 20
138.4389933313
 11
149.3609655695
 21
139.161250585
  0
LINE
  5
369
100
AcDbEntity
  8
0
100
AcDbLine
 62
7
  6
CONTINUOUS
 10
149.6062098532
 20
139.4064937208
 11
149.5327899514
 21
139.4488817619
  0
LINE
  5
36A
100
AcDbEntity
  8
0
100
AcDbLine
 62
7
  6
CONTINUOUS
 10
150.3962342843
 20
140.1965144537
 11
149.5513037665
 21
140.6843242799
  0
LINE
  5
36B
100
AcDbEntity
  8
0
100
AcDbLine
 62
7
  6
CONTINUOUS
 10
170.0289595795
 20
129.6450437257
 11
167.2004962405
 21
131.278020853
  0
LINE
  5
36C
100
AcDbEntity
  8
0
100
AcDbLine
 62
7
  6
CONTINUOUS
 10
124.699533026
 20
125.5775594162
 11
124.7489034051
 21
123.9445547006
  0
LINE
  5
36D
100
AcDbEntity
  8
0
100
AcDbLine
 62
7
  6
CONTINUOUS
 10
127.5317123161
 20
121.3947830267
 11
127.531412902
 21
121.4078785566
  0
LINE
  5
36E
100
AcDbEntity
  8
0
100
AcDbLine
 62
7
  6
CONTINUOUS
 10
126.542061815
 20
122.9092976306
 11
126.542061815
 21
119.8532337252
  0
LINE
  5
36F
100
AcDbEntity
  8
0
100
AcDbLine
 62
7
  6
CONTINUOUS
 10
126.542061815
 20
110.0507040199
 11
126.542061815
 21
107.8040029137
  0
LINE
  5
370
100
AcDbEntity
  8
0
100
AcDbLine
 62
7
  6
CONTINUOUS
 10
127.5159860688
 20
121.4038623785
 11
127.5159860688
 21
121.4833400056
  0
LINE
  5
371
100
AcDbEntity
  8
0
100
AcDbLine
 62
7
  6
CONTINUOUS
 10
127.5295618325
 20
122.8356792582
 11
127.5295618325
 21
121.4381546542
  0
LINE
  5
372
100
AcDbEntity
  8
0
100
AcDbLine
 62
7
  6
CONTINUOUS
 10
127.7441442262
 20
119.7236383697
 11
127.7441442262
 21
110.7447224809
  0
LINE
  5
373
100
AcDbEntity
  8
0
100
AcDbLine
 62
7
  6
CONTINUOUS
 10
128.1946308843
 20
180.0771040934
 11
128.1946308843
 21
180.8671506302
  0
LINE
  5
374
100
AcDbEntity
  8
0
100
AcDbLine
 62
7
  6
CONTINUOUS
 10
128.8092172479
 20
128.7089465282
 11
128.8092172479
 21
110.3376421428
  0
LINE
  5
375
100
AcDbEntity
  8
0
100
AcDbLine
 62
7
  6
CONTINUOUS
 10
142.7347025932
 20
139.0349485113
 11
127.1784181745
 21
130.0535771262
  0
LINE
  5
376
100
AcDbEntity
  8
0
100
AcDbLine
 62
7
  6
CONTINUOUS
 10
165.2206134485
 20
150.7923852419
 11
158.4324166113
 21
146.8732413647
  0
LINE
  5
377
100
AcDbEntity
  8
0
100
AcDbLine
 62
7
  6
CONTINUOUS
 10
113.6020333319
 20
120.9905620092
 11
106.8138364947
 21
117.0714181321
  0
LINE
  5
378
100
AcDbEntity
  8
0
100
AcDbLine
 62
7
  6
CONTINUOUS
 10
84.2212948222
 20
183.6552489279
 11
81.0140819492
 21
185.3798263064
  0
LINE
  5
379
100
AcDbEntity
  8
0
100
AcDbLine
 62
7
  6
CONTINUOUS
 10
80.3675527081
 20
185.0002542746
 11
82.5242373698
 21
183.7985888865
  0
LINE
  5
37A
100
AcDbEntity
  8
0
100
AcDbLine
 62
7
  6
CONTINUOUS
 10
83.8615599852
 20
183.2643065573
 11
81.0140819492
 21
184.8518554577
  0
LINE
  5
37B
100
AcDbEntity
  8
0
100
AcDbLine
 62
7
  6
CONTINUOUS
 10
83.2401670115
 20
185.3902154819
 11
84.3980635349
 21
184.7446562759
  0
LINE
  5
37C
100
AcDbEntity
  8
0
100
AcDbLine
 62
7
  6
CONTINUOUS
 10
151.7362778167
 20
141.9743158187
 11
154.235847147
 21
140.5312214401
  0
LINE
  5
37D
100
AcDbEntity
  8
0
100
AcDbLine
 62
7
  6
CONTINUOUS
 10
82.1706854512
 20
183.5944668096
 11
83.3020610114
 21
182.9412816024
  0
LINE
  5
37E
100
AcDbEntity
  8
0
100
AcDbLine
 62
7
  6
CONTINUOUS
 10
169.1085827888
 20
134.6263496658
 11
170.0289595795
 21
134.0949818991
  0
LINE
  5
37F
100
AcDbEntity
  8
0
100
AcDbLine
 62
7
  6
CONTINUOUS
 10
162.1015528927
 20
138.9487217525
 11
160.6873334424
 21
139.7652032615
  0
LINE
  5
380
100
AcDbEntity
  8
0
100
AcDbLine
 62
7
  6
CONTINUOUS
 10
171.1675523019
 20
134.7523447899
 11
170.2471755112
 21
135.2837125566
  0
LINE
  5
381
100
AcDbEntity
  8
0
100
AcDbLine
 62
7
  6
CONTINUOUS
 10
160.7305323443
 20
142.6479024702
 11
158.2556483063
 21
144.0767451111
  0
LINE
  5
382
100
AcDbEntity
  8
0
100
AcDbLine
 62
7
  6
CONTINUOUS
 10
112.8433928849
 20
188.9242241873
 11
112.6207235415
 21
189.5290219632
  0
LINE
  5
383
100
AcDbEntity
  8
0
100
AcDbLine
 62
7
  6
CONTINUOUS
 10
113.8316717067
 20
187.1562817675
 11
113.2347935093
 21
188.7774775758
  0
LINE
  5
384
100
AcDbEntity
  8
0
100
AcDbLine
 62
7
  6
CONTINUOUS
 10
112.9210608211
 20
189.6851509279
 11
112.7089867426
 21
190.2611706395
  0
LINE
  5
385
100
AcDbEntity
  8
0
100
AcDbLine
 62
7
  6
CONTINUOUS
 10
127.7441442262
 20
119.7236383697
 11
127.5317123161
 21
121.3947830267
  0
LINE
  5
386
100
AcDbEntity
  8
0
100
AcDbLine
 62
7
  6
CONTINUOUS
 10
127.5295618325
 20
122.8356792582
 11
127.4403434494
 21
123.5440550228
  0
LINE
  5
387
100
AcDbEntity
  8
0
100
AcDbLine
 62
7
  6
CONTINUOUS
 10
171.913422264
 20
153.6235260605
 11
167.1864966598
 21
150.8944505808
  0
LINE
  5
388
100
AcDbEntity
  8
0
100
AcDbLine
 62
7
  6
CONTINUOUS
 10
101.9101423799
 20
113.2073548272
 11
106.6370679841
 21
115.9364303069
  0
LINE
  5
389
100
AcDbEntity
  8
0
100
AcDbLine
 62
7
  6
CONTINUOUS
 10
151.7362778167
 20
141.9743158187
 11
158.2556481007
 21
145.7382535395
  0
LINE
  5
38A
100
AcDbEntity
  8
0
100
AcDbLine
 62
7
  6
CONTINUOUS
 10
128.8092172479
 20
128.7089465282
 11
124.0424926902
 21
125.9568932492
  0
LINE
  5
38B
100
AcDbEntity
  8
0
100
AcDbLine
 62
7
  6
CONTINUOUS
 10
145.0637179807
 20
138.093430884
 11
149.5513037665
 21
140.6843242799
  0
LINE
  5
38C
100
AcDbEntity
  8
0
100
AcDbLine
 62
7
  6
CONTINUOUS
 10
108.2280803834
 20
116.2549225138
 11
113.6020333319
 21
119.357557175
  0
LINE
  5
38D
100
AcDbEntity
  8
0
100
AcDbLine
 62
7
  6
CONTINUOUS
 10
159.8466605
 20
146.0567457464
 11
165.2206134485
 21
149.1593804076
  0
LINE
  5
38E
100
AcDbEntity
  8
0
100
AcDbLine
 62
7
  6
CONTINUOUS
 10
124.699533026
 20
125.5775594162
 11
116.2496421713
 21
120.6990417774
  0
LINE
  5
38F
100
AcDbEntity
  8
0
100
AcDbLine
 62
7
  6
CONTINUOUS
 10
171.9381075564
 20
151.9762694885
 11
168.6254258409
 21
150.0637032248
  0
LINE
  5
390
100
AcDbEntity
  8
0
100
AcDbLine
 62
7
  6
CONTINUOUS
 10
158.2556483063
 20
144.0767451111
 11
153.1752069978
 21
141.1435684627
  0
LINE
  5
391
100
AcDbEntity
  8
0
100
AcDbLine
 62
7
  6
CONTINUOUS
 10
106.6370681897
 20
114.2749218784
 11
101.9348276722
 21
111.5600982552
  0
LINE
  5
392
100
AcDbEntity
  8
0
100
AcDbLine
 62
7
  6
CONTINUOUS
 10
124.7489034051
 20
123.9445547006
 11
117.6885713524
 21
119.8682944214
  0
LINE
  5
393
100
AcDbEntity
  8
0
100
AcDbLine
 62
7
  6
CONTINUOUS
 10
154.235847147
 20
140.5312214401
 11
150.6119801301
 21
138.4389933313
  0
LINE
  5
394
100
AcDbEntity
  8
0
100
AcDbLine
 62
7
  6
CONTINUOUS
 10
181.1316916945
 20
155.6934015785
 11
173.315761062
 21
151.1808988599
  0
LINE
  5
395
100
AcDbEntity
  8
0
100
AcDbLine
 62
7
  6
CONTINUOUS
 10
97.6909703946
 20
107.519166236
 11
101.9348276722
 21
109.9693437521
  0
LINE
  5
396
100
AcDbEntity
  8
0
100
AcDbLine
 62
7
  6
CONTINUOUS
 10
153.1949398366
 20
138.7055032859
 11
150.593466315
 21
137.2035508133
  0
LINE
  5
397
100
AcDbEntity
  8
0
100
AcDbLine
 62
7
  6
CONTINUOUS
 10
104.4097117102
 20
110.1312556144
 11
109.1119522277
 21
112.8460792376
  0
LINE
  5
398
100
AcDbEntity
  8
0
100
AcDbLine
 62
7
  6
CONTINUOUS
 10
110.5508567648
 20
113.6768544193
 11
116.9961600126
 21
117.3980015533
  0
LINE
  5
399
100
AcDbEntity
  8
0
100
AcDbLine
 62
7
  6
CONTINUOUS
 10
118.4103794629
 20
118.2145248785
 11
126.542061815
 21
122.9092976306
  0
LINE
  5
39A
100
AcDbEntity
  8
0
100
AcDbLine
 62
7
  6
CONTINUOUS
 10
154.2605322338
 20
138.9124684623
 11
160.7305323443
 21
142.6479024702
  0
LINE
  5
39B
100
AcDbEntity
  8
0
100
AcDbLine
 62
7
  6
CONTINUOUS
 10
162.1694368814
 20
143.4786776519
 11
168.6147401292
 21
147.1998247859
  0
LINE
  5
39C
100
AcDbEntity
  8
0
100
AcDbLine
 62
7
  6
CONTINUOUS
 10
170.0289595795
 20
148.0163481111
 11
174.4129915944
 21
150.5474268477
  0
LINE
  5
39D
100
AcDbEntity
  8
0
100
AcDbLine
 62
7
  6
CONTINUOUS
 10
180.6494228666
 20
153.5042622589
 11
174.4129915944
 21
149.9036784776
  0
LINE
  5
39E
100
AcDbEntity
  8
0
100
AcDbLine
 62
7
  6
CONTINUOUS
 10
101.4259439581
 20
107.7648384124
 11
103.56118004
 21
108.9976101804
  0
LINE
  5
39F
100
AcDbEntity
  8
0
100
AcDbLine
 62
7
  6
CONTINUOUS
 10
126.542061815
 20
122.2655492605
 11
127.5295618325
 21
122.8356792582
  0
LINE
  5
3A0
100
AcDbEntity
  8
0
100
AcDbLine
 62
7
  6
CONTINUOUS
 10
180.6494228666
 20
152.0802833032
 11
174.4129915944
 21
148.479699522
  0
LINE
  5
3A1
100
AcDbEntity
  8
0
100
AcDbLine
 62
7
  6
CONTINUOUS
 10
102.6274291196
 20
107.0345330975
 11
103.56118004
 21
107.5736312248
  0
LINE
  5
3A2
100
AcDbEntity
  8
0
100
AcDbLine
 62
7
  6
CONTINUOUS
 10
126.542061815
 20
120.8415703049
 11
127.5159860688
 21
121.4038623785
  0
LINE
  5
3A3
100
AcDbEntity
  8
0
100
AcDbLine
 62
7
  6
CONTINUOUS
 10
127.4403434494
 20
123.5440550228
 11
126.2617272455
 21
123.0711452082
  0
LINE
  5
3A4
100
AcDbEntity
  8
0
100
AcDbLine
 62
7
  6
CONTINUOUS
 10
86.900153488
 20
186.1892299609
 11
85.7415511812
 21
186.8343816851
  0
LINE
  5
3A5
100
AcDbEntity
  8
0
100
AcDbLine
 62
7
  6
CONTINUOUS
 10
88.5346199861
 20
187.2686641944
 11
86.3779353244
 21
188.4703295825
  0
LINE
  5
3A6
100
AcDbEntity
  8
0
100
AcDbLine
 62
7
  6
CONTINUOUS
 10
86.224635924
 20
185.995249174
 11
85.7415512505
 21
186.2741519307
  0
LINE
  5
3A7
100
AcDbEntity
  8
0
100
AcDbLine
 62
7
  6
CONTINUOUS
 10
162.1694368814
 20
143.4786776519
 11
158.2556481007
 21
145.7382535395
  0
LINE
  5
3A8
100
AcDbEntity
  8
0
100
AcDbLine
 62
7
  6
CONTINUOUS
 10
85.7202993936
 20
188.0969459958
 11
88.8174697641
 21
186.308835928
  0
LINE
  5
3A9
100
AcDbEntity
  8
0
100
AcDbLine
 62
7
  6
CONTINUOUS
 10
86.3779353244
 20
187.9422468037
 11
88.5346199861
 21
186.6971125025
  0
LINE
  5
3AA
100
AcDbEntity
  8
0
100
AcDbLine
 62
7
  6
CONTINUOUS
 10
89.5941259783
 20
186.5739853205
 11
88.9577357792
 21
186.9413970613
  0
LINE
  5
3AB
100
AcDbEntity
  8
0
100
AcDbLine
 62
7
  6
CONTINUOUS
 10
158.4324166113
 20
146.8732413647
 11
163.2407627423
 21
144.097204234
  0
LINE
  5
3AC
100
AcDbEntity
  8
0
100
AcDbLine
 62
7
  6
CONTINUOUS
 10
90.0195474649
 20
186.8196010642
 11
88.8881719047
 21
187.4727862714
  0
LINE
  5
3AD
100
AcDbEntity
  8
0
100
AcDbLine
 62
7
  6
CONTINUOUS
 10
170.0289595795
 20
143.5255848169
 11
168.6147401292
 21
144.342066326
  0
LINE
  5
3AE
100
AcDbEntity
  8
0
100
AcDbLine
 62
7
  6
CONTINUOUS
 10
142.7347025932
 20
139.0349485113
 11
142.7347025932
 21
120.6636441259
  0
LINE
  5
3AF
100
AcDbEntity
  8
0
100
AcDbLine
 62
7
  6
CONTINUOUS
 10
150.3962342843
 20
140.1965144537
 11
149.3609655695
 21
139.161250585
  0
LINE
  5
3B0
100
AcDbEntity
  8
0
100
AcDbLine
 62
7
  6
CONTINUOUS
 10
184.2581440124
 20
153.760117044
 11
182.2186400257
 21
152.582615897
  0
LINE
  5
3B1
100
AcDbEntity
  8
0
100
AcDbLine
 62
7
  6
CONTINUOUS
 10
100.928505603
 20
105.6500150555
 11
102.9680095897
 21
106.8275162025
  0
LINE
  5
3B2
100
AcDbEntity
  8
0
100
AcDbLine
 62
7
  6
CONTINUOUS
 10
174.4129915944
 20
147.4913629423
 11
171.1464824251
 21
145.6054542514
  0
LINE
  5
3B3
100
AcDbEntity
  8
0
100
AcDbLine
 62
7
  6
CONTINUOUS
 10
168.7864801379
 20
144.2429144289
 11
163.2407627423
 21
141.0411121098
  0
LINE
  5
3B4
100
AcDbEntity
  8
0
100
AcDbLine
 62
7
  6
CONTINUOUS
 10
160.8590734511
 20
139.6660513644
 11
156.1258233906
 21
136.9333244801
  0
LINE
  5
3B5
100
AcDbEntity
  8
0
100
AcDbLine
 62
7
  6
CONTINUOUS
 10
104.4097117102
 20
107.075191709
 11
109.2404933345
 21
109.8642281318
  0
LINE
  5
3B6
100
AcDbEntity
  8
0
100
AcDbLine
 62
7
  6
CONTINUOUS
 10
111.6221826257
 20
111.2392888772
 11
117.1679000213
 21
114.4410911962
  0
LINE
  5
3B7
100
AcDbEntity
  8
0
100
AcDbLine
 62
7
  6
CONTINUOUS
 10
119.5279023085
 20
115.8036310188
 11
126.542061815
 21
119.8532337252
  0
LINE
  5
3B8
100
AcDbEntity
  8
0
100
AcDbLine
 62
7
  6
CONTINUOUS
 10
127.7441442262
 20
119.7236383697
 11
119.5403523503
 21
114.9872051945
  0
LINE
  5
3B9
100
AcDbEntity
  8
0
100
AcDbLine
 62
7
  6
CONTINUOUS
 10
117.8811807061
 20
114.0292877171
 11
111.6221826257
 21
110.4156750608
  0
LINE
  5
3BA
100
AcDbEntity
  8
0
100
AcDbLine
 62
7
  6
CONTINUOUS
 10
109.9537740193
 20
109.4524246526
 11
102.9680095897
 21
105.4192157537
  0
LINE
  5
3BB
100
AcDbEntity
  8
0
100
AcDbLine
 62
7
  6
CONTINUOUS
 10
157.4425053892
 20
136.8698928323
 11
161.5723541359
 21
139.2542478853
  0
LINE
  5
3BC
100
AcDbEntity
  8
0
100
AcDbLine
 62
7
  6
CONTINUOUS
 10
163.2407627423
 20
140.2174982934
 11
169.4997608227
 21
143.8311109497
  0
LINE
  5
3BD
100
AcDbEntity
  8
0
100
AcDbLine
 62
7
  6
CONTINUOUS
 10
171.1589324669
 20
144.7890284271
 11
182.2186400257
 21
151.1743154483
  0
LINE
  5
3BE
100
AcDbEntity
  8
0
100
AcDbLine
 62
7
  6
CONTINUOUS
 10
171.1681694291
 20
144.1833040042
 11
170.0289595795
 21
143.5255848169
  0
LINE
  5
3BF
100
AcDbEntity
  8
0
100
AcDbLine
 62
7
  6
CONTINUOUS
 10
163.2407627423
 20
139.6064409397
 11
162.1015528927
 21
138.9487217525
  0
LINE
  5
3C0
100
AcDbEntity
  8
0
100
AcDbLine
 62
7
  6
CONTINUOUS
 10
119.5495893125
 20
114.3814807715
 11
118.4103794629
 21
113.7237615843
  0
LINE
  5
3C1
100
AcDbEntity
  8
0
100
AcDbLine
 62
7
  6
CONTINUOUS
 10
111.6221826257
 20
109.8046177071
 11
110.4829727761
 21
109.1468985199
  0
LINE
  5
3C2
100
AcDbEntity
  8
0
100
AcDbLine
 62
7
  6
CONTINUOUS
 10
181.0761552038
 20
148.5374888984
 11
183.1625909008
 21
149.7420859192
  0
LINE
  5
3C3
100
AcDbEntity
  8
0
100
AcDbLine
 62
7
  6
CONTINUOUS
 10
102.0240587146
 20
102.8945728022
 11
104.1104944116
 21
104.099169823
  0
LINE
  5
3C4
100
AcDbEntity
  8
0
100
AcDbLine
 62
7
  6
CONTINUOUS
 10
179.0646280972
 20
146.0924285531
 11
179.9250556924
 21
146.5891936915
  0
LINE
  5
3C5
100
AcDbEntity
  8
0
100
AcDbLine
 62
7
  6
CONTINUOUS
 10
127.9825568058
 20
181.4431703419
 11
124.4732438144
 21
181.0125062373
  0
LINE
  5
3C6
100
AcDbEntity
  8
0
100
AcDbLine
 62
7
  6
CONTINUOUS
 10
90.1307885774
 20
196.4022504263
 11
93.9061885779
 21
194.3811032802
  0
LINE
  5
3C7
100
AcDbEntity
  8
0
100
AcDbLine
 62
7
  6
CONTINUOUS
 10
88.25171074
 20
196.1926668523
 11
92.7660704144
 21
193.7228596808
  0
LINE
  5
3C8
100
AcDbEntity
  8
0
100
AcDbLine
 62
7
  6
CONTINUOUS
 10
180.9664984748
 20
141.4724796132
 11
182.2186400257
 21
140.7870991107
  0
LINE
  5
3C9
100
AcDbEntity
  8
0
100
AcDbLine
 62
7
  6
CONTINUOUS
 10
168.6147401292
 20
147.1998247859
 11
165.2206134485
 21
149.1593804076
  0
LINE
  5
3CA
100
AcDbEntity
  8
0
100
AcDbLine
 62
7
  6
CONTINUOUS
 10
170.0289595795
 20
148.0163481111
 11
165.2206134485
 21
150.7923852419
  0
LINE
  5
3CB
100
AcDbEntity
  8
0
100
AcDbLine
 62
7
  6
CONTINUOUS
 10
167.1864966598
 20
150.8944505808
 11
171.1002854404
 21
148.6348746932
  0
LINE
  5
3CC
100
AcDbEntity
  8
0
100
AcDbLine
 62
7
  6
CONTINUOUS
 10
128.1169629481
 20
180.1062238897
 11
127.8942936046
 21
180.7110216655
  0
LINE
  5
3CD
100
AcDbEntity
  8
0
100
AcDbLine
 62
7
  6
CONTINUOUS
 10
129.1052417699
 20
178.3382814698
 11
128.5083635725
 21
179.9594772782
  0
LINE
  5
3CE
100
AcDbEntity
  8
0
100
AcDbLine
 62
7
  6
CONTINUOUS
 10
128.1946308843
 20
180.8671506302
 11
127.9825568058
 21
181.4431703419
  0
LINE
  5
3CF
100
AcDbEntity
  8
0
100
AcDbLine
 62
7
  6
CONTINUOUS
 10
149.3609655695
 20
120.7899461996
 11
149.3282454861
 21
122.0122127402
  0
LINE
  5
3D0
100
AcDbEntity
  8
0
100
AcDbLine
 62
7
  6
CONTINUOUS
 10
149.5513037665
 20
122.3130198945
 11
149.5327899514
 21
123.5270846279
  0
LINE
  5
3D1
100
AcDbEntity
  8
0
100
AcDbLine
 62
7
  6
CONTINUOUS
 10
145.0637179807
 20
138.093430884
 11
145.0637179807
 21
119.7221264986
  0
LINE
  5
3D2
100
AcDbEntity
  8
0
100
AcDbLine
 62
7
  6
CONTINUOUS
 10
183.1625909008
 20
144.720042511
 11
181.0761552038
 21
143.5154454901
  0
LINE
  5
3D3
100
AcDbEntity
  8
0
100
AcDbLine
 62
7
  6
CONTINUOUS
 10
104.1104944116
 20
99.0771264148
 11
102.0240587146
 21
97.872529394
  0
LINE
  5
3D4
100
AcDbEntity
  8
0
100
AcDbLine
 62
7
  6
CONTINUOUS
 10
128.8092172479
 20
112.6238094045
 11
142.7347025932
 21
120.6636441259
  0
LINE
  5
3D5
100
AcDbEntity
  8
0
100
AcDbLine
 62
7
  6
CONTINUOUS
 10
98.7515949451
 20
95.0250631877
 11
96.7729019493
 21
93.8826710731
  0
LINE
  5
3D6
100
AcDbEntity
  8
0
100
AcDbLine
 62
7
  6
CONTINUOUS
 10
149.5327899514
 20
123.5270846279
 11
150.72499244
 21
124.2153989469
  0
LINE
  5
3D7
100
AcDbEntity
  8
0
100
AcDbLine
 62
7
  6
CONTINUOUS
 10
127.7441442262
 20
110.7447224809
 11
102.9680095897
 21
96.4402998649
  0
LINE
  5
3D8
100
AcDbEntity
  8
0
100
AcDbLine
 62
7
  6
CONTINUOUS
 10
157.4425053892
 20
127.8909769435
 11
182.2186400257
 21
142.1953995595
  0
LINE
  5
3D9
100
AcDbEntity
  8
0
100
AcDbLine
 62
7
  6
CONTINUOUS
 10
102.9680095897
 20
95.4468067144
 11
103.3243862686
 21
95.6525596578
  0
LINE
  5
3DA
100
AcDbEntity
  8
0
100
AcDbLine
 62
7
  6
CONTINUOUS
 10
128.8092172479
 20
110.3376421428
 11
126.542061815
 21
109.0287071566
  0
LINE
  5
3DB
100
AcDbEntity
  8
0
100
AcDbLine
 62
7
  6
CONTINUOUS
 10
145.0637179807
 20
119.7221264986
 11
149.5513037665
 21
122.3130198945
  0
LINE
  5
3DC
100
AcDbEntity
  8
0
100
AcDbLine
 62
7
  6
CONTINUOUS
 10
110.4835899033
 20
99.7166518984
 11
111.6221826257
 21
100.3740147893
  0
LINE
  5
3DD
100
AcDbEntity
  8
0
100
AcDbLine
 62
7
  6
CONTINUOUS
 10
118.4103794629
 20
104.2931586664
 11
119.5489721853
 21
104.9505215573
  0
LINE
  5
3DE
100
AcDbEntity
  8
0
100
AcDbLine
 62
7
  6
CONTINUOUS
 10
162.1021700199
 20
129.5184751311
 11
163.2407627423
 21
130.1758380219
  0
LINE
  5
3DF
100
AcDbEntity
  8
0
100
AcDbLine
 62
7
  6
CONTINUOUS
 10
170.0289595795
 20
134.0949818991
 11
171.1675523019
 21
134.7523447899
  0
LINE
  5
3E0
100
AcDbEntity
  8
0
100
AcDbLine
 62
7
  6
CONTINUOUS
 10
184.2581440124
 20
141.9646002577
 11
182.2186400257
 21
140.7870991107
  0
LINE
  5
3E1
100
AcDbEntity
  8
0
100
AcDbLine
 62
7
  6
CONTINUOUS
 10
100.928505603
 20
93.8544982692
 11
102.9680095897
 21
95.0319994162
  0
LINE
  5
3E2
100
AcDbEntity
  8
0
100
AcDbLine
 62
7
  6
CONTINUOUS
 10
174.4129915944
 20
135.4421321308
 11
171.1496551874
 21
133.5580552242
  0
LINE
  5
3E3
100
AcDbEntity
  8
0
100
AcDbLine
 62
7
  6
CONTINUOUS
 10
168.6147401292
 20
132.094530069
 11
163.2407627423
 21
128.9918812983
  0
LINE
  5
3E4
100
AcDbEntity
  8
0
100
AcDbLine
 62
7
  6
CONTINUOUS
 10
160.7305323443
 20
127.5426077533
 11
156.735395664
 21
125.236028284
  0
LINE
  5
3E5
100
AcDbEntity
  8
0
100
AcDbLine
 62
7
  6
CONTINUOUS
 10
126.542061815
 20
107.8040029137
 11
119.5310750708
 21
103.7562319915
  0
LINE
  5
3E6
100
AcDbEntity
  8
0
100
AcDbLine
 62
7
  6
CONTINUOUS
 10
116.9961600126
 20
102.2927068364
 11
111.6221826257
 21
99.1900580657
  0
LINE
  5
3E7
100
AcDbEntity
  8
0
100
AcDbLine
 62
7
  6
CONTINUOUS
 10
109.1119522277
 20
97.7407845207
 11
104.4097117102
 21
95.0259608975
  0
LINE
  5
3E8
100
AcDbEntity
  8
0
100
AcDbLine
 62
7
  6
CONTINUOUS
 10
150.593466315
 20
121.2817536793
 11
153.199876478
 21
122.786556306
  0
LINE
  5
3E9
100
AcDbEntity
  8
0
100
AcDbLine
 62
7
  6
CONTINUOUS
 10
156.7107105773
 20
123.5887715933
 11
150.6119801301
 21
120.0676889459
  0
LINE
  5
3EA
100
AcDbEntity
  8
0
100
AcDbLine
 62
7
  6
CONTINUOUS
 10
112.7089867426
 20
190.2611706395
 11
109.1996737512
 21
189.8305065349
  0
LINE
  5
3EB
100
AcDbEntity
  8
0
100
AcDbLine
 62
7
  6
CONTINUOUS
 10
128.5083635725
 20
179.9594772782
 11
128.1169629481
 21
180.1062238897
  0
LINE
  5
3EC
100
AcDbEntity
  8
0
100
AcDbLine
 62
7
  6
CONTINUOUS
 10
113.2347935093
 20
188.7774775758
 11
112.8433928849
 21
188.9242241873
  0
LINE
  5
3ED
100
AcDbEntity
  8
0
100
AcDbLine
 62
7
  6
CONTINUOUS
 10
97.488451754
 20
196.4493115437
 11
101.0857130966
 21
194.5149979257
  0
LINE
  5
3EE
100
AcDbEntity
  8
0
100
AcDbLine
 62
7
  6
CONTINUOUS
 10
183.1625909008
 20
144.720042511
 11
179.9250556924
 21
146.5891936915
  0
LINE
  5
3EF
100
AcDbEntity
  8
0
100
AcDbLine
 62
7
  6
CONTINUOUS
 10
174.4129915944
 20
150.5474268477
 11
171.9381075564
 21
151.9762694885
  0
LINE
  5
3F0
100
AcDbEntity
  8
0
100
AcDbLine
 62
7
  6
CONTINUOUS
 10
101.0857130966
 20
194.5149979257
 11
171.913422264
 21
153.6235260605
  0
LINE
  5
3F1
100
AcDbEntity
  8
0
100
AcDbLine
 62
7
  6
CONTINUOUS
 10
182.2186400257
 20
151.1743154483
 11
180.6494228666
 21
152.0802833032
  0
LINE
  5
3F2
100
AcDbEntity
  8
0
100
AcDbLine
 62
7
  6
CONTINUOUS
 10
150.6119801301
 20
120.0676889459
 11
150.593466315
 21
121.2817536793
  0
LINE
  5
3F3
100
AcDbEntity
  8
0
100
AcDbLine
 62
7
  6
CONTINUOUS
 10
154.2605322338
 20
138.9124684623
 11
154.235847147
 21
140.5312214401
  0
LINE
  5
3F4
100
AcDbEntity
  8
0
100
AcDbLine
 62
7
  6
CONTINUOUS
 10
150.7826894359
 20
132.2096086912
 11
150.7425392799
 21
137.289617616
  0
LINE
  5
3F5
100
AcDbEntity
  8
0
100
AcDbLine
 62
7
  6
CONTINUOUS
 10
153.1949398366
 20
138.7055032859
 11
153.2575734739
 21
130.7807660503
  0
LINE
  5
3F6
100
AcDbEntity
  8
0
100
AcDbLine
 62
7
  6
CONTINUOUS
 10
150.72499244
 20
124.2153989469
 11
150.7826894359
 21
132.2096086912
  0
LINE
  5
3F7
100
AcDbEntity
  8
0
100
AcDbLine
 62
7
  6
CONTINUOUS
 10
153.2575734739
 20
130.7807660503
 11
153.199876478
 21
122.786556306
  0
LINE
  5
3F8
100
AcDbEntity
  8
0
100
AcDbLine
 62
7
  6
CONTINUOUS
 10
149.5327899514
 20
139.4488817619
 11
149.5513037665
 21
140.6843242799
  0
LINE
  5
3F9
100
AcDbEntity
  8
0
100
AcDbLine
 62
7
  6
CONTINUOUS
 10
150.593466315
 20
137.2035508133
 11
150.6119801301
 21
138.4389933313
  0
LINE
  5
3FA
100
AcDbEntity
  8
0
100
AcDbLine
 62
7
  6
CONTINUOUS
 10
149.3282454861
 20
137.9340098743
 11
149.3609655695
 21
139.161250585
  0
LINE
  5
3FB
100
AcDbEntity
  8
0
100
AcDbLine
 62
7
  6
CONTINUOUS
 10
150.3635142009
 20
123.047476609
 11
149.3282454861
 21
122.0122127402
  0
LINE
  5
3FC
100
AcDbEntity
  8
0
100
AcDbLine
 62
7
  6
CONTINUOUS
 10
171.1002854404
 20
130.2635703078
 11
170.0289595795
 21
129.6450437257
  0
LINE
  5
3FD
100
AcDbEntity
  8
0
100
AcDbLine
 62
7
  6
CONTINUOUS
 10
163.2407627423
 20
125.7258998485
 11
162.1694368814
 21
125.1073732665
  0
LINE
  5
3FE
100
AcDbEntity
  8
0
100
AcDbLine
 62
7
  6
CONTINUOUS
 10
119.4817053238
 20
100.4617470752
 11
118.4103794629
 21
99.8432204931
  0
LINE
  5
3FF
100
AcDbEntity
  8
0
100
AcDbLine
 62
7
  6
CONTINUOUS
 10
111.6221826257
 20
95.9240766159
 11
110.5508567648
 21
95.3055500338
  0
LINE
  5
400
100
AcDbEntity
  8
0
100
AcDbLine
 62
7
  6
CONTINUOUS
 10
182.2186400257
 20
152.582615897
 11
180.6494228666
 21
153.5042622589
  0
LINE
  5
401
100
AcDbEntity
  8
0
100
AcDbLine
 62
7
  6
CONTINUOUS
 10
181.1316916945
 20
155.6934015785
 11
184.2581440124
 21
153.760117044
  0
LINE
  5
402
100
AcDbEntity
  8
0
100
AcDbLine
 62
7
  6
CONTINUOUS
 10
160.7305323443
 20
127.5426077533
 11
160.6965704046
 21
129.7697010416
  0
LINE
  5
403
100
AcDbEntity
  8
0
100
AcDbLine
 62
7
  6
CONTINUOUS
 10
162.1021700199
 20
129.5184751311
 11
162.1694368814
 21
125.1073732665
  0
LINE
  5
404
100
AcDbEntity
  8
0
100
AcDbLine
 62
7
  6
CONTINUOUS
 10
156.1258233906
 20
127.940157574
 11
156.1258233906
 21
136.9333244801
  0
LINE
  5
405
100
AcDbEntity
  8
0
100
AcDbLine
 62
7
  6
CONTINUOUS
 10
157.4425053892
 20
127.8909769435
 11
157.4425053892
 21
136.8698928323
  0
LINE
  5
406
100
AcDbEntity
  8
0
100
AcDbLine
 62
7
  6
CONTINUOUS
 10
158.2556483063
 20
144.0767451111
 11
158.2556481007
 21
145.7382535395
  0
LINE
  5
407
100
AcDbEntity
  8
0
100
AcDbLine
 62
7
  6
CONTINUOUS
 10
156.7107105773
 20
123.5887715933
 11
156.735395664
 21
125.236028284
  0
LINE
  5
408
100
AcDbEntity
  8
0
100
AcDbLine
 62
7
  6
CONTINUOUS
 10
160.6873334424
 20
139.7652032615
 11
160.7305323443
 21
142.6479024702
  0
LINE
  5
409
100
AcDbEntity
  8
0
100
AcDbLine
 62
7
  6
CONTINUOUS
 10
163.2407627423
 20
125.7258998485
 11
163.2407627423
 21
130.1758380219
  0
LINE
  5
40A
100
AcDbEntity
  8
0
100
AcDbLine
 62
7
  6
CONTINUOUS
 10
163.2407627423
 20
139.6064409397
 11
163.2407627423
 21
144.097204234
  0
LINE
  5
40B
100
AcDbEntity
  8
0
100
AcDbLine
 62
7
  6
CONTINUOUS
 10
165.2206134485
 20
149.1593804076
 11
165.2206134485
 21
150.7923852419
  0
LINE
  5
40C
100
AcDbEntity
  8
0
100
AcDbLine
 62
7
  6
CONTINUOUS
 10
162.1694368814
 20
143.4786776519
 11
162.1015528927
 21
138.9487217525
  0
LINE
  5
40D
100
AcDbEntity
  8
0
100
AcDbLine
 62
7
  6
CONTINUOUS
 10
171.1681694291
 20
144.1833040042
 11
171.1002854404
 21
148.6348746932
  0
LINE
  5
40E
100
AcDbEntity
  8
0
100
AcDbLine
 62
7
  6
CONTINUOUS
 10
171.913422264
 20
153.6235260605
 11
171.9381075564
 21
151.9762694885
  0
LINE
  5
40F
100
AcDbEntity
  8
0
100
AcDbLine
 62
7
  6
CONTINUOUS
 10
168.6147401292
 20
132.094530069
 11
168.6147401292
 21
134.3412311753
  0
LINE
  5
410
100
AcDbEntity
  8
0
100
AcDbLine
 62
7
  6
CONTINUOUS
 10
168.6147401292
 20
144.342066326
 11
168.6147401292
 21
147.1998247859
  0
LINE
  5
411
100
AcDbEntity
  8
0
100
AcDbLine
 62
7
  6
CONTINUOUS
 10
170.0289595795
 20
148.0163481111
 11
170.0289595795
 21
143.5255848169
  0
LINE
  5
412
100
AcDbEntity
  8
0
100
AcDbLine
 62
7
  6
CONTINUOUS
 10
170.0289595795
 20
134.0949818991
 11
170.0289595795
 21
129.6450437257
  0
LINE
  5
413
100
AcDbEntity
  8
0
100
AcDbLine
 62
7
  6
CONTINUOUS
 10
174.4129915944
 20
150.5474268477
 11
174.4129915944
 21
147.4913629423
  0
LINE
  5
414
100
AcDbEntity
  8
0
100
AcDbLine
 62
7
  6
CONTINUOUS
 10
174.4129915944
 20
137.688833237
 11
174.4129915944
 21
135.4421321308
  0
LINE
  5
415
100
AcDbEntity
  8
0
100
AcDbLine
 62
7
  6
CONTINUOUS
 10
171.1002854404
 20
130.2635703078
 11
171.1675523019
 21
134.7523447899
  0
LINE
  5
416
100
AcDbEntity
  8
0
100
AcDbLine
 62
7
  6
CONTINUOUS
 10
179.9250556924
 20
146.5891936915
 11
179.9250556924
 21
146.9771281206
  0
LINE
  5
417
100
AcDbEntity
  8
0
100
AcDbLine
 62
7
  6
CONTINUOUS
 10
180.6494228666
 20
153.5042622589
 11
180.6494228666
 21
152.0802833032
  0
LINE
  5
418
100
AcDbEntity
  8
0
100
AcDbLine
 62
7
  6
CONTINUOUS
 10
181.0761552038
 20
143.5154454901
 11
181.0761552038
 21
144.7902409217
  0
LINE
  5
419
100
AcDbEntity
  8
0
100
AcDbLine
 62
7
  6
CONTINUOUS
 10
181.0761552038
 20
147.2602541218
 11
181.0761552038
 21
148.5374888984
  0
LINE
  5
41A
100
AcDbEntity
  8
0
100
AcDbLine
 62
7
  6
CONTINUOUS
 10
182.2186400257
 20
142.1953995595
 11
182.2186400257
 21
140.7870991107
  0
LINE
  5
41B
100
AcDbEntity
  8
0
100
AcDbLine
 62
7
  6
CONTINUOUS
 10
182.2186400257
 20
151.1743154483
 11
182.2186400257
 21
152.582615897
  0
LINE
  5
41C
100
AcDbEntity
  8
0
100
AcDbLine
 62
7
  6
CONTINUOUS
 10
183.1625909008
 20
149.7420859192
 11
183.1625909008
 21
144.720042511
  0
LINE
  5
41D
100
AcDbEntity
  8
0
100
AcDbLine
 62
7
  6
CONTINUOUS
 10
184.2581440124
 20
153.760117044
 11
184.2581440124
 21
141.9646002577
  0
ARC
  5
41E
100
AcDbEntity
  8
0
100
AcDbCircle
 62
7
  6
CONTINUOUS
 10
527.4899043043
 20
802.1962511456
 40
819.6536849277
100
AcDbArc
 50
238.7755624366
 51
238.8999213435
  0
ARC
  5
41F
100
AcDbEntity
  8
0
100
AcDbCircle
 62
7
  6
CONTINUOUS
 10
620.8291717683
 20
826.3409990253
 40
811.1067447933
100
AcDbArc
 50
237.0027700932
 51
237.1689147273
  0
ARC
  5
420
100
AcDbEntity
  8
0
100
AcDbCircle
 62
7
  6
CONTINUOUS
 10
86.0605280664
 20
187.2506073339
 40
0.7677282795
100
AcDbArc
 50
90.0590581058
 51
101.6899907995
  0
ARC
  5
421
100
AcDbEntity
  8
0
100
AcDbCircle
 62
7
  6
CONTINUOUS
 10
47.1698170196
 20
164.7971788709
 40
0.7677282795
100
AcDbArc
 50
90.0590581058
 51
101.6899907995
  0
SPLINE
  5
422
100
AcDbEntity
  8
0
100
AcDbSpline
 62
7
  6
CONTINUOUS
 70
0
 71
3
 72
8
 73
4
 74
0
 42
0.0000001
 43
0.0000001
 44
0.0000000001
 40
0.0
 40
0.0
 40
0.0
 40
0.0
 40
1.0
 40
1.0
 40
1.0
 40
1.0
 10
104.1104944116
 20
102.8243743915
 30
0.0
 10
103.7200723298
 20
103.0241491787
 30
0.0
 10
103.329509946
 20
103.2236502503
 30
0.0
 10
102.9387460024
 20
103.4227555188
 30
0.0
  0
SPLINE
  5
423
100
AcDbEntity
  8
0
100
AcDbSpline
 62
7
  6
CONTINUOUS
 70
0
 71
3
 72
13
 73
9
 74
0
 42
0.0000001
 43
0.0000001
 44
0.0000000001
 40
0.0
 40
0.0
 40
0.0
 40
0.0
 40
0.3061372458
 40
0.5818159845
 40
0.7026205552
 40
0.8109992752
 40
0.9087312305
 40
1.0
 40
1.0
 40
1.0
 40
1.0
 10
104.1104944116
 20
102.8243743915
 30
0.0
 10
104.2437186216
 20
103.0460352997
 30
0.0
 10
104.5422638937
 20
103.441710964
 30
0.0
 10
105.0070579068
 20
103.8246326165
 30
0.0
 10
105.3952724292
 20
104.0065867185
 30
0.0
 10
105.666221439
 20
104.0713907297
 30
0.0
 10
105.9205786555
 20
104.0663796484
 30
0.0
 10
106.0747360965
 20
104.0133326055
 30
0.0
 10
106.142301171
 20
103.9761901165
 30
0.0
  0
SPLINE
  5
424
100
AcDbEntity
  8
0
100
AcDbSpline
 62
7
  6
CONTINUOUS
 70
0
 71
3
 72
11
 73
7
 74
0
 42
0.0000001
 43
0.0000001
 44
0.0000000001
 40
0.0
 40
0.0
 40
0.0
 40
0.0
 40
0.2890639874
 40
0.5486106176
 40
0.7822369818
 40
1.0
 40
1.0
 40
1.0
 40
1.0
 10
88.25171074
 20
196.1926668523
 30
0.0
 10
88.416005898
 20
196.2875221398
 30
0.0
 10
88.7429107216
 20
196.4437158021
 30
0.0
 10
89.2451795768
 20
196.5690361295
 30
0.0
 10
89.7176781875
 20
196.5648958745
 30
0.0
 10
90.0047681909
 20
196.4696614207
 30
0.0
 10
90.1307773707
 20
196.4022304913
 30
0.0
  0
SPLINE
  5
425
100
AcDbEntity
  8
0
100
AcDbSpline
 62
7
  6
CONTINUOUS
 70
0
 71
3
 72
11
 73
7
 74
0
 42
0.0000001
 43
0.0000001
 44
0.0000000001
 40
0.0
 40
0.0
 40
0.0
 40
0.0
 40
0.2379300621
 40
0.5007014026
 40
0.7630915273
 40
1.0
 40
1.0
 40
1.0
 40
1.0
 10
24.5914679805
 20
156.3464540354
 30
0.0
 10
24.5957163695
 20
156.7889298741
 30
0.0
 10
24.7672508256
 20
157.7192107007
 30
0.0
 10
25.3492231161
 20
159.0249494092
 30
0.0
 10
26.1951266359
 20
160.1750100506
 30
0.0
 10
26.9177918079
 20
160.7817236213
 30
0.0
 10
27.2993599727
 20
161.0020207889
 30
0.0
  0
SPLINE
  5
426
100
AcDbEntity
  8
0
100
AcDbSpline
 62
7
  6
CONTINUOUS
 70
0
 71
3
 72
11
 73
7
 74
0
 42
0.0000001
 43
0.0000001
 44
0.0000000001
 40
0.0
 40
0.0
 40
0.0
 40
0.0
 40
0.243112852
 40
0.5120154099
 40
0.7742322902
 40
1.0
 40
1.0
 40
1.0
 40
1.0
 10
23.7638407861
 20
154.3640612898
 30
0.0
 10
23.7638407861
 20
154.4934284546
 30
0.0
 10
23.8176052794
 20
154.7659525286
 30
0.0
 10
23.9995838645
 20
155.1396269798
 30
0.0
 10
24.2583934577
 20
155.4527985261
 30
0.0
 10
24.4789717462
 20
155.6024901479
 30
0.0
 10
24.5914577537
 20
155.6446787219
 30
0.0
  0
SPLINE
  5
427
100
AcDbEntity
  8
0
100
AcDbSpline
 62
7
  6
CONTINUOUS
 70
0
 71
3
 72
11
 73
7
 74
0
 42
0.0000001
 43
0.0000001
 44
0.0000000001
 40
0.0
 40
0.0
 40
0.0
 40
0.0
 40
0.2100540501
 40
0.4402032497
 40
0.7029744591
 40
1.0
 40
1.0
 40
1.0
 40
1.0
 10
24.678093289
 20
149.415575873
 30
0.0
 10
24.7172890846
 20
149.392987685
 30
0.0
 10
24.8102118428
 20
149.3627374353
 30
0.0
 10
24.9639577704
 20
149.3719942832
 30
0.0
 10
25.1257029979
 20
149.4298739864
 30
0.0
 10
25.228682979
 20
149.4941806177
 30
0.0
 10
25.2799683458
 20
149.5324154112
 30
0.0
  0
SPLINE
  5
428
100
AcDbEntity
  8
0
100
AcDbSpline
 62
7
  6
CONTINUOUS
 70
0
 71
3
 72
11
 73
7
 74
0
 42
0.0000001
 43
0.0000001
 44
0.0000000001
 40
0.0
 40
0.0
 40
0.0
 40
0.0
 40
0.2176989982
 40
0.4508792461
 40
0.7106036955
 40
1.0
 40
1.0
 40
1.0
 40
1.0
 10
23.9709824365
 20
149.8238146841
 30
0.0
 10
23.9379923613
 20
149.842821384
 30
0.0
 10
23.8762547093
 20
149.894673775
 30
0.0
 10
23.8104976932
 20
150.0021453855
 30
0.0
 10
23.7716206297
 20
150.1345907552
 30
0.0
 10
23.7638407861
 20
150.2309367308
 30
0.0
 10
23.7638407861
 20
150.2815495579
 30
0.0
  0
SPLINE
  5
429
100
AcDbEntity
  8
0
100
AcDbSpline
 62
7
  6
CONTINUOUS
 70
0
 71
3
 72
11
 73
7
 74
0
 42
0.0000001
 43
0.0000001
 44
0.0000000001
 40
0.0
 40
0.0
 40
0.0
 40
0.0
 40
0.2177616132
 40
0.4513873883
 40
0.7109345852
 40
1.0
 40
1.0
 40
1.0
 40
1.0
 10
25.3493795188
 20
143.0666462131
 30
0.0
 10
25.2279725789
 20
143.1420580083
 30
0.0
 10
25.0019411592
 20
143.3430721325
 30
0.0
 10
24.7620952801
 20
143.750212074
 30
0.0
 10
24.6194852242
 20
144.2478702434
 30
0.0
 10
24.5912996998
 20
144.6090905406
 30
0.0
 10
24.5912996998
 20
144.7988103499
 30
0.0
  0
SPLINE
  5
42A
100
AcDbEntity
  8
0
100
AcDbSpline
 62
7
  6
CONTINUOUS
 70
0
 71
3
 72
11
 73
7
 74
0
 42
0.0000001
 43
0.0000001
 44
0.0000000001
 40
0.0
 40
0.0
 40
0.0
 40
0.0
 40
0.2177383383
 40
0.4512006777
 40
0.7107999125
 40
1.0
 40
1.0
 40
1.0
 40
1.0
 10
179.0187208785
 20
143.6532339776
 30
0.0
 10
178.9520098488
 20
143.69370408
 30
0.0
 10
178.8275091668
 20
143.8022205376
 30
0.0
 10
178.6953442577
 20
144.023867514
 30
0.0
 10
178.6168459869
 20
144.2954569722
 30
0.0
 10
178.6012917736
 20
144.4927577
 30
0.0
 10
178.6012917736
 20
144.5963929832
 30
0.0
  0
LINE
  5
42B
100
AcDbEntity
  8
0
100
AcDbLine
 62
7
  6
CONTINUOUS
 10
127.5317123161
 20
121.4212373784
 11
127.5295618325
 21
121.4381546542
  0
SPLINE
  5
42C
100
AcDbEntity
  8
0
100
AcDbSpline
 62
7
  6
CONTINUOUS
 70
0
 71
3
 72
15
 73
11
 74
0
 42
0.0000001
 43
0.0000001
 44
0.0000000001
 40
0.0
 40
0.0
 40
0.0
 40
0.0
 40
0.1281809618
 40
0.2691487142
 40
0.4157936144
 40
0.5599919364
 40
0.6940469825
 40
0.8122203382
 40
0.9126798395
 40
1.0
 40
1.0
 40
1.0
 40
1.0
 10
178.6012917736
 20
144.5963929832
 30
0.0
 10
178.6012917736
 20
144.7714888116
 30
0.0
 10
178.6496310029
 20
145.139567269
 30
0.0
 10
178.8304656557
 20
145.680758159
 30
0.0
 10
179.1096859324
 20
146.2034867517
 30
0.0
 10
179.465154701
 20
146.6657977272
 30
0.0
 10
179.8690819183
 20
147.031671782
 30
0.0
 10
180.292003525
 20
147.2723668032
 30
0.0
 10
180.7073251077
 20
147.3682955117
 30
0.0
 10
180.9698589309
 20
147.3143721987
 30
0.0
 10
181.0761552038
 20
147.2602541218
 30
0.0
  0
SPLINE
  5
42D
100
AcDbEntity
  8
0
100
AcDbSpline
 62
7
  6
CONTINUOUS
 70
0
 71
3
 72
8
 73
4
 74
0
 42
0.0000001
 43
0.0000001
 44
0.0000000001
 40
0.0
 40
0.0
 40
0.0
 40
0.0
 40
1.0
 40
1.0
 40
1.0
 40
1.0
 10
127.5159860688
 20
121.4833400056
 30
0.0
 10
127.5200128165
 20
121.4579836888
 30
0.0
 10
127.5268476418
 20
121.4331434709
 30
0.0
 10
127.531412902
 20
121.4078785566
 30
0.0
  0
SPLINE
  5
42E
100
AcDbEntity
  8
0
100
AcDbSpline
 62
7
  6
CONTINUOUS
 70
0
 71
3
 72
8
 73
4
 74
0
 42
0.0000001
 43
0.0000001
 44
0.0000000001
 40
0.0
 40
0.0
 40
0.0
 40
0.0
 40
1.0
 40
1.0
 40
1.0
 40
1.0
 10
127.5295618325
 20
121.4356997616
 30
0.0
 10
127.5288309822
 20
121.4476540113
 30
0.0
 10
127.5269584153
 20
121.4598091396
 30
0.0
 10
127.5225186141
 20
121.4709323762
 30
0.0
  0
SPLINE
  5
42F
100
AcDbEntity
  8
0
100
AcDbSpline
 62
7
  6
CONTINUOUS
 70
0
 71
3
 72
8
 73
4
 74
0
 42
0.0000001
 43
0.0000001
 44
0.0000000001
 40
0.0
 40
0.0
 40
0.0
 40
0.0
 40
1.0
 40
1.0
 40
1.0
 40
1.0
 10
127.5225186141
 20
121.4709323762
 30
0.0
 10
127.5207858979
 20
121.4752734292
 30
0.0
 10
127.5186240954
 20
121.4794815264
 30
0.0
 10
127.5159860688
 20
121.4833400056
 30
0.0
  0
SPLINE
  5
430
100
AcDbEntity
  8
0
100
AcDbSpline
 62
7
  6
CONTINUOUS
 70
0
 71
3
 72
9
 73
5
 74
0
 42
0.0000001
 43
0.0000001
 44
0.0000000001
 40
0.0
 40
0.0
 40
0.0
 40
0.0
 40
0.2764450212
 40
1.0
 40
1.0
 40
1.0
 40
1.0
 10
105.8659055733
 20
103.4193371563
 30
0.0
 10
105.8659055733
 20
103.4841596302
 30
0.0
 10
105.8542449547
 20
103.7178010414
 30
0.0
 10
105.7904129634
 20
103.9538870181
 30
0.0
 10
105.7024541799
 20
104.0989695742
 30
0.0
  0
SPLINE
  5
431
100
AcDbEntity
  8
0
100
AcDbSpline
 62
7
  6
CONTINUOUS
 70
0
 71
3
 72
11
 73
7
 74
0
 42
0.0000001
 43
0.0000001
 44
0.0000000001
 40
0.0
 40
0.0
 40
0.0
 40
0.0
 40
0.2372518718
 40
0.4999985497
 40
0.7627460178
 40
1.0
 40
1.0
 40
1.0
 40
1.0
 10
104.4097117102
 20
100.8971213986
 30
0.0
 10
104.6164608046
 20
101.0164873314
 30
0.0
 10
105.0077148323
 20
101.3457342716
 30
0.0
 10
105.4641866967
 20
101.9697914412
 30
0.0
 10
105.7763971178
 20
102.6771399188
 30
0.0
 10
105.8659055733
 20
103.1806020984
 30
0.0
 10
105.8659055733
 20
103.4193371563
 30
0.0
  0
SPLINE
  5
432
100
AcDbEntity
  8
0
100
AcDbSpline
 62
7
  6
CONTINUOUS
 70
0
 71
3
 72
15
 73
11
 74
0
 42
0.0000001
 43
0.0000001
 44
0.0000000001
 40
0.0
 40
0.0
 40
0.0
 40
0.0
 40
0.1281809618
 40
0.2691487142
 40
0.4157936144
 40
0.5599919364
 40
0.6940469825
 40
0.8122203382
 40
0.9126798395
 40
1.0
 40
1.0
 40
1.0
 40
1.0
 10
106.5853578418
 20
103.01822233
 30
0.0
 10
106.5853578418
 20
102.8431265016
 30
0.0
 10
106.5370186125
 20
102.4750480442
 30
0.0
 10
106.3561839597
 20
101.9338571542
 30
0.0
 10
106.076963683
 20
101.4111285615
 30
0.0
 10
105.7214949144
 20
100.948817586
 30
0.0
 10
105.3175676971
 20
100.5829435311
 30
0.0
 10
104.8946460904
 20
100.34224851
 30
0.0
 10
104.4793245076
 20
100.2463198015
 30
0.0
 10
104.2167906845
 20
100.3002431145
 30
0.0
 10
104.1104944116
 20
100.3543611914
 30
0.0
  0
SPLINE
  5
433
100
AcDbEntity
  8
0
100
AcDbSpline
 62
7
  6
CONTINUOUS
 70
0
 71
3
 72
11
 73
7
 74
0
 42
0.0000001
 43
0.0000001
 44
0.0000000001
 40
0.0
 40
0.0
 40
0.0
 40
0.0
 40
0.2894211689
 40
0.5491230857
 40
0.7822948837
 40
1.0
 40
1.0
 40
1.0
 40
1.0
 10
24.4709505112
 20
149.8733088034
 30
0.0
 10
24.4709505112
 20
149.8226915415
 30
0.0
 10
24.4787224463
 20
149.7263433122
 30
0.0
 10
24.5176120912
 20
149.5939035578
 30
0.0
 10
24.583360225
 20
149.4864300049
 30
0.0
 10
24.6451044741
 20
149.4345870332
 30
0.0
 10
24.678093289
 20
149.415575873
 30
0.0
  0
SPLINE
  5
434
100
AcDbEntity
  8
0
100
AcDbSpline
 62
7
  6
CONTINUOUS
 70
0
 71
3
 72
11
 73
7
 74
0
 42
0.0000001
 43
0.0000001
 44
0.0000000001
 40
0.0
 40
0.0
 40
0.0
 40
0.0
 40
0.2276128353
 40
0.4899579104
 40
0.7578693302
 40
1.0
 40
1.0
 40
1.0
 40
1.0
 10
25.2800513635
 20
155.2292012384
 30
0.0
 10
25.1692236096
 20
155.184144837
 30
0.0
 10
24.9533572593
 20
155.0323851696
 30
0.0
 10
24.7002413303
 20
154.7204062505
 30
0.0
 10
24.5230593126
 20
154.3512579525
 30
0.0
 10
24.4709505112
 20
154.083087716
 30
0.0
 10
24.4709505112
 20
153.9558205353
 30
0.0
  0
SPLINE
  5
435
100
AcDbEntity
  8
0
100
AcDbSpline
 62
7
  6
CONTINUOUS
 70
0
 71
3
 72
9
 73
5
 74
0
 42
0.0000001
 43
0.0000001
 44
0.0000000001
 40
0.0
 40
0.0
 40
0.0
 40
0.0
 40
0.2287551646
 40
1.0
 40
1.0
 40
1.0
 40
1.0
 10
86.3779353244
 20
187.9422468037
 30
0.0
 10
86.3561925186
 20
187.9547997345
 30
0.0
 10
86.2562817053
 20
188.0010939918
 30
0.0
 10
86.1443821638
 20
188.018433712
 30
0.0
 10
86.0597367242
 20
188.0183352056
 30
0.0
  0
SPLINE
  5
436
100
AcDbEntity
  8
0
100
AcDbSpline
 62
7
  6
CONTINUOUS
 70
0
 71
3
 72
9
 73
5
 74
0
 42
0.0000001
 43
0.0000001
 44
0.0000000001
 40
0.0
 40
0.0
 40
0.0
 40
0.0
 40
0.2296035099
 40
1.0
 40
1.0
 40
1.0
 40
1.0
 10
81.0140819492
 20
184.8518554577
 30
0.0
 10
80.9922361062
 20
184.8640351281
 30
0.0
 10
80.892532281
 20
184.9087570047
 30
0.0
 10
80.781479633
 20
184.9252196159
 30
0.0
 10
80.6975582973
 20
184.9247560311
 30
0.0
  0
SPLINE
  5
437
100
AcDbEntity
  8
0
100
AcDbSpline
 62
7
  6
CONTINUOUS
 70
0
 71
3
 72
8
 73
4
 74
0
 42
0.0000001
 43
0.0000001
 44
0.0000000001
 40
0.0
 40
0.0
 40
0.0
 40
0.0
 40
1.0
 40
1.0
 40
1.0
 40
1.0
 10
80.6975582973
 20
184.9247560311
 30
0.0
 10
80.6486260948
 20
184.9244857276
 30
0.0
 10
80.5994716849
 20
184.9196058997
 30
0.0
 10
80.5515152375
 20
184.909878996
 30
0.0
  0
SPLINE
  5
438
100
AcDbEntity
  8
0
100
AcDbSpline
 62
7
  6
CONTINUOUS
 70
0
 71
3
 72
10
 73
6
 74
0
 42
0.0000001
 43
0.0000001
 44
0.0000000001
 40
0.0
 40
0.0
 40
0.0
 40
0.0
 40
0.238587729
 40
0.5027833137
 40
1.0
 40
1.0
 40
1.0
 40
1.0
 10
81.0140819492
 20
185.3798263064
 30
0.0
 10
80.9678320044
 20
185.4046957528
 30
0.0
 10
80.8609105306
 20
185.4400430061
 30
0.0
 10
80.6413563709
 20
185.4587238901
 30
0.0
 10
80.4685904333
 20
185.4213630967
 30
0.0
 10
80.3738175991
 20
185.3666430537
 30
0.0
  0
SPLINE
  5
439
100
AcDbEntity
  8
0
100
AcDbSpline
 62
7
  6
CONTINUOUS
 70
0
 71
3
 72
11
 73
7
 74
0
 42
0.0000001
 43
0.0000001
 44
0.0000000001
 40
0.0
 40
0.0
 40
0.0
 40
0.0
 40
0.2365910307
 40
0.4997755827
 40
0.7628131874
 40
1.0
 40
1.0
 40
1.0
 40
1.0
 10
86.3779353244
 20
188.4703295825
 30
0.0
 10
86.3318494101
 20
188.496007814
 30
0.0
 10
86.2246720202
 20
188.5326266163
 30
0.0
 10
86.0539375625
 20
188.5483356616
 30
0.0
 10
85.8841453302
 20
188.5261610702
 30
0.0
 10
85.7773879663
 20
188.4876784581
 30
0.0
 10
85.7321580893
 20
188.4602635601
 30
0.0
  0
SPLINE
  5
43A
100
AcDbEntity
  8
0
100
AcDbSpline
 62
7
  6
CONTINUOUS
 70
0
 71
3
 72
9
 73
5
 74
0
 42
0.0000001
 43
0.0000001
 44
0.0000000001
 40
0.0
 40
0.0
 40
0.0
 40
0.0
 40
0.2287551646
 40
1.0
 40
1.0
 40
1.0
 40
1.0
 10
47.4872242776
 20
165.4888183408
 30
0.0
 10
47.4654814719
 20
165.5013712716
 30
0.0
 10
47.3655706585
 20
165.5476655289
 30
0.0
 10
47.2536711171
 20
165.5650052491
 30
0.0
 10
47.1690256774
 20
165.5649067426
 30
0.0
  0
SPLINE
  5
43B
100
AcDbEntity
  8
0
100
AcDbSpline
 62
7
  6
CONTINUOUS
 70
0
 71
3
 72
9
 73
5
 74
0
 42
0.0000001
 43
0.0000001
 44
0.0000000001
 40
0.0
 40
0.0
 40
0.0
 40
0.0
 40
0.2296035099
 40
1.0
 40
1.0
 40
1.0
 40
1.0
 10
42.1233709024
 20
162.3984269948
 30
0.0
 10
42.1015250595
 20
162.4106066652
 30
0.0
 10
42.0018212342
 20
162.4553285417
 30
0.0
 10
41.8907685863
 20
162.471791153
 30
0.0
 10
41.8068472505
 20
162.4713275681
 30
0.0
  0
SPLINE
  5
43C
100
AcDbEntity
  8
0
100
AcDbSpline
 62
7
  6
CONTINUOUS
 70
0
 71
3
 72
8
 73
4
 74
0
 42
0.0000001
 43
0.0000001
 44
0.0000000001
 40
0.0
 40
0.0
 40
0.0
 40
0.0
 40
1.0
 40
1.0
 40
1.0
 40
1.0
 10
41.8068472505
 20
162.4713275681
 30
0.0
 10
41.7579150481
 20
162.4710572647
 30
0.0
 10
41.7087606381
 20
162.4661774368
 30
0.0
 10
41.6608041908
 20
162.4564505331
 30
0.0
  0
SPLINE
  5
43D
100
AcDbEntity
  8
0
100
AcDbSpline
 62
7
  6
CONTINUOUS
 70
0
 71
3
 72
10
 73
6
 74
0
 42
0.0000001
 43
0.0000001
 44
0.0000000001
 40
0.0
 40
0.0
 40
0.0
 40
0.0
 40
0.238587729
 40
0.5027833137
 40
1.0
 40
1.0
 40
1.0
 40
1.0
 10
42.1233709024
 20
162.9263978434
 30
0.0
 10
42.0771209576
 20
162.9512672898
 30
0.0
 10
41.9701994839
 20
162.9866145432
 30
0.0
 10
41.7506453242
 20
163.0052954272
 30
0.0
 10
41.5778793865
 20
162.9679346337
 30
0.0
 10
41.4831065523
 20
162.9132145907
 30
0.0
  0
SPLINE
  5
43E
100
AcDbEntity
  8
0
100
AcDbSpline
 62
7
  6
CONTINUOUS
 70
0
 71
3
 72
11
 73
7
 74
0
 42
0.0000001
 43
0.0000001
 44
0.0000000001
 40
0.0
 40
0.0
 40
0.0
 40
0.0
 40
0.2365910307
 40
0.4997755827
 40
0.7628131874
 40
1.0
 40
1.0
 40
1.0
 40
1.0
 10
47.4872242776
 20
166.0169011196
 30
0.0
 10
47.4411383634
 20
166.0425793511
 30
0.0
 10
47.3339609734
 20
166.0791981534
 30
0.0
 10
47.1632265158
 20
166.0949071987
 30
0.0
 10
46.9934342834
 20
166.0727326072
 30
0.0
 10
46.8866769195
 20
166.0342499952
 30
0.0
 10
46.8414470425
 20
166.0068350971
 30
0.0
  0
SPLINE
  5
43F
100
AcDbEntity
  8
0
100
AcDbSpline
 62
7
  6
CONTINUOUS
 70
0
 71
3
 72
13
 73
9
 74
0
 42
0.0000001
 43
0.0000001
 44
0.0000000001
 40
0.0
 40
0.0
 40
0.0
 40
0.0
 40
0.3073411946
 40
0.5832108672
 40
0.703641807
 40
0.8114571042
 40
0.9087142514
 40
1.0
 40
1.0
 40
1.0
 40
1.0
 10
181.0761552038
 20
144.7902409217
 30
0.0
 10
180.9408678742
 20
144.5651473568
 30
0.0
 10
180.6374787908
 20
144.1643406117
 30
0.0
 10
180.1641149603
 20
143.7788500131
 30
0.0
 10
179.7695284271
 20
143.6001087438
 30
0.0
 10
179.4952290656
 20
143.5402433498
 30
0.0
 10
179.2388220402
 20
143.5529045879
 30
0.0
 10
179.0854115563
 20
143.6127762217
 30
0.0
 10
179.0187208785
 20
143.6532339776
 30
0.0
  0
SPLINE
  5
440
100
AcDbEntity
  8
0
100
AcDbSpline
 62
7
  6
CONTINUOUS
 70
0
 71
3
 72
11
 73
7
 74
0
 42
0.0000001
 43
0.0000001
 44
0.0000000001
 40
0.0
 40
0.0
 40
0.0
 40
0.0
 40
0.2178227751
 40
0.4506127356
 40
0.7099715597
 40
1.0
 40
1.0
 40
1.0
 40
1.0
 10
106.142301171
 20
103.9761901165
 30
0.0
 10
106.2125657352
 20
103.9375636395
 30
0.0
 10
106.3445956801
 20
103.8309078678
 30
0.0
 10
106.4853951387
 20
103.6062507269
 30
0.0
 10
106.568903981
 20
103.3279248324
 30
0.0
 10
106.5853578418
 20
103.1249833843
 30
0.0
 10
106.5853578418
 20
103.01822233
 30
0.0
  0
ELLIPSE
  5
441
100
AcDbEntity
  8
0
100
AcDbEllipse
 62
7
  6
CONTINUOUS
 10
68.3713803157
 20
113.4179892256
 30
0.0
 11
0.2499975358
 21
0.0019060512
 31
0.0
 40
0.5823581608
 41
-1.194911257
 42
-0.0044408853
  0
ELLIPSE
  5
442
100
AcDbEntity
  8
0
100
AcDbEllipse
 62
7
  6
CONTINUOUS
 10
68.3713803157
 20
112.4898495568
 30
0.0
 11
0.2499977019
 21
-0.0018730744
 31
0.0
 40
0.5722818953
 41
1.1924023748
 42
1.8928989714
  0
ELLIPSE
  5
443
100
AcDbEntity
  8
0
100
AcDbEllipse
 62
7
  6
CONTINUOUS
 10
69.3017297541
 20
111.6494027905
 30
0.0
 11
0.2499977019
 21
-0.0018730744
 31
0.0
 40
0.5722818953
 41
0.7896900461
 42
2.3292312844
  0
ELLIPSE
  5
444
100
AcDbEntity
  8
0
100
AcDbEllipse
 62
7
  6
CONTINUOUS
 10
70.7620801789
 20
111.1096095724
 30
0.0
 11
0.2499977019
 21
-0.0018730744
 31
0.0
 40
0.5722818953
 41
0.7896900461
 42
2.7655635974
  0
ELLIPSE
  5
445
100
AcDbEntity
  8
0
100
AcDbEllipse
 62
7
  6
CONTINUOUS
 10
72.1301451029
 20
113.2538773714
 30
0.0
 11
3.999963231
 21
-0.0299691898
 31
0.0
 40
0.5722818953
 41
-3.0270341404
 42
-2.8507450975
  0
ELLIPSE
  5
446
100
AcDbEntity
  8
0
100
AcDbEllipse
 62
7
  6
CONTINUOUS
 10
72.1301451029
 20
113.2538773714
 30
0.0
 11
3.999963231
 21
-0.0299691898
 31
0.0
 40
0.5722818953
 41
-2.7257247435
 42
-2.4144127845
  0
ELLIPSE
  5
447
100
AcDbEntity
  8
0
100
AcDbEllipse
 62
7
  6
CONTINUOUS
 10
72.1301451029
 20
113.2538773714
 30
0.0
 11
3.999963231
 21
-0.0299691898
 31
0.0
 40
0.5722818953
 41
-2.2893924305
 42
-1.9780804715
  0
ELLIPSE
  5
448
100
AcDbEntity
  8
0
100
AcDbEllipse
 62
7
  6
CONTINUOUS
 10
72.1301451029
 20
113.2538773714
 30
0.0
 11
3.999963231
 21
-0.0299691898
 31
0.0
 40
0.5722818953
 41
-1.8530601175
 42
-1.6767710745
  0
ELLIPSE
  5
449
100
AcDbEntity
  8
0
100
AcDbEllipse
 62
7
  6
CONTINUOUS
 10
72.1301451029
 20
114.233680272
 30
0.0
 11
3.9999605723
 21
0.0304968193
 31
0.0
 40
0.5823581608
 41
-3.0357618922
 42
-2.8594728493
  0
ELLIPSE
  5
44A
100
AcDbEntity
  8
0
100
AcDbEllipse
 62
7
  6
CONTINUOUS
 10
72.1301451029
 20
114.233680272
 30
0.0
 11
3.9999605723
 21
0.0304968193
 31
0.0
 40
0.5823581608
 41
-1.8617878693
 42
-1.6854988263
  0
ELLIPSE
  5
44B
100
AcDbEntity
  8
0
100
AcDbEllipse
 62
7
  6
CONTINUOUS
 10
70.7620801789
 20
112.0377492412
 30
0.0
 11
0.2499975358
 21
0.0019060512
 31
0.0
 40
0.5823581608
 41
6.2787455544
 42
9.0400211528
  0
ELLIPSE
  5
44C
100
AcDbEntity
  8
0
100
AcDbEllipse
 62
7
  6
CONTINUOUS
 10
72.1301451029
 20
114.233680272
 30
0.0
 11
3.9999605723
 21
0.0304968193
 31
0.0
 40
0.5823581608
 41
-2.2981201823
 42
-1.9868082233
  0
ELLIPSE
  5
44D
100
AcDbEntity
  8
0
100
AcDbEllipse
 62
7
  6
CONTINUOUS
 10
69.3017297541
 20
112.5722016219
 30
0.0
 11
0.2499975358
 21
0.0019060512
 31
0.0
 40
0.5823581608
 41
5.5246063632
 42
8.6036888398
  0
ELLIPSE
  5
44E
100
AcDbEntity
  8
0
100
AcDbEllipse
 62
7
  6
CONTINUOUS
 10
72.1301451029
 20
114.233680272
 30
0.0
 11
3.9999605723
 21
0.0304968193
 31
0.0
 40
0.5823581608
 41
-2.7344524953
 42
-2.4231405363
  0
ELLIPSE
  5
44F
100
AcDbEntity
  8
0
100
AcDbEllipse
 62
7
  6
CONTINUOUS
 10
68.3713803157
 20
113.4179892256
 30
0.0
 11
0.2499975358
 21
0.0019060512
 31
0.0
 40
0.5823581608
 41
0.7809622943
 42
1.8841712196
  0
ENDSEC
  0
SECTION
  2
OBJECTS
  0
DICTIONARY
  5
C
100
AcDbDictionary
280
0
281
1
  3
ACAD_GROUP
350
D
  3
ACAD_MLINESTYLE
350
17
  3
ACAD_LAYOUT
350
1A
  3
ACAD_PLOTSETTINGS
350
19
  3
ACAD_PLOTSTYLENAME
350
E
  0
DICTIONARY
  5
D
102
{ACAD_REACTORS
330
C
102
}
100
AcDbDictionary
280
0
281
1
  0
ACDBDICTIONARYWDFLT
  5
E
102
{ACAD_REACTORS
330
C
102
}
100
AcDbDictionary
281
1
  3
Normal
350
F
100
AcDbDictionaryWithDefault
340
F
  0
DICTIONARY
  5
17
102
{ACAD_REACTORS
330
C
102
}
100
AcDbDictionary
280
0
281
1
  3
Standard
350
18
  0
DICTIONARY
  5
19
102
{ACAD_REACTORS
330
C
102
}
100
AcDbDictionary
281
1
  0
DICTIONARY
  5
1A
102
{ACAD_REACTORS
330
C
102
}
100
AcDbDictionary
281
1
  3
Model
350
450
  3
Layout1
350
451
  0
ACDBPLACEHOLDER
  5
F
102
{ACAD_REACTORS
330
E
102
}
  0
MLINESTYLE
  5
18
102
{ACAD_REACTORS
330
17
102
}
100
AcDbMlineStyle
  2
STANDARD
 70
0
  3

 62
256
 51
90.0
 52
90.0
 71
2
 49
0.5
 62
256
  6
BYLAYER
 49
-0.5
 62
256
  6
BYLAYER
  0
LAYOUT
  5
450
102
{ACAD_REACTORS
330
1A
102
}
100
AcDbPlotSettings
  1

  2
none_device
  4

  6

 40
0.0
 41
0.0
 42
0.0
 43
0.0
 44
210.0
 45
297.0
 46
0.0
 47
0.0
 48
0.0
 49
0.0
140
0.0
141
0.0
142
1.0
143
1.0
 70
1024
 72
1
 73
0
 74
0
  7

 75
0
147
1.0
148
0.0
149
0.0
100
AcDbLayout
  1
Model
 70
0
 71
0
 10
0.0
 20
0.0
 11
210.0
 21
297.0
 12
0.0
 22
0.0
 32
0.0
 14
0.0
 24
0.0
 34
0.0
 15
0.0
 25
0.0
 35
0.0
146
0.0
 13
0.0
 23
0.0
 33
0.0
 16
1.0
 26
0.0
 36
0.0
 17
0.0
 27
1.0
 37
0.0
 76
0
330
210
345
0
346
0
  0
LAYOUT
  5
451
102
{ACAD_REACTORS
330
1A
102
}
100
AcDbPlotSettings
  1

  2
none_device
  4

  6

 40
0.0
 41
0.0
 42
0.0
 43
0.0
 44
210.0
 45
297.0
 46
0.0
 47
0.0
 48
0.0
 49
0.0
140
0.0
141
0.0
142
1.0
143
1.0
 70
0
 72
1
 73
0
 74
0
  7

 75
0
147
1.0
148
0.0
149
0.0
100
AcDbLayout
  1
Layout1
 70
0
 71
1
 10
0.0
 20
0.0
 11
210.0
 21
297.0
 12
0.0
 22
0.0
 32
0.0
 14
0.0
 24
0.0
 34
0.0
 15
0.0
 25
0.0
 35
0.0
146
0.0
 13
0.0
 23
0.0
 33
0.0
 16
1.0
 26
0.0
 36
0.0
 17
0.0
 27
1.0
 37
0.0
 76
0
330
211
345
0
346
0
  0
ENDSEC
  0
EOF
