999
DXF file: C:\Users\sesa63760\Dev\_Creo\CAD\MCADPD0004125_3D-CAD\drw0001_7.dxf
999
Pro/ENGINEER 2019471 by Parametric Technology Corporation
  0
SECTION
  2
HEADER
  9
$ACADVER
  1
AC1024
  9
$DWGCODEPAGE
  3
ANSI_1252
  9
$EXTMAX
 10
149.5357575758
 20
211.4862857143
 30
0.0
  9
$EXTMIN
 10
0.0
 20
0.0
 30
0.0
  9
$LIMMIN
 10
0.0
 20
0.0
  9
$LIMMAX
 10
149.5357575758
 20
211.4862857143
  9
$VIEWCTR
 10
74.7678787879
 20
105.7431428571
  9
$VIEWSIZE
 40
211.4862857143
  9
$CLAYER
  8
0
  9
$LTSCALE
 40
13.7857726984
  9
$CELTYPE
  6
BYLAYER
  9
$DIMSCALE
 40
1.0
  9
$DIMASZ
 40
1.7801875902
  9
$DIMEXO
 40
1.0
  9
$DIMDLI
 40
9.5247156825
  9
$DIMEXE
 40
1.0
  9
$DIMCEN
 40
2.2558537143
  9
$DIMLFAC
 40
1.0
  9
$DIMBLK
  1
_FILLED
  9
$DIMALT
 70
0
  9
$DIMALTF
 40
0.0393700787
  9
$DIMTXT
 40
2.4922626263
  9
$DIMTOL
 70
1
  9
$DIMLIM
 70
0
  9
$DIMTFAC
 40
1.0
  9
$DIMTP
 40
0.01
  9
$DIMTM
 40
0.01
  9
$DIMGAP
 40
0.625
  9
$DIMDSEP
 70
46
  9
$AUNITS
 70
0
  9
$PDMODE
 70
3
  9
$PDSIZE
 40
0.3125
  9
$HANDSEED
  5
421
  9
$TILEMODE
 70
1
  9
$MEASUREMENT
 70
1
  9
$INSUNITS
 70
4
  0
ENDSEC
  0
SECTION
  2
CLASSES
  0
CLASS
  1
ACDBDICTIONARYWDFLT
  2
AcDbDictionaryWithDefault
  3
AutoCAD 2000
 90
0
 91
1
280
0
281
0
  0
CLASS
  1
ACDBPLACEHOLDER
  2
AcDbPlaceHolder
  3
AutoCAD 2000
 90
0
 91
1
280
0
281
0
  0
CLASS
  1
LAYOUT
  2
AcDbLayout
  3
AutoCAD 2000
 90
0
 91
0
280
0
281
0
  0
ENDSEC
  0
SECTION
  2
TABLES
  0
TABLE
  2
VPORT
  5
8
100
AcDbSymbolTable
 70
2
  0
VPORT
  5
1F4
100
AcDbSymbolTableRecord
100
AcDbViewportTableRecord
  2
*ACTIVE
 70
0
 10
0.0
 20
0.0
 11
1.0
 21
1.0
 12
74.7678787879
 22
105.7431428571
 13
0.0
 23
0.0
 14
1.0
 24
1.0
 15
0.0
 25
0.0
 16
0.0
 26
0.0
 36
1.0
 17
0.0
 27
0.0
 37
0.0
 40
211.4862857143
 41
0.7070707071
 42
50.0
 43
0.0
 44
0.0
 50
0.0
 51
0.0
 71
0
 72
100
 73
1
 74
1
 75
0
 76
0
 77
0
 78
0
  0
ENDTAB
  0
TABLE
  2
LTYPE
  5
5
100
AcDbSymbolTable
 70
6
  0
LTYPE
  5
14
100
AcDbSymbolTableRecord
100
AcDbLinetypeTableRecord
  2
BYBLOCK
 70
0
  3

 72
65
 73
0
 40
0.0
  0
LTYPE
  5
15
100
AcDbSymbolTableRecord
100
AcDbLinetypeTableRecord
  2
BYLAYER
 70
0
  3

 72
65
 73
0
 40
0.0
  0
LTYPE
  5
16
100
AcDbSymbolTableRecord
100
AcDbLinetypeTableRecord
  2
CONTINUOUS
 70
64
  3
Solid line
 72
65
 73
0
 40
0.0
  0
LTYPE
  5
1F5
100
AcDbSymbolTableRecord
100
AcDbLinetypeTableRecord
  2
CENTER
 70
64
  3
____ _ ____ _ ____ _ ____ _ ____ _ ____ _ ____
 72
65
 73
4
 40
0.6
 49
0.375
 74
0
 49
-0.075
 74
0
 49
0.075
 74
0
 49
-0.075
 74
0
  0
LTYPE
  5
1F6
100
AcDbSymbolTableRecord
100
AcDbLinetypeTableRecord
  2
HIDDEN
 70
64
  3
- - - - - - - - - - - - - - - - - - - -
 72
65
 73
2
 40
0.2
 49
0.1
 74
0
 49
-0.1
 74
0
  0
LTYPE
  5
1F7
100
AcDbSymbolTableRecord
100
AcDbLinetypeTableRecord
  2
PHANTOM
 70
64
  3
_____ _ _ _____ _ _ _____ _ _ _____
 72
65
 73
6
 40
0.8
 49
0.45
 74
0
 49
-0.05
 74
0
 49
0.1
 74
0
 49
-0.05
 74
0
 49
0.1
 74
0
 49
-0.05
 74
0
  0
LTYPE
  5
1F8
100
AcDbSymbolTableRecord
100
AcDbLinetypeTableRecord
  2
DOT
 70
64
  3
. . . . . . . . . . . . . . . . . . . .
 72
65
 73
2
 40
0.2
 49
0.1
 74
0
 49
-0.1
 74
0
  0
LTYPE
  5
1F9
100
AcDbSymbolTableRecord
100
AcDbLinetypeTableRecord
  2
DASHED
 70
64
  3
- - - - - - - - - - - - - - - - - - - -
 72
65
 73
2
 40
0.2
 49
0.1
 74
0
 49
-0.1
 74
0
  0
ENDTAB
  0
TABLE
  2
LAYER
  5
2
100
AcDbSymbolTable
 70
36
  0
LAYER
  5
10
100
AcDbSymbolTableRecord
100
AcDbLayerTableRecord
  2
0
 70
0
 62
7
  6
CONTINUOUS
370
-3
390
F
  0
LAYER
  5
1FA
100
AcDbSymbolTableRecord
100
AcDbLayerTableRecord
  2
DEFAULT_1
 70
0
 62
7
  6
CENTER
370
-3
390
F
  0
LAYER
  5
1FB
100
AcDbSymbolTableRecord
100
AcDbLayerTableRecord
  2
DEFAULT_2
 70
0
 62
7
  6
HIDDEN
370
-3
390
F
  0
LAYER
  5
1FC
100
AcDbSymbolTableRecord
100
AcDbLayerTableRecord
  2
DEFAULT_3
 70
0
 62
7
  6
PHANTOM
370
-3
390
F
  0
LAYER
  5
1FD
100
AcDbSymbolTableRecord
100
AcDbLayerTableRecord
  2
00_COMPONENTS
 70
0
 62
7
  6
CONTINUOUS
370
-3
390
F
  0
LAYER
  5
1FE
100
AcDbSymbolTableRecord
100
AcDbLayerTableRecord
  2
01_1_DEFAULT_DATUMS
 70
0
 62
7
  6
CONTINUOUS
370
-3
390
F
  0
LAYER
  5
1FF
100
AcDbSymbolTableRecord
100
AcDbLayerTableRecord
  2
01_PLANES
 70
0
 62
7
  6
CONTINUOUS
370
-3
390
F
  0
LAYER
  5
200
100
AcDbSymbolTableRecord
100
AcDbLayerTableRecord
  2
02_COORD_SYS
 70
0
 62
7
  6
CONTINUOUS
370
-3
390
F
  0
LAYER
  5
201
100
AcDbSymbolTableRecord
100
AcDbLayerTableRecord
  2
03_AXES
 70
0
 62
7
  6
CONTINUOUS
370
-3
390
F
  0
LAYER
  5
202
100
AcDbSymbolTableRecord
100
AcDbLayerTableRecord
  2
04_POINTS
 70
0
 62
7
  6
CONTINUOUS
370
-3
390
F
  0
LAYER
  5
203
100
AcDbSymbolTableRecord
100
AcDbLayerTableRecord
  2
05_CURVES
 70
0
 62
7
  6
CONTINUOUS
370
-3
390
F
  0
LAYER
  5
204
100
AcDbSymbolTableRecord
100
AcDbLayerTableRecord
  2
06_SURFS
 70
0
 62
7
  6
CONTINUOUS
370
-3
390
F
  0
LAYER
  5
205
100
AcDbSymbolTableRecord
100
AcDbLayerTableRecord
  2
07_COSMETICS
 70
0
 62
7
  6
CONTINUOUS
370
-3
390
F
  0
LAYER
  5
206
100
AcDbSymbolTableRecord
100
AcDbLayerTableRecord
  2
10_NOTES
 70
0
 62
7
  6
CONTINUOUS
370
-3
390
F
  0
LAYER
  5
207
100
AcDbSymbolTableRecord
100
AcDbLayerTableRecord
  2
11_NOTES_PUB
 70
0
 62
7
  6
CONTINUOUS
370
-3
390
F
  0
LAYER
  5
208
100
AcDbSymbolTableRecord
100
AcDbLayerTableRecord
  2
13_REF_GTOL
 70
0
 62
7
  6
CONTINUOUS
370
-3
390
F
  0
LAYER
  5
209
100
AcDbSymbolTableRecord
100
AcDbLayerTableRecord
  2
16_MISC
 70
0
 62
7
  6
CONTINUOUS
370
-3
390
F
  0
LAYER
  5
20A
100
AcDbSymbolTableRecord
100
AcDbLayerTableRecord
  2
17_NO_PRINT
 70
0
 62
7
  6
CONTINUOUS
370
-3
390
F
  0
LAYER
  5
20B
100
AcDbSymbolTableRecord
100
AcDbLayerTableRecord
  2
18_DATUM_CAMS_JOINTS
 70
0
 62
7
  6
CONTINUOUS
370
-3
390
F
  0
LAYER
  5
20C
100
AcDbSymbolTableRecord
100
AcDbLayerTableRecord
  2
19_DATUM_FUNCTIONAL
 70
0
 62
7
  6
CONTINUOUS
370
-3
390
F
  0
LAYER
  5
20D
100
AcDbSymbolTableRecord
100
AcDbLayerTableRecord
  2
20_DATUM_KINEMATIC_SCHEME
 70
0
 62
7
  6
CONTINUOUS
370
-3
390
F
  0
ENDTAB
  0
TABLE
  2
STYLE
  5
3
100
AcDbSymbolTable
 70
1
  0
STYLE
  5
11
100
AcDbSymbolTableRecord
100
AcDbTextStyleTableRecord
  2
STANDARD
 70
0
 40
0.0
 41
1.0
 50
0.0
 71
0
 42
0.2
  3
ARIAL.TTF
  4

  0
STYLE
  5
20E
100
AcDbSymbolTableRecord
100
AcDbTextStyleTableRecord
  2
TEXTSTYLE_1
 70
0
 40
0.0
 41
0.8
 50
0.0
 71
0
 42
0.2
  3
gdt
  4

  0
ENDTAB
  0
TABLE
  2
VIEW
  5
6
100
AcDbSymbolTable
 70
0
  0
ENDTAB
  0
TABLE
  2
UCS
  5
7
100
AcDbSymbolTable
 70
0
  0
ENDTAB
  0
TABLE
  2
APPID
  5
9
100
AcDbSymbolTable
 70
1
  0
APPID
  5
20F
100
AcDbSymbolTableRecord
100
AcDbRegAppTableRecord
  2
ACAD
 70
0
  0
ENDTAB
  0
TABLE
  2
BLOCK_RECORD
  5
1
100
AcDbSymbolTable
 70
0
  0
BLOCK_RECORD
  5
210
100
AcDbSymbolTableRecord
100
AcDbBlockTableRecord
  2
*Model_Space
  0
BLOCK_RECORD
  5
211
100
AcDbSymbolTableRecord
100
AcDbBlockTableRecord
  2
*Paper_Space
  0
BLOCK_RECORD
  5
212
100
AcDbSymbolTableRecord
100
AcDbBlockTableRecord
  2
_FILLED
  0
ENDTAB
  0
TABLE
  2
DIMSTYLE
  5
A
100
AcDbSymbolTable
 70
1
100
AcDbDimStyleTable
 71
0
  0
DIMSTYLE
105
213
100
AcDbSymbolTableRecord
100
AcDbDimStyleTableRecord
  2
STANDARD
 70
0
  3

  4

 40
1.0
 41
1.7801875902
 42
1.0
 43
0.38
 44
1.0
 45
0.0
 46
0.0
 47
0.01
 48
0.01
140
2.4922626263
141
0.09
142
0.0
143
25.4
144
1.0
145
0.0
146
1.0
147
0.625
 71
1
 72
0
 73
0
 74
0
 75
0
 76
0
 77
1
 78
8
 79
2
170
0
171
1
172
0
173
0
174
0
175
0
176
0
177
0
178
0
270
2
179
2
271
2
272
2
273
2
274
2
275
0
280
0
281
0
282
0
283
1
284
8
285
0
286
0
287
3
288
0
340
11
278
46
341
212
342
212
343
212
344
212
  0
ENDTAB
  0
ENDSEC
  0
SECTION
  2
BLOCKS
  0
BLOCK
  5
20
100
AcDbEntity
  8
0
100
AcDbBlockBegin
  2
*Model_Space
 70
0
 10
0.0
 20
0.0
 30
0.0
  3
*Model_Space
  1

  0
ENDBLK
  5
21
100
AcDbEntity
  8
0
100
AcDbBlockEnd
  0
BLOCK
  5
1C
100
AcDbEntity
  8
0
100
AcDbBlockBegin
  2
*Paper_Space
 70
0
 10
0.0
 20
0.0
 30
0.0
  3
*Paper_Space
  1

  0
ENDBLK
  5
1D
100
AcDbEntity
  8
0
100
AcDbBlockEnd
  0
BLOCK
  5
214
100
AcDbEntity
  8
0
100
AcDbBlockBegin
  2
_FILLED
 70
64
 10
0.0
 20
0.0
  3
_FILLED
  1

  0
SOLID
  5
215
100
AcDbEntity
  8
0
  6
BYBLOCK
 62
0
100
AcDbTrace
 10
0.0
 20
0.0
 11
-1.0
 21
0.25
 12
-1.0
 22
-0.25
 13
-1.0
 23
-0.25
  0
ENDBLK
  5
216
100
AcDbEntity
  8
0
  6
BYBLOCK
 62
0
100
AcDbBlockEnd
  0
ENDSEC
  0
SECTION
  2
ENTITIES
  0
LINE
  5
217
100
AcDbEntity
  8
0
100
AcDbLine
 62
7
  6
BYLAYER
 10
104.9267359307
 20
18.1608571429
 11
117.2767359307
 21
18.1608571429
  0
LINE
  5
218
100
AcDbEntity
  8
0
100
AcDbLine
 62
7
  6
BYLAYER
 10
84.6767359307
 20
24.5108571429
 11
76.6767359307
 21
24.5108571429
  0
LINE
  5
219
100
AcDbEntity
  8
0
100
AcDbLine
 62
7
  6
BYLAYER
 10
86.7767359307
 20
24.9108571429
 11
84.6767359307
 21
24.9108571429
  0
LINE
  5
21A
100
AcDbEntity
  8
0
100
AcDbLine
 62
7
  6
BYLAYER
 10
76.6767359307
 20
24.9108571429
 11
61.2767359307
 21
24.9108571429
  0
LINE
  5
21B
100
AcDbEntity
  8
0
100
AcDbLine
 62
7
  6
BYLAYER
 10
105.2281863481
 20
25.0608571429
 11
100.5635566237
 21
25.0608571429
  0
LINE
  5
21C
100
AcDbEntity
  8
0
100
AcDbLine
 62
7
  6
BYLAYER
 10
37.006008082
 20
25.0608571429
 11
32.7767359307
 21
25.0608571429
  0
LINE
  5
21D
100
AcDbEntity
  8
0
100
AcDbLine
 62
7
  6
BYLAYER
 10
53.6567359307
 20
25.0608571429
 11
60.3967359307
 21
25.0608571429
  0
LINE
  5
21E
100
AcDbEntity
  8
0
100
AcDbLine
 62
7
  6
BYLAYER
 10
77.1567359307
 20
25.0608571429
 11
83.8967359307
 21
25.0608571429
  0
LINE
  5
21F
100
AcDbEntity
  8
0
100
AcDbLine
 62
7
  6
BYLAYER
 10
61.8767359307
 20
26.2667389272
 11
77.1567359307
 21
26.2667389272
  0
LINE
  5
220
100
AcDbEntity
  8
0
100
AcDbLine
 62
7
  6
BYLAYER
 10
83.8967359307
 20
26.2667389272
 11
85.8767359307
 21
26.2667389272
  0
LINE
  5
221
100
AcDbEntity
  8
0
100
AcDbLine
 62
7
  6
BYLAYER
 10
100.6002106316
 20
27.8608571429
 11
86.7767359307
 21
27.8608571429
  0
LINE
  5
222
100
AcDbEntity
  8
0
100
AcDbLine
 62
7
  6
BYLAYER
 10
61.2767359307
 20
27.8608571429
 11
60.3967359307
 21
27.8608571429
  0
LINE
  5
223
100
AcDbEntity
  8
0
100
AcDbLine
 62
7
  6
BYLAYER
 10
100.6028286365
 20
28.0608465642
 11
101.5781863481
 21
28.0608571429
  0
LINE
  5
224
100
AcDbEntity
  8
0
100
AcDbLine
 62
7
  6
BYLAYER
 10
35.9867359307
 20
28.0608571429
 11
36.9667359307
 21
28.0608571429
  0
LINE
  5
225
100
AcDbEntity
  8
0
100
AcDbLine
 62
7
  6
BYLAYER
 10
50.8767359307
 20
28.4107614958
 11
53.6567359307
 21
28.4107614958
  0
LINE
  5
226
100
AcDbEntity
  8
0
100
AcDbLine
 62
7
  6
BYLAYER
 10
60.3967359307
 20
28.4107614958
 11
61.8767359307
 21
28.4107614958
  0
LINE
  5
227
100
AcDbEntity
  8
0
100
AcDbLine
 62
7
  6
BYLAYER
 10
76.0341733465
 20
28.4107614958
 11
77.1567359307
 21
28.4107614958
  0
LINE
  5
228
100
AcDbEntity
  8
0
100
AcDbLine
 62
7
  6
BYLAYER
 10
83.8967359307
 20
28.4107614958
 11
85.0192985149
 21
28.4107614958
  0
LINE
  5
229
100
AcDbEntity
  8
0
100
AcDbLine
 62
7
  6
BYLAYER
 10
85.8767359307
 20
28.4107614958
 11
101.5781863481
 21
28.4107614958
  0
LINE
  5
22A
100
AcDbEntity
  8
0
100
AcDbLine
 62
7
  6
BYLAYER
 10
82.123096687
 20
29.5608571429
 11
79.2303751745
 21
29.5608571429
  0
LINE
  5
22B
100
AcDbEntity
  8
0
100
AcDbLine
 62
7
  6
BYLAYER
 10
58.323096687
 20
29.5608571429
 11
55.4303751745
 21
29.5608571429
  0
LINE
  5
22C
100
AcDbEntity
  8
0
100
AcDbLine
 62
7
  6
BYLAYER
 10
35.9867359307
 20
29.9106104079
 11
50.8767359307
 21
29.9106104079
  0
LINE
  5
22D
100
AcDbEntity
  8
0
100
AcDbLine
 62
7
  6
BYLAYER
 10
96.8767359307
 20
29.9106104079
 11
101.5781863481
 21
29.9106104079
  0
LINE
  5
22E
100
AcDbEntity
  8
0
100
AcDbLine
 62
7
  6
BYLAYER
 10
97.2767359307
 20
34.3608571429
 11
87.2767359307
 21
34.3608571429
  0
LINE
  5
22F
100
AcDbEntity
  8
0
100
AcDbLine
 62
7
  6
BYLAYER
 10
73.7767359307
 20
34.3608571429
 11
63.7767359307
 21
34.3608571429
  0
LINE
  5
230
100
AcDbEntity
  8
0
100
AcDbLine
 62
7
  6
BYLAYER
 10
50.2767359307
 20
34.3608571429
 11
40.2767359307
 21
34.3608571429
  0
LINE
  5
231
100
AcDbEntity
  8
0
100
AcDbLine
 62
7
  6
BYLAYER
 10
117.2767359307
 20
36.3608571429
 11
113.3267359307
 21
36.3608571429
  0
LINE
  5
232
100
AcDbEntity
  8
0
100
AcDbLine
 62
7
  6
BYLAYER
 10
40.2767359307
 20
36.3608571429
 11
40.3767359307
 21
36.3608571429
  0
LINE
  5
233
100
AcDbEntity
  8
0
100
AcDbLine
 62
7
  6
BYLAYER
 10
50.1767359307
 20
36.3608571429
 11
50.2767359307
 21
36.3608571429
  0
LINE
  5
234
100
AcDbEntity
  8
0
100
AcDbLine
 62
7
  6
BYLAYER
 10
63.7767359307
 20
36.3608571429
 11
63.8767359307
 21
36.3608571429
  0
LINE
  5
235
100
AcDbEntity
  8
0
100
AcDbLine
 62
7
  6
BYLAYER
 10
73.6767359307
 20
36.3608571429
 11
73.7767359307
 21
36.3608571429
  0
LINE
  5
236
100
AcDbEntity
  8
0
100
AcDbLine
 62
7
  6
BYLAYER
 10
87.2767359307
 20
36.3608571429
 11
87.3767359307
 21
36.3608571429
  0
LINE
  5
237
100
AcDbEntity
  8
0
100
AcDbLine
 62
7
  6
BYLAYER
 10
97.1767359307
 20
36.3608571429
 11
97.2767359307
 21
36.3608571429
  0
LINE
  5
238
100
AcDbEntity
  8
0
100
AcDbLine
 62
7
  6
BYLAYER
 10
36.2267359307
 20
36.8608571429
 11
37.2767359307
 21
36.8608571429
  0
LINE
  5
239
100
AcDbEntity
  8
0
100
AcDbLine
 62
7
  6
BYLAYER
 10
53.6567359307
 20
36.8608571429
 11
53.8767359307
 21
36.8608571429
  0
LINE
  5
23A
100
AcDbEntity
  8
0
100
AcDbLine
 62
7
  6
BYLAYER
 10
60.1767359307
 20
36.8608571429
 11
60.3967359307
 21
36.8608571429
  0
LINE
  5
23B
100
AcDbEntity
  8
0
100
AcDbLine
 62
7
  6
BYLAYER
 10
76.0341733465
 20
36.8608571429
 11
77.3767359307
 21
36.8608571429
  0
LINE
  5
23C
100
AcDbEntity
  8
0
100
AcDbLine
 62
7
  6
BYLAYER
 10
83.6767359307
 20
36.8608571429
 11
85.0192985149
 21
36.8608571429
  0
LINE
  5
23D
100
AcDbEntity
  8
0
100
AcDbLine
 62
7
  6
BYLAYER
 10
100.592344216
 20
36.8608571429
 11
100.8375642345
 21
36.8608571429
  0
LINE
  5
23E
100
AcDbEntity
  8
0
100
AcDbLine
 62
7
  6
BYLAYER
 10
55.9304180143
 20
37.0608571429
 11
57.8230538471
 21
37.0608571429
  0
LINE
  5
23F
100
AcDbEntity
  8
0
100
AcDbLine
 62
7
  6
BYLAYER
 10
79.7304180143
 20
37.0608571429
 11
81.6230538471
 21
37.0608571429
  0
LINE
  5
240
100
AcDbEntity
  8
0
100
AcDbLine
 62
7
  6
BYLAYER
 10
104.4781863481
 20
39.4608571429
 11
105.2281863481
 21
39.4608571429
  0
LINE
  5
241
100
AcDbEntity
  8
0
100
AcDbLine
 62
7
  6
BYLAYER
 10
113.3267359307
 20
39.4608571429
 11
114.0767359307
 21
39.4608571429
  0
LINE
  5
242
100
AcDbEntity
  8
0
100
AcDbLine
 62
7
  6
BYLAYER
 10
35.5067359307
 20
40.2608571429
 11
36.2267359307
 21
40.2608571429
  0
LINE
  5
243
100
AcDbEntity
  8
0
100
AcDbLine
 62
7
  6
BYLAYER
 10
53.8767359307
 20
40.2608571429
 11
55.1166370046
 21
40.2608571429
  0
LINE
  5
244
100
AcDbEntity
  8
0
100
AcDbLine
 62
7
  6
BYLAYER
 10
56.8636452137
 20
40.2608571429
 11
60.1767359307
 21
40.2608571429
  0
LINE
  5
245
100
AcDbEntity
  8
0
100
AcDbLine
 62
7
  6
BYLAYER
 10
77.3767359307
 20
40.2608571429
 11
80.873096687
 21
40.2608571429
  0
LINE
  5
246
100
AcDbEntity
  8
0
100
AcDbLine
 62
7
  6
BYLAYER
 10
82.5267359307
 20
40.2608571429
 11
83.6767359307
 21
40.2608571429
  0
LINE
  5
247
100
AcDbEntity
  8
0
100
AcDbLine
 62
7
  6
BYLAYER
 10
100.8375642345
 20
40.2608571429
 11
104.4781163359
 21
40.2608571429
  0
LINE
  5
248
100
AcDbEntity
  8
0
100
AcDbLine
 62
7
  6
BYLAYER
 10
114.0767359307
 20
41.0608571429
 11
113.3267359307
 21
41.0608571429
  0
LINE
  5
249
100
AcDbEntity
  8
0
100
AcDbLine
 62
7
  6
BYLAYER
 10
105.2267359307
 20
41.0608571429
 11
104.4781863481
 21
41.0608571429
  0
LINE
  5
24A
100
AcDbEntity
  8
0
100
AcDbLine
 62
7
  6
BYLAYER
 10
41.3767359307
 20
42.6608571429
 11
49.1767359307
 21
42.6608571429
  0
LINE
  5
24B
100
AcDbEntity
  8
0
100
AcDbLine
 62
7
  6
BYLAYER
 10
64.8767359307
 20
42.6608571429
 11
72.6767359307
 21
42.6608571429
  0
LINE
  5
24C
100
AcDbEntity
  8
0
100
AcDbLine
 62
7
  6
BYLAYER
 10
88.3767359307
 20
42.6608571429
 11
96.1767359307
 21
42.6608571429
  0
LINE
  5
24D
100
AcDbEntity
  8
0
100
AcDbLine
 62
7
  6
BYLAYER
 10
41.3767359307
 20
46.6608571429
 11
49.1767359307
 21
46.6608571429
  0
LINE
  5
24E
100
AcDbEntity
  8
0
100
AcDbLine
 62
7
  6
BYLAYER
 10
64.8767359307
 20
46.6608571429
 11
72.6767359307
 21
46.6608571429
  0
LINE
  5
24F
100
AcDbEntity
  8
0
100
AcDbLine
 62
7
  6
BYLAYER
 10
88.3767359307
 20
46.6608571429
 11
96.1767359307
 21
46.6608571429
  0
LINE
  5
250
100
AcDbEntity
  8
0
100
AcDbLine
 62
7
  6
BYLAYER
 10
112.0267359307
 20
48.1608571429
 11
106.5267359307
 21
48.1608571429
  0
LINE
  5
251
100
AcDbEntity
  8
0
100
AcDbLine
 62
7
  6
BYLAYER
 10
113.3267359307
 20
49.3608571429
 11
112.0267359307
 21
49.3608571429
  0
LINE
  5
252
100
AcDbEntity
  8
0
100
AcDbLine
 62
7
  6
BYLAYER
 10
104.8967359307
 20
49.3608571429
 11
106.5267359307
 21
49.3608571429
  0
LINE
  5
253
100
AcDbEntity
  8
0
100
AcDbLine
 62
7
  6
BYLAYER
 10
113.3267359307
 20
50.7608571429
 11
112.0267359307
 21
50.7608571429
  0
LINE
  5
254
100
AcDbEntity
  8
0
100
AcDbLine
 62
7
  6
BYLAYER
 10
106.5267359307
 20
50.7608571429
 11
104.8967359307
 21
50.7608571429
  0
LINE
  5
255
100
AcDbEntity
  8
0
100
AcDbLine
 62
7
  6
BYLAYER
 10
83.2667359307
 20
54.5108571429
 11
82.5267359307
 21
54.5108571429
  0
LINE
  5
256
100
AcDbEntity
  8
0
100
AcDbLine
 62
7
  6
BYLAYER
 10
80.8067359307
 20
54.5108571429
 11
77.8667359307
 21
54.5108571429
  0
LINE
  5
257
100
AcDbEntity
  8
0
100
AcDbLine
 62
7
  6
BYLAYER
 10
59.6967359307
 20
54.5108571429
 11
56.8636452137
 21
54.5108571429
  0
LINE
  5
258
100
AcDbEntity
  8
0
100
AcDbLine
 62
7
  6
BYLAYER
 10
55.1166370046
 20
54.5108571429
 11
54.2867359307
 21
54.5108571429
  0
LINE
  5
259
100
AcDbEntity
  8
0
100
AcDbLine
 62
7
  6
BYLAYER
 10
36.1967359307
 20
54.5108571429
 11
35.5067359307
 21
54.5108571429
  0
LINE
  5
25A
100
AcDbEntity
  8
0
100
AcDbLine
 62
7
  6
BYLAYER
 10
101.1595317472
 20
54.5108571429
 11
102.0183709503
 21
54.5108571429
  0
LINE
  5
25B
100
AcDbEntity
  8
0
100
AcDbLine
 62
7
  6
BYLAYER
 10
41.4467859309
 20
54.7408571429
 11
44.6767859309
 21
54.7408571429
  0
LINE
  5
25C
100
AcDbEntity
  8
0
100
AcDbLine
 62
7
  6
BYLAYER
 10
45.8767859309
 20
54.7408571429
 11
49.1067859309
 21
54.7408571429
  0
LINE
  5
25D
100
AcDbEntity
  8
0
100
AcDbLine
 62
7
  6
BYLAYER
 10
64.9467859309
 20
54.7408571429
 11
68.1767859309
 21
54.7408571429
  0
LINE
  5
25E
100
AcDbEntity
  8
0
100
AcDbLine
 62
7
  6
BYLAYER
 10
69.3767859309
 20
54.7408571429
 11
72.6067859309
 21
54.7408571429
  0
LINE
  5
25F
100
AcDbEntity
  8
0
100
AcDbLine
 62
7
  6
BYLAYER
 10
88.4467859309
 20
54.7408571429
 11
91.6767859309
 21
54.7408571429
  0
LINE
  5
260
100
AcDbEntity
  8
0
100
AcDbLine
 62
7
  6
BYLAYER
 10
92.8767859309
 20
54.7408571429
 11
96.1067859309
 21
54.7408571429
  0
LINE
  5
261
100
AcDbEntity
  8
0
100
AcDbLine
 62
7
  6
BYLAYER
 10
92.8767859309
 20
55.9408571429
 11
91.6767859309
 21
55.9408571429
  0
LINE
  5
262
100
AcDbEntity
  8
0
100
AcDbLine
 62
7
  6
BYLAYER
 10
69.3767859309
 20
55.9408571429
 11
68.1767859309
 21
55.9408571429
  0
LINE
  5
263
100
AcDbEntity
  8
0
100
AcDbLine
 62
7
  6
BYLAYER
 10
45.8767859309
 20
55.9408571429
 11
44.6767859309
 21
55.9408571429
  0
LINE
  5
264
100
AcDbEntity
  8
0
100
AcDbLine
 62
7
  6
BYLAYER
 10
102.5567359307
 20
57.5108571429
 11
101.1595317472
 21
57.5108571429
  0
LINE
  5
265
100
AcDbEntity
  8
0
100
AcDbLine
 62
7
  6
BYLAYER
 10
34.3267359307
 20
57.5108571429
 11
36.1967359307
 21
57.5108571429
  0
LINE
  5
266
100
AcDbEntity
  8
0
100
AcDbLine
 62
7
  6
BYLAYER
 10
54.2867359307
 20
57.5108571429
 11
55.1166370046
 21
57.5108571429
  0
LINE
  5
267
100
AcDbEntity
  8
0
100
AcDbLine
 62
7
  6
BYLAYER
 10
58.5067359307
 20
57.5108571429
 11
59.6967359307
 21
57.5108571429
  0
LINE
  5
268
100
AcDbEntity
  8
0
100
AcDbLine
 62
7
  6
BYLAYER
 10
77.8667359307
 20
57.5108571429
 11
79.0567359307
 21
57.5108571429
  0
LINE
  5
269
100
AcDbEntity
  8
0
100
AcDbLine
 62
7
  6
BYLAYER
 10
82.5267359307
 20
57.5108571429
 11
83.2667359307
 21
57.5108571429
  0
LINE
  5
26A
100
AcDbEntity
  8
0
100
AcDbLine
 62
7
  6
BYLAYER
 10
35.5743967222
 20
57.7408571429
 11
54.8672368011
 21
57.7408571429
  0
LINE
  5
26B
100
AcDbEntity
  8
0
100
AcDbLine
 62
7
  6
BYLAYER
 10
59.0743967222
 20
57.7408571429
 11
78.3672368011
 21
57.7408571429
  0
LINE
  5
26C
100
AcDbEntity
  8
0
100
AcDbLine
 62
7
  6
BYLAYER
 10
82.5743967222
 20
57.7408571429
 11
101.8672368011
 21
57.7408571429
  0
LINE
  5
26D
100
AcDbEntity
  8
0
100
AcDbLine
 62
7
  6
BYLAYER
 10
112.0267359307
 20
58.2608571429
 11
106.5267359307
 21
58.2608571429
  0
LINE
  5
26E
100
AcDbEntity
  8
0
100
AcDbLine
 62
7
  6
BYLAYER
 10
107.5267359307
 20
60.2608571429
 11
111.0267359307
 21
60.2608571429
  0
LINE
  5
26F
100
AcDbEntity
  8
0
100
AcDbLine
 62
7
  6
BYLAYER
 10
32.7767359307
 20
18.1818358986
 11
32.7767359307
 21
94.5608571429
  0
LINE
  5
270
100
AcDbEntity
  8
0
100
AcDbLine
 62
7
  6
BYLAYER
 10
33.8267359307
 20
23.4699459665
 11
33.8267359307
 21
25.0608571429
  0
LINE
  5
271
100
AcDbEntity
  8
0
100
AcDbLine
 62
7
  6
BYLAYER
 10
34.3267359307
 20
61.2608571429
 11
34.3267359307
 21
57.5108571429
  0
LINE
  5
272
100
AcDbEntity
  8
0
100
AcDbLine
 62
7
  6
BYLAYER
 10
35.5067359307
 20
54.5108571429
 11
35.5067359307
 21
40.2608571429
  0
LINE
  5
273
100
AcDbEntity
  8
0
100
AcDbLine
 62
7
  6
BYLAYER
 10
35.5743967222
 20
61.2408571429
 11
35.5743967222
 21
57.7408571429
  0
LINE
  5
274
100
AcDbEntity
  8
0
100
AcDbLine
 62
7
  6
BYLAYER
 10
101.8672368011
 20
61.2408571429
 11
83.2667359307
 21
61.2408571429
  0
LINE
  5
275
100
AcDbEntity
  8
0
100
AcDbLine
 62
7
  6
BYLAYER
 10
77.8667359307
 20
61.2408571429
 11
59.6967359307
 21
61.2408571429
  0
LINE
  5
276
100
AcDbEntity
  8
0
100
AcDbLine
 62
7
  6
BYLAYER
 10
54.2867359307
 20
61.2408571429
 11
36.3567359307
 21
61.2408571429
  0
LINE
  5
277
100
AcDbEntity
  8
0
100
AcDbLine
 62
7
  6
BYLAYER
 10
83.2667359307
 20
61.2608571429
 11
82.5267359307
 21
61.2608571429
  0
LINE
  5
278
100
AcDbEntity
  8
0
100
AcDbLine
 62
7
  6
BYLAYER
 10
79.0567359307
 20
61.2608571429
 11
77.8667359307
 21
61.2608571429
  0
LINE
  5
279
100
AcDbEntity
  8
0
100
AcDbLine
 62
7
  6
BYLAYER
 10
59.6967359307
 20
61.2608571429
 11
58.5067359307
 21
61.2608571429
  0
LINE
  5
27A
100
AcDbEntity
  8
0
100
AcDbLine
 62
7
  6
BYLAYER
 10
55.1166370046
 20
61.2608571429
 11
54.2867359307
 21
61.2608571429
  0
LINE
  5
27B
100
AcDbEntity
  8
0
100
AcDbLine
 62
7
  6
BYLAYER
 10
36.3567359307
 20
61.2608571429
 11
34.3267359307
 21
61.2608571429
  0
LINE
  5
27C
100
AcDbEntity
  8
0
100
AcDbLine
 62
7
  6
BYLAYER
 10
101.1595317472
 20
61.2708571429
 11
102.5567359307
 21
61.2708571429
  0
LINE
  5
27D
100
AcDbEntity
  8
0
100
AcDbLine
 62
7
  6
BYLAYER
 10
104.8967359307
 20
61.4608571429
 11
107.5267359307
 21
61.4608571429
  0
LINE
  5
27E
100
AcDbEntity
  8
0
100
AcDbLine
 62
7
  6
BYLAYER
 10
111.0267359307
 20
61.4608571429
 11
113.6567359307
 21
61.4608571429
  0
LINE
  5
27F
100
AcDbEntity
  8
0
100
AcDbLine
 62
7
  6
BYLAYER
 10
111.0267359307
 20
61.9908571429
 11
107.5267359307
 21
61.9908571429
  0
LINE
  5
280
100
AcDbEntity
  8
0
100
AcDbLine
 62
7
  6
BYLAYER
 10
111.6267359307
 20
62.6908571429
 11
111.0267359307
 21
62.6908571429
  0
LINE
  5
281
100
AcDbEntity
  8
0
100
AcDbLine
 62
7
  6
BYLAYER
 10
107.5267359307
 20
62.6908571429
 11
106.9267359307
 21
62.6908571429
  0
LINE
  5
282
100
AcDbEntity
  8
0
100
AcDbLine
 62
7
  6
BYLAYER
 10
106.9267359307
 20
64.1708571429
 11
111.6267359307
 21
64.1708571429
  0
LINE
  5
283
100
AcDbEntity
  8
0
100
AcDbLine
 62
7
  6
BYLAYER
 10
77.4149215847
 20
64.2608571429
 11
80.8730985984
 21
64.2608571429
  0
LINE
  5
284
100
AcDbEntity
  8
0
100
AcDbLine
 62
7
  6
BYLAYER
 10
82.5267359307
 20
64.2608571429
 11
83.5749215847
 21
64.2608571429
  0
LINE
  5
285
100
AcDbEntity
  8
0
100
AcDbLine
 62
7
  6
BYLAYER
 10
53.9149215795
 20
64.2608678461
 11
55.1166370046
 21
64.2608678461
  0
LINE
  5
286
100
AcDbEntity
  8
0
100
AcDbLine
 62
7
  6
BYLAYER
 10
56.8636452137
 20
64.2608577508
 11
60.0749215596
 21
64.2608687969
  0
LINE
  5
287
100
AcDbEntity
  8
0
100
AcDbLine
 62
7
  6
BYLAYER
 10
117.2767359307
 20
64.4608571429
 11
113.6500692641
 21
64.4608571429
  0
LINE
  5
288
100
AcDbEntity
  8
0
100
AcDbLine
 62
7
  6
BYLAYER
 10
83.2931863481
 20
64.5608571429
 11
77.6581863481
 21
64.5608571429
  0
LINE
  5
289
100
AcDbEntity
  8
0
100
AcDbLine
 62
7
  6
BYLAYER
 10
104.8967359307
 20
65.1608571429
 11
104.4781863481
 21
65.1608571429
  0
LINE
  5
28A
100
AcDbEntity
  8
0
100
AcDbLine
 62
7
  6
BYLAYER
 10
58.3798343722
 20
65.3077587014
 11
55.3736374893
 21
65.3077587014
  0
LINE
  5
28B
100
AcDbEntity
  8
0
100
AcDbLine
 62
7
  6
BYLAYER
 10
101.0403698943
 20
66.7608571429
 11
97.0767359308
 21
66.7608571429
  0
LINE
  5
28C
100
AcDbEntity
  8
0
100
AcDbLine
 62
7
  6
BYLAYER
 10
87.4767359308
 20
66.7608571429
 11
83.5131019672
 21
66.7608571429
  0
LINE
  5
28D
100
AcDbEntity
  8
0
100
AcDbLine
 62
7
  6
BYLAYER
 10
77.5403698943
 20
66.7608571429
 11
73.5767359307
 21
66.7608571429
  0
LINE
  5
28E
100
AcDbEntity
  8
0
100
AcDbLine
 62
7
  6
BYLAYER
 10
63.9767359307
 20
66.7608571429
 11
60.069524257
 21
66.7608571429
  0
LINE
  5
28F
100
AcDbEntity
  8
0
100
AcDbLine
 62
7
  6
BYLAYER
 10
53.9136909237
 20
66.7608571429
 11
50.0767359307
 21
66.7608571429
  0
LINE
  5
290
100
AcDbEntity
  8
0
100
AcDbLine
 62
7
  6
BYLAYER
 10
40.4767359307
 20
66.7608571429
 11
36.5131019672
 21
66.7608571429
  0
LINE
  5
291
100
AcDbEntity
  8
0
100
AcDbLine
 62
7
  6
BYLAYER
 10
36.9667359307
 20
28.0608571429
 11
37.006008082
 21
25.0608571429
  0
LINE
  5
292
100
AcDbEntity
  8
0
100
AcDbLine
 62
7
  6
BYLAYER
 10
35.9867359307
 20
30.0608571429
 11
35.9867359307
 21
28.0608571429
  0
LINE
  5
293
100
AcDbEntity
  8
0
100
AcDbLine
 62
7
  6
BYLAYER
 10
36.1967359307
 20
57.5108571429
 11
36.1967359307
 21
54.5108571429
  0
LINE
  5
294
100
AcDbEntity
  8
0
100
AcDbLine
 62
7
  6
BYLAYER
 10
36.2267359307
 20
40.2608571429
 11
36.2267359307
 21
36.8608571429
  0
LINE
  5
295
100
AcDbEntity
  8
0
100
AcDbLine
 62
7
  6
BYLAYER
 10
36.3567359307
 20
91.3308571429
 11
36.3567359307
 21
61.2608571429
  0
LINE
  5
296
100
AcDbEntity
  8
0
100
AcDbLine
 62
7
  6
BYLAYER
 10
36.5131019672
 20
66.7608571429
 11
36.5131019672
 21
69.1608571429
  0
LINE
  5
297
100
AcDbEntity
  8
0
100
AcDbLine
 62
7
  6
BYLAYER
 10
36.6267359307
 20
103.8781095021
 11
36.6267359307
 21
86.9608571429
  0
LINE
  5
298
100
AcDbEntity
  8
0
100
AcDbLine
 62
7
  6
BYLAYER
 10
37.2767359307
 20
36.8608571429
 11
37.2767359307
 21
31.3508571429
  0
LINE
  5
299
100
AcDbEntity
  8
0
100
AcDbLine
 62
7
  6
BYLAYER
 10
37.618747784
 20
186.8608571429
 11
37.618747784
 21
188.8608571429
  0
LINE
  5
29A
100
AcDbEntity
  8
0
100
AcDbLine
 62
7
  6
BYLAYER
 10
37.6267359307
 20
103.2185039085
 11
37.6267359307
 21
186.8608571429
  0
LINE
  5
29B
100
AcDbEntity
  8
0
100
AcDbLine
 62
7
  6
BYLAYER
 10
37.6767359307
 20
188.8608571429
 11
37.6767359307
 21
196.8608571429
  0
LINE
  5
29C
100
AcDbEntity
  8
0
100
AcDbLine
 62
7
  6
BYLAYER
 10
38.0267359307
 20
98.7756968118
 11
38.0267359307
 21
103.3381830285
  0
LINE
  5
29D
100
AcDbEntity
  8
0
100
AcDbLine
 62
7
  6
BYLAYER
 10
38.518747784
 20
191.1608571429
 11
38.518747784
 21
189.1608571429
  0
LINE
  5
29E
100
AcDbEntity
  8
0
100
AcDbLine
 62
7
  6
BYLAYER
 10
38.618747784
 20
188.8608571429
 11
38.618747784
 21
186.8608571429
  0
LINE
  5
29F
100
AcDbEntity
  8
0
100
AcDbLine
 62
7
  6
BYLAYER
 10
39.7767364632
 20
87.1363816152
 11
39.7767364632
 21
88.6290563489
  0
LINE
  5
2A0
100
AcDbEntity
  8
0
100
AcDbLine
 62
7
  6
BYLAYER
 10
39.818747784
 20
189.1608571429
 11
39.818747784
 21
191.1608571429
  0
LINE
  5
2A1
100
AcDbEntity
  8
0
100
AcDbLine
 62
7
  6
BYLAYER
 10
40.2767359307
 20
34.3608571429
 11
40.2767359307
 21
36.3608571429
  0
LINE
  5
2A2
100
AcDbEntity
  8
0
100
AcDbLine
 62
7
  6
BYLAYER
 10
40.318747784
 20
191.1608571429
 11
40.318747784
 21
188.8608571429
  0
LINE
  5
2A3
100
AcDbEntity
  8
0
100
AcDbLine
 62
7
  6
BYLAYER
 10
40.3267359307
 20
182.3608571429
 11
40.3267359307
 21
183.8608571429
  0
LINE
  5
2A4
100
AcDbEntity
  8
0
100
AcDbLine
 62
7
  6
BYLAYER
 10
40.3767359307
 20
45.6608571429
 11
40.3767359307
 21
36.3608571429
  0
LINE
  5
2A5
100
AcDbEntity
  8
0
100
AcDbLine
 62
7
  6
BYLAYER
 10
40.7767359307
 20
69.1608571429
 11
40.7767359307
 21
67.0608571429
  0
LINE
  5
2A6
100
AcDbEntity
  8
0
100
AcDbLine
 62
7
  6
BYLAYER
 10
41.4467859309
 20
54.7408571429
 11
41.4467859309
 21
57.7408571429
  0
LINE
  5
2A7
100
AcDbEntity
  8
0
100
AcDbLine
 62
7
  6
BYLAYER
 10
42.2258272525
 20
57.7408571429
 11
42.2258272525
 21
61.2408571429
  0
LINE
  5
2A8
100
AcDbEntity
  8
0
100
AcDbLine
 62
7
  6
BYLAYER
 10
43.1663871292
 20
180.3608571429
 11
40.1267359307
 21
122.3608571429
  0
LINE
  5
2A9
100
AcDbEntity
  8
0
100
AcDbLine
 62
7
  6
BYLAYER
 10
104.4667359307
 20
67.2608571429
 11
104.8967359307
 21
67.2608571429
  0
LINE
  5
2AA
100
AcDbEntity
  8
0
100
AcDbLine
 62
7
  6
BYLAYER
 10
113.6500692641
 20
67.2608571429
 11
114.0767359307
 21
67.2608571429
  0
LINE
  5
2AB
100
AcDbEntity
  8
0
100
AcDbLine
 62
7
  6
BYLAYER
 10
94.2765174503
 20
67.3408571429
 11
90.2770544114
 21
67.3408571429
  0
LINE
  5
2AC
100
AcDbEntity
  8
0
100
AcDbLine
 62
7
  6
BYLAYER
 10
70.7765174503
 20
67.3408571429
 11
66.7770544114
 21
67.3408571429
  0
LINE
  5
2AD
100
AcDbEntity
  8
0
100
AcDbLine
 62
7
  6
BYLAYER
 10
47.2765174504
 20
67.3408571429
 11
43.2770544114
 21
67.3408571429
  0
LINE
  5
2AE
100
AcDbEntity
  8
0
100
AcDbLine
 62
7
  6
BYLAYER
 10
105.2267359307
 20
68.8608571429
 11
104.4767359307
 21
68.8608571429
  0
LINE
  5
2AF
100
AcDbEntity
  8
0
100
AcDbLine
 62
7
  6
BYLAYER
 10
77.6581863481
 20
69.1608571429
 11
60.0643428224
 21
69.1608571429
  0
LINE
  5
2B0
100
AcDbEntity
  8
0
100
AcDbLine
 62
7
  6
BYLAYER
 10
53.9125094891
 20
69.1608571429
 11
36.3567359307
 21
69.1608571429
  0
LINE
  5
2B1
100
AcDbEntity
  8
0
100
AcDbLine
 62
7
  6
BYLAYER
 10
83.3266716494
 20
69.1608571429
 11
100.1594460674
 21
69.1608571429
  0
LINE
  5
2B2
100
AcDbEntity
  8
0
100
AcDbLine
 62
7
  6
BYLAYER
 10
114.0667359307
 20
69.2908571429
 11
113.3167359307
 21
69.2908571429
  0
LINE
  5
2B3
100
AcDbEntity
  8
0
100
AcDbLine
 62
7
  6
BYLAYER
 10
96.0267359307
 20
71.6608571429
 11
83.2931863481
 21
71.6608571429
  0
LINE
  5
2B4
100
AcDbEntity
  8
0
100
AcDbLine
 62
7
  6
BYLAYER
 10
101.5781863481
 20
30.0608571429
 11
100.5923120889
 21
31.0466415226
  0
LINE
  5
2B5
100
AcDbEntity
  8
0
100
AcDbLine
 62
7
  6
BYLAYER
 10
43.2767859309
 20
67.3408571429
 11
43.2767859309
 21
61.2408571429
  0
LINE
  5
2B6
100
AcDbEntity
  8
0
100
AcDbLine
 62
7
  6
BYLAYER
 10
43.3617859309
 20
54.7408571429
 11
43.3617859309
 21
57.7408571429
  0
LINE
  5
2B7
100
AcDbEntity
  8
0
100
AcDbLine
 62
7
  6
BYLAYER
 10
43.4267359307
 20
179.7608571429
 11
43.4267359307
 21
177.7608571429
  0
LINE
  5
2B8
100
AcDbEntity
  8
0
100
AcDbLine
 62
7
  6
BYLAYER
 10
44.118747784
 20
186.8608571429
 11
44.118747784
 21
188.8608571429
  0
LINE
  5
2B9
100
AcDbEntity
  8
0
100
AcDbLine
 62
7
  6
BYLAYER
 10
44.418747784
 20
188.8608571429
 11
44.418747784
 21
186.8608571429
  0
LINE
  5
2BA
100
AcDbEntity
  8
0
100
AcDbLine
 62
7
  6
BYLAYER
 10
44.6767859309
 20
55.9408571429
 11
44.6767859309
 21
54.7408571429
  0
LINE
  5
2BB
100
AcDbEntity
  8
0
100
AcDbLine
 62
7
  6
BYLAYER
 10
45.818747784
 20
186.8608571429
 11
45.818747784
 21
188.8608571429
  0
LINE
  5
2BC
100
AcDbEntity
  8
0
100
AcDbLine
 62
7
  6
BYLAYER
 10
45.8767859309
 20
55.9408571429
 11
45.8767859309
 21
54.7408571429
  0
LINE
  5
2BD
100
AcDbEntity
  8
0
100
AcDbLine
 62
7
  6
BYLAYER
 10
46.118747784
 20
188.8608571429
 11
46.118747784
 21
186.8608571429
  0
LINE
  5
2BE
100
AcDbEntity
  8
0
100
AcDbLine
 62
7
  6
BYLAYER
 10
46.2767355284
 20
88.6290563489
 11
46.2767355284
 21
87.1363816152
  0
LINE
  5
2BF
100
AcDbEntity
  8
0
100
AcDbLine
 62
7
  6
BYLAYER
 10
46.5267359307
 20
177.7608571429
 11
46.5267359307
 21
179.7608571429
  0
LINE
  5
2C0
100
AcDbEntity
  8
0
100
AcDbLine
 62
7
  6
BYLAYER
 10
46.5267359307
 20
180.3608571429
 11
46.5267359307
 21
182.3608571429
  0
LINE
  5
2C1
100
AcDbEntity
  8
0
100
AcDbLine
 62
7
  6
BYLAYER
 10
46.5267359307
 20
183.8608571429
 11
46.5267359307
 21
186.8608571429
  0
LINE
  5
2C2
100
AcDbEntity
  8
0
100
AcDbLine
 62
7
  6
BYLAYER
 10
47.1917859309
 20
54.7408571429
 11
47.1917859309
 21
57.7408571429
  0
LINE
  5
2C3
100
AcDbEntity
  8
0
100
AcDbLine
 62
7
  6
BYLAYER
 10
47.2767859309
 20
61.2408571429
 11
47.2767859309
 21
67.3408571429
  0
LINE
  5
2C4
100
AcDbEntity
  8
0
100
AcDbLine
 62
7
  6
BYLAYER
 10
48.0267359307
 20
86.9608571429
 11
48.0267359307
 21
103.3381830285
  0
LINE
  5
2C5
100
AcDbEntity
  8
0
100
AcDbLine
 62
7
  6
BYLAYER
 10
48.2256883779
 20
61.2408571429
 11
48.2256883779
 21
57.7408571429
  0
LINE
  5
2C6
100
AcDbEntity
  8
0
100
AcDbLine
 62
7
  6
BYLAYER
 10
48.5267359307
 20
122.3608571429
 11
48.5267359307
 21
124.0977823721
  0
LINE
  5
2C7
100
AcDbEntity
  8
0
100
AcDbLine
 62
7
  6
BYLAYER
 10
48.5267359307
 20
124.6239319136
 11
48.5267359307
 21
186.8608571429
  0
LINE
  5
2C8
100
AcDbEntity
  8
0
100
AcDbLine
 62
7
  6
BYLAYER
 10
49.1067859309
 20
54.7408571429
 11
49.1067859309
 21
57.7408571429
  0
LINE
  5
2C9
100
AcDbEntity
  8
0
100
AcDbLine
 62
7
  6
BYLAYER
 10
106.1287332389
 20
74.3008571429
 11
108.5017359307
 21
74.3008571429
  0
LINE
  5
2CA
100
AcDbEntity
  8
0
100
AcDbLine
 62
7
  6
BYLAYER
 10
109.8017359307
 20
74.3008571429
 11
112.1747386226
 21
74.3008571429
  0
LINE
  5
2CB
100
AcDbEntity
  8
0
100
AcDbLine
 62
7
  6
BYLAYER
 10
106.0517359307
 20
75.6008571429
 11
106.1287332389
 21
75.6008571429
  0
LINE
  5
2CC
100
AcDbEntity
  8
0
100
AcDbLine
 62
7
  6
BYLAYER
 10
108.5017359307
 20
75.6008571429
 11
109.8017359307
 21
75.6008571429
  0
LINE
  5
2CD
100
AcDbEntity
  8
0
100
AcDbLine
 62
7
  6
BYLAYER
 10
112.1747386226
 20
75.6008571429
 11
112.2517359307
 21
75.6008571429
  0
LINE
  5
2CE
100
AcDbEntity
  8
0
100
AcDbLine
 62
7
  6
BYLAYER
 10
104.8967359307
 20
75.7708571429
 11
105.2267359307
 21
75.7708571429
  0
LINE
  5
2CF
100
AcDbEntity
  8
0
100
AcDbLine
 62
7
  6
BYLAYER
 10
113.3167359307
 20
75.7708571429
 11
113.6467359307
 21
75.7708571429
  0
LINE
  5
2D0
100
AcDbEntity
  8
0
100
AcDbLine
 62
7
  6
BYLAYER
 10
83.2931863481
 20
76.6852127958
 11
77.6581863481
 21
76.6852127958
  0
LINE
  5
2D1
100
AcDbEntity
  8
0
100
AcDbLine
 62
7
  6
BYLAYER
 10
104.8967359307
 20
77.1008571429
 11
113.4017359307
 21
77.1008571429
  0
LINE
  5
2D2
100
AcDbEntity
  8
0
100
AcDbLine
 62
7
  6
BYLAYER
 10
104.8967359307
 20
78.3008571429
 11
113.6467359307
 21
78.3008571429
  0
LINE
  5
2D3
100
AcDbEntity
  8
0
100
AcDbLine
 62
7
  6
BYLAYER
 10
113.6467359307
 20
78.9408571429
 11
113.8249871108
 21
78.9408571429
  0
LINE
  5
2D4
100
AcDbEntity
  8
0
100
AcDbLine
 62
7
  6
BYLAYER
 10
53.9181311487
 20
57.7408571429
 11
53.9267359307
 21
40.2608571429
  0
LINE
  5
2D5
100
AcDbEntity
  8
0
100
AcDbLine
 62
7
  6
BYLAYER
 10
53.9164082233
 20
61.2408571429
 11
53.901595987
 21
91.3308571429
  0
LINE
  5
2D6
100
AcDbEntity
  8
0
100
AcDbLine
 62
7
  6
BYLAYER
 10
49.7767359307
 20
67.0608571429
 11
49.7767359307
 21
69.1608571429
  0
LINE
  5
2D7
100
AcDbEntity
  8
0
100
AcDbLine
 62
7
  6
BYLAYER
 10
50.018747784
 20
188.8608571429
 11
50.018747784
 21
191.1608571429
  0
LINE
  5
2D8
100
AcDbEntity
  8
0
100
AcDbLine
 62
7
  6
BYLAYER
 10
50.1767359307
 20
36.3608571429
 11
50.1767359307
 21
45.6608571429
  0
LINE
  5
2D9
100
AcDbEntity
  8
0
100
AcDbLine
 62
7
  6
BYLAYER
 10
50.2767359307
 20
36.3608571429
 11
50.2767359307
 21
34.3608571429
  0
LINE
  5
2DA
100
AcDbEntity
  8
0
100
AcDbLine
 62
7
  6
BYLAYER
 10
50.8767359307
 20
29.9106104079
 11
50.8767359307
 21
28.4107614958
  0
LINE
  5
2DB
100
AcDbEntity
  8
0
100
AcDbLine
 62
7
  6
BYLAYER
 10
51.268747784
 20
192.3608571429
 11
51.268747784
 21
191.1608571429
  0
LINE
  5
2DC
100
AcDbEntity
  8
0
100
AcDbLine
 62
7
  6
BYLAYER
 10
51.618747784
 20
186.8608571429
 11
51.618747784
 21
188.8608571429
  0
LINE
  5
2DD
100
AcDbEntity
  8
0
100
AcDbLine
 62
7
  6
BYLAYER
 10
52.618747784
 20
188.8608571429
 11
52.618747784
 21
186.8608571429
  0
LINE
  5
2DE
100
AcDbEntity
  8
0
100
AcDbLine
 62
7
  6
BYLAYER
 10
53.6567359307
 20
25.0608571429
 11
53.6567359307
 21
36.8608571429
  0
LINE
  5
2DF
100
AcDbEntity
  8
0
100
AcDbLine
 62
7
  6
BYLAYER
 10
53.8767359307
 20
36.8608571429
 11
53.8767359307
 21
40.2608571429
  0
LINE
  5
2E0
100
AcDbEntity
  8
0
100
AcDbLine
 62
7
  6
BYLAYER
 10
54.2867359307
 20
54.5108571429
 11
54.2867359307
 21
57.5108571429
  0
LINE
  5
2E1
100
AcDbEntity
  8
0
100
AcDbLine
 62
7
  6
BYLAYER
 10
54.2867359307
 20
61.2608571429
 11
54.2867359307
 21
64.2608678461
  0
LINE
  5
2E2
100
AcDbEntity
  8
0
100
AcDbLine
 62
7
  6
BYLAYER
 10
54.8672368011
 20
61.2408571429
 11
54.8672368011
 21
57.7408571429
  0
LINE
  5
2E3
100
AcDbEntity
  8
0
100
AcDbLine
 62
7
  6
BYLAYER
 10
55.1166370046
 20
64.2608678461
 11
55.1166370046
 21
40.2608571429
  0
LINE
  5
2E4
100
AcDbEntity
  8
0
100
AcDbLine
 62
7
  6
BYLAYER
 10
55.1187359307
 20
186.8608571429
 11
55.1187359307
 21
196.8608571429
  0
LINE
  5
2E5
100
AcDbEntity
  8
0
100
AcDbLine
 62
7
  6
BYLAYER
 10
55.3736374893
 20
65.3077587014
 11
55.3736374893
 21
83.8139555843
  0
LINE
  5
2E6
100
AcDbEntity
  8
0
100
AcDbLine
 62
7
  6
BYLAYER
 10
55.4303751745
 20
25.0608571429
 11
55.4303751745
 21
36.5608571429
  0
LINE
  5
2E7
100
AcDbEntity
  8
0
100
AcDbLine
 62
7
  6
BYLAYER
 10
55.6267359307
 20
29.5608571429
 11
55.6267359307
 21
25.0608571429
  0
LINE
  5
2E8
100
AcDbEntity
  8
0
100
AcDbLine
 62
7
  6
BYLAYER
 10
112.0267359307
 20
81.0608571429
 11
106.5267359307
 21
81.0608571429
  0
LINE
  5
2E9
100
AcDbEntity
  8
0
100
AcDbLine
 62
7
  6
BYLAYER
 10
85.4859026955
 20
82.4608571429
 11
88.3767359307
 21
82.4608571429
  0
LINE
  5
2EA
100
AcDbEntity
  8
0
100
AcDbLine
 62
7
  6
BYLAYER
 10
89.6767359307
 20
82.4608571429
 11
92.567569166
 21
82.4608571429
  0
LINE
  5
2EB
100
AcDbEntity
  8
0
100
AcDbLine
 62
7
  6
BYLAYER
 10
107.0267359307
 20
83.2608571429
 11
111.5267359307
 21
83.2608571429
  0
LINE
  5
2EC
100
AcDbEntity
  8
0
100
AcDbLine
 62
7
  6
BYLAYER
 10
85.4267359307
 20
83.7608571429
 11
85.4859026955
 21
83.7608571429
  0
LINE
  5
2ED
100
AcDbEntity
  8
0
100
AcDbLine
 62
7
  6
BYLAYER
 10
88.3767359307
 20
83.7608571429
 11
89.6767359307
 21
83.7608571429
  0
LINE
  5
2EE
100
AcDbEntity
  8
0
100
AcDbLine
 62
7
  6
BYLAYER
 10
92.567569166
 20
83.7608571429
 11
92.6267359307
 21
83.7608571429
  0
LINE
  5
2EF
100
AcDbEntity
  8
0
100
AcDbLine
 62
7
  6
BYLAYER
 10
55.3736374893
 20
83.8139555843
 11
58.3798343722
 21
83.8139555843
  0
LINE
  5
2F0
100
AcDbEntity
  8
0
100
AcDbLine
 62
7
  6
BYLAYER
 10
96.0267359307
 20
85.2608571429
 11
83.2931863481
 21
85.2608571429
  0
LINE
  5
2F1
100
AcDbEntity
  8
0
100
AcDbLine
 62
7
  6
BYLAYER
 10
111.5267359307
 20
86.2608571429
 11
107.0267359307
 21
86.2608571429
  0
LINE
  5
2F2
100
AcDbEntity
  8
0
100
AcDbLine
 62
7
  6
BYLAYER
 10
36.6267359307
 20
86.9608571429
 11
48.0267359307
 21
86.9608571429
  0
LINE
  5
2F3
100
AcDbEntity
  8
0
100
AcDbLine
 62
7
  6
BYLAYER
 10
60.021595987
 20
88.9608571429
 11
60.0814415566
 21
61.2408571429
  0
LINE
  5
2F4
100
AcDbEntity
  8
0
100
AcDbLine
 62
7
  6
BYLAYER
 10
60.0889978154
 20
57.7408571429
 11
60.1267359307
 21
40.2608571429
  0
LINE
  5
2F5
100
AcDbEntity
  8
0
100
AcDbLine
 62
7
  6
BYLAYER
 10
56.811595987
 20
91.3308571429
 11
56.811595987
 21
88.9608571429
  0
LINE
  5
2F6
100
AcDbEntity
  8
0
100
AcDbLine
 62
7
  6
BYLAYER
 10
56.8636452137
 20
40.2608571429
 11
56.8636452137
 21
64.2608577508
  0
LINE
  5
2F7
100
AcDbEntity
  8
0
100
AcDbLine
 62
7
  6
BYLAYER
 10
58.1267359307
 20
29.5608571429
 11
58.1267359307
 21
25.0608571429
  0
LINE
  5
2F8
100
AcDbEntity
  8
0
100
AcDbLine
 62
7
  6
BYLAYER
 10
58.323096687
 20
36.5608571429
 11
58.323096687
 21
25.0608571429
  0
LINE
  5
2F9
100
AcDbEntity
  8
0
100
AcDbLine
 62
7
  6
BYLAYER
 10
58.3798343722
 20
83.8139555843
 11
58.3798343722
 21
65.3077587014
  0
LINE
  5
2FA
100
AcDbEntity
  8
0
100
AcDbLine
 62
7
  6
BYLAYER
 10
58.5067359307
 20
61.2608571429
 11
58.5067359307
 21
57.5108571429
  0
LINE
  5
2FB
100
AcDbEntity
  8
0
100
AcDbLine
 62
7
  6
BYLAYER
 10
59.0743967222
 20
61.2408571429
 11
59.0743967222
 21
57.7408571429
  0
LINE
  5
2FC
100
AcDbEntity
  8
0
100
AcDbLine
 62
7
  6
BYLAYER
 10
59.6967359307
 20
64.2608674961
 11
59.6967359307
 21
61.2608571429
  0
LINE
  5
2FD
100
AcDbEntity
  8
0
100
AcDbLine
 62
7
  6
BYLAYER
 10
59.6967359307
 20
57.5108571429
 11
59.6967359307
 21
54.5108571429
  0
LINE
  5
2FE
100
AcDbEntity
  8
0
100
AcDbLine
 62
7
  6
BYLAYER
 10
60.1767359307
 20
40.2608571429
 11
60.1767359307
 21
36.8608571429
  0
LINE
  5
2FF
100
AcDbEntity
  8
0
100
AcDbLine
 62
7
  6
BYLAYER
 10
60.3967359307
 20
36.8608571429
 11
60.3967359307
 21
25.0608571429
  0
LINE
  5
300
100
AcDbEntity
  8
0
100
AcDbLine
 62
7
  6
BYLAYER
 10
61.2767359307
 20
24.9108571429
 11
61.2767359307
 21
27.8608571429
  0
LINE
  5
301
100
AcDbEntity
  8
0
100
AcDbLine
 62
7
  6
BYLAYER
 10
61.8767359307
 20
28.4107614958
 11
61.8767359307
 21
26.2667389272
  0
LINE
  5
302
100
AcDbEntity
  8
0
100
AcDbLine
 62
7
  6
BYLAYER
 10
113.8267359307
 20
88.9608571429
 11
105.2267359307
 21
88.9608571429
  0
LINE
  5
303
100
AcDbEntity
  8
0
100
AcDbLine
 62
7
  6
BYLAYER
 10
56.811595987
 20
88.9608571429
 11
60.021595987
 21
88.9608571429
  0
LINE
  5
304
100
AcDbEntity
  8
0
100
AcDbLine
 62
7
  6
BYLAYER
 10
83.2931863481
 20
89.0608571429
 11
77.6581863481
 21
89.0608571429
  0
LINE
  5
305
100
AcDbEntity
  8
0
100
AcDbLine
 62
7
  6
BYLAYER
 10
97.0281863481
 20
89.0608571429
 11
100.2781863481
 21
89.0608571429
  0
LINE
  5
306
100
AcDbEntity
  8
0
100
AcDbLine
 62
7
  6
BYLAYER
 10
48.0267359307
 20
90.1066352998
 11
36.6267359307
 21
90.1066352998
  0
LINE
  5
307
100
AcDbEntity
  8
0
100
AcDbLine
 62
7
  6
BYLAYER
 10
36.6267359307
 20
90.5561993307
 11
48.0267359307
 21
90.5561993307
  0
LINE
  5
308
100
AcDbEntity
  8
0
100
AcDbLine
 62
7
  6
BYLAYER
 10
32.7767359307
 20
91.3308571429
 11
36.3567359307
 21
91.3308571429
  0
LINE
  5
309
100
AcDbEntity
  8
0
100
AcDbLine
 62
7
  6
BYLAYER
 10
53.901595987
 20
91.3308571429
 11
56.811595987
 21
91.3308571429
  0
LINE
  5
30A
100
AcDbEntity
  8
0
100
AcDbLine
 62
7
  6
BYLAYER
 10
82.0267359307
 20
91.5608571429
 11
96.0267359307
 21
91.5608571429
  0
LINE
  5
30B
100
AcDbEntity
  8
0
100
AcDbLine
 62
7
  6
BYLAYER
 10
102.2767359307
 20
92.3608571429
 11
106.2767359307
 21
92.3608571429
  0
LINE
  5
30C
100
AcDbEntity
  8
0
100
AcDbLine
 62
7
  6
BYLAYER
 10
48.0267359307
 20
93.5758501522
 11
36.6267359307
 21
93.5758501522
  0
LINE
  5
30D
100
AcDbEntity
  8
0
100
AcDbLine
 62
7
  6
BYLAYER
 10
36.6267359307
 20
93.7950357256
 11
48.0267359307
 21
93.7950357256
  0
LINE
  5
30E
100
AcDbEntity
  8
0
100
AcDbLine
 62
7
  6
BYLAYER
 10
63.7767359307
 20
34.3608571429
 11
63.7767359307
 21
36.3608571429
  0
LINE
  5
30F
100
AcDbEntity
  8
0
100
AcDbLine
 62
7
  6
BYLAYER
 10
63.8767359307
 20
45.6608571429
 11
63.8767359307
 21
36.3608571429
  0
LINE
  5
310
100
AcDbEntity
  8
0
100
AcDbLine
 62
7
  6
BYLAYER
 10
64.2767359307
 20
69.1608571429
 11
64.2767359307
 21
67.0608571429
  0
LINE
  5
311
100
AcDbEntity
  8
0
100
AcDbLine
 62
7
  6
BYLAYER
 10
64.918747784
 20
187.0611861045
 11
64.918747784
 21
194.4221066425
  0
LINE
  5
312
100
AcDbEntity
  8
0
100
AcDbLine
 62
7
  6
BYLAYER
 10
64.9467859309
 20
54.7408571429
 11
64.9467859309
 21
57.7408571429
  0
LINE
  5
313
100
AcDbEntity
  8
0
100
AcDbLine
 62
7
  6
BYLAYER
 10
65.7258272525
 20
57.7408571429
 11
65.7258272525
 21
61.2408571429
  0
LINE
  5
314
100
AcDbEntity
  8
0
100
AcDbLine
 62
7
  6
BYLAYER
 10
66.168747784
 20
188.8608571429
 11
66.1687435965
 21
186.8608571448
  0
LINE
  5
315
100
AcDbEntity
  8
0
100
AcDbLine
 62
7
  6
BYLAYER
 10
66.7767859309
 20
67.3408571429
 11
66.7767859309
 21
61.2408571429
  0
LINE
  5
316
100
AcDbEntity
  8
0
100
AcDbLine
 62
7
  6
BYLAYER
 10
66.8617859309
 20
54.7408571429
 11
66.8617859309
 21
57.7408571429
  0
LINE
  5
317
100
AcDbEntity
  8
0
100
AcDbLine
 62
7
  6
BYLAYER
 10
67.4187484121
 20
188.8608571429
 11
67.4187484121
 21
186.8608571429
  0
LINE
  5
318
100
AcDbEntity
  8
0
100
AcDbLine
 62
7
  6
BYLAYER
 10
68.1767859309
 20
55.9408571429
 11
68.1767859309
 21
54.7408571429
  0
LINE
  5
319
100
AcDbEntity
  8
0
100
AcDbLine
 62
7
  6
BYLAYER
 10
68.5267359307
 20
188.8608571429
 11
68.5267359307
 21
192.3608571429
  0
LINE
  5
31A
100
AcDbEntity
  8
0
100
AcDbLine
 62
7
  6
BYLAYER
 10
36.6267359307
 20
94.5608571429
 11
32.7767359307
 21
94.5608571429
  0
LINE
  5
31B
100
AcDbEntity
  8
0
100
AcDbLine
 62
7
  6
BYLAYER
 10
48.0267359307
 20
94.5608571429
 11
117.2767359307
 21
94.5608571429
  0
LINE
  5
31C
100
AcDbEntity
  8
0
100
AcDbLine
 62
7
  6
BYLAYER
 10
112.4267359307
 20
95.5608571429
 11
113.4267359307
 21
95.5608571429
  0
LINE
  5
31D
100
AcDbEntity
  8
0
100
AcDbLine
 62
7
  6
BYLAYER
 10
112.4267359307
 20
98.5809989916
 11
113.4267359307
 21
98.5809989916
  0
LINE
  5
31E
100
AcDbEntity
  8
0
100
AcDbLine
 62
7
  6
BYLAYER
 10
38.0267359307
 20
98.7756968117
 11
48.0267359307
 21
98.7756968117
  0
LINE
  5
31F
100
AcDbEntity
  8
0
100
AcDbLine
 62
7
  6
BYLAYER
 10
112.4267359307
 20
99.1589233265
 11
113.4267359307
 21
99.1589233265
  0
LINE
  5
320
100
AcDbEntity
  8
0
100
AcDbLine
 62
7
  6
BYLAYER
 10
69.3767859309
 20
55.9408571429
 11
69.3767859309
 21
54.7408571429
  0
LINE
  5
321
100
AcDbEntity
  8
0
100
AcDbLine
 62
7
  6
BYLAYER
 10
69.9187474236
 20
188.8608571429
 11
69.9187474236
 21
186.8608571429
  0
LINE
  5
322
100
AcDbEntity
  8
0
100
AcDbLine
 62
7
  6
BYLAYER
 10
70.518747522
 20
188.8608571429
 11
70.518747522
 21
186.8608571429
  0
LINE
  5
323
100
AcDbEntity
  8
0
100
AcDbLine
 62
7
  6
BYLAYER
 10
70.6917859309
 20
54.7408571429
 11
70.6917859309
 21
57.7408571429
  0
LINE
  5
324
100
AcDbEntity
  8
0
100
AcDbLine
 62
7
  6
BYLAYER
 10
70.768747784
 20
194.8608571429
 11
70.768747784
 21
192.3608571429
  0
LINE
  5
325
100
AcDbEntity
  8
0
100
AcDbLine
 62
7
  6
BYLAYER
 10
70.7767859309
 20
61.2408571429
 11
70.7767859309
 21
67.3408571429
  0
LINE
  5
326
100
AcDbEntity
  8
0
100
AcDbLine
 62
7
  6
BYLAYER
 10
71.5185436667
 20
188.8608571429
 11
71.5185436667
 21
186.8608571429
  0
LINE
  5
327
100
AcDbEntity
  8
0
100
AcDbLine
 62
7
  6
BYLAYER
 10
71.7256883779
 20
61.2408571429
 11
71.7256883779
 21
57.7408571429
  0
LINE
  5
328
100
AcDbEntity
  8
0
100
AcDbLine
 62
7
  6
BYLAYER
 10
72.5187477871
 20
188.8608571429
 11
72.5187477871
 21
186.8608571429
  0
LINE
  5
329
100
AcDbEntity
  8
0
100
AcDbLine
 62
7
  6
BYLAYER
 10
72.6067859309
 20
54.7408571429
 11
72.6067859309
 21
57.7408571429
  0
LINE
  5
32A
100
AcDbEntity
  8
0
100
AcDbLine
 62
7
  6
BYLAYER
 10
73.2767359307
 20
67.0608571429
 11
73.2767359307
 21
69.1608571429
  0
LINE
  5
32B
100
AcDbEntity
  8
0
100
AcDbLine
 62
7
  6
BYLAYER
 10
73.6767359307
 20
36.3608571429
 11
73.6767359307
 21
45.6608571429
  0
LINE
  5
32C
100
AcDbEntity
  8
0
100
AcDbLine
 62
7
  6
BYLAYER
 10
73.7767359307
 20
36.3608571429
 11
73.7767359307
 21
34.3608571429
  0
LINE
  5
32D
100
AcDbEntity
  8
0
100
AcDbLine
 62
7
  6
BYLAYER
 10
112.4267359307
 20
101.3833005703
 11
113.4267359307
 21
101.3833005703
  0
LINE
  5
32E
100
AcDbEntity
  8
0
100
AcDbLine
 62
7
  6
BYLAYER
 10
37.6267359307
 20
103.2185039085
 11
36.6267359307
 21
103.2185039085
  0
LINE
  5
32F
100
AcDbEntity
  8
0
100
AcDbLine
 62
7
  6
BYLAYER
 10
48.0267359307
 20
103.3381830285
 11
37.6267359307
 21
103.3381830285
  0
LINE
  5
330
100
AcDbEntity
  8
0
100
AcDbLine
 62
7
  6
BYLAYER
 10
37.6267359307
 20
103.8781095021
 11
36.6267359307
 21
103.8781095021
  0
LINE
  5
331
100
AcDbEntity
  8
0
100
AcDbLine
 62
7
  6
BYLAYER
 10
112.4267359307
 20
103.8781095021
 11
113.4267359307
 21
103.8781095021
  0
LINE
  5
332
100
AcDbEntity
  8
0
100
AcDbLine
 62
7
  6
BYLAYER
 10
77.4267359307
 20
40.2608571429
 11
77.4181311487
 21
57.7408571429
  0
LINE
  5
333
100
AcDbEntity
  8
0
100
AcDbLine
 62
7
  6
BYLAYER
 10
77.4164082233
 20
61.2408571429
 11
77.4149215847
 21
64.2608571429
  0
LINE
  5
334
100
AcDbEntity
  8
0
100
AcDbLine
 62
7
  6
BYLAYER
 10
76.0341733465
 20
28.4107614958
 11
76.0341733465
 21
36.8608571429
  0
LINE
  5
335
100
AcDbEntity
  8
0
100
AcDbLine
 62
7
  6
BYLAYER
 10
76.526735932
 20
28.4107606396
 11
76.526735932
 21
26.2667389272
  0
LINE
  5
336
100
AcDbEntity
  8
0
100
AcDbLine
 62
7
  6
BYLAYER
 10
76.6767359307
 20
24.5108571429
 11
76.6767359307
 21
24.9108571429
  0
LINE
  5
337
100
AcDbEntity
  8
0
100
AcDbLine
 62
7
  6
BYLAYER
 10
76.7767359307
 20
36.8608571429
 11
76.7767359307
 21
28.4107614958
  0
LINE
  5
338
100
AcDbEntity
  8
0
100
AcDbLine
 62
7
  6
BYLAYER
 10
77.1567359307
 20
25.0608571429
 11
77.1567359307
 21
36.8608571429
  0
LINE
  5
339
100
AcDbEntity
  8
0
100
AcDbLine
 62
7
  6
BYLAYER
 10
77.3767359307
 20
36.8608571429
 11
77.3767359307
 21
40.2608571429
  0
LINE
  5
33A
100
AcDbEntity
  8
0
100
AcDbLine
 62
7
  6
BYLAYER
 10
77.51874779
 20
188.8608571429
 11
77.51874779
 21
186.8608571429
  0
LINE
  5
33B
100
AcDbEntity
  8
0
100
AcDbLine
 62
7
  6
BYLAYER
 10
77.5403698943
 20
69.1608571429
 11
77.5403698943
 21
66.7608571429
  0
LINE
  5
33C
100
AcDbEntity
  8
0
100
AcDbLine
 62
7
  6
BYLAYER
 10
77.6581863481
 20
64.2608571429
 11
77.6581863481
 21
94.5608571429
  0
LINE
  5
33D
100
AcDbEntity
  8
0
100
AcDbLine
 62
7
  6
BYLAYER
 10
77.8667359307
 20
54.5108571429
 11
77.8667359307
 21
57.5108571429
  0
LINE
  5
33E
100
AcDbEntity
  8
0
100
AcDbLine
 62
7
  6
BYLAYER
 10
77.8667359307
 20
61.2608571429
 11
77.8667359307
 21
64.2608571429
  0
LINE
  5
33F
100
AcDbEntity
  8
0
100
AcDbLine
 62
7
  6
BYLAYER
 10
78.3672368011
 20
61.2408571429
 11
78.3672368011
 21
57.7408571429
  0
LINE
  5
340
100
AcDbEntity
  8
0
100
AcDbLine
 62
7
  6
BYLAYER
 10
78.5768238247
 20
188.8608571429
 11
78.5768238247
 21
186.8608571429
  0
LINE
  5
341
100
AcDbEntity
  8
0
100
AcDbLine
 62
7
  6
BYLAYER
 10
79.0567359307
 20
57.5108571429
 11
79.0567359307
 21
61.2608571429
  0
LINE
  5
342
100
AcDbEntity
  8
0
100
AcDbLine
 62
7
  6
BYLAYER
 10
79.2303751745
 20
25.0608571429
 11
79.2303751745
 21
36.5608571429
  0
LINE
  5
343
100
AcDbEntity
  8
0
100
AcDbLine
 62
7
  6
BYLAYER
 10
79.4267359307
 20
29.5608571429
 11
79.4267359307
 21
25.0608571429
  0
LINE
  5
344
100
AcDbEntity
  8
0
100
AcDbLine
 62
7
  6
BYLAYER
 10
79.5187480478
 20
188.8608571429
 11
79.5187480478
 21
186.8608571429
  0
LINE
  5
345
100
AcDbEntity
  8
0
100
AcDbLine
 62
7
  6
BYLAYER
 10
80.1187481463
 20
186.8608571429
 11
80.1187481463
 21
188.8608571429
  0
LINE
  5
346
100
AcDbEntity
  8
0
100
AcDbLine
 62
7
  6
BYLAYER
 10
80.8067359307
 20
64.2608571429
 11
80.8067359307
 21
54.5108571429
  0
LINE
  5
347
100
AcDbEntity
  8
0
100
AcDbLine
 62
7
  6
BYLAYER
 10
80.8730985984
 20
64.2608571429
 11
80.873096687
 21
40.2608571429
  0
LINE
  5
348
100
AcDbEntity
  8
0
100
AcDbLine
 62
7
  6
BYLAYER
 10
81.5267359307
 20
188.8608571429
 11
81.5267359307
 21
192.3608571429
  0
LINE
  5
349
100
AcDbEntity
  8
0
100
AcDbLine
 62
7
  6
BYLAYER
 10
81.9267359307
 20
29.5608571429
 11
81.9267359307
 21
25.0608571429
  0
LINE
  5
34A
100
AcDbEntity
  8
0
100
AcDbLine
 62
7
  6
BYLAYER
 10
82.0267359307
 20
91.5608571429
 11
82.0267359307
 21
94.5608571429
  0
LINE
  5
34B
100
AcDbEntity
  8
0
100
AcDbLine
 62
7
  6
BYLAYER
 10
82.123096687
 20
36.5608571429
 11
82.123096687
 21
25.0608571429
  0
LINE
  5
34C
100
AcDbEntity
  8
0
100
AcDbLine
 62
7
  6
BYLAYER
 10
82.5267359307
 20
40.2608571429
 11
82.5267359307
 21
64.2608571429
  0
LINE
  5
34D
100
AcDbEntity
  8
0
100
AcDbLine
 62
7
  6
BYLAYER
 10
82.5743967222
 20
61.2408571429
 11
82.5743967222
 21
57.7408571429
  0
LINE
  5
34E
100
AcDbEntity
  8
0
100
AcDbLine
 62
7
  6
BYLAYER
 10
112.4267359307
 20
113.6608571429
 11
37.6267359307
 21
113.6608571429
  0
LINE
  5
34F
100
AcDbEntity
  8
0
100
AcDbLine
 62
7
  6
BYLAYER
 10
83.5749215847
 20
64.2608571429
 11
83.5814415566
 21
61.2408571429
  0
LINE
  5
350
100
AcDbEntity
  8
0
100
AcDbLine
 62
7
  6
BYLAYER
 10
83.5889978154
 20
57.7408571429
 11
83.6267359307
 21
40.2608571429
  0
LINE
  5
351
100
AcDbEntity
  8
0
100
AcDbLine
 62
7
  6
BYLAYER
 10
82.6187471578
 20
188.8608571429
 11
82.6187471578
 21
186.8608571429
  0
LINE
  5
352
100
AcDbEntity
  8
0
100
AcDbLine
 62
7
  6
BYLAYER
 10
83.2667359307
 20
64.2608571429
 11
83.2667359307
 21
61.2608571429
  0
LINE
  5
353
100
AcDbEntity
  8
0
100
AcDbLine
 62
7
  6
BYLAYER
 10
83.2667359307
 20
57.5108571429
 11
83.2667359307
 21
54.5108571429
  0
LINE
  5
354
100
AcDbEntity
  8
0
100
AcDbLine
 62
7
  6
BYLAYER
 10
83.2931863481
 20
64.2608571429
 11
83.2931863481
 21
89.0608571429
  0
LINE
  5
355
100
AcDbEntity
  8
0
100
AcDbLine
 62
7
  6
BYLAYER
 10
83.3952855133
 20
69.1608571429
 11
83.3952855133
 21
71.6608571429
  0
LINE
  5
356
100
AcDbEntity
  8
0
100
AcDbLine
 62
7
  6
BYLAYER
 10
83.5131019672
 20
66.7608571429
 11
83.5131019672
 21
69.1608571429
  0
LINE
  5
357
100
AcDbEntity
  8
0
100
AcDbLine
 62
7
  6
BYLAYER
 10
83.6767359307
 20
40.2608571429
 11
83.6767359307
 21
36.8608571429
  0
LINE
  5
358
100
AcDbEntity
  8
0
100
AcDbLine
 62
7
  6
BYLAYER
 10
83.868747784
 20
188.8608571429
 11
83.8687492729
 21
186.8608571429
  0
LINE
  5
359
100
AcDbEntity
  8
0
100
AcDbLine
 62
7
  6
BYLAYER
 10
83.8967359307
 20
36.8608571429
 11
83.8967359307
 21
25.0608571429
  0
LINE
  5
35A
100
AcDbEntity
  8
0
100
AcDbLine
 62
7
  6
BYLAYER
 10
84.2767359307
 20
71.6608571429
 11
84.2767359307
 21
69.1608571429
  0
LINE
  5
35B
100
AcDbEntity
  8
0
100
AcDbLine
 62
7
  6
BYLAYER
 10
84.2767359307
 20
36.8608571429
 11
84.2767359307
 21
28.4107614958
  0
LINE
  5
35C
100
AcDbEntity
  8
0
100
AcDbLine
 62
7
  6
BYLAYER
 10
84.526735932
 20
28.4107614958
 11
84.526735932
 21
26.2667389272
  0
LINE
  5
35D
100
AcDbEntity
  8
0
100
AcDbLine
 62
7
  6
BYLAYER
 10
84.6767359307
 20
24.9108571429
 11
84.6767359307
 21
24.5108571429
  0
LINE
  5
35E
100
AcDbEntity
  8
0
100
AcDbLine
 62
7
  6
BYLAYER
 10
85.0192985149
 20
28.4107614958
 11
85.0192985149
 21
36.8608571429
  0
LINE
  5
35F
100
AcDbEntity
  8
0
100
AcDbLine
 62
7
  6
BYLAYER
 10
85.0267359307
 20
94.5608571429
 11
85.0267359307
 21
91.5608571429
  0
LINE
  5
360
100
AcDbEntity
  8
0
100
AcDbLine
 62
7
  6
BYLAYER
 10
85.0934926554
 20
189.1288063353
 11
85.0934926554
 21
186.9878737966
  0
LINE
  5
361
100
AcDbEntity
  8
0
100
AcDbLine
 62
7
  6
BYLAYER
 10
85.4267359307
 20
83.7608571429
 11
85.4267359307
 21
85.2608571429
  0
LINE
  5
362
100
AcDbEntity
  8
0
100
AcDbLine
 62
7
  6
BYLAYER
 10
85.4859026955
 20
82.4608571429
 11
85.4859026955
 21
83.7608571429
  0
LINE
  5
363
100
AcDbEntity
  8
0
100
AcDbLine
 62
7
  6
BYLAYER
 10
85.8767359307
 20
28.4107614958
 11
85.8767359307
 21
26.2667389272
  0
LINE
  5
364
100
AcDbEntity
  8
0
100
AcDbLine
 62
7
  6
BYLAYER
 10
86.268747784
 20
189.1288063353
 11
86.268747784
 21
194.8608571429
  0
LINE
  5
365
100
AcDbEntity
  8
0
100
AcDbLine
 62
7
  6
BYLAYER
 10
86.7767359307
 20
27.8608571429
 11
86.7767359307
 21
24.9108571429
  0
LINE
  5
366
100
AcDbEntity
  8
0
100
AcDbLine
 62
7
  6
BYLAYER
 10
87.0267359307
 20
115.2608571429
 11
87.0267359307
 21
113.6608571429
  0
LINE
  5
367
100
AcDbEntity
  8
0
100
AcDbLine
 62
7
  6
BYLAYER
 10
87.2767359307
 20
34.3608571429
 11
87.2767359307
 21
36.3608571429
  0
LINE
  5
368
100
AcDbEntity
  8
0
100
AcDbLine
 62
7
  6
BYLAYER
 10
87.3767359307
 20
45.6608571429
 11
87.3767359307
 21
36.3608571429
  0
LINE
  5
369
100
AcDbEntity
  8
0
100
AcDbLine
 62
7
  6
BYLAYER
 10
87.7767359308
 20
69.1608571429
 11
87.7767359308
 21
67.0608571429
  0
LINE
  5
36A
100
AcDbEntity
  8
0
100
AcDbLine
 62
7
  6
BYLAYER
 10
88.3767359307
 20
83.7608571429
 11
88.3767359307
 21
82.4608571429
  0
LINE
  5
36B
100
AcDbEntity
  8
0
100
AcDbLine
 62
7
  6
BYLAYER
 10
88.4467859309
 20
54.7408571429
 11
88.4467859309
 21
57.7408571429
  0
LINE
  5
36C
100
AcDbEntity
  8
0
100
AcDbLine
 62
7
  6
BYLAYER
 10
89.2258272525
 20
57.7408571429
 11
89.2258272525
 21
61.2408571429
  0
LINE
  5
36D
100
AcDbEntity
  8
0
100
AcDbLine
 62
7
  6
BYLAYER
 10
91.0267359307
 20
115.2608571429
 11
87.0267359307
 21
115.2608571429
  0
LINE
  5
36E
100
AcDbEntity
  8
0
100
AcDbLine
 62
7
  6
BYLAYER
 10
89.518747784
 20
189.1288063353
 11
89.518747784
 21
194.8608571429
  0
LINE
  5
36F
100
AcDbEntity
  8
0
100
AcDbLine
 62
7
  6
BYLAYER
 10
89.6767359307
 20
82.4608571429
 11
89.6767359307
 21
83.7608571429
  0
LINE
  5
370
100
AcDbEntity
  8
0
100
AcDbLine
 62
7
  6
BYLAYER
 10
90.2062969527
 20
191.1608571429
 11
90.2062969527
 21
189.1288063353
  0
LINE
  5
371
100
AcDbEntity
  8
0
100
AcDbLine
 62
7
  6
BYLAYER
 10
90.2767859309
 20
67.3408571429
 11
90.2767859309
 21
61.2408571429
  0
LINE
  5
372
100
AcDbEntity
  8
0
100
AcDbLine
 62
7
  6
BYLAYER
 10
90.3617859309
 20
54.7408571429
 11
90.3617859309
 21
57.7408571429
  0
LINE
  5
373
100
AcDbEntity
  8
0
100
AcDbLine
 62
7
  6
BYLAYER
 10
90.768747784
 20
186.9878737966
 11
90.768747784
 21
189.1288063353
  0
LINE
  5
374
100
AcDbEntity
  8
0
100
AcDbLine
 62
7
  6
BYLAYER
 10
91.0267359307
 20
115.2608571429
 11
91.0267359307
 21
113.6608571429
  0
LINE
  5
375
100
AcDbEntity
  8
0
100
AcDbLine
 62
7
  6
BYLAYER
 10
91.6767859309
 20
55.9408571429
 11
91.6767859309
 21
54.7408571429
  0
LINE
  5
376
100
AcDbEntity
  8
0
100
AcDbLine
 62
7
  6
BYLAYER
 10
92.018747784
 20
187.3212741392
 11
92.018747784
 21
194.4221066425
  0
LINE
  5
377
100
AcDbEntity
  8
0
100
AcDbLine
 62
7
  6
BYLAYER
 10
92.567569166
 20
83.7608571429
 11
92.567569166
 21
82.4608571429
  0
LINE
  5
378
100
AcDbEntity
  8
0
100
AcDbLine
 62
7
  6
BYLAYER
 10
92.6267359307
 20
83.7608571429
 11
92.6267359307
 21
85.2608571429
  0
LINE
  5
379
100
AcDbEntity
  8
0
100
AcDbLine
 62
7
  6
BYLAYER
 10
92.8767859309
 20
55.9408571429
 11
92.8767859309
 21
54.7408571429
  0
LINE
  5
37A
100
AcDbEntity
  8
0
100
AcDbLine
 62
7
  6
BYLAYER
 10
93.0267359307
 20
91.5608571429
 11
93.0267359307
 21
94.5608571429
  0
LINE
  5
37B
100
AcDbEntity
  8
0
100
AcDbLine
 62
7
  6
BYLAYER
 10
94.1917859309
 20
54.7408571429
 11
94.1917859309
 21
57.7408571429
  0
LINE
  5
37C
100
AcDbEntity
  8
0
100
AcDbLine
 62
7
  6
BYLAYER
 10
94.2767359307
 20
69.1608571429
 11
94.2767359307
 21
71.6608571429
  0
LINE
  5
37D
100
AcDbEntity
  8
0
100
AcDbLine
 62
7
  6
BYLAYER
 10
94.2767859309
 20
61.2408571429
 11
94.2767859309
 21
67.3408571429
  0
LINE
  5
37E
100
AcDbEntity
  8
0
100
AcDbLine
 62
7
  6
BYLAYER
 10
95.2256883779
 20
61.2408571429
 11
95.2256883779
 21
57.7408571429
  0
LINE
  5
37F
100
AcDbEntity
  8
0
100
AcDbLine
 62
7
  6
BYLAYER
 10
95.2767359307
 20
71.6608571429
 11
95.2767359307
 21
69.1608571429
  0
LINE
  5
380
100
AcDbEntity
  8
0
100
AcDbLine
 62
7
  6
BYLAYER
 10
109.9529398204
 20
121.8608571429
 11
103.5267359307
 21
121.8608571429
  0
LINE
  5
381
100
AcDbEntity
  8
0
100
AcDbLine
 62
7
  6
BYLAYER
 10
112.4267359307
 20
122.3608571429
 11
109.9267359307
 21
122.3608571429
  0
LINE
  5
382
100
AcDbEntity
  8
0
100
AcDbLine
 62
7
  6
BYLAYER
 10
102.2038602752
 20
122.3608571429
 11
101.5267359307
 21
122.3608571429
  0
LINE
  5
383
100
AcDbEntity
  8
0
100
AcDbLine
 62
7
  6
BYLAYER
 10
37.6267359307
 20
122.3608571429
 11
48.5267359307
 21
122.3608571429
  0
LINE
  5
384
100
AcDbEntity
  8
0
100
AcDbLine
 62
7
  6
BYLAYER
 10
96.0267359307
 20
94.5608571429
 11
96.0267359307
 21
91.5608571429
  0
LINE
  5
385
100
AcDbEntity
  8
0
100
AcDbLine
 62
7
  6
BYLAYER
 10
96.0267359307
 20
71.6608571429
 11
96.0267359307
 21
85.2608571429
  0
LINE
  5
386
100
AcDbEntity
  8
0
100
AcDbLine
 62
7
  6
BYLAYER
 10
96.1067859309
 20
54.7408571429
 11
96.1067859309
 21
57.7408571429
  0
LINE
  5
387
100
AcDbEntity
  8
0
100
AcDbLine
 62
7
  6
BYLAYER
 10
96.7767359308
 20
67.0608571429
 11
96.7767359308
 21
69.1608571429
  0
LINE
  5
388
100
AcDbEntity
  8
0
100
AcDbLine
 62
7
  6
BYLAYER
 10
96.8767359307
 20
28.4107614958
 11
96.8767359307
 21
29.9106104079
  0
LINE
  5
389
100
AcDbEntity
  8
0
100
AcDbLine
 62
7
  6
BYLAYER
 10
97.0281863481
 20
94.5608571429
 11
97.0281863481
 21
89.0608571429
  0
LINE
  5
38A
100
AcDbEntity
  8
0
100
AcDbLine
 62
7
  6
BYLAYER
 10
97.1767359307
 20
36.3608571429
 11
97.1767359307
 21
45.6608571429
  0
LINE
  5
38B
100
AcDbEntity
  8
0
100
AcDbLine
 62
7
  6
BYLAYER
 10
97.2767359307
 20
36.3608571429
 11
97.2767359307
 21
34.3608571429
  0
LINE
  5
38C
100
AcDbEntity
  8
0
100
AcDbLine
 62
7
  6
BYLAYER
 10
100.0267359307
 20
89.0608571429
 11
100.0267359307
 21
94.5608571429
  0
LINE
  5
38D
100
AcDbEntity
  8
0
100
AcDbLine
 62
7
  6
BYLAYER
 10
100.2781863481
 20
89.0608571429
 11
100.2781863481
 21
72.8814152465
  0
LINE
  5
38E
100
AcDbEntity
  8
0
100
AcDbLine
 62
7
  6
BYLAYER
 10
100.5923120889
 20
31.0466415226
 11
100.592344216
 21
36.8608571429
  0
LINE
  5
38F
100
AcDbEntity
  8
0
100
AcDbLine
 62
7
  6
BYLAYER
 10
100.8375642345
 20
36.8608571429
 11
100.8375642345
 21
40.2608571429
  0
LINE
  5
390
100
AcDbEntity
  8
0
100
AcDbLine
 62
7
  6
BYLAYER
 10
101.0403698943
 20
68.6342556786
 11
101.0403698943
 21
66.7608571429
  0
LINE
  5
391
100
AcDbEntity
  8
0
100
AcDbLine
 62
7
  6
BYLAYER
 10
101.1595317472
 20
40.2608571429
 11
101.1595317472
 21
57.7408571429
  0
LINE
  5
392
100
AcDbEntity
  8
0
100
AcDbLine
 62
7
  6
BYLAYER
 10
101.1595317472
 20
61.2708571429
 11
101.1595317472
 21
68.1608571429
  0
LINE
  5
393
100
AcDbEntity
  8
0
100
AcDbLine
 62
7
  6
BYLAYER
 10
101.5267359307
 20
122.3608571429
 11
101.5267359307
 21
186.8608571429
  0
LINE
  5
394
100
AcDbEntity
  8
0
100
AcDbLine
 62
7
  6
BYLAYER
 10
101.5781863481
 20
28.0608571429
 11
101.5781863481
 21
30.0608571429
  0
LINE
  5
395
100
AcDbEntity
  8
0
100
AcDbLine
 62
7
  6
BYLAYER
 10
101.8672368011
 20
61.2408571429
 11
101.8672368011
 21
57.7408571429
  0
LINE
  5
396
100
AcDbEntity
  8
0
100
AcDbLine
 62
7
  6
BYLAYER
 10
102.0183709503
 20
54.5108571429
 11
102.0183709503
 21
40.2608571429
  0
LINE
  5
397
100
AcDbEntity
  8
0
100
AcDbLine
 62
7
  6
BYLAYER
 10
102.2767359307
 20
94.5608571429
 11
102.2767359307
 21
92.3608571429
  0
LINE
  5
398
100
AcDbEntity
  8
0
100
AcDbLine
 62
7
  6
BYLAYER
 10
102.5567359307
 20
61.2708571429
 11
102.5567359307
 21
57.5108571429
  0
LINE
  5
399
100
AcDbEntity
  8
0
100
AcDbLine
 62
7
  6
BYLAYER
 10
100.5635566237
 20
25.0608571429
 11
100.6028286365
 21
28.0608465642
  0
LINE
  5
39A
100
AcDbEntity
  8
0
100
AcDbLine
 62
7
  6
BYLAYER
 10
37.2767359307
 20
31.3508571429
 11
35.9867359307
 21
30.0608571429
  0
LINE
  5
39B
100
AcDbEntity
  8
0
100
AcDbLine
 62
7
  6
BYLAYER
 10
103.5267359307
 20
186.8608571429
 11
103.5267359307
 21
183.8608571429
  0
LINE
  5
39C
100
AcDbEntity
  8
0
100
AcDbLine
 62
7
  6
BYLAYER
 10
103.5267359307
 20
182.3608571429
 11
103.5267359307
 21
180.3608571429
  0
LINE
  5
39D
100
AcDbEntity
  8
0
100
AcDbLine
 62
7
  6
BYLAYER
 10
103.5267359307
 20
179.7608571429
 11
103.5267359307
 21
177.7608571429
  0
LINE
  5
39E
100
AcDbEntity
  8
0
100
AcDbLine
 62
7
  6
BYLAYER
 10
104.0267359307
 20
25.0608571429
 11
104.0267359307
 21
23.4699459665
  0
LINE
  5
39F
100
AcDbEntity
  8
0
100
AcDbLine
 62
7
  6
BYLAYER
 10
104.4781863481
 20
66.1558738467
 11
104.4781863481
 21
39.4608571429
  0
LINE
  5
3A0
100
AcDbEntity
  8
0
100
AcDbLine
 62
7
  6
BYLAYER
 10
104.8967359307
 20
78.3008571429
 11
104.8967359307
 21
75.7708571429
  0
LINE
  5
3A1
100
AcDbEntity
  8
0
100
AcDbLine
 62
7
  6
BYLAYER
 10
104.8967359307
 20
67.2608571429
 11
104.8967359307
 21
61.4608571429
  0
LINE
  5
3A2
100
AcDbEntity
  8
0
100
AcDbLine
 62
7
  6
BYLAYER
 10
104.8967359307
 20
50.7608571429
 11
104.8967359307
 21
49.3608571429
  0
LINE
  5
3A3
100
AcDbEntity
  8
0
100
AcDbLine
 62
7
  6
BYLAYER
 10
105.2267359307
 20
88.9608571429
 11
105.2267359307
 21
78.3008571429
  0
LINE
  5
3A4
100
AcDbEntity
  8
0
100
AcDbLine
 62
7
  6
BYLAYER
 10
105.2267359307
 20
75.7708571429
 11
105.2267359307
 21
68.8608571429
  0
LINE
  5
3A5
100
AcDbEntity
  8
0
100
AcDbLine
 62
7
  6
BYLAYER
 10
105.2267359307
 20
61.4608571429
 11
105.2267359307
 21
50.7608571429
  0
LINE
  5
3A6
100
AcDbEntity
  8
0
100
AcDbLine
 62
7
  6
BYLAYER
 10
105.2267359307
 20
49.3608571429
 11
105.2267359307
 21
41.0608571429
  0
LINE
  5
3A7
100
AcDbEntity
  8
0
100
AcDbLine
 62
7
  6
BYLAYER
 10
105.2281863481
 20
18.1608571429
 11
105.2281863481
 21
39.4608571429
  0
LINE
  5
3A8
100
AcDbEntity
  8
0
100
AcDbLine
 62
7
  6
BYLAYER
 10
106.0517359307
 20
77.1008571429
 11
106.0517359307
 21
75.6008571429
  0
LINE
  5
3A9
100
AcDbEntity
  8
0
100
AcDbLine
 62
7
  6
BYLAYER
 10
106.1206470175
 20
75.6008571429
 11
106.1206470175
 21
74.3008571429
  0
LINE
  5
3AA
100
AcDbEntity
  8
0
100
AcDbLine
 62
7
  6
BYLAYER
 10
106.1287332389
 20
74.3008571429
 11
106.1287332389
 21
75.6008571429
  0
LINE
  5
3AB
100
AcDbEntity
  8
0
100
AcDbLine
 62
7
  6
BYLAYER
 10
106.2767359307
 20
92.3608571429
 11
106.2767359307
 21
94.5608571429
  0
LINE
  5
3AC
100
AcDbEntity
  8
0
100
AcDbLine
 62
7
  6
BYLAYER
 10
106.5267359307
 20
81.0608571429
 11
106.5267359307
 21
78.3008571429
  0
LINE
  5
3AD
100
AcDbEntity
  8
0
100
AcDbLine
 62
7
  6
BYLAYER
 10
106.5267359307
 20
58.2608571429
 11
106.5267359307
 21
50.7608571429
  0
LINE
  5
3AE
100
AcDbEntity
  8
0
100
AcDbLine
 62
7
  6
BYLAYER
 10
106.5267359307
 20
48.1608571429
 11
106.5267359307
 21
49.3608571429
  0
LINE
  5
3AF
100
AcDbEntity
  8
0
100
AcDbLine
 62
7
  6
BYLAYER
 10
106.6267359307
 20
177.7608571429
 11
106.6267359307
 21
179.7608571429
  0
LINE
  5
3B0
100
AcDbEntity
  8
0
100
AcDbLine
 62
7
  6
BYLAYER
 10
106.9267359307
 20
62.6908571429
 11
106.9267359307
 21
64.1708571429
  0
LINE
  5
3B1
100
AcDbEntity
  8
0
100
AcDbLine
 62
7
  6
BYLAYER
 10
107.0267359307
 20
86.2608571429
 11
107.0267359307
 21
83.2608571429
  0
LINE
  5
3B2
100
AcDbEntity
  8
0
100
AcDbLine
 62
7
  6
BYLAYER
 10
107.3767359307
 20
86.2608571429
 11
107.3767359307
 21
83.2608571429
  0
LINE
  5
3B3
100
AcDbEntity
  8
0
100
AcDbLine
 62
7
  6
BYLAYER
 10
107.3767359307
 20
81.0608571429
 11
107.3767359307
 21
78.3008571429
  0
LINE
  5
3B4
100
AcDbEntity
  8
0
100
AcDbLine
 62
7
  6
BYLAYER
 10
107.5267359307
 20
61.4608571429
 11
107.5267359307
 21
60.2608571429
  0
LINE
  5
3B5
100
AcDbEntity
  8
0
100
AcDbLine
 62
7
  6
BYLAYER
 10
107.5267359307
 20
61.9908571429
 11
107.5267359307
 21
62.6908571429
  0
LINE
  5
3B6
100
AcDbEntity
  8
0
100
AcDbLine
 62
7
  6
BYLAYER
 10
108.5017359307
 20
75.6008571429
 11
108.5017359307
 21
74.3008571429
  0
LINE
  5
3B7
100
AcDbEntity
  8
0
100
AcDbLine
 62
7
  6
BYLAYER
 10
104.4767359307
 20
68.8608571429
 11
104.4667359307
 21
67.2608571429
  0
LINE
  5
3B8
100
AcDbEntity
  8
0
100
AcDbLine
 62
7
  6
BYLAYER
 10
109.9529398204
 20
121.8608571429
 11
106.8870847323
 21
180.3608571429
  0
LINE
  5
3B9
100
AcDbEntity
  8
0
100
AcDbLine
 62
7
  6
BYLAYER
 10
114.0767359307
 20
67.2608571429
 11
114.0667359307
 21
69.2908571429
  0
LINE
  5
3BA
100
AcDbEntity
  8
0
100
AcDbLine
 62
7
  6
BYLAYER
 10
109.7267359307
 20
183.8608571429
 11
109.7267359307
 21
182.3608571429
  0
LINE
  5
3BB
100
AcDbEntity
  8
0
100
AcDbLine
 62
7
  6
BYLAYER
 10
109.8017359307
 20
74.3008571429
 11
109.8017359307
 21
75.6008571429
  0
LINE
  5
3BC
100
AcDbEntity
  8
0
100
AcDbLine
 62
7
  6
BYLAYER
 10
110.9267359307
 20
86.2608571429
 11
110.9267359307
 21
83.2608571429
  0
LINE
  5
3BD
100
AcDbEntity
  8
0
100
AcDbLine
 62
7
  6
BYLAYER
 10
110.9267359307
 20
81.0608571429
 11
110.9267359307
 21
78.3008571429
  0
LINE
  5
3BE
100
AcDbEntity
  8
0
100
AcDbLine
 62
7
  6
BYLAYER
 10
111.0267359307
 20
62.6908571429
 11
111.0267359307
 21
61.9908571429
  0
LINE
  5
3BF
100
AcDbEntity
  8
0
100
AcDbLine
 62
7
  6
BYLAYER
 10
111.0267359307
 20
60.2608571429
 11
111.0267359307
 21
61.4608571429
  0
LINE
  5
3C0
100
AcDbEntity
  8
0
100
AcDbLine
 62
7
  6
BYLAYER
 10
111.5267359307
 20
83.2608571429
 11
111.5267359307
 21
86.2608571429
  0
LINE
  5
3C1
100
AcDbEntity
  8
0
100
AcDbLine
 62
7
  6
BYLAYER
 10
111.6267359307
 20
64.1708571429
 11
111.6267359307
 21
62.6908571429
  0
LINE
  5
3C2
100
AcDbEntity
  8
0
100
AcDbLine
 62
7
  6
BYLAYER
 10
112.0267359307
 20
49.3608571429
 11
112.0267359307
 21
48.1608571429
  0
LINE
  5
3C3
100
AcDbEntity
  8
0
100
AcDbLine
 62
7
  6
BYLAYER
 10
112.0267359307
 20
50.7608571429
 11
112.0267359307
 21
58.2608571429
  0
LINE
  5
3C4
100
AcDbEntity
  8
0
100
AcDbLine
 62
7
  6
BYLAYER
 10
112.0267359307
 20
78.3008571429
 11
112.0267359307
 21
81.0608571429
  0
LINE
  5
3C5
100
AcDbEntity
  8
0
100
AcDbLine
 62
7
  6
BYLAYER
 10
112.1747386226
 20
75.6008571429
 11
112.1747386226
 21
74.3008571429
  0
LINE
  5
3C6
100
AcDbEntity
  8
0
100
AcDbLine
 62
7
  6
BYLAYER
 10
112.182824844
 20
74.3008571429
 11
112.182824844
 21
75.6008571429
  0
LINE
  5
3C7
100
AcDbEntity
  8
0
100
AcDbLine
 62
7
  6
BYLAYER
 10
112.2517359307
 20
77.1008571429
 11
112.2517359307
 21
75.6008571429
  0
LINE
  5
3C8
100
AcDbEntity
  8
0
100
AcDbLine
 62
7
  6
BYLAYER
 10
112.3767359307
 20
186.8608571429
 11
112.3767359307
 21
196.8608571429
  0
LINE
  5
3C9
100
AcDbEntity
  8
0
100
AcDbLine
 62
7
  6
BYLAYER
 10
112.4267359307
 20
94.5608571429
 11
112.4267359307
 21
186.8608571429
  0
LINE
  5
3CA
100
AcDbEntity
  8
0
100
AcDbLine
 62
7
  6
BYLAYER
 10
113.3167359307
 20
69.2908571429
 11
113.3167359307
 21
75.7708571429
  0
LINE
  5
3CB
100
AcDbEntity
  8
0
100
AcDbLine
 62
7
  6
BYLAYER
 10
113.3267359307
 20
36.3608571429
 11
113.3267359307
 21
39.4608571429
  0
LINE
  5
3CC
100
AcDbEntity
  8
0
100
AcDbLine
 62
7
  6
BYLAYER
 10
113.3267359307
 20
41.0608571429
 11
113.3267359307
 21
61.4608571429
  0
LINE
  5
3CD
100
AcDbEntity
  8
0
100
AcDbLine
 62
7
  6
BYLAYER
 10
113.4017359307
 20
77.1008571429
 11
113.4017359307
 21
78.3008571429
  0
LINE
  5
3CE
100
AcDbEntity
  8
0
100
AcDbLine
 62
7
  6
BYLAYER
 10
113.4267359307
 20
94.5608571429
 11
113.4267359307
 21
103.8781095021
  0
LINE
  5
3CF
100
AcDbEntity
  8
0
100
AcDbLine
 62
7
  6
BYLAYER
 10
113.6467359307
 20
75.7708571429
 11
113.6467359307
 21
78.9408571429
  0
LINE
  5
3D0
100
AcDbEntity
  8
0
100
AcDbLine
 62
7
  6
BYLAYER
 10
113.6567359307
 20
61.4608571429
 11
113.6500692641
 21
67.2608571429
  0
LINE
  5
3D1
100
AcDbEntity
  8
0
100
AcDbLine
 62
7
  6
BYLAYER
 10
114.0767359307
 20
39.4608571429
 11
114.0767359307
 21
41.0608571429
  0
LINE
  5
3D2
100
AcDbEntity
  8
0
100
AcDbLine
 62
7
  6
BYLAYER
 10
113.8249871108
 20
78.9408571429
 11
113.8267359307
 21
88.9608571429
  0
LINE
  5
3D3
100
AcDbEntity
  8
0
100
AcDbLine
 62
7
  6
BYLAYER
 10
117.2767359307
 20
94.5608571429
 11
117.2767359307
 21
18.1608571429
  0
LINE
  5
3D4
100
AcDbEntity
  8
0
100
AcDbLine
 62
7
  6
BYLAYER
 10
43.4267359307
 20
177.7608571429
 11
48.5267359307
 21
177.7608571429
  0
LINE
  5
3D5
100
AcDbEntity
  8
0
100
AcDbLine
 62
7
  6
BYLAYER
 10
101.5267359307
 20
177.7608571429
 11
106.6267359307
 21
177.7608571429
  0
LINE
  5
3D6
100
AcDbEntity
  8
0
100
AcDbLine
 62
7
  6
BYLAYER
 10
48.5267359307
 20
179.7608571429
 11
43.4267359307
 21
179.7608571429
  0
LINE
  5
3D7
100
AcDbEntity
  8
0
100
AcDbLine
 62
7
  6
BYLAYER
 10
101.5267359307
 20
179.7608571429
 11
106.6267359307
 21
179.7608571429
  0
LINE
  5
3D8
100
AcDbEntity
  8
0
100
AcDbLine
 62
7
  6
BYLAYER
 10
43.1663871292
 20
180.3608571429
 11
48.5267359307
 21
180.3608571429
  0
LINE
  5
3D9
100
AcDbEntity
  8
0
100
AcDbLine
 62
7
  6
BYLAYER
 10
101.5267359307
 20
180.3608571429
 11
106.8870847323
 21
180.3608571429
  0
LINE
  5
3DA
100
AcDbEntity
  8
0
100
AcDbLine
 62
7
  6
BYLAYER
 10
101.5267359307
 20
180.8608571429
 11
48.5267359307
 21
180.8608571429
  0
LINE
  5
3DB
100
AcDbEntity
  8
0
100
AcDbLine
 62
7
  6
BYLAYER
 10
48.5267359307
 20
182.3608571429
 11
40.3267359307
 21
182.3608571429
  0
LINE
  5
3DC
100
AcDbEntity
  8
0
100
AcDbLine
 62
7
  6
BYLAYER
 10
101.5267359307
 20
182.3608571429
 11
109.7267359307
 21
182.3608571429
  0
LINE
  5
3DD
100
AcDbEntity
  8
0
100
AcDbLine
 62
7
  6
BYLAYER
 10
40.3267359307
 20
183.8608571429
 11
48.5267359307
 21
183.8608571429
  0
LINE
  5
3DE
100
AcDbEntity
  8
0
100
AcDbLine
 62
7
  6
BYLAYER
 10
101.5267359307
 20
183.8608571429
 11
109.7267359307
 21
183.8608571429
  0
LINE
  5
3DF
100
AcDbEntity
  8
0
100
AcDbLine
 62
7
  6
BYLAYER
 10
37.618747784
 20
186.8608571429
 11
64.918747784
 21
186.8608571429
  0
LINE
  5
3E0
100
AcDbEntity
  8
0
100
AcDbLine
 62
7
  6
BYLAYER
 10
66.1687435965
 20
186.8608571448
 11
83.8687492729
 21
186.8608571429
  0
LINE
  5
3E1
100
AcDbEntity
  8
0
100
AcDbLine
 62
7
  6
BYLAYER
 10
85.0934926554
 20
186.8608571429
 11
112.4267359307
 21
186.8608571429
  0
LINE
  5
3E2
100
AcDbEntity
  8
0
100
AcDbLine
 62
7
  6
BYLAYER
 10
85.0934926554
 20
186.9878737966
 11
90.768747784
 21
186.9878737966
  0
LINE
  5
3E3
100
AcDbEntity
  8
0
100
AcDbLine
 62
7
  6
BYLAYER
 10
83.868747784
 20
188.8608571429
 11
66.168747784
 21
188.8608571429
  0
LINE
  5
3E4
100
AcDbEntity
  8
0
100
AcDbLine
 62
7
  6
BYLAYER
 10
37.618747784
 20
188.8608571429
 11
55.1187359307
 21
188.8608571429
  0
LINE
  5
3E5
100
AcDbEntity
  8
0
100
AcDbLine
 62
7
  6
BYLAYER
 10
90.768747784
 20
189.1288063353
 11
85.0934926554
 21
189.1288063353
  0
LINE
  5
3E6
100
AcDbEntity
  8
0
100
AcDbLine
 62
7
  6
BYLAYER
 10
38.518747784
 20
189.1608571429
 11
40.318747784
 21
189.1608571429
  0
LINE
  5
3E7
100
AcDbEntity
  8
0
100
AcDbLine
 62
7
  6
BYLAYER
 10
37.6767359307
 20
190.3608571429
 11
38.518747784
 21
190.3608571429
  0
LINE
  5
3E8
100
AcDbEntity
  8
0
100
AcDbLine
 62
7
  6
BYLAYER
 10
89.518747784
 20
190.3608571429
 11
90.2062969527
 21
190.3608571429
  0
LINE
  5
3E9
100
AcDbEntity
  8
0
100
AcDbLine
 62
7
  6
BYLAYER
 10
55.1187359307
 20
190.8608571429
 11
64.918747784
 21
190.8608571429
  0
LINE
  5
3EA
100
AcDbEntity
  8
0
100
AcDbLine
 62
7
  6
BYLAYER
 10
92.018747784
 20
190.8608571429
 11
112.3767359307
 21
190.8608571429
  0
LINE
  5
3EB
100
AcDbEntity
  8
0
100
AcDbLine
 62
7
  6
BYLAYER
 10
92.018747784
 20
191.1608571429
 11
90.2062969527
 21
191.1608571429
  0
LINE
  5
3EC
100
AcDbEntity
  8
0
100
AcDbLine
 62
7
  6
BYLAYER
 10
55.1187359307
 20
191.1608571429
 11
38.518747784
 21
191.1608571429
  0
LINE
  5
3ED
100
AcDbEntity
  8
0
100
AcDbLine
 62
7
  6
BYLAYER
 10
86.268747784
 20
191.7108571429
 11
81.5267359307
 21
191.7108571429
  0
LINE
  5
3EE
100
AcDbEntity
  8
0
100
AcDbLine
 62
7
  6
BYLAYER
 10
86.268747784
 20
192.3271402854
 11
81.5262316333
 21
192.3271402854
  0
LINE
  5
3EF
100
AcDbEntity
  8
0
100
AcDbLine
 62
7
  6
BYLAYER
 10
81.5262316333
 20
192.3608571429
 11
68.5272402282
 21
192.3608571429
  0
LINE
  5
3F0
100
AcDbEntity
  8
0
100
AcDbLine
 62
7
  6
BYLAYER
 10
55.1187359307
 20
192.3608571429
 11
51.268747784
 21
192.3608571429
  0
LINE
  5
3F1
100
AcDbEntity
  8
0
100
AcDbLine
 62
7
  6
BYLAYER
 10
86.268747784
 20
192.8271402854
 11
70.768747784
 21
192.8271402854
  0
LINE
  5
3F2
100
AcDbEntity
  8
0
100
AcDbLine
 62
7
  6
BYLAYER
 10
112.3767359307
 20
192.8608571429
 11
89.518747784
 21
192.8608571429
  0
LINE
  5
3F3
100
AcDbEntity
  8
0
100
AcDbLine
 62
7
  6
BYLAYER
 10
64.918747784
 20
192.8608571429
 11
37.6767359307
 21
192.8608571429
  0
LINE
  5
3F4
100
AcDbEntity
  8
0
100
AcDbLine
 62
7
  6
BYLAYER
 10
55.1187359307
 20
194.8608571429
 11
112.3767359307
 21
194.8608571429
  0
LINE
  5
3F5
100
AcDbEntity
  8
0
100
AcDbLine
 62
7
  6
BYLAYER
 10
37.6767359307
 20
196.8608571429
 11
112.3767359307
 21
196.8608571429
  0
ARC
  5
3F6
100
AcDbEntity
  8
0
100
AcDbCircle
 62
7
  6
BYLAYER
 10
68.9267359307
 20
276.1108571429
 40
260.45
100
AcDbArc
 50
262.0216888078
 51
277.9449918815
  0
ARC
  5
3F7
100
AcDbEntity
  8
0
100
AcDbCircle
 62
7
  6
BYLAYER
 10
68.9267359307
 20
276.1108571429
 40
256.8
100
AcDbArc
 50
262.5358506154
 51
277.4641493846
  0
ARC
  5
3F8
100
AcDbEntity
  8
0
100
AcDbCircle
 62
7
  6
BYLAYER
 10
98.4781863481
 20
66.1558738467
 40
6.0
100
AcDbArc
 50
0.0000000001
 51
63.896118863
  0
ARC
  5
3F9
100
AcDbEntity
  8
0
100
AcDbCircle
 62
7
  6
BYLAYER
 10
35.8267359307
 20
23.4699459665
 40
2.0
100
AcDbArc
 50
180.0000000002
 51
262.5358506143
  0
ARC
  5
3FA
100
AcDbEntity
  8
0
100
AcDbCircle
 62
7
  6
BYLAYER
 10
102.0267359307
 20
23.4699459665
 40
2.0
100
AcDbArc
 50
277.4641493857
 51
360.0
  0
ARC
  5
3FB
100
AcDbEntity
  8
0
100
AcDbCircle
 62
7
  6
BYLAYER
 10
103.5267359307
 20
123.8608571429
 40
2.0
100
AcDbArc
 50
228.5903778907
 51
270.0
  0
ARC
  5
3FC
100
AcDbEntity
  8
0
100
AcDbCircle
 62
7
  6
BYLAYER
 10
46.5441135095
 20
124.3608571429
 40
2.0
100
AcDbArc
 50
352.4415590296
 51
7.5584409704
  0
ARC
  5
3FD
100
AcDbEntity
  8
0
100
AcDbCircle
 62
7
  6
BYLAYER
 10
101.7781863481
 20
72.8908571429
 40
1.5
100
AcDbArc
 50
180.0
 51
243.8961188627
  0
ARC
  5
3FE
100
AcDbEntity
  8
0
100
AcDbCircle
 62
7
  6
BYLAYER
 10
96.1767359307
 20
41.6608571429
 40
1.0
100
AcDbArc
 50
0.0
 51
90.0
  0
ARC
  5
3FF
100
AcDbEntity
  8
0
100
AcDbCircle
 62
7
  6
BYLAYER
 10
88.3767359307
 20
41.6608571429
 40
1.0
100
AcDbArc
 50
90.0
 51
180.0
  0
ARC
  5
400
100
AcDbEntity
  8
0
100
AcDbCircle
 62
7
  6
BYLAYER
 10
64.8767359307
 20
41.6608571429
 40
1.0
100
AcDbArc
 50
90.0
 51
180.0
  0
ARC
  5
401
100
AcDbEntity
  8
0
100
AcDbCircle
 62
7
  6
BYLAYER
 10
72.6767359307
 20
41.6608571429
 40
1.0
100
AcDbArc
 50
0.0
 51
90.0
  0
ARC
  5
402
100
AcDbEntity
  8
0
100
AcDbCircle
 62
7
  6
BYLAYER
 10
41.3767359307
 20
41.6608571429
 40
1.0
100
AcDbArc
 50
90.0
 51
180.0
  0
ARC
  5
403
100
AcDbEntity
  8
0
100
AcDbCircle
 62
7
  6
BYLAYER
 10
49.1767359307
 20
41.6608571429
 40
1.0
100
AcDbArc
 50
0.0
 51
90.0
  0
ARC
  5
404
100
AcDbEntity
  8
0
100
AcDbCircle
 62
7
  6
BYLAYER
 10
41.3767359307
 20
45.6608571429
 40
1.0
100
AcDbArc
 50
90.0
 51
180.0
  0
ARC
  5
405
100
AcDbEntity
  8
0
100
AcDbCircle
 62
7
  6
BYLAYER
 10
49.1767359307
 20
45.6608571429
 40
1.0
100
AcDbArc
 50
0.0
 51
90.0
  0
ARC
  5
406
100
AcDbEntity
  8
0
100
AcDbCircle
 62
7
  6
BYLAYER
 10
64.8767359307
 20
45.6608571429
 40
1.0
100
AcDbArc
 50
90.0
 51
180.0
  0
ARC
  5
407
100
AcDbEntity
  8
0
100
AcDbCircle
 62
7
  6
BYLAYER
 10
72.6767359307
 20
45.6608571429
 40
1.0
100
AcDbArc
 50
0.0
 51
90.0
  0
ARC
  5
408
100
AcDbEntity
  8
0
100
AcDbCircle
 62
7
  6
BYLAYER
 10
88.3767359307
 20
45.6608571429
 40
1.0
100
AcDbArc
 50
90.0
 51
180.0
  0
ARC
  5
409
100
AcDbEntity
  8
0
100
AcDbCircle
 62
7
  6
BYLAYER
 10
96.1767359307
 20
45.6608571429
 40
1.0
100
AcDbArc
 50
0.0
 51
90.0
  0
ARC
  5
40A
100
AcDbEntity
  8
0
100
AcDbCircle
 62
7
  6
BYLAYER
 10
87.4767359308
 20
67.0608571429
 40
0.3
100
AcDbArc
 50
270.0
 51
360.0
  0
ARC
  5
40B
100
AcDbEntity
  8
0
100
AcDbCircle
 62
7
  6
BYLAYER
 10
63.9767359307
 20
67.0608571429
 40
0.3
100
AcDbArc
 50
270.0
 51
360.0
  0
ARC
  5
40C
100
AcDbEntity
  8
0
100
AcDbCircle
 62
7
  6
BYLAYER
 10
40.4767359307
 20
67.0608571429
 40
0.3
100
AcDbArc
 50
270.0
 51
360.0
  0
ARC
  5
40D
100
AcDbEntity
  8
0
100
AcDbCircle
 62
7
  6
BYLAYER
 10
50.0767359307
 20
67.0608571429
 40
0.3
100
AcDbArc
 50
180.0
 51
270.0
  0
ARC
  5
40E
100
AcDbEntity
  8
0
100
AcDbCircle
 62
7
  6
BYLAYER
 10
73.5767359307
 20
67.0608571429
 40
0.3
100
AcDbArc
 50
180.0
 51
270.0
  0
ARC
  5
40F
100
AcDbEntity
  8
0
100
AcDbCircle
 62
7
  6
BYLAYER
 10
97.0767359308
 20
67.0608571429
 40
0.3
100
AcDbArc
 50
180.0
 51
270.0
  0
SPLINE
  5
410
100
AcDbEntity
  8
0
100
AcDbSpline
 62
7
  6
BYLAYER
 70
0
 71
3
 72
14
 73
10
 74
0
 42
0.0000001
 43
0.0000001
 44
0.0000000001
 40
0.0
 40
0.0
 40
0.0
 40
0.0
 40
0.3356123431
 40
0.4855570498
 40
0.6154863023
 40
0.7230381852
 40
0.8132193199
 40
0.9008044384
 40
1.0
 40
1.0
 40
1.0
 40
1.0
 10
66.168747784
 20
188.8608571429
 30
0.0
 10
66.0019071956
 20
188.8608571429
 30
0.0
 10
65.7605122004
 20
188.8591990154
 30
0.0
 10
65.454591897
 20
188.870421069
 30
0.0
 10
65.2630816711
 20
188.8939143057
 30
0.0
 10
65.1055360225
 20
188.9410631628
 30
0.0
 10
64.9878512868
 20
189.0282044992
 30
0.0
 10
64.9265171275
 20
189.1565259008
 30
0.0
 10
64.918747784
 20
189.2502952559
 30
0.0
 10
64.918747784
 20
189.2996076433
 30
0.0
  0
SPLINE
  5
411
100
AcDbEntity
  8
0
100
AcDbSpline
 62
7
  6
BYLAYER
 70
0
 71
3
 72
14
 73
10
 74
0
 42
0.0000001
 43
0.0000001
 44
0.0000000001
 40
0.0
 40
0.0
 40
0.0
 40
0.0
 40
0.0991968201
 40
0.1867870669
 40
0.2769862341
 40
0.3845729943
 40
0.5145489932
 40
0.6644841176
 40
1.0
 40
1.0
 40
1.0
 40
1.0
 10
92.018747784
 20
194.4221066425
 30
0.0
 10
92.018747784
 20
194.4714195186
 30
0.0
 10
92.0109828323
 20
194.5651935548
 30
0.0
 10
91.9496280869
 20
194.6935191391
 30
0.0
 10
91.831917407
 20
194.7806724899
 30
0.0
 10
91.6743193284
 20
194.8278258897
 30
0.0
 10
91.4827701344
 20
194.8512852132
 30
0.0
 10
91.1768826883
 20
194.8625429099
 30
0.0
 10
90.9355399568
 20
194.8608571429
 30
0.0
 10
90.768747784
 20
194.8608571429
 30
0.0
  0
SPLINE
  5
412
100
AcDbEntity
  8
0
100
AcDbSpline
 62
7
  6
BYLAYER
 70
0
 71
3
 72
13
 73
9
 74
0
 42
0.0000001
 43
0.0000001
 44
0.0000000001
 40
0.0
 40
0.0
 40
0.0
 40
0.0
 40
0.083612113
 40
0.1701556873
 40
0.2701125311
 40
0.3881644342
 40
0.6743024481
 40
1.0
 40
1.0
 40
1.0
 40
1.0
 10
85.0934926554
 20
189.1288063353
 30
0.0
 10
85.0812388507
 20
189.0941473417
 30
0.0
 10
85.0438653338
 20
189.0269491867
 30
0.0
 10
84.9485169039
 20
188.9518408791
 30
0.0
 10
84.8213584608
 20
188.9056811962
 30
0.0
 10
84.6024417908
 20
188.8678845204
 30
0.0
 10
84.2806890166
 20
188.8604462676
 30
0.0
 10
84.011945966
 20
188.8608571429
 30
0.0
 10
83.868747784
 20
188.8608571429
 30
0.0
  0
SPLINE
  5
413
100
AcDbEntity
  8
0
100
AcDbSpline
 62
7
  6
BYLAYER
 70
0
 71
3
 72
14
 73
10
 74
0
 42
0.0000001
 43
0.0000001
 44
0.0000000001
 40
0.0
 40
0.0
 40
0.0
 40
0.0
 40
0.1271629246
 40
0.2471577417
 40
0.3618603972
 40
0.4765996724
 40
0.5968457168
 40
0.7250988004
 40
1.0
 40
1.0
 40
1.0
 40
1.0
 10
92.018747784
 20
190.1337754145
 30
0.0
 10
92.018747784
 20
190.0561730235
 30
0.0
 10
92.0089963654
 20
189.9049246711
 30
0.0
 10
91.9520383328
 20
189.6896112194
 30
0.0
 10
91.8445138446
 20
189.5020481182
 30
0.0
 10
91.6870355508
 20
189.3538591361
 30
0.0
 10
91.4906965281
 20
189.2468780408
 30
0.0
 10
91.1844917373
 20
189.1516242608
 30
0.0
 10
90.9365088705
 20
189.1288063353
 30
0.0
 10
90.768747784
 20
189.1288063353
 30
0.0
  0
SPLINE
  5
414
100
AcDbEntity
  8
0
100
AcDbSpline
 62
7
  6
BYLAYER
 70
0
 71
3
 72
21
 73
17
 74
0
 42
0.0000001
 43
0.0000001
 44
0.0000000001
 40
0.0
 40
0.0
 40
0.0
 40
0.0
 40
0.037370464
 40
0.080067253
 40
0.1310781601
 40
0.1912844432
 40
0.2600617853
 40
0.3359015012
 40
0.4999883568
 40
0.6640757796
 40
0.7399186774
 40
0.8087009416
 40
0.8689134664
 40
0.9199291017
 40
0.9626289645
 40
1.0
 40
1.0
 40
1.0
 40
1.0
 10
46.2767355284
 20
88.629056349
 30
0.0
 10
46.2767355284
 20
88.7238300606
 30
0.0
 10
46.2267692598
 20
88.9284121408
 30
0.0
 10
46.0258302865
 20
89.2003672154
 30
0.0
 10
45.7163892984
 20
89.4434138447
 30
0.0
 10
45.3092829934
 20
89.6541269971
 30
0.0
 10
44.8179273886
 20
89.8267015566
 30
0.0
 10
44.0536015373
 20
90.0020077362
 30
0.0
 10
43.0268247156
 20
90.0853380443
 30
0.0
 10
42.0000382513
 20
90.0020333459
 30
0.0
 10
41.2356856253
 20
89.8267426538
 30
0.0
 10
40.7442940069
 20
89.6541629253
 30
0.0
 10
40.3371392063
 20
89.4434550827
 30
0.0
 10
40.0276654643
 20
89.2003908208
 30
0.0
 10
39.8267084522
 20
88.9284224682
 30
0.0
 10
39.7767364632
 20
88.7238315098
 30
0.0
 10
39.7767364632
 20
88.6290563489
 30
0.0
  0
SPLINE
  5
415
100
AcDbEntity
  8
0
100
AcDbSpline
 62
7
  6
BYLAYER
 70
0
 71
3
 72
14
 73
10
 74
0
 42
0.0000001
 43
0.0000001
 44
0.0000000001
 40
0.0
 40
0.0
 40
0.0
 40
0.0
 40
0.0756273201
 40
0.170114486
 40
0.2816581073
 40
0.4072601785
 40
0.5445409958
 40
0.6910054756
 40
1.0
 40
1.0
 40
1.0
 40
1.0
 10
92.018747784
 20
187.3212741392
 30
0.0
 10
92.018747784
 20
187.2872548773
 30
0.0
 10
91.9697182598
 20
187.216592923
 30
0.0
 10
91.8630579109
 20
187.1504300431
 30
0.0
 10
91.7231541938
 20
187.0950756069
 30
0.0
 10
91.5598472612
 20
187.0536045033
 30
0.0
 10
91.3780559375
 20
187.0230038833
 30
0.0
 10
91.1128088658
 20
186.9950806264
 30
0.0
 10
90.9077420739
 20
186.9878737967
 30
0.0
 10
90.768747784
 20
186.9878737966
 30
0.0
  0
SPLINE
  5
416
100
AcDbEntity
  8
0
100
AcDbSpline
 62
7
  6
BYLAYER
 70
0
 71
3
 72
13
 73
9
 74
0
 42
0.0000001
 43
0.0000001
 44
0.0000000001
 40
0.0
 40
0.0
 40
0.0
 40
0.0
 40
0.3376382503
 40
0.6356289534
 40
0.7587662477
 40
0.8605546335
 40
0.9399325988
 40
1.0
 40
1.0
 40
1.0
 40
1.0
 10
83.8687492729
 20
186.8608571429
 30
0.0
 10
84.0093883046
 20
186.8608571429
 30
0.0
 10
84.2740942858
 20
186.8606275005
 30
0.0
 10
84.5903361353
 20
186.8642262092
 30
0.0
 10
84.8075501716
 20
186.8814639625
 30
0.0
 10
84.9329476101
 20
186.9022375851
 30
0.0
 10
85.028777548
 20
186.9337319691
 30
0.0
 10
85.0779757042
 20
186.9682462333
 30
0.0
 10
85.0934926554
 20
186.9878737966
 30
0.0
  0
SPLINE
  5
417
100
AcDbEntity
  8
0
100
AcDbSpline
 62
7
  6
BYLAYER
 70
0
 71
3
 72
15
 73
11
 74
0
 42
0.0000001
 43
0.0000001
 44
0.0000000001
 40
0.0
 40
0.0
 40
0.0
 40
0.0
 40
0.3640015736
 40
0.5280359508
 40
0.6026793097
 40
0.6714932048
 40
0.7893953523
 40
0.8793243319
 40
0.944788251
 40
1.0
 40
1.0
 40
1.0
 40
1.0
 10
66.1687456902
 20
186.8608571422
 30
0.0
 10
66.0077277179
 20
186.8608571422
 30
0.0
 10
65.7741448331
 20
186.8601589889
 30
0.0
 10
65.5075574741
 20
186.8644958341
 30
0.0
 10
65.3716531116
 20
186.8707290536
 30
0.0
 10
65.2563822695
 20
186.8792896223
 30
0.0
 10
65.1346598087
 20
186.8951414004
 30
0.0
 10
65.0180586589
 20
186.9280382831
 30
0.0
 10
64.9369887297
 20
186.9817346922
 30
0.0
 10
64.918747784
 20
187.0367629027
 30
0.0
 10
64.918747784
 20
187.0611861045
 30
0.0
  0
ELLIPSE
  5
418
100
AcDbEntity
  8
0
100
AcDbEllipse
 62
7
  6
BYLAYER
 10
79.7304180143
 20
36.5608571429
 30
0.0
 11
0.5000428399
 21
0.0
 31
0.0
 40
0.9999143276
 41
1.5707963268
 42
3.1415926536
  0
ELLIPSE
  5
419
100
AcDbEntity
  8
0
100
AcDbEllipse
 62
7
  6
BYLAYER
 10
81.6230538471
 20
36.5608571429
 30
0.0
 11
0.5000428399
 21
0.0
 31
0.0
 40
0.9999143276
 41
-0.0
 42
1.5707963268
  0
ELLIPSE
  5
41A
100
AcDbEntity
  8
0
100
AcDbEllipse
 62
7
  6
BYLAYER
 10
55.9304180143
 20
36.5608571429
 30
0.0
 11
0.5000428399
 21
0.0
 31
0.0
 40
0.9999143276
 41
1.5707963268
 42
3.1415926536
  0
ELLIPSE
  5
41B
100
AcDbEntity
  8
0
100
AcDbEllipse
 62
7
  6
BYLAYER
 10
57.8230538471
 20
36.5608571429
 30
0.0
 11
0.5000428399
 21
0.0
 31
0.0
 40
0.9999143276
 41
0.0
 42
1.5707963268
  0
ELLIPSE
  5
41C
100
AcDbEntity
  8
0
100
AcDbEllipse
 62
7
  6
BYLAYER
 10
100.1594460674
 20
68.1608571429
 30
0.0
 11
-1.0000856798
 21
0.0
 31
0.0
 40
0.9999143276
 41
-3.1415926536
 42
-1.5707963268
  0
ELLIPSE
  5
41D
100
AcDbEntity
  8
0
100
AcDbEllipse
 62
7
  6
BYLAYER
 10
43.0267359958
 20
87.1363816152
 30
0.0
 11
3.2499995326
 21
-0.0
 31
0.0
 40
0.3935354841
 41
-3.1415926536
 42
-3.0039214091
  0
ELLIPSE
  5
41E
100
AcDbEntity
  8
0
100
AcDbEllipse
 62
7
  6
BYLAYER
 10
43.0267359958
 20
87.1363816152
 30
0.0
 11
3.2499995326
 21
0.0
 31
0.0
 40
0.3935354841
 41
-0.1376712445
 42
0.0
  0
ENDSEC
  0
SECTION
  2
OBJECTS
  0
DICTIONARY
  5
C
100
AcDbDictionary
280
0
281
1
  3
ACAD_GROUP
350
D
  3
ACAD_MLINESTYLE
350
17
  3
ACAD_LAYOUT
350
1A
  3
ACAD_PLOTSETTINGS
350
19
  3
ACAD_PLOTSTYLENAME
350
E
  0
DICTIONARY
  5
D
102
{ACAD_REACTORS
330
C
102
}
100
AcDbDictionary
280
0
281
1
  0
ACDBDICTIONARYWDFLT
  5
E
102
{ACAD_REACTORS
330
C
102
}
100
AcDbDictionary
281
1
  3
Normal
350
F
100
AcDbDictionaryWithDefault
340
F
  0
DICTIONARY
  5
17
102
{ACAD_REACTORS
330
C
102
}
100
AcDbDictionary
280
0
281
1
  3
Standard
350
18
  0
DICTIONARY
  5
19
102
{ACAD_REACTORS
330
C
102
}
100
AcDbDictionary
281
1
  0
DICTIONARY
  5
1A
102
{ACAD_REACTORS
330
C
102
}
100
AcDbDictionary
281
1
  3
Model
350
41F
  3
Layout1
350
420
  0
ACDBPLACEHOLDER
  5
F
102
{ACAD_REACTORS
330
E
102
}
  0
MLINESTYLE
  5
18
102
{ACAD_REACTORS
330
17
102
}
100
AcDbMlineStyle
  2
STANDARD
 70
0
  3

 62
256
 51
90.0
 52
90.0
 71
2
 49
0.5
 62
256
  6
BYLAYER
 49
-0.5
 62
256
  6
BYLAYER
  0
LAYOUT
  5
41F
102
{ACAD_REACTORS
330
1A
102
}
100
AcDbPlotSettings
  1

  2
none_device
  4

  6

 40
0.0
 41
0.0
 42
0.0
 43
0.0
 44
210.0
 45
297.0
 46
0.0
 47
0.0
 48
0.0
 49
0.0
140
0.0
141
0.0
142
1.0
143
1.0
 70
1024
 72
1
 73
0
 74
0
  7

 75
0
147
1.0
148
0.0
149
0.0
100
AcDbLayout
  1
Model
 70
0
 71
0
 10
0.0
 20
0.0
 11
210.0
 21
297.0
 12
0.0
 22
0.0
 32
0.0
 14
0.0
 24
0.0
 34
0.0
 15
0.0
 25
0.0
 35
0.0
146
0.0
 13
0.0
 23
0.0
 33
0.0
 16
1.0
 26
0.0
 36
0.0
 17
0.0
 27
1.0
 37
0.0
 76
0
330
210
345
0
346
0
  0
LAYOUT
  5
420
102
{ACAD_REACTORS
330
1A
102
}
100
AcDbPlotSettings
  1

  2
none_device
  4

  6

 40
0.0
 41
0.0
 42
0.0
 43
0.0
 44
210.0
 45
297.0
 46
0.0
 47
0.0
 48
0.0
 49
0.0
140
0.0
141
0.0
142
1.0
143
1.0
 70
0
 72
1
 73
0
 74
0
  7

 75
0
147
1.0
148
0.0
149
0.0
100
AcDbLayout
  1
Layout1
 70
0
 71
1
 10
0.0
 20
0.0
 11
210.0
 21
297.0
 12
0.0
 22
0.0
 32
0.0
 14
0.0
 24
0.0
 34
0.0
 15
0.0
 25
0.0
 35
0.0
146
0.0
 13
0.0
 23
0.0
 33
0.0
 16
1.0
 26
0.0
 36
0.0
 17
0.0
 27
1.0
 37
0.0
 76
0
330
211
345
0
346
0
  0
ENDSEC
  0
EOF
