999
DXF file: C:\Users\sesa63760\Dev\_Creo\CAD\MCADID0004830_3D-CAD\drw0001_5.dxf
999
Pro/ENGINEER 2019471 by Parametric Technology Corporation
  0
SECTION
  2
HEADER
  9
$ACADVER
  1
AC1024
  9
$DWGCODEPAGE
  3
ANSI_1252
  9
$EXTMAX
 10
19.2373499756
 20
27.2071092513
 30
0.0
  9
$EXTMIN
 10
0.0
 20
0.0
 30
0.0
  9
$LIMMIN
 10
0.0
 20
0.0
  9
$LIMMAX
 10
19.2373499756
 20
27.2071092513
  9
$VIEWCTR
 10
9.6186749878
 20
13.6035546256
  9
$VIEWSIZE
 40
27.2071092513
  9
$CLAYER
  8
0
  9
$LTSCALE
 40
1.7735004549
  9
$CELTYPE
  6
BYLAYER
  9
$DIMSCALE
 40
1.0
  9
$DIMASZ
 40
0.2290160711
  9
$DIMEXO
 40
1.0
  9
$DIMDLI
 40
1.225327587
  9
$DIMEXE
 40
1.0
  9
$DIMCEN
 40
0.2902091653
  9
$DIMLFAC
 40
1.0
  9
$DIMBLK
  1
_FILLED
  9
$DIMALT
 70
0
  9
$DIMALTF
 40
0.0393700787
  9
$DIMTXT
 40
0.3206224996
  9
$DIMTOL
 70
1
  9
$DIMLIM
 70
0
  9
$DIMTFAC
 40
1.0
  9
$DIMTP
 40
0.01
  9
$DIMTM
 40
0.01
  9
$DIMGAP
 40
0.625
  9
$DIMDSEP
 70
46
  9
$AUNITS
 70
0
  9
$PDMODE
 70
3
  9
$PDSIZE
 40
0.3125
  9
$HANDSEED
  5
267
  9
$TILEMODE
 70
1
  9
$MEASUREMENT
 70
1
  9
$INSUNITS
 70
4
  0
ENDSEC
  0
SECTION
  2
CLASSES
  0
CLASS
  1
ACDBDICTIONARYWDFLT
  2
AcDbDictionaryWithDefault
  3
AutoCAD 2000
 90
0
 91
1
280
0
281
0
  0
CLASS
  1
ACDBPLACEHOLDER
  2
AcDbPlaceHolder
  3
AutoCAD 2000
 90
0
 91
1
280
0
281
0
  0
CLASS
  1
LAYOUT
  2
AcDbLayout
  3
AutoCAD 2000
 90
0
 91
0
280
0
281
0
  0
ENDSEC
  0
SECTION
  2
TABLES
  0
TABLE
  2
VPORT
  5
8
100
AcDbSymbolTable
 70
2
  0
VPORT
  5
1F4
100
AcDbSymbolTableRecord
100
AcDbViewportTableRecord
  2
*ACTIVE
 70
0
 10
0.0
 20
0.0
 11
1.0
 21
1.0
 12
9.6186749878
 22
13.6035546256
 13
0.0
 23
0.0
 14
1.0
 24
1.0
 15
0.0
 25
0.0
 16
0.0
 26
0.0
 36
1.0
 17
0.0
 27
0.0
 37
0.0
 40
27.2071092513
 41
0.7070707071
 42
50.0
 43
0.0
 44
0.0
 50
0.0
 51
0.0
 71
0
 72
100
 73
1
 74
1
 75
0
 76
0
 77
0
 78
0
  0
ENDTAB
  0
TABLE
  2
LTYPE
  5
5
100
AcDbSymbolTable
 70
6
  0
LTYPE
  5
14
100
AcDbSymbolTableRecord
100
AcDbLinetypeTableRecord
  2
BYBLOCK
 70
0
  3

 72
65
 73
0
 40
0.0
  0
LTYPE
  5
15
100
AcDbSymbolTableRecord
100
AcDbLinetypeTableRecord
  2
BYLAYER
 70
0
  3

 72
65
 73
0
 40
0.0
  0
LTYPE
  5
16
100
AcDbSymbolTableRecord
100
AcDbLinetypeTableRecord
  2
CONTINUOUS
 70
64
  3
Solid line
 72
65
 73
0
 40
0.0
  0
LTYPE
  5
1F5
100
AcDbSymbolTableRecord
100
AcDbLinetypeTableRecord
  2
CENTER
 70
64
  3
____ _ ____ _ ____ _ ____ _ ____ _ ____ _ ____
 72
65
 73
4
 40
0.6
 49
0.375
 74
0
 49
-0.075
 74
0
 49
0.075
 74
0
 49
-0.075
 74
0
  0
LTYPE
  5
1F6
100
AcDbSymbolTableRecord
100
AcDbLinetypeTableRecord
  2
HIDDEN
 70
64
  3
- - - - - - - - - - - - - - - - - - - -
 72
65
 73
2
 40
0.2
 49
0.1
 74
0
 49
-0.1
 74
0
  0
LTYPE
  5
1F7
100
AcDbSymbolTableRecord
100
AcDbLinetypeTableRecord
  2
PHANTOM
 70
64
  3
_____ _ _ _____ _ _ _____ _ _ _____
 72
65
 73
6
 40
0.8
 49
0.45
 74
0
 49
-0.05
 74
0
 49
0.1
 74
0
 49
-0.05
 74
0
 49
0.1
 74
0
 49
-0.05
 74
0
  0
LTYPE
  5
1F8
100
AcDbSymbolTableRecord
100
AcDbLinetypeTableRecord
  2
DOT
 70
64
  3
. . . . . . . . . . . . . . . . . . . .
 72
65
 73
2
 40
0.2
 49
0.1
 74
0
 49
-0.1
 74
0
  0
LTYPE
  5
1F9
100
AcDbSymbolTableRecord
100
AcDbLinetypeTableRecord
  2
DASHED
 70
64
  3
- - - - - - - - - - - - - - - - - - - -
 72
65
 73
2
 40
0.2
 49
0.1
 74
0
 49
-0.1
 74
0
  0
ENDTAB
  0
TABLE
  2
LAYER
  5
2
100
AcDbSymbolTable
 70
36
  0
LAYER
  5
10
100
AcDbSymbolTableRecord
100
AcDbLayerTableRecord
  2
0
 70
0
 62
7
  6
CONTINUOUS
370
-3
390
F
  0
LAYER
  5
1FA
100
AcDbSymbolTableRecord
100
AcDbLayerTableRecord
  2
DEFAULT_1
 70
0
 62
7
  6
CENTER
370
-3
390
F
  0
LAYER
  5
1FB
100
AcDbSymbolTableRecord
100
AcDbLayerTableRecord
  2
DEFAULT_2
 70
0
 62
7
  6
HIDDEN
370
-3
390
F
  0
LAYER
  5
1FC
100
AcDbSymbolTableRecord
100
AcDbLayerTableRecord
  2
DEFAULT_3
 70
0
 62
7
  6
PHANTOM
370
-3
390
F
  0
LAYER
  5
1FD
100
AcDbSymbolTableRecord
100
AcDbLayerTableRecord
  2
00_COMPONENTS
 70
0
 62
7
  6
CONTINUOUS
370
-3
390
F
  0
LAYER
  5
1FE
100
AcDbSymbolTableRecord
100
AcDbLayerTableRecord
  2
01_1_DEFAULT_DATUMS
 70
0
 62
7
  6
CONTINUOUS
370
-3
390
F
  0
LAYER
  5
1FF
100
AcDbSymbolTableRecord
100
AcDbLayerTableRecord
  2
01_PLANES
 70
0
 62
7
  6
CONTINUOUS
370
-3
390
F
  0
LAYER
  5
200
100
AcDbSymbolTableRecord
100
AcDbLayerTableRecord
  2
02_COORD_SYS
 70
0
 62
7
  6
CONTINUOUS
370
-3
390
F
  0
LAYER
  5
201
100
AcDbSymbolTableRecord
100
AcDbLayerTableRecord
  2
03_AXES
 70
0
 62
7
  6
CONTINUOUS
370
-3
390
F
  0
LAYER
  5
202
100
AcDbSymbolTableRecord
100
AcDbLayerTableRecord
  2
04_POINTS
 70
0
 62
7
  6
CONTINUOUS
370
-3
390
F
  0
LAYER
  5
203
100
AcDbSymbolTableRecord
100
AcDbLayerTableRecord
  2
05_CURVES
 70
0
 62
7
  6
CONTINUOUS
370
-3
390
F
  0
LAYER
  5
204
100
AcDbSymbolTableRecord
100
AcDbLayerTableRecord
  2
06_SURFS
 70
0
 62
7
  6
CONTINUOUS
370
-3
390
F
  0
LAYER
  5
205
100
AcDbSymbolTableRecord
100
AcDbLayerTableRecord
  2
07_COSMETICS
 70
0
 62
7
  6
CONTINUOUS
370
-3
390
F
  0
LAYER
  5
206
100
AcDbSymbolTableRecord
100
AcDbLayerTableRecord
  2
10_NOTES
 70
0
 62
7
  6
CONTINUOUS
370
-3
390
F
  0
LAYER
  5
207
100
AcDbSymbolTableRecord
100
AcDbLayerTableRecord
  2
11_NOTES_PUB
 70
0
 62
7
  6
CONTINUOUS
370
-3
390
F
  0
LAYER
  5
208
100
AcDbSymbolTableRecord
100
AcDbLayerTableRecord
  2
13_REF_GTOL
 70
0
 62
7
  6
CONTINUOUS
370
-3
390
F
  0
LAYER
  5
209
100
AcDbSymbolTableRecord
100
AcDbLayerTableRecord
  2
16_MISC
 70
0
 62
7
  6
CONTINUOUS
370
-3
390
F
  0
LAYER
  5
20A
100
AcDbSymbolTableRecord
100
AcDbLayerTableRecord
  2
17_NO_PRINT
 70
0
 62
7
  6
CONTINUOUS
370
-3
390
F
  0
LAYER
  5
20B
100
AcDbSymbolTableRecord
100
AcDbLayerTableRecord
  2
18_DATUM_CAMS_JOINTS
 70
0
 62
7
  6
CONTINUOUS
370
-3
390
F
  0
LAYER
  5
20C
100
AcDbSymbolTableRecord
100
AcDbLayerTableRecord
  2
19_DATUM_FUNCTIONAL
 70
0
 62
7
  6
CONTINUOUS
370
-3
390
F
  0
LAYER
  5
20D
100
AcDbSymbolTableRecord
100
AcDbLayerTableRecord
  2
20_DATUM_KINEMATIC_SCHEME
 70
0
 62
7
  6
CONTINUOUS
370
-3
390
F
  0
ENDTAB
  0
TABLE
  2
STYLE
  5
3
100
AcDbSymbolTable
 70
1
  0
STYLE
  5
11
100
AcDbSymbolTableRecord
100
AcDbTextStyleTableRecord
  2
STANDARD
 70
0
 40
0.0
 41
1.0
 50
0.0
 71
0
 42
0.2
  3
ARIAL.TTF
  4

  0
STYLE
  5
20E
100
AcDbSymbolTableRecord
100
AcDbTextStyleTableRecord
  2
TEXTSTYLE_1
 70
0
 40
0.0
 41
0.8
 50
0.0
 71
0
 42
0.2
  3
gdt
  4

  0
ENDTAB
  0
TABLE
  2
VIEW
  5
6
100
AcDbSymbolTable
 70
0
  0
ENDTAB
  0
TABLE
  2
UCS
  5
7
100
AcDbSymbolTable
 70
0
  0
ENDTAB
  0
TABLE
  2
APPID
  5
9
100
AcDbSymbolTable
 70
1
  0
APPID
  5
20F
100
AcDbSymbolTableRecord
100
AcDbRegAppTableRecord
  2
ACAD
 70
0
  0
ENDTAB
  0
TABLE
  2
BLOCK_RECORD
  5
1
100
AcDbSymbolTable
 70
0
  0
BLOCK_RECORD
  5
210
100
AcDbSymbolTableRecord
100
AcDbBlockTableRecord
  2
*Model_Space
  0
BLOCK_RECORD
  5
211
100
AcDbSymbolTableRecord
100
AcDbBlockTableRecord
  2
*Paper_Space
  0
BLOCK_RECORD
  5
212
100
AcDbSymbolTableRecord
100
AcDbBlockTableRecord
  2
_FILLED
  0
ENDTAB
  0
TABLE
  2
DIMSTYLE
  5
A
100
AcDbSymbolTable
 70
1
100
AcDbDimStyleTable
 71
0
  0
DIMSTYLE
105
213
100
AcDbSymbolTableRecord
100
AcDbDimStyleTableRecord
  2
STANDARD
 70
0
  3

  4

 40
1.0
 41
0.2290160711
 42
1.0
 43
0.38
 44
1.0
 45
0.0
 46
0.0
 47
0.01
 48
0.01
140
0.3206224996
141
0.09
142
0.0
143
25.4
144
1.0
145
0.0
146
1.0
147
0.625
 71
1
 72
0
 73
0
 74
0
 75
0
 76
0
 77
1
 78
8
 79
2
170
0
171
1
172
0
173
0
174
0
175
0
176
0
177
0
178
0
270
2
179
2
271
2
272
2
273
2
274
2
275
0
280
0
281
0
282
0
283
1
284
8
285
0
286
0
287
3
288
0
340
11
278
46
341
212
342
212
343
212
344
212
  0
ENDTAB
  0
ENDSEC
  0
SECTION
  2
BLOCKS
  0
BLOCK
  5
20
100
AcDbEntity
  8
0
100
AcDbBlockBegin
  2
*Model_Space
 70
0
 10
0.0
 20
0.0
 30
0.0
  3
*Model_Space
  1

  0
ENDBLK
  5
21
100
AcDbEntity
  8
0
100
AcDbBlockEnd
  0
BLOCK
  5
1C
100
AcDbEntity
  8
0
100
AcDbBlockBegin
  2
*Paper_Space
 70
0
 10
0.0
 20
0.0
 30
0.0
  3
*Paper_Space
  1

  0
ENDBLK
  5
1D
100
AcDbEntity
  8
0
100
AcDbBlockEnd
  0
BLOCK
  5
214
100
AcDbEntity
  8
0
100
AcDbBlockBegin
  2
_FILLED
 70
64
 10
0.0
 20
0.0
  3
_FILLED
  1

  0
SOLID
  5
215
100
AcDbEntity
  8
0
  6
BYBLOCK
 62
0
100
AcDbTrace
 10
0.0
 20
0.0
 11
-1.0
 21
0.25
 12
-1.0
 22
-0.25
 13
-1.0
 23
-0.25
  0
ENDBLK
  5
216
100
AcDbEntity
  8
0
  6
BYBLOCK
 62
0
100
AcDbBlockEnd
  0
ENDSEC
  0
SECTION
  2
ENTITIES
  0
LINE
  5
217
100
AcDbEntity
  8
0
100
AcDbLine
 62
7
  6
BYLAYER
 10
2.5488556841
 20
14.1263517124
 11
2.5488556841
 21
13.1473600095
  0
LINE
  5
218
100
AcDbEntity
  8
0
100
AcDbLine
 62
7
  6
BYLAYER
 10
13.7277183748
 20
5.6368558609
 11
6.4777183748
 21
5.6368558609
  0
LINE
  5
219
100
AcDbEntity
  8
0
100
AcDbLine
 62
7
  6
BYLAYER
 10
6.4777183748
 20
5.685056339
 11
8.2156944887
 21
5.685056339
  0
LINE
  5
21A
100
AcDbEntity
  8
0
100
AcDbLine
 62
7
  6
BYLAYER
 10
3.5542429918
 20
9.6368558627
 11
3.3777183748
 21
9.8738783168
  0
LINE
  5
21B
100
AcDbEntity
  8
0
100
AcDbLine
 62
7
  6
BYLAYER
 10
6.8692397603
 20
7.0852102854
 11
7.8756428171
 21
7.0852102854
  0
LINE
  5
21C
100
AcDbEntity
  8
0
100
AcDbLine
 62
7
  6
BYLAYER
 10
3.3777183748
 20
17.3998227235
 11
3.3777183748
 21
17.3516909851
  0
LINE
  5
21D
100
AcDbEntity
  8
0
100
AcDbLine
 62
7
  6
BYLAYER
 10
3.3777183748
 20
9.9220207367
 11
3.3777183748
 21
9.8738890186
  0
LINE
  5
21E
100
AcDbEntity
  8
0
100
AcDbLine
 62
7
  6
BYLAYER
 10
3.5542429918
 20
9.6368558627
 11
3.5542429918
 21
17.6368558609
  0
LINE
  5
21F
100
AcDbEntity
  8
0
100
AcDbLine
 62
7
  6
BYLAYER
 10
14.8729548983
 20
8.0038312064
 11
13.7277183748
 21
7.8393277942
  0
LINE
  5
220
100
AcDbEntity
  8
0
100
AcDbLine
 62
7
  6
BYLAYER
 10
5.8828168635
 20
7.1368558609
 11
6.4777183748
 21
7.214908355
  0
LINE
  5
221
100
AcDbEntity
  8
0
100
AcDbLine
 62
7
  6
BYLAYER
 10
13.7277183748
 20
7.9673297128
 11
14.0277183748
 21
8.0038312064
  0
LINE
  5
222
100
AcDbEntity
  8
0
100
AcDbLine
 62
7
  6
BYLAYER
 10
14.0277183748
 20
8.083472066
 11
13.7390275057
 21
8.0686273912
  0
LINE
  5
223
100
AcDbEntity
  8
0
100
AcDbLine
 62
7
  6
BYLAYER
 10
14.8729548983
 20
8.0038312064
 11
14.0277183748
 21
8.0038312064
  0
LINE
  5
224
100
AcDbEntity
  8
0
100
AcDbLine
 62
7
  6
BYLAYER
 10
16.0277183748
 20
8.083472066
 11
14.0277183748
 21
8.083472066
  0
LINE
  5
225
100
AcDbEntity
  8
0
100
AcDbLine
 62
7
  6
BYLAYER
 10
5.2777183748
 20
17.6368028879
 11
5.2777183748
 21
9.636908834
  0
LINE
  5
226
100
AcDbEntity
  8
0
100
AcDbLine
 62
7
  6
BYLAYER
 10
5.2777183748
 20
15.524908355
 11
5.8828168635
 21
20.1368558609
  0
LINE
  5
227
100
AcDbEntity
  8
0
100
AcDbLine
 62
7
  6
BYLAYER
 10
13.9777183748
 20
8.8868558609
 11
13.7277183748
 21
8.8868558609
  0
LINE
  5
228
100
AcDbEntity
  8
0
100
AcDbLine
 62
7
  6
BYLAYER
 10
14.0277183748
 20
9.1639686298
 11
16.0277183748
 21
9.1639686298
  0
LINE
  5
229
100
AcDbEntity
  8
0
100
AcDbLine
 62
7
  6
BYLAYER
 10
5.2777183748
 20
11.7488033669
 11
5.8828168635
 21
7.1368558609
  0
LINE
  5
22A
100
AcDbEntity
  8
0
100
AcDbLine
 62
7
  6
BYLAYER
 10
5.8828168635
 20
7.1368558609
 11
5.8828168635
 21
20.1368558609
  0
LINE
  5
22B
100
AcDbEntity
  8
0
100
AcDbLine
 62
7
  6
BYLAYER
 10
7.4574017261
 20
9.5118558609
 11
7.3677183748
 21
9.5118558609
  0
LINE
  5
22C
100
AcDbEntity
  8
0
100
AcDbLine
 62
7
  6
BYLAYER
 10
5.2777183748
 20
9.6368558609
 11
3.5542429918
 21
9.6368558609
  0
LINE
  5
22D
100
AcDbEntity
  8
0
100
AcDbLine
 62
7
  6
BYLAYER
 10
6.4777183748
 20
5.6368558609
 11
6.4777183748
 21
21.6368558609
  0
LINE
  5
22E
100
AcDbEntity
  8
0
100
AcDbLine
 62
7
  6
BYLAYER
 10
14.0277183748
 20
10.6618558609
 11
13.9777183748
 21
10.6618558609
  0
LINE
  5
22F
100
AcDbEntity
  8
0
100
AcDbLine
 62
7
  6
BYLAYER
 10
7.3677183748
 20
9.5118558609
 11
7.1277182866
 21
12.6368593552
  0
LINE
  5
230
100
AcDbEntity
  8
0
100
AcDbLine
 62
7
  6
BYLAYER
 10
7.1277183748
 20
12.6368944773
 11
7.1277183748
 21
14.6368172446
  0
LINE
  5
231
100
AcDbEntity
  8
0
100
AcDbLine
 62
7
  6
BYLAYER
 10
7.3677183748
 20
9.5118558609
 11
7.3677183748
 21
17.7618558609
  0
LINE
  5
232
100
AcDbEntity
  8
0
100
AcDbLine
 62
7
  6
BYLAYER
 10
7.4574017261
 20
17.8868558609
 11
7.4574017261
 21
9.3868558609
  0
LINE
  5
233
100
AcDbEntity
  8
0
100
AcDbLine
 62
7
  6
BYLAYER
 10
7.3677183748
 20
17.7618558609
 11
7.1277182866
 21
14.6368523667
  0
LINE
  5
234
100
AcDbEntity
  8
0
100
AcDbLine
 62
7
  6
BYLAYER
 10
8.2277183748
 20
5.6368558609
 11
8.2277183748
 21
21.6368558609
  0
LINE
  5
235
100
AcDbEntity
  8
0
100
AcDbLine
 62
7
  6
BYLAYER
 10
17.5277183748
 20
11.5868558609
 11
16.0277183748
 21
11.5868558609
  0
LINE
  5
236
100
AcDbEntity
  8
0
100
AcDbLine
 62
7
  6
BYLAYER
 10
2.5488556841
 20
13.1473600095
 11
2.2523682867
 21
13.1473600095
  0
LINE
  5
237
100
AcDbEntity
  8
0
100
AcDbLine
 62
7
  6
BYLAYER
 10
2.2523682867
 20
14.1263517124
 11
2.5488556841
 21
14.1263517124
  0
LINE
  5
238
100
AcDbEntity
  8
0
100
AcDbLine
 62
7
  6
BYLAYER
 10
17.5277183748
 20
15.6868558609
 11
16.0277183748
 21
15.6868558609
  0
LINE
  5
239
100
AcDbEntity
  8
0
100
AcDbLine
 62
7
  6
BYLAYER
 10
14.0277183748
 20
16.6118558609
 11
13.9777183748
 21
16.6118558609
  0
LINE
  5
23A
100
AcDbEntity
  8
0
100
AcDbLine
 62
7
  6
BYLAYER
 10
13.7277183748
 20
21.6367882101
 11
13.7277183748
 21
5.6369235118
  0
LINE
  5
23B
100
AcDbEntity
  8
0
100
AcDbLine
 62
7
  6
BYLAYER
 10
13.7390275057
 20
19.2050843307
 11
13.7390275057
 21
18.3868558609
  0
LINE
  5
23C
100
AcDbEntity
  8
0
100
AcDbLine
 62
7
  6
BYLAYER
 10
13.7390275057
 20
8.8911416326
 11
13.7390275057
 21
8.0686273912
  0
LINE
  5
23D
100
AcDbEntity
  8
0
100
AcDbLine
 62
7
  6
BYLAYER
 10
13.9777183748
 20
18.386850673
 11
13.9777183748
 21
8.8868610489
  0
LINE
  5
23E
100
AcDbEntity
  8
0
100
AcDbLine
 62
7
  6
BYLAYER
 10
14.0277183748
 20
19.2698805155
 11
14.0277183748
 21
19.1902396559
  0
LINE
  5
23F
100
AcDbEntity
  8
0
100
AcDbLine
 62
7
  6
BYLAYER
 10
14.0277183748
 20
8.083472066
 11
14.0277183748
 21
8.0038312064
  0
LINE
  5
240
100
AcDbEntity
  8
0
100
AcDbLine
 62
7
  6
BYLAYER
 10
14.0277183748
 20
8.118597559
 11
14.0277183748
 21
19.1551141629
  0
LINE
  5
241
100
AcDbEntity
  8
0
100
AcDbLine
 62
7
  6
BYLAYER
 10
5.2777183748
 20
17.6368558609
 11
3.5542429918
 21
17.6368558609
  0
LINE
  5
242
100
AcDbEntity
  8
0
100
AcDbLine
 62
7
  6
BYLAYER
 10
7.4574017261
 20
17.7618558609
 11
7.3677183748
 21
17.7618558609
  0
LINE
  5
243
100
AcDbEntity
  8
0
100
AcDbLine
 62
7
  6
BYLAYER
 10
16.0277183748
 20
18.1097430921
 11
14.0277183748
 21
18.1097430921
  0
LINE
  5
244
100
AcDbEntity
  8
0
100
AcDbLine
 62
7
  6
BYLAYER
 10
13.9777183748
 20
18.3868558609
 11
13.7277183748
 21
18.3868558609
  0
LINE
  5
245
100
AcDbEntity
  8
0
100
AcDbLine
 62
7
  6
BYLAYER
 10
14.0277183748
 20
19.1902396559
 11
16.0277183748
 21
19.1902396559
  0
LINE
  5
246
100
AcDbEntity
  8
0
100
AcDbLine
 62
7
  6
BYLAYER
 10
14.8729548983
 20
19.2698805155
 11
14.0277183748
 21
19.2698805155
  0
LINE
  5
247
100
AcDbEntity
  8
0
100
AcDbLine
 62
7
  6
BYLAYER
 10
14.0277183748
 20
19.1902396559
 11
13.7390275057
 21
19.2050843307
  0
LINE
  5
248
100
AcDbEntity
  8
0
100
AcDbLine
 62
7
  6
BYLAYER
 10
5.8828168635
 20
20.1368558609
 11
6.4777183748
 21
20.0588033669
  0
LINE
  5
249
100
AcDbEntity
  8
0
100
AcDbLine
 62
7
  6
BYLAYER
 10
16.0277183748
 20
19.1902396559
 11
16.0277183748
 21
8.083472066
  0
LINE
  5
24A
100
AcDbEntity
  8
0
100
AcDbLine
 62
7
  6
BYLAYER
 10
6.8692397603
 20
20.1885014365
 11
7.8756428171
 21
20.1885014365
  0
LINE
  5
24B
100
AcDbEntity
  8
0
100
AcDbLine
 62
7
  6
BYLAYER
 10
14.0277183748
 20
19.2698805155
 11
13.7277183748
 21
19.3063820091
  0
LINE
  5
24C
100
AcDbEntity
  8
0
100
AcDbLine
 62
7
  6
BYLAYER
 10
13.7277183748
 20
19.4343839277
 11
14.8729548983
 21
19.2698805155
  0
LINE
  5
24D
100
AcDbEntity
  8
0
100
AcDbLine
 62
7
  6
BYLAYER
 10
17.5277183748
 20
15.6868558609
 11
17.5277183748
 21
11.5868558609
  0
LINE
  5
24E
100
AcDbEntity
  8
0
100
AcDbLine
 62
7
  6
BYLAYER
 10
8.2156944887
 20
21.5886553829
 11
6.4777183748
 21
21.5886553829
  0
LINE
  5
24F
100
AcDbEntity
  8
0
100
AcDbLine
 62
7
  6
BYLAYER
 10
13.7277183748
 20
21.6368558609
 11
6.4777183748
 21
21.6368558609
  0
ARC
  5
250
100
AcDbEntity
  8
0
100
AcDbCircle
 62
7
  6
BYLAYER
 10
37.6598436803
 20
13.6368558609
 40
30.5
100
AcDbArc
 50
188.0099033197
 51
195.2062878761
  0
ARC
  5
251
100
AcDbEntity
  8
0
100
AcDbCircle
 62
7
  6
BYLAYER
 10
37.6598436803
 20
13.6368558609
 40
30.5
100
AcDbArc
 50
164.7937121239
 51
171.9900966803
  0
ARC
  5
252
100
AcDbEntity
  8
0
100
AcDbCircle
 62
7
  6
BYLAYER
 10
21.6277809532
 20
0.4621159993
 40
22.9861031767
100
AcDbArc
 50
147.2800449405
 51
147.4246242373
  0
ARC
  5
253
100
AcDbEntity
  8
0
100
AcDbCircle
 62
7
  6
BYLAYER
 10
21.6271591099
 20
26.8111943058
 40
22.9853630329
100
AcDbArc
 50
212.5753677599
 51
212.7200391569
  0
ARC
  5
254
100
AcDbEntity
  8
0
100
AcDbCircle
 62
7
  6
BYLAYER
 10
8.6777183748
 20
13.6368558609
 40
6.5
100
AcDbArc
 50
142.0201275562
 51
144.625409554
  0
ARC
  5
255
100
AcDbEntity
  8
0
100
AcDbCircle
 62
7
  6
BYLAYER
 10
8.6934592078
 20
13.6370070763
 40
6.4850634149
100
AcDbArc
 50
145.0538298675
 51
172.9257512923
  0
ARC
  5
256
100
AcDbEntity
  8
0
100
AcDbCircle
 62
7
  6
BYLAYER
 10
8.6932493326
 20
13.6366232762
 40
6.4848413835
100
AcDbArc
 50
187.0737653314
 51
214.9466430018
  0
SPLINE
  5
257
100
AcDbEntity
  8
0
100
AcDbSpline
 62
7
  6
BYLAYER
 70
0
 71
3
 72
11
 73
7
 74
0
 42
0.0000001
 43
0.0000001
 44
0.0000000001
 40
0.0
 40
0.0
 40
0.0
 40
0.0
 40
0.2455832034
 40
0.4937351837
 40
0.7450475549
 40
1.0
 40
1.0
 40
1.0
 40
1.0
 10
2.2424527935
 20
13.0865752141
 30
0.0
 10
2.2615813576
 20
12.9820241599
 30
0.0
 10
2.3088084585
 20
12.7733327915
 30
0.0
 10
2.4053898974
 20
12.4653356994
 30
0.0
 10
2.5276599479
 20
12.1622369824
 30
0.0
 10
2.625192685
 20
11.9657575944
 30
0.0
 10
2.6778889467
 20
11.8688125509
 30
0.0
  0
SPLINE
  5
258
100
AcDbEntity
  8
0
100
AcDbSpline
 62
7
  6
BYLAYER
 70
0
 71
3
 72
16
 73
12
 74
0
 42
0.0000001
 43
0.0000001
 44
0.0000000001
 40
0.0
 40
0.0
 40
0.0
 40
0.0
 40
0.0921100076
 40
0.1305897112
 40
0.1760611786
 40
0.2286293388
 40
0.288262667
 40
0.4283468391
 40
0.5953046071
 40
0.7868814552
 40
1.0
 40
1.0
 40
1.0
 40
1.0
 10
2.2523682867
 20
13.1473600095
 30
0.0
 10
2.2504317799
 20
13.1473600095
 30
0.0
 10
2.2484905147
 20
13.1442750063
 30
0.0
 10
2.2472300626
 20
13.1409598875
 30
0.0
 10
2.2463990134
 20
13.1381729912
 30
0.0
 10
2.2456595453
 20
13.1349519932
 30
0.0
 10
2.2447070393
 20
13.1297278971
 30
0.0
 10
2.2437612983
 20
13.1220743727
 30
0.0
 10
2.2429848839
 20
13.1116167223
 30
0.0
 10
2.2425302002
 20
13.0996052345
 30
0.0
 10
2.2424465479
 20
13.0910962878
 30
0.0
 10
2.2424527941
 20
13.0866157204
 30
0.0
  0
SPLINE
  5
259
100
AcDbEntity
  8
0
100
AcDbSpline
 62
7
  6
BYLAYER
 70
0
 71
3
 72
16
 73
12
 74
0
 42
0.0000001
 43
0.0000001
 44
0.0000000001
 40
0.0
 40
0.0
 40
0.0
 40
0.0
 40
0.2131180209
 40
0.4046935405
 40
0.5716504172
 40
0.711737141
 40
0.7713724434
 40
0.82394246
 40
0.8694151032
 40
0.9078945618
 40
1.0
 40
1.0
 40
1.0
 40
1.0
 10
2.2424527983
 20
14.1870960069
 30
0.0
 10
2.2424464953
 20
14.1826154522
 30
0.0
 10
2.242530082
 20
14.1741065461
 30
0.0
 10
2.2429847838
 20
14.1620951196
 30
0.0
 10
2.2437613371
 20
14.151637475
 30
0.0
 10
2.244707195
 20
14.1439838918
 30
0.0
 10
2.2456597526
 20
14.1387596712
 30
0.0
 10
2.2463992326
 20
14.1355385698
 30
0.0
 10
2.2472302551
 20
14.1327516065
 30
0.0
 10
2.248490597
 20
14.129436519
 30
0.0
 10
2.2504318767
 20
14.1263517124
 30
0.0
 10
2.2523682867
 20
14.1263517124
 30
0.0
  0
SPLINE
  5
25A
100
AcDbEntity
  8
0
100
AcDbSpline
 62
7
  6
BYLAYER
 70
0
 71
3
 72
11
 73
7
 74
0
 42
0.0000001
 43
0.0000001
 44
0.0000000001
 40
0.0
 40
0.0
 40
0.0
 40
0.0
 40
0.2549704709
 40
0.5063037533
 40
0.7544429404
 40
1.0
 40
1.0
 40
1.0
 40
1.0
 10
2.6778586136
 20
15.404894851
 30
0.0
 10
2.6251619529
 20
15.3079471127
 30
0.0
 10
2.5276417943
 20
15.1114538282
 30
0.0
 10
2.4053907579
 20
14.80835267
 30
0.0
 10
2.3088085918
 20
14.5003807388
 30
0.0
 10
2.2615770423
 20
14.2917178118
 30
0.0
 10
2.2424513658
 20
14.1871828654
 30
0.0
  0
SPLINE
  5
25B
100
AcDbEntity
  8
0
100
AcDbSpline
 62
7
  6
BYLAYER
 70
0
 71
3
 72
11
 73
7
 74
0
 42
0.0000001
 43
0.0000001
 44
0.0000000001
 40
0.0
 40
0.0
 40
0.0
 40
0.0
 40
0.2570271819
 40
0.508803698
 40
0.7561353454
 40
1.0
 40
1.0
 40
1.0
 40
1.0
 10
2.6778889467
 20
11.8688125509
 30
0.0
 10
2.6286851975
 20
11.9452629448
 30
0.0
 10
2.5370911756
 20
12.100445755
 30
0.0
 10
2.4201902074
 20
12.3413388855
 30
0.0
 10
2.3257777582
 20
12.5869342448
 30
0.0
 10
2.2777887888
 20
12.7542013446
 30
0.0
 10
2.2577536533
 20
12.838102246
 30
0.0
  0
SPLINE
  5
25C
100
AcDbEntity
  8
0
100
AcDbSpline
 62
7
  6
BYLAYER
 70
0
 71
3
 72
11
 73
7
 74
0
 42
0.0000001
 43
0.0000001
 44
0.0000000001
 40
0.0
 40
0.0
 40
0.0
 40
0.0
 40
0.2438349719
 40
0.4911506273
 40
0.7429502846
 40
1.0
 40
1.0
 40
1.0
 40
1.0
 10
2.2577633959
 20
14.4356831825
 30
0.0
 10
2.2777955165
 20
14.5195663081
 30
0.0
 10
2.325785088
 20
14.6868009095
 30
0.0
 10
2.4201947065
 20
14.9323637325
 30
0.0
 10
2.5370764876
 20
15.1732512811
 30
0.0
 10
2.6286566407
 20
15.3284432259
 30
0.0
 10
2.6778586136
 20
15.404894851
 30
0.0
  0
SPLINE
  5
25D
100
AcDbEntity
  8
0
100
AcDbSpline
 62
7
  6
BYLAYER
 70
0
 71
3
 72
28
 73
24
 74
0
 42
0.0000001
 43
0.0000001
 44
0.0000000001
 40
0.0
 40
0.0
 40
0.0
 40
0.0
 40
0.0011041381
 40
0.0024494316
 40
0.0041775804
 40
0.00635602
 40
0.0090175142
 40
0.0121792858
 40
0.0200371552
 40
0.0299711506
 40
0.041994979
 40
0.0561116922
 40
0.07231063
 40
0.110871992
 40
0.1575014893
 40
0.2120038185
 40
0.2741060911
 40
0.3434768582
 40
0.419780779
 40
0.502650894
 40
0.5916798058
 40
0.7865098239
 40
1.0
 40
1.0
 40
1.0
 40
1.0
 10
16.0277183748
 20
8.083472066
 30
0.0
 10
16.0277183748
 20
8.0830449045
 30
0.0
 10
16.0274458265
 20
8.0820932065
 30
0.0
 10
16.0263962997
 20
8.0808317319
 30
0.0
 10
16.0247668952
 20
8.0796020399
 30
0.0
 10
16.0225335389
 20
8.078377843
 30
0.0
 10
16.0196886403
 20
8.0771500753
 30
0.0
 10
16.0146981903
 20
8.0753783041
 30
0.0
 10
16.0068699131
 20
8.0732394818
 30
0.0
 10
15.995594294
 20
8.0707971399
 30
0.0
 10
15.9818527801
 20
8.0683433558
 30
0.0
 10
15.9656578646
 20
8.0658802482
 30
0.0
 10
15.9392403329
 20
8.0623833768
 30
0.0
 10
15.9002431421
 20
8.0581227721
 30
0.0
 10
15.8464205863
 20
8.0532237165
 30
0.0
 10
15.7834598231
 20
8.0483087832
 30
0.0
 10
15.7116793186
 20
8.0433788298
 30
0.0
 10
15.6314473954
 20
8.0384385008
 30
0.0
 10
15.5431676176
 20
8.0334925937
 30
0.0
 10
15.4472719511
 20
8.0285427614
 30
0.0
 10
15.3055577362
 20
8.0217297972
 30
0.0
 10
15.1133291549
 20
8.0133328632
 30
0.0
 10
14.9554866627
 20
8.0070276028
 30
0.0
 10
14.8729548983
 20
8.0038312064
 30
0.0
  0
SPLINE
  5
25E
100
AcDbEntity
  8
0
100
AcDbSpline
 62
7
  6
BYLAYER
 70
0
 71
3
 72
28
 73
24
 74
0
 42
0.0000001
 43
0.0000001
 44
0.0000000001
 40
0.0
 40
0.0
 40
0.0
 40
0.0
 40
0.2134901735
 40
0.4083201854
 40
0.4973490961
 40
0.5802192112
 40
0.6565231325
 40
0.725893901
 40
0.7879961749
 40
0.8424985046
 40
0.8891280033
 40
0.927689367
 40
0.9438883054
 40
0.9580050189
 40
0.9700288477
 40
0.9799628436
 40
0.9878207135
 40
0.9909824852
 40
0.9936439797
 40
0.9958224194
 40
0.9975505683
 40
0.9988958619
 40
1.0
 40
1.0
 40
1.0
 40
1.0
 10
14.8729548983
 20
19.2698805155
 30
0.0
 10
14.9554866617
 20
19.2666841191
 30
0.0
 10
15.1133291505
 20
19.2603788589
 30
0.0
 10
15.3055577279
 20
19.251981925
 30
0.0
 10
15.44727194
 20
19.245168961
 30
0.0
 10
15.5431676064
 20
19.2402191288
 30
0.0
 10
15.6314473849
 20
19.2352732216
 30
0.0
 10
15.7116793093
 20
19.2303328927
 30
0.0
 10
15.7834598151
 20
19.2254029394
 30
0.0
 10
15.8464205795
 20
19.2204880059
 30
0.0
 10
15.9002431367
 20
19.2155889503
 30
0.0
 10
15.9392403289
 20
19.2113283456
 30
0.0
 10
15.9656578617
 20
19.2078314741
 30
0.0
 10
15.9818527776
 20
19.2053683664
 30
0.0
 10
15.995594292
 20
19.2029145822
 30
0.0
 10
16.0068699116
 20
19.2004722402
 30
0.0
 10
16.0146981892
 20
19.1983334178
 30
0.0
 10
16.0196886396
 20
19.1965616467
 30
0.0
 10
16.0225335384
 20
19.1953338789
 30
0.0
 10
16.0247668949
 20
19.194109682
 30
0.0
 10
16.0263962996
 20
19.19287999
 30
0.0
 10
16.0274458265
 20
19.1916185154
 30
0.0
 10
16.0277183748
 20
19.1906668174
 30
0.0
 10
16.0277183748
 20
19.1902396559
 30
0.0
  0
SPLINE
  5
25F
100
AcDbEntity
  8
0
100
AcDbSpline
 62
7
  6
BYLAYER
 70
0
 71
3
 72
12
 73
8
 74
0
 42
0.0000001
 43
0.0000001
 44
0.0000000001
 40
0.0
 40
0.0
 40
0.0
 40
0.0
 40
0.2918835845
 40
0.5586551631
 40
0.7959614006
 40
0.9023782079
 40
1.0
 40
1.0
 40
1.0
 40
1.0
 10
7.8385258246
 20
20.0231150454
 30
0.0
 10
7.7435612703
 20
20.0351004675
 30
0.0
 10
7.5619754038
 20
20.0594653275
 30
0.0
 10
7.3040159048
 20
20.0994501889
 30
0.0
 10
7.1070206827
 20
20.135353211
 30
0.0
 10
6.9654277982
 20
20.1653699556
 30
0.0
 10
6.9002909604
 20
20.1807121123
 30
0.0
 10
6.8692397603
 20
20.1885014365
 30
0.0
  0
SPLINE
  5
260
100
AcDbEntity
  8
0
100
AcDbSpline
 62
7
  6
BYLAYER
 70
0
 71
3
 72
12
 73
8
 74
0
 42
0.0000001
 43
0.0000001
 44
0.0000000001
 40
0.0
 40
0.0
 40
0.0
 40
0.0
 40
0.0976210665
 40
0.2040364887
 40
0.4413423725
 40
0.708116251
 40
1.0
 40
1.0
 40
1.0
 40
1.0
 10
6.8692397603
 20
7.0852102854
 30
0.0
 10
6.9002906688
 20
7.0929995364
 30
0.0
 10
6.9654266704
 20
7.1083416446
 30
0.0
 10
7.107018428
 20
7.1383584574
 30
0.0
 10
7.3040135893
 20
7.1742607033
 30
0.0
 10
7.5619733164
 20
7.2142451818
 30
0.0
 10
7.7435595301
 20
7.2386108262
 30
0.0
 10
7.8385239338
 20
7.2505963751
 30
0.0
  0
SPLINE
  5
261
100
AcDbEntity
  8
0
100
AcDbSpline
 62
7
  6
BYLAYER
 70
0
 71
3
 72
17
 73
13
 74
0
 42
0.0000001
 43
0.0000001
 44
0.0000000001
 40
0.0
 40
0.0
 40
0.0
 40
0.0
 40
0.108455619
 40
0.1484717037
 40
0.1944838469
 40
0.2466951634
 40
0.305212809
 40
0.3700903494
 40
0.4413469694
 40
0.6029322823
 40
0.7894512676
 40
1.0
 40
1.0
 40
1.0
 40
1.0
 10
6.4777183748
 20
6.9095828204
 30
0.0
 10
6.4777183748
 20
6.9255033749
 30
0.0
 10
6.4949471051
 20
6.9448358328
 30
0.0
 10
6.5174851293
 20
6.9614055335
 30
0.0
 10
6.5348627438
 20
6.9721575649
 30
0.0
 10
6.5551578882
 20
6.9829385656
 30
0.0
 10
6.5785135967
 20
6.9938970683
 30
0.0
 10
6.6048538525
 20
7.0049778085
 30
0.0
 10
6.6456832532
 20
7.0205859474
 30
0.0
 10
6.7040895255
 20
7.0401144952
 30
0.0
 10
6.7828236384
 20
7.0630954304
 30
0.0
 10
6.839242908
 20
7.0777644866
 30
0.0
 10
6.8692397603
 20
7.0852102854
 30
0.0
  0
SPLINE
  5
262
100
AcDbEntity
  8
0
100
AcDbSpline
 62
7
  6
BYLAYER
 70
0
 71
3
 72
17
 73
13
 74
0
 42
0.0000001
 43
0.0000001
 44
0.0000000001
 40
0.0
 40
0.0
 40
0.0
 40
0.0
 40
0.2105482402
 40
0.3970661265
 40
0.55865006
 40
0.6299066256
 40
0.6947845173
 40
0.753302727
 40
0.8055146386
 40
0.8515272507
 40
0.8915436655
 40
1.0
 40
1.0
 40
1.0
 40
1.0
 10
6.8692397603
 20
20.1885014365
 30
0.0
 10
6.839242964
 20
20.1959472214
 30
0.0
 10
6.7828238978
 20
20.2106162395
 30
0.0
 10
6.704090166
 20
20.2335970653
 30
0.0
 10
6.6456842229
 20
20.2531255064
 30
0.0
 10
6.6048548934
 20
20.2687334406
 30
0.0
 10
6.5785144452
 20
20.2798140832
 30
0.0
 10
6.5551584514
 20
20.2907725274
 30
0.0
 10
6.5348630152
 20
20.3015535143
 30
0.0
 10
6.5174851874
 20
20.3123056101
 30
0.0
 10
6.4949469978
 20
20.3288755066
 30
0.0
 10
6.4777183748
 20
20.3482082344
 30
0.0
 10
6.4777183748
 20
20.3641289015
 30
0.0
  0
ELLIPSE
  5
263
100
AcDbEntity
  8
0
100
AcDbEllipse
 62
7
  6
BYLAYER
 10
13.5277183748
 20
8.118597559
 30
0.0
 11
0.5
 21
0.0
 31
0.0
 40
0.1102719595
 41
-1.1344640138
 42
-0.0
  0
ELLIPSE
  5
264
100
AcDbEntity
  8
0
100
AcDbEllipse
 62
7
  6
BYLAYER
 10
13.5277183748
 20
19.1551141629
 30
0.0
 11
0.5
 21
0.0
 31
0.0
 40
0.1102719595
 41
0.0
 42
1.1344640138
  0
ENDSEC
  0
SECTION
  2
OBJECTS
  0
DICTIONARY
  5
C
100
AcDbDictionary
280
0
281
1
  3
ACAD_GROUP
350
D
  3
ACAD_MLINESTYLE
350
17
  3
ACAD_LAYOUT
350
1A
  3
ACAD_PLOTSETTINGS
350
19
  3
ACAD_PLOTSTYLENAME
350
E
  0
DICTIONARY
  5
D
102
{ACAD_REACTORS
330
C
102
}
100
AcDbDictionary
280
0
281
1
  0
ACDBDICTIONARYWDFLT
  5
E
102
{ACAD_REACTORS
330
C
102
}
100
AcDbDictionary
281
1
  3
Normal
350
F
100
AcDbDictionaryWithDefault
340
F
  0
DICTIONARY
  5
17
102
{ACAD_REACTORS
330
C
102
}
100
AcDbDictionary
280
0
281
1
  3
Standard
350
18
  0
DICTIONARY
  5
19
102
{ACAD_REACTORS
330
C
102
}
100
AcDbDictionary
281
1
  0
DICTIONARY
  5
1A
102
{ACAD_REACTORS
330
C
102
}
100
AcDbDictionary
281
1
  3
Model
350
265
  3
Layout1
350
266
  0
ACDBPLACEHOLDER
  5
F
102
{ACAD_REACTORS
330
E
102
}
  0
MLINESTYLE
  5
18
102
{ACAD_REACTORS
330
17
102
}
100
AcDbMlineStyle
  2
STANDARD
 70
0
  3

 62
256
 51
90.0
 52
90.0
 71
2
 49
0.5
 62
256
  6
BYLAYER
 49
-0.5
 62
256
  6
BYLAYER
  0
LAYOUT
  5
265
102
{ACAD_REACTORS
330
1A
102
}
100
AcDbPlotSettings
  1

  2
none_device
  4

  6

 40
0.0
 41
0.0
 42
0.0
 43
0.0
 44
210.0
 45
297.0
 46
0.0
 47
0.0
 48
0.0
 49
0.0
140
0.0
141
0.0
142
1.0
143
1.0
 70
1024
 72
1
 73
0
 74
0
  7

 75
0
147
1.0
148
0.0
149
0.0
100
AcDbLayout
  1
Model
 70
0
 71
0
 10
0.0
 20
0.0
 11
210.0
 21
297.0
 12
0.0
 22
0.0
 32
0.0
 14
0.0
 24
0.0
 34
0.0
 15
0.0
 25
0.0
 35
0.0
146
0.0
 13
0.0
 23
0.0
 33
0.0
 16
1.0
 26
0.0
 36
0.0
 17
0.0
 27
1.0
 37
0.0
 76
0
330
210
345
0
346
0
  0
LAYOUT
  5
266
102
{ACAD_REACTORS
330
1A
102
}
100
AcDbPlotSettings
  1

  2
none_device
  4

  6

 40
0.0
 41
0.0
 42
0.0
 43
0.0
 44
210.0
 45
297.0
 46
0.0
 47
0.0
 48
0.0
 49
0.0
140
0.0
141
0.0
142
1.0
143
1.0
 70
0
 72
1
 73
0
 74
0
  7

 75
0
147
1.0
148
0.0
149
0.0
100
AcDbLayout
  1
Layout1
 70
0
 71
1
 10
0.0
 20
0.0
 11
210.0
 21
297.0
 12
0.0
 22
0.0
 32
0.0
 14
0.0
 24
0.0
 34
0.0
 15
0.0
 25
0.0
 35
0.0
146
0.0
 13
0.0
 23
0.0
 33
0.0
 16
1.0
 26
0.0
 36
0.0
 17
0.0
 27
1.0
 37
0.0
 76
0
330
211
345
0
346
0
  0
ENDSEC
  0
EOF
