  0
SECTION
  2
HEADER
  9
$ACADVER
  1
AC1006
  9
$EXTMIN
 10
-2.333000
 20
-4.114606
  9
$EXTMAX
 10
2.330000
 20
4.123000
  9
$LTSCALE
 40
0.000394
  9
$PDMODE
 70
    35
  9
$PDSIZE
 40
0.000315
  0
ENDSEC
  0
SECTION
  2
TABLES
  0
TABLE
  2
LTYPE
 70
     9
  0
LTYPE
  2
CONTINUOUS
 70
    64
  3
Solid line
 72
    65
 73
     0
 40
0.000000
  0
LTYPE
  2
DASHED
 70
    64
  3
__ __ __ __ __ __ __ __ __ __ __ __ __ __ __
 72
    65
 73
     2
 40
0.000003
 49
0.000002
 49
-0.000001
  0
LTYPE
  2
HIDDEN
 70
    64
  3
 _ _ _ _ _ _ _ _ _ _ _ _ _ _ _ _ _ _ _ _ _ _
 72
    65
 73
     2
 40
0.000001
 49
0.000001
 49
-0.000000
  0
LTYPE
  2
CENTER
 70
    64
  3
____ _ ____ _ ____ _ ____ _ ____ _ ____ _ ____
 72
    65
 73
     4
 40
0.000008
 49
0.000005
 49
-0.000001
 49
0.000001
 49
-0.000001
  0
LTYPE
  2
PHANTOM
 70
    64
  3
_____ _ _ _____ _ _ _____ _ _ _____ _ _ ____
 72
    65
 73
     6
 40
0.000010
 49
0.000005
 49
-0.000001
 49
0.000001
 49
-0.000001
 49
0.000001
 49
-0.000001
  0
LTYPE
  2
DOT
 70
    64
  3
...............................................
 72
    65
 73
     2
 40
0.000001
 49
0.000000
 49
-0.000001
  0
LTYPE
  2
DASHDOT
 70
    64
  3
__ . __ . __ . __ . __ . __ . __ . __ . __ . __
 72
    65
 73
     4
 40
0.000004
 49
0.000002
 49
-0.000001
 49
0.000000
 49
-0.000001
  0
LTYPE
  2
BORDER
 70
    64
  3
__ __ . __ __ . __ __ . __ __ . __ __ . __ __
 72
    65
 73
     6
 40
0.000007
 49
0.000002
 49
-0.000001
 49
0.000002
 49
-0.000001
 49
0.000000
 49
-0.000001
  0
LTYPE
  2
DIVIDE
 70
    64
  3
__ . . __ . . __ . . __ . . __ . . __ . . __
 72
    65
 73
     6
 40
0.000005
 49
0.000002
 49
-0.000001
 49
0.000000
 49
-0.000001
 49
0.000000
 49
-0.000001
  0
LTYPE
  2
DOTDOT
 70
    64
  3
 . .  . .  . .  . .  . .  . . 
 72
    65
 73
     5
 40
0.000002
 49
-0.000001
 49
0.000000
 49
-0.000001
 49
0.000000
 49
-0.000001
  0
ENDTAB
  0
TABLE
  2
STYLE
 70
     0
  0
ENDTAB
  0
TABLE
  2
LAYER
 70
     3
  0
LAYER
  2
FOREGROUND
 70
    64
 62
     7
  6
CONTINUOUS
  0
LAYER
  2
BACKGROUND
 70
    65
 62
    -7
  6
CONTINUOUS
  0
LAYER
  2
PLAN_1
 70
    64
 62
     7
  6
CONTINUOUS
  0
ENDTAB
  0
ENDSEC
  0
SECTION
  2
ENTITIES
  0
POLYLINE
  8
PLAN_1
  6
CONTINUOUS
 66
     1
 40
0.003000
 41
0.003000
  0
VERTEX
  8
PLAN_1
  6
CONTINUOUS
 10
0.469331
 20
-4.080110
  0
VERTEX
  8
PLAN_1
  6
CONTINUOUS
 10
0.312815
 20
-4.080110
  0
VERTEX
  8
PLAN_1
  6
CONTINUOUS
 10
0.312815
 20
-4.057457
  0
VERTEX
  8
PLAN_1
  6
CONTINUOUS
 10
0.434835
 20
-3.904547
  0
VERTEX
  8
PLAN_1
  6
CONTINUOUS
 10
0.322083
 20
-3.904547
  0
VERTEX
  8
PLAN_1
  6
CONTINUOUS
 10
0.322083
 20
-3.880866
  0
VERTEX
  8
PLAN_1
  6
CONTINUOUS
 10
0.469331
 20
-3.880866
  0
VERTEX
  8
PLAN_1
  6
CONTINUOUS
 10
0.469331
 20
-3.904031
  0
VERTEX
  8
PLAN_1
  6
CONTINUOUS
 10
0.346795
 20
-4.055913
  0
VERTEX
  8
PLAN_1
  6
CONTINUOUS
 10
0.469331
 20
-4.055913
  0
VERTEX
  8
PLAN_1
  6
CONTINUOUS
 10
0.469331
 20
-4.080110
  0
SEQEND
  8
0
  0
POLYLINE
  8
PLAN_1
  6
CONTINUOUS
 66
     1
 40
0.003000
 41
0.003000
  0
VERTEX
  8
PLAN_1
  6
CONTINUOUS
 10
0.637173
 20
-3.940587
  0
VERTEX
  8
PLAN_1
  6
CONTINUOUS
 10
0.635114
 20
-3.934409
  0
VERTEX
  8
PLAN_1
  6
CONTINUOUS
 10
0.633051
 20
-3.928744
  0
VERTEX
  8
PLAN_1
  6
CONTINUOUS
 10
0.630480
 20
-3.923598
  0
VERTEX
  8
PLAN_1
  6
CONTINUOUS
 10
0.627906
 20
-3.919476
  0
VERTEX
  8
PLAN_1
  6
CONTINUOUS
 10
0.624299
 20
-3.915358
  0
VERTEX
  8
PLAN_1
  6
CONTINUOUS
 10
0.621213
 20
-3.912272
  0
VERTEX
  8
PLAN_1
  6
CONTINUOUS
 10
0.617094
 20
-3.909181
  0
VERTEX
  8
PLAN_1
  6
CONTINUOUS
 10
0.613488
 20
-3.906606
  0
VERTEX
  8
PLAN_1
  6
CONTINUOUS
 10
0.609370
 20
-3.904547
  0
VERTEX
  8
PLAN_1
  6
CONTINUOUS
 10
0.605252
 20
-3.903004
  0
VERTEX
  8
PLAN_1
  6
CONTINUOUS
 10
0.601134
 20
-3.901972
  0
VERTEX
  8
PLAN_1
  6
CONTINUOUS
 10
0.597012
 20
-3.900945
  0
VERTEX
  8
PLAN_1
  6
CONTINUOUS
 10
0.588776
 20
-3.899398
  0
VERTEX
  8
PLAN_1
  6
CONTINUOUS
 10
0.581055
 20
-3.899398
  0
VERTEX
  8
PLAN_1
  6
CONTINUOUS
 10
0.574358
 20
-3.899398
  0
VERTEX
  8
PLAN_1
  6
CONTINUOUS
 10
0.568181
 20
-3.900429
  0
VERTEX
  8
PLAN_1
  6
CONTINUOUS
 10
0.561488
 20
-3.901972
  0
VERTEX
  8
PLAN_1
  6
CONTINUOUS
 10
0.555827
 20
-3.904031
  0
VERTEX
  8
PLAN_1
  6
CONTINUOUS
 10
0.550161
 20
-3.907122
  0
VERTEX
  8
PLAN_1
  6
CONTINUOUS
 10
0.544500
 20
-3.910213
  0
VERTEX
  8
PLAN_1
  6
CONTINUOUS
 10
0.539866
 20
-3.914331
  0
VERTEX
  8
PLAN_1
  6
CONTINUOUS
 10
0.535232
 20
-3.918965
  0
VERTEX
  8
PLAN_1
  6
CONTINUOUS
 10
0.530598
 20
-3.924626
  0
VERTEX
  8
PLAN_1
  6
CONTINUOUS
 10
0.526992
 20
-3.930291
  0
VERTEX
  8
PLAN_1
  6
CONTINUOUS
 10
0.523906
 20
-3.936984
  0
VERTEX
  8
PLAN_1
  6
CONTINUOUS
 10
0.520815
 20
-3.943677
  0
VERTEX
  8
PLAN_1
  6
CONTINUOUS
 10
0.518756
 20
-3.951398
  0
VERTEX
  8
PLAN_1
  6
CONTINUOUS
 10
0.517213
 20
-3.960150
  0
VERTEX
  8
PLAN_1
  6
CONTINUOUS
 10
0.516181
 20
-3.968906
  0
VERTEX
  8
PLAN_1
  6
CONTINUOUS
 10
0.516181
 20
-3.978169
  0
VERTEX
  8
PLAN_1
  6
CONTINUOUS
 10
0.516181
 20
-3.986925
  0
VERTEX
  8
PLAN_1
  6
CONTINUOUS
 10
0.516697
 20
-3.995161
  0
VERTEX
  8
PLAN_1
  6
CONTINUOUS
 10
0.517728
 20
-4.003398
  0
VERTEX
  8
PLAN_1
  6
CONTINUOUS
 10
0.519272
 20
-4.011122
  0
VERTEX
  8
PLAN_1
  6
CONTINUOUS
 10
0.521331
 20
-4.018331
  0
VERTEX
  8
PLAN_1
  6
CONTINUOUS
 10
0.523906
 20
-4.025024
  0
VERTEX
  8
PLAN_1
  6
CONTINUOUS
 10
0.526992
 20
-4.031717
  0
VERTEX
  8
PLAN_1
  6
CONTINUOUS
 10
0.530598
 20
-4.037378
  0
VERTEX
  8
PLAN_1
  6
CONTINUOUS
 10
0.534717
 20
-4.042528
  0
VERTEX
  8
PLAN_1
  6
CONTINUOUS
 10
0.539350
 20
-4.047677
  0
VERTEX
  8
PLAN_1
  6
CONTINUOUS
 10
0.545012
 20
-4.051280
  0
VERTEX
  8
PLAN_1
  6
CONTINUOUS
 10
0.550677
 20
-4.054882
  0
VERTEX
  8
PLAN_1
  6
CONTINUOUS
 10
0.557370
 20
-4.057457
  0
VERTEX
  8
PLAN_1
  6
CONTINUOUS
 10
0.565094
 20
-4.059516
  0
VERTEX
  8
PLAN_1
  6
CONTINUOUS
 10
0.573331
 20
-4.061063
  0
VERTEX
  8
PLAN_1
  6
CONTINUOUS
 10
0.582083
 20
-4.061575
  0
VERTEX
  8
PLAN_1
  6
CONTINUOUS
 10
0.589291
 20
-4.061063
  0
VERTEX
  8
PLAN_1
  6
CONTINUOUS
 10
0.597012
 20
-4.059516
  0
VERTEX
  8
PLAN_1
  6
CONTINUOUS
 10
0.601134
 20
-4.057972
  0
VERTEX
  8
PLAN_1
  6
CONTINUOUS
 10
0.605252
 20
-4.056429
  0
VERTEX
  8
PLAN_1
  6
CONTINUOUS
 10
0.609370
 20
-4.053854
  0
VERTEX
  8
PLAN_1
  6
CONTINUOUS
 10
0.613488
 20
-4.051280
  0
VERTEX
  8
PLAN_1
  6
CONTINUOUS
 10
0.617606
 20
-4.048189
  0
VERTEX
  8
PLAN_1
  6
CONTINUOUS
 10
0.621213
 20
-4.044071
  0
VERTEX
  8
PLAN_1
  6
CONTINUOUS
 10
0.625331
 20
-4.039953
  0
VERTEX
  8
PLAN_1
  6
CONTINUOUS
 10
0.628421
 20
-4.034803
  0
VERTEX
  8
PLAN_1
  6
CONTINUOUS
 10
0.631508
 20
-4.029142
  0
VERTEX
  8
PLAN_1
  6
CONTINUOUS
 10
0.634598
 20
-4.022449
  0
VERTEX
  8
PLAN_1
  6
CONTINUOUS
 10
0.636657
 20
-4.014724
  0
VERTEX
  8
PLAN_1
  6
CONTINUOUS
 10
0.638717
 20
-4.006488
  0
VERTEX
  8
PLAN_1
  6
CONTINUOUS
 10
0.664972
 20
-4.006488
  0
VERTEX
  8
PLAN_1
  6
CONTINUOUS
 10
0.663945
 20
-4.013697
  0
VERTEX
  8
PLAN_1
  6
CONTINUOUS
 10
0.662398
 20
-4.019874
  0
VERTEX
  8
PLAN_1
  6
CONTINUOUS
 10
0.660339
 20
-4.026051
  0
VERTEX
  8
PLAN_1
  6
CONTINUOUS
 10
0.658795
 20
-4.031717
  0
VERTEX
  8
PLAN_1
  6
CONTINUOUS
 10
0.656220
 20
-4.036862
  0
VERTEX
  8
PLAN_1
  6
CONTINUOUS
 10
0.654161
 20
-4.042012
  0
VERTEX
  8
PLAN_1
  6
CONTINUOUS
 10
0.651587
 20
-4.046646
  0
VERTEX
  8
PLAN_1
  6
CONTINUOUS
 10
0.649012
 20
-4.050764
  0
VERTEX
  8
PLAN_1
  6
CONTINUOUS
 10
0.645925
 20
-4.054370
  0
VERTEX
  8
PLAN_1
  6
CONTINUOUS
 10
0.642835
 20
-4.057972
  0
VERTEX
  8
PLAN_1
  6
CONTINUOUS
 10
0.639748
 20
-4.061575
  0
VERTEX
  8
PLAN_1
  6
CONTINUOUS
 10
0.636657
 20
-4.064665
  0
VERTEX
  8
PLAN_1
  6
CONTINUOUS
 10
0.629965
 20
-4.069815
  0
VERTEX
  8
PLAN_1
  6
CONTINUOUS
 10
0.622756
 20
-4.073933
  0
VERTEX
  8
PLAN_1
  6
CONTINUOUS
 10
0.616063
 20
-4.077535
  0
VERTEX
  8
PLAN_1
  6
CONTINUOUS
 10
0.608854
 20
-4.080110
  0
VERTEX
  8
PLAN_1
  6
CONTINUOUS
 10
0.602677
 20
-4.082169
  0
VERTEX
  8
PLAN_1
  6
CONTINUOUS
 10
0.595984
 20
-4.083717
  0
VERTEX
  8
PLAN_1
  6
CONTINUOUS
 10
0.585173
 20
-4.084744
  0
VERTEX
  8
PLAN_1
  6
CONTINUOUS
 10
0.577965
 20
-4.085260
  0
VERTEX
  8
PLAN_1
  6
CONTINUOUS
 10
0.569213
 20
-4.084744
  0
VERTEX
  8
PLAN_1
  6
CONTINUOUS
 10
0.560972
 20
-4.083717
  0
VERTEX
  8
PLAN_1
  6
CONTINUOUS
 10
0.552736
 20
-4.082169
  0
VERTEX
  8
PLAN_1
  6
CONTINUOUS
 10
0.544500
 20
-4.079594
  0
VERTEX
  8
PLAN_1
  6
CONTINUOUS
 10
0.536776
 20
-4.075992
  0
VERTEX
  8
PLAN_1
  6
CONTINUOUS
 10
0.529567
 20
-4.071874
  0
VERTEX
  8
PLAN_1
  6
CONTINUOUS
 10
0.522362
 20
-4.066724
  0
VERTEX
  8
PLAN_1
  6
CONTINUOUS
 10
0.516181
 20
-4.061063
  0
VERTEX
  8
PLAN_1
  6
CONTINUOUS
 10
0.513094
 20
-4.057457
  0
VERTEX
  8
PLAN_1
  6
CONTINUOUS
 10
0.510004
 20
-4.054370
  0
VERTEX
  8
PLAN_1
  6
CONTINUOUS
 10
0.507429
 20
-4.050248
  0
VERTEX
  8
PLAN_1
  6
CONTINUOUS
 10
0.504854
 20
-4.046646
  0
VERTEX
  8
PLAN_1
  6
CONTINUOUS
 10
0.502280
 20
-4.042012
  0
VERTEX
  8
PLAN_1
  6
CONTINUOUS
 10
0.499709
 20
-4.037894
  0
VERTEX
  8
PLAN_1
  6
CONTINUOUS
 10
0.497646
 20
-4.033260
  0
VERTEX
  8
PLAN_1
  6
CONTINUOUS
 10
0.495587
 20
-4.028110
  0
VERTEX
  8
PLAN_1
  6
CONTINUOUS
 10
0.494043
 20
-4.022965
  0
VERTEX
  8
PLAN_1
  6
CONTINUOUS
 10
0.492500
 20
-4.017299
  0
VERTEX
  8
PLAN_1
  6
CONTINUOUS
 10
0.491469
 20
-4.011638
  0
VERTEX
  8
PLAN_1
  6
CONTINUOUS
 10
0.489925
 20
-4.005972
  0
VERTEX
  8
PLAN_1
  6
CONTINUOUS
 10
0.489409
 20
-3.999280
  0
VERTEX
  8
PLAN_1
  6
CONTINUOUS
 10
0.488894
 20
-3.993102
  0
VERTEX
  8
PLAN_1
  6
CONTINUOUS
 10
0.488382
 20
-3.986409
  0
VERTEX
  8
PLAN_1
  6
CONTINUOUS
 10
0.488382
 20
-3.979201
  0
VERTEX
  8
PLAN_1
  6
CONTINUOUS
 10
0.488382
 20
-3.967874
  0
VERTEX
  8
PLAN_1
  6
CONTINUOUS
 10
0.489925
 20
-3.957063
  0
VERTEX
  8
PLAN_1
  6
CONTINUOUS
 10
0.491984
 20
-3.946764
  0
VERTEX
  8
PLAN_1
  6
CONTINUOUS
 10
0.494559
 20
-3.936984
  0
VERTEX
  8
PLAN_1
  6
CONTINUOUS
 10
0.498161
 20
-3.927717
  0
VERTEX
  8
PLAN_1
  6
CONTINUOUS
 10
0.502280
 20
-3.919476
  0
VERTEX
  8
PLAN_1
  6
CONTINUOUS
 10
0.507429
 20
-3.911756
  0
VERTEX
  8
PLAN_1
  6
CONTINUOUS
 10
0.513094
 20
-3.904547
  0
VERTEX
  8
PLAN_1
  6
CONTINUOUS
 10
0.519272
 20
-3.897854
  0
VERTEX
  8
PLAN_1
  6
CONTINUOUS
 10
0.526480
 20
-3.892189
  0
VERTEX
  8
PLAN_1
  6
CONTINUOUS
 10
0.533685
 20
-3.887043
  0
VERTEX
  8
PLAN_1
  6
CONTINUOUS
 10
0.541925
 20
-3.882925
  0
VERTEX
  8
PLAN_1
  6
CONTINUOUS
 10
0.551193
 20
-3.879835
  0
VERTEX
  8
PLAN_1
  6
CONTINUOUS
 10
0.560461
 20
-3.877260
  0
VERTEX
  8
PLAN_1
  6
CONTINUOUS
 10
0.570756
 20
-3.875717
  0
VERTEX
  8
PLAN_1
  6
CONTINUOUS
 10
0.581055
 20
-3.875201
  0
VERTEX
  8
PLAN_1
  6
CONTINUOUS
 10
0.590319
 20
-3.875717
  0
VERTEX
  8
PLAN_1
  6
CONTINUOUS
 10
0.599075
 20
-3.876744
  0
VERTEX
  8
PLAN_1
  6
CONTINUOUS
 10
0.607311
 20
-3.878803
  0
VERTEX
  8
PLAN_1
  6
CONTINUOUS
 10
0.615031
 20
-3.880866
  0
VERTEX
  8
PLAN_1
  6
CONTINUOUS
 10
0.622240
 20
-3.883953
  0
VERTEX
  8
PLAN_1
  6
CONTINUOUS
 10
0.628421
 20
-3.887043
  0
VERTEX
  8
PLAN_1
  6
CONTINUOUS
 10
0.634598
 20
-3.891161
  0
VERTEX
  8
PLAN_1
  6
CONTINUOUS
 10
0.639748
 20
-3.895280
  0
VERTEX
  8
PLAN_1
  6
CONTINUOUS
 10
0.644894
 20
-3.900429
  0
VERTEX
  8
PLAN_1
  6
CONTINUOUS
 10
0.649012
 20
-3.905579
  0
VERTEX
  8
PLAN_1
  6
CONTINUOUS
 10
0.652618
 20
-3.910724
  0
VERTEX
  8
PLAN_1
  6
CONTINUOUS
 10
0.655705
 20
-3.916390
  0
VERTEX
  8
PLAN_1
  6
CONTINUOUS
 10
0.658280
 20
-3.922051
  0
VERTEX
  8
PLAN_1
  6
CONTINUOUS
 10
0.660339
 20
-3.928232
  0
VERTEX
  8
PLAN_1
  6
CONTINUOUS
 10
0.661886
 20
-3.934409
  0
VERTEX
  8
PLAN_1
  6
CONTINUOUS
 10
0.662913
 20
-3.940587
  0
VERTEX
  8
PLAN_1
  6
CONTINUOUS
 10
0.637173
 20
-3.940587
  0
SEQEND
  8
0
  0
POLYLINE
  8
PLAN_1
  6
CONTINUOUS
 66
     1
 40
0.003000
 41
0.003000
  0
VERTEX
  8
PLAN_1
  6
CONTINUOUS
 10
0.724181
 20
-4.080110
  0
VERTEX
  8
PLAN_1
  6
CONTINUOUS
 10
0.697409
 20
-4.080110
  0
VERTEX
  8
PLAN_1
  6
CONTINUOUS
 10
0.697409
 20
-3.880866
  0
VERTEX
  8
PLAN_1
  6
CONTINUOUS
 10
0.724181
 20
-3.880866
  0
VERTEX
  8
PLAN_1
  6
CONTINUOUS
 10
0.724181
 20
-3.977142
  0
VERTEX
  8
PLAN_1
  6
CONTINUOUS
 10
0.820972
 20
-3.880866
  0
VERTEX
  8
PLAN_1
  6
CONTINUOUS
 10
0.858043
 20
-3.880866
  0
VERTEX
  8
PLAN_1
  6
CONTINUOUS
 10
0.775154
 20
-3.961181
  0
VERTEX
  8
PLAN_1
  6
CONTINUOUS
 10
0.860618
 20
-4.080110
  0
VERTEX
  8
PLAN_1
  6
CONTINUOUS
 10
0.825606
 20
-4.080110
  0
VERTEX
  8
PLAN_1
  6
CONTINUOUS
 10
0.755587
 20
-3.980232
  0
VERTEX
  8
PLAN_1
  6
CONTINUOUS
 10
0.724181
 20
-4.010091
  0
VERTEX
  8
PLAN_1
  6
CONTINUOUS
 10
0.724181
 20
-4.080110
  0
SEQEND
  8
0
  0
POLYLINE
  8
PLAN_1
  6
CONTINUOUS
 66
     1
 40
0.003000
 41
0.003000
  0
VERTEX
  8
PLAN_1
  6
CONTINUOUS
 10
0.967705
 20
-4.080110
  0
VERTEX
  8
PLAN_1
  6
CONTINUOUS
 10
0.940933
 20
-4.080110
  0
VERTEX
  8
PLAN_1
  6
CONTINUOUS
 10
0.940933
 20
-3.999795
  0
VERTEX
  8
PLAN_1
  6
CONTINUOUS
 10
0.865764
 20
-3.880866
  0
VERTEX
  8
PLAN_1
  6
CONTINUOUS
 10
0.896657
 20
-3.880866
  0
VERTEX
  8
PLAN_1
  6
CONTINUOUS
 10
0.953803
 20
-3.976626
  0
VERTEX
  8
PLAN_1
  6
CONTINUOUS
 10
1.011469
 20
-3.880866
  0
VERTEX
  8
PLAN_1
  6
CONTINUOUS
 10
1.042874
 20
-3.880866
  0
VERTEX
  8
PLAN_1
  6
CONTINUOUS
 10
0.967705
 20
-3.999795
  0
VERTEX
  8
PLAN_1
  6
CONTINUOUS
 10
0.967705
 20
-4.080110
  0
SEQEND
  8
0
  0
POLYLINE
  8
PLAN_1
  6
CONTINUOUS
 66
     1
 40
0.003000
 41
0.003000
  0
VERTEX
  8
PLAN_1
  6
CONTINUOUS
 10
1.058319
 20
-3.951913
  0
VERTEX
  8
PLAN_1
  6
CONTINUOUS
 10
1.058835
 20
-3.945220
  0
VERTEX
  8
PLAN_1
  6
CONTINUOUS
 10
1.059350
 20
-3.938528
  0
VERTEX
  8
PLAN_1
  6
CONTINUOUS
 10
1.060894
 20
-3.932350
  0
VERTEX
  8
PLAN_1
  6
CONTINUOUS
 10
1.062437
 20
-3.926169
  0
VERTEX
  8
PLAN_1
  6
CONTINUOUS
 10
1.064496
 20
-3.920508
  0
VERTEX
  8
PLAN_1
  6
CONTINUOUS
 10
1.067587
 20
-3.914843
  0
VERTEX
  8
PLAN_1
  6
CONTINUOUS
 10
1.070677
 20
-3.909697
  0
VERTEX
  8
PLAN_1
  6
CONTINUOUS
 10
1.074280
 20
-3.905063
  0
VERTEX
  8
PLAN_1
  6
CONTINUOUS
 10
1.078398
 20
-3.900429
  0
VERTEX
  8
PLAN_1
  6
CONTINUOUS
 10
1.083547
 20
-3.896823
  0
VERTEX
  8
PLAN_1
  6
CONTINUOUS
 10
1.088697
 20
-3.893220
  0
VERTEX
  8
PLAN_1
  6
CONTINUOUS
 10
1.093843
 20
-3.890130
  0
VERTEX
  8
PLAN_1
  6
CONTINUOUS
 10
1.100024
 20
-3.888071
  0
VERTEX
  8
PLAN_1
  6
CONTINUOUS
 10
1.106717
 20
-3.886012
  0
VERTEX
  8
PLAN_1
  6
CONTINUOUS
 10
1.113925
 20
-3.884984
  0
VERTEX
  8
PLAN_1
  6
CONTINUOUS
 10
1.121130
 20
-3.884984
  0
VERTEX
  8
PLAN_1
  6
CONTINUOUS
 10
1.126795
 20
-3.884984
  0
VERTEX
  8
PLAN_1
  6
CONTINUOUS
 10
1.132457
 20
-3.885496
  0
VERTEX
  8
PLAN_1
  6
CONTINUOUS
 10
1.137091
 20
-3.886528
  0
VERTEX
  8
PLAN_1
  6
CONTINUOUS
 10
1.142240
 20
-3.887559
  0
VERTEX
  8
PLAN_1
  6
CONTINUOUS
 10
1.146358
 20
-3.888587
  0
VERTEX
  8
PLAN_1
  6
CONTINUOUS
 10
1.150476
 20
-3.890646
  0
VERTEX
  8
PLAN_1
  6
CONTINUOUS
 10
1.154598
 20
-3.892189
  0
VERTEX
  8
PLAN_1
  6
CONTINUOUS
 10
1.158201
 20
-3.894764
  0
VERTEX
  8
PLAN_1
  6
CONTINUOUS
 10
1.161291
 20
-3.896823
  0
VERTEX
  8
PLAN_1
  6
CONTINUOUS
 10
1.164378
 20
-3.899398
  0
VERTEX
  8
PLAN_1
  6
CONTINUOUS
 10
1.167469
 20
-3.901972
  0
VERTEX
  8
PLAN_1
  6
CONTINUOUS
 10
1.170043
 20
-3.905063
  0
VERTEX
  8
PLAN_1
  6
CONTINUOUS
 10
1.174677
 20
-3.911240
  0
VERTEX
  8
PLAN_1
  6
CONTINUOUS
 10
1.178795
 20
-3.918449
  0
VERTEX
  8
PLAN_1
  6
CONTINUOUS
 10
1.181882
 20
-3.925142
  0
VERTEX
  8
PLAN_1
  6
CONTINUOUS
 10
1.184457
 20
-3.932862
  0
VERTEX
  8
PLAN_1
  6
CONTINUOUS
 10
1.186004
 20
-3.940071
  0
VERTEX
  8
PLAN_1
  6
CONTINUOUS
 10
1.187547
 20
-3.947795
  0
VERTEX
  8
PLAN_1
  6
CONTINUOUS
 10
1.188575
 20
-3.955004
  0
VERTEX
  8
PLAN_1
  6
CONTINUOUS
 10
1.189091
 20
-3.962209
  0
VERTEX
  8
PLAN_1
  6
CONTINUOUS
 10
1.189606
 20
-3.968906
  0
VERTEX
  8
PLAN_1
  6
CONTINUOUS
 10
1.189606
 20
-3.975083
  0
VERTEX
  8
PLAN_1
  6
CONTINUOUS
 10
1.189091
 20
-3.985894
  0
VERTEX
  8
PLAN_1
  6
CONTINUOUS
 10
1.188063
 20
-4.001339
  0
VERTEX
  8
PLAN_1
  6
CONTINUOUS
 10
1.186516
 20
-4.010091
  0
VERTEX
  8
PLAN_1
  6
CONTINUOUS
 10
1.184972
 20
-4.019358
  0
VERTEX
  8
PLAN_1
  6
CONTINUOUS
 10
1.182398
 20
-4.028626
  0
VERTEX
  8
PLAN_1
  6
CONTINUOUS
 10
1.179311
 20
-4.037894
  0
VERTEX
  8
PLAN_1
  6
CONTINUOUS
 10
1.175189
 20
-4.047161
  0
VERTEX
  8
PLAN_1
  6
CONTINUOUS
 10
1.170555
 20
-4.055913
  0
VERTEX
  8
PLAN_1
  6
CONTINUOUS
 10
1.167984
 20
-4.060031
  0
VERTEX
  8
PLAN_1
  6
CONTINUOUS
 10
1.164894
 20
-4.064150
  0
VERTEX
  8
PLAN_1
  6
CONTINUOUS
 10
1.161803
 20
-4.067756
  0
VERTEX
  8
PLAN_1
  6
CONTINUOUS
 10
1.158201
 20
-4.070843
  0
VERTEX
  8
PLAN_1
  6
CONTINUOUS
 10
1.154083
 20
-4.073933
  0
VERTEX
  8
PLAN_1
  6
CONTINUOUS
 10
1.149965
 20
-4.077024
  0
VERTEX
  8
PLAN_1
  6
CONTINUOUS
 10
1.145843
 20
-4.079083
  0
VERTEX
  8
PLAN_1
  6
CONTINUOUS
 10
1.141209
 20
-4.081142
  0
VERTEX
  8
PLAN_1
  6
CONTINUOUS
 10
1.136063
 20
-4.083201
  0
VERTEX
  8
PLAN_1
  6
CONTINUOUS
 10
1.130398
 20
-4.084228
  0
VERTEX
  8
PLAN_1
  6
CONTINUOUS
 10
1.124736
 20
-4.084744
  0
VERTEX
  8
PLAN_1
  6
CONTINUOUS
 10
1.118555
 20
-4.085260
  0
VERTEX
  8
PLAN_1
  6
CONTINUOUS
 10
1.110319
 20
-4.084744
  0
VERTEX
  8
PLAN_1
  6
CONTINUOUS
 10
1.103110
 20
-4.083717
  0
VERTEX
  8
PLAN_1
  6
CONTINUOUS
 10
1.096417
 20
-4.082169
  0
VERTEX
  8
PLAN_1
  6
CONTINUOUS
 10
1.090240
 20
-4.079594
  0
VERTEX
  8
PLAN_1
  6
CONTINUOUS
 10
1.085091
 20
-4.077024
  0
VERTEX
  8
PLAN_1
  6
CONTINUOUS
 10
1.080457
 20
-4.073417
  0
VERTEX
  8
PLAN_1
  6
CONTINUOUS
 10
1.076339
 20
-4.070331
  0
VERTEX
  8
PLAN_1
  6
CONTINUOUS
 10
1.072736
 20
-4.066209
  0
VERTEX
  8
PLAN_1
  6
CONTINUOUS
 10
1.069646
 20
-4.062091
  0
VERTEX
  8
PLAN_1
  6
CONTINUOUS
 10
1.067071
 20
-4.057972
  0
VERTEX
  8
PLAN_1
  6
CONTINUOUS
 10
1.065012
 20
-4.053339
  0
VERTEX
  8
PLAN_1
  6
CONTINUOUS
 10
1.063469
 20
-4.049220
  0
VERTEX
  8
PLAN_1
  6
CONTINUOUS
 10
1.061925
 20
-4.045102
  0
VERTEX
  8
PLAN_1
  6
CONTINUOUS
 10
1.061409
 20
-4.040469
  0
VERTEX
  8
PLAN_1
  6
CONTINUOUS
 10
1.060894
 20
-4.036862
  0
VERTEX
  8
PLAN_1
  6
CONTINUOUS
 10
1.060894
 20
-4.033260
  0
VERTEX
  8
PLAN_1
  6
CONTINUOUS
 10
1.085091
 20
-4.033260
  0
VERTEX
  8
PLAN_1
  6
CONTINUOUS
 10
1.085606
 20
-4.036862
  0
VERTEX
  8
PLAN_1
  6
CONTINUOUS
 10
1.086122
 20
-4.039953
  0
VERTEX
  8
PLAN_1
  6
CONTINUOUS
 10
1.087150
 20
-4.043043
  0
VERTEX
  8
PLAN_1
  6
CONTINUOUS
 10
1.088181
 20
-4.046130
  0
VERTEX
  8
PLAN_1
  6
CONTINUOUS
 10
1.089209
 20
-4.049220
  0
VERTEX
  8
PLAN_1
  6
CONTINUOUS
 10
1.090756
 20
-4.051795
  0
VERTEX
  8
PLAN_1
  6
CONTINUOUS
 10
1.092815
 20
-4.054370
  0
VERTEX
  8
PLAN_1
  6
CONTINUOUS
 10
1.094874
 20
-4.056429
  0
VERTEX
  8
PLAN_1
  6
CONTINUOUS
 10
1.096933
 20
-4.058488
  0
VERTEX
  8
PLAN_1
  6
CONTINUOUS
 10
1.099508
 20
-4.060031
  0
VERTEX
  8
PLAN_1
  6
CONTINUOUS
 10
1.102083
 20
-4.061575
  0
VERTEX
  8
PLAN_1
  6
CONTINUOUS
 10
1.104657
 20
-4.062606
  0
VERTEX
  8
PLAN_1
  6
CONTINUOUS
 10
1.107744
 20
-4.063638
  0
VERTEX
  8
PLAN_1
  6
CONTINUOUS
 10
1.110835
 20
-4.064150
  0
VERTEX
  8
PLAN_1
  6
CONTINUOUS
 10
1.114437
 20
-4.064665
  0
VERTEX
  8
PLAN_1
  6
CONTINUOUS
 10
1.118043
 20
-4.065181
  0
VERTEX
  8
PLAN_1
  6
CONTINUOUS
 10
1.123189
 20
-4.064665
  0
VERTEX
  8
PLAN_1
  6
CONTINUOUS
 10
1.127311
 20
-4.063638
  0
VERTEX
  8
PLAN_1
  6
CONTINUOUS
 10
1.131945
 20
-4.062606
  0
VERTEX
  8
PLAN_1
  6
CONTINUOUS
 10
1.136063
 20
-4.060547
  0
VERTEX
  8
PLAN_1
  6
CONTINUOUS
 10
1.139665
 20
-4.057972
  0
VERTEX
  8
PLAN_1
  6
CONTINUOUS
 10
1.143272
 20
-4.055398
  0
VERTEX
  8
PLAN_1
  6
CONTINUOUS
 10
1.146358
 20
-4.051795
  0
VERTEX
  8
PLAN_1
  6
CONTINUOUS
 10
1.149449
 20
-4.047161
  0
VERTEX
  8
PLAN_1
  6
CONTINUOUS
 10
1.152024
 20
-4.042528
  0
VERTEX
  8
PLAN_1
  6
CONTINUOUS
 10
1.154598
 20
-4.037378
  0
VERTEX
  8
PLAN_1
  6
CONTINUOUS
 10
1.156657
 20
-4.031201
  0
VERTEX
  8
PLAN_1
  6
CONTINUOUS
 10
1.158717
 20
-4.024508
  0
VERTEX
  8
PLAN_1
  6
CONTINUOUS
 10
1.160776
 20
-4.017299
  0
VERTEX
  8
PLAN_1
  6
CONTINUOUS
 10
1.162319
 20
-4.009579
  0
VERTEX
  8
PLAN_1
  6
CONTINUOUS
 10
1.163862
 20
-4.001339
  0
VERTEX
  8
PLAN_1
  6
CONTINUOUS
 10
1.164894
 20
-3.992071
  0
VERTEX
  8
PLAN_1
  6
CONTINUOUS
 10
1.164378
 20
-3.991555
  0
VERTEX
  8
PLAN_1
  6
CONTINUOUS
 10
1.162835
 20
-3.994130
  0
VERTEX
  8
PLAN_1
  6
CONTINUOUS
 10
1.161291
 20
-3.996705
  0
VERTEX
  8
PLAN_1
  6
CONTINUOUS
 10
1.159228
 20
-3.999280
  0
VERTEX
  8
PLAN_1
  6
CONTINUOUS
 10
1.157169
 20
-4.001339
  0
VERTEX
  8
PLAN_1
  6
CONTINUOUS
 10
1.152024
 20
-4.005457
  0
VERTEX
  8
PLAN_1
  6
CONTINUOUS
 10
1.146358
 20
-4.008547
  0
VERTEX
  8
PLAN_1
  6
CONTINUOUS
 10
1.140181
 20
-4.011122
  0
VERTEX
  8
PLAN_1
  6
CONTINUOUS
 10
1.133488
 20
-4.013181
  0
VERTEX
  8
PLAN_1
  6
CONTINUOUS
 10
1.126795
 20
-4.014209
  0
VERTEX
  8
PLAN_1
  6
CONTINUOUS
 10
1.119587
 20
-4.014724
  0
VERTEX
  8
PLAN_1
  6
CONTINUOUS
 10
1.113409
 20
-4.014209
  0
VERTEX
  8
PLAN_1
  6
CONTINUOUS
 10
1.106717
 20
-4.013697
  0
VERTEX
  8
PLAN_1
  6
CONTINUOUS
 10
1.100535
 20
-4.012150
  0
VERTEX
  8
PLAN_1
  6
CONTINUOUS
 10
1.094874
 20
-4.010091
  0
VERTEX
  8
PLAN_1
  6
CONTINUOUS
 10
1.089724
 20
-4.008031
  0
VERTEX
  8
PLAN_1
  6
CONTINUOUS
 10
1.084579
 20
-4.004945
  0
VERTEX
  8
PLAN_1
  6
CONTINUOUS
 10
1.079945
 20
-4.001854
  0
VERTEX
  8
PLAN_1
  6
CONTINUOUS
 10
1.075823
 20
-3.997736
  0
VERTEX
  8
PLAN_1
  6
CONTINUOUS
 10
1.071705
 20
-3.993618
  0
VERTEX
  8
PLAN_1
  6
CONTINUOUS
 10
1.068618
 20
-3.988469
  0
VERTEX
  8
PLAN_1
  6
CONTINUOUS
 10
1.065528
 20
-3.983319
  0
VERTEX
  8
PLAN_1
  6
CONTINUOUS
 10
1.062953
 20
-3.978169
  0
VERTEX
  8
PLAN_1
  6
CONTINUOUS
 10
1.060894
 20
-3.971992
  0
VERTEX
  8
PLAN_1
  6
CONTINUOUS
 10
1.059862
 20
-3.965815
  0
VERTEX
  8
PLAN_1
  6
CONTINUOUS
 10
1.058835
 20
-3.958606
  0
VERTEX
  8
PLAN_1
  6
CONTINUOUS
 10
1.058319
 20
-3.951913
  0
SEQEND
  8
0
  0
POLYLINE
  8
PLAN_1
  6
CONTINUOUS
 66
     1
 40
0.003000
 41
0.003000
  0
VERTEX
  8
PLAN_1
  6
CONTINUOUS
 10
1.160776
 20
-3.948311
  0
VERTEX
  8
PLAN_1
  6
CONTINUOUS
 10
1.160776
 20
-3.944189
  0
VERTEX
  8
PLAN_1
  6
CONTINUOUS
 10
1.160260
 20
-3.940071
  0
VERTEX
  8
PLAN_1
  6
CONTINUOUS
 10
1.159744
 20
-3.936469
  0
VERTEX
  8
PLAN_1
  6
CONTINUOUS
 10
1.158717
 20
-3.932350
  0
VERTEX
  8
PLAN_1
  6
CONTINUOUS
 10
1.157169
 20
-3.928744
  0
VERTEX
  8
PLAN_1
  6
CONTINUOUS
 10
1.155626
 20
-3.925657
  0
VERTEX
  8
PLAN_1
  6
CONTINUOUS
 10
1.154083
 20
-3.922051
  0
VERTEX
  8
PLAN_1
  6
CONTINUOUS
 10
1.151508
 20
-3.919476
  0
VERTEX
  8
PLAN_1
  6
CONTINUOUS
 10
1.148933
 20
-3.916390
  0
VERTEX
  8
PLAN_1
  6
CONTINUOUS
 10
1.146358
 20
-3.914331
  0
VERTEX
  8
PLAN_1
  6
CONTINUOUS
 10
1.143272
 20
-3.911756
  0
VERTEX
  8
PLAN_1
  6
CONTINUOUS
 10
1.139665
 20
-3.910213
  0
VERTEX
  8
PLAN_1
  6
CONTINUOUS
 10
1.135547
 20
-3.908665
  0
VERTEX
  8
PLAN_1
  6
CONTINUOUS
 10
1.131429
 20
-3.907638
  0
VERTEX
  8
PLAN_1
  6
CONTINUOUS
 10
1.126795
 20
-3.907122
  0
VERTEX
  8
PLAN_1
  6
CONTINUOUS
 10
1.121646
 20
-3.906606
  0
VERTEX
  8
PLAN_1
  6
CONTINUOUS
 10
1.117528
 20
-3.907122
  0
VERTEX
  8
PLAN_1
  6
CONTINUOUS
 10
1.113409
 20
-3.907638
  0
VERTEX
  8
PLAN_1
  6
CONTINUOUS
 10
1.109291
 20
-3.908665
  0
VERTEX
  8
PLAN_1
  6
CONTINUOUS
 10
1.106201
 20
-3.909697
  0
VERTEX
  8
PLAN_1
  6
CONTINUOUS
 10
1.102598
 20
-3.911756
  0
VERTEX
  8
PLAN_1
  6
CONTINUOUS
 10
1.099508
 20
-3.913815
  0
VERTEX
  8
PLAN_1
  6
CONTINUOUS
 10
1.096933
 20
-3.916390
  0
VERTEX
  8
PLAN_1
  6
CONTINUOUS
 10
1.093843
 20
-3.918965
  0
VERTEX
  8
PLAN_1
  6
CONTINUOUS
 10
1.091783
 20
-3.922051
  0
VERTEX
  8
PLAN_1
  6
CONTINUOUS
 10
1.089724
 20
-3.925142
  0
VERTEX
  8
PLAN_1
  6
CONTINUOUS
 10
1.087665
 20
-3.928744
  0
VERTEX
  8
PLAN_1
  6
CONTINUOUS
 10
1.086638
 20
-3.932862
  0
VERTEX
  8
PLAN_1
  6
CONTINUOUS
 10
1.085091
 20
-3.936984
  0
VERTEX
  8
PLAN_1
  6
CONTINUOUS
 10
1.084579
 20
-3.941102
  0
VERTEX
  8
PLAN_1
  6
CONTINUOUS
 10
1.084063
 20
-3.945736
  0
VERTEX
  8
PLAN_1
  6
CONTINUOUS
 10
1.083547
 20
-3.950370
  0
VERTEX
  8
PLAN_1
  6
CONTINUOUS
 10
1.084063
 20
-3.957063
  0
VERTEX
  8
PLAN_1
  6
CONTINUOUS
 10
1.084579
 20
-3.963240
  0
VERTEX
  8
PLAN_1
  6
CONTINUOUS
 10
1.086122
 20
-3.968390
  0
VERTEX
  8
PLAN_1
  6
CONTINUOUS
 10
1.087665
 20
-3.973024
  0
VERTEX
  8
PLAN_1
  6
CONTINUOUS
 10
1.089724
 20
-3.977142
  0
VERTEX
  8
PLAN_1
  6
CONTINUOUS
 10
1.091783
 20
-3.980232
  0
VERTEX
  8
PLAN_1
  6
CONTINUOUS
 10
1.094358
 20
-3.983319
  0
VERTEX
  8
PLAN_1
  6
CONTINUOUS
 10
1.097449
 20
-3.985894
  0
VERTEX
  8
PLAN_1
  6
CONTINUOUS
 10
1.100535
 20
-3.987953
  0
VERTEX
  8
PLAN_1
  6
CONTINUOUS
 10
1.103626
 20
-3.989496
  0
VERTEX
  8
PLAN_1
  6
CONTINUOUS
 10
1.106717
 20
-3.990528
  0
VERTEX
  8
PLAN_1
  6
CONTINUOUS
 10
1.110319
 20
-3.991555
  0
VERTEX
  8
PLAN_1
  6
CONTINUOUS
 10
1.117012
 20
-3.992587
  0
VERTEX
  8
PLAN_1
  6
CONTINUOUS
 10
1.123189
 20
-3.992587
  0
VERTEX
  8
PLAN_1
  6
CONTINUOUS
 10
1.128854
 20
-3.992587
  0
VERTEX
  8
PLAN_1
  6
CONTINUOUS
 10
1.134516
 20
-3.991043
  0
VERTEX
  8
PLAN_1
  6
CONTINUOUS
 10
1.137606
 20
-3.990012
  0
VERTEX
  8
PLAN_1
  6
CONTINUOUS
 10
1.140697
 20
-3.988984
  0
VERTEX
  8
PLAN_1
  6
CONTINUOUS
 10
1.143783
 20
-3.987437
  0
VERTEX
  8
PLAN_1
  6
CONTINUOUS
 10
1.146874
 20
-3.984862
  0
VERTEX
  8
PLAN_1
  6
CONTINUOUS
 10
1.149965
 20
-3.982291
  0
VERTEX
  8
PLAN_1
  6
CONTINUOUS
 10
1.152535
 20
-3.979201
  0
VERTEX
  8
PLAN_1
  6
CONTINUOUS
 10
1.154598
 20
-3.975598
  0
VERTEX
  8
PLAN_1
  6
CONTINUOUS
 10
1.156657
 20
-3.971476
  0
VERTEX
  8
PLAN_1
  6
CONTINUOUS
 10
1.158717
 20
-3.966843
  0
VERTEX
  8
PLAN_1
  6
CONTINUOUS
 10
1.159744
 20
-3.961181
  0
VERTEX
  8
PLAN_1
  6
CONTINUOUS
 10
1.160776
 20
-3.955004
  0
VERTEX
  8
PLAN_1
  6
CONTINUOUS
 10
1.160776
 20
-3.948311
  0
SEQEND
  8
0
  0
POLYLINE
  8
PLAN_1
  6
CONTINUOUS
 66
     1
 40
0.003000
 41
0.003000
  0
VERTEX
  8
PLAN_1
  6
CONTINUOUS
 10
1.300815
 20
-4.080110
  0
VERTEX
  8
PLAN_1
  6
CONTINUOUS
 10
1.274555
 20
-4.080110
  0
VERTEX
  8
PLAN_1
  6
CONTINUOUS
 10
1.274555
 20
-3.941618
  0
VERTEX
  8
PLAN_1
  6
CONTINUOUS
 10
1.229248
 20
-3.941618
  0
VERTEX
  8
PLAN_1
  6
CONTINUOUS
 10
1.229248
 20
-3.922051
  0
VERTEX
  8
PLAN_1
  6
CONTINUOUS
 10
1.240063
 20
-3.921024
  0
VERTEX
  8
PLAN_1
  6
CONTINUOUS
 10
1.249843
 20
-3.919992
  0
VERTEX
  8
PLAN_1
  6
CONTINUOUS
 10
1.253965
 20
-3.918965
  0
VERTEX
  8
PLAN_1
  6
CONTINUOUS
 10
1.257567
 20
-3.917933
  0
VERTEX
  8
PLAN_1
  6
CONTINUOUS
 10
1.261169
 20
-3.916390
  0
VERTEX
  8
PLAN_1
  6
CONTINUOUS
 10
1.264260
 20
-3.914331
  0
VERTEX
  8
PLAN_1
  6
CONTINUOUS
 10
1.267350
 20
-3.912272
  0
VERTEX
  8
PLAN_1
  6
CONTINUOUS
 10
1.269921
 20
-3.910213
  0
VERTEX
  8
PLAN_1
  6
CONTINUOUS
 10
1.272496
 20
-3.907122
  0
VERTEX
  8
PLAN_1
  6
CONTINUOUS
 10
1.274555
 20
-3.904031
  0
VERTEX
  8
PLAN_1
  6
CONTINUOUS
 10
1.276614
 20
-3.899913
  0
VERTEX
  8
PLAN_1
  6
CONTINUOUS
 10
1.278677
 20
-3.895280
  0
VERTEX
  8
PLAN_1
  6
CONTINUOUS
 10
1.280220
 20
-3.890646
  0
VERTEX
  8
PLAN_1
  6
CONTINUOUS
 10
1.281764
 20
-3.884984
  0
VERTEX
  8
PLAN_1
  6
CONTINUOUS
 10
1.300815
 20
-3.884984
  0
VERTEX
  8
PLAN_1
  6
CONTINUOUS
 10
1.300815
 20
-4.080110
  0
SEQEND
  8
0
  0
SOLID
  8
PLAN_1
 10
1.355390
 20
-4.114606
 11
1.355390
 21
-4.100705
 12
1.509843
 22
-4.114606
 13
1.509843
 23
-4.100705
  0
POLYLINE
  8
PLAN_1
  6
CONTINUOUS
 66
     1
 40
0.003000
 41
0.003000
  0
VERTEX
  8
PLAN_1
  6
CONTINUOUS
 10
1.355390
 20
-4.114606
  0
VERTEX
  8
PLAN_1
  6
CONTINUOUS
 10
1.355390
 20
-4.100705
  0
VERTEX
  8
PLAN_1
  6
CONTINUOUS
 10
1.509843
 20
-4.100705
  0
VERTEX
  8
PLAN_1
  6
CONTINUOUS
 10
1.509843
 20
-4.114606
  0
VERTEX
  8
PLAN_1
  6
CONTINUOUS
 10
1.355390
 20
-4.114606
  0
SEQEND
  8
0
  0
POLYLINE
  8
PLAN_1
  6
CONTINUOUS
 66
     1
 40
0.003000
 41
0.003000
  0
VERTEX
  8
PLAN_1
  6
CONTINUOUS
 10
1.561327
 20
-4.080110
  0
VERTEX
  8
PLAN_1
  6
CONTINUOUS
 10
1.534555
 20
-4.080110
  0
VERTEX
  8
PLAN_1
  6
CONTINUOUS
 10
1.534555
 20
-3.880866
  0
VERTEX
  8
PLAN_1
  6
CONTINUOUS
 10
1.626713
 20
-3.880866
  0
VERTEX
  8
PLAN_1
  6
CONTINUOUS
 10
1.632378
 20
-3.880866
  0
VERTEX
  8
PLAN_1
  6
CONTINUOUS
 10
1.638555
 20
-3.881378
  0
VERTEX
  8
PLAN_1
  6
CONTINUOUS
 10
1.644732
 20
-3.881894
  0
VERTEX
  8
PLAN_1
  6
CONTINUOUS
 10
1.650398
 20
-3.882925
  0
VERTEX
  8
PLAN_1
  6
CONTINUOUS
 10
1.656059
 20
-3.884469
  0
VERTEX
  8
PLAN_1
  6
CONTINUOUS
 10
1.661724
 20
-3.886528
  0
VERTEX
  8
PLAN_1
  6
CONTINUOUS
 10
1.666874
 20
-3.888587
  0
VERTEX
  8
PLAN_1
  6
CONTINUOUS
 10
1.671508
 20
-3.891677
  0
VERTEX
  8
PLAN_1
  6
CONTINUOUS
 10
1.676142
 20
-3.894764
  0
VERTEX
  8
PLAN_1
  6
CONTINUOUS
 10
1.679744
 20
-3.898886
  0
VERTEX
  8
PLAN_1
  6
CONTINUOUS
 10
1.683346
 20
-3.903004
  0
VERTEX
  8
PLAN_1
  6
CONTINUOUS
 10
1.686437
 20
-3.908150
  0
VERTEX
  8
PLAN_1
  6
CONTINUOUS
 10
1.688496
 20
-3.913815
  0
VERTEX
  8
PLAN_1
  6
CONTINUOUS
 10
1.690555
 20
-3.919992
  0
VERTEX
  8
PLAN_1
  6
CONTINUOUS
 10
1.691587
 20
-3.926685
  0
VERTEX
  8
PLAN_1
  6
CONTINUOUS
 10
1.692098
 20
-3.934409
  0
VERTEX
  8
PLAN_1
  6
CONTINUOUS
 10
1.691587
 20
-3.939559
  0
VERTEX
  8
PLAN_1
  6
CONTINUOUS
 10
1.691071
 20
-3.944189
  0
VERTEX
  8
PLAN_1
  6
CONTINUOUS
 10
1.690555
 20
-3.948823
  0
VERTEX
  8
PLAN_1
  6
CONTINUOUS
 10
1.689528
 20
-3.952945
  0
VERTEX
  8
PLAN_1
  6
CONTINUOUS
 10
1.687980
 20
-3.957063
  0
VERTEX
  8
PLAN_1
  6
CONTINUOUS
 10
1.686437
 20
-3.960150
  0
VERTEX
  8
PLAN_1
  6
CONTINUOUS
 10
1.684894
 20
-3.963240
  0
VERTEX
  8
PLAN_1
  6
CONTINUOUS
 10
1.682835
 20
-3.966331
  0
VERTEX
  8
PLAN_1
  6
CONTINUOUS
 10
1.678713
 20
-3.971476
  0
VERTEX
  8
PLAN_1
  6
CONTINUOUS
 10
1.674079
 20
-3.975598
  0
VERTEX
  8
PLAN_1
  6
CONTINUOUS
 10
1.668933
 20
-3.979201
  0
VERTEX
  8
PLAN_1
  6
CONTINUOUS
 10
1.664299
 20
-3.981776
  0
VERTEX
  8
PLAN_1
  6
CONTINUOUS
 10
1.668417
 20
-3.983835
  0
VERTEX
  8
PLAN_1
  6
CONTINUOUS
 10
1.672535
 20
-3.985894
  0
VERTEX
  8
PLAN_1
  6
CONTINUOUS
 10
1.676654
 20
-3.988469
  0
VERTEX
  8
PLAN_1
  6
CONTINUOUS
 10
1.680260
 20
-3.992071
  0
VERTEX
  8
PLAN_1
  6
CONTINUOUS
 10
1.681803
 20
-3.994130
  0
VERTEX
  8
PLAN_1
  6
CONTINUOUS
 10
1.682835
 20
-3.996705
  0
VERTEX
  8
PLAN_1
  6
CONTINUOUS
 10
1.684378
 20
-3.999280
  0
VERTEX
  8
PLAN_1
  6
CONTINUOUS
 10
1.685406
 20
-4.002370
  0
VERTEX
  8
PLAN_1
  6
CONTINUOUS
 10
1.686437
 20
-4.005972
  0
VERTEX
  8
PLAN_1
  6
CONTINUOUS
 10
1.686953
 20
-4.010091
  0
VERTEX
  8
PLAN_1
  6
CONTINUOUS
 10
1.687980
 20
-4.014724
  0
VERTEX
  8
PLAN_1
  6
CONTINUOUS
 10
1.687980
 20
-4.019358
  0
VERTEX
  8
PLAN_1
  6
CONTINUOUS
 10
1.689528
 20
-4.055398
  0
VERTEX
  8
PLAN_1
  6
CONTINUOUS
 10
1.690039
 20
-4.059516
  0
VERTEX
  8
PLAN_1
  6
CONTINUOUS
 10
1.690039
 20
-4.062606
  0
VERTEX
  8
PLAN_1
  6
CONTINUOUS
 10
1.691071
 20
-4.065697
  0
VERTEX
  8
PLAN_1
  6
CONTINUOUS
 10
1.691587
 20
-4.067756
  0
VERTEX
  8
PLAN_1
  6
CONTINUOUS
 10
1.693130
 20
-4.069815
  0
VERTEX
  8
PLAN_1
  6
CONTINUOUS
 10
1.694673
 20
-4.071874
  0
VERTEX
  8
PLAN_1
  6
CONTINUOUS
 10
1.696732
 20
-4.073933
  0
VERTEX
  8
PLAN_1
  6
CONTINUOUS
 10
1.699823
 20
-4.075476
  0
VERTEX
  8
PLAN_1
  6
CONTINUOUS
 10
1.699823
 20
-4.080110
  0
VERTEX
  8
PLAN_1
  6
CONTINUOUS
 10
1.666874
 20
-4.080110
  0
VERTEX
  8
PLAN_1
  6
CONTINUOUS
 10
1.665327
 20
-4.074449
  0
VERTEX
  8
PLAN_1
  6
CONTINUOUS
 10
1.664299
 20
-4.068272
  0
VERTEX
  8
PLAN_1
  6
CONTINUOUS
 10
1.663268
 20
-4.060547
  0
VERTEX
  8
PLAN_1
  6
CONTINUOUS
 10
1.662752
 20
-4.053339
  0
VERTEX
  8
PLAN_1
  6
CONTINUOUS
 10
1.662240
 20
-4.045618
  0
VERTEX
  8
PLAN_1
  6
CONTINUOUS
 10
1.662240
 20
-4.039437
  0
VERTEX
  8
PLAN_1
  6
CONTINUOUS
 10
1.662240
 20
-4.033776
  0
VERTEX
  8
PLAN_1
  6
CONTINUOUS
 10
1.662240
 20
-4.030169
  0
VERTEX
  8
PLAN_1
  6
CONTINUOUS
 10
1.661724
 20
-4.023992
  0
VERTEX
  8
PLAN_1
  6
CONTINUOUS
 10
1.661209
 20
-4.017299
  0
VERTEX
  8
PLAN_1
  6
CONTINUOUS
 10
1.660181
 20
-4.014724
  0
VERTEX
  8
PLAN_1
  6
CONTINUOUS
 10
1.659150
 20
-4.011638
  0
VERTEX
  8
PLAN_1
  6
CONTINUOUS
 10
1.658122
 20
-4.008547
  0
VERTEX
  8
PLAN_1
  6
CONTINUOUS
 10
1.656059
 20
-4.005972
  0
VERTEX
  8
PLAN_1
  6
CONTINUOUS
 10
1.654516
 20
-4.003398
  0
VERTEX
  8
PLAN_1
  6
CONTINUOUS
 10
1.651941
 20
-4.001339
  0
VERTEX
  8
PLAN_1
  6
CONTINUOUS
 10
1.648854
 20
-3.999280
  0
VERTEX
  8
PLAN_1
  6
CONTINUOUS
 10
1.645764
 20
-3.997736
  0
VERTEX
  8
PLAN_1
  6
CONTINUOUS
 10
1.641646
 20
-3.996189
  0
VERTEX
  8
PLAN_1
  6
CONTINUOUS
 10
1.637012
 20
-3.995161
  0
VERTEX
  8
PLAN_1
  6
CONTINUOUS
 10
1.632378
 20
-3.994646
  0
VERTEX
  8
PLAN_1
  6
CONTINUOUS
 10
1.626713
 20
-3.994646
  0
VERTEX
  8
PLAN_1
  6
CONTINUOUS
 10
1.561327
 20
-3.994646
  0
VERTEX
  8
PLAN_1
  6
CONTINUOUS
 10
1.561327
 20
-4.080110
  0
SEQEND
  8
0
  0
POLYLINE
  8
PLAN_1
  6
CONTINUOUS
 66
     1
 40
0.003000
 41
0.003000
  0
VERTEX
  8
PLAN_1
  6
CONTINUOUS
 10
1.561327
 20
-3.971476
  0
VERTEX
  8
PLAN_1
  6
CONTINUOUS
 10
1.623626
 20
-3.971476
  0
VERTEX
  8
PLAN_1
  6
CONTINUOUS
 10
1.631346
 20
-3.970965
  0
VERTEX
  8
PLAN_1
  6
CONTINUOUS
 10
1.638555
 20
-3.969933
  0
VERTEX
  8
PLAN_1
  6
CONTINUOUS
 10
1.641646
 20
-3.969417
  0
VERTEX
  8
PLAN_1
  6
CONTINUOUS
 10
1.645248
 20
-3.968390
  0
VERTEX
  8
PLAN_1
  6
CONTINUOUS
 10
1.648339
 20
-3.966843
  0
VERTEX
  8
PLAN_1
  6
CONTINUOUS
 10
1.651429
 20
-3.965299
  0
VERTEX
  8
PLAN_1
  6
CONTINUOUS
 10
1.654000
 20
-3.963240
  0
VERTEX
  8
PLAN_1
  6
CONTINUOUS
 10
1.656575
 20
-3.960665
  0
VERTEX
  8
PLAN_1
  6
CONTINUOUS
 10
1.658634
 20
-3.958091
  0
VERTEX
  8
PLAN_1
  6
CONTINUOUS
 10
1.660693
 20
-3.955004
  0
VERTEX
  8
PLAN_1
  6
CONTINUOUS
 10
1.662240
 20
-3.950882
  0
VERTEX
  8
PLAN_1
  6
CONTINUOUS
 10
1.663268
 20
-3.946764
  0
VERTEX
  8
PLAN_1
  6
CONTINUOUS
 10
1.663783
 20
-3.942130
  0
VERTEX
  8
PLAN_1
  6
CONTINUOUS
 10
1.664299
 20
-3.936984
  0
VERTEX
  8
PLAN_1
  6
CONTINUOUS
 10
1.663783
 20
-3.931319
  0
VERTEX
  8
PLAN_1
  6
CONTINUOUS
 10
1.663268
 20
-3.926685
  0
VERTEX
  8
PLAN_1
  6
CONTINUOUS
 10
1.662240
 20
-3.922567
  0
VERTEX
  8
PLAN_1
  6
CONTINUOUS
 10
1.660693
 20
-3.918965
  0
VERTEX
  8
PLAN_1
  6
CONTINUOUS
 10
1.658634
 20
-3.915874
  0
VERTEX
  8
PLAN_1
  6
CONTINUOUS
 10
1.656575
 20
-3.912783
  0
VERTEX
  8
PLAN_1
  6
CONTINUOUS
 10
1.654000
 20
-3.910724
  0
VERTEX
  8
PLAN_1
  6
CONTINUOUS
 10
1.651429
 20
-3.908665
  0
VERTEX
  8
PLAN_1
  6
CONTINUOUS
 10
1.648339
 20
-3.907122
  0
VERTEX
  8
PLAN_1
  6
CONTINUOUS
 10
1.645764
 20
-3.906091
  0
VERTEX
  8
PLAN_1
  6
CONTINUOUS
 10
1.642673
 20
-3.905063
  0
VERTEX
  8
PLAN_1
  6
CONTINUOUS
 10
1.639587
 20
-3.904547
  0
VERTEX
  8
PLAN_1
  6
CONTINUOUS
 10
1.633921
 20
-3.904031
  0
VERTEX
  8
PLAN_1
  6
CONTINUOUS
 10
1.628260
 20
-3.903516
  0
VERTEX
  8
PLAN_1
  6
CONTINUOUS
 10
1.561327
 20
-3.903516
  0
VERTEX
  8
PLAN_1
  6
CONTINUOUS
 10
1.561327
 20
-3.971476
  0
SEQEND
  8
0
  0
SOLID
  8
PLAN_1
 10
1.763150
 20
-4.080110
 11
1.734319
 21
-4.080110
 12
1.763150
 22
-4.050248
 13
1.734319
 23
-4.050248
  0
POLYLINE
  8
PLAN_1
  6
CONTINUOUS
 66
     1
 40
0.003000
 41
0.003000
  0
VERTEX
  8
PLAN_1
  6
CONTINUOUS
 10
1.763150
 20
-4.080110
  0
VERTEX
  8
PLAN_1
  6
CONTINUOUS
 10
1.734319
 20
-4.080110
  0
VERTEX
  8
PLAN_1
  6
CONTINUOUS
 10
1.734319
 20
-4.050248
  0
VERTEX
  8
PLAN_1
  6
CONTINUOUS
 10
1.763150
 20
-4.050248
  0
VERTEX
  8
PLAN_1
  6
CONTINUOUS
 10
1.763150
 20
-4.080110
  0
SEQEND
  8
0
  0
POLYLINE
  8
PLAN_1
  6
CONTINUOUS
 66
     1
 40
0.003000
 41
0.003000
  0
VERTEX
  8
PLAN_1
  6
CONTINUOUS
 10
1.958280
 20
-4.080110
  0
VERTEX
  8
PLAN_1
  6
CONTINUOUS
 10
1.811547
 20
-4.080110
  0
VERTEX
  8
PLAN_1
  6
CONTINUOUS
 10
1.811547
 20
-3.880866
  0
VERTEX
  8
PLAN_1
  6
CONTINUOUS
 10
1.956732
 20
-3.880866
  0
VERTEX
  8
PLAN_1
  6
CONTINUOUS
 10
1.956732
 20
-3.904547
  0
VERTEX
  8
PLAN_1
  6
CONTINUOUS
 10
1.838319
 20
-3.904547
  0
VERTEX
  8
PLAN_1
  6
CONTINUOUS
 10
1.838319
 20
-3.965815
  0
VERTEX
  8
PLAN_1
  6
CONTINUOUS
 10
1.947465
 20
-3.965815
  0
VERTEX
  8
PLAN_1
  6
CONTINUOUS
 10
1.947465
 20
-3.989496
  0
VERTEX
  8
PLAN_1
  6
CONTINUOUS
 10
1.838319
 20
-3.989496
  0
VERTEX
  8
PLAN_1
  6
CONTINUOUS
 10
1.838319
 20
-4.055913
  0
VERTEX
  8
PLAN_1
  6
CONTINUOUS
 10
1.958280
 20
-4.055913
  0
VERTEX
  8
PLAN_1
  6
CONTINUOUS
 10
1.958280
 20
-4.080110
  0
SEQEND
  8
0
  0
POLYLINE
  8
PLAN_1
  6
CONTINUOUS
 66
     1
 40
0.003000
 41
0.003000
  0
VERTEX
  8
PLAN_1
  6
CONTINUOUS
 10
2.023665
 20
-4.080110
  0
VERTEX
  8
PLAN_1
  6
CONTINUOUS
 10
1.996378
 20
-4.080110
  0
VERTEX
  8
PLAN_1
  6
CONTINUOUS
 10
1.996378
 20
-3.880866
  0
VERTEX
  8
PLAN_1
  6
CONTINUOUS
 10
2.086476
 20
-3.880866
  0
VERTEX
  8
PLAN_1
  6
CONTINUOUS
 10
2.093169
 20
-3.880866
  0
VERTEX
  8
PLAN_1
  6
CONTINUOUS
 10
2.099346
 20
-3.881894
  0
VERTEX
  8
PLAN_1
  6
CONTINUOUS
 10
2.105524
 20
-3.882925
  0
VERTEX
  8
PLAN_1
  6
CONTINUOUS
 10
2.111189
 20
-3.884984
  0
VERTEX
  8
PLAN_1
  6
CONTINUOUS
 10
2.116339
 20
-3.887043
  0
VERTEX
  8
PLAN_1
  6
CONTINUOUS
 10
2.120972
 20
-3.890130
  0
VERTEX
  8
PLAN_1
  6
CONTINUOUS
 10
2.125606
 20
-3.893220
  0
VERTEX
  8
PLAN_1
  6
CONTINUOUS
 10
2.129724
 20
-3.896823
  0
VERTEX
  8
PLAN_1
  6
CONTINUOUS
 10
2.133327
 20
-3.900429
  0
VERTEX
  8
PLAN_1
  6
CONTINUOUS
 10
2.136417
 20
-3.905063
  0
VERTEX
  8
PLAN_1
  6
CONTINUOUS
 10
2.138992
 20
-3.909697
  0
VERTEX
  8
PLAN_1
  6
CONTINUOUS
 10
2.141051
 20
-3.914331
  0
VERTEX
  8
PLAN_1
  6
CONTINUOUS
 10
2.143110
 20
-3.919476
  0
VERTEX
  8
PLAN_1
  6
CONTINUOUS
 10
2.144138
 20
-3.925142
  0
VERTEX
  8
PLAN_1
  6
CONTINUOUS
 10
2.145169
 20
-3.930803
  0
VERTEX
  8
PLAN_1
  6
CONTINUOUS
 10
2.145169
 20
-3.936469
  0
VERTEX
  8
PLAN_1
  6
CONTINUOUS
 10
2.145169
 20
-3.942130
  0
VERTEX
  8
PLAN_1
  6
CONTINUOUS
 10
2.144654
 20
-3.947280
  0
VERTEX
  8
PLAN_1
  6
CONTINUOUS
 10
2.143626
 20
-3.952429
  0
VERTEX
  8
PLAN_1
  6
CONTINUOUS
 10
2.142079
 20
-3.957579
  0
VERTEX
  8
PLAN_1
  6
CONTINUOUS
 10
2.140535
 20
-3.962724
  0
VERTEX
  8
PLAN_1
  6
CONTINUOUS
 10
2.137961
 20
-3.967874
  0
VERTEX
  8
PLAN_1
  6
CONTINUOUS
 10
2.135386
 20
-3.972508
  0
VERTEX
  8
PLAN_1
  6
CONTINUOUS
 10
2.131783
 20
-3.976626
  0
VERTEX
  8
PLAN_1
  6
CONTINUOUS
 10
2.128177
 20
-3.980744
  0
VERTEX
  8
PLAN_1
  6
CONTINUOUS
 10
2.124059
 20
-3.984350
  0
VERTEX
  8
PLAN_1
  6
CONTINUOUS
 10
2.118909
 20
-3.987953
  0
VERTEX
  8
PLAN_1
  6
CONTINUOUS
 10
2.113764
 20
-3.990528
  0
VERTEX
  8
PLAN_1
  6
CONTINUOUS
 10
2.107583
 20
-3.992587
  0
VERTEX
  8
PLAN_1
  6
CONTINUOUS
 10
2.101406
 20
-3.994646
  0
VERTEX
  8
PLAN_1
  6
CONTINUOUS
 10
2.094197
 20
-3.995677
  0
VERTEX
  8
PLAN_1
  6
CONTINUOUS
 10
2.086476
 20
-3.995677
  0
VERTEX
  8
PLAN_1
  6
CONTINUOUS
 10
2.023665
 20
-3.995677
  0
VERTEX
  8
PLAN_1
  6
CONTINUOUS
 10
2.023665
 20
-4.080110
  0
SEQEND
  8
0
  0
POLYLINE
  8
PLAN_1
  6
CONTINUOUS
 66
     1
 40
0.003000
 41
0.003000
  0
VERTEX
  8
PLAN_1
  6
CONTINUOUS
 10
2.023665
 20
-3.973024
  0
VERTEX
  8
PLAN_1
  6
CONTINUOUS
 10
2.077209
 20
-3.973024
  0
VERTEX
  8
PLAN_1
  6
CONTINUOUS
 10
2.085961
 20
-3.972508
  0
VERTEX
  8
PLAN_1
  6
CONTINUOUS
 10
2.093685
 20
-3.970965
  0
VERTEX
  8
PLAN_1
  6
CONTINUOUS
 10
2.097287
 20
-3.969933
  0
VERTEX
  8
PLAN_1
  6
CONTINUOUS
 10
2.100378
 20
-3.968390
  0
VERTEX
  8
PLAN_1
  6
CONTINUOUS
 10
2.103465
 20
-3.966843
  0
VERTEX
  8
PLAN_1
  6
CONTINUOUS
 10
2.106555
 20
-3.964783
  0
VERTEX
  8
PLAN_1
  6
CONTINUOUS
 10
2.109130
 20
-3.962724
  0
VERTEX
  8
PLAN_1
  6
CONTINUOUS
 10
2.111189
 20
-3.960150
  0
VERTEX
  8
PLAN_1
  6
CONTINUOUS
 10
2.113248
 20
-3.957063
  0
VERTEX
  8
PLAN_1
  6
CONTINUOUS
 10
2.114791
 20
-3.953972
  0
VERTEX
  8
PLAN_1
  6
CONTINUOUS
 10
2.115823
 20
-3.950370
  0
VERTEX
  8
PLAN_1
  6
CONTINUOUS
 10
2.116850
 20
-3.946252
  0
VERTEX
  8
PLAN_1
  6
CONTINUOUS
 10
2.117366
 20
-3.941618
  0
VERTEX
  8
PLAN_1
  6
CONTINUOUS
 10
2.117366
 20
-3.936984
  0
VERTEX
  8
PLAN_1
  6
CONTINUOUS
 10
2.117366
 20
-3.932350
  0
VERTEX
  8
PLAN_1
  6
CONTINUOUS
 10
2.116850
 20
-3.928232
  0
VERTEX
  8
PLAN_1
  6
CONTINUOUS
 10
2.115823
 20
-3.924626
  0
VERTEX
  8
PLAN_1
  6
CONTINUOUS
 10
2.114791
 20
-3.921024
  0
VERTEX
  8
PLAN_1
  6
CONTINUOUS
 10
2.112732
 20
-3.917933
  0
VERTEX
  8
PLAN_1
  6
CONTINUOUS
 10
2.111189
 20
-3.915358
  0
VERTEX
  8
PLAN_1
  6
CONTINUOUS
 10
2.108614
 20
-3.912783
  0
VERTEX
  8
PLAN_1
  6
CONTINUOUS
 10
2.106039
 20
-3.910724
  0
VERTEX
  8
PLAN_1
  6
CONTINUOUS
 10
2.103465
 20
-3.909181
  0
VERTEX
  8
PLAN_1
  6
CONTINUOUS
 10
2.100378
 20
-3.907638
  0
VERTEX
  8
PLAN_1
  6
CONTINUOUS
 10
2.097287
 20
-3.906091
  0
VERTEX
  8
PLAN_1
  6
CONTINUOUS
 10
2.093685
 20
-3.905579
  0
VERTEX
  8
PLAN_1
  6
CONTINUOUS
 10
2.086476
 20
-3.904031
  0
VERTEX
  8
PLAN_1
  6
CONTINUOUS
 10
2.078236
 20
-3.903516
  0
VERTEX
  8
PLAN_1
  6
CONTINUOUS
 10
2.023665
 20
-3.903516
  0
VERTEX
  8
PLAN_1
  6
CONTINUOUS
 10
2.023665
 20
-3.973024
  0
SEQEND
  8
0
  0
POLYLINE
  8
PLAN_1
  6
CONTINUOUS
 66
     1
 40
0.003000
 41
0.003000
  0
VERTEX
  8
PLAN_1
  6
CONTINUOUS
 10
2.299110
 20
-3.939043
  0
VERTEX
  8
PLAN_1
  6
CONTINUOUS
 10
2.298594
 20
-3.933378
  0
VERTEX
  8
PLAN_1
  6
CONTINUOUS
 10
2.297563
 20
-3.928232
  0
VERTEX
  8
PLAN_1
  6
CONTINUOUS
 10
2.296020
 20
-3.923598
  0
VERTEX
  8
PLAN_1
  6
CONTINUOUS
 10
2.293961
 20
-3.919476
  0
VERTEX
  8
PLAN_1
  6
CONTINUOUS
 10
2.291902
 20
-3.915874
  0
VERTEX
  8
PLAN_1
  6
CONTINUOUS
 10
2.288811
 20
-3.912783
  0
VERTEX
  8
PLAN_1
  6
CONTINUOUS
 10
2.285724
 20
-3.909697
  0
VERTEX
  8
PLAN_1
  6
CONTINUOUS
 10
2.282634
 20
-3.907122
  0
VERTEX
  8
PLAN_1
  6
CONTINUOUS
 10
2.278516
 20
-3.905063
  0
VERTEX
  8
PLAN_1
  6
CONTINUOUS
 10
2.274909
 20
-3.903004
  0
VERTEX
  8
PLAN_1
  6
CONTINUOUS
 10
2.270791
 20
-3.901457
  0
VERTEX
  8
PLAN_1
  6
CONTINUOUS
 10
2.266673
 20
-3.900429
  0
VERTEX
  8
PLAN_1
  6
CONTINUOUS
 10
2.262555
 20
-3.899398
  0
VERTEX
  8
PLAN_1
  6
CONTINUOUS
 10
2.258437
 20
-3.898886
  0
VERTEX
  8
PLAN_1
  6
CONTINUOUS
 10
2.253803
 20
-3.898370
  0
VERTEX
  8
PLAN_1
  6
CONTINUOUS
 10
2.249685
 20
-3.898370
  0
VERTEX
  8
PLAN_1
  6
CONTINUOUS
 10
2.242992
 20
-3.898886
  0
VERTEX
  8
PLAN_1
  6
CONTINUOUS
 10
2.235783
 20
-3.899398
  0
VERTEX
  8
PLAN_1
  6
CONTINUOUS
 10
2.231665
 20
-3.900429
  0
VERTEX
  8
PLAN_1
  6
CONTINUOUS
 10
2.228059
 20
-3.901457
  0
VERTEX
  8
PLAN_1
  6
CONTINUOUS
 10
2.224457
 20
-3.903004
  0
VERTEX
  8
PLAN_1
  6
CONTINUOUS
 10
2.220850
 20
-3.904547
  0
VERTEX
  8
PLAN_1
  6
CONTINUOUS
 10
2.217248
 20
-3.906606
  0
VERTEX
  8
PLAN_1
  6
CONTINUOUS
 10
2.214157
 20
-3.909181
  0
VERTEX
  8
PLAN_1
  6
CONTINUOUS
 10
2.211583
 20
-3.911756
  0
VERTEX
  8
PLAN_1
  6
CONTINUOUS
 10
2.209012
 20
-3.915358
  0
VERTEX
  8
PLAN_1
  6
CONTINUOUS
 10
2.206949
 20
-3.918965
  0
VERTEX
  8
PLAN_1
  6
CONTINUOUS
 10
2.205406
 20
-3.923083
  0
VERTEX
  8
PLAN_1
  6
CONTINUOUS
 10
2.204378
 20
-3.928232
  0
VERTEX
  8
PLAN_1
  6
CONTINUOUS
 10
2.204378
 20
-3.933378
  0
VERTEX
  8
PLAN_1
  6
CONTINUOUS
 10
2.204378
 20
-3.936469
  0
VERTEX
  8
PLAN_1
  6
CONTINUOUS
 10
2.204890
 20
-3.939043
  0
VERTEX
  8
PLAN_1
  6
CONTINUOUS
 10
2.205406
 20
-3.941618
  0
VERTEX
  8
PLAN_1
  6
CONTINUOUS
 10
2.206437
 20
-3.944189
  0
VERTEX
  8
PLAN_1
  6
CONTINUOUS
 10
2.208496
 20
-3.948311
  0
VERTEX
  8
PLAN_1
  6
CONTINUOUS
 10
2.211583
 20
-3.951398
  0
VERTEX
  8
PLAN_1
  6
CONTINUOUS
 10
2.215189
 20
-3.953972
  0
VERTEX
  8
PLAN_1
  6
CONTINUOUS
 10
2.219307
 20
-3.956031
  0
VERTEX
  8
PLAN_1
  6
CONTINUOUS
 10
2.223425
 20
-3.957579
  0
VERTEX
  8
PLAN_1
  6
CONTINUOUS
 10
2.228059
 20
-3.958606
  0
VERTEX
  8
PLAN_1
  6
CONTINUOUS
 10
2.284693
 20
-3.971476
  0
VERTEX
  8
PLAN_1
  6
CONTINUOUS
 10
2.289327
 20
-3.973024
  0
VERTEX
  8
PLAN_1
  6
CONTINUOUS
 10
2.293961
 20
-3.974567
  0
VERTEX
  8
PLAN_1
  6
CONTINUOUS
 10
2.298594
 20
-3.976110
  0
VERTEX
  8
PLAN_1
  6
CONTINUOUS
 10
2.302713
 20
-3.978169
  0
VERTEX
  8
PLAN_1
  6
CONTINUOUS
 10
2.306831
 20
-3.980232
  0
VERTEX
  8
PLAN_1
  6
CONTINUOUS
 10
2.310437
 20
-3.982803
  0
VERTEX
  8
PLAN_1
  6
CONTINUOUS
 10
2.314039
 20
-3.985894
  0
VERTEX
  8
PLAN_1
  6
CONTINUOUS
 10
2.317130
 20
-3.988984
  0
VERTEX
  8
PLAN_1
  6
CONTINUOUS
 10
2.319705
 20
-3.992071
  0
VERTEX
  8
PLAN_1
  6
CONTINUOUS
 10
2.322276
 20
-3.995677
  0
VERTEX
  8
PLAN_1
  6
CONTINUOUS
 10
2.324850
 20
-3.999795
  0
VERTEX
  8
PLAN_1
  6
CONTINUOUS
 10
2.326398
 20
-4.003913
  0
VERTEX
  8
PLAN_1
  6
CONTINUOUS
 10
2.327941
 20
-4.009063
  0
VERTEX
  8
PLAN_1
  6
CONTINUOUS
 10
2.328969
 20
-4.013697
  0
VERTEX
  8
PLAN_1
  6
CONTINUOUS
 10
2.330000
 20
-4.019358
  0
VERTEX
  8
PLAN_1
  6
CONTINUOUS
 10
2.330000
 20
-4.025024
  0
VERTEX
  8
PLAN_1
  6
CONTINUOUS
 10
2.330000
 20
-4.029142
  0
VERTEX
  8
PLAN_1
  6
CONTINUOUS
 10
2.329484
 20
-4.033260
  0
VERTEX
  8
PLAN_1
  6
CONTINUOUS
 10
2.328969
 20
-4.037378
  0
VERTEX
  8
PLAN_1
  6
CONTINUOUS
 10
2.327941
 20
-4.040984
  0
VERTEX
  8
PLAN_1
  6
CONTINUOUS
 10
2.325882
 20
-4.048189
  0
VERTEX
  8
PLAN_1
  6
CONTINUOUS
 10
2.322791
 20
-4.054370
  0
VERTEX
  8
PLAN_1
  6
CONTINUOUS
 10
2.318673
 20
-4.060031
  0
VERTEX
  8
PLAN_1
  6
CONTINUOUS
 10
2.314555
 20
-4.064665
  0
VERTEX
  8
PLAN_1
  6
CONTINUOUS
 10
2.309406
 20
-4.069299
  0
VERTEX
  8
PLAN_1
  6
CONTINUOUS
 10
2.303744
 20
-4.072902
  0
VERTEX
  8
PLAN_1
  6
CONTINUOUS
 10
2.298079
 20
-4.075992
  0
VERTEX
  8
PLAN_1
  6
CONTINUOUS
 10
2.291902
 20
-4.078567
  0
VERTEX
  8
PLAN_1
  6
CONTINUOUS
 10
2.285209
 20
-4.080626
  0
VERTEX
  8
PLAN_1
  6
CONTINUOUS
 10
2.278516
 20
-4.082169
  0
VERTEX
  8
PLAN_1
  6
CONTINUOUS
 10
2.271823
 20
-4.083717
  0
VERTEX
  8
PLAN_1
  6
CONTINUOUS
 10
2.265130
 20
-4.084744
  0
VERTEX
  8
PLAN_1
  6
CONTINUOUS
 10
2.258437
 20
-4.085260
  0
VERTEX
  8
PLAN_1
  6
CONTINUOUS
 10
2.252256
 20
-4.085260
  0
VERTEX
  8
PLAN_1
  6
CONTINUOUS
 10
2.239386
 20
-4.084744
  0
VERTEX
  8
PLAN_1
  6
CONTINUOUS
 10
2.228059
 20
-4.083201
  0
VERTEX
  8
PLAN_1
  6
CONTINUOUS
 10
2.219307
 20
-4.081142
  0
VERTEX
  8
PLAN_1
  6
CONTINUOUS
 10
2.211583
 20
-4.078567
  0
VERTEX
  8
PLAN_1
  6
CONTINUOUS
 10
2.204890
 20
-4.075476
  0
VERTEX
  8
PLAN_1
  6
CONTINUOUS
 10
2.199744
 20
-4.072390
  0
VERTEX
  8
PLAN_1
  6
CONTINUOUS
 10
2.195626
 20
-4.069299
  0
VERTEX
  8
PLAN_1
  6
CONTINUOUS
 10
2.192020
 20
-4.066209
  0
VERTEX
  8
PLAN_1
  6
CONTINUOUS
 10
2.185843
 20
-4.060031
  0
VERTEX
  8
PLAN_1
  6
CONTINUOUS
 10
2.181724
 20
-4.054370
  0
VERTEX
  8
PLAN_1
  6
CONTINUOUS
 10
2.178118
 20
-4.048189
  0
VERTEX
  8
PLAN_1
  6
CONTINUOUS
 10
2.175543
 20
-4.042012
  0
VERTEX
  8
PLAN_1
  6
CONTINUOUS
 10
2.173484
 20
-4.035835
  0
VERTEX
  8
PLAN_1
  6
CONTINUOUS
 10
2.172457
 20
-4.029142
  0
VERTEX
  8
PLAN_1
  6
CONTINUOUS
 10
2.171941
 20
-4.022449
  0
VERTEX
  8
PLAN_1
  6
CONTINUOUS
 10
2.171425
 20
-4.015756
  0
VERTEX
  8
PLAN_1
  6
CONTINUOUS
 10
2.196654
 20
-4.015756
  0
VERTEX
  8
PLAN_1
  6
CONTINUOUS
 10
2.197169
 20
-4.021933
  0
VERTEX
  8
PLAN_1
  6
CONTINUOUS
 10
2.198197
 20
-4.028110
  0
VERTEX
  8
PLAN_1
  6
CONTINUOUS
 10
2.199744
 20
-4.033260
  0
VERTEX
  8
PLAN_1
  6
CONTINUOUS
 10
2.201803
 20
-4.037894
  0
VERTEX
  8
PLAN_1
  6
CONTINUOUS
 10
2.204378
 20
-4.042528
  0
VERTEX
  8
PLAN_1
  6
CONTINUOUS
 10
2.207465
 20
-4.046130
  0
VERTEX
  8
PLAN_1
  6
CONTINUOUS
 10
2.211071
 20
-4.049736
  0
VERTEX
  8
PLAN_1
  6
CONTINUOUS
 10
2.214673
 20
-4.052311
  0
VERTEX
  8
PLAN_1
  6
CONTINUOUS
 10
2.218791
 20
-4.054882
  0
VERTEX
  8
PLAN_1
  6
CONTINUOUS
 10
2.222909
 20
-4.056945
  0
VERTEX
  8
PLAN_1
  6
CONTINUOUS
 10
2.227543
 20
-4.058488
  0
VERTEX
  8
PLAN_1
  6
CONTINUOUS
 10
2.232177
 20
-4.060031
  0
VERTEX
  8
PLAN_1
  6
CONTINUOUS
 10
2.237327
 20
-4.061063
  0
VERTEX
  8
PLAN_1
  6
CONTINUOUS
 10
2.241961
 20
-4.061575
  0
VERTEX
  8
PLAN_1
  6
CONTINUOUS
 10
2.247110
 20
-4.062091
  0
VERTEX
  8
PLAN_1
  6
CONTINUOUS
 10
2.251744
 20
-4.062091
  0
VERTEX
  8
PLAN_1
  6
CONTINUOUS
 10
2.259465
 20
-4.062091
  0
VERTEX
  8
PLAN_1
  6
CONTINUOUS
 10
2.268217
 20
-4.061063
  0
VERTEX
  8
PLAN_1
  6
CONTINUOUS
 10
2.272339
 20
-4.060031
  0
VERTEX
  8
PLAN_1
  6
CONTINUOUS
 10
2.276969
 20
-4.059004
  0
VERTEX
  8
PLAN_1
  6
CONTINUOUS
 10
2.281091
 20
-4.057972
  0
VERTEX
  8
PLAN_1
  6
CONTINUOUS
 10
2.285209
 20
-4.055913
  0
VERTEX
  8
PLAN_1
  6
CONTINUOUS
 10
2.288811
 20
-4.054370
  0
VERTEX
  8
PLAN_1
  6
CONTINUOUS
 10
2.292417
 20
-4.051795
  0
VERTEX
  8
PLAN_1
  6
CONTINUOUS
 10
2.295504
 20
-4.049220
  0
VERTEX
  8
PLAN_1
  6
CONTINUOUS
 10
2.298594
 20
-4.046130
  0
VERTEX
  8
PLAN_1
  6
CONTINUOUS
 10
2.300654
 20
-4.042528
  0
VERTEX
  8
PLAN_1
  6
CONTINUOUS
 10
2.302713
 20
-4.038409
  0
VERTEX
  8
PLAN_1
  6
CONTINUOUS
 10
2.303744
 20
-4.033776
  0
VERTEX
  8
PLAN_1
  6
CONTINUOUS
 10
2.303744
 20
-4.028626
  0
VERTEX
  8
PLAN_1
  6
CONTINUOUS
 10
2.303744
 20
-4.025024
  0
VERTEX
  8
PLAN_1
  6
CONTINUOUS
 10
2.303228
 20
-4.021417
  0
VERTEX
  8
PLAN_1
  6
CONTINUOUS
 10
2.302713
 20
-4.018331
  0
VERTEX
  8
PLAN_1
  6
CONTINUOUS
 10
2.301685
 20
-4.015240
  0
VERTEX
  8
PLAN_1
  6
CONTINUOUS
 10
2.300654
 20
-4.012665
  0
VERTEX
  8
PLAN_1
  6
CONTINUOUS
 10
2.299110
 20
-4.010091
  0
VERTEX
  8
PLAN_1
  6
CONTINUOUS
 10
2.297051
 20
-4.008031
  0
VERTEX
  8
PLAN_1
  6
CONTINUOUS
 10
2.294992
 20
-4.005972
  0
VERTEX
  8
PLAN_1
  6
CONTINUOUS
 10
2.292417
 20
-4.004429
  0
VERTEX
  8
PLAN_1
  6
CONTINUOUS
 10
2.289327
 20
-4.002370
  0
VERTEX
  8
PLAN_1
  6
CONTINUOUS
 10
2.285724
 20
-4.000823
  0
VERTEX
  8
PLAN_1
  6
CONTINUOUS
 10
2.282118
 20
-3.999280
  0
VERTEX
  8
PLAN_1
  6
CONTINUOUS
 10
2.272850
 20
-3.996189
  0
VERTEX
  8
PLAN_1
  6
CONTINUOUS
 10
2.261524
 20
-3.993102
  0
VERTEX
  8
PLAN_1
  6
CONTINUOUS
 10
2.220850
 20
-3.983835
  0
VERTEX
  8
PLAN_1
  6
CONTINUOUS
 10
2.215189
 20
-3.982291
  0
VERTEX
  8
PLAN_1
  6
CONTINUOUS
 10
2.208496
 20
-3.980232
  0
VERTEX
  8
PLAN_1
  6
CONTINUOUS
 10
2.204890
 20
-3.978685
  0
VERTEX
  8
PLAN_1
  6
CONTINUOUS
 10
2.201287
 20
-3.976626
  0
VERTEX
  8
PLAN_1
  6
CONTINUOUS
 10
2.198197
 20
-3.974567
  0
VERTEX
  8
PLAN_1
  6
CONTINUOUS
 10
2.194594
 20
-3.972508
  0
VERTEX
  8
PLAN_1
  6
CONTINUOUS
 10
2.191504
 20
-3.969417
  0
VERTEX
  8
PLAN_1
  6
CONTINUOUS
 10
2.188417
 20
-3.966331
  0
VERTEX
  8
PLAN_1
  6
CONTINUOUS
 10
2.185327
 20
-3.962724
  0
VERTEX
  8
PLAN_1
  6
CONTINUOUS
 10
2.182752
 20
-3.958606
  0
VERTEX
  8
PLAN_1
  6
CONTINUOUS
 10
2.181209
 20
-3.953972
  0
VERTEX
  8
PLAN_1
  6
CONTINUOUS
 10
2.179665
 20
-3.948823
  0
VERTEX
  8
PLAN_1
  6
CONTINUOUS
 10
2.178634
 20
-3.943161
  0
VERTEX
  8
PLAN_1
  6
CONTINUOUS
 10
2.178118
 20
-3.936984
  0
VERTEX
  8
PLAN_1
  6
CONTINUOUS
 10
2.178634
 20
-3.931319
  0
VERTEX
  8
PLAN_1
  6
CONTINUOUS
 10
2.179150
 20
-3.925657
  0
VERTEX
  8
PLAN_1
  6
CONTINUOUS
 10
2.180177
 20
-3.919992
  0
VERTEX
  8
PLAN_1
  6
CONTINUOUS
 10
2.182236
 20
-3.914331
  0
VERTEX
  8
PLAN_1
  6
CONTINUOUS
 10
2.184299
 20
-3.909181
  0
VERTEX
  8
PLAN_1
  6
CONTINUOUS
 10
2.187386
 20
-3.904031
  0
VERTEX
  8
PLAN_1
  6
CONTINUOUS
 10
2.190476
 20
-3.898886
  0
VERTEX
  8
PLAN_1
  6
CONTINUOUS
 10
2.194594
 20
-3.894764
  0
VERTEX
  8
PLAN_1
  6
CONTINUOUS
 10
2.198713
 20
-3.890646
  0
VERTEX
  8
PLAN_1
  6
CONTINUOUS
 10
2.203862
 20
-3.886528
  0
VERTEX
  8
PLAN_1
  6
CONTINUOUS
 10
2.209524
 20
-3.883437
  0
VERTEX
  8
PLAN_1
  6
CONTINUOUS
 10
2.215705
 20
-3.880866
  0
VERTEX
  8
PLAN_1
  6
CONTINUOUS
 10
2.222398
 20
-3.878291
  0
VERTEX
  8
PLAN_1
  6
CONTINUOUS
 10
2.230118
 20
-3.876744
  0
VERTEX
  8
PLAN_1
  6
CONTINUOUS
 10
2.237843
 20
-3.875717
  0
VERTEX
  8
PLAN_1
  6
CONTINUOUS
 10
2.246594
 20
-3.875201
  0
VERTEX
  8
PLAN_1
  6
CONTINUOUS
 10
2.258949
 20
-3.875717
  0
VERTEX
  8
PLAN_1
  6
CONTINUOUS
 10
2.270276
 20
-3.877260
  0
VERTEX
  8
PLAN_1
  6
CONTINUOUS
 10
2.279543
 20
-3.879319
  0
VERTEX
  8
PLAN_1
  6
CONTINUOUS
 10
2.288295
 20
-3.882409
  0
VERTEX
  8
PLAN_1
  6
CONTINUOUS
 10
2.295504
 20
-3.885496
  0
VERTEX
  8
PLAN_1
  6
CONTINUOUS
 10
2.301685
 20
-3.889618
  0
VERTEX
  8
PLAN_1
  6
CONTINUOUS
 10
2.306831
 20
-3.894252
  0
VERTEX
  8
PLAN_1
  6
CONTINUOUS
 10
2.311465
 20
-3.898886
  0
VERTEX
  8
PLAN_1
  6
CONTINUOUS
 10
2.315071
 20
-3.904031
  0
VERTEX
  8
PLAN_1
  6
CONTINUOUS
 10
2.317642
 20
-3.909181
  0
VERTEX
  8
PLAN_1
  6
CONTINUOUS
 10
2.320217
 20
-3.914331
  0
VERTEX
  8
PLAN_1
  6
CONTINUOUS
 10
2.321764
 20
-3.919992
  0
VERTEX
  8
PLAN_1
  6
CONTINUOUS
 10
2.323823
 20
-3.929776
  0
VERTEX
  8
PLAN_1
  6
CONTINUOUS
 10
2.324339
 20
-3.939043
  0
VERTEX
  8
PLAN_1
  6
CONTINUOUS
 10
2.299110
 20
-3.939043
  0
SEQEND
  8
0
  0
POLYLINE
  8
PLAN_1
  6
CONTINUOUS
 66
     1
 40
0.008236
 41
0.008236
  0
VERTEX
  8
PLAN_1
  6
CONTINUOUS
 10
0.082161
 20
-0.534339
  0
VERTEX
  8
PLAN_1
  6
CONTINUOUS
 10
0.082161
 20
0.444394
  0
VERTEX
  8
PLAN_1
  6
CONTINUOUS
 10
-1.190547
 20
0.444394
  0
VERTEX
  8
PLAN_1
  6
CONTINUOUS
 10
-1.190547
 20
-0.534339
  0
VERTEX
  8
PLAN_1
  6
CONTINUOUS
 10
0.082161
 20
-0.534339
  0
SEQEND
  8
0
  0
POLYLINE
  8
PLAN_1
  6
CONTINUOUS
 66
     1
 40
0.008236
 41
0.008236
  0
VERTEX
  8
PLAN_1
  6
CONTINUOUS
 10
-0.485201
 20
-1.134654
  0
VERTEX
  8
PLAN_1
  6
CONTINUOUS
 10
-0.485201
 20
-1.023445
  0
VERTEX
  8
PLAN_1
  6
CONTINUOUS
 10
-0.619063
 20
-1.023445
  0
VERTEX
  8
PLAN_1
  6
CONTINUOUS
 10
-0.619063
 20
-1.134654
  0
VERTEX
  8
PLAN_1
  6
CONTINUOUS
 10
-0.485201
 20
-1.134654
  0
SEQEND
  8
0
  0
POLYLINE
  8
PLAN_1
  6
CONTINUOUS
 66
     1
 40
0.008236
 41
0.008236
  0
VERTEX
  8
PLAN_1
  6
CONTINUOUS
 10
-0.021323
 20
-0.558535
  0
VERTEX
  8
PLAN_1
  6
CONTINUOUS
 10
-0.021323
 20
-0.538969
  0
VERTEX
  8
PLAN_1
  6
CONTINUOUS
 10
-1.066469
 20
-0.538969
  0
VERTEX
  8
PLAN_1
  6
CONTINUOUS
 10
-1.066469
 20
-0.558535
  0
VERTEX
  8
PLAN_1
  6
CONTINUOUS
 10
-0.021323
 20
-0.558535
  0
SEQEND
  8
0
  0
POLYLINE
  8
PLAN_1
  6
CONTINUOUS
 66
     1
 40
0.008236
 41
0.008236
  0
VERTEX
  8
PLAN_1
  6
CONTINUOUS
 10
-0.283382
 20
-1.023445
  0
VERTEX
  8
PLAN_1
  6
CONTINUOUS
 10
-0.283382
 20
-0.558535
  0
VERTEX
  8
PLAN_1
  6
CONTINUOUS
 10
-0.827063
 20
-0.558535
  0
VERTEX
  8
PLAN_1
  6
CONTINUOUS
 10
-0.827063
 20
-1.023445
  0
VERTEX
  8
PLAN_1
  6
CONTINUOUS
 10
-0.283382
 20
-1.023445
  0
SEQEND
  8
0
  0
POLYLINE
  8
PLAN_1
 62
     5
  6
CONTINUOUS
 66
     1
 40
0.003000
 41
0.003000
  0
VERTEX
  8
PLAN_1
 62
     5
  6
CONTINUOUS
 10
-1.353240
 20
-1.216512
  0
VERTEX
  8
PLAN_1
 62
     5
  6
CONTINUOUS
 10
-1.353240
 20
-1.208276
  0
SEQEND
  8
0
  0
POLYLINE
  8
PLAN_1
 62
     5
  6
CONTINUOUS
 66
     1
 40
0.003000
 41
0.003000
  0
VERTEX
  8
PLAN_1
 62
     5
  6
CONTINUOUS
 10
-1.353240
 20
-1.200039
  0
VERTEX
  8
PLAN_1
 62
     5
  6
CONTINUOUS
 10
-1.353240
 20
-1.191799
  0
SEQEND
  8
0
  0
POLYLINE
  8
PLAN_1
 62
     5
  6
CONTINUOUS
 66
     1
 40
0.003000
 41
0.003000
  0
VERTEX
  8
PLAN_1
 62
     5
  6
CONTINUOUS
 10
-1.353240
 20
-1.183563
  0
VERTEX
  8
PLAN_1
 62
     5
  6
CONTINUOUS
 10
-1.353240
 20
-1.174811
  0
SEQEND
  8
0
  0
POLYLINE
  8
PLAN_1
 62
     5
  6
CONTINUOUS
 66
     1
 40
0.003000
 41
0.003000
  0
VERTEX
  8
PLAN_1
 62
     5
  6
CONTINUOUS
 10
-1.353240
 20
-1.166575
  0
VERTEX
  8
PLAN_1
 62
     5
  6
CONTINUOUS
 10
-1.353240
 20
-1.158335
  0
SEQEND
  8
0
  0
POLYLINE
  8
PLAN_1
 62
     5
  6
CONTINUOUS
 66
     1
 40
0.003000
 41
0.003000
  0
VERTEX
  8
PLAN_1
 62
     5
  6
CONTINUOUS
 10
-1.353240
 20
-1.150098
  0
VERTEX
  8
PLAN_1
 62
     5
  6
CONTINUOUS
 10
-1.353240
 20
-1.141858
  0
SEQEND
  8
0
  0
POLYLINE
  8
PLAN_1
 62
     5
  6
CONTINUOUS
 66
     1
 40
0.003000
 41
0.003000
  0
VERTEX
  8
PLAN_1
 62
     5
  6
CONTINUOUS
 10
-1.353240
 20
-1.133622
  0
VERTEX
  8
PLAN_1
 62
     5
  6
CONTINUOUS
 10
-1.353240
 20
-1.124870
  0
SEQEND
  8
0
  0
POLYLINE
  8
PLAN_1
 62
     5
  6
CONTINUOUS
 66
     1
 40
0.003000
 41
0.003000
  0
VERTEX
  8
PLAN_1
 62
     5
  6
CONTINUOUS
 10
-1.353240
 20
-1.116634
  0
VERTEX
  8
PLAN_1
 62
     5
  6
CONTINUOUS
 10
-1.353240
 20
-1.108394
  0
SEQEND
  8
0
  0
POLYLINE
  8
PLAN_1
 62
     5
  6
CONTINUOUS
 66
     1
 40
0.003000
 41
0.003000
  0
VERTEX
  8
PLAN_1
 62
     5
  6
CONTINUOUS
 10
-1.353240
 20
-1.100157
  0
VERTEX
  8
PLAN_1
 62
     5
  6
CONTINUOUS
 10
-1.353240
 20
-1.091921
  0
SEQEND
  8
0
  0
POLYLINE
  8
PLAN_1
 62
     5
  6
CONTINUOUS
 66
     1
 40
0.003000
 41
0.003000
  0
VERTEX
  8
PLAN_1
 62
     5
  6
CONTINUOUS
 10
-1.353240
 20
-1.083681
  0
VERTEX
  8
PLAN_1
 62
     5
  6
CONTINUOUS
 10
-1.353240
 20
-1.074929
  0
SEQEND
  8
0
  0
POLYLINE
  8
PLAN_1
 62
     5
  6
CONTINUOUS
 66
     1
 40
0.003000
 41
0.003000
  0
VERTEX
  8
PLAN_1
 62
     5
  6
CONTINUOUS
 10
-1.353240
 20
-1.066693
  0
VERTEX
  8
PLAN_1
 62
     5
  6
CONTINUOUS
 10
-1.353240
 20
-1.058453
  0
SEQEND
  8
0
  0
POLYLINE
  8
PLAN_1
 62
     5
  6
CONTINUOUS
 66
     1
 40
0.003000
 41
0.003000
  0
VERTEX
  8
PLAN_1
 62
     5
  6
CONTINUOUS
 10
-1.353240
 20
-1.050217
  0
VERTEX
  8
PLAN_1
 62
     5
  6
CONTINUOUS
 10
-1.353240
 20
-1.041980
  0
SEQEND
  8
0
  0
POLYLINE
  8
PLAN_1
 62
     5
  6
CONTINUOUS
 66
     1
 40
0.003000
 41
0.003000
  0
VERTEX
  8
PLAN_1
 62
     5
  6
CONTINUOUS
 10
-1.353240
 20
-1.033228
  0
VERTEX
  8
PLAN_1
 62
     5
  6
CONTINUOUS
 10
-1.353240
 20
-1.024988
  0
SEQEND
  8
0
  0
POLYLINE
  8
PLAN_1
 62
     5
  6
CONTINUOUS
 66
     1
 40
0.003000
 41
0.003000
  0
VERTEX
  8
PLAN_1
 62
     5
  6
CONTINUOUS
 10
-1.353240
 20
-1.016752
  0
VERTEX
  8
PLAN_1
 62
     5
  6
CONTINUOUS
 10
-1.353240
 20
-1.008516
  0
SEQEND
  8
0
  0
POLYLINE
  8
PLAN_1
 62
     5
  6
CONTINUOUS
 66
     1
 40
0.003000
 41
0.003000
  0
VERTEX
  8
PLAN_1
 62
     5
  6
CONTINUOUS
 10
-1.353240
 20
-1.000276
  0
VERTEX
  8
PLAN_1
 62
     5
  6
CONTINUOUS
 10
-1.353240
 20
-0.992039
  0
SEQEND
  8
0
  0
POLYLINE
  8
PLAN_1
 62
     5
  6
CONTINUOUS
 66
     1
 40
0.003000
 41
0.003000
  0
VERTEX
  8
PLAN_1
 62
     5
  6
CONTINUOUS
 10
-1.353240
 20
-0.983287
  0
VERTEX
  8
PLAN_1
 62
     5
  6
CONTINUOUS
 10
-1.353240
 20
-0.975047
  0
SEQEND
  8
0
  0
POLYLINE
  8
PLAN_1
 62
     5
  6
CONTINUOUS
 66
     1
 40
0.003000
 41
0.003000
  0
VERTEX
  8
PLAN_1
 62
     5
  6
CONTINUOUS
 10
-1.353240
 20
-0.966811
  0
VERTEX
  8
PLAN_1
 62
     5
  6
CONTINUOUS
 10
-1.353240
 20
-0.958575
  0
SEQEND
  8
0
  0
POLYLINE
  8
PLAN_1
 62
     5
  6
CONTINUOUS
 66
     1
 40
0.003000
 41
0.003000
  0
VERTEX
  8
PLAN_1
 62
     5
  6
CONTINUOUS
 10
-1.353240
 20
-0.950335
  0
VERTEX
  8
PLAN_1
 62
     5
  6
CONTINUOUS
 10
-1.353240
 20
-0.942098
  0
SEQEND
  8
0
  0
POLYLINE
  8
PLAN_1
 62
     5
  6
CONTINUOUS
 66
     1
 40
0.003000
 41
0.003000
  0
VERTEX
  8
PLAN_1
 62
     5
  6
CONTINUOUS
 10
-1.353240
 20
-0.933346
  0
VERTEX
  8
PLAN_1
 62
     5
  6
CONTINUOUS
 10
-1.353240
 20
-0.925106
  0
SEQEND
  8
0
  0
POLYLINE
  8
PLAN_1
 62
     5
  6
CONTINUOUS
 66
     1
 40
0.003000
 41
0.003000
  0
VERTEX
  8
PLAN_1
 62
     5
  6
CONTINUOUS
 10
-1.353240
 20
-0.916870
  0
VERTEX
  8
PLAN_1
 62
     5
  6
CONTINUOUS
 10
-1.353240
 20
-0.908634
  0
SEQEND
  8
0
  0
POLYLINE
  8
PLAN_1
 62
     5
  6
CONTINUOUS
 66
     1
 40
0.003000
 41
0.003000
  0
VERTEX
  8
PLAN_1
 62
     5
  6
CONTINUOUS
 10
-1.353240
 20
-0.900394
  0
VERTEX
  8
PLAN_1
 62
     5
  6
CONTINUOUS
 10
-1.353240
 20
-0.892157
  0
SEQEND
  8
0
  0
POLYLINE
  8
PLAN_1
 62
     5
  6
CONTINUOUS
 66
     1
 40
0.003000
 41
0.003000
  0
VERTEX
  8
PLAN_1
 62
     5
  6
CONTINUOUS
 10
-1.353240
 20
-0.883406
  0
VERTEX
  8
PLAN_1
 62
     5
  6
CONTINUOUS
 10
-1.353240
 20
-0.875169
  0
SEQEND
  8
0
  0
POLYLINE
  8
PLAN_1
 62
     5
  6
CONTINUOUS
 66
     1
 40
0.003000
 41
0.003000
  0
VERTEX
  8
PLAN_1
 62
     5
  6
CONTINUOUS
 10
-1.353240
 20
-0.866929
  0
VERTEX
  8
PLAN_1
 62
     5
  6
CONTINUOUS
 10
-1.353240
 20
-0.858693
  0
SEQEND
  8
0
  0
POLYLINE
  8
PLAN_1
 62
     5
  6
CONTINUOUS
 66
     1
 40
0.003000
 41
0.003000
  0
VERTEX
  8
PLAN_1
 62
     5
  6
CONTINUOUS
 10
-1.353240
 20
-0.850457
  0
VERTEX
  8
PLAN_1
 62
     5
  6
CONTINUOUS
 10
-1.353240
 20
-0.841701
  0
SEQEND
  8
0
  0
POLYLINE
  8
PLAN_1
 62
     5
  6
CONTINUOUS
 66
     1
 40
0.003000
 41
0.003000
  0
VERTEX
  8
PLAN_1
 62
     5
  6
CONTINUOUS
 10
-1.353240
 20
-0.833465
  0
VERTEX
  8
PLAN_1
 62
     5
  6
CONTINUOUS
 10
-1.353240
 20
-0.825228
  0
SEQEND
  8
0
  0
POLYLINE
  8
PLAN_1
 62
     5
  6
CONTINUOUS
 66
     1
 40
0.003000
 41
0.003000
  0
VERTEX
  8
PLAN_1
 62
     5
  6
CONTINUOUS
 10
-1.353240
 20
-0.816988
  0
VERTEX
  8
PLAN_1
 62
     5
  6
CONTINUOUS
 10
-1.353240
 20
-0.808752
  0
SEQEND
  8
0
  0
POLYLINE
  8
PLAN_1
 62
     5
  6
CONTINUOUS
 66
     1
 40
0.003000
 41
0.003000
  0
VERTEX
  8
PLAN_1
 62
     5
  6
CONTINUOUS
 10
-1.353240
 20
-0.800516
  0
VERTEX
  8
PLAN_1
 62
     5
  6
CONTINUOUS
 10
-1.353240
 20
-0.791764
  0
SEQEND
  8
0
  0
POLYLINE
  8
PLAN_1
 62
     5
  6
CONTINUOUS
 66
     1
 40
0.003000
 41
0.003000
  0
VERTEX
  8
PLAN_1
 62
     5
  6
CONTINUOUS
 10
-1.353240
 20
-0.783524
  0
VERTEX
  8
PLAN_1
 62
     5
  6
CONTINUOUS
 10
-1.353240
 20
-0.775287
  0
SEQEND
  8
0
  0
POLYLINE
  8
PLAN_1
 62
     5
  6
CONTINUOUS
 66
     1
 40
0.003000
 41
0.003000
  0
VERTEX
  8
PLAN_1
 62
     5
  6
CONTINUOUS
 10
-1.353240
 20
-0.767047
  0
VERTEX
  8
PLAN_1
 62
     5
  6
CONTINUOUS
 10
-1.353240
 20
-0.758811
  0
SEQEND
  8
0
  0
POLYLINE
  8
PLAN_1
 62
     5
  6
CONTINUOUS
 66
     1
 40
0.003000
 41
0.003000
  0
VERTEX
  8
PLAN_1
 62
     5
  6
CONTINUOUS
 10
-1.353240
 20
-0.750575
  0
VERTEX
  8
PLAN_1
 62
     5
  6
CONTINUOUS
 10
-1.353240
 20
-0.741823
  0
SEQEND
  8
0
  0
POLYLINE
  8
PLAN_1
 62
     5
  6
CONTINUOUS
 66
     1
 40
0.003000
 41
0.003000
  0
VERTEX
  8
PLAN_1
 62
     5
  6
CONTINUOUS
 10
-1.353240
 20
-0.733583
  0
VERTEX
  8
PLAN_1
 62
     5
  6
CONTINUOUS
 10
-1.353240
 20
-0.725346
  0
SEQEND
  8
0
  0
POLYLINE
  8
PLAN_1
 62
     5
  6
CONTINUOUS
 66
     1
 40
0.003000
 41
0.003000
  0
VERTEX
  8
PLAN_1
 62
     5
  6
CONTINUOUS
 10
-1.353240
 20
-0.717110
  0
VERTEX
  8
PLAN_1
 62
     5
  6
CONTINUOUS
 10
-1.353240
 20
-0.708870
  0
SEQEND
  8
0
  0
POLYLINE
  8
PLAN_1
 62
     5
  6
CONTINUOUS
 66
     1
 40
0.003000
 41
0.003000
  0
VERTEX
  8
PLAN_1
 62
     5
  6
CONTINUOUS
 10
-1.353240
 20
-0.700634
  0
VERTEX
  8
PLAN_1
 62
     5
  6
CONTINUOUS
 10
-1.353240
 20
-0.691882
  0
SEQEND
  8
0
  0
POLYLINE
  8
PLAN_1
 62
     5
  6
CONTINUOUS
 66
     1
 40
0.003000
 41
0.003000
  0
VERTEX
  8
PLAN_1
 62
     5
  6
CONTINUOUS
 10
-1.353240
 20
-0.683642
  0
VERTEX
  8
PLAN_1
 62
     5
  6
CONTINUOUS
 10
-1.353240
 20
-0.675406
  0
SEQEND
  8
0
  0
POLYLINE
  8
PLAN_1
 62
     5
  6
CONTINUOUS
 66
     1
 40
0.003000
 41
0.003000
  0
VERTEX
  8
PLAN_1
 62
     5
  6
CONTINUOUS
 10
-1.353240
 20
-0.667169
  0
VERTEX
  8
PLAN_1
 62
     5
  6
CONTINUOUS
 10
-1.353240
 20
-0.658929
  0
SEQEND
  8
0
  0
POLYLINE
  8
PLAN_1
 62
     5
  6
CONTINUOUS
 66
     1
 40
0.003000
 41
0.003000
  0
VERTEX
  8
PLAN_1
 62
     5
  6
CONTINUOUS
 10
-1.353240
 20
-0.650177
  0
VERTEX
  8
PLAN_1
 62
     5
  6
CONTINUOUS
 10
-1.353240
 20
-0.641941
  0
SEQEND
  8
0
  0
POLYLINE
  8
PLAN_1
 62
     5
  6
CONTINUOUS
 66
     1
 40
0.003000
 41
0.003000
  0
VERTEX
  8
PLAN_1
 62
     5
  6
CONTINUOUS
 10
-1.353240
 20
-0.633705
  0
VERTEX
  8
PLAN_1
 62
     5
  6
CONTINUOUS
 10
-1.353240
 20
-0.625465
  0
SEQEND
  8
0
  0
POLYLINE
  8
PLAN_1
 62
     5
  6
CONTINUOUS
 66
     1
 40
0.003000
 41
0.003000
  0
VERTEX
  8
PLAN_1
 62
     5
  6
CONTINUOUS
 10
-1.353240
 20
-0.617228
  0
VERTEX
  8
PLAN_1
 62
     5
  6
CONTINUOUS
 10
-1.353240
 20
-0.608988
  0
SEQEND
  8
0
  0
POLYLINE
  8
PLAN_1
 62
     5
  6
CONTINUOUS
 66
     1
 40
0.003000
 41
0.003000
  0
VERTEX
  8
PLAN_1
 62
     5
  6
CONTINUOUS
 10
-1.353240
 20
-0.600236
  0
VERTEX
  8
PLAN_1
 62
     5
  6
CONTINUOUS
 10
-1.353240
 20
-0.592000
  0
SEQEND
  8
0
  0
POLYLINE
  8
PLAN_1
 62
     5
  6
CONTINUOUS
 66
     1
 40
0.003000
 41
0.003000
  0
VERTEX
  8
PLAN_1
 62
     5
  6
CONTINUOUS
 10
-1.353240
 20
-0.583764
  0
VERTEX
  8
PLAN_1
 62
     5
  6
CONTINUOUS
 10
-1.353240
 20
-0.575524
  0
SEQEND
  8
0
  0
POLYLINE
  8
PLAN_1
 62
     5
  6
CONTINUOUS
 66
     1
 40
0.003000
 41
0.003000
  0
VERTEX
  8
PLAN_1
 62
     5
  6
CONTINUOUS
 10
-1.353240
 20
-0.567287
  0
VERTEX
  8
PLAN_1
 62
     5
  6
CONTINUOUS
 10
-1.353240
 20
-0.559051
  0
SEQEND
  8
0
  0
POLYLINE
  8
PLAN_1
 62
     5
  6
CONTINUOUS
 66
     1
 40
0.003000
 41
0.003000
  0
VERTEX
  8
PLAN_1
 62
     5
  6
CONTINUOUS
 10
-1.353240
 20
-0.550295
  0
VERTEX
  8
PLAN_1
 62
     5
  6
CONTINUOUS
 10
-1.353240
 20
-0.542059
  0
SEQEND
  8
0
  0
POLYLINE
  8
PLAN_1
 62
     5
  6
CONTINUOUS
 66
     1
 40
0.003000
 41
0.003000
  0
VERTEX
  8
PLAN_1
 62
     5
  6
CONTINUOUS
 10
-1.352209
 20
-0.534339
  0
VERTEX
  8
PLAN_1
 62
     5
  6
CONTINUOUS
 10
-1.343972
 20
-0.534339
  0
SEQEND
  8
0
  0
POLYLINE
  8
PLAN_1
 62
     5
  6
CONTINUOUS
 66
     1
 40
0.003000
 41
0.003000
  0
VERTEX
  8
PLAN_1
 62
     5
  6
CONTINUOUS
 10
-1.335736
 20
-0.534339
  0
VERTEX
  8
PLAN_1
 62
     5
  6
CONTINUOUS
 10
-1.327496
 20
-0.534339
  0
SEQEND
  8
0
  0
POLYLINE
  8
PLAN_1
 62
     5
  6
CONTINUOUS
 66
     1
 40
0.003000
 41
0.003000
  0
VERTEX
  8
PLAN_1
 62
     5
  6
CONTINUOUS
 10
-1.319260
 20
-0.534339
  0
VERTEX
  8
PLAN_1
 62
     5
  6
CONTINUOUS
 10
-1.310508
 20
-0.534339
  0
SEQEND
  8
0
  0
POLYLINE
  8
PLAN_1
 62
     5
  6
CONTINUOUS
 66
     1
 40
0.003000
 41
0.003000
  0
VERTEX
  8
PLAN_1
 62
     5
  6
CONTINUOUS
 10
-1.302268
 20
-0.534339
  0
VERTEX
  8
PLAN_1
 62
     5
  6
CONTINUOUS
 10
-1.294031
 20
-0.534339
  0
SEQEND
  8
0
  0
POLYLINE
  8
PLAN_1
 62
     5
  6
CONTINUOUS
 66
     1
 40
0.003000
 41
0.003000
  0
VERTEX
  8
PLAN_1
 62
     5
  6
CONTINUOUS
 10
-1.285795
 20
-0.534339
  0
VERTEX
  8
PLAN_1
 62
     5
  6
CONTINUOUS
 10
-1.277555
 20
-0.534339
  0
SEQEND
  8
0
  0
POLYLINE
  8
PLAN_1
 62
     5
  6
CONTINUOUS
 66
     1
 40
0.003000
 41
0.003000
  0
VERTEX
  8
PLAN_1
 62
     5
  6
CONTINUOUS
 10
-1.269319
 20
-0.534339
  0
VERTEX
  8
PLAN_1
 62
     5
  6
CONTINUOUS
 10
-1.260567
 20
-0.534339
  0
SEQEND
  8
0
  0
POLYLINE
  8
PLAN_1
 62
     5
  6
CONTINUOUS
 66
     1
 40
0.003000
 41
0.003000
  0
VERTEX
  8
PLAN_1
 62
     5
  6
CONTINUOUS
 10
-1.252331
 20
-0.534339
  0
VERTEX
  8
PLAN_1
 62
     5
  6
CONTINUOUS
 10
-1.244091
 20
-0.534339
  0
SEQEND
  8
0
  0
POLYLINE
  8
PLAN_1
 62
     5
  6
CONTINUOUS
 66
     1
 40
0.003000
 41
0.003000
  0
VERTEX
  8
PLAN_1
 62
     5
  6
CONTINUOUS
 10
-1.235854
 20
-0.534339
  0
VERTEX
  8
PLAN_1
 62
     5
  6
CONTINUOUS
 10
-1.227618
 20
-0.534339
  0
SEQEND
  8
0
  0
POLYLINE
  8
PLAN_1
 62
     5
  6
CONTINUOUS
 66
     1
 40
0.003000
 41
0.003000
  0
VERTEX
  8
PLAN_1
 62
     5
  6
CONTINUOUS
 10
-1.219378
 20
-0.534339
  0
VERTEX
  8
PLAN_1
 62
     5
  6
CONTINUOUS
 10
-1.210626
 20
-0.534339
  0
SEQEND
  8
0
  0
POLYLINE
  8
PLAN_1
 62
     5
  6
CONTINUOUS
 66
     1
 40
0.003000
 41
0.003000
  0
VERTEX
  8
PLAN_1
 62
     5
  6
CONTINUOUS
 10
-1.202390
 20
-0.534339
  0
VERTEX
  8
PLAN_1
 62
     5
  6
CONTINUOUS
 10
-1.194150
 20
-0.534339
  0
SEQEND
  8
0
  0
POLYLINE
  8
PLAN_1
 62
     5
  6
CONTINUOUS
 66
     1
 40
0.003000
 41
0.003000
  0
VERTEX
  8
PLAN_1
 62
     5
  6
CONTINUOUS
 10
-1.185913
 20
-0.534339
  0
VERTEX
  8
PLAN_1
 62
     5
  6
CONTINUOUS
 10
-1.177677
 20
-0.534339
  0
SEQEND
  8
0
  0
POLYLINE
  8
PLAN_1
 62
     5
  6
CONTINUOUS
 66
     1
 40
0.003000
 41
0.003000
  0
VERTEX
  8
PLAN_1
 62
     5
  6
CONTINUOUS
 10
-1.168925
 20
-0.534339
  0
VERTEX
  8
PLAN_1
 62
     5
  6
CONTINUOUS
 10
-1.160685
 20
-0.534339
  0
SEQEND
  8
0
  0
POLYLINE
  8
PLAN_1
 62
     5
  6
CONTINUOUS
 66
     1
 40
0.003000
 41
0.003000
  0
VERTEX
  8
PLAN_1
 62
     5
  6
CONTINUOUS
 10
-1.152449
 20
-0.534339
  0
VERTEX
  8
PLAN_1
 62
     5
  6
CONTINUOUS
 10
-1.144209
 20
-0.534339
  0
SEQEND
  8
0
  0
POLYLINE
  8
PLAN_1
 62
     5
  6
CONTINUOUS
 66
     1
 40
0.003000
 41
0.003000
  0
VERTEX
  8
PLAN_1
 62
     5
  6
CONTINUOUS
 10
-1.135972
 20
-0.534339
  0
VERTEX
  8
PLAN_1
 62
     5
  6
CONTINUOUS
 10
-1.127736
 20
-0.534339
  0
SEQEND
  8
0
  0
POLYLINE
  8
PLAN_1
 62
     5
  6
CONTINUOUS
 66
     1
 40
0.003000
 41
0.003000
  0
VERTEX
  8
PLAN_1
 62
     5
  6
CONTINUOUS
 10
-1.118984
 20
-0.534339
  0
VERTEX
  8
PLAN_1
 62
     5
  6
CONTINUOUS
 10
-1.110744
 20
-0.534339
  0
SEQEND
  8
0
  0
POLYLINE
  8
PLAN_1
 62
     5
  6
CONTINUOUS
 66
     1
 40
0.003000
 41
0.003000
  0
VERTEX
  8
PLAN_1
 62
     5
  6
CONTINUOUS
 10
-1.102508
 20
-0.534339
  0
VERTEX
  8
PLAN_1
 62
     5
  6
CONTINUOUS
 10
-1.094272
 20
-0.534339
  0
SEQEND
  8
0
  0
POLYLINE
  8
PLAN_1
 62
     5
  6
CONTINUOUS
 66
     1
 40
0.003000
 41
0.003000
  0
VERTEX
  8
PLAN_1
 62
     5
  6
CONTINUOUS
 10
-1.086031
 20
-0.534339
  0
VERTEX
  8
PLAN_1
 62
     5
  6
CONTINUOUS
 10
-1.077795
 20
-0.534339
  0
SEQEND
  8
0
  0
POLYLINE
  8
PLAN_1
 62
     5
  6
CONTINUOUS
 66
     1
 40
0.003000
 41
0.003000
  0
VERTEX
  8
PLAN_1
 62
     5
  6
CONTINUOUS
 10
-1.069043
 20
-0.534339
  0
VERTEX
  8
PLAN_1
 62
     5
  6
CONTINUOUS
 10
-1.060803
 20
-0.534339
  0
SEQEND
  8
0
  0
POLYLINE
  8
PLAN_1
 62
     5
  6
CONTINUOUS
 66
     1
 40
0.003000
 41
0.003000
  0
VERTEX
  8
PLAN_1
 62
     5
  6
CONTINUOUS
 10
-1.052567
 20
-0.534339
  0
VERTEX
  8
PLAN_1
 62
     5
  6
CONTINUOUS
 10
-1.044331
 20
-0.534339
  0
SEQEND
  8
0
  0
POLYLINE
  8
PLAN_1
 62
     5
  6
CONTINUOUS
 66
     1
 40
0.003000
 41
0.003000
  0
VERTEX
  8
PLAN_1
 62
     5
  6
CONTINUOUS
 10
-1.036091
 20
-0.534339
  0
VERTEX
  8
PLAN_1
 62
     5
  6
CONTINUOUS
 10
-1.027854
 20
-0.534339
  0
SEQEND
  8
0
  0
POLYLINE
  8
PLAN_1
 62
     5
  6
CONTINUOUS
 66
     1
 40
0.003000
 41
0.003000
  0
VERTEX
  8
PLAN_1
 62
     5
  6
CONTINUOUS
 10
-1.019102
 20
-0.534339
  0
VERTEX
  8
PLAN_1
 62
     5
  6
CONTINUOUS
 10
-1.010866
 20
-0.534339
  0
SEQEND
  8
0
  0
POLYLINE
  8
PLAN_1
 62
     5
  6
CONTINUOUS
 66
     1
 40
0.003000
 41
0.003000
  0
VERTEX
  8
PLAN_1
 62
     5
  6
CONTINUOUS
 10
-1.002626
 20
-0.534339
  0
VERTEX
  8
PLAN_1
 62
     5
  6
CONTINUOUS
 10
-0.994390
 20
-0.534339
  0
SEQEND
  8
0
  0
POLYLINE
  8
PLAN_1
 62
     5
  6
CONTINUOUS
 66
     1
 40
0.003000
 41
0.003000
  0
VERTEX
  8
PLAN_1
 62
     5
  6
CONTINUOUS
 10
-0.986150
 20
-0.534339
  0
VERTEX
  8
PLAN_1
 62
     5
  6
CONTINUOUS
 10
-0.977398
 20
-0.534339
  0
SEQEND
  8
0
  0
POLYLINE
  8
PLAN_1
 62
     5
  6
CONTINUOUS
 66
     1
 40
0.003000
 41
0.003000
  0
VERTEX
  8
PLAN_1
 62
     5
  6
CONTINUOUS
 10
-0.969161
 20
-0.534339
  0
VERTEX
  8
PLAN_1
 62
     5
  6
CONTINUOUS
 10
-0.960925
 20
-0.534339
  0
SEQEND
  8
0
  0
POLYLINE
  8
PLAN_1
 62
     5
  6
CONTINUOUS
 66
     1
 40
0.003000
 41
0.003000
  0
VERTEX
  8
PLAN_1
 62
     5
  6
CONTINUOUS
 10
-0.952685
 20
-0.534339
  0
VERTEX
  8
PLAN_1
 62
     5
  6
CONTINUOUS
 10
-0.944449
 20
-0.534339
  0
SEQEND
  8
0
  0
POLYLINE
  8
PLAN_1
 62
     5
  6
CONTINUOUS
 66
     1
 40
0.003000
 41
0.003000
  0
VERTEX
  8
PLAN_1
 62
     5
  6
CONTINUOUS
 10
-0.936213
 20
-0.534339
  0
VERTEX
  8
PLAN_1
 62
     5
  6
CONTINUOUS
 10
-0.927457
 20
-0.534339
  0
SEQEND
  8
0
  0
POLYLINE
  8
PLAN_1
 62
     5
  6
CONTINUOUS
 66
     1
 40
0.003000
 41
0.003000
  0
VERTEX
  8
PLAN_1
 62
     5
  6
CONTINUOUS
 10
-0.919220
 20
-0.534339
  0
VERTEX
  8
PLAN_1
 62
     5
  6
CONTINUOUS
 10
-0.910984
 20
-0.534339
  0
SEQEND
  8
0
  0
POLYLINE
  8
PLAN_1
 62
     5
  6
CONTINUOUS
 66
     1
 40
0.003000
 41
0.003000
  0
VERTEX
  8
PLAN_1
 62
     5
  6
CONTINUOUS
 10
-0.902744
 20
-0.534339
  0
VERTEX
  8
PLAN_1
 62
     5
  6
CONTINUOUS
 10
-0.894508
 20
-0.534339
  0
SEQEND
  8
0
  0
POLYLINE
  8
PLAN_1
 62
     5
  6
CONTINUOUS
 66
     1
 40
0.003000
 41
0.003000
  0
VERTEX
  8
PLAN_1
 62
     5
  6
CONTINUOUS
 10
-0.886272
 20
-0.534339
  0
VERTEX
  8
PLAN_1
 62
     5
  6
CONTINUOUS
 10
-0.877520
 20
-0.534339
  0
SEQEND
  8
0
  0
POLYLINE
  8
PLAN_1
 62
     5
  6
CONTINUOUS
 66
     1
 40
0.003000
 41
0.003000
  0
VERTEX
  8
PLAN_1
 62
     5
  6
CONTINUOUS
 10
-0.869280
 20
-0.534339
  0
VERTEX
  8
PLAN_1
 62
     5
  6
CONTINUOUS
 10
-0.861043
 20
-0.534339
  0
SEQEND
  8
0
  0
POLYLINE
  8
PLAN_1
 62
     5
  6
CONTINUOUS
 66
     1
 40
0.003000
 41
0.003000
  0
VERTEX
  8
PLAN_1
 62
     5
  6
CONTINUOUS
 10
-0.852807
 20
-0.534339
  0
VERTEX
  8
PLAN_1
 62
     5
  6
CONTINUOUS
 10
-0.844567
 20
-0.534339
  0
SEQEND
  8
0
  0
POLYLINE
  8
PLAN_1
 62
     5
  6
CONTINUOUS
 66
     1
 40
0.003000
 41
0.003000
  0
VERTEX
  8
PLAN_1
 62
     5
  6
CONTINUOUS
 10
-0.835815
 20
-0.534339
  0
VERTEX
  8
PLAN_1
 62
     5
  6
CONTINUOUS
 10
-0.827579
 20
-0.534339
  0
SEQEND
  8
0
  0
POLYLINE
  8
PLAN_1
 62
     5
  6
CONTINUOUS
 66
     1
 40
0.003000
 41
0.003000
  0
VERTEX
  8
PLAN_1
 62
     5
  6
CONTINUOUS
 10
-0.819339
 20
-0.534339
  0
VERTEX
  8
PLAN_1
 62
     5
  6
CONTINUOUS
 10
-0.811102
 20
-0.534339
  0
SEQEND
  8
0
  0
POLYLINE
  8
PLAN_1
 62
     5
  6
CONTINUOUS
 66
     1
 40
0.003000
 41
0.003000
  0
VERTEX
  8
PLAN_1
 62
     5
  6
CONTINUOUS
 10
-0.802866
 20
-0.534339
  0
VERTEX
  8
PLAN_1
 62
     5
  6
CONTINUOUS
 10
-0.794626
 20
-0.534339
  0
SEQEND
  8
0
  0
POLYLINE
  8
PLAN_1
 62
     5
  6
CONTINUOUS
 66
     1
 40
0.003000
 41
0.003000
  0
VERTEX
  8
PLAN_1
 62
     5
  6
CONTINUOUS
 10
-0.785874
 20
-0.534339
  0
VERTEX
  8
PLAN_1
 62
     5
  6
CONTINUOUS
 10
-0.777638
 20
-0.534339
  0
SEQEND
  8
0
  0
POLYLINE
  8
PLAN_1
 62
     5
  6
CONTINUOUS
 66
     1
 40
0.003000
 41
0.003000
  0
VERTEX
  8
PLAN_1
 62
     5
  6
CONTINUOUS
 10
-0.769398
 20
-0.534339
  0
VERTEX
  8
PLAN_1
 62
     5
  6
CONTINUOUS
 10
-0.761161
 20
-0.534339
  0
SEQEND
  8
0
  0
POLYLINE
  8
PLAN_1
 62
     5
  6
CONTINUOUS
 66
     1
 40
0.003000
 41
0.003000
  0
VERTEX
  8
PLAN_1
 62
     5
  6
CONTINUOUS
 10
-0.752925
 20
-0.534339
  0
VERTEX
  8
PLAN_1
 62
     5
  6
CONTINUOUS
 10
-0.744685
 20
-0.534339
  0
SEQEND
  8
0
  0
POLYLINE
  8
PLAN_1
 62
     5
  6
CONTINUOUS
 66
     1
 40
0.003000
 41
0.003000
  0
VERTEX
  8
PLAN_1
 62
     5
  6
CONTINUOUS
 10
-0.735933
 20
-0.534339
  0
VERTEX
  8
PLAN_1
 62
     5
  6
CONTINUOUS
 10
-0.727697
 20
-0.534339
  0
SEQEND
  8
0
  0
POLYLINE
  8
PLAN_1
 62
     5
  6
CONTINUOUS
 66
     1
 40
0.003000
 41
0.003000
  0
VERTEX
  8
PLAN_1
 62
     5
  6
CONTINUOUS
 10
-0.719461
 20
-0.534339
  0
VERTEX
  8
PLAN_1
 62
     5
  6
CONTINUOUS
 10
-0.711220
 20
-0.534339
  0
SEQEND
  8
0
  0
POLYLINE
  8
PLAN_1
 62
     5
  6
CONTINUOUS
 66
     1
 40
0.003000
 41
0.003000
  0
VERTEX
  8
PLAN_1
 62
     5
  6
CONTINUOUS
 10
-0.702984
 20
-0.534339
  0
VERTEX
  8
PLAN_1
 62
     5
  6
CONTINUOUS
 10
-0.694744
 20
-0.534339
  0
SEQEND
  8
0
  0
POLYLINE
  8
PLAN_1
 62
     5
  6
CONTINUOUS
 66
     1
 40
0.003000
 41
0.003000
  0
VERTEX
  8
PLAN_1
 62
     5
  6
CONTINUOUS
 10
-0.685992
 20
-0.534339
  0
VERTEX
  8
PLAN_1
 62
     5
  6
CONTINUOUS
 10
-0.677756
 20
-0.534339
  0
SEQEND
  8
0
  0
POLYLINE
  8
PLAN_1
 62
     5
  6
CONTINUOUS
 66
     1
 40
0.003000
 41
0.003000
  0
VERTEX
  8
PLAN_1
 62
     5
  6
CONTINUOUS
 10
-0.669520
 20
-0.534339
  0
VERTEX
  8
PLAN_1
 62
     5
  6
CONTINUOUS
 10
-0.661280
 20
-0.534339
  0
SEQEND
  8
0
  0
POLYLINE
  8
PLAN_1
 62
     5
  6
CONTINUOUS
 66
     1
 40
0.003000
 41
0.003000
  0
VERTEX
  8
PLAN_1
 62
     5
  6
CONTINUOUS
 10
-0.653043
 20
-0.534339
  0
VERTEX
  8
PLAN_1
 62
     5
  6
CONTINUOUS
 10
-0.644291
 20
-0.534339
  0
SEQEND
  8
0
  0
POLYLINE
  8
PLAN_1
 62
     5
  6
CONTINUOUS
 66
     1
 40
0.003000
 41
0.003000
  0
VERTEX
  8
PLAN_1
 62
     5
  6
CONTINUOUS
 10
-0.636051
 20
-0.534339
  0
VERTEX
  8
PLAN_1
 62
     5
  6
CONTINUOUS
 10
-0.627815
 20
-0.534339
  0
SEQEND
  8
0
  0
POLYLINE
  8
PLAN_1
 62
     5
  6
CONTINUOUS
 66
     1
 40
0.003000
 41
0.003000
  0
VERTEX
  8
PLAN_1
 62
     5
  6
CONTINUOUS
 10
-0.619579
 20
-0.534339
  0
VERTEX
  8
PLAN_1
 62
     5
  6
CONTINUOUS
 10
-0.611339
 20
-0.534339
  0
SEQEND
  8
0
  0
POLYLINE
  8
PLAN_1
 62
     5
  6
CONTINUOUS
 66
     1
 40
0.003000
 41
0.003000
  0
VERTEX
  8
PLAN_1
 62
     5
  6
CONTINUOUS
 10
-0.603102
 20
-0.534339
  0
VERTEX
  8
PLAN_1
 62
     5
  6
CONTINUOUS
 10
-0.594350
 20
-0.534339
  0
SEQEND
  8
0
  0
POLYLINE
  8
PLAN_1
 62
     5
  6
CONTINUOUS
 66
     1
 40
0.003000
 41
0.003000
  0
VERTEX
  8
PLAN_1
 62
     5
  6
CONTINUOUS
 10
-0.586114
 20
-0.534339
  0
VERTEX
  8
PLAN_1
 62
     5
  6
CONTINUOUS
 10
-0.577874
 20
-0.534339
  0
SEQEND
  8
0
  0
POLYLINE
  8
PLAN_1
 62
     5
  6
CONTINUOUS
 66
     1
 40
0.003000
 41
0.003000
  0
VERTEX
  8
PLAN_1
 62
     5
  6
CONTINUOUS
 10
-0.569638
 20
-0.534339
  0
VERTEX
  8
PLAN_1
 62
     5
  6
CONTINUOUS
 10
-0.561402
 20
-0.534339
  0
SEQEND
  8
0
  0
POLYLINE
  8
PLAN_1
 62
     5
  6
CONTINUOUS
 66
     1
 40
0.003000
 41
0.003000
  0
VERTEX
  8
PLAN_1
 62
     5
  6
CONTINUOUS
 10
-0.553161
 20
-0.534339
  0
VERTEX
  8
PLAN_1
 62
     5
  6
CONTINUOUS
 10
-0.544409
 20
-0.534339
  0
SEQEND
  8
0
  0
POLYLINE
  8
PLAN_1
 62
     5
  6
CONTINUOUS
 66
     1
 40
0.003000
 41
0.003000
  0
VERTEX
  8
PLAN_1
 62
     5
  6
CONTINUOUS
 10
-0.536173
 20
-0.534339
  0
VERTEX
  8
PLAN_1
 62
     5
  6
CONTINUOUS
 10
-0.527933
 20
-0.534339
  0
SEQEND
  8
0
  0
POLYLINE
  8
PLAN_1
 62
     5
  6
CONTINUOUS
 66
     1
 40
0.003000
 41
0.003000
  0
VERTEX
  8
PLAN_1
 62
     5
  6
CONTINUOUS
 10
-0.519697
 20
-0.534339
  0
VERTEX
  8
PLAN_1
 62
     5
  6
CONTINUOUS
 10
-0.511461
 20
-0.534339
  0
SEQEND
  8
0
  0
POLYLINE
  8
PLAN_1
 62
     5
  6
CONTINUOUS
 66
     1
 40
0.003000
 41
0.003000
  0
VERTEX
  8
PLAN_1
 62
     5
  6
CONTINUOUS
 10
-0.502709
 20
-0.534339
  0
VERTEX
  8
PLAN_1
 62
     5
  6
CONTINUOUS
 10
-0.494469
 20
-0.534339
  0
SEQEND
  8
0
  0
POLYLINE
  8
PLAN_1
 62
     5
  6
CONTINUOUS
 66
     1
 40
0.003000
 41
0.003000
  0
VERTEX
  8
PLAN_1
 62
     5
  6
CONTINUOUS
 10
-0.486232
 20
-0.534339
  0
VERTEX
  8
PLAN_1
 62
     5
  6
CONTINUOUS
 10
-0.477992
 20
-0.534339
  0
SEQEND
  8
0
  0
POLYLINE
  8
PLAN_1
 62
     5
  6
CONTINUOUS
 66
     1
 40
0.003000
 41
0.003000
  0
VERTEX
  8
PLAN_1
 62
     5
  6
CONTINUOUS
 10
-0.469756
 20
-0.534339
  0
VERTEX
  8
PLAN_1
 62
     5
  6
CONTINUOUS
 10
-0.461520
 20
-0.534339
  0
SEQEND
  8
0
  0
POLYLINE
  8
PLAN_1
 62
     5
  6
CONTINUOUS
 66
     1
 40
0.003000
 41
0.003000
  0
VERTEX
  8
PLAN_1
 62
     5
  6
CONTINUOUS
 10
-0.452768
 20
-0.534339
  0
VERTEX
  8
PLAN_1
 62
     5
  6
CONTINUOUS
 10
-0.444528
 20
-0.534339
  0
SEQEND
  8
0
  0
POLYLINE
  8
PLAN_1
 62
     5
  6
CONTINUOUS
 66
     1
 40
0.003000
 41
0.003000
  0
VERTEX
  8
PLAN_1
 62
     5
  6
CONTINUOUS
 10
-0.436291
 20
-0.534339
  0
VERTEX
  8
PLAN_1
 62
     5
  6
CONTINUOUS
 10
-0.428055
 20
-0.534339
  0
SEQEND
  8
0
  0
POLYLINE
  8
PLAN_1
 62
     5
  6
CONTINUOUS
 66
     1
 40
0.003000
 41
0.003000
  0
VERTEX
  8
PLAN_1
 62
     5
  6
CONTINUOUS
 10
-0.419815
 20
-0.534339
  0
VERTEX
  8
PLAN_1
 62
     5
  6
CONTINUOUS
 10
-0.411579
 20
-0.534339
  0
SEQEND
  8
0
  0
POLYLINE
  8
PLAN_1
 62
     5
  6
CONTINUOUS
 66
     1
 40
0.003000
 41
0.003000
  0
VERTEX
  8
PLAN_1
 62
     5
  6
CONTINUOUS
 10
-0.402827
 20
-0.534339
  0
VERTEX
  8
PLAN_1
 62
     5
  6
CONTINUOUS
 10
-0.394587
 20
-0.534339
  0
SEQEND
  8
0
  0
POLYLINE
  8
PLAN_1
 62
     5
  6
CONTINUOUS
 66
     1
 40
0.003000
 41
0.003000
  0
VERTEX
  8
PLAN_1
 62
     5
  6
CONTINUOUS
 10
-0.386350
 20
-0.534339
  0
VERTEX
  8
PLAN_1
 62
     5
  6
CONTINUOUS
 10
-0.378114
 20
-0.534339
  0
SEQEND
  8
0
  0
POLYLINE
  8
PLAN_1
 62
     5
  6
CONTINUOUS
 66
     1
 40
0.003000
 41
0.003000
  0
VERTEX
  8
PLAN_1
 62
     5
  6
CONTINUOUS
 10
-0.369874
 20
-0.534339
  0
VERTEX
  8
PLAN_1
 62
     5
  6
CONTINUOUS
 10
-0.361638
 20
-0.534339
  0
SEQEND
  8
0
  0
POLYLINE
  8
PLAN_1
 62
     5
  6
CONTINUOUS
 66
     1
 40
0.003000
 41
0.003000
  0
VERTEX
  8
PLAN_1
 62
     5
  6
CONTINUOUS
 10
-0.352886
 20
-0.534339
  0
VERTEX
  8
PLAN_1
 62
     5
  6
CONTINUOUS
 10
-0.344650
 20
-0.534339
  0
SEQEND
  8
0
  0
POLYLINE
  8
PLAN_1
 62
     5
  6
CONTINUOUS
 66
     1
 40
0.003000
 41
0.003000
  0
VERTEX
  8
PLAN_1
 62
     5
  6
CONTINUOUS
 10
-0.336409
 20
-0.534339
  0
VERTEX
  8
PLAN_1
 62
     5
  6
CONTINUOUS
 10
-0.328173
 20
-0.534339
  0
SEQEND
  8
0
  0
POLYLINE
  8
PLAN_1
 62
     5
  6
CONTINUOUS
 66
     1
 40
0.003000
 41
0.003000
  0
VERTEX
  8
PLAN_1
 62
     5
  6
CONTINUOUS
 10
-0.319933
 20
-0.534339
  0
VERTEX
  8
PLAN_1
 62
     5
  6
CONTINUOUS
 10
-0.311181
 20
-0.534339
  0
SEQEND
  8
0
  0
POLYLINE
  8
PLAN_1
 62
     5
  6
CONTINUOUS
 66
     1
 40
0.003000
 41
0.003000
  0
VERTEX
  8
PLAN_1
 62
     5
  6
CONTINUOUS
 10
-0.302945
 20
-0.534339
  0
VERTEX
  8
PLAN_1
 62
     5
  6
CONTINUOUS
 10
-0.294709
 20
-0.534339
  0
SEQEND
  8
0
  0
POLYLINE
  8
PLAN_1
 62
     5
  6
CONTINUOUS
 66
     1
 40
0.003000
 41
0.003000
  0
VERTEX
  8
PLAN_1
 62
     5
  6
CONTINUOUS
 10
-0.286469
 20
-0.534339
  0
VERTEX
  8
PLAN_1
 62
     5
  6
CONTINUOUS
 10
-0.278232
 20
-0.534339
  0
SEQEND
  8
0
  0
POLYLINE
  8
PLAN_1
 62
     5
  6
CONTINUOUS
 66
     1
 40
0.003000
 41
0.003000
  0
VERTEX
  8
PLAN_1
 62
     5
  6
CONTINUOUS
 10
-0.269996
 20
-0.534339
  0
VERTEX
  8
PLAN_1
 62
     5
  6
CONTINUOUS
 10
-0.261240
 20
-0.534339
  0
SEQEND
  8
0
  0
POLYLINE
  8
PLAN_1
 62
     5
  6
CONTINUOUS
 66
     1
 40
0.003000
 41
0.003000
  0
VERTEX
  8
PLAN_1
 62
     5
  6
CONTINUOUS
 10
-0.253004
 20
-0.534339
  0
VERTEX
  8
PLAN_1
 62
     5
  6
CONTINUOUS
 10
-0.244768
 20
-0.534339
  0
SEQEND
  8
0
  0
POLYLINE
  8
PLAN_1
 62
     5
  6
CONTINUOUS
 66
     1
 40
0.003000
 41
0.003000
  0
VERTEX
  8
PLAN_1
 62
     5
  6
CONTINUOUS
 10
-0.236528
 20
-0.534339
  0
VERTEX
  8
PLAN_1
 62
     5
  6
CONTINUOUS
 10
-0.228291
 20
-0.534339
  0
SEQEND
  8
0
  0
POLYLINE
  8
PLAN_1
 62
     5
  6
CONTINUOUS
 66
     1
 40
0.003000
 41
0.003000
  0
VERTEX
  8
PLAN_1
 62
     5
  6
CONTINUOUS
 10
-0.220055
 20
-0.534339
  0
VERTEX
  8
PLAN_1
 62
     5
  6
CONTINUOUS
 10
-0.211303
 20
-0.534339
  0
SEQEND
  8
0
  0
POLYLINE
  8
PLAN_1
 62
     5
  6
CONTINUOUS
 66
     1
 40
0.003000
 41
0.003000
  0
VERTEX
  8
PLAN_1
 62
     5
  6
CONTINUOUS
 10
-0.203063
 20
-0.534339
  0
VERTEX
  8
PLAN_1
 62
     5
  6
CONTINUOUS
 10
-0.194827
 20
-0.534339
  0
SEQEND
  8
0
  0
POLYLINE
  8
PLAN_1
 62
     5
  6
CONTINUOUS
 66
     1
 40
0.003000
 41
0.003000
  0
VERTEX
  8
PLAN_1
 62
     5
  6
CONTINUOUS
 10
-0.186591
 20
-0.534339
  0
VERTEX
  8
PLAN_1
 62
     5
  6
CONTINUOUS
 10
-0.178350
 20
-0.534339
  0
SEQEND
  8
0
  0
POLYLINE
  8
PLAN_1
 62
     5
  6
CONTINUOUS
 66
     1
 40
0.003000
 41
0.003000
  0
VERTEX
  8
PLAN_1
 62
     5
  6
CONTINUOUS
 10
-0.170114
 20
-0.534339
  0
VERTEX
  8
PLAN_1
 62
     5
  6
CONTINUOUS
 10
-0.161362
 20
-0.534339
  0
SEQEND
  8
0
  0
POLYLINE
  8
PLAN_1
 62
     5
  6
CONTINUOUS
 66
     1
 40
0.003000
 41
0.003000
  0
VERTEX
  8
PLAN_1
 62
     5
  6
CONTINUOUS
 10
-0.153122
 20
-0.534339
  0
VERTEX
  8
PLAN_1
 62
     5
  6
CONTINUOUS
 10
-0.144886
 20
-0.534339
  0
SEQEND
  8
0
  0
POLYLINE
  8
PLAN_1
 62
     5
  6
CONTINUOUS
 66
     1
 40
0.003000
 41
0.003000
  0
VERTEX
  8
PLAN_1
 62
     5
  6
CONTINUOUS
 10
-0.136650
 20
-0.534339
  0
VERTEX
  8
PLAN_1
 62
     5
  6
CONTINUOUS
 10
-0.128409
 20
-0.534339
  0
SEQEND
  8
0
  0
POLYLINE
  8
PLAN_1
 62
     5
  6
CONTINUOUS
 66
     1
 40
0.003000
 41
0.003000
  0
VERTEX
  8
PLAN_1
 62
     5
  6
CONTINUOUS
 10
-0.119657
 20
-0.534339
  0
VERTEX
  8
PLAN_1
 62
     5
  6
CONTINUOUS
 10
-0.111421
 20
-0.534339
  0
SEQEND
  8
0
  0
POLYLINE
  8
PLAN_1
 62
     5
  6
CONTINUOUS
 66
     1
 40
0.003000
 41
0.003000
  0
VERTEX
  8
PLAN_1
 62
     5
  6
CONTINUOUS
 10
-0.103181
 20
-0.534339
  0
VERTEX
  8
PLAN_1
 62
     5
  6
CONTINUOUS
 10
-0.094945
 20
-0.534339
  0
SEQEND
  8
0
  0
POLYLINE
  8
PLAN_1
 62
     5
  6
CONTINUOUS
 66
     1
 40
0.003000
 41
0.003000
  0
VERTEX
  8
PLAN_1
 62
     5
  6
CONTINUOUS
 10
-0.086709
 20
-0.534339
  0
VERTEX
  8
PLAN_1
 62
     5
  6
CONTINUOUS
 10
-0.078469
 20
-0.534339
  0
SEQEND
  8
0
  0
POLYLINE
  8
PLAN_1
 62
     5
  6
CONTINUOUS
 66
     1
 40
0.003000
 41
0.003000
  0
VERTEX
  8
PLAN_1
 62
     5
  6
CONTINUOUS
 10
-0.069717
 20
-0.534339
  0
VERTEX
  8
PLAN_1
 62
     5
  6
CONTINUOUS
 10
-0.061480
 20
-0.534339
  0
SEQEND
  8
0
  0
POLYLINE
  8
PLAN_1
 62
     5
  6
CONTINUOUS
 66
     1
 40
0.003000
 41
0.003000
  0
VERTEX
  8
PLAN_1
 62
     5
  6
CONTINUOUS
 10
-0.053244
 20
-0.534339
  0
VERTEX
  8
PLAN_1
 62
     5
  6
CONTINUOUS
 10
-0.045004
 20
-0.534339
  0
SEQEND
  8
0
  0
POLYLINE
  8
PLAN_1
 62
     5
  6
CONTINUOUS
 66
     1
 40
0.003000
 41
0.003000
  0
VERTEX
  8
PLAN_1
 62
     5
  6
CONTINUOUS
 10
-0.036768
 20
-0.534339
  0
VERTEX
  8
PLAN_1
 62
     5
  6
CONTINUOUS
 10
-0.028531
 20
-0.534339
  0
SEQEND
  8
0
  0
POLYLINE
  8
PLAN_1
 62
     5
  6
CONTINUOUS
 66
     1
 40
0.003000
 41
0.003000
  0
VERTEX
  8
PLAN_1
 62
     5
  6
CONTINUOUS
 10
-0.019776
 20
-0.534339
  0
VERTEX
  8
PLAN_1
 62
     5
  6
CONTINUOUS
 10
-0.011539
 20
-0.534339
  0
SEQEND
  8
0
  0
POLYLINE
  8
PLAN_1
 62
     5
  6
CONTINUOUS
 66
     1
 40
0.003000
 41
0.003000
  0
VERTEX
  8
PLAN_1
 62
     5
  6
CONTINUOUS
 10
-0.003303
 20
-0.534339
  0
VERTEX
  8
PLAN_1
 62
     5
  6
CONTINUOUS
 10
0.004937
 20
-0.534339
  0
SEQEND
  8
0
  0
POLYLINE
  8
PLAN_1
 62
     5
  6
CONTINUOUS
 66
     1
 40
0.003000
 41
0.003000
  0
VERTEX
  8
PLAN_1
 62
     5
  6
CONTINUOUS
 10
0.013173
 20
-0.534339
  0
VERTEX
  8
PLAN_1
 62
     5
  6
CONTINUOUS
 10
0.021925
 20
-0.534339
  0
SEQEND
  8
0
  0
POLYLINE
  8
PLAN_1
 62
     5
  6
CONTINUOUS
 66
     1
 40
0.003000
 41
0.003000
  0
VERTEX
  8
PLAN_1
 62
     5
  6
CONTINUOUS
 10
0.030161
 20
-0.534339
  0
VERTEX
  8
PLAN_1
 62
     5
  6
CONTINUOUS
 10
0.038402
 20
-0.534339
  0
SEQEND
  8
0
  0
POLYLINE
  8
PLAN_1
 62
     5
  6
CONTINUOUS
 66
     1
 40
0.003000
 41
0.003000
  0
VERTEX
  8
PLAN_1
 62
     5
  6
CONTINUOUS
 10
0.046638
 20
-0.534339
  0
VERTEX
  8
PLAN_1
 62
     5
  6
CONTINUOUS
 10
0.054878
 20
-0.534339
  0
SEQEND
  8
0
  0
POLYLINE
  8
PLAN_1
 62
     5
  6
CONTINUOUS
 66
     1
 40
0.003000
 41
0.003000
  0
VERTEX
  8
PLAN_1
 62
     5
  6
CONTINUOUS
 10
0.063114
 20
-0.534339
  0
VERTEX
  8
PLAN_1
 62
     5
  6
CONTINUOUS
 10
0.071866
 20
-0.534339
  0
SEQEND
  8
0
  0
POLYLINE
  8
PLAN_1
 62
     5
  6
CONTINUOUS
 66
     1
 40
0.003000
 41
0.003000
  0
VERTEX
  8
PLAN_1
 62
     5
  6
CONTINUOUS
 10
0.080102
 20
-0.534339
  0
VERTEX
  8
PLAN_1
 62
     5
  6
CONTINUOUS
 10
0.080618
 20
-0.534339
  0
VERTEX
  8
PLAN_1
 62
     5
  6
CONTINUOUS
 10
0.080618
 20
-0.542059
  0
SEQEND
  8
0
  0
POLYLINE
  8
PLAN_1
 62
     5
  6
CONTINUOUS
 66
     1
 40
0.003000
 41
0.003000
  0
VERTEX
  8
PLAN_1
 62
     5
  6
CONTINUOUS
 10
0.080618
 20
-0.550295
  0
VERTEX
  8
PLAN_1
 62
     5
  6
CONTINUOUS
 10
0.080618
 20
-0.558535
  0
SEQEND
  8
0
  0
POLYLINE
  8
PLAN_1
 62
     5
  6
CONTINUOUS
 66
     1
 40
0.003000
 41
0.003000
  0
VERTEX
  8
PLAN_1
 62
     5
  6
CONTINUOUS
 10
0.080618
 20
-0.566772
  0
VERTEX
  8
PLAN_1
 62
     5
  6
CONTINUOUS
 10
0.080618
 20
-0.575008
  0
SEQEND
  8
0
  0
POLYLINE
  8
PLAN_1
 62
     5
  6
CONTINUOUS
 66
     1
 40
0.003000
 41
0.003000
  0
VERTEX
  8
PLAN_1
 62
     5
  6
CONTINUOUS
 10
0.080618
 20
-0.583764
  0
VERTEX
  8
PLAN_1
 62
     5
  6
CONTINUOUS
 10
0.080618
 20
-0.592000
  0
SEQEND
  8
0
  0
POLYLINE
  8
PLAN_1
 62
     5
  6
CONTINUOUS
 66
     1
 40
0.003000
 41
0.003000
  0
VERTEX
  8
PLAN_1
 62
     5
  6
CONTINUOUS
 10
0.080618
 20
-0.600236
  0
VERTEX
  8
PLAN_1
 62
     5
  6
CONTINUOUS
 10
0.080618
 20
-0.608476
  0
SEQEND
  8
0
  0
POLYLINE
  8
PLAN_1
 62
     5
  6
CONTINUOUS
 66
     1
 40
0.003000
 41
0.003000
  0
VERTEX
  8
PLAN_1
 62
     5
  6
CONTINUOUS
 10
0.080618
 20
-0.616713
  0
VERTEX
  8
PLAN_1
 62
     5
  6
CONTINUOUS
 10
0.080618
 20
-0.624949
  0
SEQEND
  8
0
  0
POLYLINE
  8
PLAN_1
 62
     5
  6
CONTINUOUS
 66
     1
 40
0.003000
 41
0.003000
  0
VERTEX
  8
PLAN_1
 62
     5
  6
CONTINUOUS
 10
0.080618
 20
-0.633705
  0
VERTEX
  8
PLAN_1
 62
     5
  6
CONTINUOUS
 10
0.080618
 20
-0.641941
  0
SEQEND
  8
0
  0
POLYLINE
  8
PLAN_1
 62
     5
  6
CONTINUOUS
 66
     1
 40
0.003000
 41
0.003000
  0
VERTEX
  8
PLAN_1
 62
     5
  6
CONTINUOUS
 10
0.080618
 20
-0.650177
  0
VERTEX
  8
PLAN_1
 62
     5
  6
CONTINUOUS
 10
0.080618
 20
-0.658417
  0
SEQEND
  8
0
  0
POLYLINE
  8
PLAN_1
 62
     5
  6
CONTINUOUS
 66
     1
 40
0.003000
 41
0.003000
  0
VERTEX
  8
PLAN_1
 62
     5
  6
CONTINUOUS
 10
0.080618
 20
-0.666654
  0
VERTEX
  8
PLAN_1
 62
     5
  6
CONTINUOUS
 10
0.080618
 20
-0.673346
  0
VERTEX
  8
PLAN_1
 62
     5
  6
CONTINUOUS
 10
0.082677
 20
-0.673346
  0
SEQEND
  8
0
  0
POLYLINE
  8
PLAN_1
 62
     5
  6
CONTINUOUS
 66
     1
 40
0.003000
 41
0.003000
  0
VERTEX
  8
PLAN_1
 62
     5
  6
CONTINUOUS
 10
0.090917
 20
-0.673346
  0
VERTEX
  8
PLAN_1
 62
     5
  6
CONTINUOUS
 10
0.099154
 20
-0.673346
  0
SEQEND
  8
0
  0
POLYLINE
  8
PLAN_1
 62
     5
  6
CONTINUOUS
 66
     1
 40
0.003000
 41
0.003000
  0
VERTEX
  8
PLAN_1
 62
     5
  6
CONTINUOUS
 10
0.107906
 20
-0.673346
  0
VERTEX
  8
PLAN_1
 62
     5
  6
CONTINUOUS
 10
0.116142
 20
-0.673346
  0
SEQEND
  8
0
  0
POLYLINE
  8
PLAN_1
 62
     5
  6
CONTINUOUS
 66
     1
 40
0.003000
 41
0.003000
  0
VERTEX
  8
PLAN_1
 62
     5
  6
CONTINUOUS
 10
0.119232
 20
-0.678496
  0
VERTEX
  8
PLAN_1
 62
     5
  6
CONTINUOUS
 10
0.119232
 20
-0.686732
  0
SEQEND
  8
0
  0
POLYLINE
  8
PLAN_1
 62
     5
  6
CONTINUOUS
 66
     1
 40
0.003000
 41
0.003000
  0
VERTEX
  8
PLAN_1
 62
     5
  6
CONTINUOUS
 10
0.119232
 20
-0.695484
  0
VERTEX
  8
PLAN_1
 62
     5
  6
CONTINUOUS
 10
0.119232
 20
-0.703720
  0
SEQEND
  8
0
  0
POLYLINE
  8
PLAN_1
 62
     5
  6
CONTINUOUS
 66
     1
 40
0.003000
 41
0.003000
  0
VERTEX
  8
PLAN_1
 62
     5
  6
CONTINUOUS
 10
0.119232
 20
-0.711961
  0
VERTEX
  8
PLAN_1
 62
     5
  6
CONTINUOUS
 10
0.119232
 20
-0.720197
  0
SEQEND
  8
0
  0
POLYLINE
  8
PLAN_1
 62
     5
  6
CONTINUOUS
 66
     1
 40
0.003000
 41
0.003000
  0
VERTEX
  8
PLAN_1
 62
     5
  6
CONTINUOUS
 10
0.119232
 20
-0.728437
  0
VERTEX
  8
PLAN_1
 62
     5
  6
CONTINUOUS
 10
0.119232
 20
-0.736673
  0
SEQEND
  8
0
  0
POLYLINE
  8
PLAN_1
 62
     5
  6
CONTINUOUS
 66
     1
 40
0.003000
 41
0.003000
  0
VERTEX
  8
PLAN_1
 62
     5
  6
CONTINUOUS
 10
0.119232
 20
-0.745425
  0
VERTEX
  8
PLAN_1
 62
     5
  6
CONTINUOUS
 10
0.119232
 20
-0.753661
  0
SEQEND
  8
0
  0
POLYLINE
  8
PLAN_1
 62
     5
  6
CONTINUOUS
 66
     1
 40
0.003000
 41
0.003000
  0
VERTEX
  8
PLAN_1
 62
     5
  6
CONTINUOUS
 10
0.119232
 20
-0.761902
  0
VERTEX
  8
PLAN_1
 62
     5
  6
CONTINUOUS
 10
0.119232
 20
-0.770138
  0
SEQEND
  8
0
  0
POLYLINE
  8
PLAN_1
 62
     5
  6
CONTINUOUS
 66
     1
 40
0.003000
 41
0.003000
  0
VERTEX
  8
PLAN_1
 62
     5
  6
CONTINUOUS
 10
0.119232
 20
-0.778374
  0
VERTEX
  8
PLAN_1
 62
     5
  6
CONTINUOUS
 10
0.119232
 20
-0.786614
  0
SEQEND
  8
0
  0
POLYLINE
  8
PLAN_1
 62
     5
  6
CONTINUOUS
 66
     1
 40
0.003000
 41
0.003000
  0
VERTEX
  8
PLAN_1
 62
     5
  6
CONTINUOUS
 10
0.119232
 20
-0.795366
  0
VERTEX
  8
PLAN_1
 62
     5
  6
CONTINUOUS
 10
0.119232
 20
-0.803602
  0
SEQEND
  8
0
  0
POLYLINE
  8
PLAN_1
 62
     5
  6
CONTINUOUS
 66
     1
 40
0.003000
 41
0.003000
  0
VERTEX
  8
PLAN_1
 62
     5
  6
CONTINUOUS
 10
0.119232
 20
-0.811843
  0
VERTEX
  8
PLAN_1
 62
     5
  6
CONTINUOUS
 10
0.119232
 20
-0.820079
  0
SEQEND
  8
0
  0
POLYLINE
  8
PLAN_1
 62
     5
  6
CONTINUOUS
 66
     1
 40
0.003000
 41
0.003000
  0
VERTEX
  8
PLAN_1
 62
     5
  6
CONTINUOUS
 10
0.119232
 20
-0.828315
  0
VERTEX
  8
PLAN_1
 62
     5
  6
CONTINUOUS
 10
0.119232
 20
-0.836555
  0
SEQEND
  8
0
  0
POLYLINE
  8
PLAN_1
 62
     5
  6
CONTINUOUS
 66
     1
 40
0.003000
 41
0.003000
  0
VERTEX
  8
PLAN_1
 62
     5
  6
CONTINUOUS
 10
0.119232
 20
-0.845307
  0
VERTEX
  8
PLAN_1
 62
     5
  6
CONTINUOUS
 10
0.119232
 20
-0.853543
  0
SEQEND
  8
0
  0
POLYLINE
  8
PLAN_1
 62
     5
  6
CONTINUOUS
 66
     1
 40
0.003000
 41
0.003000
  0
VERTEX
  8
PLAN_1
 62
     5
  6
CONTINUOUS
 10
0.119232
 20
-0.861780
  0
VERTEX
  8
PLAN_1
 62
     5
  6
CONTINUOUS
 10
0.119232
 20
-0.870020
  0
SEQEND
  8
0
  0
POLYLINE
  8
PLAN_1
 62
     5
  6
CONTINUOUS
 66
     1
 40
0.003000
 41
0.003000
  0
VERTEX
  8
PLAN_1
 62
     5
  6
CONTINUOUS
 10
0.119232
 20
-0.878256
  0
VERTEX
  8
PLAN_1
 62
     5
  6
CONTINUOUS
 10
0.119232
 20
-0.887008
  0
SEQEND
  8
0
  0
POLYLINE
  8
PLAN_1
 62
     5
  6
CONTINUOUS
 66
     1
 40
0.003000
 41
0.003000
  0
VERTEX
  8
PLAN_1
 62
     5
  6
CONTINUOUS
 10
0.119232
 20
-0.895248
  0
VERTEX
  8
PLAN_1
 62
     5
  6
CONTINUOUS
 10
0.119232
 20
-0.903484
  0
SEQEND
  8
0
  0
POLYLINE
  8
PLAN_1
 62
     5
  6
CONTINUOUS
 66
     1
 40
0.003000
 41
0.003000
  0
VERTEX
  8
PLAN_1
 62
     5
  6
CONTINUOUS
 10
0.119232
 20
-0.911720
  0
VERTEX
  8
PLAN_1
 62
     5
  6
CONTINUOUS
 10
0.119232
 20
-0.919961
  0
SEQEND
  8
0
  0
POLYLINE
  8
PLAN_1
 62
     5
  6
CONTINUOUS
 66
     1
 40
0.003000
 41
0.003000
  0
VERTEX
  8
PLAN_1
 62
     5
  6
CONTINUOUS
 10
0.119232
 20
-0.928197
  0
VERTEX
  8
PLAN_1
 62
     5
  6
CONTINUOUS
 10
0.119232
 20
-0.936949
  0
SEQEND
  8
0
  0
POLYLINE
  8
PLAN_1
 62
     5
  6
CONTINUOUS
 66
     1
 40
0.003000
 41
0.003000
  0
VERTEX
  8
PLAN_1
 62
     5
  6
CONTINUOUS
 10
0.119232
 20
-0.945189
  0
VERTEX
  8
PLAN_1
 62
     5
  6
CONTINUOUS
 10
0.119232
 20
-0.950850
  0
VERTEX
  8
PLAN_1
 62
     5
  6
CONTINUOUS
 10
0.116657
 20
-0.950850
  0
SEQEND
  8
0
  0
POLYLINE
  8
PLAN_1
 62
     5
  6
CONTINUOUS
 66
     1
 40
0.003000
 41
0.003000
  0
VERTEX
  8
PLAN_1
 62
     5
  6
CONTINUOUS
 10
0.108421
 20
-0.950850
  0
VERTEX
  8
PLAN_1
 62
     5
  6
CONTINUOUS
 10
0.100181
 20
-0.950850
  0
SEQEND
  8
0
  0
POLYLINE
  8
PLAN_1
 62
     5
  6
CONTINUOUS
 66
     1
 40
0.003000
 41
0.003000
  0
VERTEX
  8
PLAN_1
 62
     5
  6
CONTINUOUS
 10
0.091945
 20
-0.950850
  0
VERTEX
  8
PLAN_1
 62
     5
  6
CONTINUOUS
 10
0.083193
 20
-0.950850
  0
SEQEND
  8
0
  0
POLYLINE
  8
PLAN_1
 62
     5
  6
CONTINUOUS
 66
     1
 40
0.003000
 41
0.003000
  0
VERTEX
  8
PLAN_1
 62
     5
  6
CONTINUOUS
 10
0.080618
 20
-0.957028
  0
VERTEX
  8
PLAN_1
 62
     5
  6
CONTINUOUS
 10
0.080618
 20
-0.965268
  0
SEQEND
  8
0
  0
POLYLINE
  8
PLAN_1
 62
     5
  6
CONTINUOUS
 66
     1
 40
0.003000
 41
0.003000
  0
VERTEX
  8
PLAN_1
 62
     5
  6
CONTINUOUS
 10
0.080618
 20
-0.973504
  0
VERTEX
  8
PLAN_1
 62
     5
  6
CONTINUOUS
 10
0.080618
 20
-0.981740
  0
SEQEND
  8
0
  0
POLYLINE
  8
PLAN_1
 62
     5
  6
CONTINUOUS
 66
     1
 40
0.003000
 41
0.003000
  0
VERTEX
  8
PLAN_1
 62
     5
  6
CONTINUOUS
 10
0.080618
 20
-0.989980
  0
VERTEX
  8
PLAN_1
 62
     5
  6
CONTINUOUS
 10
0.080618
 20
-0.998217
  0
SEQEND
  8
0
  0
POLYLINE
  8
PLAN_1
 62
     5
  6
CONTINUOUS
 66
     1
 40
0.003000
 41
0.003000
  0
VERTEX
  8
PLAN_1
 62
     5
  6
CONTINUOUS
 10
0.080618
 20
-1.006969
  0
VERTEX
  8
PLAN_1
 62
     5
  6
CONTINUOUS
 10
0.080618
 20
-1.015209
  0
SEQEND
  8
0
  0
POLYLINE
  8
PLAN_1
 62
     5
  6
CONTINUOUS
 66
     1
 40
0.003000
 41
0.003000
  0
VERTEX
  8
PLAN_1
 62
     5
  6
CONTINUOUS
 10
0.080618
 20
-1.023445
  0
VERTEX
  8
PLAN_1
 62
     5
  6
CONTINUOUS
 10
0.080618
 20
-1.031681
  0
SEQEND
  8
0
  0
POLYLINE
  8
PLAN_1
 62
     5
  6
CONTINUOUS
 66
     1
 40
0.003000
 41
0.003000
  0
VERTEX
  8
PLAN_1
 62
     5
  6
CONTINUOUS
 10
0.080618
 20
-1.039921
  0
VERTEX
  8
PLAN_1
 62
     5
  6
CONTINUOUS
 10
0.080618
 20
-1.048673
  0
SEQEND
  8
0
  0
POLYLINE
  8
PLAN_1
 62
     5
  6
CONTINUOUS
 66
     1
 40
0.003000
 41
0.003000
  0
VERTEX
  8
PLAN_1
 62
     5
  6
CONTINUOUS
 10
0.080618
 20
-1.056909
  0
VERTEX
  8
PLAN_1
 62
     5
  6
CONTINUOUS
 10
0.080618
 20
-1.065146
  0
SEQEND
  8
0
  0
POLYLINE
  8
PLAN_1
 62
     5
  6
CONTINUOUS
 66
     1
 40
0.003000
 41
0.003000
  0
VERTEX
  8
PLAN_1
 62
     5
  6
CONTINUOUS
 10
0.080618
 20
-1.073386
  0
VERTEX
  8
PLAN_1
 62
     5
  6
CONTINUOUS
 10
0.080618
 20
-1.081622
  0
SEQEND
  8
0
  0
POLYLINE
  8
PLAN_1
 62
     5
  6
CONTINUOUS
 66
     1
 40
0.003000
 41
0.003000
  0
VERTEX
  8
PLAN_1
 62
     5
  6
CONTINUOUS
 10
0.080618
 20
-1.089858
  0
VERTEX
  8
PLAN_1
 62
     5
  6
CONTINUOUS
 10
0.080618
 20
-1.098614
  0
SEQEND
  8
0
  0
POLYLINE
  8
PLAN_1
 62
     5
  6
CONTINUOUS
 66
     1
 40
0.003000
 41
0.003000
  0
VERTEX
  8
PLAN_1
 62
     5
  6
CONTINUOUS
 10
0.080618
 20
-1.106850
  0
VERTEX
  8
PLAN_1
 62
     5
  6
CONTINUOUS
 10
0.080618
 20
-1.115087
  0
SEQEND
  8
0
  0
POLYLINE
  8
PLAN_1
 62
     5
  6
CONTINUOUS
 66
     1
 40
0.003000
 41
0.003000
  0
VERTEX
  8
PLAN_1
 62
     5
  6
CONTINUOUS
 10
0.080618
 20
-1.123327
  0
VERTEX
  8
PLAN_1
 62
     5
  6
CONTINUOUS
 10
0.080618
 20
-1.131563
  0
SEQEND
  8
0
  0
POLYLINE
  8
PLAN_1
 62
     5
  6
CONTINUOUS
 66
     1
 40
0.003000
 41
0.003000
  0
VERTEX
  8
PLAN_1
 62
     5
  6
CONTINUOUS
 10
0.080618
 20
-1.139799
  0
VERTEX
  8
PLAN_1
 62
     5
  6
CONTINUOUS
 10
0.080618
 20
-1.148555
  0
SEQEND
  8
0
  0
POLYLINE
  8
PLAN_1
 62
     5
  6
CONTINUOUS
 66
     1
 40
0.003000
 41
0.003000
  0
VERTEX
  8
PLAN_1
 62
     5
  6
CONTINUOUS
 10
0.080618
 20
-1.156791
  0
VERTEX
  8
PLAN_1
 62
     5
  6
CONTINUOUS
 10
0.080618
 20
-1.165028
  0
SEQEND
  8
0
  0
POLYLINE
  8
PLAN_1
 62
     5
  6
CONTINUOUS
 66
     1
 40
0.003000
 41
0.003000
  0
VERTEX
  8
PLAN_1
 62
     5
  6
CONTINUOUS
 10
0.080618
 20
-1.173268
  0
VERTEX
  8
PLAN_1
 62
     5
  6
CONTINUOUS
 10
0.080618
 20
-1.181504
  0
SEQEND
  8
0
  0
POLYLINE
  8
PLAN_1
 62
     5
  6
CONTINUOUS
 66
     1
 40
0.003000
 41
0.003000
  0
VERTEX
  8
PLAN_1
 62
     5
  6
CONTINUOUS
 10
0.080618
 20
-1.190256
  0
VERTEX
  8
PLAN_1
 62
     5
  6
CONTINUOUS
 10
0.080618
 20
-1.198492
  0
SEQEND
  8
0
  0
POLYLINE
  8
PLAN_1
 62
     5
  6
CONTINUOUS
 66
     1
 40
0.003000
 41
0.003000
  0
VERTEX
  8
PLAN_1
 62
     5
  6
CONTINUOUS
 10
0.080618
 20
-1.206732
  0
VERTEX
  8
PLAN_1
 62
     5
  6
CONTINUOUS
 10
0.080618
 20
-1.214969
  0
SEQEND
  8
0
  0
POLYLINE
  8
PLAN_1
  6
CONTINUOUS
 66
     1
 40
0.008236
 41
0.008236
  0
VERTEX
  8
PLAN_1
  6
CONTINUOUS
 10
-0.854866
 20
-0.532791
  0
VERTEX
  8
PLAN_1
  6
CONTINUOUS
 10
-0.854866
 20
-0.354138
  0
VERTEX
  8
PLAN_1
  6
CONTINUOUS
 10
-1.194665
 20
-0.354138
  0
SEQEND
  8
0
  0
POLYLINE
  8
PLAN_1
  6
CONTINUOUS
 66
     1
 40
0.008236
 41
0.008236
  0
VERTEX
  8
PLAN_1
  6
CONTINUOUS
 10
0.083193
 20
-0.354138
  0
VERTEX
  8
PLAN_1
  6
CONTINUOUS
 10
-0.238075
 20
-0.354138
  0
VERTEX
  8
PLAN_1
  6
CONTINUOUS
 10
-0.238075
 20
-0.532791
  0
SEQEND
  8
0
  0
POLYLINE
  8
PLAN_1
  6
CONTINUOUS
 66
     1
 40
0.008236
 41
0.008236
  0
VERTEX
  8
PLAN_1
  6
CONTINUOUS
 10
-0.957319
 20
-0.531248
  0
VERTEX
  8
PLAN_1
  6
CONTINUOUS
 10
-0.957319
 20
-0.354138
  0
SEQEND
  8
0
  0
POLYLINE
  8
PLAN_1
  6
CONTINUOUS
 66
     1
 40
0.008236
 41
0.008236
  0
VERTEX
  8
PLAN_1
  6
CONTINUOUS
 10
-0.151579
 20
-0.531248
  0
VERTEX
  8
PLAN_1
  6
CONTINUOUS
 10
-0.151579
 20
-0.354138
  0
SEQEND
  8
0
  0
POLYLINE
  8
PLAN_1
  6
CONTINUOUS
 66
     1
 40
0.008236
 41
0.008236
  0
VERTEX
  8
PLAN_1
  6
CONTINUOUS
 10
-1.189516
 20
0.245661
  0
VERTEX
  8
PLAN_1
  6
CONTINUOUS
 10
0.078043
 20
0.245661
  0
SEQEND
  8
0
  0
POLYLINE
  8
PLAN_1
  6
CONTINUOUS
 66
     1
 40
0.008236
 41
0.008236
  0
VERTEX
  8
PLAN_1
  6
CONTINUOUS
 10
-1.532921
 20
-0.302138
  0
VERTEX
  8
PLAN_1
  6
CONTINUOUS
 10
-1.532921
 20
0.365622
  0
VERTEX
  8
PLAN_1
  6
CONTINUOUS
 10
-1.638469
 20
0.365622
  0
VERTEX
  8
PLAN_1
  6
CONTINUOUS
 10
-1.638469
 20
-0.302138
  0
VERTEX
  8
PLAN_1
  6
CONTINUOUS
 10
-1.532921
 20
-0.302138
  0
SEQEND
  8
0
  0
POLYLINE
  8
PLAN_1
  6
CONTINUOUS
 66
     1
 40
0.008236
 41
0.008236
  0
VERTEX
  8
PLAN_1
  6
CONTINUOUS
 10
-1.706425
 20
0.457264
  0
VERTEX
  8
PLAN_1
  6
CONTINUOUS
 10
-1.637437
 20
0.457264
  0
VERTEX
  8
PLAN_1
  6
CONTINUOUS
 10
-1.638469
 20
-0.391209
  0
VERTEX
  8
PLAN_1
  6
CONTINUOUS
 10
-1.704882
 20
-0.393268
  0
SEQEND
  8
0
  0
POLYLINE
  8
PLAN_1
  6
CONTINUOUS
 66
     1
 40
0.008236
 41
0.008236
  0
VERTEX
  8
PLAN_1
  6
CONTINUOUS
 10
-1.532921
 20
-0.323764
  0
VERTEX
  8
PLAN_1
  6
CONTINUOUS
 10
-1.532921
 20
0.403720
  0
VERTEX
  8
PLAN_1
  6
CONTINUOUS
 10
-1.289913
 20
0.444394
  0
VERTEX
  8
PLAN_1
  6
CONTINUOUS
 10
-1.289913
 20
-0.354138
  0
VERTEX
  8
PLAN_1
  6
CONTINUOUS
 10
-1.532921
 20
-0.323764
  0
SEQEND
  8
0
  0
POLYLINE
  8
PLAN_1
  6
CONTINUOUS
 66
     1
 40
0.008236
 41
0.008236
  0
VERTEX
  8
PLAN_1
  6
CONTINUOUS
 10
-1.850071
 20
-0.183209
  0
VERTEX
  8
PLAN_1
  6
CONTINUOUS
 10
-1.850071
 20
0.249264
  0
VERTEX
  8
PLAN_1
  6
CONTINUOUS
 10
-1.952524
 20
0.249264
  0
VERTEX
  8
PLAN_1
  6
CONTINUOUS
 10
-1.952524
 20
-0.183209
  0
VERTEX
  8
PLAN_1
  6
CONTINUOUS
 10
-1.850071
 20
-0.183209
  0
SEQEND
  8
0
  0
POLYLINE
  8
PLAN_1
  6
CONTINUOUS
 66
     1
 40
0.004118
 41
0.004118
  0
VERTEX
  8
PLAN_1
  6
CONTINUOUS
 10
-1.940169
 20
0.248752
  0
VERTEX
  8
PLAN_1
  6
CONTINUOUS
 10
-1.941201
 20
0.246177
  0
VERTEX
  8
PLAN_1
  6
CONTINUOUS
 10
-1.944287
 20
0.238969
  0
VERTEX
  8
PLAN_1
  6
CONTINUOUS
 10
-1.945831
 20
0.234335
  0
VERTEX
  8
PLAN_1
  6
CONTINUOUS
 10
-1.947894
 20
0.228157
  0
VERTEX
  8
PLAN_1
  6
CONTINUOUS
 10
-1.949437
 20
0.221465
  0
VERTEX
  8
PLAN_1
  6
CONTINUOUS
 10
-1.950980
 20
0.213740
  0
VERTEX
  8
PLAN_1
  6
CONTINUOUS
 10
-1.952012
 20
0.206020
  0
VERTEX
  8
PLAN_1
  6
CONTINUOUS
 10
-1.952524
 20
0.197268
  0
VERTEX
  8
PLAN_1
  6
CONTINUOUS
 10
-1.952524
 20
0.188000
  0
VERTEX
  8
PLAN_1
  6
CONTINUOUS
 10
-1.951496
 20
0.178732
  0
VERTEX
  8
PLAN_1
  6
CONTINUOUS
 10
-1.949953
 20
0.168949
  0
VERTEX
  8
PLAN_1
  6
CONTINUOUS
 10
-1.946862
 20
0.158654
  0
VERTEX
  8
PLAN_1
  6
CONTINUOUS
 10
-1.945319
 20
0.153504
  0
VERTEX
  8
PLAN_1
  6
CONTINUOUS
 10
-1.943260
 20
0.148354
  0
VERTEX
  8
PLAN_1
  6
CONTINUOUS
 10
-1.940685
 20
0.143720
  0
VERTEX
  8
PLAN_1
  6
CONTINUOUS
 10
-1.938110
 20
0.138571
  0
VERTEX
  8
PLAN_1
  6
CONTINUOUS
 10
-1.939138
 20
0.134453
  0
VERTEX
  8
PLAN_1
  6
CONTINUOUS
 10
-1.942228
 20
0.123126
  0
VERTEX
  8
PLAN_1
  6
CONTINUOUS
 10
-1.944287
 20
0.114890
  0
VERTEX
  8
PLAN_1
  6
CONTINUOUS
 10
-1.946346
 20
0.104594
  0
VERTEX
  8
PLAN_1
  6
CONTINUOUS
 10
-1.948406
 20
0.093268
  0
VERTEX
  8
PLAN_1
  6
CONTINUOUS
 10
-1.949953
 20
0.079878
  0
VERTEX
  8
PLAN_1
  6
CONTINUOUS
 10
-1.951496
 20
0.065465
  0
VERTEX
  8
PLAN_1
  6
CONTINUOUS
 10
-1.952012
 20
0.049504
  0
VERTEX
  8
PLAN_1
  6
CONTINUOUS
 10
-1.952524
 20
0.032000
  0
VERTEX
  8
PLAN_1
  6
CONTINUOUS
 10
-1.952012
 20
0.013465
  0
VERTEX
  8
PLAN_1
  6
CONTINUOUS
 10
-1.950980
 20
-0.006614
  0
VERTEX
  8
PLAN_1
  6
CONTINUOUS
 10
-1.948406
 20
-0.027724
  0
VERTEX
  8
PLAN_1
  6
CONTINUOUS
 10
-1.946862
 20
-0.038535
  0
VERTEX
  8
PLAN_1
  6
CONTINUOUS
 10
-1.945319
 20
-0.049862
  0
VERTEX
  8
PLAN_1
  6
CONTINUOUS
 10
-1.943260
 20
-0.061189
  0
VERTEX
  8
PLAN_1
  6
CONTINUOUS
 10
-1.940685
 20
-0.073031
  0
VERTEX
  8
PLAN_1
  6
CONTINUOUS
 10
-1.941713
 20
-0.075606
  0
VERTEX
  8
PLAN_1
  6
CONTINUOUS
 10
-1.944803
 20
-0.082299
  0
VERTEX
  8
PLAN_1
  6
CONTINUOUS
 10
-1.946346
 20
-0.087445
  0
VERTEX
  8
PLAN_1
  6
CONTINUOUS
 10
-1.947894
 20
-0.093110
  0
VERTEX
  8
PLAN_1
  6
CONTINUOUS
 10
-1.949953
 20
-0.099803
  0
VERTEX
  8
PLAN_1
  6
CONTINUOUS
 10
-1.950980
 20
-0.107012
  0
VERTEX
  8
PLAN_1
  6
CONTINUOUS
 10
-1.952524
 20
-0.115248
  0
VERTEX
  8
PLAN_1
  6
CONTINUOUS
 10
-1.953039
 20
-0.123484
  0
VERTEX
  8
PLAN_1
  6
CONTINUOUS
 10
-1.952524
 20
-0.132752
  0
VERTEX
  8
PLAN_1
  6
CONTINUOUS
 10
-1.952012
 20
-0.142020
  0
VERTEX
  8
PLAN_1
  6
CONTINUOUS
 10
-1.949953
 20
-0.151803
  0
VERTEX
  8
PLAN_1
  6
CONTINUOUS
 10
-1.947378
 20
-0.161587
  0
VERTEX
  8
PLAN_1
  6
CONTINUOUS
 10
-1.945831
 20
-0.166732
  0
VERTEX
  8
PLAN_1
  6
CONTINUOUS
 10
-1.943260
 20
-0.171882
  0
VERTEX
  8
PLAN_1
  6
CONTINUOUS
 10
-1.941201
 20
-0.177031
  0
VERTEX
  8
PLAN_1
  6
CONTINUOUS
 10
-1.938110
 20
-0.182177
  0
SEQEND
  8
0
  0
POLYLINE
  8
PLAN_1
  6
CONTINUOUS
 66
     1
 40
0.006693
 41
0.006693
  0
VERTEX
  8
PLAN_1
  6
CONTINUOUS
 10
-2.058071
 20
-0.091051
  0
VERTEX
  8
PLAN_1
  6
CONTINUOUS
 10
-2.066823
 20
-0.082299
  0
VERTEX
  8
PLAN_1
  6
CONTINUOUS
 10
-2.066823
 20
0.144752
  0
VERTEX
  8
PLAN_1
  6
CONTINUOUS
 10
-2.058071
 20
0.154531
  0
VERTEX
  8
PLAN_1
  6
CONTINUOUS
 10
-1.952524
 20
0.154531
  0
VERTEX
  8
PLAN_1
  6
CONTINUOUS
 10
-1.952524
 20
-0.091051
  0
VERTEX
  8
PLAN_1
  6
CONTINUOUS
 10
-2.058071
 20
-0.091051
  0
SEQEND
  8
0
  0
POLYLINE
  8
PLAN_1
  6
CONTINUOUS
 66
     1
 40
0.008236
 41
0.008236
  0
VERTEX
  8
PLAN_1
  6
CONTINUOUS
 10
-1.849555
 20
-0.315524
  0
VERTEX
  8
PLAN_1
  6
CONTINUOUS
 10
-1.849555
 20
0.379008
  0
VERTEX
  8
PLAN_1
  6
CONTINUOUS
 10
-1.774386
 20
0.379008
  0
VERTEX
  8
PLAN_1
  6
CONTINUOUS
 10
-1.774386
 20
-0.315524
  0
VERTEX
  8
PLAN_1
  6
CONTINUOUS
 10
-1.849555
 20
-0.315524
  0
SEQEND
  8
0
  0
POLYLINE
  8
PLAN_1
  6
CONTINUOUS
 66
     1
 40
0.008236
 41
0.008236
  0
VERTEX
  8
PLAN_1
  6
CONTINUOUS
 10
-1.714665
 20
0.487126
  0
VERTEX
  8
PLAN_1
  6
CONTINUOUS
 10
-1.717752
 20
0.493303
  0
VERTEX
  8
PLAN_1
  6
CONTINUOUS
 10
-1.721358
 20
0.498969
  0
VERTEX
  8
PLAN_1
  6
CONTINUOUS
 10
-1.725476
 20
0.504630
  0
VERTEX
  8
PLAN_1
  6
CONTINUOUS
 10
-1.729594
 20
0.509780
  0
VERTEX
  8
PLAN_1
  6
CONTINUOUS
 10
-1.734228
 20
0.514929
  0
VERTEX
  8
PLAN_1
  6
CONTINUOUS
 10
-1.739378
 20
0.520079
  0
VERTEX
  8
PLAN_1
  6
CONTINUOUS
 10
-1.745039
 20
0.524709
  0
VERTEX
  8
PLAN_1
  6
CONTINUOUS
 10
-1.750705
 20
0.528831
  0
VERTEX
  8
PLAN_1
  6
CONTINUOUS
 10
-1.756882
 20
0.532949
  0
VERTEX
  8
PLAN_1
  6
CONTINUOUS
 10
-1.763575
 20
0.536551
  0
VERTEX
  8
PLAN_1
  6
CONTINUOUS
 10
-1.770268
 20
0.539642
  0
VERTEX
  8
PLAN_1
  6
CONTINUOUS
 10
-1.777476
 20
0.542732
  0
VERTEX
  8
PLAN_1
  6
CONTINUOUS
 10
-1.785201
 20
0.544791
  0
VERTEX
  8
PLAN_1
  6
CONTINUOUS
 10
-1.793437
 20
0.546335
  0
VERTEX
  8
PLAN_1
  6
CONTINUOUS
 10
-1.801673
 20
0.547362
  0
VERTEX
  8
PLAN_1
  6
CONTINUOUS
 10
-1.810425
 20
0.547878
  0
SEQEND
  8
0
  0
POLYLINE
  8
PLAN_1
  6
CONTINUOUS
 66
     1
 40
0.008236
 41
0.008236
  0
VERTEX
  8
PLAN_1
  6
CONTINUOUS
 10
-1.810425
 20
0.547878
  0
VERTEX
  8
PLAN_1
  6
CONTINUOUS
 10
-2.143535
 20
0.547878
  0
VERTEX
  8
PLAN_1
  6
CONTINUOUS
 10
-2.143535
 20
0.485583
  0
VERTEX
  8
PLAN_1
  6
CONTINUOUS
 10
-1.938110
 20
0.485583
  0
VERTEX
  8
PLAN_1
  6
CONTINUOUS
 10
-1.833594
 20
0.485583
  0
SEQEND
  8
0
  0
POLYLINE
  8
PLAN_1
  6
CONTINUOUS
 66
     1
 40
0.008236
 41
0.008236
  0
VERTEX
  8
PLAN_1
  6
CONTINUOUS
 10
-1.833594
 20
0.485583
  0
VERTEX
  8
PLAN_1
  6
CONTINUOUS
 10
-1.827417
 20
0.485067
  0
VERTEX
  8
PLAN_1
  6
CONTINUOUS
 10
-1.822268
 20
0.484551
  0
VERTEX
  8
PLAN_1
  6
CONTINUOUS
 10
-1.816606
 20
0.484039
  0
VERTEX
  8
PLAN_1
  6
CONTINUOUS
 10
-1.811972
 20
0.482492
  0
VERTEX
  8
PLAN_1
  6
CONTINUOUS
 10
-1.807854
 20
0.480949
  0
VERTEX
  8
PLAN_1
  6
CONTINUOUS
 10
-1.803732
 20
0.479406
  0
VERTEX
  8
PLAN_1
  6
CONTINUOUS
 10
-1.799614
 20
0.477343
  0
VERTEX
  8
PLAN_1
  6
CONTINUOUS
 10
-1.796528
 20
0.475283
  0
VERTEX
  8
PLAN_1
  6
CONTINUOUS
 10
-1.793437
 20
0.472713
  0
VERTEX
  8
PLAN_1
  6
CONTINUOUS
 10
-1.790346
 20
0.470138
  0
VERTEX
  8
PLAN_1
  6
CONTINUOUS
 10
-1.787772
 20
0.467563
  0
VERTEX
  8
PLAN_1
  6
CONTINUOUS
 10
-1.785713
 20
0.464472
  0
VERTEX
  8
PLAN_1
  6
CONTINUOUS
 10
-1.782110
 20
0.458811
  0
VERTEX
  8
PLAN_1
  6
CONTINUOUS
 10
-1.779020
 20
0.452630
  0
VERTEX
  8
PLAN_1
  6
CONTINUOUS
 10
-1.776961
 20
0.446453
  0
VERTEX
  8
PLAN_1
  6
CONTINUOUS
 10
-1.775417
 20
0.440791
  0
VERTEX
  8
PLAN_1
  6
CONTINUOUS
 10
-1.774386
 20
0.435126
  0
VERTEX
  8
PLAN_1
  6
CONTINUOUS
 10
-1.773874
 20
0.429976
  0
VERTEX
  8
PLAN_1
  6
CONTINUOUS
 10
-1.773874
 20
0.422772
  0
VERTEX
  8
PLAN_1
  6
CONTINUOUS
 10
-1.773874
 20
0.419681
  0
SEQEND
  8
0
  0
POLYLINE
  8
PLAN_1
  6
CONTINUOUS
 66
     1
 40
0.008236
 41
0.008236
  0
VERTEX
  8
PLAN_1
  6
CONTINUOUS
 10
-1.773874
 20
0.419681
  0
VERTEX
  8
PLAN_1
  6
CONTINUOUS
 10
-1.773874
 20
-0.597661
  0
VERTEX
  8
PLAN_1
  6
CONTINUOUS
 10
-1.705913
 20
-0.597661
  0
VERTEX
  8
PLAN_1
  6
CONTINUOUS
 10
-1.705913
 20
0.419681
  0
SEQEND
  8
0
  0
POLYLINE
  8
PLAN_1
  6
CONTINUOUS
 66
     1
 40
0.008236
 41
0.008236
  0
VERTEX
  8
PLAN_1
  6
CONTINUOUS
 10
-1.705913
 20
0.419681
  0
VERTEX
  8
PLAN_1
  6
CONTINUOUS
 10
-1.705913
 20
0.422256
  0
VERTEX
  8
PLAN_1
  6
CONTINUOUS
 10
-1.706425
 20
0.428433
  0
VERTEX
  8
PLAN_1
  6
CONTINUOUS
 10
-1.707457
 20
0.437185
  0
VERTEX
  8
PLAN_1
  6
CONTINUOUS
 10
-1.708488
 20
0.447996
  0
VERTEX
  8
PLAN_1
  6
CONTINUOUS
 10
-1.709516
 20
0.459323
  0
VERTEX
  8
PLAN_1
  6
CONTINUOUS
 10
-1.711059
 20
0.470138
  0
VERTEX
  8
PLAN_1
  6
CONTINUOUS
 10
-1.712606
 20
0.479917
  0
VERTEX
  8
PLAN_1
  6
CONTINUOUS
 10
-1.714665
 20
0.487126
  0
SEQEND
  8
0
  0
POLYLINE
  8
PLAN_1
  6
CONTINUOUS
 66
     1
 40
0.008236
 41
0.008236
  0
VERTEX
  8
PLAN_1
  6
CONTINUOUS
 10
-1.984445
 20
0.424315
  0
VERTEX
  8
PLAN_1
  6
CONTINUOUS
 10
-2.098228
 20
0.424315
  0
VERTEX
  8
PLAN_1
  6
CONTINUOUS
 10
-2.098228
 20
0.484551
  0
VERTEX
  8
PLAN_1
  6
CONTINUOUS
 10
-1.823299
 20
0.484551
  0
VERTEX
  8
PLAN_1
  6
CONTINUOUS
 10
-1.823299
 20
0.424315
  0
VERTEX
  8
PLAN_1
  6
CONTINUOUS
 10
-1.936567
 20
0.424315
  0
SEQEND
  8
0
  0
POLYLINE
  8
PLAN_1
  6
CONTINUOUS
 66
     1
 40
0.008236
 41
0.008236
  0
VERTEX
  8
PLAN_1
  6
CONTINUOUS
 10
-1.936567
 20
0.424315
  0
VERTEX
  8
PLAN_1
  6
CONTINUOUS
 10
-1.936567
 20
0.425343
  0
VERTEX
  8
PLAN_1
  6
CONTINUOUS
 10
-1.936567
 20
0.427917
  0
VERTEX
  8
PLAN_1
  6
CONTINUOUS
 10
-1.936567
 20
0.431524
  0
VERTEX
  8
PLAN_1
  6
CONTINUOUS
 10
-1.936567
 20
0.435642
  0
VERTEX
  8
PLAN_1
  6
CONTINUOUS
 10
-1.936567
 20
0.440276
  0
VERTEX
  8
PLAN_1
  6
CONTINUOUS
 10
-1.936567
 20
0.443878
  0
VERTEX
  8
PLAN_1
  6
CONTINUOUS
 10
-1.936567
 20
0.446969
  0
VERTEX
  8
PLAN_1
  6
CONTINUOUS
 10
-1.936567
 20
0.447996
  0
VERTEX
  8
PLAN_1
  6
CONTINUOUS
 10
-1.938626
 20
0.447996
  0
VERTEX
  8
PLAN_1
  6
CONTINUOUS
 10
-1.944287
 20
0.448512
  0
VERTEX
  8
PLAN_1
  6
CONTINUOUS
 10
-1.951496
 20
0.448512
  0
VERTEX
  8
PLAN_1
  6
CONTINUOUS
 10
-1.960248
 20
0.448512
  0
VERTEX
  8
PLAN_1
  6
CONTINUOUS
 10
-1.969000
 20
0.447996
  0
VERTEX
  8
PLAN_1
  6
CONTINUOUS
 10
-1.976724
 20
0.447996
  0
VERTEX
  8
PLAN_1
  6
CONTINUOUS
 10
-1.982386
 20
0.447996
  0
VERTEX
  8
PLAN_1
  6
CONTINUOUS
 10
-1.984445
 20
0.447996
  0
SEQEND
  8
0
  0
POLYLINE
  8
PLAN_1
  6
CONTINUOUS
 66
     1
 40
0.008236
 41
0.008236
  0
VERTEX
  8
PLAN_1
  6
CONTINUOUS
 10
-1.984445
 20
0.447996
  0
VERTEX
  8
PLAN_1
  6
CONTINUOUS
 10
-1.984445
 20
0.424315
  0
SEQEND
  8
0
  0
POLYLINE
  8
PLAN_1
  6
CONTINUOUS
 66
     1
 40
0.006693
 41
0.006693
  0
VERTEX
  8
PLAN_1
  6
CONTINUOUS
 10
-1.831020
 20
1.142016
  0
VERTEX
  8
PLAN_1
  6
CONTINUOUS
 10
-1.825874
 20
1.146134
  0
VERTEX
  8
PLAN_1
  6
CONTINUOUS
 10
-1.822268
 20
1.150768
  0
VERTEX
  8
PLAN_1
  6
CONTINUOUS
 10
-1.820209
 20
1.154886
  0
VERTEX
  8
PLAN_1
  6
CONTINUOUS
 10
-1.818665
 20
1.159008
  0
VERTEX
  8
PLAN_1
  6
CONTINUOUS
 10
-1.818150
 20
1.163126
  0
VERTEX
  8
PLAN_1
  6
CONTINUOUS
 10
-1.818150
 20
1.166728
  0
VERTEX
  8
PLAN_1
  6
CONTINUOUS
 10
-1.818665
 20
1.170335
  0
VERTEX
  8
PLAN_1
  6
CONTINUOUS
 10
-1.819693
 20
1.173937
  0
VERTEX
  8
PLAN_1
  6
CONTINUOUS
 10
-1.823299
 20
1.179598
  0
VERTEX
  8
PLAN_1
  6
CONTINUOUS
 10
-1.826902
 20
1.184232
  0
VERTEX
  8
PLAN_1
  6
CONTINUOUS
 10
-1.829476
 20
1.186807
  0
VERTEX
  8
PLAN_1
  6
CONTINUOUS
 10
-1.831020
 20
1.187839
  0
SEQEND
  8
0
  0
POLYLINE
  8
PLAN_1
  6
CONTINUOUS
 66
     1
 40
0.006693
 41
0.006693
  0
VERTEX
  8
PLAN_1
  6
CONTINUOUS
 10
-1.831020
 20
1.187839
  0
VERTEX
  8
PLAN_1
  6
CONTINUOUS
 10
-2.113673
 20
1.187839
  0
SEQEND
  8
0
  0
POLYLINE
  8
PLAN_1
  6
CONTINUOUS
 66
     1
 40
0.006693
 41
0.006693
  0
VERTEX
  8
PLAN_1
  6
CONTINUOUS
 10
-2.113673
 20
1.187839
  0
VERTEX
  8
PLAN_1
  6
CONTINUOUS
 10
-2.114705
 20
1.186807
  0
VERTEX
  8
PLAN_1
  6
CONTINUOUS
 10
-2.117280
 20
1.184232
  0
VERTEX
  8
PLAN_1
  6
CONTINUOUS
 10
-2.120366
 20
1.180114
  0
VERTEX
  8
PLAN_1
  6
CONTINUOUS
 10
-2.122941
 20
1.174453
  0
VERTEX
  8
PLAN_1
  6
CONTINUOUS
 10
-2.123972
 20
1.171362
  0
VERTEX
  8
PLAN_1
  6
CONTINUOUS
 10
-2.124484
 20
1.167760
  0
VERTEX
  8
PLAN_1
  6
CONTINUOUS
 10
-2.125000
 20
1.163642
  0
VERTEX
  8
PLAN_1
  6
CONTINUOUS
 10
-2.124484
 20
1.160035
  0
VERTEX
  8
PLAN_1
  6
CONTINUOUS
 10
-2.122941
 20
1.155402
  0
VERTEX
  8
PLAN_1
  6
CONTINUOUS
 10
-2.120882
 20
1.151283
  0
VERTEX
  8
PLAN_1
  6
CONTINUOUS
 10
-2.117791
 20
1.146650
  0
VERTEX
  8
PLAN_1
  6
CONTINUOUS
 10
-2.113673
 20
1.142016
  0
SEQEND
  8
0
  0
POLYLINE
  8
PLAN_1
  6
CONTINUOUS
 66
     1
 40
0.006693
 41
0.006693
  0
VERTEX
  8
PLAN_1
  6
CONTINUOUS
 10
-2.113673
 20
1.142016
  0
VERTEX
  8
PLAN_1
  6
CONTINUOUS
 10
-1.831020
 20
1.142016
  0
SEQEND
  8
0
  0
POLYLINE
  8
PLAN_1
  6
CONTINUOUS
 66
     1
 40
0.006693
 41
0.006693
  0
VERTEX
  8
PLAN_1
  6
CONTINUOUS
 10
-1.830508
 20
1.096193
  0
VERTEX
  8
PLAN_1
  6
CONTINUOUS
 10
-1.825358
 20
1.100827
  0
VERTEX
  8
PLAN_1
  6
CONTINUOUS
 10
-1.822268
 20
1.104949
  0
VERTEX
  8
PLAN_1
  6
CONTINUOUS
 10
-1.819693
 20
1.109579
  0
VERTEX
  8
PLAN_1
  6
CONTINUOUS
 10
-1.818150
 20
1.113701
  0
VERTEX
  8
PLAN_1
  6
CONTINUOUS
 10
-1.817634
 20
1.117303
  0
VERTEX
  8
PLAN_1
  6
CONTINUOUS
 10
-1.817634
 20
1.121421
  0
VERTEX
  8
PLAN_1
  6
CONTINUOUS
 10
-1.818150
 20
1.125028
  0
VERTEX
  8
PLAN_1
  6
CONTINUOUS
 10
-1.819693
 20
1.128114
  0
VERTEX
  8
PLAN_1
  6
CONTINUOUS
 10
-1.822783
 20
1.134295
  0
VERTEX
  8
PLAN_1
  6
CONTINUOUS
 10
-1.826386
 20
1.138413
  0
VERTEX
  8
PLAN_1
  6
CONTINUOUS
 10
-1.828961
 20
1.141500
  0
VERTEX
  8
PLAN_1
  6
CONTINUOUS
 10
-1.830508
 20
1.142531
  0
SEQEND
  8
0
  0
POLYLINE
  8
PLAN_1
  6
CONTINUOUS
 66
     1
 40
0.006693
 41
0.006693
  0
VERTEX
  8
PLAN_1
  6
CONTINUOUS
 10
-1.830508
 20
1.142531
  0
VERTEX
  8
PLAN_1
  6
CONTINUOUS
 10
-2.113157
 20
1.142531
  0
SEQEND
  8
0
  0
POLYLINE
  8
PLAN_1
  6
CONTINUOUS
 66
     1
 40
0.006693
 41
0.006693
  0
VERTEX
  8
PLAN_1
  6
CONTINUOUS
 10
-2.113157
 20
1.142531
  0
VERTEX
  8
PLAN_1
  6
CONTINUOUS
 10
-2.114189
 20
1.141500
  0
VERTEX
  8
PLAN_1
  6
CONTINUOUS
 10
-2.116764
 20
1.138925
  0
VERTEX
  8
PLAN_1
  6
CONTINUOUS
 10
-2.119850
 20
1.134295
  0
VERTEX
  8
PLAN_1
  6
CONTINUOUS
 10
-2.122425
 20
1.129146
  0
VERTEX
  8
PLAN_1
  6
CONTINUOUS
 10
-2.123457
 20
1.125539
  0
VERTEX
  8
PLAN_1
  6
CONTINUOUS
 10
-2.124484
 20
1.121937
  0
VERTEX
  8
PLAN_1
  6
CONTINUOUS
 10
-2.124484
 20
1.118335
  0
VERTEX
  8
PLAN_1
  6
CONTINUOUS
 10
-2.123972
 20
1.114213
  0
VERTEX
  8
PLAN_1
  6
CONTINUOUS
 10
-2.122425
 20
1.110094
  0
VERTEX
  8
PLAN_1
  6
CONTINUOUS
 10
-2.120366
 20
1.105461
  0
VERTEX
  8
PLAN_1
  6
CONTINUOUS
 10
-2.117280
 20
1.100827
  0
VERTEX
  8
PLAN_1
  6
CONTINUOUS
 10
-2.113157
 20
1.096193
  0
SEQEND
  8
0
  0
POLYLINE
  8
PLAN_1
  6
CONTINUOUS
 66
     1
 40
0.006693
 41
0.006693
  0
VERTEX
  8
PLAN_1
  6
CONTINUOUS
 10
-2.113157
 20
1.096193
  0
VERTEX
  8
PLAN_1
  6
CONTINUOUS
 10
-1.830508
 20
1.096193
  0
SEQEND
  8
0
  0
POLYLINE
  8
PLAN_1
  6
CONTINUOUS
 66
     1
 40
0.006693
 41
0.006693
  0
VERTEX
  8
PLAN_1
  6
CONTINUOUS
 10
-1.830508
 20
1.050374
  0
VERTEX
  8
PLAN_1
  6
CONTINUOUS
 10
-1.825874
 20
1.054492
  0
VERTEX
  8
PLAN_1
  6
CONTINUOUS
 10
-1.822268
 20
1.059126
  0
VERTEX
  8
PLAN_1
  6
CONTINUOUS
 10
-1.819693
 20
1.063244
  0
VERTEX
  8
PLAN_1
  6
CONTINUOUS
 10
-1.818150
 20
1.067362
  0
VERTEX
  8
PLAN_1
  6
CONTINUOUS
 10
-1.817634
 20
1.071480
  0
VERTEX
  8
PLAN_1
  6
CONTINUOUS
 10
-1.817634
 20
1.075087
  0
VERTEX
  8
PLAN_1
  6
CONTINUOUS
 10
-1.818665
 20
1.078689
  0
VERTEX
  8
PLAN_1
  6
CONTINUOUS
 10
-1.819693
 20
1.082295
  0
VERTEX
  8
PLAN_1
  6
CONTINUOUS
 10
-1.822783
 20
1.087957
  0
VERTEX
  8
PLAN_1
  6
CONTINUOUS
 10
-1.826386
 20
1.092075
  0
VERTEX
  8
PLAN_1
  6
CONTINUOUS
 10
-1.829476
 20
1.095165
  0
VERTEX
  8
PLAN_1
  6
CONTINUOUS
 10
-1.830508
 20
1.096193
  0
SEQEND
  8
0
  0
POLYLINE
  8
PLAN_1
  6
CONTINUOUS
 66
     1
 40
0.006693
 41
0.006693
  0
VERTEX
  8
PLAN_1
  6
CONTINUOUS
 10
-1.830508
 20
1.096193
  0
VERTEX
  8
PLAN_1
  6
CONTINUOUS
 10
-2.113157
 20
1.096193
  0
SEQEND
  8
0
  0
POLYLINE
  8
PLAN_1
  6
CONTINUOUS
 66
     1
 40
0.006693
 41
0.006693
  0
VERTEX
  8
PLAN_1
  6
CONTINUOUS
 10
-2.113157
 20
1.096193
  0
VERTEX
  8
PLAN_1
  6
CONTINUOUS
 10
-2.114189
 20
1.095165
  0
VERTEX
  8
PLAN_1
  6
CONTINUOUS
 10
-2.116764
 20
1.092591
  0
VERTEX
  8
PLAN_1
  6
CONTINUOUS
 10
-2.119850
 20
1.088472
  0
VERTEX
  8
PLAN_1
  6
CONTINUOUS
 10
-2.122941
 20
1.082807
  0
VERTEX
  8
PLAN_1
  6
CONTINUOUS
 10
-2.123972
 20
1.079205
  0
VERTEX
  8
PLAN_1
  6
CONTINUOUS
 10
-2.124484
 20
1.076114
  0
VERTEX
  8
PLAN_1
  6
CONTINUOUS
 10
-2.124484
 20
1.071996
  0
VERTEX
  8
PLAN_1
  6
CONTINUOUS
 10
-2.123972
 20
1.067878
  0
VERTEX
  8
PLAN_1
  6
CONTINUOUS
 10
-2.122941
 20
1.063760
  0
VERTEX
  8
PLAN_1
  6
CONTINUOUS
 10
-2.120882
 20
1.059642
  0
VERTEX
  8
PLAN_1
  6
CONTINUOUS
 10
-2.117280
 20
1.055008
  0
VERTEX
  8
PLAN_1
  6
CONTINUOUS
 10
-2.113157
 20
1.050374
  0
SEQEND
  8
0
  0
POLYLINE
  8
PLAN_1
  6
CONTINUOUS
 66
     1
 40
0.006693
 41
0.006693
  0
VERTEX
  8
PLAN_1
  6
CONTINUOUS
 10
-2.113157
 20
1.050374
  0
VERTEX
  8
PLAN_1
  6
CONTINUOUS
 10
-1.830508
 20
1.050374
  0
SEQEND
  8
0
  0
POLYLINE
  8
PLAN_1
  6
CONTINUOUS
 66
     1
 40
0.006693
 41
0.006693
  0
VERTEX
  8
PLAN_1
  6
CONTINUOUS
 10
-1.829992
 20
1.004551
  0
VERTEX
  8
PLAN_1
  6
CONTINUOUS
 10
-1.825358
 20
1.009185
  0
VERTEX
  8
PLAN_1
  6
CONTINUOUS
 10
-1.821752
 20
1.013303
  0
VERTEX
  8
PLAN_1
  6
CONTINUOUS
 10
-1.819181
 20
1.017421
  0
VERTEX
  8
PLAN_1
  6
CONTINUOUS
 10
-1.818150
 20
1.022055
  0
VERTEX
  8
PLAN_1
  6
CONTINUOUS
 10
-1.817118
 20
1.025661
  0
VERTEX
  8
PLAN_1
  6
CONTINUOUS
 10
-1.817634
 20
1.029780
  0
VERTEX
  8
PLAN_1
  6
CONTINUOUS
 10
-1.818150
 20
1.033382
  0
VERTEX
  8
PLAN_1
  6
CONTINUOUS
 10
-1.819181
 20
1.036472
  0
VERTEX
  8
PLAN_1
  6
CONTINUOUS
 10
-1.822783
 20
1.042134
  0
VERTEX
  8
PLAN_1
  6
CONTINUOUS
 10
-1.825874
 20
1.046768
  0
VERTEX
  8
PLAN_1
  6
CONTINUOUS
 10
-1.828961
 20
1.049343
  0
VERTEX
  8
PLAN_1
  6
CONTINUOUS
 10
-1.829992
 20
1.050374
  0
SEQEND
  8
0
  0
POLYLINE
  8
PLAN_1
  6
CONTINUOUS
 66
     1
 40
0.006693
 41
0.006693
  0
VERTEX
  8
PLAN_1
  6
CONTINUOUS
 10
-1.829992
 20
1.050374
  0
VERTEX
  8
PLAN_1
  6
CONTINUOUS
 10
-2.112646
 20
1.050374
  0
SEQEND
  8
0
  0
POLYLINE
  8
PLAN_1
  6
CONTINUOUS
 66
     1
 40
0.006693
 41
0.006693
  0
VERTEX
  8
PLAN_1
  6
CONTINUOUS
 10
-2.112646
 20
1.050374
  0
VERTEX
  8
PLAN_1
  6
CONTINUOUS
 10
-2.113673
 20
1.049858
  0
VERTEX
  8
PLAN_1
  6
CONTINUOUS
 10
-2.116248
 20
1.046768
  0
VERTEX
  8
PLAN_1
  6
CONTINUOUS
 10
-2.119850
 20
1.042650
  0
VERTEX
  8
PLAN_1
  6
CONTINUOUS
 10
-2.122425
 20
1.036988
  0
VERTEX
  8
PLAN_1
  6
CONTINUOUS
 10
-2.123457
 20
1.033898
  0
VERTEX
  8
PLAN_1
  6
CONTINUOUS
 10
-2.123972
 20
1.030295
  0
VERTEX
  8
PLAN_1
  6
CONTINUOUS
 10
-2.123972
 20
1.026689
  0
VERTEX
  8
PLAN_1
  6
CONTINUOUS
 10
-2.123457
 20
1.022571
  0
VERTEX
  8
PLAN_1
  6
CONTINUOUS
 10
-2.122425
 20
1.018453
  0
VERTEX
  8
PLAN_1
  6
CONTINUOUS
 10
-2.120366
 20
1.013819
  0
VERTEX
  8
PLAN_1
  6
CONTINUOUS
 10
-2.117280
 20
1.009185
  0
VERTEX
  8
PLAN_1
  6
CONTINUOUS
 10
-2.112646
 20
1.004551
  0
SEQEND
  8
0
  0
POLYLINE
  8
PLAN_1
  6
CONTINUOUS
 66
     1
 40
0.006693
 41
0.006693
  0
VERTEX
  8
PLAN_1
  6
CONTINUOUS
 10
-2.112646
 20
1.004551
  0
VERTEX
  8
PLAN_1
  6
CONTINUOUS
 10
-1.829992
 20
1.004551
  0
SEQEND
  8
0
  0
POLYLINE
  8
PLAN_1
  6
CONTINUOUS
 66
     1
 40
0.006693
 41
0.006693
  0
VERTEX
  8
PLAN_1
  6
CONTINUOUS
 10
-1.830508
 20
0.959244
  0
VERTEX
  8
PLAN_1
  6
CONTINUOUS
 10
-1.825874
 20
0.963362
  0
VERTEX
  8
PLAN_1
  6
CONTINUOUS
 10
-1.822268
 20
0.967996
  0
VERTEX
  8
PLAN_1
  6
CONTINUOUS
 10
-1.819693
 20
0.972114
  0
VERTEX
  8
PLAN_1
  6
CONTINUOUS
 10
-1.818150
 20
0.976236
  0
VERTEX
  8
PLAN_1
  6
CONTINUOUS
 10
-1.817634
 20
0.980354
  0
VERTEX
  8
PLAN_1
  6
CONTINUOUS
 10
-1.817634
 20
0.983957
  0
VERTEX
  8
PLAN_1
  6
CONTINUOUS
 10
-1.818665
 20
0.987563
  0
VERTEX
  8
PLAN_1
  6
CONTINUOUS
 10
-1.819693
 20
0.991165
  0
VERTEX
  8
PLAN_1
  6
CONTINUOUS
 10
-1.822783
 20
0.996827
  0
VERTEX
  8
PLAN_1
  6
CONTINUOUS
 10
-1.826386
 20
1.000949
  0
VERTEX
  8
PLAN_1
  6
CONTINUOUS
 10
-1.829476
 20
1.004035
  0
VERTEX
  8
PLAN_1
  6
CONTINUOUS
 10
-1.830508
 20
1.005067
  0
SEQEND
  8
0
  0
POLYLINE
  8
PLAN_1
  6
CONTINUOUS
 66
     1
 40
0.006693
 41
0.006693
  0
VERTEX
  8
PLAN_1
  6
CONTINUOUS
 10
-1.830508
 20
1.005067
  0
VERTEX
  8
PLAN_1
  6
CONTINUOUS
 10
-2.113157
 20
1.005067
  0
SEQEND
  8
0
  0
POLYLINE
  8
PLAN_1
  6
CONTINUOUS
 66
     1
 40
0.006693
 41
0.006693
  0
VERTEX
  8
PLAN_1
  6
CONTINUOUS
 10
-2.113157
 20
1.005067
  0
VERTEX
  8
PLAN_1
  6
CONTINUOUS
 10
-2.114189
 20
1.004035
  0
VERTEX
  8
PLAN_1
  6
CONTINUOUS
 10
-2.116764
 20
1.001461
  0
VERTEX
  8
PLAN_1
  6
CONTINUOUS
 10
-2.119850
 20
0.997343
  0
VERTEX
  8
PLAN_1
  6
CONTINUOUS
 10
-2.122941
 20
0.991681
  0
VERTEX
  8
PLAN_1
  6
CONTINUOUS
 10
-2.123972
 20
0.988075
  0
VERTEX
  8
PLAN_1
  6
CONTINUOUS
 10
-2.124484
 20
0.984988
  0
VERTEX
  8
PLAN_1
  6
CONTINUOUS
 10
-2.124484
 20
0.980866
  0
VERTEX
  8
PLAN_1
  6
CONTINUOUS
 10
-2.123972
 20
0.976748
  0
VERTEX
  8
PLAN_1
  6
CONTINUOUS
 10
-2.122941
 20
0.972630
  0
VERTEX
  8
PLAN_1
  6
CONTINUOUS
 10
-2.120882
 20
0.968512
  0
VERTEX
  8
PLAN_1
  6
CONTINUOUS
 10
-2.117280
 20
0.963878
  0
VERTEX
  8
PLAN_1
  6
CONTINUOUS
 10
-2.113157
 20
0.959244
  0
SEQEND
  8
0
  0
POLYLINE
  8
PLAN_1
  6
CONTINUOUS
 66
     1
 40
0.006693
 41
0.006693
  0
VERTEX
  8
PLAN_1
  6
CONTINUOUS
 10
-2.113157
 20
0.959244
  0
VERTEX
  8
PLAN_1
  6
CONTINUOUS
 10
-1.830508
 20
0.959244
  0
SEQEND
  8
0
  0
POLYLINE
  8
PLAN_1
  6
CONTINUOUS
 66
     1
 40
0.006693
 41
0.006693
  0
VERTEX
  8
PLAN_1
  6
CONTINUOUS
 10
-1.829992
 20
0.913421
  0
VERTEX
  8
PLAN_1
  6
CONTINUOUS
 10
-1.825358
 20
0.918055
  0
VERTEX
  8
PLAN_1
  6
CONTINUOUS
 10
-1.821752
 20
0.922173
  0
VERTEX
  8
PLAN_1
  6
CONTINUOUS
 10
-1.819181
 20
0.926295
  0
VERTEX
  8
PLAN_1
  6
CONTINUOUS
 10
-1.818150
 20
0.930929
  0
VERTEX
  8
PLAN_1
  6
CONTINUOUS
 10
-1.817118
 20
0.934531
  0
VERTEX
  8
PLAN_1
  6
CONTINUOUS
 10
-1.817634
 20
0.938650
  0
VERTEX
  8
PLAN_1
  6
CONTINUOUS
 10
-1.818150
 20
0.942256
  0
VERTEX
  8
PLAN_1
  6
CONTINUOUS
 10
-1.819181
 20
0.945343
  0
VERTEX
  8
PLAN_1
  6
CONTINUOUS
 10
-1.822783
 20
0.951008
  0
VERTEX
  8
PLAN_1
  6
CONTINUOUS
 10
-1.825874
 20
0.955642
  0
VERTEX
  8
PLAN_1
  6
CONTINUOUS
 10
-1.828961
 20
0.958217
  0
VERTEX
  8
PLAN_1
  6
CONTINUOUS
 10
-1.829992
 20
0.959244
  0
SEQEND
  8
0
  0
POLYLINE
  8
PLAN_1
  6
CONTINUOUS
 66
     1
 40
0.006693
 41
0.006693
  0
VERTEX
  8
PLAN_1
  6
CONTINUOUS
 10
-1.829992
 20
0.959244
  0
VERTEX
  8
PLAN_1
  6
CONTINUOUS
 10
-2.112646
 20
0.959244
  0
SEQEND
  8
0
  0
POLYLINE
  8
PLAN_1
  6
CONTINUOUS
 66
     1
 40
0.006693
 41
0.006693
  0
VERTEX
  8
PLAN_1
  6
CONTINUOUS
 10
-2.112646
 20
0.959244
  0
VERTEX
  8
PLAN_1
  6
CONTINUOUS
 10
-2.113673
 20
0.958728
  0
VERTEX
  8
PLAN_1
  6
CONTINUOUS
 10
-2.116248
 20
0.955642
  0
VERTEX
  8
PLAN_1
  6
CONTINUOUS
 10
-2.119850
 20
0.951520
  0
VERTEX
  8
PLAN_1
  6
CONTINUOUS
 10
-2.122425
 20
0.945858
  0
VERTEX
  8
PLAN_1
  6
CONTINUOUS
 10
-2.123457
 20
0.942768
  0
VERTEX
  8
PLAN_1
  6
CONTINUOUS
 10
-2.123972
 20
0.939165
  0
VERTEX
  8
PLAN_1
  6
CONTINUOUS
 10
-2.123972
 20
0.935563
  0
VERTEX
  8
PLAN_1
  6
CONTINUOUS
 10
-2.123457
 20
0.931441
  0
VERTEX
  8
PLAN_1
  6
CONTINUOUS
 10
-2.122425
 20
0.927323
  0
VERTEX
  8
PLAN_1
  6
CONTINUOUS
 10
-2.120366
 20
0.922689
  0
VERTEX
  8
PLAN_1
  6
CONTINUOUS
 10
-2.117280
 20
0.918055
  0
VERTEX
  8
PLAN_1
  6
CONTINUOUS
 10
-2.112646
 20
0.913421
  0
SEQEND
  8
0
  0
POLYLINE
  8
PLAN_1
  6
CONTINUOUS
 66
     1
 40
0.006693
 41
0.006693
  0
VERTEX
  8
PLAN_1
  6
CONTINUOUS
 10
-2.112646
 20
0.913421
  0
VERTEX
  8
PLAN_1
  6
CONTINUOUS
 10
-1.829992
 20
0.913421
  0
SEQEND
  8
0
  0
POLYLINE
  8
PLAN_1
  6
CONTINUOUS
 66
     1
 40
0.006693
 41
0.006693
  0
VERTEX
  8
PLAN_1
  6
CONTINUOUS
 10
-1.830508
 20
0.868114
  0
VERTEX
  8
PLAN_1
  6
CONTINUOUS
 10
-1.825874
 20
0.872236
  0
VERTEX
  8
PLAN_1
  6
CONTINUOUS
 10
-1.822268
 20
0.876870
  0
VERTEX
  8
PLAN_1
  6
CONTINUOUS
 10
-1.819693
 20
0.880988
  0
VERTEX
  8
PLAN_1
  6
CONTINUOUS
 10
-1.818150
 20
0.885106
  0
VERTEX
  8
PLAN_1
  6
CONTINUOUS
 10
-1.817634
 20
0.889224
  0
VERTEX
  8
PLAN_1
  6
CONTINUOUS
 10
-1.817634
 20
0.892827
  0
VERTEX
  8
PLAN_1
  6
CONTINUOUS
 10
-1.818665
 20
0.896433
  0
VERTEX
  8
PLAN_1
  6
CONTINUOUS
 10
-1.819693
 20
0.900035
  0
VERTEX
  8
PLAN_1
  6
CONTINUOUS
 10
-1.822783
 20
0.905701
  0
VERTEX
  8
PLAN_1
  6
CONTINUOUS
 10
-1.826386
 20
0.909819
  0
VERTEX
  8
PLAN_1
  6
CONTINUOUS
 10
-1.829476
 20
0.912909
  0
VERTEX
  8
PLAN_1
  6
CONTINUOUS
 10
-1.830508
 20
0.913937
  0
SEQEND
  8
0
  0
POLYLINE
  8
PLAN_1
  6
CONTINUOUS
 66
     1
 40
0.006693
 41
0.006693
  0
VERTEX
  8
PLAN_1
  6
CONTINUOUS
 10
-1.830508
 20
0.913937
  0
VERTEX
  8
PLAN_1
  6
CONTINUOUS
 10
-2.113157
 20
0.913937
  0
SEQEND
  8
0
  0
POLYLINE
  8
PLAN_1
  6
CONTINUOUS
 66
     1
 40
0.006693
 41
0.006693
  0
VERTEX
  8
PLAN_1
  6
CONTINUOUS
 10
-2.113157
 20
0.913937
  0
VERTEX
  8
PLAN_1
  6
CONTINUOUS
 10
-2.114189
 20
0.912909
  0
VERTEX
  8
PLAN_1
  6
CONTINUOUS
 10
-2.116764
 20
0.910335
  0
VERTEX
  8
PLAN_1
  6
CONTINUOUS
 10
-2.119850
 20
0.906217
  0
VERTEX
  8
PLAN_1
  6
CONTINUOUS
 10
-2.122941
 20
0.900551
  0
VERTEX
  8
PLAN_1
  6
CONTINUOUS
 10
-2.123972
 20
0.897461
  0
VERTEX
  8
PLAN_1
  6
CONTINUOUS
 10
-2.124484
 20
0.893858
  0
VERTEX
  8
PLAN_1
  6
CONTINUOUS
 10
-2.124484
 20
0.889740
  0
VERTEX
  8
PLAN_1
  6
CONTINUOUS
 10
-2.123972
 20
0.885622
  0
VERTEX
  8
PLAN_1
  6
CONTINUOUS
 10
-2.122941
 20
0.881500
  0
VERTEX
  8
PLAN_1
  6
CONTINUOUS
 10
-2.120882
 20
0.877382
  0
VERTEX
  8
PLAN_1
  6
CONTINUOUS
 10
-2.117280
 20
0.872748
  0
VERTEX
  8
PLAN_1
  6
CONTINUOUS
 10
-2.113157
 20
0.868114
  0
SEQEND
  8
0
  0
POLYLINE
  8
PLAN_1
  6
CONTINUOUS
 66
     1
 40
0.006693
 41
0.006693
  0
VERTEX
  8
PLAN_1
  6
CONTINUOUS
 10
-2.113157
 20
0.868114
  0
VERTEX
  8
PLAN_1
  6
CONTINUOUS
 10
-1.830508
 20
0.868114
  0
SEQEND
  8
0
  0
POLYLINE
  8
PLAN_1
  6
CONTINUOUS
 66
     1
 40
0.006693
 41
0.006693
  0
VERTEX
  8
PLAN_1
  6
CONTINUOUS
 10
-1.829992
 20
0.822295
  0
VERTEX
  8
PLAN_1
  6
CONTINUOUS
 10
-1.825358
 20
0.826929
  0
VERTEX
  8
PLAN_1
  6
CONTINUOUS
 10
-1.821752
 20
0.831047
  0
VERTEX
  8
PLAN_1
  6
CONTINUOUS
 10
-1.819181
 20
0.835681
  0
VERTEX
  8
PLAN_1
  6
CONTINUOUS
 10
-1.818150
 20
0.839799
  0
VERTEX
  8
PLAN_1
  6
CONTINUOUS
 10
-1.817118
 20
0.843402
  0
VERTEX
  8
PLAN_1
  6
CONTINUOUS
 10
-1.817634
 20
0.847524
  0
VERTEX
  8
PLAN_1
  6
CONTINUOUS
 10
-1.818150
 20
0.851126
  0
VERTEX
  8
PLAN_1
  6
CONTINUOUS
 10
-1.819181
 20
0.854217
  0
VERTEX
  8
PLAN_1
  6
CONTINUOUS
 10
-1.822783
 20
0.859878
  0
VERTEX
  8
PLAN_1
  6
CONTINUOUS
 10
-1.825874
 20
0.864512
  0
VERTEX
  8
PLAN_1
  6
CONTINUOUS
 10
-1.828961
 20
0.867087
  0
VERTEX
  8
PLAN_1
  6
CONTINUOUS
 10
-1.829992
 20
0.868114
  0
SEQEND
  8
0
  0
POLYLINE
  8
PLAN_1
  6
CONTINUOUS
 66
     1
 40
0.006693
 41
0.006693
  0
VERTEX
  8
PLAN_1
  6
CONTINUOUS
 10
-1.829992
 20
0.868114
  0
VERTEX
  8
PLAN_1
  6
CONTINUOUS
 10
-2.112646
 20
0.868114
  0
SEQEND
  8
0
  0
POLYLINE
  8
PLAN_1
  6
CONTINUOUS
 66
     1
 40
0.006693
 41
0.006693
  0
VERTEX
  8
PLAN_1
  6
CONTINUOUS
 10
-2.112646
 20
0.868114
  0
VERTEX
  8
PLAN_1
  6
CONTINUOUS
 10
-2.113673
 20
0.867602
  0
VERTEX
  8
PLAN_1
  6
CONTINUOUS
 10
-2.116248
 20
0.864512
  0
VERTEX
  8
PLAN_1
  6
CONTINUOUS
 10
-2.119850
 20
0.860394
  0
VERTEX
  8
PLAN_1
  6
CONTINUOUS
 10
-2.122425
 20
0.854728
  0
VERTEX
  8
PLAN_1
  6
CONTINUOUS
 10
-2.123457
 20
0.851642
  0
VERTEX
  8
PLAN_1
  6
CONTINUOUS
 10
-2.123972
 20
0.848035
  0
VERTEX
  8
PLAN_1
  6
CONTINUOUS
 10
-2.123972
 20
0.844433
  0
VERTEX
  8
PLAN_1
  6
CONTINUOUS
 10
-2.123457
 20
0.840315
  0
VERTEX
  8
PLAN_1
  6
CONTINUOUS
 10
-2.122425
 20
0.836197
  0
VERTEX
  8
PLAN_1
  6
CONTINUOUS
 10
-2.120366
 20
0.831563
  0
VERTEX
  8
PLAN_1
  6
CONTINUOUS
 10
-2.117280
 20
0.826929
  0
VERTEX
  8
PLAN_1
  6
CONTINUOUS
 10
-2.112646
 20
0.822295
  0
SEQEND
  8
0
  0
POLYLINE
  8
PLAN_1
  6
CONTINUOUS
 66
     1
 40
0.006693
 41
0.006693
  0
VERTEX
  8
PLAN_1
  6
CONTINUOUS
 10
-2.112646
 20
0.822295
  0
VERTEX
  8
PLAN_1
  6
CONTINUOUS
 10
-1.829992
 20
0.822295
  0
SEQEND
  8
0
  0
POLYLINE
  8
PLAN_1
  6
CONTINUOUS
 66
     1
 40
0.006693
 41
0.006693
  0
VERTEX
  8
PLAN_1
  6
CONTINUOUS
 10
-1.830508
 20
0.776988
  0
VERTEX
  8
PLAN_1
  6
CONTINUOUS
 10
-1.825874
 20
0.781106
  0
VERTEX
  8
PLAN_1
  6
CONTINUOUS
 10
-1.822268
 20
0.785740
  0
VERTEX
  8
PLAN_1
  6
CONTINUOUS
 10
-1.819693
 20
0.789858
  0
VERTEX
  8
PLAN_1
  6
CONTINUOUS
 10
-1.818150
 20
0.793976
  0
VERTEX
  8
PLAN_1
  6
CONTINUOUS
 10
-1.817634
 20
0.798094
  0
VERTEX
  8
PLAN_1
  6
CONTINUOUS
 10
-1.817634
 20
0.801701
  0
VERTEX
  8
PLAN_1
  6
CONTINUOUS
 10
-1.818665
 20
0.805303
  0
VERTEX
  8
PLAN_1
  6
CONTINUOUS
 10
-1.819693
 20
0.808909
  0
VERTEX
  8
PLAN_1
  6
CONTINUOUS
 10
-1.822783
 20
0.814571
  0
VERTEX
  8
PLAN_1
  6
CONTINUOUS
 10
-1.826386
 20
0.818689
  0
VERTEX
  8
PLAN_1
  6
CONTINUOUS
 10
-1.829476
 20
0.821780
  0
VERTEX
  8
PLAN_1
  6
CONTINUOUS
 10
-1.830508
 20
0.822807
  0
SEQEND
  8
0
  0
POLYLINE
  8
PLAN_1
  6
CONTINUOUS
 66
     1
 40
0.006693
 41
0.006693
  0
VERTEX
  8
PLAN_1
  6
CONTINUOUS
 10
-1.830508
 20
0.822807
  0
VERTEX
  8
PLAN_1
  6
CONTINUOUS
 10
-2.113157
 20
0.822807
  0
SEQEND
  8
0
  0
POLYLINE
  8
PLAN_1
  6
CONTINUOUS
 66
     1
 40
0.006693
 41
0.006693
  0
VERTEX
  8
PLAN_1
  6
CONTINUOUS
 10
-2.113157
 20
0.822807
  0
VERTEX
  8
PLAN_1
  6
CONTINUOUS
 10
-2.114189
 20
0.821780
  0
VERTEX
  8
PLAN_1
  6
CONTINUOUS
 10
-2.116764
 20
0.819205
  0
VERTEX
  8
PLAN_1
  6
CONTINUOUS
 10
-2.119850
 20
0.815087
  0
VERTEX
  8
PLAN_1
  6
CONTINUOUS
 10
-2.122941
 20
0.809421
  0
VERTEX
  8
PLAN_1
  6
CONTINUOUS
 10
-2.123972
 20
0.806335
  0
VERTEX
  8
PLAN_1
  6
CONTINUOUS
 10
-2.124484
 20
0.802728
  0
VERTEX
  8
PLAN_1
  6
CONTINUOUS
 10
-2.124484
 20
0.798610
  0
VERTEX
  8
PLAN_1
  6
CONTINUOUS
 10
-2.123972
 20
0.795008
  0
VERTEX
  8
PLAN_1
  6
CONTINUOUS
 10
-2.122941
 20
0.790374
  0
VERTEX
  8
PLAN_1
  6
CONTINUOUS
 10
-2.120882
 20
0.786256
  0
VERTEX
  8
PLAN_1
  6
CONTINUOUS
 10
-2.117280
 20
0.781622
  0
VERTEX
  8
PLAN_1
  6
CONTINUOUS
 10
-2.113157
 20
0.776988
  0
SEQEND
  8
0
  0
POLYLINE
  8
PLAN_1
  6
CONTINUOUS
 66
     1
 40
0.006693
 41
0.006693
  0
VERTEX
  8
PLAN_1
  6
CONTINUOUS
 10
-2.113157
 20
0.776988
  0
VERTEX
  8
PLAN_1
  6
CONTINUOUS
 10
-1.830508
 20
0.776988
  0
SEQEND
  8
0
  0
POLYLINE
  8
PLAN_1
  6
CONTINUOUS
 66
     1
 40
0.006693
 41
0.006693
  0
VERTEX
  8
PLAN_1
  6
CONTINUOUS
 10
-1.829992
 20
0.731165
  0
VERTEX
  8
PLAN_1
  6
CONTINUOUS
 10
-1.825358
 20
0.735799
  0
VERTEX
  8
PLAN_1
  6
CONTINUOUS
 10
-1.821752
 20
0.739917
  0
VERTEX
  8
PLAN_1
  6
CONTINUOUS
 10
-1.819181
 20
0.744551
  0
VERTEX
  8
PLAN_1
  6
CONTINUOUS
 10
-1.818150
 20
0.748669
  0
VERTEX
  8
PLAN_1
  6
CONTINUOUS
 10
-1.817118
 20
0.752276
  0
VERTEX
  8
PLAN_1
  6
CONTINUOUS
 10
-1.817634
 20
0.756394
  0
VERTEX
  8
PLAN_1
  6
CONTINUOUS
 10
-1.818150
 20
0.759996
  0
VERTEX
  8
PLAN_1
  6
CONTINUOUS
 10
-1.819181
 20
0.763087
  0
VERTEX
  8
PLAN_1
  6
CONTINUOUS
 10
-1.822783
 20
0.768748
  0
VERTEX
  8
PLAN_1
  6
CONTINUOUS
 10
-1.825874
 20
0.773382
  0
VERTEX
  8
PLAN_1
  6
CONTINUOUS
 10
-1.828961
 20
0.776472
  0
VERTEX
  8
PLAN_1
  6
CONTINUOUS
 10
-1.829992
 20
0.776988
  0
SEQEND
  8
0
  0
POLYLINE
  8
PLAN_1
  6
CONTINUOUS
 66
     1
 40
0.006693
 41
0.006693
  0
VERTEX
  8
PLAN_1
  6
CONTINUOUS
 10
-1.829992
 20
0.776988
  0
VERTEX
  8
PLAN_1
  6
CONTINUOUS
 10
-2.112646
 20
0.776988
  0
SEQEND
  8
0
  0
POLYLINE
  8
PLAN_1
  6
CONTINUOUS
 66
     1
 40
0.006693
 41
0.006693
  0
VERTEX
  8
PLAN_1
  6
CONTINUOUS
 10
-2.112646
 20
0.776988
  0
VERTEX
  8
PLAN_1
  6
CONTINUOUS
 10
-2.113673
 20
0.776472
  0
VERTEX
  8
PLAN_1
  6
CONTINUOUS
 10
-2.116248
 20
0.773382
  0
VERTEX
  8
PLAN_1
  6
CONTINUOUS
 10
-2.119850
 20
0.769264
  0
VERTEX
  8
PLAN_1
  6
CONTINUOUS
 10
-2.122425
 20
0.763602
  0
VERTEX
  8
PLAN_1
  6
CONTINUOUS
 10
-2.123457
 20
0.760512
  0
VERTEX
  8
PLAN_1
  6
CONTINUOUS
 10
-2.123972
 20
0.756909
  0
VERTEX
  8
PLAN_1
  6
CONTINUOUS
 10
-2.123972
 20
0.753303
  0
VERTEX
  8
PLAN_1
  6
CONTINUOUS
 10
-2.123457
 20
0.749185
  0
VERTEX
  8
PLAN_1
  6
CONTINUOUS
 10
-2.122425
 20
0.745067
  0
VERTEX
  8
PLAN_1
  6
CONTINUOUS
 10
-2.120366
 20
0.740433
  0
VERTEX
  8
PLAN_1
  6
CONTINUOUS
 10
-2.117280
 20
0.735799
  0
VERTEX
  8
PLAN_1
  6
CONTINUOUS
 10
-2.112646
 20
0.731165
  0
SEQEND
  8
0
  0
POLYLINE
  8
PLAN_1
  6
CONTINUOUS
 66
     1
 40
0.006693
 41
0.006693
  0
VERTEX
  8
PLAN_1
  6
CONTINUOUS
 10
-2.112646
 20
0.731165
  0
VERTEX
  8
PLAN_1
  6
CONTINUOUS
 10
-1.829992
 20
0.731165
  0
SEQEND
  8
0
  0
POLYLINE
  8
PLAN_1
  6
CONTINUOUS
 66
     1
 40
0.006693
 41
0.006693
  0
VERTEX
  8
PLAN_1
  6
CONTINUOUS
 10
-1.830508
 20
0.685858
  0
VERTEX
  8
PLAN_1
  6
CONTINUOUS
 10
-1.825874
 20
0.689976
  0
VERTEX
  8
PLAN_1
  6
CONTINUOUS
 10
-1.822268
 20
0.694610
  0
VERTEX
  8
PLAN_1
  6
CONTINUOUS
 10
-1.819693
 20
0.698728
  0
VERTEX
  8
PLAN_1
  6
CONTINUOUS
 10
-1.818150
 20
0.702850
  0
VERTEX
  8
PLAN_1
  6
CONTINUOUS
 10
-1.817634
 20
0.706969
  0
VERTEX
  8
PLAN_1
  6
CONTINUOUS
 10
-1.817634
 20
0.710571
  0
VERTEX
  8
PLAN_1
  6
CONTINUOUS
 10
-1.818665
 20
0.714177
  0
VERTEX
  8
PLAN_1
  6
CONTINUOUS
 10
-1.819693
 20
0.717780
  0
VERTEX
  8
PLAN_1
  6
CONTINUOUS
 10
-1.822783
 20
0.723441
  0
VERTEX
  8
PLAN_1
  6
CONTINUOUS
 10
-1.826386
 20
0.728075
  0
VERTEX
  8
PLAN_1
  6
CONTINUOUS
 10
-1.829476
 20
0.730650
  0
VERTEX
  8
PLAN_1
  6
CONTINUOUS
 10
-1.830508
 20
0.731681
  0
SEQEND
  8
0
  0
POLYLINE
  8
PLAN_1
  6
CONTINUOUS
 66
     1
 40
0.006693
 41
0.006693
  0
VERTEX
  8
PLAN_1
  6
CONTINUOUS
 10
-1.830508
 20
0.731681
  0
VERTEX
  8
PLAN_1
  6
CONTINUOUS
 10
-2.113157
 20
0.731681
  0
SEQEND
  8
0
  0
POLYLINE
  8
PLAN_1
  6
CONTINUOUS
 66
     1
 40
0.006693
 41
0.006693
  0
VERTEX
  8
PLAN_1
  6
CONTINUOUS
 10
-2.113157
 20
0.731681
  0
VERTEX
  8
PLAN_1
  6
CONTINUOUS
 10
-2.114189
 20
0.730650
  0
VERTEX
  8
PLAN_1
  6
CONTINUOUS
 10
-2.116764
 20
0.728075
  0
VERTEX
  8
PLAN_1
  6
CONTINUOUS
 10
-2.119850
 20
0.723957
  0
VERTEX
  8
PLAN_1
  6
CONTINUOUS
 10
-2.122941
 20
0.718295
  0
VERTEX
  8
PLAN_1
  6
CONTINUOUS
 10
-2.123972
 20
0.715205
  0
VERTEX
  8
PLAN_1
  6
CONTINUOUS
 10
-2.124484
 20
0.711602
  0
VERTEX
  8
PLAN_1
  6
CONTINUOUS
 10
-2.124484
 20
0.707484
  0
VERTEX
  8
PLAN_1
  6
CONTINUOUS
 10
-2.123972
 20
0.703878
  0
VERTEX
  8
PLAN_1
  6
CONTINUOUS
 10
-2.122941
 20
0.699244
  0
VERTEX
  8
PLAN_1
  6
CONTINUOUS
 10
-2.120882
 20
0.695126
  0
VERTEX
  8
PLAN_1
  6
CONTINUOUS
 10
-2.117280
 20
0.690492
  0
VERTEX
  8
PLAN_1
  6
CONTINUOUS
 10
-2.113157
 20
0.685858
  0
SEQEND
  8
0
  0
POLYLINE
  8
PLAN_1
  6
CONTINUOUS
 66
     1
 40
0.006693
 41
0.006693
  0
VERTEX
  8
PLAN_1
  6
CONTINUOUS
 10
-2.113157
 20
0.685858
  0
VERTEX
  8
PLAN_1
  6
CONTINUOUS
 10
-1.830508
 20
0.685858
  0
SEQEND
  8
0
  0
POLYLINE
  8
PLAN_1
  6
CONTINUOUS
 66
     1
 40
0.006693
 41
0.006693
  0
VERTEX
  8
PLAN_1
  6
CONTINUOUS
 10
-1.829992
 20
0.640035
  0
VERTEX
  8
PLAN_1
  6
CONTINUOUS
 10
-1.825358
 20
0.644669
  0
VERTEX
  8
PLAN_1
  6
CONTINUOUS
 10
-1.821752
 20
0.648791
  0
VERTEX
  8
PLAN_1
  6
CONTINUOUS
 10
-1.819181
 20
0.653421
  0
VERTEX
  8
PLAN_1
  6
CONTINUOUS
 10
-1.818150
 20
0.657543
  0
VERTEX
  8
PLAN_1
  6
CONTINUOUS
 10
-1.817118
 20
0.661146
  0
VERTEX
  8
PLAN_1
  6
CONTINUOUS
 10
-1.817634
 20
0.665264
  0
VERTEX
  8
PLAN_1
  6
CONTINUOUS
 10
-1.818150
 20
0.668870
  0
VERTEX
  8
PLAN_1
  6
CONTINUOUS
 10
-1.819181
 20
0.671957
  0
VERTEX
  8
PLAN_1
  6
CONTINUOUS
 10
-1.822783
 20
0.677622
  0
VERTEX
  8
PLAN_1
  6
CONTINUOUS
 10
-1.825874
 20
0.682256
  0
VERTEX
  8
PLAN_1
  6
CONTINUOUS
 10
-1.828961
 20
0.685343
  0
VERTEX
  8
PLAN_1
  6
CONTINUOUS
 10
-1.829992
 20
0.685858
  0
SEQEND
  8
0
  0
POLYLINE
  8
PLAN_1
  6
CONTINUOUS
 66
     1
 40
0.006693
 41
0.006693
  0
VERTEX
  8
PLAN_1
  6
CONTINUOUS
 10
-1.829992
 20
0.685858
  0
VERTEX
  8
PLAN_1
  6
CONTINUOUS
 10
-2.112646
 20
0.685858
  0
SEQEND
  8
0
  0
POLYLINE
  8
PLAN_1
  6
CONTINUOUS
 66
     1
 40
0.006693
 41
0.006693
  0
VERTEX
  8
PLAN_1
  6
CONTINUOUS
 10
-2.112646
 20
0.685858
  0
VERTEX
  8
PLAN_1
  6
CONTINUOUS
 10
-2.113673
 20
0.685343
  0
VERTEX
  8
PLAN_1
  6
CONTINUOUS
 10
-2.116248
 20
0.682768
  0
VERTEX
  8
PLAN_1
  6
CONTINUOUS
 10
-2.119850
 20
0.678138
  0
VERTEX
  8
PLAN_1
  6
CONTINUOUS
 10
-2.122425
 20
0.672472
  0
VERTEX
  8
PLAN_1
  6
CONTINUOUS
 10
-2.123457
 20
0.669382
  0
VERTEX
  8
PLAN_1
  6
CONTINUOUS
 10
-2.123972
 20
0.665780
  0
VERTEX
  8
PLAN_1
  6
CONTINUOUS
 10
-2.123972
 20
0.662177
  0
VERTEX
  8
PLAN_1
  6
CONTINUOUS
 10
-2.123457
 20
0.658055
  0
VERTEX
  8
PLAN_1
  6
CONTINUOUS
 10
-2.122425
 20
0.653937
  0
VERTEX
  8
PLAN_1
  6
CONTINUOUS
 10
-2.120366
 20
0.649303
  0
VERTEX
  8
PLAN_1
  6
CONTINUOUS
 10
-2.117280
 20
0.644669
  0
VERTEX
  8
PLAN_1
  6
CONTINUOUS
 10
-2.112646
 20
0.640035
  0
SEQEND
  8
0
  0
POLYLINE
  8
PLAN_1
  6
CONTINUOUS
 66
     1
 40
0.006693
 41
0.006693
  0
VERTEX
  8
PLAN_1
  6
CONTINUOUS
 10
-2.112646
 20
0.640035
  0
VERTEX
  8
PLAN_1
  6
CONTINUOUS
 10
-1.829992
 20
0.640035
  0
SEQEND
  8
0
  0
POLYLINE
  8
PLAN_1
  6
CONTINUOUS
 66
     1
 40
0.006693
 41
0.006693
  0
VERTEX
  8
PLAN_1
  6
CONTINUOUS
 10
-1.830508
 20
0.594728
  0
VERTEX
  8
PLAN_1
  6
CONTINUOUS
 10
-1.825874
 20
0.598850
  0
VERTEX
  8
PLAN_1
  6
CONTINUOUS
 10
-1.822268
 20
0.603484
  0
VERTEX
  8
PLAN_1
  6
CONTINUOUS
 10
-1.819693
 20
0.607602
  0
VERTEX
  8
PLAN_1
  6
CONTINUOUS
 10
-1.818150
 20
0.611720
  0
VERTEX
  8
PLAN_1
  6
CONTINUOUS
 10
-1.817634
 20
0.615839
  0
VERTEX
  8
PLAN_1
  6
CONTINUOUS
 10
-1.817634
 20
0.619445
  0
VERTEX
  8
PLAN_1
  6
CONTINUOUS
 10
-1.818665
 20
0.623047
  0
VERTEX
  8
PLAN_1
  6
CONTINUOUS
 10
-1.819693
 20
0.626650
  0
VERTEX
  8
PLAN_1
  6
CONTINUOUS
 10
-1.822783
 20
0.632315
  0
VERTEX
  8
PLAN_1
  6
CONTINUOUS
 10
-1.826386
 20
0.636949
  0
VERTEX
  8
PLAN_1
  6
CONTINUOUS
 10
-1.829476
 20
0.639524
  0
VERTEX
  8
PLAN_1
  6
CONTINUOUS
 10
-1.830508
 20
0.640551
  0
SEQEND
  8
0
  0
POLYLINE
  8
PLAN_1
  6
CONTINUOUS
 66
     1
 40
0.006693
 41
0.006693
  0
VERTEX
  8
PLAN_1
  6
CONTINUOUS
 10
-1.830508
 20
0.640551
  0
VERTEX
  8
PLAN_1
  6
CONTINUOUS
 10
-2.113157
 20
0.640551
  0
SEQEND
  8
0
  0
POLYLINE
  8
PLAN_1
  6
CONTINUOUS
 66
     1
 40
0.006693
 41
0.006693
  0
VERTEX
  8
PLAN_1
  6
CONTINUOUS
 10
-2.113157
 20
0.640551
  0
VERTEX
  8
PLAN_1
  6
CONTINUOUS
 10
-2.114189
 20
0.639524
  0
VERTEX
  8
PLAN_1
  6
CONTINUOUS
 10
-2.116764
 20
0.636949
  0
VERTEX
  8
PLAN_1
  6
CONTINUOUS
 10
-2.119850
 20
0.632831
  0
VERTEX
  8
PLAN_1
  6
CONTINUOUS
 10
-2.122941
 20
0.627165
  0
VERTEX
  8
PLAN_1
  6
CONTINUOUS
 10
-2.123972
 20
0.624075
  0
VERTEX
  8
PLAN_1
  6
CONTINUOUS
 10
-2.124484
 20
0.620472
  0
VERTEX
  8
PLAN_1
  6
CONTINUOUS
 10
-2.124484
 20
0.616354
  0
VERTEX
  8
PLAN_1
  6
CONTINUOUS
 10
-2.123972
 20
0.612752
  0
VERTEX
  8
PLAN_1
  6
CONTINUOUS
 10
-2.122941
 20
0.608118
  0
VERTEX
  8
PLAN_1
  6
CONTINUOUS
 10
-2.120882
 20
0.603996
  0
VERTEX
  8
PLAN_1
  6
CONTINUOUS
 10
-2.117280
 20
0.599362
  0
VERTEX
  8
PLAN_1
  6
CONTINUOUS
 10
-2.113157
 20
0.594728
  0
SEQEND
  8
0
  0
POLYLINE
  8
PLAN_1
  6
CONTINUOUS
 66
     1
 40
0.006693
 41
0.006693
  0
VERTEX
  8
PLAN_1
  6
CONTINUOUS
 10
-2.113157
 20
0.594728
  0
VERTEX
  8
PLAN_1
  6
CONTINUOUS
 10
-1.830508
 20
0.594728
  0
SEQEND
  8
0
  0
POLYLINE
  8
PLAN_1
  6
CONTINUOUS
 66
     1
 40
0.006693
 41
0.006693
  0
VERTEX
  8
PLAN_1
  6
CONTINUOUS
 10
-1.829992
 20
0.548909
  0
VERTEX
  8
PLAN_1
  6
CONTINUOUS
 10
-1.825358
 20
0.553543
  0
VERTEX
  8
PLAN_1
  6
CONTINUOUS
 10
-1.821752
 20
0.557661
  0
VERTEX
  8
PLAN_1
  6
CONTINUOUS
 10
-1.819181
 20
0.562295
  0
VERTEX
  8
PLAN_1
  6
CONTINUOUS
 10
-1.818150
 20
0.566413
  0
VERTEX
  8
PLAN_1
  6
CONTINUOUS
 10
-1.817118
 20
0.570016
  0
VERTEX
  8
PLAN_1
  6
CONTINUOUS
 10
-1.817634
 20
0.574138
  0
VERTEX
  8
PLAN_1
  6
CONTINUOUS
 10
-1.818150
 20
0.577740
  0
VERTEX
  8
PLAN_1
  6
CONTINUOUS
 10
-1.819181
 20
0.580831
  0
VERTEX
  8
PLAN_1
  6
CONTINUOUS
 10
-1.822783
 20
0.586492
  0
VERTEX
  8
PLAN_1
  6
CONTINUOUS
 10
-1.825874
 20
0.591126
  0
VERTEX
  8
PLAN_1
  6
CONTINUOUS
 10
-1.828961
 20
0.594217
  0
VERTEX
  8
PLAN_1
  6
CONTINUOUS
 10
-1.829992
 20
0.595244
  0
SEQEND
  8
0
  0
POLYLINE
  8
PLAN_1
  6
CONTINUOUS
 66
     1
 40
0.006693
 41
0.006693
  0
VERTEX
  8
PLAN_1
  6
CONTINUOUS
 10
-1.829992
 20
0.595244
  0
VERTEX
  8
PLAN_1
  6
CONTINUOUS
 10
-2.112646
 20
0.595244
  0
SEQEND
  8
0
  0
POLYLINE
  8
PLAN_1
  6
CONTINUOUS
 66
     1
 40
0.006693
 41
0.006693
  0
VERTEX
  8
PLAN_1
  6
CONTINUOUS
 10
-2.112646
 20
0.595244
  0
VERTEX
  8
PLAN_1
  6
CONTINUOUS
 10
-2.113673
 20
0.594217
  0
VERTEX
  8
PLAN_1
  6
CONTINUOUS
 10
-2.116248
 20
0.591642
  0
VERTEX
  8
PLAN_1
  6
CONTINUOUS
 10
-2.119850
 20
0.587008
  0
VERTEX
  8
PLAN_1
  6
CONTINUOUS
 10
-2.122425
 20
0.581343
  0
VERTEX
  8
PLAN_1
  6
CONTINUOUS
 10
-2.123457
 20
0.578256
  0
VERTEX
  8
PLAN_1
  6
CONTINUOUS
 10
-2.123972
 20
0.574650
  0
VERTEX
  8
PLAN_1
  6
CONTINUOUS
 10
-2.123972
 20
0.571047
  0
VERTEX
  8
PLAN_1
  6
CONTINUOUS
 10
-2.123457
 20
0.566929
  0
VERTEX
  8
PLAN_1
  6
CONTINUOUS
 10
-2.122425
 20
0.562811
  0
VERTEX
  8
PLAN_1
  6
CONTINUOUS
 10
-2.120366
 20
0.558177
  0
VERTEX
  8
PLAN_1
  6
CONTINUOUS
 10
-2.117280
 20
0.553543
  0
VERTEX
  8
PLAN_1
  6
CONTINUOUS
 10
-2.112646
 20
0.548909
  0
SEQEND
  8
0
  0
POLYLINE
  8
PLAN_1
  6
CONTINUOUS
 66
     1
 40
0.006693
 41
0.006693
  0
VERTEX
  8
PLAN_1
  6
CONTINUOUS
 10
-2.112646
 20
0.548909
  0
VERTEX
  8
PLAN_1
  6
CONTINUOUS
 10
-1.829992
 20
0.548909
  0
SEQEND
  8
0
  0
POLYLINE
  8
PLAN_1
  6
CONTINUOUS
 66
     1
 40
0.006693
 41
0.006693
  0
VERTEX
  8
PLAN_1
  6
CONTINUOUS
 10
-1.831020
 20
1.780429
  0
VERTEX
  8
PLAN_1
  6
CONTINUOUS
 10
-1.825874
 20
1.785063
  0
VERTEX
  8
PLAN_1
  6
CONTINUOUS
 10
-1.822268
 20
1.789185
  0
VERTEX
  8
PLAN_1
  6
CONTINUOUS
 10
-1.820209
 20
1.793303
  0
VERTEX
  8
PLAN_1
  6
CONTINUOUS
 10
-1.818665
 20
1.797937
  0
VERTEX
  8
PLAN_1
  6
CONTINUOUS
 10
-1.818150
 20
1.801539
  0
VERTEX
  8
PLAN_1
  6
CONTINUOUS
 10
-1.818150
 20
1.805657
  0
VERTEX
  8
PLAN_1
  6
CONTINUOUS
 10
-1.818665
 20
1.809264
  0
VERTEX
  8
PLAN_1
  6
CONTINUOUS
 10
-1.819693
 20
1.812350
  0
VERTEX
  8
PLAN_1
  6
CONTINUOUS
 10
-1.823299
 20
1.818016
  0
VERTEX
  8
PLAN_1
  6
CONTINUOUS
 10
-1.826902
 20
1.822650
  0
VERTEX
  8
PLAN_1
  6
CONTINUOUS
 10
-1.829476
 20
1.825224
  0
VERTEX
  8
PLAN_1
  6
CONTINUOUS
 10
-1.831020
 20
1.826252
  0
SEQEND
  8
0
  0
POLYLINE
  8
PLAN_1
  6
CONTINUOUS
 66
     1
 40
0.006693
 41
0.006693
  0
VERTEX
  8
PLAN_1
  6
CONTINUOUS
 10
-1.831020
 20
1.826252
  0
VERTEX
  8
PLAN_1
  6
CONTINUOUS
 10
-2.113673
 20
1.826252
  0
SEQEND
  8
0
  0
POLYLINE
  8
PLAN_1
  6
CONTINUOUS
 66
     1
 40
0.006693
 41
0.006693
  0
VERTEX
  8
PLAN_1
  6
CONTINUOUS
 10
-2.113673
 20
1.826252
  0
VERTEX
  8
PLAN_1
  6
CONTINUOUS
 10
-2.114705
 20
1.825736
  0
VERTEX
  8
PLAN_1
  6
CONTINUOUS
 10
-2.117280
 20
1.822650
  0
VERTEX
  8
PLAN_1
  6
CONTINUOUS
 10
-2.120366
 20
1.818531
  0
VERTEX
  8
PLAN_1
  6
CONTINUOUS
 10
-2.122941
 20
1.812866
  0
VERTEX
  8
PLAN_1
  6
CONTINUOUS
 10
-2.123972
 20
1.809776
  0
VERTEX
  8
PLAN_1
  6
CONTINUOUS
 10
-2.124484
 20
1.806173
  0
VERTEX
  8
PLAN_1
  6
CONTINUOUS
 10
-2.125000
 20
1.802571
  0
VERTEX
  8
PLAN_1
  6
CONTINUOUS
 10
-2.124484
 20
1.798449
  0
VERTEX
  8
PLAN_1
  6
CONTINUOUS
 10
-2.122941
 20
1.794331
  0
VERTEX
  8
PLAN_1
  6
CONTINUOUS
 10
-2.120882
 20
1.789697
  0
VERTEX
  8
PLAN_1
  6
CONTINUOUS
 10
-2.117791
 20
1.785063
  0
VERTEX
  8
PLAN_1
  6
CONTINUOUS
 10
-2.113673
 20
1.780429
  0
SEQEND
  8
0
  0
POLYLINE
  8
PLAN_1
  6
CONTINUOUS
 66
     1
 40
0.006693
 41
0.006693
  0
VERTEX
  8
PLAN_1
  6
CONTINUOUS
 10
-2.113673
 20
1.780429
  0
VERTEX
  8
PLAN_1
  6
CONTINUOUS
 10
-1.831020
 20
1.780429
  0
SEQEND
  8
0
  0
POLYLINE
  8
PLAN_1
  6
CONTINUOUS
 66
     1
 40
0.006693
 41
0.006693
  0
VERTEX
  8
PLAN_1
  6
CONTINUOUS
 10
-1.830508
 20
1.735122
  0
VERTEX
  8
PLAN_1
  6
CONTINUOUS
 10
-1.825358
 20
1.739244
  0
VERTEX
  8
PLAN_1
  6
CONTINUOUS
 10
-1.822268
 20
1.743878
  0
VERTEX
  8
PLAN_1
  6
CONTINUOUS
 10
-1.819693
 20
1.747996
  0
VERTEX
  8
PLAN_1
  6
CONTINUOUS
 10
-1.818150
 20
1.752114
  0
VERTEX
  8
PLAN_1
  6
CONTINUOUS
 10
-1.817634
 20
1.756232
  0
VERTEX
  8
PLAN_1
  6
CONTINUOUS
 10
-1.817634
 20
1.759839
  0
VERTEX
  8
PLAN_1
  6
CONTINUOUS
 10
-1.818150
 20
1.763441
  0
VERTEX
  8
PLAN_1
  6
CONTINUOUS
 10
-1.819693
 20
1.767043
  0
VERTEX
  8
PLAN_1
  6
CONTINUOUS
 10
-1.822783
 20
1.772709
  0
VERTEX
  8
PLAN_1
  6
CONTINUOUS
 10
-1.826386
 20
1.776827
  0
VERTEX
  8
PLAN_1
  6
CONTINUOUS
 10
-1.828961
 20
1.779917
  0
VERTEX
  8
PLAN_1
  6
CONTINUOUS
 10
-1.830508
 20
1.780945
  0
SEQEND
  8
0
  0
POLYLINE
  8
PLAN_1
  6
CONTINUOUS
 66
     1
 40
0.006693
 41
0.006693
  0
VERTEX
  8
PLAN_1
  6
CONTINUOUS
 10
-1.830508
 20
1.780945
  0
VERTEX
  8
PLAN_1
  6
CONTINUOUS
 10
-2.113157
 20
1.780945
  0
SEQEND
  8
0
  0
POLYLINE
  8
PLAN_1
  6
CONTINUOUS
 66
     1
 40
0.006693
 41
0.006693
  0
VERTEX
  8
PLAN_1
  6
CONTINUOUS
 10
-2.113157
 20
1.780945
  0
VERTEX
  8
PLAN_1
  6
CONTINUOUS
 10
-2.114189
 20
1.779917
  0
VERTEX
  8
PLAN_1
  6
CONTINUOUS
 10
-2.116764
 20
1.777343
  0
VERTEX
  8
PLAN_1
  6
CONTINUOUS
 10
-2.119850
 20
1.773224
  0
VERTEX
  8
PLAN_1
  6
CONTINUOUS
 10
-2.122425
 20
1.767559
  0
VERTEX
  8
PLAN_1
  6
CONTINUOUS
 10
-2.123457
 20
1.764469
  0
VERTEX
  8
PLAN_1
  6
CONTINUOUS
 10
-2.124484
 20
1.760866
  0
VERTEX
  8
PLAN_1
  6
CONTINUOUS
 10
-2.124484
 20
1.756748
  0
VERTEX
  8
PLAN_1
  6
CONTINUOUS
 10
-2.123972
 20
1.752630
  0
VERTEX
  8
PLAN_1
  6
CONTINUOUS
 10
-2.122425
 20
1.748512
  0
VERTEX
  8
PLAN_1
  6
CONTINUOUS
 10
-2.120366
 20
1.744390
  0
VERTEX
  8
PLAN_1
  6
CONTINUOUS
 10
-2.117280
 20
1.739756
  0
VERTEX
  8
PLAN_1
  6
CONTINUOUS
 10
-2.113157
 20
1.735122
  0
SEQEND
  8
0
  0
POLYLINE
  8
PLAN_1
  6
CONTINUOUS
 66
     1
 40
0.006693
 41
0.006693
  0
VERTEX
  8
PLAN_1
  6
CONTINUOUS
 10
-2.113157
 20
1.735122
  0
VERTEX
  8
PLAN_1
  6
CONTINUOUS
 10
-1.830508
 20
1.735122
  0
SEQEND
  8
0
  0
POLYLINE
  8
PLAN_1
  6
CONTINUOUS
 66
     1
 40
0.006693
 41
0.006693
  0
VERTEX
  8
PLAN_1
  6
CONTINUOUS
 10
-1.830508
 20
1.688787
  0
VERTEX
  8
PLAN_1
  6
CONTINUOUS
 10
-1.825874
 20
1.693421
  0
VERTEX
  8
PLAN_1
  6
CONTINUOUS
 10
-1.822268
 20
1.697539
  0
VERTEX
  8
PLAN_1
  6
CONTINUOUS
 10
-1.819693
 20
1.701657
  0
VERTEX
  8
PLAN_1
  6
CONTINUOUS
 10
-1.818150
 20
1.705776
  0
VERTEX
  8
PLAN_1
  6
CONTINUOUS
 10
-1.817634
 20
1.709898
  0
VERTEX
  8
PLAN_1
  6
CONTINUOUS
 10
-1.817634
 20
1.713500
  0
VERTEX
  8
PLAN_1
  6
CONTINUOUS
 10
-1.818665
 20
1.717102
  0
VERTEX
  8
PLAN_1
  6
CONTINUOUS
 10
-1.819693
 20
1.720709
  0
VERTEX
  8
PLAN_1
  6
CONTINUOUS
 10
-1.822783
 20
1.726370
  0
VERTEX
  8
PLAN_1
  6
CONTINUOUS
 10
-1.826386
 20
1.731004
  0
VERTEX
  8
PLAN_1
  6
CONTINUOUS
 10
-1.829476
 20
1.733579
  0
VERTEX
  8
PLAN_1
  6
CONTINUOUS
 10
-1.830508
 20
1.734610
  0
SEQEND
  8
0
  0
POLYLINE
  8
PLAN_1
  6
CONTINUOUS
 66
     1
 40
0.006693
 41
0.006693
  0
VERTEX
  8
PLAN_1
  6
CONTINUOUS
 10
-1.830508
 20
1.734610
  0
VERTEX
  8
PLAN_1
  6
CONTINUOUS
 10
-2.113157
 20
1.734610
  0
SEQEND
  8
0
  0
POLYLINE
  8
PLAN_1
  6
CONTINUOUS
 66
     1
 40
0.006693
 41
0.006693
  0
VERTEX
  8
PLAN_1
  6
CONTINUOUS
 10
-2.113157
 20
1.734610
  0
VERTEX
  8
PLAN_1
  6
CONTINUOUS
 10
-2.114189
 20
1.733579
  0
VERTEX
  8
PLAN_1
  6
CONTINUOUS
 10
-2.116764
 20
1.731004
  0
VERTEX
  8
PLAN_1
  6
CONTINUOUS
 10
-2.119850
 20
1.726886
  0
VERTEX
  8
PLAN_1
  6
CONTINUOUS
 10
-2.122941
 20
1.721224
  0
VERTEX
  8
PLAN_1
  6
CONTINUOUS
 10
-2.123972
 20
1.718134
  0
VERTEX
  8
PLAN_1
  6
CONTINUOUS
 10
-2.124484
 20
1.714531
  0
VERTEX
  8
PLAN_1
  6
CONTINUOUS
 10
-2.124484
 20
1.710925
  0
VERTEX
  8
PLAN_1
  6
CONTINUOUS
 10
-2.123972
 20
1.706807
  0
VERTEX
  8
PLAN_1
  6
CONTINUOUS
 10
-2.122941
 20
1.702689
  0
VERTEX
  8
PLAN_1
  6
CONTINUOUS
 10
-2.120882
 20
1.698055
  0
VERTEX
  8
PLAN_1
  6
CONTINUOUS
 10
-2.117280
 20
1.693421
  0
VERTEX
  8
PLAN_1
  6
CONTINUOUS
 10
-2.113157
 20
1.688787
  0
SEQEND
  8
0
  0
POLYLINE
  8
PLAN_1
  6
CONTINUOUS
 66
     1
 40
0.006693
 41
0.006693
  0
VERTEX
  8
PLAN_1
  6
CONTINUOUS
 10
-2.113157
 20
1.688787
  0
VERTEX
  8
PLAN_1
  6
CONTINUOUS
 10
-1.830508
 20
1.688787
  0
SEQEND
  8
0
  0
POLYLINE
  8
PLAN_1
  6
CONTINUOUS
 66
     1
 40
0.006693
 41
0.006693
  0
VERTEX
  8
PLAN_1
  6
CONTINUOUS
 10
-1.829992
 20
1.642965
  0
VERTEX
  8
PLAN_1
  6
CONTINUOUS
 10
-1.825358
 20
1.647598
  0
VERTEX
  8
PLAN_1
  6
CONTINUOUS
 10
-1.821752
 20
1.652232
  0
VERTEX
  8
PLAN_1
  6
CONTINUOUS
 10
-1.819181
 20
1.656350
  0
VERTEX
  8
PLAN_1
  6
CONTINUOUS
 10
-1.818150
 20
1.660472
  0
VERTEX
  8
PLAN_1
  6
CONTINUOUS
 10
-1.817118
 20
1.664591
  0
VERTEX
  8
PLAN_1
  6
CONTINUOUS
 10
-1.817634
 20
1.668193
  0
VERTEX
  8
PLAN_1
  6
CONTINUOUS
 10
-1.818150
 20
1.671799
  0
VERTEX
  8
PLAN_1
  6
CONTINUOUS
 10
-1.819181
 20
1.674886
  0
VERTEX
  8
PLAN_1
  6
CONTINUOUS
 10
-1.822783
 20
1.681063
  0
VERTEX
  8
PLAN_1
  6
CONTINUOUS
 10
-1.825874
 20
1.685185
  0
VERTEX
  8
PLAN_1
  6
CONTINUOUS
 10
-1.828961
 20
1.688272
  0
VERTEX
  8
PLAN_1
  6
CONTINUOUS
 10
-1.829992
 20
1.689303
  0
SEQEND
  8
0
  0
POLYLINE
  8
PLAN_1
  6
CONTINUOUS
 66
     1
 40
0.006693
 41
0.006693
  0
VERTEX
  8
PLAN_1
  6
CONTINUOUS
 10
-1.829992
 20
1.689303
  0
VERTEX
  8
PLAN_1
  6
CONTINUOUS
 10
-2.112646
 20
1.689303
  0
SEQEND
  8
0
  0
POLYLINE
  8
PLAN_1
  6
CONTINUOUS
 66
     1
 40
0.006693
 41
0.006693
  0
VERTEX
  8
PLAN_1
  6
CONTINUOUS
 10
-2.112646
 20
1.689303
  0
VERTEX
  8
PLAN_1
  6
CONTINUOUS
 10
-2.113673
 20
1.688272
  0
VERTEX
  8
PLAN_1
  6
CONTINUOUS
 10
-2.116248
 20
1.685697
  0
VERTEX
  8
PLAN_1
  6
CONTINUOUS
 10
-2.119850
 20
1.681579
  0
VERTEX
  8
PLAN_1
  6
CONTINUOUS
 10
-2.122425
 20
1.675917
  0
VERTEX
  8
PLAN_1
  6
CONTINUOUS
 10
-2.123457
 20
1.672311
  0
VERTEX
  8
PLAN_1
  6
CONTINUOUS
 10
-2.123972
 20
1.668709
  0
VERTEX
  8
PLAN_1
  6
CONTINUOUS
 10
-2.123972
 20
1.665102
  0
VERTEX
  8
PLAN_1
  6
CONTINUOUS
 10
-2.123457
 20
1.660984
  0
VERTEX
  8
PLAN_1
  6
CONTINUOUS
 10
-2.122425
 20
1.656866
  0
VERTEX
  8
PLAN_1
  6
CONTINUOUS
 10
-2.120366
 20
1.652232
  0
VERTEX
  8
PLAN_1
  6
CONTINUOUS
 10
-2.117280
 20
1.648114
  0
VERTEX
  8
PLAN_1
  6
CONTINUOUS
 10
-2.112646
 20
1.642965
  0
SEQEND
  8
0
  0
POLYLINE
  8
PLAN_1
  6
CONTINUOUS
 66
     1
 40
0.006693
 41
0.006693
  0
VERTEX
  8
PLAN_1
  6
CONTINUOUS
 10
-2.112646
 20
1.642965
  0
VERTEX
  8
PLAN_1
  6
CONTINUOUS
 10
-1.829992
 20
1.642965
  0
SEQEND
  8
0
  0
POLYLINE
  8
PLAN_1
  6
CONTINUOUS
 66
     1
 40
0.006693
 41
0.006693
  0
VERTEX
  8
PLAN_1
  6
CONTINUOUS
 10
-1.830508
 20
1.597657
  0
VERTEX
  8
PLAN_1
  6
CONTINUOUS
 10
-1.825874
 20
1.602291
  0
VERTEX
  8
PLAN_1
  6
CONTINUOUS
 10
-1.822268
 20
1.606409
  0
VERTEX
  8
PLAN_1
  6
CONTINUOUS
 10
-1.819693
 20
1.610531
  0
VERTEX
  8
PLAN_1
  6
CONTINUOUS
 10
-1.818150
 20
1.614650
  0
VERTEX
  8
PLAN_1
  6
CONTINUOUS
 10
-1.817634
 20
1.618768
  0
VERTEX
  8
PLAN_1
  6
CONTINUOUS
 10
-1.817634
 20
1.622370
  0
VERTEX
  8
PLAN_1
  6
CONTINUOUS
 10
-1.818665
 20
1.625976
  0
VERTEX
  8
PLAN_1
  6
CONTINUOUS
 10
-1.819693
 20
1.629579
  0
VERTEX
  8
PLAN_1
  6
CONTINUOUS
 10
-1.822783
 20
1.635244
  0
VERTEX
  8
PLAN_1
  6
CONTINUOUS
 10
-1.826386
 20
1.639878
  0
VERTEX
  8
PLAN_1
  6
CONTINUOUS
 10
-1.829476
 20
1.642453
  0
VERTEX
  8
PLAN_1
  6
CONTINUOUS
 10
-1.830508
 20
1.643480
  0
SEQEND
  8
0
  0
POLYLINE
  8
PLAN_1
  6
CONTINUOUS
 66
     1
 40
0.006693
 41
0.006693
  0
VERTEX
  8
PLAN_1
  6
CONTINUOUS
 10
-1.830508
 20
1.643480
  0
VERTEX
  8
PLAN_1
  6
CONTINUOUS
 10
-2.113157
 20
1.643480
  0
SEQEND
  8
0
  0
POLYLINE
  8
PLAN_1
  6
CONTINUOUS
 66
     1
 40
0.006693
 41
0.006693
  0
VERTEX
  8
PLAN_1
  6
CONTINUOUS
 10
-2.113157
 20
1.643480
  0
VERTEX
  8
PLAN_1
  6
CONTINUOUS
 10
-2.114189
 20
1.642453
  0
VERTEX
  8
PLAN_1
  6
CONTINUOUS
 10
-2.116764
 20
1.639878
  0
VERTEX
  8
PLAN_1
  6
CONTINUOUS
 10
-2.119850
 20
1.635756
  0
VERTEX
  8
PLAN_1
  6
CONTINUOUS
 10
-2.122941
 20
1.630094
  0
VERTEX
  8
PLAN_1
  6
CONTINUOUS
 10
-2.123972
 20
1.627004
  0
VERTEX
  8
PLAN_1
  6
CONTINUOUS
 10
-2.124484
 20
1.623402
  0
VERTEX
  8
PLAN_1
  6
CONTINUOUS
 10
-2.124484
 20
1.619799
  0
VERTEX
  8
PLAN_1
  6
CONTINUOUS
 10
-2.123972
 20
1.615677
  0
VERTEX
  8
PLAN_1
  6
CONTINUOUS
 10
-2.122941
 20
1.611559
  0
VERTEX
  8
PLAN_1
  6
CONTINUOUS
 10
-2.120882
 20
1.606925
  0
VERTEX
  8
PLAN_1
  6
CONTINUOUS
 10
-2.117280
 20
1.602291
  0
VERTEX
  8
PLAN_1
  6
CONTINUOUS
 10
-2.113157
 20
1.597657
  0
SEQEND
  8
0
  0
POLYLINE
  8
PLAN_1
  6
CONTINUOUS
 66
     1
 40
0.006693
 41
0.006693
  0
VERTEX
  8
PLAN_1
  6
CONTINUOUS
 10
-2.113157
 20
1.597657
  0
VERTEX
  8
PLAN_1
  6
CONTINUOUS
 10
-1.830508
 20
1.597657
  0
SEQEND
  8
0
  0
POLYLINE
  8
PLAN_1
  6
CONTINUOUS
 66
     1
 40
0.006693
 41
0.006693
  0
VERTEX
  8
PLAN_1
  6
CONTINUOUS
 10
-1.829992
 20
1.551839
  0
VERTEX
  8
PLAN_1
  6
CONTINUOUS
 10
-1.825358
 20
1.556472
  0
VERTEX
  8
PLAN_1
  6
CONTINUOUS
 10
-1.821752
 20
1.561106
  0
VERTEX
  8
PLAN_1
  6
CONTINUOUS
 10
-1.819181
 20
1.565224
  0
VERTEX
  8
PLAN_1
  6
CONTINUOUS
 10
-1.818150
 20
1.569343
  0
VERTEX
  8
PLAN_1
  6
CONTINUOUS
 10
-1.817118
 20
1.573461
  0
VERTEX
  8
PLAN_1
  6
CONTINUOUS
 10
-1.817634
 20
1.577063
  0
VERTEX
  8
PLAN_1
  6
CONTINUOUS
 10
-1.818150
 20
1.580669
  0
VERTEX
  8
PLAN_1
  6
CONTINUOUS
 10
-1.819181
 20
1.583756
  0
VERTEX
  8
PLAN_1
  6
CONTINUOUS
 10
-1.822783
 20
1.589937
  0
VERTEX
  8
PLAN_1
  6
CONTINUOUS
 10
-1.825874
 20
1.594055
  0
VERTEX
  8
PLAN_1
  6
CONTINUOUS
 10
-1.828961
 20
1.597146
  0
VERTEX
  8
PLAN_1
  6
CONTINUOUS
 10
-1.829992
 20
1.598173
  0
SEQEND
  8
0
  0
POLYLINE
  8
PLAN_1
  6
CONTINUOUS
 66
     1
 40
0.006693
 41
0.006693
  0
VERTEX
  8
PLAN_1
  6
CONTINUOUS
 10
-1.829992
 20
1.598173
  0
VERTEX
  8
PLAN_1
  6
CONTINUOUS
 10
-2.112646
 20
1.598173
  0
SEQEND
  8
0
  0
POLYLINE
  8
PLAN_1
  6
CONTINUOUS
 66
     1
 40
0.006693
 41
0.006693
  0
VERTEX
  8
PLAN_1
  6
CONTINUOUS
 10
-2.112646
 20
1.598173
  0
VERTEX
  8
PLAN_1
  6
CONTINUOUS
 10
-2.113673
 20
1.597146
  0
VERTEX
  8
PLAN_1
  6
CONTINUOUS
 10
-2.116248
 20
1.594571
  0
VERTEX
  8
PLAN_1
  6
CONTINUOUS
 10
-2.119850
 20
1.590453
  0
VERTEX
  8
PLAN_1
  6
CONTINUOUS
 10
-2.122425
 20
1.584787
  0
VERTEX
  8
PLAN_1
  6
CONTINUOUS
 10
-2.123457
 20
1.581185
  0
VERTEX
  8
PLAN_1
  6
CONTINUOUS
 10
-2.123972
 20
1.577579
  0
VERTEX
  8
PLAN_1
  6
CONTINUOUS
 10
-2.123972
 20
1.573976
  0
VERTEX
  8
PLAN_1
  6
CONTINUOUS
 10
-2.123457
 20
1.569858
  0
VERTEX
  8
PLAN_1
  6
CONTINUOUS
 10
-2.122425
 20
1.565736
  0
VERTEX
  8
PLAN_1
  6
CONTINUOUS
 10
-2.120366
 20
1.561106
  0
VERTEX
  8
PLAN_1
  6
CONTINUOUS
 10
-2.117280
 20
1.556984
  0
VERTEX
  8
PLAN_1
  6
CONTINUOUS
 10
-2.112646
 20
1.551839
  0
SEQEND
  8
0
  0
POLYLINE
  8
PLAN_1
  6
CONTINUOUS
 66
     1
 40
0.006693
 41
0.006693
  0
VERTEX
  8
PLAN_1
  6
CONTINUOUS
 10
-2.112646
 20
1.551839
  0
VERTEX
  8
PLAN_1
  6
CONTINUOUS
 10
-1.829992
 20
1.551839
  0
SEQEND
  8
0
  0
POLYLINE
  8
PLAN_1
  6
CONTINUOUS
 66
     1
 40
0.006693
 41
0.006693
  0
VERTEX
  8
PLAN_1
  6
CONTINUOUS
 10
-1.830508
 20
1.506531
  0
VERTEX
  8
PLAN_1
  6
CONTINUOUS
 10
-1.825874
 20
1.511165
  0
VERTEX
  8
PLAN_1
  6
CONTINUOUS
 10
-1.822268
 20
1.515283
  0
VERTEX
  8
PLAN_1
  6
CONTINUOUS
 10
-1.819693
 20
1.519402
  0
VERTEX
  8
PLAN_1
  6
CONTINUOUS
 10
-1.818150
 20
1.523520
  0
VERTEX
  8
PLAN_1
  6
CONTINUOUS
 10
-1.817634
 20
1.527638
  0
VERTEX
  8
PLAN_1
  6
CONTINUOUS
 10
-1.817634
 20
1.531760
  0
VERTEX
  8
PLAN_1
  6
CONTINUOUS
 10
-1.818665
 20
1.534846
  0
VERTEX
  8
PLAN_1
  6
CONTINUOUS
 10
-1.819693
 20
1.538453
  0
VERTEX
  8
PLAN_1
  6
CONTINUOUS
 10
-1.822783
 20
1.544114
  0
VERTEX
  8
PLAN_1
  6
CONTINUOUS
 10
-1.826386
 20
1.548748
  0
VERTEX
  8
PLAN_1
  6
CONTINUOUS
 10
-1.829476
 20
1.551323
  0
VERTEX
  8
PLAN_1
  6
CONTINUOUS
 10
-1.830508
 20
1.552350
  0
SEQEND
  8
0
  0
POLYLINE
  8
PLAN_1
  6
CONTINUOUS
 66
     1
 40
0.006693
 41
0.006693
  0
VERTEX
  8
PLAN_1
  6
CONTINUOUS
 10
-1.830508
 20
1.552350
  0
VERTEX
  8
PLAN_1
  6
CONTINUOUS
 10
-2.113157
 20
1.552350
  0
SEQEND
  8
0
  0
POLYLINE
  8
PLAN_1
  6
CONTINUOUS
 66
     1
 40
0.006693
 41
0.006693
  0
VERTEX
  8
PLAN_1
  6
CONTINUOUS
 10
-2.113157
 20
1.552350
  0
VERTEX
  8
PLAN_1
  6
CONTINUOUS
 10
-2.114189
 20
1.551323
  0
VERTEX
  8
PLAN_1
  6
CONTINUOUS
 10
-2.116764
 20
1.548748
  0
VERTEX
  8
PLAN_1
  6
CONTINUOUS
 10
-2.119850
 20
1.544630
  0
VERTEX
  8
PLAN_1
  6
CONTINUOUS
 10
-2.122941
 20
1.538965
  0
VERTEX
  8
PLAN_1
  6
CONTINUOUS
 10
-2.123972
 20
1.535878
  0
VERTEX
  8
PLAN_1
  6
CONTINUOUS
 10
-2.124484
 20
1.532272
  0
VERTEX
  8
PLAN_1
  6
CONTINUOUS
 10
-2.124484
 20
1.528669
  0
VERTEX
  8
PLAN_1
  6
CONTINUOUS
 10
-2.123972
 20
1.524551
  0
VERTEX
  8
PLAN_1
  6
CONTINUOUS
 10
-2.122941
 20
1.520433
  0
VERTEX
  8
PLAN_1
  6
CONTINUOUS
 10
-2.120882
 20
1.515799
  0
VERTEX
  8
PLAN_1
  6
CONTINUOUS
 10
-2.117280
 20
1.511165
  0
VERTEX
  8
PLAN_1
  6
CONTINUOUS
 10
-2.113157
 20
1.506531
  0
SEQEND
  8
0
  0
POLYLINE
  8
PLAN_1
  6
CONTINUOUS
 66
     1
 40
0.006693
 41
0.006693
  0
VERTEX
  8
PLAN_1
  6
CONTINUOUS
 10
-2.113157
 20
1.506531
  0
VERTEX
  8
PLAN_1
  6
CONTINUOUS
 10
-1.830508
 20
1.506531
  0
SEQEND
  8
0
  0
POLYLINE
  8
PLAN_1
  6
CONTINUOUS
 66
     1
 40
0.006693
 41
0.006693
  0
VERTEX
  8
PLAN_1
  6
CONTINUOUS
 10
-1.829992
 20
1.460709
  0
VERTEX
  8
PLAN_1
  6
CONTINUOUS
 10
-1.825358
 20
1.465343
  0
VERTEX
  8
PLAN_1
  6
CONTINUOUS
 10
-1.821752
 20
1.469976
  0
VERTEX
  8
PLAN_1
  6
CONTINUOUS
 10
-1.819181
 20
1.474094
  0
VERTEX
  8
PLAN_1
  6
CONTINUOUS
 10
-1.818150
 20
1.478213
  0
VERTEX
  8
PLAN_1
  6
CONTINUOUS
 10
-1.817118
 20
1.482331
  0
VERTEX
  8
PLAN_1
  6
CONTINUOUS
 10
-1.817634
 20
1.485937
  0
VERTEX
  8
PLAN_1
  6
CONTINUOUS
 10
-1.818150
 20
1.489539
  0
VERTEX
  8
PLAN_1
  6
CONTINUOUS
 10
-1.819181
 20
1.492630
  0
VERTEX
  8
PLAN_1
  6
CONTINUOUS
 10
-1.822783
 20
1.498807
  0
VERTEX
  8
PLAN_1
  6
CONTINUOUS
 10
-1.825874
 20
1.502925
  0
VERTEX
  8
PLAN_1
  6
CONTINUOUS
 10
-1.828961
 20
1.506016
  0
VERTEX
  8
PLAN_1
  6
CONTINUOUS
 10
-1.829992
 20
1.507043
  0
SEQEND
  8
0
  0
POLYLINE
  8
PLAN_1
  6
CONTINUOUS
 66
     1
 40
0.006693
 41
0.006693
  0
VERTEX
  8
PLAN_1
  6
CONTINUOUS
 10
-1.829992
 20
1.507043
  0
VERTEX
  8
PLAN_1
  6
CONTINUOUS
 10
-2.112646
 20
1.507043
  0
SEQEND
  8
0
  0
POLYLINE
  8
PLAN_1
  6
CONTINUOUS
 66
     1
 40
0.006693
 41
0.006693
  0
VERTEX
  8
PLAN_1
  6
CONTINUOUS
 10
-2.112646
 20
1.507043
  0
VERTEX
  8
PLAN_1
  6
CONTINUOUS
 10
-2.113673
 20
1.506016
  0
VERTEX
  8
PLAN_1
  6
CONTINUOUS
 10
-2.116248
 20
1.503441
  0
VERTEX
  8
PLAN_1
  6
CONTINUOUS
 10
-2.119850
 20
1.499323
  0
VERTEX
  8
PLAN_1
  6
CONTINUOUS
 10
-2.122425
 20
1.493657
  0
VERTEX
  8
PLAN_1
  6
CONTINUOUS
 10
-2.123457
 20
1.490055
  0
VERTEX
  8
PLAN_1
  6
CONTINUOUS
 10
-2.123972
 20
1.486965
  0
VERTEX
  8
PLAN_1
  6
CONTINUOUS
 10
-2.123972
 20
1.482846
  0
VERTEX
  8
PLAN_1
  6
CONTINUOUS
 10
-2.123457
 20
1.478728
  0
VERTEX
  8
PLAN_1
  6
CONTINUOUS
 10
-2.122425
 20
1.474610
  0
VERTEX
  8
PLAN_1
  6
CONTINUOUS
 10
-2.120366
 20
1.470492
  0
VERTEX
  8
PLAN_1
  6
CONTINUOUS
 10
-2.117280
 20
1.465858
  0
VERTEX
  8
PLAN_1
  6
CONTINUOUS
 10
-2.112646
 20
1.460709
  0
SEQEND
  8
0
  0
POLYLINE
  8
PLAN_1
  6
CONTINUOUS
 66
     1
 40
0.006693
 41
0.006693
  0
VERTEX
  8
PLAN_1
  6
CONTINUOUS
 10
-2.112646
 20
1.460709
  0
VERTEX
  8
PLAN_1
  6
CONTINUOUS
 10
-1.829992
 20
1.460709
  0
SEQEND
  8
0
  0
POLYLINE
  8
PLAN_1
  6
CONTINUOUS
 66
     1
 40
0.006693
 41
0.006693
  0
VERTEX
  8
PLAN_1
  6
CONTINUOUS
 10
-1.830508
 20
1.415402
  0
VERTEX
  8
PLAN_1
  6
CONTINUOUS
 10
-1.825874
 20
1.420035
  0
VERTEX
  8
PLAN_1
  6
CONTINUOUS
 10
-1.822268
 20
1.424154
  0
VERTEX
  8
PLAN_1
  6
CONTINUOUS
 10
-1.819693
 20
1.428272
  0
VERTEX
  8
PLAN_1
  6
CONTINUOUS
 10
-1.818150
 20
1.432394
  0
VERTEX
  8
PLAN_1
  6
CONTINUOUS
 10
-1.817634
 20
1.436512
  0
VERTEX
  8
PLAN_1
  6
CONTINUOUS
 10
-1.817634
 20
1.440630
  0
VERTEX
  8
PLAN_1
  6
CONTINUOUS
 10
-1.818665
 20
1.444232
  0
VERTEX
  8
PLAN_1
  6
CONTINUOUS
 10
-1.819693
 20
1.447323
  0
VERTEX
  8
PLAN_1
  6
CONTINUOUS
 10
-1.822783
 20
1.452984
  0
VERTEX
  8
PLAN_1
  6
CONTINUOUS
 10
-1.826386
 20
1.457618
  0
VERTEX
  8
PLAN_1
  6
CONTINUOUS
 10
-1.829476
 20
1.460193
  0
VERTEX
  8
PLAN_1
  6
CONTINUOUS
 10
-1.830508
 20
1.461224
  0
SEQEND
  8
0
  0
POLYLINE
  8
PLAN_1
  6
CONTINUOUS
 66
     1
 40
0.006693
 41
0.006693
  0
VERTEX
  8
PLAN_1
  6
CONTINUOUS
 10
-1.830508
 20
1.461224
  0
VERTEX
  8
PLAN_1
  6
CONTINUOUS
 10
-2.113157
 20
1.461224
  0
SEQEND
  8
0
  0
POLYLINE
  8
PLAN_1
  6
CONTINUOUS
 66
     1
 40
0.006693
 41
0.006693
  0
VERTEX
  8
PLAN_1
  6
CONTINUOUS
 10
-2.113157
 20
1.461224
  0
VERTEX
  8
PLAN_1
  6
CONTINUOUS
 10
-2.114189
 20
1.460193
  0
VERTEX
  8
PLAN_1
  6
CONTINUOUS
 10
-2.116764
 20
1.457618
  0
VERTEX
  8
PLAN_1
  6
CONTINUOUS
 10
-2.119850
 20
1.453500
  0
VERTEX
  8
PLAN_1
  6
CONTINUOUS
 10
-2.122941
 20
1.447839
  0
VERTEX
  8
PLAN_1
  6
CONTINUOUS
 10
-2.123972
 20
1.444748
  0
VERTEX
  8
PLAN_1
  6
CONTINUOUS
 10
-2.124484
 20
1.441146
  0
VERTEX
  8
PLAN_1
  6
CONTINUOUS
 10
-2.124484
 20
1.437539
  0
VERTEX
  8
PLAN_1
  6
CONTINUOUS
 10
-2.123972
 20
1.433421
  0
VERTEX
  8
PLAN_1
  6
CONTINUOUS
 10
-2.122941
 20
1.429303
  0
VERTEX
  8
PLAN_1
  6
CONTINUOUS
 10
-2.120882
 20
1.424669
  0
VERTEX
  8
PLAN_1
  6
CONTINUOUS
 10
-2.117280
 20
1.420035
  0
VERTEX
  8
PLAN_1
  6
CONTINUOUS
 10
-2.113157
 20
1.415402
  0
SEQEND
  8
0
  0
POLYLINE
  8
PLAN_1
  6
CONTINUOUS
 66
     1
 40
0.006693
 41
0.006693
  0
VERTEX
  8
PLAN_1
  6
CONTINUOUS
 10
-2.113157
 20
1.415402
  0
VERTEX
  8
PLAN_1
  6
CONTINUOUS
 10
-1.830508
 20
1.415402
  0
SEQEND
  8
0
  0
POLYLINE
  8
PLAN_1
  6
CONTINUOUS
 66
     1
 40
0.006693
 41
0.006693
  0
VERTEX
  8
PLAN_1
  6
CONTINUOUS
 10
-1.829992
 20
1.369579
  0
VERTEX
  8
PLAN_1
  6
CONTINUOUS
 10
-1.825358
 20
1.374213
  0
VERTEX
  8
PLAN_1
  6
CONTINUOUS
 10
-1.821752
 20
1.378846
  0
VERTEX
  8
PLAN_1
  6
CONTINUOUS
 10
-1.819181
 20
1.382965
  0
VERTEX
  8
PLAN_1
  6
CONTINUOUS
 10
-1.818150
 20
1.387087
  0
VERTEX
  8
PLAN_1
  6
CONTINUOUS
 10
-1.817118
 20
1.391205
  0
VERTEX
  8
PLAN_1
  6
CONTINUOUS
 10
-1.817634
 20
1.394807
  0
VERTEX
  8
PLAN_1
  6
CONTINUOUS
 10
-1.818150
 20
1.398413
  0
VERTEX
  8
PLAN_1
  6
CONTINUOUS
 10
-1.819181
 20
1.402016
  0
VERTEX
  8
PLAN_1
  6
CONTINUOUS
 10
-1.822783
 20
1.407677
  0
VERTEX
  8
PLAN_1
  6
CONTINUOUS
 10
-1.825874
 20
1.411799
  0
VERTEX
  8
PLAN_1
  6
CONTINUOUS
 10
-1.828961
 20
1.414886
  0
VERTEX
  8
PLAN_1
  6
CONTINUOUS
 10
-1.829992
 20
1.415917
  0
SEQEND
  8
0
  0
POLYLINE
  8
PLAN_1
  6
CONTINUOUS
 66
     1
 40
0.006693
 41
0.006693
  0
VERTEX
  8
PLAN_1
  6
CONTINUOUS
 10
-1.829992
 20
1.415917
  0
VERTEX
  8
PLAN_1
  6
CONTINUOUS
 10
-2.112646
 20
1.415917
  0
SEQEND
  8
0
  0
POLYLINE
  8
PLAN_1
  6
CONTINUOUS
 66
     1
 40
0.006693
 41
0.006693
  0
VERTEX
  8
PLAN_1
  6
CONTINUOUS
 10
-2.112646
 20
1.415917
  0
VERTEX
  8
PLAN_1
  6
CONTINUOUS
 10
-2.113673
 20
1.414886
  0
VERTEX
  8
PLAN_1
  6
CONTINUOUS
 10
-2.116248
 20
1.412311
  0
VERTEX
  8
PLAN_1
  6
CONTINUOUS
 10
-2.119850
 20
1.408193
  0
VERTEX
  8
PLAN_1
  6
CONTINUOUS
 10
-2.122425
 20
1.402531
  0
VERTEX
  8
PLAN_1
  6
CONTINUOUS
 10
-2.123457
 20
1.398925
  0
VERTEX
  8
PLAN_1
  6
CONTINUOUS
 10
-2.123972
 20
1.395839
  0
VERTEX
  8
PLAN_1
  6
CONTINUOUS
 10
-2.123972
 20
1.391720
  0
VERTEX
  8
PLAN_1
  6
CONTINUOUS
 10
-2.123457
 20
1.387598
  0
VERTEX
  8
PLAN_1
  6
CONTINUOUS
 10
-2.122425
 20
1.383480
  0
VERTEX
  8
PLAN_1
  6
CONTINUOUS
 10
-2.120366
 20
1.379362
  0
VERTEX
  8
PLAN_1
  6
CONTINUOUS
 10
-2.117280
 20
1.374728
  0
VERTEX
  8
PLAN_1
  6
CONTINUOUS
 10
-2.112646
 20
1.369579
  0
SEQEND
  8
0
  0
POLYLINE
  8
PLAN_1
  6
CONTINUOUS
 66
     1
 40
0.006693
 41
0.006693
  0
VERTEX
  8
PLAN_1
  6
CONTINUOUS
 10
-2.112646
 20
1.369579
  0
VERTEX
  8
PLAN_1
  6
CONTINUOUS
 10
-1.829992
 20
1.369579
  0
SEQEND
  8
0
  0
POLYLINE
  8
PLAN_1
  6
CONTINUOUS
 66
     1
 40
0.006693
 41
0.006693
  0
VERTEX
  8
PLAN_1
  6
CONTINUOUS
 10
-1.830508
 20
1.324272
  0
VERTEX
  8
PLAN_1
  6
CONTINUOUS
 10
-1.825874
 20
1.328906
  0
VERTEX
  8
PLAN_1
  6
CONTINUOUS
 10
-1.822268
 20
1.333028
  0
VERTEX
  8
PLAN_1
  6
CONTINUOUS
 10
-1.819693
 20
1.337146
  0
VERTEX
  8
PLAN_1
  6
CONTINUOUS
 10
-1.818150
 20
1.341264
  0
VERTEX
  8
PLAN_1
  6
CONTINUOUS
 10
-1.817634
 20
1.345382
  0
VERTEX
  8
PLAN_1
  6
CONTINUOUS
 10
-1.817634
 20
1.349500
  0
VERTEX
  8
PLAN_1
  6
CONTINUOUS
 10
-1.818665
 20
1.353106
  0
VERTEX
  8
PLAN_1
  6
CONTINUOUS
 10
-1.819693
 20
1.356193
  0
VERTEX
  8
PLAN_1
  6
CONTINUOUS
 10
-1.822783
 20
1.361858
  0
VERTEX
  8
PLAN_1
  6
CONTINUOUS
 10
-1.826386
 20
1.366492
  0
VERTEX
  8
PLAN_1
  6
CONTINUOUS
 10
-1.829476
 20
1.369067
  0
VERTEX
  8
PLAN_1
  6
CONTINUOUS
 10
-1.830508
 20
1.370094
  0
SEQEND
  8
0
  0
POLYLINE
  8
PLAN_1
  6
CONTINUOUS
 66
     1
 40
0.006693
 41
0.006693
  0
VERTEX
  8
PLAN_1
  6
CONTINUOUS
 10
-1.830508
 20
1.370094
  0
VERTEX
  8
PLAN_1
  6
CONTINUOUS
 10
-2.113157
 20
1.370094
  0
SEQEND
  8
0
  0
POLYLINE
  8
PLAN_1
  6
CONTINUOUS
 66
     1
 40
0.006693
 41
0.006693
  0
VERTEX
  8
PLAN_1
  6
CONTINUOUS
 10
-2.113157
 20
1.370094
  0
VERTEX
  8
PLAN_1
  6
CONTINUOUS
 10
-2.114189
 20
1.369579
  0
VERTEX
  8
PLAN_1
  6
CONTINUOUS
 10
-2.116764
 20
1.366492
  0
VERTEX
  8
PLAN_1
  6
CONTINUOUS
 10
-2.119850
 20
1.362374
  0
VERTEX
  8
PLAN_1
  6
CONTINUOUS
 10
-2.122941
 20
1.356709
  0
VERTEX
  8
PLAN_1
  6
CONTINUOUS
 10
-2.123972
 20
1.353618
  0
VERTEX
  8
PLAN_1
  6
CONTINUOUS
 10
-2.124484
 20
1.350016
  0
VERTEX
  8
PLAN_1
  6
CONTINUOUS
 10
-2.124484
 20
1.346413
  0
VERTEX
  8
PLAN_1
  6
CONTINUOUS
 10
-2.123972
 20
1.342291
  0
VERTEX
  8
PLAN_1
  6
CONTINUOUS
 10
-2.122941
 20
1.338173
  0
VERTEX
  8
PLAN_1
  6
CONTINUOUS
 10
-2.120882
 20
1.333539
  0
VERTEX
  8
PLAN_1
  6
CONTINUOUS
 10
-2.117280
 20
1.328906
  0
VERTEX
  8
PLAN_1
  6
CONTINUOUS
 10
-2.113157
 20
1.324272
  0
SEQEND
  8
0
  0
POLYLINE
  8
PLAN_1
  6
CONTINUOUS
 66
     1
 40
0.006693
 41
0.006693
  0
VERTEX
  8
PLAN_1
  6
CONTINUOUS
 10
-2.113157
 20
1.324272
  0
VERTEX
  8
PLAN_1
  6
CONTINUOUS
 10
-1.830508
 20
1.324272
  0
SEQEND
  8
0
  0
POLYLINE
  8
PLAN_1
  6
CONTINUOUS
 66
     1
 40
0.006693
 41
0.006693
  0
VERTEX
  8
PLAN_1
  6
CONTINUOUS
 10
-1.829992
 20
1.278965
  0
VERTEX
  8
PLAN_1
  6
CONTINUOUS
 10
-1.825358
 20
1.283087
  0
VERTEX
  8
PLAN_1
  6
CONTINUOUS
 10
-1.821752
 20
1.287720
  0
VERTEX
  8
PLAN_1
  6
CONTINUOUS
 10
-1.819181
 20
1.291839
  0
VERTEX
  8
PLAN_1
  6
CONTINUOUS
 10
-1.818150
 20
1.295957
  0
VERTEX
  8
PLAN_1
  6
CONTINUOUS
 10
-1.817118
 20
1.300075
  0
VERTEX
  8
PLAN_1
  6
CONTINUOUS
 10
-1.817634
 20
1.303681
  0
VERTEX
  8
PLAN_1
  6
CONTINUOUS
 10
-1.818150
 20
1.307283
  0
VERTEX
  8
PLAN_1
  6
CONTINUOUS
 10
-1.819181
 20
1.310886
  0
VERTEX
  8
PLAN_1
  6
CONTINUOUS
 10
-1.822783
 20
1.316551
  0
VERTEX
  8
PLAN_1
  6
CONTINUOUS
 10
-1.825874
 20
1.320669
  0
VERTEX
  8
PLAN_1
  6
CONTINUOUS
 10
-1.828961
 20
1.323760
  0
VERTEX
  8
PLAN_1
  6
CONTINUOUS
 10
-1.829992
 20
1.324787
  0
SEQEND
  8
0
  0
POLYLINE
  8
PLAN_1
  6
CONTINUOUS
 66
     1
 40
0.006693
 41
0.006693
  0
VERTEX
  8
PLAN_1
  6
CONTINUOUS
 10
-1.829992
 20
1.324787
  0
VERTEX
  8
PLAN_1
  6
CONTINUOUS
 10
-2.112646
 20
1.324787
  0
SEQEND
  8
0
  0
POLYLINE
  8
PLAN_1
  6
CONTINUOUS
 66
     1
 40
0.006693
 41
0.006693
  0
VERTEX
  8
PLAN_1
  6
CONTINUOUS
 10
-2.112646
 20
1.324787
  0
VERTEX
  8
PLAN_1
  6
CONTINUOUS
 10
-2.113673
 20
1.323760
  0
VERTEX
  8
PLAN_1
  6
CONTINUOUS
 10
-2.116248
 20
1.321185
  0
VERTEX
  8
PLAN_1
  6
CONTINUOUS
 10
-2.119850
 20
1.317067
  0
VERTEX
  8
PLAN_1
  6
CONTINUOUS
 10
-2.122425
 20
1.311402
  0
VERTEX
  8
PLAN_1
  6
CONTINUOUS
 10
-2.123457
 20
1.307799
  0
VERTEX
  8
PLAN_1
  6
CONTINUOUS
 10
-2.123972
 20
1.304709
  0
VERTEX
  8
PLAN_1
  6
CONTINUOUS
 10
-2.123972
 20
1.300591
  0
VERTEX
  8
PLAN_1
  6
CONTINUOUS
 10
-2.123457
 20
1.296472
  0
VERTEX
  8
PLAN_1
  6
CONTINUOUS
 10
-2.122425
 20
1.292354
  0
VERTEX
  8
PLAN_1
  6
CONTINUOUS
 10
-2.120366
 20
1.288232
  0
VERTEX
  8
PLAN_1
  6
CONTINUOUS
 10
-2.117280
 20
1.283598
  0
VERTEX
  8
PLAN_1
  6
CONTINUOUS
 10
-2.112646
 20
1.278965
  0
SEQEND
  8
0
  0
POLYLINE
  8
PLAN_1
  6
CONTINUOUS
 66
     1
 40
0.006693
 41
0.006693
  0
VERTEX
  8
PLAN_1
  6
CONTINUOUS
 10
-2.112646
 20
1.278965
  0
VERTEX
  8
PLAN_1
  6
CONTINUOUS
 10
-1.829992
 20
1.278965
  0
SEQEND
  8
0
  0
POLYLINE
  8
PLAN_1
  6
CONTINUOUS
 66
     1
 40
0.006693
 41
0.006693
  0
VERTEX
  8
PLAN_1
  6
CONTINUOUS
 10
-1.830508
 20
1.233146
  0
VERTEX
  8
PLAN_1
  6
CONTINUOUS
 10
-1.825874
 20
1.237780
  0
VERTEX
  8
PLAN_1
  6
CONTINUOUS
 10
-1.822268
 20
1.241898
  0
VERTEX
  8
PLAN_1
  6
CONTINUOUS
 10
-1.819693
 20
1.246016
  0
VERTEX
  8
PLAN_1
  6
CONTINUOUS
 10
-1.818150
 20
1.250650
  0
VERTEX
  8
PLAN_1
  6
CONTINUOUS
 10
-1.817634
 20
1.254252
  0
VERTEX
  8
PLAN_1
  6
CONTINUOUS
 10
-1.817634
 20
1.258374
  0
VERTEX
  8
PLAN_1
  6
CONTINUOUS
 10
-1.818665
 20
1.261976
  0
VERTEX
  8
PLAN_1
  6
CONTINUOUS
 10
-1.819693
 20
1.265067
  0
VERTEX
  8
PLAN_1
  6
CONTINUOUS
 10
-1.822783
 20
1.270728
  0
VERTEX
  8
PLAN_1
  6
CONTINUOUS
 10
-1.826386
 20
1.275362
  0
VERTEX
  8
PLAN_1
  6
CONTINUOUS
 10
-1.829476
 20
1.277937
  0
VERTEX
  8
PLAN_1
  6
CONTINUOUS
 10
-1.830508
 20
1.278965
  0
SEQEND
  8
0
  0
POLYLINE
  8
PLAN_1
  6
CONTINUOUS
 66
     1
 40
0.006693
 41
0.006693
  0
VERTEX
  8
PLAN_1
  6
CONTINUOUS
 10
-1.830508
 20
1.278965
  0
VERTEX
  8
PLAN_1
  6
CONTINUOUS
 10
-2.113157
 20
1.278965
  0
SEQEND
  8
0
  0
POLYLINE
  8
PLAN_1
  6
CONTINUOUS
 66
     1
 40
0.006693
 41
0.006693
  0
VERTEX
  8
PLAN_1
  6
CONTINUOUS
 10
-2.113157
 20
1.278965
  0
VERTEX
  8
PLAN_1
  6
CONTINUOUS
 10
-2.114189
 20
1.278453
  0
VERTEX
  8
PLAN_1
  6
CONTINUOUS
 10
-2.116764
 20
1.275362
  0
VERTEX
  8
PLAN_1
  6
CONTINUOUS
 10
-2.119850
 20
1.271244
  0
VERTEX
  8
PLAN_1
  6
CONTINUOUS
 10
-2.122941
 20
1.265579
  0
VERTEX
  8
PLAN_1
  6
CONTINUOUS
 10
-2.123972
 20
1.262492
  0
VERTEX
  8
PLAN_1
  6
CONTINUOUS
 10
-2.124484
 20
1.258886
  0
VERTEX
  8
PLAN_1
  6
CONTINUOUS
 10
-2.124484
 20
1.255283
  0
VERTEX
  8
PLAN_1
  6
CONTINUOUS
 10
-2.123972
 20
1.251165
  0
VERTEX
  8
PLAN_1
  6
CONTINUOUS
 10
-2.122941
 20
1.247047
  0
VERTEX
  8
PLAN_1
  6
CONTINUOUS
 10
-2.120882
 20
1.242413
  0
VERTEX
  8
PLAN_1
  6
CONTINUOUS
 10
-2.117280
 20
1.237780
  0
VERTEX
  8
PLAN_1
  6
CONTINUOUS
 10
-2.113157
 20
1.233146
  0
SEQEND
  8
0
  0
POLYLINE
  8
PLAN_1
  6
CONTINUOUS
 66
     1
 40
0.006693
 41
0.006693
  0
VERTEX
  8
PLAN_1
  6
CONTINUOUS
 10
-2.113157
 20
1.233146
  0
VERTEX
  8
PLAN_1
  6
CONTINUOUS
 10
-1.830508
 20
1.233146
  0
SEQEND
  8
0
  0
POLYLINE
  8
PLAN_1
  6
CONTINUOUS
 66
     1
 40
0.006693
 41
0.006693
  0
VERTEX
  8
PLAN_1
  6
CONTINUOUS
 10
-1.829992
 20
1.187839
  0
VERTEX
  8
PLAN_1
  6
CONTINUOUS
 10
-1.825358
 20
1.191957
  0
VERTEX
  8
PLAN_1
  6
CONTINUOUS
 10
-1.821752
 20
1.196591
  0
VERTEX
  8
PLAN_1
  6
CONTINUOUS
 10
-1.819181
 20
1.200709
  0
VERTEX
  8
PLAN_1
  6
CONTINUOUS
 10
-1.818150
 20
1.204827
  0
VERTEX
  8
PLAN_1
  6
CONTINUOUS
 10
-1.817118
 20
1.208945
  0
VERTEX
  8
PLAN_1
  6
CONTINUOUS
 10
-1.817634
 20
1.212551
  0
VERTEX
  8
PLAN_1
  6
CONTINUOUS
 10
-1.818150
 20
1.216154
  0
VERTEX
  8
PLAN_1
  6
CONTINUOUS
 10
-1.819181
 20
1.219760
  0
VERTEX
  8
PLAN_1
  6
CONTINUOUS
 10
-1.822783
 20
1.225421
  0
VERTEX
  8
PLAN_1
  6
CONTINUOUS
 10
-1.825874
 20
1.229539
  0
VERTEX
  8
PLAN_1
  6
CONTINUOUS
 10
-1.828961
 20
1.232630
  0
VERTEX
  8
PLAN_1
  6
CONTINUOUS
 10
-1.829992
 20
1.233661
  0
SEQEND
  8
0
  0
POLYLINE
  8
PLAN_1
  6
CONTINUOUS
 66
     1
 40
0.006693
 41
0.006693
  0
VERTEX
  8
PLAN_1
  6
CONTINUOUS
 10
-1.829992
 20
1.233661
  0
VERTEX
  8
PLAN_1
  6
CONTINUOUS
 10
-2.112646
 20
1.233661
  0
SEQEND
  8
0
  0
POLYLINE
  8
PLAN_1
  6
CONTINUOUS
 66
     1
 40
0.006693
 41
0.006693
  0
VERTEX
  8
PLAN_1
  6
CONTINUOUS
 10
-2.112646
 20
1.233661
  0
VERTEX
  8
PLAN_1
  6
CONTINUOUS
 10
-2.113673
 20
1.232630
  0
VERTEX
  8
PLAN_1
  6
CONTINUOUS
 10
-2.116248
 20
1.230055
  0
VERTEX
  8
PLAN_1
  6
CONTINUOUS
 10
-2.119850
 20
1.225937
  0
VERTEX
  8
PLAN_1
  6
CONTINUOUS
 10
-2.122425
 20
1.220272
  0
VERTEX
  8
PLAN_1
  6
CONTINUOUS
 10
-2.123457
 20
1.216669
  0
VERTEX
  8
PLAN_1
  6
CONTINUOUS
 10
-2.123972
 20
1.213579
  0
VERTEX
  8
PLAN_1
  6
CONTINUOUS
 10
-2.123972
 20
1.209461
  0
VERTEX
  8
PLAN_1
  6
CONTINUOUS
 10
-2.123457
 20
1.205343
  0
VERTEX
  8
PLAN_1
  6
CONTINUOUS
 10
-2.122425
 20
1.201224
  0
VERTEX
  8
PLAN_1
  6
CONTINUOUS
 10
-2.120366
 20
1.197106
  0
VERTEX
  8
PLAN_1
  6
CONTINUOUS
 10
-2.117280
 20
1.192472
  0
VERTEX
  8
PLAN_1
  6
CONTINUOUS
 10
-2.112646
 20
1.187839
  0
SEQEND
  8
0
  0
POLYLINE
  8
PLAN_1
  6
CONTINUOUS
 66
     1
 40
0.006693
 41
0.006693
  0
VERTEX
  8
PLAN_1
  6
CONTINUOUS
 10
-2.112646
 20
1.187839
  0
VERTEX
  8
PLAN_1
  6
CONTINUOUS
 10
-1.829992
 20
1.187839
  0
SEQEND
  8
0
  0
POLYLINE
  8
PLAN_1
  6
CONTINUOUS
 66
     1
 40
0.008236
 41
0.008236
  0
VERTEX
  8
PLAN_1
  6
CONTINUOUS
 10
-2.026150
 20
2.952744
  0
VERTEX
  8
PLAN_1
  6
CONTINUOUS
 10
-2.026150
 20
2.193343
  0
VERTEX
  8
PLAN_1
  6
CONTINUOUS
 10
-1.910307
 20
2.193343
  0
VERTEX
  8
PLAN_1
  6
CONTINUOUS
 10
-1.910307
 20
3.019677
  0
SEQEND
  8
0
  0
POLYLINE
  8
PLAN_1
  6
CONTINUOUS
 66
     1
 40
0.008236
 41
0.008236
  0
VERTEX
  8
PLAN_1
  6
CONTINUOUS
 10
-1.910307
 20
3.150449
  0
VERTEX
  8
PLAN_1
  6
CONTINUOUS
 10
-1.910307
 20
3.868150
  0
VERTEX
  8
PLAN_1
  6
CONTINUOUS
 10
-2.026150
 20
3.868150
  0
VERTEX
  8
PLAN_1
  6
CONTINUOUS
 10
-2.026150
 20
3.080941
  0
SEQEND
  8
0
  0
POLYLINE
  8
PLAN_1
  6
CONTINUOUS
 66
     1
 40
0.008236
 41
0.008236
  0
VERTEX
  8
PLAN_1
  6
CONTINUOUS
 10
-2.121909
 20
2.154213
  0
VERTEX
  8
PLAN_1
  6
CONTINUOUS
 10
-2.082783
 20
2.193343
  0
VERTEX
  8
PLAN_1
  6
CONTINUOUS
 10
-1.862941
 20
2.193343
  0
VERTEX
  8
PLAN_1
  6
CONTINUOUS
 10
-1.823811
 20
2.154213
  0
VERTEX
  8
PLAN_1
  6
CONTINUOUS
 10
-1.823811
 20
1.827283
  0
VERTEX
  8
PLAN_1
  6
CONTINUOUS
 10
-2.123457
 20
1.827283
  0
VERTEX
  8
PLAN_1
  6
CONTINUOUS
 10
-2.123457
 20
2.154213
  0
VERTEX
  8
PLAN_1
  6
CONTINUOUS
 10
-2.121909
 20
2.154213
  0
SEQEND
  8
0
  0
POLYLINE
  8
PLAN_1
  6
CONTINUOUS
 66
     1
 40
0.004118
 41
0.004118
  0
VERTEX
  8
PLAN_1
  6
CONTINUOUS
 10
-2.058071
 20
0.154531
  0
VERTEX
  8
PLAN_1
  6
CONTINUOUS
 10
-2.058071
 20
-0.091051
  0
SEQEND
  8
0
  0
POLYLINE
  8
PLAN_1
  6
CONTINUOUS
 66
     1
 40
0.004118
 41
0.004118
  0
VERTEX
  8
PLAN_1
  6
CONTINUOUS
 10
-2.066823
 20
-0.081783
  0
VERTEX
  8
PLAN_1
  6
CONTINUOUS
 10
-1.953039
 20
-0.081783
  0
SEQEND
  8
0
  0
POLYLINE
  8
PLAN_1
  6
CONTINUOUS
 66
     1
 40
0.004118
 41
0.004118
  0
VERTEX
  8
PLAN_1
  6
CONTINUOUS
 10
-2.067339
 20
0.144236
  0
VERTEX
  8
PLAN_1
  6
CONTINUOUS
 10
-1.953039
 20
0.144236
  0
SEQEND
  8
0
  0
POLYLINE
  8
PLAN_1
  6
CONTINUOUS
 66
     1
 40
0.004118
 41
0.004118
  0
VERTEX
  8
PLAN_1
  6
CONTINUOUS
 10
-1.935020
 20
0.138571
  0
VERTEX
  8
PLAN_1
  6
CONTINUOUS
 10
-1.853157
 20
0.138571
  0
SEQEND
  8
0
  0
POLYLINE
  8
PLAN_1
  6
CONTINUOUS
 66
     1
 40
0.004118
 41
0.004118
  0
VERTEX
  8
PLAN_1
  6
CONTINUOUS
 10
-1.935020
 20
-0.073031
  0
VERTEX
  8
PLAN_1
  6
CONTINUOUS
 10
-1.853157
 20
-0.073031
  0
SEQEND
  8
0
  0
POLYLINE
  8
PLAN_1
  6
CONTINUOUS
 66
     1
 40
0.006693
 41
0.006693
  0
VERTEX
  8
PLAN_1
  6
CONTINUOUS
 10
-2.123457
 20
2.154213
  0
VERTEX
  8
PLAN_1
  6
CONTINUOUS
 10
-1.823811
 20
2.154213
  0
SEQEND
  8
0
  0
POLYLINE
  8
PLAN_1
  6
CONTINUOUS
 66
     1
 40
0.004118
 41
0.004118
  0
VERTEX
  8
PLAN_1
  6
CONTINUOUS
 10
-2.112646
 20
3.036150
  0
VERTEX
  8
PLAN_1
  6
CONTINUOUS
 10
-1.792406
 20
3.225102
  0
SEQEND
  8
0
  0
POLYLINE
  8
PLAN_1
  6
CONTINUOUS
 66
     1
 40
0.004118
 41
0.004118
  0
VERTEX
  8
PLAN_1
  6
CONTINUOUS
 10
-2.111614
 20
2.906409
  0
VERTEX
  8
PLAN_1
  6
CONTINUOUS
 10
-1.788803
 20
3.095358
  0
SEQEND
  8
0
  0
POLYLINE
  8
PLAN_1
  6
CONTINUOUS
 66
     1
 40
0.008236
 41
0.008236
  0
VERTEX
  8
PLAN_1
  6
CONTINUOUS
 10
-1.288882
 20
-0.354138
  0
VERTEX
  8
PLAN_1
  6
CONTINUOUS
 10
-1.288882
 20
0.444394
  0
VERTEX
  8
PLAN_1
  6
CONTINUOUS
 10
-1.191575
 20
0.444394
  0
VERTEX
  8
PLAN_1
  6
CONTINUOUS
 10
-1.191575
 20
-0.354138
  0
VERTEX
  8
PLAN_1
  6
CONTINUOUS
 10
-1.288882
 20
-0.354138
  0
SEQEND
  8
0
  0
POLYLINE
  8
PLAN_1
  6
CONTINUOUS
 66
     1
 40
0.004118
 41
0.004118
  0
VERTEX
  8
PLAN_1
  6
CONTINUOUS
 10
0.017291
 20
-0.777346
  0
VERTEX
  8
PLAN_1
  6
CONTINUOUS
 10
0.194917
 20
-0.777346
  0
SEQEND
  8
0
  0
POLYLINE
  8
PLAN_1
 62
     2
  6
CONTINUOUS
 66
     1
 40
0.004118
 41
0.004118
  0
VERTEX
  8
PLAN_1
 62
     2
  6
CONTINUOUS
 10
-2.333000
 20
4.026209
  0
VERTEX
  8
PLAN_1
 62
     2
  6
CONTINUOUS
 10
0.068776
 20
4.026209
  0
SEQEND
  8
0
  0
SOLID
  8
PLAN_1
 62
     2
 10
0.119232
 20
4.026209
 11
0.060024
 21
4.042169
 12
0.119232
 22
4.026209
 13
0.060024
 23
4.010764
  0
POLYLINE
  8
PLAN_1
 62
     2
  6
CONTINUOUS
 66
     1
 40
0.003000
 41
0.003000
  0
VERTEX
  8
PLAN_1
 62
     2
  6
CONTINUOUS
 10
0.119232
 20
4.026209
  0
VERTEX
  8
PLAN_1
 62
     2
  6
CONTINUOUS
 10
0.060024
 20
4.042169
  0
VERTEX
  8
PLAN_1
 62
     2
  6
CONTINUOUS
 10
0.060024
 20
4.010764
  0
VERTEX
  8
PLAN_1
 62
     2
  6
CONTINUOUS
 10
0.119232
 20
4.026209
  0
SEQEND
  8
0
  0
SOLID
  8
PLAN_1
 62
     2
 10
-2.144051
 20
4.026209
 11
-2.202744
 21
4.042169
 12
-2.144051
 22
4.026209
 13
-2.202744
 23
4.010764
  0
POLYLINE
  8
PLAN_1
 62
     2
  6
CONTINUOUS
 66
     1
 40
0.003000
 41
0.003000
  0
VERTEX
  8
PLAN_1
 62
     2
  6
CONTINUOUS
 10
-2.144051
 20
4.026209
  0
VERTEX
  8
PLAN_1
 62
     2
  6
CONTINUOUS
 10
-2.202744
 20
4.042169
  0
VERTEX
  8
PLAN_1
 62
     2
  6
CONTINUOUS
 10
-2.202744
 20
4.010764
  0
VERTEX
  8
PLAN_1
 62
     2
  6
CONTINUOUS
 10
-2.144051
 20
4.026209
  0
SEQEND
  8
0
  0
SOLID
  8
PLAN_1
 62
     2
 10
-1.970031
 20
4.026209
 11
-1.910823
 21
4.042169
 12
-1.970031
 22
4.026209
 13
-1.910823
 23
4.010764
  0
POLYLINE
  8
PLAN_1
 62
     2
  6
CONTINUOUS
 66
     1
 40
0.003000
 41
0.003000
  0
VERTEX
  8
PLAN_1
 62
     2
  6
CONTINUOUS
 10
-1.970031
 20
4.026209
  0
VERTEX
  8
PLAN_1
 62
     2
  6
CONTINUOUS
 10
-1.910823
 20
4.042169
  0
VERTEX
  8
PLAN_1
 62
     2
  6
CONTINUOUS
 10
-1.910823
 20
4.010764
  0
VERTEX
  8
PLAN_1
 62
     2
  6
CONTINUOUS
 10
-1.970031
 20
4.026209
  0
SEQEND
  8
0
  0
POLYLINE
  8
PLAN_1
 62
     2
  6
CONTINUOUS
 66
     1
 40
0.003000
 41
0.003000
  0
VERTEX
  8
PLAN_1
 62
     2
  6
CONTINUOUS
 10
-0.980488
 20
4.092622
  0
VERTEX
  8
PLAN_1
 62
     2
  6
CONTINUOUS
 10
-0.978945
 20
4.093138
  0
VERTEX
  8
PLAN_1
 62
     2
  6
CONTINUOUS
 10
-0.977913
 20
4.094169
  0
VERTEX
  8
PLAN_1
 62
     2
  6
CONTINUOUS
 10
-0.976370
 20
4.094685
  0
VERTEX
  8
PLAN_1
 62
     2
  6
CONTINUOUS
 10
-0.974311
 20
4.095713
  0
VERTEX
  8
PLAN_1
 62
     2
  6
CONTINUOUS
 10
-0.972764
 20
4.096228
  0
VERTEX
  8
PLAN_1
 62
     2
  6
CONTINUOUS
 10
-0.970705
 20
4.096744
  0
VERTEX
  8
PLAN_1
 62
     2
  6
CONTINUOUS
 10
-0.968646
 20
4.096744
  0
VERTEX
  8
PLAN_1
 62
     2
  6
CONTINUOUS
 10
-0.966071
 20
4.096744
  0
VERTEX
  8
PLAN_1
 62
     2
  6
CONTINUOUS
 10
-0.961953
 20
4.096744
  0
VERTEX
  8
PLAN_1
 62
     2
  6
CONTINUOUS
 10
-0.957319
 20
4.095713
  0
VERTEX
  8
PLAN_1
 62
     2
  6
CONTINUOUS
 10
-0.953201
 20
4.093654
  0
VERTEX
  8
PLAN_1
 62
     2
  6
CONTINUOUS
 10
-0.949598
 20
4.091079
  0
VERTEX
  8
PLAN_1
 62
     2
  6
CONTINUOUS
 10
-0.946508
 20
4.087476
  0
VERTEX
  8
PLAN_1
 62
     2
  6
CONTINUOUS
 10
-0.944449
 20
4.083870
  0
VERTEX
  8
PLAN_1
 62
     2
  6
CONTINUOUS
 10
-0.943417
 20
4.081295
  0
VERTEX
  8
PLAN_1
 62
     2
  6
CONTINUOUS
 10
-0.942906
 20
4.078724
  0
VERTEX
  8
PLAN_1
 62
     2
  6
CONTINUOUS
 10
-0.942390
 20
4.076150
  0
VERTEX
  8
PLAN_1
 62
     2
  6
CONTINUOUS
 10
-0.941874
 20
4.073575
  0
VERTEX
  8
PLAN_1
 62
     2
  6
CONTINUOUS
 10
-0.942390
 20
4.069969
  0
VERTEX
  8
PLAN_1
 62
     2
  6
CONTINUOUS
 10
-0.942906
 20
4.066366
  0
VERTEX
  8
PLAN_1
 62
     2
  6
CONTINUOUS
 10
-0.944449
 20
4.061732
  0
VERTEX
  8
PLAN_1
 62
     2
  6
CONTINUOUS
 10
-0.947024
 20
4.057614
  0
VERTEX
  8
PLAN_1
 62
     2
  6
CONTINUOUS
 10
-0.948567
 20
4.055555
  0
VERTEX
  8
PLAN_1
 62
     2
  6
CONTINUOUS
 10
-0.950110
 20
4.054012
  0
VERTEX
  8
PLAN_1
 62
     2
  6
CONTINUOUS
 10
-0.952169
 20
4.052465
  0
VERTEX
  8
PLAN_1
 62
     2
  6
CONTINUOUS
 10
-0.954744
 20
4.050921
  0
VERTEX
  8
PLAN_1
 62
     2
  6
CONTINUOUS
 10
-0.957835
 20
4.049378
  0
VERTEX
  8
PLAN_1
 62
     2
  6
CONTINUOUS
 10
-0.960925
 20
4.048862
  0
VERTEX
  8
PLAN_1
 62
     2
  6
CONTINUOUS
 10
-0.964528
 20
4.048346
  0
VERTEX
  8
PLAN_1
 62
     2
  6
CONTINUOUS
 10
-0.968646
 20
4.047831
  0
VERTEX
  8
PLAN_1
 62
     2
  6
CONTINUOUS
 10
-0.972252
 20
4.048346
  0
VERTEX
  8
PLAN_1
 62
     2
  6
CONTINUOUS
 10
-0.976370
 20
4.048862
  0
VERTEX
  8
PLAN_1
 62
     2
  6
CONTINUOUS
 10
-0.979972
 20
4.049890
  0
VERTEX
  8
PLAN_1
 62
     2
  6
CONTINUOUS
 10
-0.983579
 20
4.051949
  0
VERTEX
  8
PLAN_1
 62
     2
  6
CONTINUOUS
 10
-0.986665
 20
4.054524
  0
VERTEX
  8
PLAN_1
 62
     2
  6
CONTINUOUS
 10
-0.989240
 20
4.058130
  0
VERTEX
  8
PLAN_1
 62
     2
  6
CONTINUOUS
 10
-0.990272
 20
4.060189
  0
VERTEX
  8
PLAN_1
 62
     2
  6
CONTINUOUS
 10
-0.991299
 20
4.062764
  0
VERTEX
  8
PLAN_1
 62
     2
  6
CONTINUOUS
 10
-0.991815
 20
4.065339
  0
VERTEX
  8
PLAN_1
 62
     2
  6
CONTINUOUS
 10
-0.992331
 20
4.067909
  0
VERTEX
  8
PLAN_1
 62
     2
  6
CONTINUOUS
 10
-0.982547
 20
4.067909
  0
VERTEX
  8
PLAN_1
 62
     2
  6
CONTINUOUS
 10
-0.982031
 20
4.065339
  0
VERTEX
  8
PLAN_1
 62
     2
  6
CONTINUOUS
 10
-0.981004
 20
4.062764
  0
VERTEX
  8
PLAN_1
 62
     2
  6
CONTINUOUS
 10
-0.979457
 20
4.060189
  0
VERTEX
  8
PLAN_1
 62
     2
  6
CONTINUOUS
 10
-0.977913
 20
4.058646
  0
VERTEX
  8
PLAN_1
 62
     2
  6
CONTINUOUS
 10
-0.975339
 20
4.057614
  0
VERTEX
  8
PLAN_1
 62
     2
  6
CONTINUOUS
 10
-0.973280
 20
4.056583
  0
VERTEX
  8
PLAN_1
 62
     2
  6
CONTINUOUS
 10
-0.970193
 20
4.056071
  0
VERTEX
  8
PLAN_1
 62
     2
  6
CONTINUOUS
 10
-0.967102
 20
4.055555
  0
VERTEX
  8
PLAN_1
 62
     2
  6
CONTINUOUS
 10
-0.964012
 20
4.056071
  0
VERTEX
  8
PLAN_1
 62
     2
  6
CONTINUOUS
 10
-0.960925
 20
4.057098
  0
VERTEX
  8
PLAN_1
 62
     2
  6
CONTINUOUS
 10
-0.958350
 20
4.058646
  0
VERTEX
  8
PLAN_1
 62
     2
  6
CONTINUOUS
 10
-0.956291
 20
4.060705
  0
VERTEX
  8
PLAN_1
 62
     2
  6
CONTINUOUS
 10
-0.954232
 20
4.063276
  0
VERTEX
  8
PLAN_1
 62
     2
  6
CONTINUOUS
 10
-0.953201
 20
4.065850
  0
VERTEX
  8
PLAN_1
 62
     2
  6
CONTINUOUS
 10
-0.952169
 20
4.069457
  0
VERTEX
  8
PLAN_1
 62
     2
  6
CONTINUOUS
 10
-0.951657
 20
4.072543
  0
VERTEX
  8
PLAN_1
 62
     2
  6
CONTINUOUS
 10
-0.952169
 20
4.076150
  0
VERTEX
  8
PLAN_1
 62
     2
  6
CONTINUOUS
 10
-0.953201
 20
4.079752
  0
VERTEX
  8
PLAN_1
 62
     2
  6
CONTINUOUS
 10
-0.954744
 20
4.082327
  0
VERTEX
  8
PLAN_1
 62
     2
  6
CONTINUOUS
 10
-0.956803
 20
4.084386
  0
VERTEX
  8
PLAN_1
 62
     2
  6
CONTINUOUS
 10
-0.958866
 20
4.086445
  0
VERTEX
  8
PLAN_1
 62
     2
  6
CONTINUOUS
 10
-0.961953
 20
4.087476
  0
VERTEX
  8
PLAN_1
 62
     2
  6
CONTINUOUS
 10
-0.965043
 20
4.088504
  0
VERTEX
  8
PLAN_1
 62
     2
  6
CONTINUOUS
 10
-0.968130
 20
4.089020
  0
VERTEX
  8
PLAN_1
 62
     2
  6
CONTINUOUS
 10
-0.970193
 20
4.088504
  0
VERTEX
  8
PLAN_1
 62
     2
  6
CONTINUOUS
 10
-0.971736
 20
4.088504
  0
VERTEX
  8
PLAN_1
 62
     2
  6
CONTINUOUS
 10
-0.973795
 20
4.087992
  0
VERTEX
  8
PLAN_1
 62
     2
  6
CONTINUOUS
 10
-0.975339
 20
4.086961
  0
VERTEX
  8
PLAN_1
 62
     2
  6
CONTINUOUS
 10
-0.977398
 20
4.085929
  0
VERTEX
  8
PLAN_1
 62
     2
  6
CONTINUOUS
 10
-0.978945
 20
4.084902
  0
VERTEX
  8
PLAN_1
 62
     2
  6
CONTINUOUS
 10
-0.980488
 20
4.083358
  0
VERTEX
  8
PLAN_1
 62
     2
  6
CONTINUOUS
 10
-0.981520
 20
4.081811
  0
VERTEX
  8
PLAN_1
 62
     2
  6
CONTINUOUS
 10
-0.989756
 20
4.082327
  0
VERTEX
  8
PLAN_1
 62
     2
  6
CONTINUOUS
 10
-0.984091
 20
4.121457
  0
VERTEX
  8
PLAN_1
 62
     2
  6
CONTINUOUS
 10
-0.945992
 20
4.121457
  0
VERTEX
  8
PLAN_1
 62
     2
  6
CONTINUOUS
 10
-0.945992
 20
4.112705
  0
VERTEX
  8
PLAN_1
 62
     2
  6
CONTINUOUS
 10
-0.977398
 20
4.112705
  0
VERTEX
  8
PLAN_1
 62
     2
  6
CONTINUOUS
 10
-0.980488
 20
4.092622
  0
SEQEND
  8
0
  0
POLYLINE
  8
PLAN_1
 62
     2
  6
CONTINUOUS
 66
     1
 40
0.003000
 41
0.003000
  0
VERTEX
  8
PLAN_1
 62
     2
  6
CONTINUOUS
 10
-0.914587
 20
4.091594
  0
VERTEX
  8
PLAN_1
 62
     2
  6
CONTINUOUS
 10
-0.913559
 20
4.091594
  0
VERTEX
  8
PLAN_1
 62
     2
  6
CONTINUOUS
 10
-0.913043
 20
4.091594
  0
VERTEX
  8
PLAN_1
 62
     2
  6
CONTINUOUS
 10
-0.912528
 20
4.091594
  0
VERTEX
  8
PLAN_1
 62
     2
  6
CONTINUOUS
 10
-0.912012
 20
4.091594
  0
VERTEX
  8
PLAN_1
 62
     2
  6
CONTINUOUS
 10
-0.911500
 20
4.091079
  0
VERTEX
  8
PLAN_1
 62
     2
  6
CONTINUOUS
 10
-0.910984
 20
4.091079
  0
VERTEX
  8
PLAN_1
 62
     2
  6
CONTINUOUS
 10
-0.909953
 20
4.091079
  0
VERTEX
  8
PLAN_1
 62
     2
  6
CONTINUOUS
 10
-0.909437
 20
4.091079
  0
VERTEX
  8
PLAN_1
 62
     2
  6
CONTINUOUS
 10
-0.906866
 20
4.091594
  0
VERTEX
  8
PLAN_1
 62
     2
  6
CONTINUOUS
 10
-0.904291
 20
4.092110
  0
VERTEX
  8
PLAN_1
 62
     2
  6
CONTINUOUS
 10
-0.902232
 20
4.092622
  0
VERTEX
  8
PLAN_1
 62
     2
  6
CONTINUOUS
 10
-0.900173
 20
4.093654
  0
VERTEX
  8
PLAN_1
 62
     2
  6
CONTINUOUS
 10
-0.898110
 20
4.095197
  0
VERTEX
  8
PLAN_1
 62
     2
  6
CONTINUOUS
 10
-0.897083
 20
4.097256
  0
VERTEX
  8
PLAN_1
 62
     2
  6
CONTINUOUS
 10
-0.896051
 20
4.100346
  0
VERTEX
  8
PLAN_1
 62
     2
  6
CONTINUOUS
 10
-0.895539
 20
4.103437
  0
VERTEX
  8
PLAN_1
 62
     2
  6
CONTINUOUS
 10
-0.896051
 20
4.104980
  0
VERTEX
  8
PLAN_1
 62
     2
  6
CONTINUOUS
 10
-0.896051
 20
4.107039
  0
VERTEX
  8
PLAN_1
 62
     2
  6
CONTINUOUS
 10
-0.897083
 20
4.108583
  0
VERTEX
  8
PLAN_1
 62
     2
  6
CONTINUOUS
 10
-0.898110
 20
4.110642
  0
VERTEX
  8
PLAN_1
 62
     2
  6
CONTINUOUS
 10
-0.900173
 20
4.112189
  0
VERTEX
  8
PLAN_1
 62
     2
  6
CONTINUOUS
 10
-0.902232
 20
4.113732
  0
VERTEX
  8
PLAN_1
 62
     2
  6
CONTINUOUS
 10
-0.905319
 20
4.114248
  0
VERTEX
  8
PLAN_1
 62
     2
  6
CONTINUOUS
 10
-0.909437
 20
4.114764
  0
VERTEX
  8
PLAN_1
 62
     2
  6
CONTINUOUS
 10
-0.913559
 20
4.114248
  0
VERTEX
  8
PLAN_1
 62
     2
  6
CONTINUOUS
 10
-0.916646
 20
4.113217
  0
VERTEX
  8
PLAN_1
 62
     2
  6
CONTINUOUS
 10
-0.919220
 20
4.111157
  0
VERTEX
  8
PLAN_1
 62
     2
  6
CONTINUOUS
 10
-0.921280
 20
4.109098
  0
VERTEX
  8
PLAN_1
 62
     2
  6
CONTINUOUS
 10
-0.922311
 20
4.106524
  0
VERTEX
  8
PLAN_1
 62
     2
  6
CONTINUOUS
 10
-0.922823
 20
4.103437
  0
VERTEX
  8
PLAN_1
 62
     2
  6
CONTINUOUS
 10
-0.923339
 20
4.101378
  0
VERTEX
  8
PLAN_1
 62
     2
  6
CONTINUOUS
 10
-0.923339
 20
4.099315
  0
VERTEX
  8
PLAN_1
 62
     2
  6
CONTINUOUS
 10
-0.932606
 20
4.099315
  0
VERTEX
  8
PLAN_1
 62
     2
  6
CONTINUOUS
 10
-0.932091
 20
4.102921
  0
VERTEX
  8
PLAN_1
 62
     2
  6
CONTINUOUS
 10
-0.931579
 20
4.107555
  0
VERTEX
  8
PLAN_1
 62
     2
  6
CONTINUOUS
 10
-0.930031
 20
4.111157
  0
VERTEX
  8
PLAN_1
 62
     2
  6
CONTINUOUS
 10
-0.927972
 20
4.115276
  0
VERTEX
  8
PLAN_1
 62
     2
  6
CONTINUOUS
 10
-0.926429
 20
4.116823
  0
VERTEX
  8
PLAN_1
 62
     2
  6
CONTINUOUS
 10
-0.924886
 20
4.118366
  0
VERTEX
  8
PLAN_1
 62
     2
  6
CONTINUOUS
 10
-0.922823
 20
4.119398
  0
VERTEX
  8
PLAN_1
 62
     2
  6
CONTINUOUS
 10
-0.920764
 20
4.120941
  0
VERTEX
  8
PLAN_1
 62
     2
  6
CONTINUOUS
 10
-0.918193
 20
4.121457
  0
VERTEX
  8
PLAN_1
 62
     2
  6
CONTINUOUS
 10
-0.915102
 20
4.122484
  0
VERTEX
  8
PLAN_1
 62
     2
  6
CONTINUOUS
 10
-0.912012
 20
4.123000
  0
VERTEX
  8
PLAN_1
 62
     2
  6
CONTINUOUS
 10
-0.908925
 20
4.123000
  0
VERTEX
  8
PLAN_1
 62
     2
  6
CONTINUOUS
 10
-0.903776
 20
4.122484
  0
VERTEX
  8
PLAN_1
 62
     2
  6
CONTINUOUS
 10
-0.899142
 20
4.121457
  0
VERTEX
  8
PLAN_1
 62
     2
  6
CONTINUOUS
 10
-0.895539
 20
4.119909
  0
VERTEX
  8
PLAN_1
 62
     2
  6
CONTINUOUS
 10
-0.891933
 20
4.117339
  0
VERTEX
  8
PLAN_1
 62
     2
  6
CONTINUOUS
 10
-0.889874
 20
4.114764
  0
VERTEX
  8
PLAN_1
 62
     2
  6
CONTINUOUS
 10
-0.887815
 20
4.111673
  0
VERTEX
  8
PLAN_1
 62
     2
  6
CONTINUOUS
 10
-0.886783
 20
4.107555
  0
VERTEX
  8
PLAN_1
 62
     2
  6
CONTINUOUS
 10
-0.886272
 20
4.103949
  0
VERTEX
  8
PLAN_1
 62
     2
  6
CONTINUOUS
 10
-0.886272
 20
4.100346
  0
VERTEX
  8
PLAN_1
 62
     2
  6
CONTINUOUS
 10
-0.887299
 20
4.097772
  0
VERTEX
  8
PLAN_1
 62
     2
  6
CONTINUOUS
 10
-0.888331
 20
4.095197
  0
VERTEX
  8
PLAN_1
 62
     2
  6
CONTINUOUS
 10
-0.889358
 20
4.093138
  0
VERTEX
  8
PLAN_1
 62
     2
  6
CONTINUOUS
 10
-0.890906
 20
4.091594
  0
VERTEX
  8
PLAN_1
 62
     2
  6
CONTINUOUS
 10
-0.892449
 20
4.090051
  0
VERTEX
  8
PLAN_1
 62
     2
  6
CONTINUOUS
 10
-0.893992
 20
4.089535
  0
VERTEX
  8
PLAN_1
 62
     2
  6
CONTINUOUS
 10
-0.895539
 20
4.088504
  0
VERTEX
  8
PLAN_1
 62
     2
  6
CONTINUOUS
 10
-0.892965
 20
4.087476
  0
VERTEX
  8
PLAN_1
 62
     2
  6
CONTINUOUS
 10
-0.890906
 20
4.086445
  0
VERTEX
  8
PLAN_1
 62
     2
  6
CONTINUOUS
 10
-0.888846
 20
4.084386
  0
VERTEX
  8
PLAN_1
 62
     2
  6
CONTINUOUS
 10
-0.886783
 20
4.082843
  0
VERTEX
  8
PLAN_1
 62
     2
  6
CONTINUOUS
 10
-0.885240
 20
4.080268
  0
VERTEX
  8
PLAN_1
 62
     2
  6
CONTINUOUS
 10
-0.884213
 20
4.077693
  0
VERTEX
  8
PLAN_1
 62
     2
  6
CONTINUOUS
 10
-0.883697
 20
4.074602
  0
VERTEX
  8
PLAN_1
 62
     2
  6
CONTINUOUS
 10
-0.883181
 20
4.071516
  0
VERTEX
  8
PLAN_1
 62
     2
  6
CONTINUOUS
 10
-0.883697
 20
4.066882
  0
VERTEX
  8
PLAN_1
 62
     2
  6
CONTINUOUS
 10
-0.884724
 20
4.062764
  0
VERTEX
  8
PLAN_1
 62
     2
  6
CONTINUOUS
 10
-0.886783
 20
4.058646
  0
VERTEX
  8
PLAN_1
 62
     2
  6
CONTINUOUS
 10
-0.889358
 20
4.055039
  0
VERTEX
  8
PLAN_1
 62
     2
  6
CONTINUOUS
 10
-0.891417
 20
4.053496
  0
VERTEX
  8
PLAN_1
 62
     2
  6
CONTINUOUS
 10
-0.892965
 20
4.051949
  0
VERTEX
  8
PLAN_1
 62
     2
  6
CONTINUOUS
 10
-0.895539
 20
4.050921
  0
VERTEX
  8
PLAN_1
 62
     2
  6
CONTINUOUS
 10
-0.897598
 20
4.049890
  0
VERTEX
  8
PLAN_1
 62
     2
  6
CONTINUOUS
 10
-0.900173
 20
4.048862
  0
VERTEX
  8
PLAN_1
 62
     2
  6
CONTINUOUS
 10
-0.903260
 20
4.048346
  0
VERTEX
  8
PLAN_1
 62
     2
  6
CONTINUOUS
 10
-0.906350
 20
4.047831
  0
VERTEX
  8
PLAN_1
 62
     2
  6
CONTINUOUS
 10
-0.909953
 20
4.047831
  0
VERTEX
  8
PLAN_1
 62
     2
  6
CONTINUOUS
 10
-0.911500
 20
4.047831
  0
VERTEX
  8
PLAN_1
 62
     2
  6
CONTINUOUS
 10
-0.913559
 20
4.048346
  0
VERTEX
  8
PLAN_1
 62
     2
  6
CONTINUOUS
 10
-0.915618
 20
4.048346
  0
VERTEX
  8
PLAN_1
 62
     2
  6
CONTINUOUS
 10
-0.917161
 20
4.048862
  0
VERTEX
  8
PLAN_1
 62
     2
  6
CONTINUOUS
 10
-0.918705
 20
4.049378
  0
VERTEX
  8
PLAN_1
 62
     2
  6
CONTINUOUS
 10
-0.920252
 20
4.049890
  0
VERTEX
  8
PLAN_1
 62
     2
  6
CONTINUOUS
 10
-0.921795
 20
4.050406
  0
VERTEX
  8
PLAN_1
 62
     2
  6
CONTINUOUS
 10
-0.923339
 20
4.050921
  0
VERTEX
  8
PLAN_1
 62
     2
  6
CONTINUOUS
 10
-0.925913
 20
4.052980
  0
VERTEX
  8
PLAN_1
 62
     2
  6
CONTINUOUS
 10
-0.928488
 20
4.055039
  0
VERTEX
  8
PLAN_1
 62
     2
  6
CONTINUOUS
 10
-0.930031
 20
4.057614
  0
VERTEX
  8
PLAN_1
 62
     2
  6
CONTINUOUS
 10
-0.931579
 20
4.060189
  0
VERTEX
  8
PLAN_1
 62
     2
  6
CONTINUOUS
 10
-0.932606
 20
4.062764
  0
VERTEX
  8
PLAN_1
 62
     2
  6
CONTINUOUS
 10
-0.933122
 20
4.065850
  0
VERTEX
  8
PLAN_1
 62
     2
  6
CONTINUOUS
 10
-0.933638
 20
4.068941
  0
VERTEX
  8
PLAN_1
 62
     2
  6
CONTINUOUS
 10
-0.934150
 20
4.072031
  0
VERTEX
  8
PLAN_1
 62
     2
  6
CONTINUOUS
 10
-0.924886
 20
4.072031
  0
VERTEX
  8
PLAN_1
 62
     2
  6
CONTINUOUS
 10
-0.924370
 20
4.069457
  0
VERTEX
  8
PLAN_1
 62
     2
  6
CONTINUOUS
 10
-0.923854
 20
4.066882
  0
VERTEX
  8
PLAN_1
 62
     2
  6
CONTINUOUS
 10
-0.923339
 20
4.064307
  0
VERTEX
  8
PLAN_1
 62
     2
  6
CONTINUOUS
 10
-0.921795
 20
4.061732
  0
VERTEX
  8
PLAN_1
 62
     2
  6
CONTINUOUS
 10
-0.919736
 20
4.059157
  0
VERTEX
  8
PLAN_1
 62
     2
  6
CONTINUOUS
 10
-0.917161
 20
4.057614
  0
VERTEX
  8
PLAN_1
 62
     2
  6
CONTINUOUS
 10
-0.913559
 20
4.056583
  0
VERTEX
  8
PLAN_1
 62
     2
  6
CONTINUOUS
 10
-0.908925
 20
4.056071
  0
VERTEX
  8
PLAN_1
 62
     2
  6
CONTINUOUS
 10
-0.905835
 20
4.056583
  0
VERTEX
  8
PLAN_1
 62
     2
  6
CONTINUOUS
 10
-0.902744
 20
4.057098
  0
VERTEX
  8
PLAN_1
 62
     2
  6
CONTINUOUS
 10
-0.900173
 20
4.058130
  0
VERTEX
  8
PLAN_1
 62
     2
  6
CONTINUOUS
 10
-0.897598
 20
4.060189
  0
VERTEX
  8
PLAN_1
 62
     2
  6
CONTINUOUS
 10
-0.895539
 20
4.062248
  0
VERTEX
  8
PLAN_1
 62
     2
  6
CONTINUOUS
 10
-0.894508
 20
4.064307
  0
VERTEX
  8
PLAN_1
 62
     2
  6
CONTINUOUS
 10
-0.893476
 20
4.067398
  0
VERTEX
  8
PLAN_1
 62
     2
  6
CONTINUOUS
 10
-0.892965
 20
4.070484
  0
VERTEX
  8
PLAN_1
 62
     2
  6
CONTINUOUS
 10
-0.893476
 20
4.074602
  0
VERTEX
  8
PLAN_1
 62
     2
  6
CONTINUOUS
 10
-0.895024
 20
4.077693
  0
VERTEX
  8
PLAN_1
 62
     2
  6
CONTINUOUS
 10
-0.897083
 20
4.079752
  0
VERTEX
  8
PLAN_1
 62
     2
  6
CONTINUOUS
 10
-0.899142
 20
4.081811
  0
VERTEX
  8
PLAN_1
 62
     2
  6
CONTINUOUS
 10
-0.902232
 20
4.082843
  0
VERTEX
  8
PLAN_1
 62
     2
  6
CONTINUOUS
 10
-0.904803
 20
4.083358
  0
VERTEX
  8
PLAN_1
 62
     2
  6
CONTINUOUS
 10
-0.907894
 20
4.083358
  0
VERTEX
  8
PLAN_1
 62
     2
  6
CONTINUOUS
 10
-0.910469
 20
4.083870
  0
VERTEX
  8
PLAN_1
 62
     2
  6
CONTINUOUS
 10
-0.910984
 20
4.083870
  0
VERTEX
  8
PLAN_1
 62
     2
  6
CONTINUOUS
 10
-0.911500
 20
4.083870
  0
VERTEX
  8
PLAN_1
 62
     2
  6
CONTINUOUS
 10
-0.912012
 20
4.083870
  0
VERTEX
  8
PLAN_1
 62
     2
  6
CONTINUOUS
 10
-0.912528
 20
4.083870
  0
VERTEX
  8
PLAN_1
 62
     2
  6
CONTINUOUS
 10
-0.913043
 20
4.083358
  0
VERTEX
  8
PLAN_1
 62
     2
  6
CONTINUOUS
 10
-0.913559
 20
4.083358
  0
VERTEX
  8
PLAN_1
 62
     2
  6
CONTINUOUS
 10
-0.914071
 20
4.083358
  0
VERTEX
  8
PLAN_1
 62
     2
  6
CONTINUOUS
 10
-0.914587
 20
4.083358
  0
VERTEX
  8
PLAN_1
 62
     2
  6
CONTINUOUS
 10
-0.914587
 20
4.091594
  0
SEQEND
  8
0
  0
POLYLINE
  8
PLAN_1
 62
     2
  6
CONTINUOUS
 66
     1
 40
0.003000
 41
0.003000
  0
VERTEX
  8
PLAN_1
 62
     2
  6
CONTINUOUS
 10
-2.275850
 20
4.092622
  0
VERTEX
  8
PLAN_1
 62
     2
  6
CONTINUOUS
 10
-2.274823
 20
4.093138
  0
VERTEX
  8
PLAN_1
 62
     2
  6
CONTINUOUS
 10
-2.273276
 20
4.094169
  0
VERTEX
  8
PLAN_1
 62
     2
  6
CONTINUOUS
 10
-2.271732
 20
4.094685
  0
VERTEX
  8
PLAN_1
 62
     2
  6
CONTINUOUS
 10
-2.270189
 20
4.095713
  0
VERTEX
  8
PLAN_1
 62
     2
  6
CONTINUOUS
 10
-2.268130
 20
4.096228
  0
VERTEX
  8
PLAN_1
 62
     2
  6
CONTINUOUS
 10
-2.266071
 20
4.096744
  0
VERTEX
  8
PLAN_1
 62
     2
  6
CONTINUOUS
 10
-2.264012
 20
4.096744
  0
VERTEX
  8
PLAN_1
 62
     2
  6
CONTINUOUS
 10
-2.261437
 20
4.096744
  0
VERTEX
  8
PLAN_1
 62
     2
  6
CONTINUOUS
 10
-2.257319
 20
4.096744
  0
VERTEX
  8
PLAN_1
 62
     2
  6
CONTINUOUS
 10
-2.252685
 20
4.095713
  0
VERTEX
  8
PLAN_1
 62
     2
  6
CONTINUOUS
 10
-2.249079
 20
4.093654
  0
VERTEX
  8
PLAN_1
 62
     2
  6
CONTINUOUS
 10
-2.244961
 20
4.091079
  0
VERTEX
  8
PLAN_1
 62
     2
  6
CONTINUOUS
 10
-2.241870
 20
4.087476
  0
VERTEX
  8
PLAN_1
 62
     2
  6
CONTINUOUS
 10
-2.239811
 20
4.083870
  0
VERTEX
  8
PLAN_1
 62
     2
  6
CONTINUOUS
 10
-2.238783
 20
4.081295
  0
VERTEX
  8
PLAN_1
 62
     2
  6
CONTINUOUS
 10
-2.238268
 20
4.078724
  0
VERTEX
  8
PLAN_1
 62
     2
  6
CONTINUOUS
 10
-2.237752
 20
4.076150
  0
VERTEX
  8
PLAN_1
 62
     2
  6
CONTINUOUS
 10
-2.237752
 20
4.073575
  0
VERTEX
  8
PLAN_1
 62
     2
  6
CONTINUOUS
 10
-2.237752
 20
4.069969
  0
VERTEX
  8
PLAN_1
 62
     2
  6
CONTINUOUS
 10
-2.238783
 20
4.066366
  0
VERTEX
  8
PLAN_1
 62
     2
  6
CONTINUOUS
 10
-2.239811
 20
4.061732
  0
VERTEX
  8
PLAN_1
 62
     2
  6
CONTINUOUS
 10
-2.242386
 20
4.057614
  0
VERTEX
  8
PLAN_1
 62
     2
  6
CONTINUOUS
 10
-2.243929
 20
4.055555
  0
VERTEX
  8
PLAN_1
 62
     2
  6
CONTINUOUS
 10
-2.245476
 20
4.054012
  0
VERTEX
  8
PLAN_1
 62
     2
  6
CONTINUOUS
 10
-2.248051
 20
4.052465
  0
VERTEX
  8
PLAN_1
 62
     2
  6
CONTINUOUS
 10
-2.250622
 20
4.050921
  0
VERTEX
  8
PLAN_1
 62
     2
  6
CONTINUOUS
 10
-2.253197
 20
4.049378
  0
VERTEX
  8
PLAN_1
 62
     2
  6
CONTINUOUS
 10
-2.256287
 20
4.048862
  0
VERTEX
  8
PLAN_1
 62
     2
  6
CONTINUOUS
 10
-2.259890
 20
4.048346
  0
VERTEX
  8
PLAN_1
 62
     2
  6
CONTINUOUS
 10
-2.264012
 20
4.047831
  0
VERTEX
  8
PLAN_1
 62
     2
  6
CONTINUOUS
 10
-2.267614
 20
4.048346
  0
VERTEX
  8
PLAN_1
 62
     2
  6
CONTINUOUS
 10
-2.271732
 20
4.048862
  0
VERTEX
  8
PLAN_1
 62
     2
  6
CONTINUOUS
 10
-2.275339
 20
4.049890
  0
VERTEX
  8
PLAN_1
 62
     2
  6
CONTINUOUS
 10
-2.278941
 20
4.051949
  0
VERTEX
  8
PLAN_1
 62
     2
  6
CONTINUOUS
 10
-2.282031
 20
4.054524
  0
VERTEX
  8
PLAN_1
 62
     2
  6
CONTINUOUS
 10
-2.284602
 20
4.058130
  0
VERTEX
  8
PLAN_1
 62
     2
  6
CONTINUOUS
 10
-2.285634
 20
4.060189
  0
VERTEX
  8
PLAN_1
 62
     2
  6
CONTINUOUS
 10
-2.286665
 20
4.062764
  0
VERTEX
  8
PLAN_1
 62
     2
  6
CONTINUOUS
 10
-2.287177
 20
4.065339
  0
VERTEX
  8
PLAN_1
 62
     2
  6
CONTINUOUS
 10
-2.287693
 20
4.067909
  0
VERTEX
  8
PLAN_1
 62
     2
  6
CONTINUOUS
 10
-2.278425
 20
4.067909
  0
VERTEX
  8
PLAN_1
 62
     2
  6
CONTINUOUS
 10
-2.277909
 20
4.065339
  0
VERTEX
  8
PLAN_1
 62
     2
  6
CONTINUOUS
 10
-2.276882
 20
4.062764
  0
VERTEX
  8
PLAN_1
 62
     2
  6
CONTINUOUS
 10
-2.275339
 20
4.060189
  0
VERTEX
  8
PLAN_1
 62
     2
  6
CONTINUOUS
 10
-2.273276
 20
4.058646
  0
VERTEX
  8
PLAN_1
 62
     2
  6
CONTINUOUS
 10
-2.271217
 20
4.057614
  0
VERTEX
  8
PLAN_1
 62
     2
  6
CONTINUOUS
 10
-2.268646
 20
4.056583
  0
VERTEX
  8
PLAN_1
 62
     2
  6
CONTINUOUS
 10
-2.265555
 20
4.056071
  0
VERTEX
  8
PLAN_1
 62
     2
  6
CONTINUOUS
 10
-2.262980
 20
4.055555
  0
VERTEX
  8
PLAN_1
 62
     2
  6
CONTINUOUS
 10
-2.259378
 20
4.056071
  0
VERTEX
  8
PLAN_1
 62
     2
  6
CONTINUOUS
 10
-2.256287
 20
4.057098
  0
VERTEX
  8
PLAN_1
 62
     2
  6
CONTINUOUS
 10
-2.253713
 20
4.058646
  0
VERTEX
  8
PLAN_1
 62
     2
  6
CONTINUOUS
 10
-2.251654
 20
4.060705
  0
VERTEX
  8
PLAN_1
 62
     2
  6
CONTINUOUS
 10
-2.249594
 20
4.063276
  0
VERTEX
  8
PLAN_1
 62
     2
  6
CONTINUOUS
 10
-2.248563
 20
4.065850
  0
VERTEX
  8
PLAN_1
 62
     2
  6
CONTINUOUS
 10
-2.247535
 20
4.069457
  0
VERTEX
  8
PLAN_1
 62
     2
  6
CONTINUOUS
 10
-2.247535
 20
4.072543
  0
VERTEX
  8
PLAN_1
 62
     2
  6
CONTINUOUS
 10
-2.247535
 20
4.076150
  0
VERTEX
  8
PLAN_1
 62
     2
  6
CONTINUOUS
 10
-2.248563
 20
4.079752
  0
VERTEX
  8
PLAN_1
 62
     2
  6
CONTINUOUS
 10
-2.250110
 20
4.082327
  0
VERTEX
  8
PLAN_1
 62
     2
  6
CONTINUOUS
 10
-2.252169
 20
4.084386
  0
VERTEX
  8
PLAN_1
 62
     2
  6
CONTINUOUS
 10
-2.254744
 20
4.086445
  0
VERTEX
  8
PLAN_1
 62
     2
  6
CONTINUOUS
 10
-2.257319
 20
4.087476
  0
VERTEX
  8
PLAN_1
 62
     2
  6
CONTINUOUS
 10
-2.260406
 20
4.088504
  0
VERTEX
  8
PLAN_1
 62
     2
  6
CONTINUOUS
 10
-2.263496
 20
4.089020
  0
VERTEX
  8
PLAN_1
 62
     2
  6
CONTINUOUS
 10
-2.265555
 20
4.088504
  0
VERTEX
  8
PLAN_1
 62
     2
  6
CONTINUOUS
 10
-2.267614
 20
4.088504
  0
VERTEX
  8
PLAN_1
 62
     2
  6
CONTINUOUS
 10
-2.269157
 20
4.087992
  0
VERTEX
  8
PLAN_1
 62
     2
  6
CONTINUOUS
 10
-2.271217
 20
4.086961
  0
VERTEX
  8
PLAN_1
 62
     2
  6
CONTINUOUS
 10
-2.272764
 20
4.085929
  0
VERTEX
  8
PLAN_1
 62
     2
  6
CONTINUOUS
 10
-2.274307
 20
4.084902
  0
VERTEX
  8
PLAN_1
 62
     2
  6
CONTINUOUS
 10
-2.275850
 20
4.083358
  0
VERTEX
  8
PLAN_1
 62
     2
  6
CONTINUOUS
 10
-2.277398
 20
4.081811
  0
VERTEX
  8
PLAN_1
 62
     2
  6
CONTINUOUS
 10
-2.285118
 20
4.082327
  0
VERTEX
  8
PLAN_1
 62
     2
  6
CONTINUOUS
 10
-2.279457
 20
4.121457
  0
VERTEX
  8
PLAN_1
 62
     2
  6
CONTINUOUS
 10
-2.241870
 20
4.121457
  0
VERTEX
  8
PLAN_1
 62
     2
  6
CONTINUOUS
 10
-2.241870
 20
4.112705
  0
VERTEX
  8
PLAN_1
 62
     2
  6
CONTINUOUS
 10
-2.272764
 20
4.112705
  0
VERTEX
  8
PLAN_1
 62
     2
  6
CONTINUOUS
 10
-2.275850
 20
4.092622
  0
SEQEND
  8
0
  0
POLYLINE
  8
PLAN_1
 62
     2
  6
CONTINUOUS
 66
     1
 40
0.004118
 41
0.004118
  0
VERTEX
  8
PLAN_1
 62
     2
  6
CONTINUOUS
 10
-1.476803
 20
1.831917
  0
VERTEX
  8
PLAN_1
 62
     2
  6
CONTINUOUS
 10
-2.131177
 20
1.831917
  0
SEQEND
  8
0
  0
SOLID
  8
PLAN_1
 62
     2
 10
-2.101831
 20
1.831917
 11
-2.160524
 21
1.847878
 12
-2.101831
 22
1.831917
 13
-2.160524
 23
1.816469
  0
POLYLINE
  8
PLAN_1
 62
     2
  6
CONTINUOUS
 66
     1
 40
0.003000
 41
0.003000
  0
VERTEX
  8
PLAN_1
 62
     2
  6
CONTINUOUS
 10
-2.101831
 20
1.831917
  0
VERTEX
  8
PLAN_1
 62
     2
  6
CONTINUOUS
 10
-2.160524
 20
1.847878
  0
VERTEX
  8
PLAN_1
 62
     2
  6
CONTINUOUS
 10
-2.160524
 20
1.816469
  0
VERTEX
  8
PLAN_1
 62
     2
  6
CONTINUOUS
 10
-2.101831
 20
1.831917
  0
SEQEND
  8
0
  0
SOLID
  8
PLAN_1
 62
     2
 10
-1.803220
 20
1.831917
 11
-1.744012
 21
1.847878
 12
-1.803220
 22
1.831917
 13
-1.744012
 23
1.816469
  0
POLYLINE
  8
PLAN_1
 62
     2
  6
CONTINUOUS
 66
     1
 40
0.003000
 41
0.003000
  0
VERTEX
  8
PLAN_1
 62
     2
  6
CONTINUOUS
 10
-1.803220
 20
1.831917
  0
VERTEX
  8
PLAN_1
 62
     2
  6
CONTINUOUS
 10
-1.744012
 20
1.847878
  0
VERTEX
  8
PLAN_1
 62
     2
  6
CONTINUOUS
 10
-1.744012
 20
1.816469
  0
VERTEX
  8
PLAN_1
 62
     2
  6
CONTINUOUS
 10
-1.803220
 20
1.831917
  0
SEQEND
  8
0
  0
POLYLINE
  8
PLAN_1
 62
     2
  6
CONTINUOUS
 66
     1
 40
0.004118
 41
0.004118
  0
VERTEX
  8
PLAN_1
 62
     2
  6
CONTINUOUS
 10
0.119232
 20
-0.673346
  0
VERTEX
  8
PLAN_1
 62
     2
  6
CONTINUOUS
 10
0.119232
 20
4.049890
  0
SEQEND
  8
0
  0
POLYLINE
  8
PLAN_1
 62
     2
  6
CONTINUOUS
 66
     1
 40
0.004118
 41
0.004118
  0
VERTEX
  8
PLAN_1
 62
     2
  6
CONTINUOUS
 10
-1.970031
 20
3.830051
  0
VERTEX
  8
PLAN_1
 62
     2
  6
CONTINUOUS
 10
-1.970031
 20
4.049890
  0
SEQEND
  8
0
  0
POLYLINE
  8
PLAN_1
 62
     2
  6
CONTINUOUS
 66
     1
 40
0.004118
 41
0.004118
  0
VERTEX
  8
PLAN_1
 62
     2
  6
CONTINUOUS
 10
-2.143020
 20
0.554571
  0
VERTEX
  8
PLAN_1
 62
     2
  6
CONTINUOUS
 10
-2.143020
 20
1.723795
  0
SEQEND
  8
0
  0
POLYLINE
  8
PLAN_1
 62
     2
  6
CONTINUOUS
 66
     1
 40
0.004118
 41
0.004118
  0
VERTEX
  8
PLAN_1
 62
     2
  6
CONTINUOUS
 10
-2.143020
 20
1.932311
  0
VERTEX
  8
PLAN_1
 62
     2
  6
CONTINUOUS
 10
-2.143020
 20
4.049890
  0
SEQEND
  8
0
  0
POLYLINE
  8
PLAN_1
 62
     2
  6
CONTINUOUS
 66
     1
 40
0.003000
 41
0.003000
  0
VERTEX
  8
PLAN_1
 62
     2
  6
CONTINUOUS
 10
-1.608091
 20
1.919957
  0
VERTEX
  8
PLAN_1
 62
     2
  6
CONTINUOUS
 10
-1.606031
 20
1.916866
  0
VERTEX
  8
PLAN_1
 62
     2
  6
CONTINUOUS
 10
-1.604488
 20
1.913264
  0
VERTEX
  8
PLAN_1
 62
     2
  6
CONTINUOUS
 10
-1.602941
 20
1.910173
  0
VERTEX
  8
PLAN_1
 62
     2
  6
CONTINUOUS
 10
-1.601913
 20
1.906571
  0
VERTEX
  8
PLAN_1
 62
     2
  6
CONTINUOUS
 10
-1.600882
 20
1.902965
  0
VERTEX
  8
PLAN_1
 62
     2
  6
CONTINUOUS
 10
-1.600366
 20
1.899878
  0
VERTEX
  8
PLAN_1
 62
     2
  6
CONTINUOUS
 10
-1.599854
 20
1.896272
  0
VERTEX
  8
PLAN_1
 62
     2
  6
CONTINUOUS
 10
-1.599854
 20
1.893181
  0
VERTEX
  8
PLAN_1
 62
     2
  6
CONTINUOUS
 10
-1.600366
 20
1.887004
  0
VERTEX
  8
PLAN_1
 62
     2
  6
CONTINUOUS
 10
-1.601398
 20
1.880311
  0
VERTEX
  8
PLAN_1
 62
     2
  6
CONTINUOUS
 10
-1.602429
 20
1.876709
  0
VERTEX
  8
PLAN_1
 62
     2
  6
CONTINUOUS
 10
-1.603972
 20
1.873618
  0
VERTEX
  8
PLAN_1
 62
     2
  6
CONTINUOUS
 10
-1.605516
 20
1.870531
  0
VERTEX
  8
PLAN_1
 62
     2
  6
CONTINUOUS
 10
-1.607575
 20
1.867441
  0
VERTEX
  8
PLAN_1
 62
     2
  6
CONTINUOUS
 10
-1.609634
 20
1.864350
  0
VERTEX
  8
PLAN_1
 62
     2
  6
CONTINUOUS
 10
-1.612209
 20
1.861776
  0
VERTEX
  8
PLAN_1
 62
     2
  6
CONTINUOUS
 10
-1.615299
 20
1.859717
  0
VERTEX
  8
PLAN_1
 62
     2
  6
CONTINUOUS
 10
-1.618902
 20
1.857657
  0
VERTEX
  8
PLAN_1
 62
     2
  6
CONTINUOUS
 10
-1.622508
 20
1.856114
  0
VERTEX
  8
PLAN_1
 62
     2
  6
CONTINUOUS
 10
-1.626626
 20
1.855083
  0
VERTEX
  8
PLAN_1
 62
     2
  6
CONTINUOUS
 10
-1.631260
 20
1.854055
  0
VERTEX
  8
PLAN_1
 62
     2
  6
CONTINUOUS
 10
-1.636406
 20
1.854055
  0
VERTEX
  8
PLAN_1
 62
     2
  6
CONTINUOUS
 10
-1.640012
 20
1.854055
  0
VERTEX
  8
PLAN_1
 62
     2
  6
CONTINUOUS
 10
-1.643614
 20
1.854571
  0
VERTEX
  8
PLAN_1
 62
     2
  6
CONTINUOUS
 10
-1.647220
 20
1.855083
  0
VERTEX
  8
PLAN_1
 62
     2
  6
CONTINUOUS
 10
-1.650307
 20
1.856114
  0
VERTEX
  8
PLAN_1
 62
     2
  6
CONTINUOUS
 10
-1.653398
 20
1.857657
  0
VERTEX
  8
PLAN_1
 62
     2
  6
CONTINUOUS
 10
-1.655972
 20
1.859205
  0
VERTEX
  8
PLAN_1
 62
     2
  6
CONTINUOUS
 10
-1.658547
 20
1.860748
  0
VERTEX
  8
PLAN_1
 62
     2
  6
CONTINUOUS
 10
-1.660606
 20
1.862807
  0
VERTEX
  8
PLAN_1
 62
     2
  6
CONTINUOUS
 10
-1.668843
 20
1.854055
  0
VERTEX
  8
PLAN_1
 62
     2
  6
CONTINUOUS
 10
-1.672449
 20
1.856630
  0
VERTEX
  8
PLAN_1
 62
     2
  6
CONTINUOUS
 10
-1.663693
 20
1.865898
  0
VERTEX
  8
PLAN_1
 62
     2
  6
CONTINUOUS
 10
-1.665752
 20
1.868984
  0
VERTEX
  8
PLAN_1
 62
     2
  6
CONTINUOUS
 10
-1.667815
 20
1.872591
  0
VERTEX
  8
PLAN_1
 62
     2
  6
CONTINUOUS
 10
-1.669358
 20
1.875677
  0
VERTEX
  8
PLAN_1
 62
     2
  6
CONTINUOUS
 10
-1.670386
 20
1.879283
  0
VERTEX
  8
PLAN_1
 62
     2
  6
CONTINUOUS
 10
-1.671417
 20
1.882886
  0
VERTEX
  8
PLAN_1
 62
     2
  6
CONTINUOUS
 10
-1.671933
 20
1.886488
  0
VERTEX
  8
PLAN_1
 62
     2
  6
CONTINUOUS
 10
-1.672449
 20
1.889579
  0
VERTEX
  8
PLAN_1
 62
     2
  6
CONTINUOUS
 10
-1.672449
 20
1.893181
  0
VERTEX
  8
PLAN_1
 62
     2
  6
CONTINUOUS
 10
-1.671933
 20
1.899362
  0
VERTEX
  8
PLAN_1
 62
     2
  6
CONTINUOUS
 10
-1.670902
 20
1.906055
  0
VERTEX
  8
PLAN_1
 62
     2
  6
CONTINUOUS
 10
-1.669874
 20
1.909142
  0
VERTEX
  8
PLAN_1
 62
     2
  6
CONTINUOUS
 10
-1.668327
 20
1.912748
  0
VERTEX
  8
PLAN_1
 62
     2
  6
CONTINUOUS
 10
-1.666783
 20
1.915835
  0
VERTEX
  8
PLAN_1
 62
     2
  6
CONTINUOUS
 10
-1.664724
 20
1.918925
  0
VERTEX
  8
PLAN_1
 62
     2
  6
CONTINUOUS
 10
-1.662665
 20
1.921500
  0
VERTEX
  8
PLAN_1
 62
     2
  6
CONTINUOUS
 10
-1.660091
 20
1.924075
  0
VERTEX
  8
PLAN_1
 62
     2
  6
CONTINUOUS
 10
-1.657000
 20
1.926650
  0
VERTEX
  8
PLAN_1
 62
     2
  6
CONTINUOUS
 10
-1.653398
 20
1.928709
  0
VERTEX
  8
PLAN_1
 62
     2
  6
CONTINUOUS
 10
-1.649795
 20
1.930252
  0
VERTEX
  8
PLAN_1
 62
     2
  6
CONTINUOUS
 10
-1.645673
 20
1.931283
  0
VERTEX
  8
PLAN_1
 62
     2
  6
CONTINUOUS
 10
-1.641039
 20
1.932311
  0
VERTEX
  8
PLAN_1
 62
     2
  6
CONTINUOUS
 10
-1.636406
 20
1.932311
  0
VERTEX
  8
PLAN_1
 62
     2
  6
CONTINUOUS
 10
-1.632287
 20
1.932311
  0
VERTEX
  8
PLAN_1
 62
     2
  6
CONTINUOUS
 10
-1.628169
 20
1.931795
  0
VERTEX
  8
PLAN_1
 62
     2
  6
CONTINUOUS
 10
-1.625083
 20
1.930768
  0
VERTEX
  8
PLAN_1
 62
     2
  6
CONTINUOUS
 10
-1.621476
 20
1.929736
  0
VERTEX
  8
PLAN_1
 62
     2
  6
CONTINUOUS
 10
-1.618902
 20
1.928709
  0
VERTEX
  8
PLAN_1
 62
     2
  6
CONTINUOUS
 10
-1.615815
 20
1.927161
  0
VERTEX
  8
PLAN_1
 62
     2
  6
CONTINUOUS
 10
-1.613756
 20
1.925102
  0
VERTEX
  8
PLAN_1
 62
     2
  6
CONTINUOUS
 10
-1.611181
 20
1.923043
  0
VERTEX
  8
PLAN_1
 62
     2
  6
CONTINUOUS
 10
-1.602941
 20
1.932311
  0
VERTEX
  8
PLAN_1
 62
     2
  6
CONTINUOUS
 10
-1.599854
 20
1.929224
  0
VERTEX
  8
PLAN_1
 62
     2
  6
CONTINUOUS
 10
-1.608091
 20
1.919957
  0
SEQEND
  8
0
  0
POLYLINE
  8
PLAN_1
 62
     2
  6
CONTINUOUS
 66
     1
 40
0.003000
 41
0.003000
  0
VERTEX
  8
PLAN_1
 62
     2
  6
CONTINUOUS
 10
-1.653913
 20
1.870016
  0
VERTEX
  8
PLAN_1
 62
     2
  6
CONTINUOUS
 10
-1.652366
 20
1.868469
  0
VERTEX
  8
PLAN_1
 62
     2
  6
CONTINUOUS
 10
-1.650307
 20
1.866925
  0
VERTEX
  8
PLAN_1
 62
     2
  6
CONTINUOUS
 10
-1.648248
 20
1.865898
  0
VERTEX
  8
PLAN_1
 62
     2
  6
CONTINUOUS
 10
-1.646189
 20
1.864866
  0
VERTEX
  8
PLAN_1
 62
     2
  6
CONTINUOUS
 10
-1.644130
 20
1.863835
  0
VERTEX
  8
PLAN_1
 62
     2
  6
CONTINUOUS
 10
-1.641555
 20
1.863323
  0
VERTEX
  8
PLAN_1
 62
     2
  6
CONTINUOUS
 10
-1.638980
 20
1.862807
  0
VERTEX
  8
PLAN_1
 62
     2
  6
CONTINUOUS
 10
-1.636406
 20
1.862807
  0
VERTEX
  8
PLAN_1
 62
     2
  6
CONTINUOUS
 10
-1.633319
 20
1.862807
  0
VERTEX
  8
PLAN_1
 62
     2
  6
CONTINUOUS
 10
-1.630228
 20
1.863323
  0
VERTEX
  8
PLAN_1
 62
     2
  6
CONTINUOUS
 10
-1.627654
 20
1.863835
  0
VERTEX
  8
PLAN_1
 62
     2
  6
CONTINUOUS
 10
-1.625083
 20
1.864866
  0
VERTEX
  8
PLAN_1
 62
     2
  6
CONTINUOUS
 10
-1.623020
 20
1.866409
  0
VERTEX
  8
PLAN_1
 62
     2
  6
CONTINUOUS
 10
-1.620961
 20
1.867957
  0
VERTEX
  8
PLAN_1
 62
     2
  6
CONTINUOUS
 10
-1.618902
 20
1.869500
  0
VERTEX
  8
PLAN_1
 62
     2
  6
CONTINUOUS
 10
-1.617358
 20
1.871559
  0
VERTEX
  8
PLAN_1
 62
     2
  6
CONTINUOUS
 10
-1.615299
 20
1.873618
  0
VERTEX
  8
PLAN_1
 62
     2
  6
CONTINUOUS
 10
-1.614268
 20
1.875677
  0
VERTEX
  8
PLAN_1
 62
     2
  6
CONTINUOUS
 10
-1.612724
 20
1.878252
  0
VERTEX
  8
PLAN_1
 62
     2
  6
CONTINUOUS
 10
-1.612209
 20
1.880827
  0
VERTEX
  8
PLAN_1
 62
     2
  6
CONTINUOUS
 10
-1.610665
 20
1.887004
  0
VERTEX
  8
PLAN_1
 62
     2
  6
CONTINUOUS
 10
-1.610150
 20
1.893181
  0
VERTEX
  8
PLAN_1
 62
     2
  6
CONTINUOUS
 10
-1.610150
 20
1.895756
  0
VERTEX
  8
PLAN_1
 62
     2
  6
CONTINUOUS
 10
-1.610665
 20
1.898331
  0
VERTEX
  8
PLAN_1
 62
     2
  6
CONTINUOUS
 10
-1.611181
 20
1.900906
  0
VERTEX
  8
PLAN_1
 62
     2
  6
CONTINUOUS
 10
-1.611693
 20
1.903480
  0
VERTEX
  8
PLAN_1
 62
     2
  6
CONTINUOUS
 10
-1.612209
 20
1.906055
  0
VERTEX
  8
PLAN_1
 62
     2
  6
CONTINUOUS
 10
-1.613240
 20
1.908114
  0
VERTEX
  8
PLAN_1
 62
     2
  6
CONTINUOUS
 10
-1.614268
 20
1.910173
  0
VERTEX
  8
PLAN_1
 62
     2
  6
CONTINUOUS
 10
-1.615299
 20
1.912232
  0
VERTEX
  8
PLAN_1
 62
     2
  6
CONTINUOUS
 10
-1.653913
 20
1.870016
  0
SEQEND
  8
0
  0
POLYLINE
  8
PLAN_1
 62
     2
  6
CONTINUOUS
 66
     1
 40
0.003000
 41
0.003000
  0
VERTEX
  8
PLAN_1
 62
     2
  6
CONTINUOUS
 10
-1.617874
 20
1.915835
  0
VERTEX
  8
PLAN_1
 62
     2
  6
CONTINUOUS
 10
-1.619933
 20
1.917382
  0
VERTEX
  8
PLAN_1
 62
     2
  6
CONTINUOUS
 10
-1.621476
 20
1.918925
  0
VERTEX
  8
PLAN_1
 62
     2
  6
CONTINUOUS
 10
-1.623535
 20
1.920469
  0
VERTEX
  8
PLAN_1
 62
     2
  6
CONTINUOUS
 10
-1.626110
 20
1.921500
  0
VERTEX
  8
PLAN_1
 62
     2
  6
CONTINUOUS
 10
-1.628169
 20
1.922528
  0
VERTEX
  8
PLAN_1
 62
     2
  6
CONTINUOUS
 10
-1.630744
 20
1.923043
  0
VERTEX
  8
PLAN_1
 62
     2
  6
CONTINUOUS
 10
-1.633319
 20
1.923559
  0
VERTEX
  8
PLAN_1
 62
     2
  6
CONTINUOUS
 10
-1.636406
 20
1.923559
  0
VERTEX
  8
PLAN_1
 62
     2
  6
CONTINUOUS
 10
-1.638980
 20
1.923559
  0
VERTEX
  8
PLAN_1
 62
     2
  6
CONTINUOUS
 10
-1.642071
 20
1.923043
  0
VERTEX
  8
PLAN_1
 62
     2
  6
CONTINUOUS
 10
-1.644646
 20
1.922016
  0
VERTEX
  8
PLAN_1
 62
     2
  6
CONTINUOUS
 10
-1.647220
 20
1.920984
  0
VERTEX
  8
PLAN_1
 62
     2
  6
CONTINUOUS
 10
-1.649280
 20
1.919957
  0
VERTEX
  8
PLAN_1
 62
     2
  6
CONTINUOUS
 10
-1.651339
 20
1.918409
  0
VERTEX
  8
PLAN_1
 62
     2
  6
CONTINUOUS
 10
-1.653398
 20
1.916866
  0
VERTEX
  8
PLAN_1
 62
     2
  6
CONTINUOUS
 10
-1.655457
 20
1.914807
  0
VERTEX
  8
PLAN_1
 62
     2
  6
CONTINUOUS
 10
-1.657000
 20
1.912748
  0
VERTEX
  8
PLAN_1
 62
     2
  6
CONTINUOUS
 10
-1.658031
 20
1.910689
  0
VERTEX
  8
PLAN_1
 62
     2
  6
CONTINUOUS
 10
-1.659575
 20
1.908114
  0
VERTEX
  8
PLAN_1
 62
     2
  6
CONTINUOUS
 10
-1.660606
 20
1.905024
  0
VERTEX
  8
PLAN_1
 62
     2
  6
CONTINUOUS
 10
-1.661634
 20
1.899362
  0
VERTEX
  8
PLAN_1
 62
     2
  6
CONTINUOUS
 10
-1.662150
 20
1.893181
  0
VERTEX
  8
PLAN_1
 62
     2
  6
CONTINUOUS
 10
-1.662150
 20
1.890094
  0
VERTEX
  8
PLAN_1
 62
     2
  6
CONTINUOUS
 10
-1.661634
 20
1.887520
  0
VERTEX
  8
PLAN_1
 62
     2
  6
CONTINUOUS
 10
-1.661634
 20
1.884945
  0
VERTEX
  8
PLAN_1
 62
     2
  6
CONTINUOUS
 10
-1.660606
 20
1.882370
  0
VERTEX
  8
PLAN_1
 62
     2
  6
CONTINUOUS
 10
-1.660091
 20
1.880311
  0
VERTEX
  8
PLAN_1
 62
     2
  6
CONTINUOUS
 10
-1.659059
 20
1.877736
  0
VERTEX
  8
PLAN_1
 62
     2
  6
CONTINUOUS
 10
-1.658031
 20
1.875677
  0
VERTEX
  8
PLAN_1
 62
     2
  6
CONTINUOUS
 10
-1.657000
 20
1.873618
  0
VERTEX
  8
PLAN_1
 62
     2
  6
CONTINUOUS
 10
-1.617874
 20
1.915835
  0
SEQEND
  8
0
  0
POLYLINE
  8
PLAN_1
 62
     2
  6
CONTINUOUS
 66
     1
 40
0.003000
 41
0.003000
  0
VERTEX
  8
PLAN_1
 62
     2
  6
CONTINUOUS
 10
-1.572567
 20
1.897303
  0
VERTEX
  8
PLAN_1
 62
     2
  6
CONTINUOUS
 10
-1.571535
 20
1.897303
  0
VERTEX
  8
PLAN_1
 62
     2
  6
CONTINUOUS
 10
-1.571020
 20
1.897303
  0
VERTEX
  8
PLAN_1
 62
     2
  6
CONTINUOUS
 10
-1.570508
 20
1.897303
  0
VERTEX
  8
PLAN_1
 62
     2
  6
CONTINUOUS
 10
-1.569992
 20
1.897303
  0
VERTEX
  8
PLAN_1
 62
     2
  6
CONTINUOUS
 10
-1.569476
 20
1.897303
  0
VERTEX
  8
PLAN_1
 62
     2
  6
CONTINUOUS
 10
-1.568961
 20
1.897303
  0
VERTEX
  8
PLAN_1
 62
     2
  6
CONTINUOUS
 10
-1.567933
 20
1.897303
  0
VERTEX
  8
PLAN_1
 62
     2
  6
CONTINUOUS
 10
-1.567417
 20
1.897303
  0
VERTEX
  8
PLAN_1
 62
     2
  6
CONTINUOUS
 10
-1.564843
 20
1.897303
  0
VERTEX
  8
PLAN_1
 62
     2
  6
CONTINUOUS
 10
-1.562268
 20
1.897815
  0
VERTEX
  8
PLAN_1
 62
     2
  6
CONTINUOUS
 10
-1.560209
 20
1.898331
  0
VERTEX
  8
PLAN_1
 62
     2
  6
CONTINUOUS
 10
-1.558150
 20
1.899878
  0
VERTEX
  8
PLAN_1
 62
     2
  6
CONTINUOUS
 10
-1.556091
 20
1.901421
  0
VERTEX
  8
PLAN_1
 62
     2
  6
CONTINUOUS
 10
-1.555063
 20
1.903480
  0
VERTEX
  8
PLAN_1
 62
     2
  6
CONTINUOUS
 10
-1.554031
 20
1.906055
  0
VERTEX
  8
PLAN_1
 62
     2
  6
CONTINUOUS
 10
-1.553516
 20
1.909142
  0
VERTEX
  8
PLAN_1
 62
     2
  6
CONTINUOUS
 10
-1.554031
 20
1.910689
  0
VERTEX
  8
PLAN_1
 62
     2
  6
CONTINUOUS
 10
-1.554031
 20
1.912748
  0
VERTEX
  8
PLAN_1
 62
     2
  6
CONTINUOUS
 10
-1.555063
 20
1.914807
  0
VERTEX
  8
PLAN_1
 62
     2
  6
CONTINUOUS
 10
-1.556091
 20
1.916350
  0
VERTEX
  8
PLAN_1
 62
     2
  6
CONTINUOUS
 10
-1.558150
 20
1.918409
  0
VERTEX
  8
PLAN_1
 62
     2
  6
CONTINUOUS
 10
-1.560209
 20
1.919441
  0
VERTEX
  8
PLAN_1
 62
     2
  6
CONTINUOUS
 10
-1.563299
 20
1.920469
  0
VERTEX
  8
PLAN_1
 62
     2
  6
CONTINUOUS
 10
-1.567417
 20
1.920469
  0
VERTEX
  8
PLAN_1
 62
     2
  6
CONTINUOUS
 10
-1.571535
 20
1.919957
  0
VERTEX
  8
PLAN_1
 62
     2
  6
CONTINUOUS
 10
-1.574626
 20
1.918925
  0
VERTEX
  8
PLAN_1
 62
     2
  6
CONTINUOUS
 10
-1.577201
 20
1.916866
  0
VERTEX
  8
PLAN_1
 62
     2
  6
CONTINUOUS
 10
-1.579260
 20
1.914807
  0
VERTEX
  8
PLAN_1
 62
     2
  6
CONTINUOUS
 10
-1.580287
 20
1.912232
  0
VERTEX
  8
PLAN_1
 62
     2
  6
CONTINUOUS
 10
-1.580803
 20
1.909657
  0
VERTEX
  8
PLAN_1
 62
     2
  6
CONTINUOUS
 10
-1.581319
 20
1.907083
  0
VERTEX
  8
PLAN_1
 62
     2
  6
CONTINUOUS
 10
-1.581319
 20
1.905024
  0
VERTEX
  8
PLAN_1
 62
     2
  6
CONTINUOUS
 10
-1.590587
 20
1.905024
  0
VERTEX
  8
PLAN_1
 62
     2
  6
CONTINUOUS
 10
-1.590071
 20
1.909142
  0
VERTEX
  8
PLAN_1
 62
     2
  6
CONTINUOUS
 10
-1.589555
 20
1.913264
  0
VERTEX
  8
PLAN_1
 62
     2
  6
CONTINUOUS
 10
-1.588012
 20
1.917382
  0
VERTEX
  8
PLAN_1
 62
     2
  6
CONTINUOUS
 10
-1.585953
 20
1.920984
  0
VERTEX
  8
PLAN_1
 62
     2
  6
CONTINUOUS
 10
-1.584409
 20
1.922528
  0
VERTEX
  8
PLAN_1
 62
     2
  6
CONTINUOUS
 10
-1.582862
 20
1.924075
  0
VERTEX
  8
PLAN_1
 62
     2
  6
CONTINUOUS
 10
-1.580803
 20
1.925618
  0
VERTEX
  8
PLAN_1
 62
     2
  6
CONTINUOUS
 10
-1.578744
 20
1.926650
  0
VERTEX
  8
PLAN_1
 62
     2
  6
CONTINUOUS
 10
-1.576169
 20
1.927677
  0
VERTEX
  8
PLAN_1
 62
     2
  6
CONTINUOUS
 10
-1.573083
 20
1.928193
  0
VERTEX
  8
PLAN_1
 62
     2
  6
CONTINUOUS
 10
-1.569992
 20
1.928709
  0
VERTEX
  8
PLAN_1
 62
     2
  6
CONTINUOUS
 10
-1.566902
 20
1.928709
  0
VERTEX
  8
PLAN_1
 62
     2
  6
CONTINUOUS
 10
-1.561756
 20
1.928709
  0
VERTEX
  8
PLAN_1
 62
     2
  6
CONTINUOUS
 10
-1.557122
 20
1.927677
  0
VERTEX
  8
PLAN_1
 62
     2
  6
CONTINUOUS
 10
-1.553516
 20
1.925618
  0
VERTEX
  8
PLAN_1
 62
     2
  6
CONTINUOUS
 10
-1.549913
 20
1.923559
  0
VERTEX
  8
PLAN_1
 62
     2
  6
CONTINUOUS
 10
-1.547854
 20
1.920469
  0
VERTEX
  8
PLAN_1
 62
     2
  6
CONTINUOUS
 10
-1.545795
 20
1.917382
  0
VERTEX
  8
PLAN_1
 62
     2
  6
CONTINUOUS
 10
-1.544764
 20
1.913776
  0
VERTEX
  8
PLAN_1
 62
     2
  6
CONTINUOUS
 10
-1.544248
 20
1.909657
  0
VERTEX
  8
PLAN_1
 62
     2
  6
CONTINUOUS
 10
-1.544248
 20
1.906571
  0
VERTEX
  8
PLAN_1
 62
     2
  6
CONTINUOUS
 10
-1.545280
 20
1.903480
  0
VERTEX
  8
PLAN_1
 62
     2
  6
CONTINUOUS
 10
-1.546307
 20
1.900906
  0
VERTEX
  8
PLAN_1
 62
     2
  6
CONTINUOUS
 10
-1.547339
 20
1.898846
  0
VERTEX
  8
PLAN_1
 62
     2
  6
CONTINUOUS
 10
-1.548882
 20
1.897303
  0
VERTEX
  8
PLAN_1
 62
     2
  6
CONTINUOUS
 10
-1.550429
 20
1.896272
  0
VERTEX
  8
PLAN_1
 62
     2
  6
CONTINUOUS
 10
-1.551972
 20
1.895244
  0
VERTEX
  8
PLAN_1
 62
     2
  6
CONTINUOUS
 10
-1.553516
 20
1.894728
  0
VERTEX
  8
PLAN_1
 62
     2
  6
CONTINUOUS
 10
-1.553516
 20
1.894213
  0
VERTEX
  8
PLAN_1
 62
     2
  6
CONTINUOUS
 10
-1.550941
 20
1.893181
  0
VERTEX
  8
PLAN_1
 62
     2
  6
CONTINUOUS
 10
-1.548882
 20
1.892154
  0
VERTEX
  8
PLAN_1
 62
     2
  6
CONTINUOUS
 10
-1.546823
 20
1.890610
  0
VERTEX
  8
PLAN_1
 62
     2
  6
CONTINUOUS
 10
-1.544764
 20
1.888551
  0
VERTEX
  8
PLAN_1
 62
     2
  6
CONTINUOUS
 10
-1.543220
 20
1.886488
  0
VERTEX
  8
PLAN_1
 62
     2
  6
CONTINUOUS
 10
-1.542189
 20
1.883917
  0
VERTEX
  8
PLAN_1
 62
     2
  6
CONTINUOUS
 10
-1.541673
 20
1.880827
  0
VERTEX
  8
PLAN_1
 62
     2
  6
CONTINUOUS
 10
-1.541161
 20
1.877224
  0
VERTEX
  8
PLAN_1
 62
     2
  6
CONTINUOUS
 10
-1.541673
 20
1.873102
  0
VERTEX
  8
PLAN_1
 62
     2
  6
CONTINUOUS
 10
-1.542705
 20
1.868469
  0
VERTEX
  8
PLAN_1
 62
     2
  6
CONTINUOUS
 10
-1.544764
 20
1.864350
  0
VERTEX
  8
PLAN_1
 62
     2
  6
CONTINUOUS
 10
-1.547339
 20
1.861264
  0
VERTEX
  8
PLAN_1
 62
     2
  6
CONTINUOUS
 10
-1.549398
 20
1.859717
  0
VERTEX
  8
PLAN_1
 62
     2
  6
CONTINUOUS
 10
-1.550941
 20
1.858173
  0
VERTEX
  8
PLAN_1
 62
     2
  6
CONTINUOUS
 10
-1.553516
 20
1.856630
  0
VERTEX
  8
PLAN_1
 62
     2
  6
CONTINUOUS
 10
-1.555575
 20
1.855598
  0
VERTEX
  8
PLAN_1
 62
     2
  6
CONTINUOUS
 10
-1.558150
 20
1.855083
  0
VERTEX
  8
PLAN_1
 62
     2
  6
CONTINUOUS
 10
-1.561240
 20
1.854571
  0
VERTEX
  8
PLAN_1
 62
     2
  6
CONTINUOUS
 10
-1.564327
 20
1.854055
  0
VERTEX
  8
PLAN_1
 62
     2
  6
CONTINUOUS
 10
-1.567933
 20
1.854055
  0
VERTEX
  8
PLAN_1
 62
     2
  6
CONTINUOUS
 10
-1.569476
 20
1.854055
  0
VERTEX
  8
PLAN_1
 62
     2
  6
CONTINUOUS
 10
-1.571535
 20
1.854055
  0
VERTEX
  8
PLAN_1
 62
     2
  6
CONTINUOUS
 10
-1.573594
 20
1.854571
  0
VERTEX
  8
PLAN_1
 62
     2
  6
CONTINUOUS
 10
-1.575142
 20
1.854571
  0
VERTEX
  8
PLAN_1
 62
     2
  6
CONTINUOUS
 10
-1.576685
 20
1.855083
  0
VERTEX
  8
PLAN_1
 62
     2
  6
CONTINUOUS
 10
-1.578228
 20
1.855598
  0
VERTEX
  8
PLAN_1
 62
     2
  6
CONTINUOUS
 10
-1.579776
 20
1.856114
  0
VERTEX
  8
PLAN_1
 62
     2
  6
CONTINUOUS
 10
-1.581319
 20
1.857142
  0
VERTEX
  8
PLAN_1
 62
     2
  6
CONTINUOUS
 10
-1.583894
 20
1.858689
  0
VERTEX
  8
PLAN_1
 62
     2
  6
CONTINUOUS
 10
-1.586469
 20
1.860748
  0
VERTEX
  8
PLAN_1
 62
     2
  6
CONTINUOUS
 10
-1.588012
 20
1.863323
  0
VERTEX
  8
PLAN_1
 62
     2
  6
CONTINUOUS
 10
-1.589555
 20
1.865898
  0
VERTEX
  8
PLAN_1
 62
     2
  6
CONTINUOUS
 10
-1.590587
 20
1.868984
  0
VERTEX
  8
PLAN_1
 62
     2
  6
CONTINUOUS
 10
-1.591102
 20
1.872075
  0
VERTEX
  8
PLAN_1
 62
     2
  6
CONTINUOUS
 10
-1.591614
 20
1.875161
  0
VERTEX
  8
PLAN_1
 62
     2
  6
CONTINUOUS
 10
-1.592130
 20
1.878252
  0
VERTEX
  8
PLAN_1
 62
     2
  6
CONTINUOUS
 10
-1.582862
 20
1.878252
  0
VERTEX
  8
PLAN_1
 62
     2
  6
CONTINUOUS
 10
-1.582346
 20
1.875677
  0
VERTEX
  8
PLAN_1
 62
     2
  6
CONTINUOUS
 10
-1.581835
 20
1.872591
  0
VERTEX
  8
PLAN_1
 62
     2
  6
CONTINUOUS
 10
-1.581319
 20
1.870016
  0
VERTEX
  8
PLAN_1
 62
     2
  6
CONTINUOUS
 10
-1.579776
 20
1.867441
  0
VERTEX
  8
PLAN_1
 62
     2
  6
CONTINUOUS
 10
-1.577713
 20
1.865382
  0
VERTEX
  8
PLAN_1
 62
     2
  6
CONTINUOUS
 10
-1.575142
 20
1.863323
  0
VERTEX
  8
PLAN_1
 62
     2
  6
CONTINUOUS
 10
-1.571535
 20
1.862291
  0
VERTEX
  8
PLAN_1
 62
     2
  6
CONTINUOUS
 10
-1.566902
 20
1.861776
  0
VERTEX
  8
PLAN_1
 62
     2
  6
CONTINUOUS
 10
-1.563815
 20
1.862291
  0
VERTEX
  8
PLAN_1
 62
     2
  6
CONTINUOUS
 10
-1.560724
 20
1.862807
  0
VERTEX
  8
PLAN_1
 62
     2
  6
CONTINUOUS
 10
-1.558150
 20
1.864350
  0
VERTEX
  8
PLAN_1
 62
     2
  6
CONTINUOUS
 10
-1.555575
 20
1.865898
  0
VERTEX
  8
PLAN_1
 62
     2
  6
CONTINUOUS
 10
-1.553516
 20
1.867957
  0
VERTEX
  8
PLAN_1
 62
     2
  6
CONTINUOUS
 10
-1.552488
 20
1.870531
  0
VERTEX
  8
PLAN_1
 62
     2
  6
CONTINUOUS
 10
-1.551457
 20
1.873102
  0
VERTEX
  8
PLAN_1
 62
     2
  6
CONTINUOUS
 10
-1.550941
 20
1.876193
  0
VERTEX
  8
PLAN_1
 62
     2
  6
CONTINUOUS
 10
-1.551457
 20
1.880311
  0
VERTEX
  8
PLAN_1
 62
     2
  6
CONTINUOUS
 10
-1.553000
 20
1.883402
  0
VERTEX
  8
PLAN_1
 62
     2
  6
CONTINUOUS
 10
-1.555063
 20
1.885976
  0
VERTEX
  8
PLAN_1
 62
     2
  6
CONTINUOUS
 10
-1.557122
 20
1.887520
  0
VERTEX
  8
PLAN_1
 62
     2
  6
CONTINUOUS
 10
-1.560209
 20
1.888551
  0
VERTEX
  8
PLAN_1
 62
     2
  6
CONTINUOUS
 10
-1.562783
 20
1.889063
  0
VERTEX
  8
PLAN_1
 62
     2
  6
CONTINUOUS
 10
-1.565874
 20
1.889579
  0
VERTEX
  8
PLAN_1
 62
     2
  6
CONTINUOUS
 10
-1.568449
 20
1.889579
  0
VERTEX
  8
PLAN_1
 62
     2
  6
CONTINUOUS
 10
-1.568961
 20
1.889579
  0
VERTEX
  8
PLAN_1
 62
     2
  6
CONTINUOUS
 10
-1.569476
 20
1.889579
  0
VERTEX
  8
PLAN_1
 62
     2
  6
CONTINUOUS
 10
-1.569992
 20
1.889579
  0
VERTEX
  8
PLAN_1
 62
     2
  6
CONTINUOUS
 10
-1.570508
 20
1.889579
  0
VERTEX
  8
PLAN_1
 62
     2
  6
CONTINUOUS
 10
-1.571020
 20
1.889579
  0
VERTEX
  8
PLAN_1
 62
     2
  6
CONTINUOUS
 10
-1.571535
 20
1.889579
  0
VERTEX
  8
PLAN_1
 62
     2
  6
CONTINUOUS
 10
-1.572051
 20
1.889579
  0
VERTEX
  8
PLAN_1
 62
     2
  6
CONTINUOUS
 10
-1.572567
 20
1.889579
  0
VERTEX
  8
PLAN_1
 62
     2
  6
CONTINUOUS
 10
-1.572567
 20
1.897303
  0
SEQEND
  8
0
  0
ENDSEC
  0
EOF
