  0
SECTION
  2
HEADER
  9
$ACADVER
  1
AC1006
  9
$EXTMIN
 10
-2.141484
 20
-4.033185
  9
$EXTMAX
 10
2.140000
 20
4.028000
  9
$LTSCALE
 40
0.000394
  9
$PDMODE
 70
    35
  9
$PDSIZE
 40
0.000315
  0
ENDSEC
  0
SECTION
  2
TABLES
  0
TABLE
  2
LTYPE
 70
     9
  0
LTYPE
  2
CONTINUOUS
 70
    64
  3
Solid line
 72
    65
 73
     0
 40
0.000000
  0
LTYPE
  2
DASHED
 70
    64
  3
__ __ __ __ __ __ __ __ __ __ __ __ __ __ __
 72
    65
 73
     2
 40
0.000003
 49
0.000002
 49
-0.000001
  0
LTYPE
  2
HIDDEN
 70
    64
  3
 _ _ _ _ _ _ _ _ _ _ _ _ _ _ _ _ _ _ _ _ _ _
 72
    65
 73
     2
 40
0.000001
 49
0.000001
 49
-0.000000
  0
LTYPE
  2
CENTER
 70
    64
  3
____ _ ____ _ ____ _ ____ _ ____ _ ____ _ ____
 72
    65
 73
     4
 40
0.000008
 49
0.000005
 49
-0.000001
 49
0.000001
 49
-0.000001
  0
LTYPE
  2
PHANTOM
 70
    64
  3
_____ _ _ _____ _ _ _____ _ _ _____ _ _ ____
 72
    65
 73
     6
 40
0.000010
 49
0.000005
 49
-0.000001
 49
0.000001
 49
-0.000001
 49
0.000001
 49
-0.000001
  0
LTYPE
  2
DOT
 70
    64
  3
...............................................
 72
    65
 73
     2
 40
0.000001
 49
0.000000
 49
-0.000001
  0
LTYPE
  2
DASHDOT
 70
    64
  3
__ . __ . __ . __ . __ . __ . __ . __ . __ . __
 72
    65
 73
     4
 40
0.000004
 49
0.000002
 49
-0.000001
 49
0.000000
 49
-0.000001
  0
LTYPE
  2
BORDER
 70
    64
  3
__ __ . __ __ . __ __ . __ __ . __ __ . __ __
 72
    65
 73
     6
 40
0.000007
 49
0.000002
 49
-0.000001
 49
0.000002
 49
-0.000001
 49
0.000000
 49
-0.000001
  0
LTYPE
  2
DIVIDE
 70
    64
  3
__ . . __ . . __ . . __ . . __ . . __ . . __
 72
    65
 73
     6
 40
0.000005
 49
0.000002
 49
-0.000001
 49
0.000000
 49
-0.000001
 49
0.000000
 49
-0.000001
  0
LTYPE
  2
DOTDOT
 70
    64
  3
 . .  . .  . .  . .  . .  . . 
 72
    65
 73
     5
 40
0.000002
 49
-0.000001
 49
0.000000
 49
-0.000001
 49
0.000000
 49
-0.000001
  0
ENDTAB
  0
TABLE
  2
STYLE
 70
     0
  0
ENDTAB
  0
TABLE
  2
LAYER
 70
     3
  0
LAYER
  2
FOREGROUND
 70
    64
 62
     7
  6
CONTINUOUS
  0
LAYER
  2
BACKGROUND
 70
    65
 62
    -7
  6
CONTINUOUS
  0
LAYER
  2
PLAN_1
 70
    64
 62
     7
  6
CONTINUOUS
  0
ENDTAB
  0
ENDSEC
  0
SECTION
  2
ENTITIES
  0
POLYLINE
  8
PLAN_1
  6
CONTINUOUS
 66
     1
 40
0.003000
 41
0.003000
  0
VERTEX
  8
PLAN_1
  6
CONTINUOUS
 10
0.351929
 20
-3.998421
  0
VERTEX
  8
PLAN_1
  6
CONTINUOUS
 10
0.194736
 20
-3.998421
  0
VERTEX
  8
PLAN_1
  6
CONTINUOUS
 10
0.194736
 20
-3.976252
  0
VERTEX
  8
PLAN_1
  6
CONTINUOUS
 10
0.317165
 20
-3.823091
  0
VERTEX
  8
PLAN_1
  6
CONTINUOUS
 10
0.204307
 20
-3.823091
  0
VERTEX
  8
PLAN_1
  6
CONTINUOUS
 10
0.204307
 20
-3.799409
  0
VERTEX
  8
PLAN_1
  6
CONTINUOUS
 10
0.351929
 20
-3.799409
  0
VERTEX
  8
PLAN_1
  6
CONTINUOUS
 10
0.351929
 20
-3.822587
  0
VERTEX
  8
PLAN_1
  6
CONTINUOUS
 10
0.228996
 20
-3.974740
  0
VERTEX
  8
PLAN_1
  6
CONTINUOUS
 10
0.351929
 20
-3.974740
  0
VERTEX
  8
PLAN_1
  6
CONTINUOUS
 10
0.351929
 20
-3.998421
  0
SEQEND
  8
0
  0
POLYLINE
  8
PLAN_1
  6
CONTINUOUS
 66
     1
 40
0.003000
 41
0.003000
  0
VERTEX
  8
PLAN_1
  6
CONTINUOUS
 10
0.519197
 20
-3.859366
  0
VERTEX
  8
PLAN_1
  6
CONTINUOUS
 10
0.517685
 20
-3.852815
  0
VERTEX
  8
PLAN_1
  6
CONTINUOUS
 10
0.515169
 20
-3.847272
  0
VERTEX
  8
PLAN_1
  6
CONTINUOUS
 10
0.512650
 20
-3.842236
  0
VERTEX
  8
PLAN_1
  6
CONTINUOUS
 10
0.510130
 20
-3.837701
  0
VERTEX
  8
PLAN_1
  6
CONTINUOUS
 10
0.506602
 20
-3.834173
  0
VERTEX
  8
PLAN_1
  6
CONTINUOUS
 10
0.503075
 20
-3.830646
  0
VERTEX
  8
PLAN_1
  6
CONTINUOUS
 10
0.499547
 20
-3.827622
  0
VERTEX
  8
PLAN_1
  6
CONTINUOUS
 10
0.495520
 20
-3.825606
  0
VERTEX
  8
PLAN_1
  6
CONTINUOUS
 10
0.491488
 20
-3.823091
  0
VERTEX
  8
PLAN_1
  6
CONTINUOUS
 10
0.487457
 20
-3.821579
  0
VERTEX
  8
PLAN_1
  6
CONTINUOUS
 10
0.483425
 20
-3.820571
  0
VERTEX
  8
PLAN_1
  6
CONTINUOUS
 10
0.478894
 20
-3.819563
  0
VERTEX
  8
PLAN_1
  6
CONTINUOUS
 10
0.470831
 20
-3.818051
  0
VERTEX
  8
PLAN_1
  6
CONTINUOUS
 10
0.463276
 20
-3.818051
  0
VERTEX
  8
PLAN_1
  6
CONTINUOUS
 10
0.456724
 20
-3.818051
  0
VERTEX
  8
PLAN_1
  6
CONTINUOUS
 10
0.450173
 20
-3.819059
  0
VERTEX
  8
PLAN_1
  6
CONTINUOUS
 10
0.444130
 20
-3.820571
  0
VERTEX
  8
PLAN_1
  6
CONTINUOUS
 10
0.438083
 20
-3.822587
  0
VERTEX
  8
PLAN_1
  6
CONTINUOUS
 10
0.432035
 20
-3.825606
  0
VERTEX
  8
PLAN_1
  6
CONTINUOUS
 10
0.427000
 20
-3.829134
  0
VERTEX
  8
PLAN_1
  6
CONTINUOUS
 10
0.421961
 20
-3.833165
  0
VERTEX
  8
PLAN_1
  6
CONTINUOUS
 10
0.417425
 20
-3.837701
  0
VERTEX
  8
PLAN_1
  6
CONTINUOUS
 10
0.412890
 20
-3.842740
  0
VERTEX
  8
PLAN_1
  6
CONTINUOUS
 10
0.409366
 20
-3.848783
  0
VERTEX
  8
PLAN_1
  6
CONTINUOUS
 10
0.405839
 20
-3.855335
  0
VERTEX
  8
PLAN_1
  6
CONTINUOUS
 10
0.403319
 20
-3.862386
  0
VERTEX
  8
PLAN_1
  6
CONTINUOUS
 10
0.401303
 20
-3.869945
  0
VERTEX
  8
PLAN_1
  6
CONTINUOUS
 10
0.399287
 20
-3.878508
  0
VERTEX
  8
PLAN_1
  6
CONTINUOUS
 10
0.398280
 20
-3.887579
  0
VERTEX
  8
PLAN_1
  6
CONTINUOUS
 10
0.398280
 20
-3.897150
  0
VERTEX
  8
PLAN_1
  6
CONTINUOUS
 10
0.398280
 20
-3.905717
  0
VERTEX
  8
PLAN_1
  6
CONTINUOUS
 10
0.398783
 20
-3.913776
  0
VERTEX
  8
PLAN_1
  6
CONTINUOUS
 10
0.399791
 20
-3.921839
  0
VERTEX
  8
PLAN_1
  6
CONTINUOUS
 10
0.401303
 20
-3.929902
  0
VERTEX
  8
PLAN_1
  6
CONTINUOUS
 10
0.403319
 20
-3.936953
  0
VERTEX
  8
PLAN_1
  6
CONTINUOUS
 10
0.405839
 20
-3.944008
  0
VERTEX
  8
PLAN_1
  6
CONTINUOUS
 10
0.408862
 20
-3.950051
  0
VERTEX
  8
PLAN_1
  6
CONTINUOUS
 10
0.412386
 20
-3.956098
  0
VERTEX
  8
PLAN_1
  6
CONTINUOUS
 10
0.416921
 20
-3.961138
  0
VERTEX
  8
PLAN_1
  6
CONTINUOUS
 10
0.421457
 20
-3.966173
  0
VERTEX
  8
PLAN_1
  6
CONTINUOUS
 10
0.427000
 20
-3.970205
  0
VERTEX
  8
PLAN_1
  6
CONTINUOUS
 10
0.433043
 20
-3.973732
  0
VERTEX
  8
PLAN_1
  6
CONTINUOUS
 10
0.439594
 20
-3.976252
  0
VERTEX
  8
PLAN_1
  6
CONTINUOUS
 10
0.447150
 20
-3.978268
  0
VERTEX
  8
PLAN_1
  6
CONTINUOUS
 10
0.455213
 20
-3.979276
  0
VERTEX
  8
PLAN_1
  6
CONTINUOUS
 10
0.464280
 20
-3.979780
  0
VERTEX
  8
PLAN_1
  6
CONTINUOUS
 10
0.467807
 20
-3.979780
  0
VERTEX
  8
PLAN_1
  6
CONTINUOUS
 10
0.471335
 20
-3.979276
  0
VERTEX
  8
PLAN_1
  6
CONTINUOUS
 10
0.475366
 20
-3.978772
  0
VERTEX
  8
PLAN_1
  6
CONTINUOUS
 10
0.479398
 20
-3.977764
  0
VERTEX
  8
PLAN_1
  6
CONTINUOUS
 10
0.483425
 20
-3.976756
  0
VERTEX
  8
PLAN_1
  6
CONTINUOUS
 10
0.487457
 20
-3.974740
  0
VERTEX
  8
PLAN_1
  6
CONTINUOUS
 10
0.491488
 20
-3.972724
  0
VERTEX
  8
PLAN_1
  6
CONTINUOUS
 10
0.495520
 20
-3.969701
  0
VERTEX
  8
PLAN_1
  6
CONTINUOUS
 10
0.499547
 20
-3.966677
  0
VERTEX
  8
PLAN_1
  6
CONTINUOUS
 10
0.503579
 20
-3.962650
  0
VERTEX
  8
PLAN_1
  6
CONTINUOUS
 10
0.507106
 20
-3.958618
  0
VERTEX
  8
PLAN_1
  6
CONTINUOUS
 10
0.510634
 20
-3.953075
  0
VERTEX
  8
PLAN_1
  6
CONTINUOUS
 10
0.514161
 20
-3.947535
  0
VERTEX
  8
PLAN_1
  6
CONTINUOUS
 10
0.516681
 20
-3.940984
  0
VERTEX
  8
PLAN_1
  6
CONTINUOUS
 10
0.519197
 20
-3.933425
  0
VERTEX
  8
PLAN_1
  6
CONTINUOUS
 10
0.521213
 20
-3.925366
  0
VERTEX
  8
PLAN_1
  6
CONTINUOUS
 10
0.547413
 20
-3.925366
  0
VERTEX
  8
PLAN_1
  6
CONTINUOUS
 10
0.545902
 20
-3.931913
  0
VERTEX
  8
PLAN_1
  6
CONTINUOUS
 10
0.544390
 20
-3.938465
  0
VERTEX
  8
PLAN_1
  6
CONTINUOUS
 10
0.542878
 20
-3.944512
  0
VERTEX
  8
PLAN_1
  6
CONTINUOUS
 10
0.540862
 20
-3.950051
  0
VERTEX
  8
PLAN_1
  6
CONTINUOUS
 10
0.538846
 20
-3.955594
  0
VERTEX
  8
PLAN_1
  6
CONTINUOUS
 10
0.536327
 20
-3.960634
  0
VERTEX
  8
PLAN_1
  6
CONTINUOUS
 10
0.533811
 20
-3.965169
  0
VERTEX
  8
PLAN_1
  6
CONTINUOUS
 10
0.530787
 20
-3.969197
  0
VERTEX
  8
PLAN_1
  6
CONTINUOUS
 10
0.528268
 20
-3.973228
  0
VERTEX
  8
PLAN_1
  6
CONTINUOUS
 10
0.525244
 20
-3.976756
  0
VERTEX
  8
PLAN_1
  6
CONTINUOUS
 10
0.521717
 20
-3.980283
  0
VERTEX
  8
PLAN_1
  6
CONTINUOUS
 10
0.518693
 20
-3.983303
  0
VERTEX
  8
PLAN_1
  6
CONTINUOUS
 10
0.512146
 20
-3.988343
  0
VERTEX
  8
PLAN_1
  6
CONTINUOUS
 10
0.505091
 20
-3.992878
  0
VERTEX
  8
PLAN_1
  6
CONTINUOUS
 10
0.498039
 20
-3.995902
  0
VERTEX
  8
PLAN_1
  6
CONTINUOUS
 10
0.491488
 20
-3.998925
  0
VERTEX
  8
PLAN_1
  6
CONTINUOUS
 10
0.484433
 20
-4.000937
  0
VERTEX
  8
PLAN_1
  6
CONTINUOUS
 10
0.478390
 20
-4.001945
  0
VERTEX
  8
PLAN_1
  6
CONTINUOUS
 10
0.467807
 20
-4.003457
  0
VERTEX
  8
PLAN_1
  6
CONTINUOUS
 10
0.460252
 20
-4.003961
  0
VERTEX
  8
PLAN_1
  6
CONTINUOUS
 10
0.451685
 20
-4.003457
  0
VERTEX
  8
PLAN_1
  6
CONTINUOUS
 10
0.443122
 20
-4.002449
  0
VERTEX
  8
PLAN_1
  6
CONTINUOUS
 10
0.435059
 20
-4.000437
  0
VERTEX
  8
PLAN_1
  6
CONTINUOUS
 10
0.427000
 20
-3.997917
  0
VERTEX
  8
PLAN_1
  6
CONTINUOUS
 10
0.418937
 20
-3.994390
  0
VERTEX
  8
PLAN_1
  6
CONTINUOUS
 10
0.411882
 20
-3.990358
  0
VERTEX
  8
PLAN_1
  6
CONTINUOUS
 10
0.404831
 20
-3.985319
  0
VERTEX
  8
PLAN_1
  6
CONTINUOUS
 10
0.398280
 20
-3.979276
  0
VERTEX
  8
PLAN_1
  6
CONTINUOUS
 10
0.395256
 20
-3.976252
  0
VERTEX
  8
PLAN_1
  6
CONTINUOUS
 10
0.392236
 20
-3.972724
  0
VERTEX
  8
PLAN_1
  6
CONTINUOUS
 10
0.389213
 20
-3.968693
  0
VERTEX
  8
PLAN_1
  6
CONTINUOUS
 10
0.386693
 20
-3.965169
  0
VERTEX
  8
PLAN_1
  6
CONTINUOUS
 10
0.384173
 20
-3.960634
  0
VERTEX
  8
PLAN_1
  6
CONTINUOUS
 10
0.382157
 20
-3.956098
  0
VERTEX
  8
PLAN_1
  6
CONTINUOUS
 10
0.380142
 20
-3.951563
  0
VERTEX
  8
PLAN_1
  6
CONTINUOUS
 10
0.378126
 20
-3.946528
  0
VERTEX
  8
PLAN_1
  6
CONTINUOUS
 10
0.376114
 20
-3.941488
  0
VERTEX
  8
PLAN_1
  6
CONTINUOUS
 10
0.374602
 20
-3.935945
  0
VERTEX
  8
PLAN_1
  6
CONTINUOUS
 10
0.373594
 20
-3.930406
  0
VERTEX
  8
PLAN_1
  6
CONTINUOUS
 10
0.372587
 20
-3.924358
  0
VERTEX
  8
PLAN_1
  6
CONTINUOUS
 10
0.371579
 20
-3.917807
  0
VERTEX
  8
PLAN_1
  6
CONTINUOUS
 10
0.371075
 20
-3.911764
  0
VERTEX
  8
PLAN_1
  6
CONTINUOUS
 10
0.370571
 20
-3.904709
  0
VERTEX
  8
PLAN_1
  6
CONTINUOUS
 10
0.370571
 20
-3.897654
  0
VERTEX
  8
PLAN_1
  6
CONTINUOUS
 10
0.370571
 20
-3.886571
  0
VERTEX
  8
PLAN_1
  6
CONTINUOUS
 10
0.372083
 20
-3.875488
  0
VERTEX
  8
PLAN_1
  6
CONTINUOUS
 10
0.374098
 20
-3.865409
  0
VERTEX
  8
PLAN_1
  6
CONTINUOUS
 10
0.376614
 20
-3.855839
  0
VERTEX
  8
PLAN_1
  6
CONTINUOUS
 10
0.380142
 20
-3.846264
  0
VERTEX
  8
PLAN_1
  6
CONTINUOUS
 10
0.384677
 20
-3.837701
  0
VERTEX
  8
PLAN_1
  6
CONTINUOUS
 10
0.389213
 20
-3.830142
  0
VERTEX
  8
PLAN_1
  6
CONTINUOUS
 10
0.395256
 20
-3.822587
  0
VERTEX
  8
PLAN_1
  6
CONTINUOUS
 10
0.401303
 20
-3.816539
  0
VERTEX
  8
PLAN_1
  6
CONTINUOUS
 10
0.408358
 20
-3.810492
  0
VERTEX
  8
PLAN_1
  6
CONTINUOUS
 10
0.412386
 20
-3.807972
  0
VERTEX
  8
PLAN_1
  6
CONTINUOUS
 10
0.415913
 20
-3.805457
  0
VERTEX
  8
PLAN_1
  6
CONTINUOUS
 10
0.419945
 20
-3.803441
  0
VERTEX
  8
PLAN_1
  6
CONTINUOUS
 10
0.424480
 20
-3.801425
  0
VERTEX
  8
PLAN_1
  6
CONTINUOUS
 10
0.428512
 20
-3.799913
  0
VERTEX
  8
PLAN_1
  6
CONTINUOUS
 10
0.433043
 20
-3.798402
  0
VERTEX
  8
PLAN_1
  6
CONTINUOUS
 10
0.438083
 20
-3.796890
  0
VERTEX
  8
PLAN_1
  6
CONTINUOUS
 10
0.442618
 20
-3.795882
  0
VERTEX
  8
PLAN_1
  6
CONTINUOUS
 10
0.452693
 20
-3.794370
  0
VERTEX
  8
PLAN_1
  6
CONTINUOUS
 10
0.463276
 20
-3.793866
  0
VERTEX
  8
PLAN_1
  6
CONTINUOUS
 10
0.472846
 20
-3.794370
  0
VERTEX
  8
PLAN_1
  6
CONTINUOUS
 10
0.481413
 20
-3.795378
  0
VERTEX
  8
PLAN_1
  6
CONTINUOUS
 10
0.489472
 20
-3.796890
  0
VERTEX
  8
PLAN_1
  6
CONTINUOUS
 10
0.497031
 20
-3.799409
  0
VERTEX
  8
PLAN_1
  6
CONTINUOUS
 10
0.504083
 20
-3.802433
  0
VERTEX
  8
PLAN_1
  6
CONTINUOUS
 10
0.510634
 20
-3.805961
  0
VERTEX
  8
PLAN_1
  6
CONTINUOUS
 10
0.516681
 20
-3.809484
  0
VERTEX
  8
PLAN_1
  6
CONTINUOUS
 10
0.522220
 20
-3.814020
  0
VERTEX
  8
PLAN_1
  6
CONTINUOUS
 10
0.526756
 20
-3.818555
  0
VERTEX
  8
PLAN_1
  6
CONTINUOUS
 10
0.531291
 20
-3.824098
  0
VERTEX
  8
PLAN_1
  6
CONTINUOUS
 10
0.534815
 20
-3.829134
  0
VERTEX
  8
PLAN_1
  6
CONTINUOUS
 10
0.537839
 20
-3.834677
  0
VERTEX
  8
PLAN_1
  6
CONTINUOUS
 10
0.540862
 20
-3.840724
  0
VERTEX
  8
PLAN_1
  6
CONTINUOUS
 10
0.542878
 20
-3.846768
  0
VERTEX
  8
PLAN_1
  6
CONTINUOUS
 10
0.544390
 20
-3.852815
  0
VERTEX
  8
PLAN_1
  6
CONTINUOUS
 10
0.545398
 20
-3.859366
  0
VERTEX
  8
PLAN_1
  6
CONTINUOUS
 10
0.519197
 20
-3.859366
  0
SEQEND
  8
0
  0
POLYLINE
  8
PLAN_1
  6
CONTINUOUS
 66
     1
 40
0.003000
 41
0.003000
  0
VERTEX
  8
PLAN_1
  6
CONTINUOUS
 10
0.606862
 20
-3.998421
  0
VERTEX
  8
PLAN_1
  6
CONTINUOUS
 10
0.579657
 20
-3.998421
  0
VERTEX
  8
PLAN_1
  6
CONTINUOUS
 10
0.579657
 20
-3.799409
  0
VERTEX
  8
PLAN_1
  6
CONTINUOUS
 10
0.606862
 20
-3.799409
  0
VERTEX
  8
PLAN_1
  6
CONTINUOUS
 10
0.606862
 20
-3.895638
  0
VERTEX
  8
PLAN_1
  6
CONTINUOUS
 10
0.703094
 20
-3.799409
  0
VERTEX
  8
PLAN_1
  6
CONTINUOUS
 10
0.740378
 20
-3.799409
  0
VERTEX
  8
PLAN_1
  6
CONTINUOUS
 10
0.657244
 20
-3.879516
  0
VERTEX
  8
PLAN_1
  6
CONTINUOUS
 10
0.742898
 20
-3.998421
  0
VERTEX
  8
PLAN_1
  6
CONTINUOUS
 10
0.707630
 20
-3.998421
  0
VERTEX
  8
PLAN_1
  6
CONTINUOUS
 10
0.638102
 20
-3.898661
  0
VERTEX
  8
PLAN_1
  6
CONTINUOUS
 10
0.606862
 20
-3.928390
  0
VERTEX
  8
PLAN_1
  6
CONTINUOUS
 10
0.606862
 20
-3.998421
  0
SEQEND
  8
0
  0
POLYLINE
  8
PLAN_1
  6
CONTINUOUS
 66
     1
 40
0.003000
 41
0.003000
  0
VERTEX
  8
PLAN_1
  6
CONTINUOUS
 10
0.849709
 20
-3.998421
  0
VERTEX
  8
PLAN_1
  6
CONTINUOUS
 10
0.823004
 20
-3.998421
  0
VERTEX
  8
PLAN_1
  6
CONTINUOUS
 10
0.823004
 20
-3.918311
  0
VERTEX
  8
PLAN_1
  6
CONTINUOUS
 10
0.747933
 20
-3.799409
  0
VERTEX
  8
PLAN_1
  6
CONTINUOUS
 10
0.779173
 20
-3.799409
  0
VERTEX
  8
PLAN_1
  6
CONTINUOUS
 10
0.836102
 20
-3.895138
  0
VERTEX
  8
PLAN_1
  6
CONTINUOUS
 10
0.893539
 20
-3.799409
  0
VERTEX
  8
PLAN_1
  6
CONTINUOUS
 10
0.925280
 20
-3.799409
  0
VERTEX
  8
PLAN_1
  6
CONTINUOUS
 10
0.849709
 20
-3.918311
  0
VERTEX
  8
PLAN_1
  6
CONTINUOUS
 10
0.849709
 20
-3.998421
  0
SEQEND
  8
0
  0
POLYLINE
  8
PLAN_1
  6
CONTINUOUS
 66
     1
 40
0.003000
 41
0.003000
  0
VERTEX
  8
PLAN_1
  6
CONTINUOUS
 10
1.040657
 20
-3.894634
  0
VERTEX
  8
PLAN_1
  6
CONTINUOUS
 10
1.045189
 20
-3.896646
  0
VERTEX
  8
PLAN_1
  6
CONTINUOUS
 10
1.049724
 20
-3.899165
  0
VERTEX
  8
PLAN_1
  6
CONTINUOUS
 10
1.053252
 20
-3.901685
  0
VERTEX
  8
PLAN_1
  6
CONTINUOUS
 10
1.056780
 20
-3.904709
  0
VERTEX
  8
PLAN_1
  6
CONTINUOUS
 10
1.059803
 20
-3.907732
  0
VERTEX
  8
PLAN_1
  6
CONTINUOUS
 10
1.062319
 20
-3.910756
  0
VERTEX
  8
PLAN_1
  6
CONTINUOUS
 10
1.064839
 20
-3.913776
  0
VERTEX
  8
PLAN_1
  6
CONTINUOUS
 10
1.066350
 20
-3.917303
  0
VERTEX
  8
PLAN_1
  6
CONTINUOUS
 10
1.069374
 20
-3.923350
  0
VERTEX
  8
PLAN_1
  6
CONTINUOUS
 10
1.071390
 20
-3.929902
  0
VERTEX
  8
PLAN_1
  6
CONTINUOUS
 10
1.072398
 20
-3.936449
  0
VERTEX
  8
PLAN_1
  6
CONTINUOUS
 10
1.072398
 20
-3.941992
  0
VERTEX
  8
PLAN_1
  6
CONTINUOUS
 10
1.072398
 20
-3.948039
  0
VERTEX
  8
PLAN_1
  6
CONTINUOUS
 10
1.071894
 20
-3.953579
  0
VERTEX
  8
PLAN_1
  6
CONTINUOUS
 10
1.070382
 20
-3.959626
  0
VERTEX
  8
PLAN_1
  6
CONTINUOUS
 10
1.068870
 20
-3.965169
  0
VERTEX
  8
PLAN_1
  6
CONTINUOUS
 10
1.066350
 20
-3.970205
  0
VERTEX
  8
PLAN_1
  6
CONTINUOUS
 10
1.063831
 20
-3.975244
  0
VERTEX
  8
PLAN_1
  6
CONTINUOUS
 10
1.060807
 20
-3.980283
  0
VERTEX
  8
PLAN_1
  6
CONTINUOUS
 10
1.056780
 20
-3.984815
  0
VERTEX
  8
PLAN_1
  6
CONTINUOUS
 10
1.052748
 20
-3.988846
  0
VERTEX
  8
PLAN_1
  6
CONTINUOUS
 10
1.047709
 20
-3.992374
  0
VERTEX
  8
PLAN_1
  6
CONTINUOUS
 10
1.042169
 20
-3.995902
  0
VERTEX
  8
PLAN_1
  6
CONTINUOUS
 10
1.036122
 20
-3.998421
  0
VERTEX
  8
PLAN_1
  6
CONTINUOUS
 10
1.029571
 20
-4.000937
  0
VERTEX
  8
PLAN_1
  6
CONTINUOUS
 10
1.022520
 20
-4.002449
  0
VERTEX
  8
PLAN_1
  6
CONTINUOUS
 10
1.014961
 20
-4.003457
  0
VERTEX
  8
PLAN_1
  6
CONTINUOUS
 10
1.006398
 20
-4.003961
  0
VERTEX
  8
PLAN_1
  6
CONTINUOUS
 10
1.001862
 20
-4.003457
  0
VERTEX
  8
PLAN_1
  6
CONTINUOUS
 10
0.996823
 20
-4.002953
  0
VERTEX
  8
PLAN_1
  6
CONTINUOUS
 10
0.991280
 20
-4.002449
  0
VERTEX
  8
PLAN_1
  6
CONTINUOUS
 10
0.984732
 20
-4.000937
  0
VERTEX
  8
PLAN_1
  6
CONTINUOUS
 10
0.978685
 20
-3.998925
  0
VERTEX
  8
PLAN_1
  6
CONTINUOUS
 10
0.972138
 20
-3.996406
  0
VERTEX
  8
PLAN_1
  6
CONTINUOUS
 10
0.965587
 20
-3.992878
  0
VERTEX
  8
PLAN_1
  6
CONTINUOUS
 10
0.959539
 20
-3.988846
  0
VERTEX
  8
PLAN_1
  6
CONTINUOUS
 10
0.956012
 20
-3.985823
  0
VERTEX
  8
PLAN_1
  6
CONTINUOUS
 10
0.952992
 20
-3.982803
  0
VERTEX
  8
PLAN_1
  6
CONTINUOUS
 10
0.950472
 20
-3.979276
  0
VERTEX
  8
PLAN_1
  6
CONTINUOUS
 10
0.947953
 20
-3.976252
  0
VERTEX
  8
PLAN_1
  6
CONTINUOUS
 10
0.945937
 20
-3.972724
  0
VERTEX
  8
PLAN_1
  6
CONTINUOUS
 10
0.944425
 20
-3.969701
  0
VERTEX
  8
PLAN_1
  6
CONTINUOUS
 10
0.943417
 20
-3.966173
  0
VERTEX
  8
PLAN_1
  6
CONTINUOUS
 10
0.942409
 20
-3.963154
  0
VERTEX
  8
PLAN_1
  6
CONTINUOUS
 10
0.940898
 20
-3.957106
  0
VERTEX
  8
PLAN_1
  6
CONTINUOUS
 10
0.939890
 20
-3.951563
  0
VERTEX
  8
PLAN_1
  6
CONTINUOUS
 10
0.939890
 20
-3.946528
  0
VERTEX
  8
PLAN_1
  6
CONTINUOUS
 10
0.939890
 20
-3.942496
  0
VERTEX
  8
PLAN_1
  6
CONTINUOUS
 10
0.939890
 20
-3.937961
  0
VERTEX
  8
PLAN_1
  6
CONTINUOUS
 10
0.940394
 20
-3.933929
  0
VERTEX
  8
PLAN_1
  6
CONTINUOUS
 10
0.940898
 20
-3.929902
  0
VERTEX
  8
PLAN_1
  6
CONTINUOUS
 10
0.941906
 20
-3.925870
  0
VERTEX
  8
PLAN_1
  6
CONTINUOUS
 10
0.943417
 20
-3.922343
  0
VERTEX
  8
PLAN_1
  6
CONTINUOUS
 10
0.944929
 20
-3.919319
  0
VERTEX
  8
PLAN_1
  6
CONTINUOUS
 10
0.946441
 20
-3.915791
  0
VERTEX
  8
PLAN_1
  6
CONTINUOUS
 10
0.948457
 20
-3.912772
  0
VERTEX
  8
PLAN_1
  6
CONTINUOUS
 10
0.950976
 20
-3.910252
  0
VERTEX
  8
PLAN_1
  6
CONTINUOUS
 10
0.952992
 20
-3.907228
  0
VERTEX
  8
PLAN_1
  6
CONTINUOUS
 10
0.956012
 20
-3.904709
  0
VERTEX
  8
PLAN_1
  6
CONTINUOUS
 10
0.959035
 20
-3.902693
  0
VERTEX
  8
PLAN_1
  6
CONTINUOUS
 10
0.965587
 20
-3.898661
  0
VERTEX
  8
PLAN_1
  6
CONTINUOUS
 10
0.972642
 20
-3.895138
  0
VERTEX
  8
PLAN_1
  6
CONTINUOUS
 10
0.966594
 20
-3.892114
  0
VERTEX
  8
PLAN_1
  6
CONTINUOUS
 10
0.961555
 20
-3.889091
  0
VERTEX
  8
PLAN_1
  6
CONTINUOUS
 10
0.957020
 20
-3.885059
  0
VERTEX
  8
PLAN_1
  6
CONTINUOUS
 10
0.953496
 20
-3.880524
  0
VERTEX
  8
PLAN_1
  6
CONTINUOUS
 10
0.950472
 20
-3.875488
  0
VERTEX
  8
PLAN_1
  6
CONTINUOUS
 10
0.947953
 20
-3.869945
  0
VERTEX
  8
PLAN_1
  6
CONTINUOUS
 10
0.946945
 20
-3.863394
  0
VERTEX
  8
PLAN_1
  6
CONTINUOUS
 10
0.946441
 20
-3.856846
  0
VERTEX
  8
PLAN_1
  6
CONTINUOUS
 10
0.946441
 20
-3.852815
  0
VERTEX
  8
PLAN_1
  6
CONTINUOUS
 10
0.946945
 20
-3.848783
  0
VERTEX
  8
PLAN_1
  6
CONTINUOUS
 10
0.947953
 20
-3.844248
  0
VERTEX
  8
PLAN_1
  6
CONTINUOUS
 10
0.948961
 20
-3.840220
  0
VERTEX
  8
PLAN_1
  6
CONTINUOUS
 10
0.950472
 20
-3.835685
  0
VERTEX
  8
PLAN_1
  6
CONTINUOUS
 10
0.952992
 20
-3.831150
  0
VERTEX
  8
PLAN_1
  6
CONTINUOUS
 10
0.955508
 20
-3.826614
  0
VERTEX
  8
PLAN_1
  6
CONTINUOUS
 10
0.958531
 20
-3.822587
  0
VERTEX
  8
PLAN_1
  6
CONTINUOUS
 10
0.962059
 20
-3.818555
  0
VERTEX
  8
PLAN_1
  6
CONTINUOUS
 10
0.966091
 20
-3.815028
  0
VERTEX
  8
PLAN_1
  6
CONTINUOUS
 10
0.971130
 20
-3.811500
  0
VERTEX
  8
PLAN_1
  6
CONTINUOUS
 10
0.976669
 20
-3.808980
  0
VERTEX
  8
PLAN_1
  6
CONTINUOUS
 10
0.982717
 20
-3.806465
  0
VERTEX
  8
PLAN_1
  6
CONTINUOUS
 10
0.989772
 20
-3.804953
  0
VERTEX
  8
PLAN_1
  6
CONTINUOUS
 10
0.997327
 20
-3.803945
  0
VERTEX
  8
PLAN_1
  6
CONTINUOUS
 10
1.005390
 20
-3.803441
  0
VERTEX
  8
PLAN_1
  6
CONTINUOUS
 10
1.013449
 20
-3.803441
  0
VERTEX
  8
PLAN_1
  6
CONTINUOUS
 10
1.020504
 20
-3.804449
  0
VERTEX
  8
PLAN_1
  6
CONTINUOUS
 10
1.027051
 20
-3.805961
  0
VERTEX
  8
PLAN_1
  6
CONTINUOUS
 10
1.033098
 20
-3.807972
  0
VERTEX
  8
PLAN_1
  6
CONTINUOUS
 10
1.038642
 20
-3.810492
  0
VERTEX
  8
PLAN_1
  6
CONTINUOUS
 10
1.043677
 20
-3.813516
  0
VERTEX
  8
PLAN_1
  6
CONTINUOUS
 10
1.047709
 20
-3.816539
  0
VERTEX
  8
PLAN_1
  6
CONTINUOUS
 10
1.051740
 20
-3.820067
  0
VERTEX
  8
PLAN_1
  6
CONTINUOUS
 10
1.055268
 20
-3.823594
  0
VERTEX
  8
PLAN_1
  6
CONTINUOUS
 10
1.058291
 20
-3.827622
  0
VERTEX
  8
PLAN_1
  6
CONTINUOUS
 10
1.060307
 20
-3.831654
  0
VERTEX
  8
PLAN_1
  6
CONTINUOUS
 10
1.062319
 20
-3.836189
  0
VERTEX
  8
PLAN_1
  6
CONTINUOUS
 10
1.063831
 20
-3.840724
  0
VERTEX
  8
PLAN_1
  6
CONTINUOUS
 10
1.064839
 20
-3.844752
  0
VERTEX
  8
PLAN_1
  6
CONTINUOUS
 10
1.065343
 20
-3.849287
  0
VERTEX
  8
PLAN_1
  6
CONTINUOUS
 10
1.065846
 20
-3.853823
  0
VERTEX
  8
PLAN_1
  6
CONTINUOUS
 10
1.065343
 20
-3.858862
  0
VERTEX
  8
PLAN_1
  6
CONTINUOUS
 10
1.064839
 20
-3.863394
  0
VERTEX
  8
PLAN_1
  6
CONTINUOUS
 10
1.064335
 20
-3.867425
  0
VERTEX
  8
PLAN_1
  6
CONTINUOUS
 10
1.062823
 20
-3.871457
  0
VERTEX
  8
PLAN_1
  6
CONTINUOUS
 10
1.061815
 20
-3.874480
  0
VERTEX
  8
PLAN_1
  6
CONTINUOUS
 10
1.059803
 20
-3.877504
  0
VERTEX
  8
PLAN_1
  6
CONTINUOUS
 10
1.058291
 20
-3.880524
  0
VERTEX
  8
PLAN_1
  6
CONTINUOUS
 10
1.056276
 20
-3.883043
  0
VERTEX
  8
PLAN_1
  6
CONTINUOUS
 10
1.052244
 20
-3.887075
  0
VERTEX
  8
PLAN_1
  6
CONTINUOUS
 10
1.048213
 20
-3.890098
  0
VERTEX
  8
PLAN_1
  6
CONTINUOUS
 10
1.044181
 20
-3.892618
  0
VERTEX
  8
PLAN_1
  6
CONTINUOUS
 10
1.040657
 20
-3.894634
  0
SEQEND
  8
0
  0
POLYLINE
  8
PLAN_1
  6
CONTINUOUS
 66
     1
 40
0.003000
 41
0.003000
  0
VERTEX
  8
PLAN_1
  6
CONTINUOUS
 10
0.965587
 20
-3.943000
  0
VERTEX
  8
PLAN_1
  6
CONTINUOUS
 10
0.966091
 20
-3.949043
  0
VERTEX
  8
PLAN_1
  6
CONTINUOUS
 10
0.967602
 20
-3.955594
  0
VERTEX
  8
PLAN_1
  6
CONTINUOUS
 10
0.968610
 20
-3.959122
  0
VERTEX
  8
PLAN_1
  6
CONTINUOUS
 10
0.970122
 20
-3.962146
  0
VERTEX
  8
PLAN_1
  6
CONTINUOUS
 10
0.971634
 20
-3.965169
  0
VERTEX
  8
PLAN_1
  6
CONTINUOUS
 10
0.973646
 20
-3.968189
  0
VERTEX
  8
PLAN_1
  6
CONTINUOUS
 10
0.976165
 20
-3.971213
  0
VERTEX
  8
PLAN_1
  6
CONTINUOUS
 10
0.979189
 20
-3.973732
  0
VERTEX
  8
PLAN_1
  6
CONTINUOUS
 10
0.982717
 20
-3.975748
  0
VERTEX
  8
PLAN_1
  6
CONTINUOUS
 10
0.986748
 20
-3.977764
  0
VERTEX
  8
PLAN_1
  6
CONTINUOUS
 10
0.990776
 20
-3.979780
  0
VERTEX
  8
PLAN_1
  6
CONTINUOUS
 10
0.995815
 20
-3.980787
  0
VERTEX
  8
PLAN_1
  6
CONTINUOUS
 10
1.001358
 20
-3.981795
  0
VERTEX
  8
PLAN_1
  6
CONTINUOUS
 10
1.007406
 20
-3.981795
  0
VERTEX
  8
PLAN_1
  6
CONTINUOUS
 10
1.013953
 20
-3.981291
  0
VERTEX
  8
PLAN_1
  6
CONTINUOUS
 10
1.021008
 20
-3.980283
  0
VERTEX
  8
PLAN_1
  6
CONTINUOUS
 10
1.024535
 20
-3.979276
  0
VERTEX
  8
PLAN_1
  6
CONTINUOUS
 10
1.027555
 20
-3.978268
  0
VERTEX
  8
PLAN_1
  6
CONTINUOUS
 10
1.030579
 20
-3.976756
  0
VERTEX
  8
PLAN_1
  6
CONTINUOUS
 10
1.033602
 20
-3.974740
  0
VERTEX
  8
PLAN_1
  6
CONTINUOUS
 10
1.036122
 20
-3.972724
  0
VERTEX
  8
PLAN_1
  6
CONTINUOUS
 10
1.038642
 20
-3.970205
  0
VERTEX
  8
PLAN_1
  6
CONTINUOUS
 10
1.041161
 20
-3.967181
  0
VERTEX
  8
PLAN_1
  6
CONTINUOUS
 10
1.042673
 20
-3.963657
  0
VERTEX
  8
PLAN_1
  6
CONTINUOUS
 10
1.044685
 20
-3.959626
  0
VERTEX
  8
PLAN_1
  6
CONTINUOUS
 10
1.045693
 20
-3.955091
  0
VERTEX
  8
PLAN_1
  6
CONTINUOUS
 10
1.046197
 20
-3.950555
  0
VERTEX
  8
PLAN_1
  6
CONTINUOUS
 10
1.046701
 20
-3.945016
  0
VERTEX
  8
PLAN_1
  6
CONTINUOUS
 10
1.046197
 20
-3.939976
  0
VERTEX
  8
PLAN_1
  6
CONTINUOUS
 10
1.045693
 20
-3.935945
  0
VERTEX
  8
PLAN_1
  6
CONTINUOUS
 10
1.044685
 20
-3.931409
  0
VERTEX
  8
PLAN_1
  6
CONTINUOUS
 10
1.043177
 20
-3.927886
  0
VERTEX
  8
PLAN_1
  6
CONTINUOUS
 10
1.041665
 20
-3.924358
  0
VERTEX
  8
PLAN_1
  6
CONTINUOUS
 10
1.039650
 20
-3.921335
  0
VERTEX
  8
PLAN_1
  6
CONTINUOUS
 10
1.037130
 20
-3.918311
  0
VERTEX
  8
PLAN_1
  6
CONTINUOUS
 10
1.034610
 20
-3.915791
  0
VERTEX
  8
PLAN_1
  6
CONTINUOUS
 10
1.031587
 20
-3.913776
  0
VERTEX
  8
PLAN_1
  6
CONTINUOUS
 10
1.028563
 20
-3.911764
  0
VERTEX
  8
PLAN_1
  6
CONTINUOUS
 10
1.025039
 20
-3.910252
  0
VERTEX
  8
PLAN_1
  6
CONTINUOUS
 10
1.021512
 20
-3.909244
  0
VERTEX
  8
PLAN_1
  6
CONTINUOUS
 10
1.017984
 20
-3.908236
  0
VERTEX
  8
PLAN_1
  6
CONTINUOUS
 10
1.013953
 20
-3.907228
  0
VERTEX
  8
PLAN_1
  6
CONTINUOUS
 10
1.009921
 20
-3.907228
  0
VERTEX
  8
PLAN_1
  6
CONTINUOUS
 10
1.005894
 20
-3.906724
  0
VERTEX
  8
PLAN_1
  6
CONTINUOUS
 10
1.000854
 20
-3.907228
  0
VERTEX
  8
PLAN_1
  6
CONTINUOUS
 10
0.996319
 20
-3.907732
  0
VERTEX
  8
PLAN_1
  6
CONTINUOUS
 10
0.992287
 20
-3.908740
  0
VERTEX
  8
PLAN_1
  6
CONTINUOUS
 10
0.988260
 20
-3.910252
  0
VERTEX
  8
PLAN_1
  6
CONTINUOUS
 10
0.984732
 20
-3.911764
  0
VERTEX
  8
PLAN_1
  6
CONTINUOUS
 10
0.981205
 20
-3.913776
  0
VERTEX
  8
PLAN_1
  6
CONTINUOUS
 10
0.978181
 20
-3.915791
  0
VERTEX
  8
PLAN_1
  6
CONTINUOUS
 10
0.975661
 20
-3.918311
  0
VERTEX
  8
PLAN_1
  6
CONTINUOUS
 10
0.973142
 20
-3.920831
  0
VERTEX
  8
PLAN_1
  6
CONTINUOUS
 10
0.971130
 20
-3.923854
  0
VERTEX
  8
PLAN_1
  6
CONTINUOUS
 10
0.969618
 20
-3.926878
  0
VERTEX
  8
PLAN_1
  6
CONTINUOUS
 10
0.968106
 20
-3.929902
  0
VERTEX
  8
PLAN_1
  6
CONTINUOUS
 10
0.967098
 20
-3.932921
  0
VERTEX
  8
PLAN_1
  6
CONTINUOUS
 10
0.966594
 20
-3.936449
  0
VERTEX
  8
PLAN_1
  6
CONTINUOUS
 10
0.966091
 20
-3.939472
  0
VERTEX
  8
PLAN_1
  6
CONTINUOUS
 10
0.965587
 20
-3.943000
  0
SEQEND
  8
0
  0
POLYLINE
  8
PLAN_1
  6
CONTINUOUS
 66
     1
 40
0.003000
 41
0.003000
  0
VERTEX
  8
PLAN_1
  6
CONTINUOUS
 10
1.040657
 20
-3.854327
  0
VERTEX
  8
PLAN_1
  6
CONTINUOUS
 10
1.040154
 20
-3.849791
  0
VERTEX
  8
PLAN_1
  6
CONTINUOUS
 10
1.038642
 20
-3.844752
  0
VERTEX
  8
PLAN_1
  6
CONTINUOUS
 10
1.037634
 20
-3.842236
  0
VERTEX
  8
PLAN_1
  6
CONTINUOUS
 10
1.036626
 20
-3.840220
  0
VERTEX
  8
PLAN_1
  6
CONTINUOUS
 10
1.035114
 20
-3.837701
  0
VERTEX
  8
PLAN_1
  6
CONTINUOUS
 10
1.033098
 20
-3.835181
  0
VERTEX
  8
PLAN_1
  6
CONTINUOUS
 10
1.030579
 20
-3.833165
  0
VERTEX
  8
PLAN_1
  6
CONTINUOUS
 10
1.028059
 20
-3.831150
  0
VERTEX
  8
PLAN_1
  6
CONTINUOUS
 10
1.025039
 20
-3.829638
  0
VERTEX
  8
PLAN_1
  6
CONTINUOUS
 10
1.022016
 20
-3.828126
  0
VERTEX
  8
PLAN_1
  6
CONTINUOUS
 10
1.017984
 20
-3.827118
  0
VERTEX
  8
PLAN_1
  6
CONTINUOUS
 10
1.013953
 20
-3.826110
  0
VERTEX
  8
PLAN_1
  6
CONTINUOUS
 10
1.009417
 20
-3.825606
  0
VERTEX
  8
PLAN_1
  6
CONTINUOUS
 10
1.003878
 20
-3.825106
  0
VERTEX
  8
PLAN_1
  6
CONTINUOUS
 10
0.999343
 20
-3.825606
  0
VERTEX
  8
PLAN_1
  6
CONTINUOUS
 10
0.995311
 20
-3.826110
  0
VERTEX
  8
PLAN_1
  6
CONTINUOUS
 10
0.991280
 20
-3.827118
  0
VERTEX
  8
PLAN_1
  6
CONTINUOUS
 10
0.987756
 20
-3.828126
  0
VERTEX
  8
PLAN_1
  6
CONTINUOUS
 10
0.984732
 20
-3.829638
  0
VERTEX
  8
PLAN_1
  6
CONTINUOUS
 10
0.982213
 20
-3.831654
  0
VERTEX
  8
PLAN_1
  6
CONTINUOUS
 10
0.980197
 20
-3.833669
  0
VERTEX
  8
PLAN_1
  6
CONTINUOUS
 10
0.978181
 20
-3.835685
  0
VERTEX
  8
PLAN_1
  6
CONTINUOUS
 10
0.976165
 20
-3.838205
  0
VERTEX
  8
PLAN_1
  6
CONTINUOUS
 10
0.975157
 20
-3.840724
  0
VERTEX
  8
PLAN_1
  6
CONTINUOUS
 10
0.973646
 20
-3.843240
  0
VERTEX
  8
PLAN_1
  6
CONTINUOUS
 10
0.973142
 20
-3.845760
  0
VERTEX
  8
PLAN_1
  6
CONTINUOUS
 10
0.972138
 20
-3.850799
  0
VERTEX
  8
PLAN_1
  6
CONTINUOUS
 10
0.971634
 20
-3.855839
  0
VERTEX
  8
PLAN_1
  6
CONTINUOUS
 10
0.971634
 20
-3.859366
  0
VERTEX
  8
PLAN_1
  6
CONTINUOUS
 10
0.972138
 20
-3.862386
  0
VERTEX
  8
PLAN_1
  6
CONTINUOUS
 10
0.973142
 20
-3.865409
  0
VERTEX
  8
PLAN_1
  6
CONTINUOUS
 10
0.974654
 20
-3.868433
  0
VERTEX
  8
PLAN_1
  6
CONTINUOUS
 10
0.976165
 20
-3.870953
  0
VERTEX
  8
PLAN_1
  6
CONTINUOUS
 10
0.977677
 20
-3.873472
  0
VERTEX
  8
PLAN_1
  6
CONTINUOUS
 10
0.979693
 20
-3.875992
  0
VERTEX
  8
PLAN_1
  6
CONTINUOUS
 10
0.982213
 20
-3.878004
  0
VERTEX
  8
PLAN_1
  6
CONTINUOUS
 10
0.984228
 20
-3.879516
  0
VERTEX
  8
PLAN_1
  6
CONTINUOUS
 10
0.987252
 20
-3.881028
  0
VERTEX
  8
PLAN_1
  6
CONTINUOUS
 10
0.989772
 20
-3.882539
  0
VERTEX
  8
PLAN_1
  6
CONTINUOUS
 10
0.992791
 20
-3.883547
  0
VERTEX
  8
PLAN_1
  6
CONTINUOUS
 10
0.995815
 20
-3.884555
  0
VERTEX
  8
PLAN_1
  6
CONTINUOUS
 10
0.999343
 20
-3.885059
  0
VERTEX
  8
PLAN_1
  6
CONTINUOUS
 10
1.002366
 20
-3.885563
  0
VERTEX
  8
PLAN_1
  6
CONTINUOUS
 10
1.005894
 20
-3.885563
  0
VERTEX
  8
PLAN_1
  6
CONTINUOUS
 10
1.009417
 20
-3.885563
  0
VERTEX
  8
PLAN_1
  6
CONTINUOUS
 10
1.013449
 20
-3.885059
  0
VERTEX
  8
PLAN_1
  6
CONTINUOUS
 10
1.016976
 20
-3.884555
  0
VERTEX
  8
PLAN_1
  6
CONTINUOUS
 10
1.020000
 20
-3.883547
  0
VERTEX
  8
PLAN_1
  6
CONTINUOUS
 10
1.023024
 20
-3.882035
  0
VERTEX
  8
PLAN_1
  6
CONTINUOUS
 10
1.026043
 20
-3.880524
  0
VERTEX
  8
PLAN_1
  6
CONTINUOUS
 10
1.028563
 20
-3.879012
  0
VERTEX
  8
PLAN_1
  6
CONTINUOUS
 10
1.031083
 20
-3.877000
  0
VERTEX
  8
PLAN_1
  6
CONTINUOUS
 10
1.033098
 20
-3.874480
  0
VERTEX
  8
PLAN_1
  6
CONTINUOUS
 10
1.035114
 20
-3.871961
  0
VERTEX
  8
PLAN_1
  6
CONTINUOUS
 10
1.036626
 20
-3.869441
  0
VERTEX
  8
PLAN_1
  6
CONTINUOUS
 10
1.038138
 20
-3.866921
  0
VERTEX
  8
PLAN_1
  6
CONTINUOUS
 10
1.039146
 20
-3.863898
  0
VERTEX
  8
PLAN_1
  6
CONTINUOUS
 10
1.039650
 20
-3.860874
  0
VERTEX
  8
PLAN_1
  6
CONTINUOUS
 10
1.040154
 20
-3.857854
  0
VERTEX
  8
PLAN_1
  6
CONTINUOUS
 10
1.040657
 20
-3.854327
  0
SEQEND
  8
0
  0
POLYLINE
  8
PLAN_1
  6
CONTINUOUS
 66
     1
 40
0.003000
 41
0.003000
  0
VERTEX
  8
PLAN_1
  6
CONTINUOUS
 10
1.183240
 20
-3.998421
  0
VERTEX
  8
PLAN_1
  6
CONTINUOUS
 10
1.157039
 20
-3.998421
  0
VERTEX
  8
PLAN_1
  6
CONTINUOUS
 10
1.157039
 20
-3.859870
  0
VERTEX
  8
PLAN_1
  6
CONTINUOUS
 10
1.111697
 20
-3.859870
  0
VERTEX
  8
PLAN_1
  6
CONTINUOUS
 10
1.111697
 20
-3.840724
  0
VERTEX
  8
PLAN_1
  6
CONTINUOUS
 10
1.122780
 20
-3.839717
  0
VERTEX
  8
PLAN_1
  6
CONTINUOUS
 10
1.131846
 20
-3.838205
  0
VERTEX
  8
PLAN_1
  6
CONTINUOUS
 10
1.136382
 20
-3.837197
  0
VERTEX
  8
PLAN_1
  6
CONTINUOUS
 10
1.139909
 20
-3.836189
  0
VERTEX
  8
PLAN_1
  6
CONTINUOUS
 10
1.143437
 20
-3.834677
  0
VERTEX
  8
PLAN_1
  6
CONTINUOUS
 10
1.146965
 20
-3.833165
  0
VERTEX
  8
PLAN_1
  6
CONTINUOUS
 10
1.149480
 20
-3.831150
  0
VERTEX
  8
PLAN_1
  6
CONTINUOUS
 10
1.152504
 20
-3.828630
  0
VERTEX
  8
PLAN_1
  6
CONTINUOUS
 10
1.154520
 20
-3.825606
  0
VERTEX
  8
PLAN_1
  6
CONTINUOUS
 10
1.157039
 20
-3.822083
  0
VERTEX
  8
PLAN_1
  6
CONTINUOUS
 10
1.159055
 20
-3.818555
  0
VERTEX
  8
PLAN_1
  6
CONTINUOUS
 10
1.160567
 20
-3.814020
  0
VERTEX
  8
PLAN_1
  6
CONTINUOUS
 10
1.162583
 20
-3.808980
  0
VERTEX
  8
PLAN_1
  6
CONTINUOUS
 10
1.164094
 20
-3.803441
  0
VERTEX
  8
PLAN_1
  6
CONTINUOUS
 10
1.183240
 20
-3.803441
  0
VERTEX
  8
PLAN_1
  6
CONTINUOUS
 10
1.183240
 20
-3.998421
  0
SEQEND
  8
0
  0
SOLID
  8
PLAN_1
 10
1.237650
 20
-4.033185
 11
1.237650
 21
-4.019075
 12
1.392327
 22
-4.033185
 13
1.392327
 23
-4.019075
  0
POLYLINE
  8
PLAN_1
  6
CONTINUOUS
 66
     1
 40
0.003000
 41
0.003000
  0
VERTEX
  8
PLAN_1
  6
CONTINUOUS
 10
1.237650
 20
-4.033185
  0
VERTEX
  8
PLAN_1
  6
CONTINUOUS
 10
1.237650
 20
-4.019075
  0
VERTEX
  8
PLAN_1
  6
CONTINUOUS
 10
1.392327
 20
-4.019075
  0
VERTEX
  8
PLAN_1
  6
CONTINUOUS
 10
1.392327
 20
-4.033185
  0
VERTEX
  8
PLAN_1
  6
CONTINUOUS
 10
1.237650
 20
-4.033185
  0
SEQEND
  8
0
  0
POLYLINE
  8
PLAN_1
  6
CONTINUOUS
 66
     1
 40
0.003000
 41
0.003000
  0
VERTEX
  8
PLAN_1
  6
CONTINUOUS
 10
1.443213
 20
-3.998421
  0
VERTEX
  8
PLAN_1
  6
CONTINUOUS
 10
1.416004
 20
-3.998421
  0
VERTEX
  8
PLAN_1
  6
CONTINUOUS
 10
1.416004
 20
-3.799409
  0
VERTEX
  8
PLAN_1
  6
CONTINUOUS
 10
1.554051
 20
-3.799409
  0
VERTEX
  8
PLAN_1
  6
CONTINUOUS
 10
1.554051
 20
-3.823091
  0
VERTEX
  8
PLAN_1
  6
CONTINUOUS
 10
1.443213
 20
-3.823091
  0
VERTEX
  8
PLAN_1
  6
CONTINUOUS
 10
1.443213
 20
-3.884051
  0
VERTEX
  8
PLAN_1
  6
CONTINUOUS
 10
1.540953
 20
-3.884051
  0
VERTEX
  8
PLAN_1
  6
CONTINUOUS
 10
1.540953
 20
-3.908236
  0
VERTEX
  8
PLAN_1
  6
CONTINUOUS
 10
1.443213
 20
-3.908236
  0
VERTEX
  8
PLAN_1
  6
CONTINUOUS
 10
1.443213
 20
-3.998421
  0
SEQEND
  8
0
  0
SOLID
  8
PLAN_1
 10
1.573197
 20
-3.998421
 11
1.544480
 21
-3.998421
 12
1.573197
 22
-3.969197
 13
1.544480
 23
-3.969197
  0
POLYLINE
  8
PLAN_1
  6
CONTINUOUS
 66
     1
 40
0.003000
 41
0.003000
  0
VERTEX
  8
PLAN_1
  6
CONTINUOUS
 10
1.573197
 20
-3.998421
  0
VERTEX
  8
PLAN_1
  6
CONTINUOUS
 10
1.544480
 20
-3.998421
  0
VERTEX
  8
PLAN_1
  6
CONTINUOUS
 10
1.544480
 20
-3.969197
  0
VERTEX
  8
PLAN_1
  6
CONTINUOUS
 10
1.573197
 20
-3.969197
  0
VERTEX
  8
PLAN_1
  6
CONTINUOUS
 10
1.573197
 20
-3.998421
  0
SEQEND
  8
0
  0
POLYLINE
  8
PLAN_1
  6
CONTINUOUS
 66
     1
 40
0.003000
 41
0.003000
  0
VERTEX
  8
PLAN_1
  6
CONTINUOUS
 10
1.768681
 20
-3.998421
  0
VERTEX
  8
PLAN_1
  6
CONTINUOUS
 10
1.621567
 20
-3.998421
  0
VERTEX
  8
PLAN_1
  6
CONTINUOUS
 10
1.621567
 20
-3.799409
  0
VERTEX
  8
PLAN_1
  6
CONTINUOUS
 10
1.766665
 20
-3.799409
  0
VERTEX
  8
PLAN_1
  6
CONTINUOUS
 10
1.766665
 20
-3.823091
  0
VERTEX
  8
PLAN_1
  6
CONTINUOUS
 10
1.648268
 20
-3.823091
  0
VERTEX
  8
PLAN_1
  6
CONTINUOUS
 10
1.648268
 20
-3.884051
  0
VERTEX
  8
PLAN_1
  6
CONTINUOUS
 10
1.757094
 20
-3.884051
  0
VERTEX
  8
PLAN_1
  6
CONTINUOUS
 10
1.757094
 20
-3.908236
  0
VERTEX
  8
PLAN_1
  6
CONTINUOUS
 10
1.648268
 20
-3.908236
  0
VERTEX
  8
PLAN_1
  6
CONTINUOUS
 10
1.648268
 20
-3.974740
  0
VERTEX
  8
PLAN_1
  6
CONTINUOUS
 10
1.768681
 20
-3.974740
  0
VERTEX
  8
PLAN_1
  6
CONTINUOUS
 10
1.768681
 20
-3.998421
  0
SEQEND
  8
0
  0
POLYLINE
  8
PLAN_1
  6
CONTINUOUS
 66
     1
 40
0.003000
 41
0.003000
  0
VERTEX
  8
PLAN_1
  6
CONTINUOUS
 10
1.833673
 20
-3.998421
  0
VERTEX
  8
PLAN_1
  6
CONTINUOUS
 10
1.806469
 20
-3.998421
  0
VERTEX
  8
PLAN_1
  6
CONTINUOUS
 10
1.806469
 20
-3.799409
  0
VERTEX
  8
PLAN_1
  6
CONTINUOUS
 10
1.896150
 20
-3.799409
  0
VERTEX
  8
PLAN_1
  6
CONTINUOUS
 10
1.903201
 20
-3.799409
  0
VERTEX
  8
PLAN_1
  6
CONTINUOUS
 10
1.909248
 20
-3.800417
  0
VERTEX
  8
PLAN_1
  6
CONTINUOUS
 10
1.915295
 20
-3.801425
  0
VERTEX
  8
PLAN_1
  6
CONTINUOUS
 10
1.920835
 20
-3.803441
  0
VERTEX
  8
PLAN_1
  6
CONTINUOUS
 10
1.926378
 20
-3.805961
  0
VERTEX
  8
PLAN_1
  6
CONTINUOUS
 10
1.930913
 20
-3.808476
  0
VERTEX
  8
PLAN_1
  6
CONTINUOUS
 10
1.935449
 20
-3.811500
  0
VERTEX
  8
PLAN_1
  6
CONTINUOUS
 10
1.939476
 20
-3.815028
  0
VERTEX
  8
PLAN_1
  6
CONTINUOUS
 10
1.943004
 20
-3.819059
  0
VERTEX
  8
PLAN_1
  6
CONTINUOUS
 10
1.946531
 20
-3.823594
  0
VERTEX
  8
PLAN_1
  6
CONTINUOUS
 10
1.949051
 20
-3.828126
  0
VERTEX
  8
PLAN_1
  6
CONTINUOUS
 10
1.951067
 20
-3.833165
  0
VERTEX
  8
PLAN_1
  6
CONTINUOUS
 10
1.953083
 20
-3.838205
  0
VERTEX
  8
PLAN_1
  6
CONTINUOUS
 10
1.954091
 20
-3.843744
  0
VERTEX
  8
PLAN_1
  6
CONTINUOUS
 10
1.955098
 20
-3.849287
  0
VERTEX
  8
PLAN_1
  6
CONTINUOUS
 10
1.955098
 20
-3.855335
  0
VERTEX
  8
PLAN_1
  6
CONTINUOUS
 10
1.955098
 20
-3.860370
  0
VERTEX
  8
PLAN_1
  6
CONTINUOUS
 10
1.954594
 20
-3.865913
  0
VERTEX
  8
PLAN_1
  6
CONTINUOUS
 10
1.953587
 20
-3.870953
  0
VERTEX
  8
PLAN_1
  6
CONTINUOUS
 10
1.952075
 20
-3.875992
  0
VERTEX
  8
PLAN_1
  6
CONTINUOUS
 10
1.950563
 20
-3.881531
  0
VERTEX
  8
PLAN_1
  6
CONTINUOUS
 10
1.948043
 20
-3.886067
  0
VERTEX
  8
PLAN_1
  6
CONTINUOUS
 10
1.945020
 20
-3.890602
  0
VERTEX
  8
PLAN_1
  6
CONTINUOUS
 10
1.941996
 20
-3.895138
  0
VERTEX
  8
PLAN_1
  6
CONTINUOUS
 10
1.938469
 20
-3.899165
  0
VERTEX
  8
PLAN_1
  6
CONTINUOUS
 10
1.933937
 20
-3.903197
  0
VERTEX
  8
PLAN_1
  6
CONTINUOUS
 10
1.928898
 20
-3.906220
  0
VERTEX
  8
PLAN_1
  6
CONTINUOUS
 10
1.923858
 20
-3.909244
  0
VERTEX
  8
PLAN_1
  6
CONTINUOUS
 10
1.917815
 20
-3.911260
  0
VERTEX
  8
PLAN_1
  6
CONTINUOUS
 10
1.911264
 20
-3.912772
  0
VERTEX
  8
PLAN_1
  6
CONTINUOUS
 10
1.904209
 20
-3.914280
  0
VERTEX
  8
PLAN_1
  6
CONTINUOUS
 10
1.896150
 20
-3.914280
  0
VERTEX
  8
PLAN_1
  6
CONTINUOUS
 10
1.833673
 20
-3.914280
  0
VERTEX
  8
PLAN_1
  6
CONTINUOUS
 10
1.833673
 20
-3.998421
  0
SEQEND
  8
0
  0
POLYLINE
  8
PLAN_1
  6
CONTINUOUS
 66
     1
 40
0.003000
 41
0.003000
  0
VERTEX
  8
PLAN_1
  6
CONTINUOUS
 10
1.833673
 20
-3.891106
  0
VERTEX
  8
PLAN_1
  6
CONTINUOUS
 10
1.887079
 20
-3.891106
  0
VERTEX
  8
PLAN_1
  6
CONTINUOUS
 10
1.891614
 20
-3.891106
  0
VERTEX
  8
PLAN_1
  6
CONTINUOUS
 10
1.895646
 20
-3.891106
  0
VERTEX
  8
PLAN_1
  6
CONTINUOUS
 10
1.899677
 20
-3.890602
  0
VERTEX
  8
PLAN_1
  6
CONTINUOUS
 10
1.903705
 20
-3.889594
  0
VERTEX
  8
PLAN_1
  6
CONTINUOUS
 10
1.907232
 20
-3.888587
  0
VERTEX
  8
PLAN_1
  6
CONTINUOUS
 10
1.910256
 20
-3.887075
  0
VERTEX
  8
PLAN_1
  6
CONTINUOUS
 10
1.913783
 20
-3.885563
  0
VERTEX
  8
PLAN_1
  6
CONTINUOUS
 10
1.916303
 20
-3.883547
  0
VERTEX
  8
PLAN_1
  6
CONTINUOUS
 10
1.918823
 20
-3.881531
  0
VERTEX
  8
PLAN_1
  6
CONTINUOUS
 10
1.921339
 20
-3.878508
  0
VERTEX
  8
PLAN_1
  6
CONTINUOUS
 10
1.922850
 20
-3.875992
  0
VERTEX
  8
PLAN_1
  6
CONTINUOUS
 10
1.924866
 20
-3.872465
  0
VERTEX
  8
PLAN_1
  6
CONTINUOUS
 10
1.925874
 20
-3.868937
  0
VERTEX
  8
PLAN_1
  6
CONTINUOUS
 10
1.926882
 20
-3.864906
  0
VERTEX
  8
PLAN_1
  6
CONTINUOUS
 10
1.927386
 20
-3.860370
  0
VERTEX
  8
PLAN_1
  6
CONTINUOUS
 10
1.927386
 20
-3.855335
  0
VERTEX
  8
PLAN_1
  6
CONTINUOUS
 10
1.927386
 20
-3.850799
  0
VERTEX
  8
PLAN_1
  6
CONTINUOUS
 10
1.926882
 20
-3.846768
  0
VERTEX
  8
PLAN_1
  6
CONTINUOUS
 10
1.925874
 20
-3.843240
  0
VERTEX
  8
PLAN_1
  6
CONTINUOUS
 10
1.924362
 20
-3.839717
  0
VERTEX
  8
PLAN_1
  6
CONTINUOUS
 10
1.922850
 20
-3.836693
  0
VERTEX
  8
PLAN_1
  6
CONTINUOUS
 10
1.920835
 20
-3.833669
  0
VERTEX
  8
PLAN_1
  6
CONTINUOUS
 10
1.918823
 20
-3.831654
  0
VERTEX
  8
PLAN_1
  6
CONTINUOUS
 10
1.916303
 20
-3.829638
  0
VERTEX
  8
PLAN_1
  6
CONTINUOUS
 10
1.913280
 20
-3.827622
  0
VERTEX
  8
PLAN_1
  6
CONTINUOUS
 10
1.910256
 20
-3.826110
  0
VERTEX
  8
PLAN_1
  6
CONTINUOUS
 10
1.907232
 20
-3.825106
  0
VERTEX
  8
PLAN_1
  6
CONTINUOUS
 10
1.903705
 20
-3.824098
  0
VERTEX
  8
PLAN_1
  6
CONTINUOUS
 10
1.896150
 20
-3.822587
  0
VERTEX
  8
PLAN_1
  6
CONTINUOUS
 10
1.888087
 20
-3.822083
  0
VERTEX
  8
PLAN_1
  6
CONTINUOUS
 10
1.833673
 20
-3.822083
  0
VERTEX
  8
PLAN_1
  6
CONTINUOUS
 10
1.833673
 20
-3.891106
  0
SEQEND
  8
0
  0
POLYLINE
  8
PLAN_1
  6
CONTINUOUS
 66
     1
 40
0.003000
 41
0.003000
  0
VERTEX
  8
PLAN_1
  6
CONTINUOUS
 10
2.109268
 20
-3.857350
  0
VERTEX
  8
PLAN_1
  6
CONTINUOUS
 10
2.108764
 20
-3.851807
  0
VERTEX
  8
PLAN_1
  6
CONTINUOUS
 10
2.107756
 20
-3.846768
  0
VERTEX
  8
PLAN_1
  6
CONTINUOUS
 10
2.106244
 20
-3.842236
  0
VERTEX
  8
PLAN_1
  6
CONTINUOUS
 10
2.104228
 20
-3.838205
  0
VERTEX
  8
PLAN_1
  6
CONTINUOUS
 10
2.101709
 20
-3.834677
  0
VERTEX
  8
PLAN_1
  6
CONTINUOUS
 10
2.098685
 20
-3.831150
  0
VERTEX
  8
PLAN_1
  6
CONTINUOUS
 10
2.095665
 20
-3.828126
  0
VERTEX
  8
PLAN_1
  6
CONTINUOUS
 10
2.092642
 20
-3.825606
  0
VERTEX
  8
PLAN_1
  6
CONTINUOUS
 10
2.088610
 20
-3.823594
  0
VERTEX
  8
PLAN_1
  6
CONTINUOUS
 10
2.085083
 20
-3.821579
  0
VERTEX
  8
PLAN_1
  6
CONTINUOUS
 10
2.081051
 20
-3.820067
  0
VERTEX
  8
PLAN_1
  6
CONTINUOUS
 10
2.077024
 20
-3.819059
  0
VERTEX
  8
PLAN_1
  6
CONTINUOUS
 10
2.072488
 20
-3.818051
  0
VERTEX
  8
PLAN_1
  6
CONTINUOUS
 10
2.068457
 20
-3.817547
  0
VERTEX
  8
PLAN_1
  6
CONTINUOUS
 10
2.063921
 20
-3.817043
  0
VERTEX
  8
PLAN_1
  6
CONTINUOUS
 10
2.059894
 20
-3.817043
  0
VERTEX
  8
PLAN_1
  6
CONTINUOUS
 10
2.052839
 20
-3.817043
  0
VERTEX
  8
PLAN_1
  6
CONTINUOUS
 10
2.045280
 20
-3.818051
  0
VERTEX
  8
PLAN_1
  6
CONTINUOUS
 10
2.041756
 20
-3.819059
  0
VERTEX
  8
PLAN_1
  6
CONTINUOUS
 10
2.037724
 20
-3.820067
  0
VERTEX
  8
PLAN_1
  6
CONTINUOUS
 10
2.034197
 20
-3.821579
  0
VERTEX
  8
PLAN_1
  6
CONTINUOUS
 10
2.030669
 20
-3.823091
  0
VERTEX
  8
PLAN_1
  6
CONTINUOUS
 10
2.027142
 20
-3.825106
  0
VERTEX
  8
PLAN_1
  6
CONTINUOUS
 10
2.024122
 20
-3.827622
  0
VERTEX
  8
PLAN_1
  6
CONTINUOUS
 10
2.021602
 20
-3.830646
  0
VERTEX
  8
PLAN_1
  6
CONTINUOUS
 10
2.019083
 20
-3.833669
  0
VERTEX
  8
PLAN_1
  6
CONTINUOUS
 10
2.017067
 20
-3.837701
  0
VERTEX
  8
PLAN_1
  6
CONTINUOUS
 10
2.015555
 20
-3.841732
  0
VERTEX
  8
PLAN_1
  6
CONTINUOUS
 10
2.014547
 20
-3.846768
  0
VERTEX
  8
PLAN_1
  6
CONTINUOUS
 10
2.014043
 20
-3.851807
  0
VERTEX
  8
PLAN_1
  6
CONTINUOUS
 10
2.014547
 20
-3.854831
  0
VERTEX
  8
PLAN_1
  6
CONTINUOUS
 10
2.015051
 20
-3.857854
  0
VERTEX
  8
PLAN_1
  6
CONTINUOUS
 10
2.015555
 20
-3.860370
  0
VERTEX
  8
PLAN_1
  6
CONTINUOUS
 10
2.016563
 20
-3.862890
  0
VERTEX
  8
PLAN_1
  6
CONTINUOUS
 10
2.017571
 20
-3.864906
  0
VERTEX
  8
PLAN_1
  6
CONTINUOUS
 10
2.018579
 20
-3.866417
  0
VERTEX
  8
PLAN_1
  6
CONTINUOUS
 10
2.020091
 20
-3.868433
  0
VERTEX
  8
PLAN_1
  6
CONTINUOUS
 10
2.021602
 20
-3.869945
  0
VERTEX
  8
PLAN_1
  6
CONTINUOUS
 10
2.025130
 20
-3.872465
  0
VERTEX
  8
PLAN_1
  6
CONTINUOUS
 10
2.029157
 20
-3.874480
  0
VERTEX
  8
PLAN_1
  6
CONTINUOUS
 10
2.033693
 20
-3.875992
  0
VERTEX
  8
PLAN_1
  6
CONTINUOUS
 10
2.037724
 20
-3.877000
  0
VERTEX
  8
PLAN_1
  6
CONTINUOUS
 10
2.094657
 20
-3.890098
  0
VERTEX
  8
PLAN_1
  6
CONTINUOUS
 10
2.099693
 20
-3.891610
  0
VERTEX
  8
PLAN_1
  6
CONTINUOUS
 10
2.104228
 20
-3.893122
  0
VERTEX
  8
PLAN_1
  6
CONTINUOUS
 10
2.108764
 20
-3.894634
  0
VERTEX
  8
PLAN_1
  6
CONTINUOUS
 10
2.112795
 20
-3.896646
  0
VERTEX
  8
PLAN_1
  6
CONTINUOUS
 10
2.116823
 20
-3.899165
  0
VERTEX
  8
PLAN_1
  6
CONTINUOUS
 10
2.120350
 20
-3.901685
  0
VERTEX
  8
PLAN_1
  6
CONTINUOUS
 10
2.123878
 20
-3.904205
  0
VERTEX
  8
PLAN_1
  6
CONTINUOUS
 10
2.126902
 20
-3.907228
  0
VERTEX
  8
PLAN_1
  6
CONTINUOUS
 10
2.129925
 20
-3.910756
  0
VERTEX
  8
PLAN_1
  6
CONTINUOUS
 10
2.132441
 20
-3.914280
  0
VERTEX
  8
PLAN_1
  6
CONTINUOUS
 10
2.134457
 20
-3.918311
  0
VERTEX
  8
PLAN_1
  6
CONTINUOUS
 10
2.136472
 20
-3.922846
  0
VERTEX
  8
PLAN_1
  6
CONTINUOUS
 10
2.137984
 20
-3.927382
  0
VERTEX
  8
PLAN_1
  6
CONTINUOUS
 10
2.138992
 20
-3.932417
  0
VERTEX
  8
PLAN_1
  6
CONTINUOUS
 10
2.140000
 20
-3.937961
  0
VERTEX
  8
PLAN_1
  6
CONTINUOUS
 10
2.140000
 20
-3.943504
  0
VERTEX
  8
PLAN_1
  6
CONTINUOUS
 10
2.140000
 20
-3.948039
  0
VERTEX
  8
PLAN_1
  6
CONTINUOUS
 10
2.139496
 20
-3.952067
  0
VERTEX
  8
PLAN_1
  6
CONTINUOUS
 10
2.138992
 20
-3.956098
  0
VERTEX
  8
PLAN_1
  6
CONTINUOUS
 10
2.137984
 20
-3.959626
  0
VERTEX
  8
PLAN_1
  6
CONTINUOUS
 10
2.135969
 20
-3.966677
  0
VERTEX
  8
PLAN_1
  6
CONTINUOUS
 10
2.132441
 20
-3.972724
  0
VERTEX
  8
PLAN_1
  6
CONTINUOUS
 10
2.128917
 20
-3.978268
  0
VERTEX
  8
PLAN_1
  6
CONTINUOUS
 10
2.124382
 20
-3.983303
  0
VERTEX
  8
PLAN_1
  6
CONTINUOUS
 10
2.119343
 20
-3.987839
  0
VERTEX
  8
PLAN_1
  6
CONTINUOUS
 10
2.113799
 20
-3.991366
  0
VERTEX
  8
PLAN_1
  6
CONTINUOUS
 10
2.107756
 20
-3.994390
  0
VERTEX
  8
PLAN_1
  6
CONTINUOUS
 10
2.101709
 20
-3.996909
  0
VERTEX
  8
PLAN_1
  6
CONTINUOUS
 10
2.095161
 20
-3.999429
  0
VERTEX
  8
PLAN_1
  6
CONTINUOUS
 10
2.088610
 20
-4.000937
  0
VERTEX
  8
PLAN_1
  6
CONTINUOUS
 10
2.082059
 20
-4.002449
  0
VERTEX
  8
PLAN_1
  6
CONTINUOUS
 10
2.075008
 20
-4.002953
  0
VERTEX
  8
PLAN_1
  6
CONTINUOUS
 10
2.068457
 20
-4.003457
  0
VERTEX
  8
PLAN_1
  6
CONTINUOUS
 10
2.061906
 20
-4.003961
  0
VERTEX
  8
PLAN_1
  6
CONTINUOUS
 10
2.055358
 20
-4.003457
  0
VERTEX
  8
PLAN_1
  6
CONTINUOUS
 10
2.049311
 20
-4.003457
  0
VERTEX
  8
PLAN_1
  6
CONTINUOUS
 10
2.043268
 20
-4.002449
  0
VERTEX
  8
PLAN_1
  6
CONTINUOUS
 10
2.038228
 20
-4.001945
  0
VERTEX
  8
PLAN_1
  6
CONTINUOUS
 10
2.029157
 20
-3.999933
  0
VERTEX
  8
PLAN_1
  6
CONTINUOUS
 10
2.021602
 20
-3.997413
  0
VERTEX
  8
PLAN_1
  6
CONTINUOUS
 10
2.015051
 20
-3.994390
  0
VERTEX
  8
PLAN_1
  6
CONTINUOUS
 10
2.009508
 20
-3.990862
  0
VERTEX
  8
PLAN_1
  6
CONTINUOUS
 10
2.005480
 20
-3.987839
  0
VERTEX
  8
PLAN_1
  6
CONTINUOUS
 10
2.001953
 20
-3.984815
  0
VERTEX
  8
PLAN_1
  6
CONTINUOUS
 10
1.995906
 20
-3.978772
  0
VERTEX
  8
PLAN_1
  6
CONTINUOUS
 10
1.991370
 20
-3.972724
  0
VERTEX
  8
PLAN_1
  6
CONTINUOUS
 10
1.987846
 20
-3.966677
  0
VERTEX
  8
PLAN_1
  6
CONTINUOUS
 10
1.985327
 20
-3.960634
  0
VERTEX
  8
PLAN_1
  6
CONTINUOUS
 10
1.983311
 20
-3.954083
  0
VERTEX
  8
PLAN_1
  6
CONTINUOUS
 10
1.982303
 20
-3.947535
  0
VERTEX
  8
PLAN_1
  6
CONTINUOUS
 10
1.981799
 20
-3.940984
  0
VERTEX
  8
PLAN_1
  6
CONTINUOUS
 10
1.981295
 20
-3.933929
  0
VERTEX
  8
PLAN_1
  6
CONTINUOUS
 10
2.006992
 20
-3.933929
  0
VERTEX
  8
PLAN_1
  6
CONTINUOUS
 10
2.006992
 20
-3.940480
  0
VERTEX
  8
PLAN_1
  6
CONTINUOUS
 10
2.008000
 20
-3.946528
  0
VERTEX
  8
PLAN_1
  6
CONTINUOUS
 10
2.009508
 20
-3.951563
  0
VERTEX
  8
PLAN_1
  6
CONTINUOUS
 10
2.011524
 20
-3.956602
  0
VERTEX
  8
PLAN_1
  6
CONTINUOUS
 10
2.014547
 20
-3.961138
  0
VERTEX
  8
PLAN_1
  6
CONTINUOUS
 10
2.017571
 20
-3.964665
  0
VERTEX
  8
PLAN_1
  6
CONTINUOUS
 10
2.021098
 20
-3.968189
  0
VERTEX
  8
PLAN_1
  6
CONTINUOUS
 10
2.024626
 20
-3.970709
  0
VERTEX
  8
PLAN_1
  6
CONTINUOUS
 10
2.028654
 20
-3.973228
  0
VERTEX
  8
PLAN_1
  6
CONTINUOUS
 10
2.033189
 20
-3.975244
  0
VERTEX
  8
PLAN_1
  6
CONTINUOUS
 10
2.037724
 20
-3.977260
  0
VERTEX
  8
PLAN_1
  6
CONTINUOUS
 10
2.042260
 20
-3.978268
  0
VERTEX
  8
PLAN_1
  6
CONTINUOUS
 10
2.047295
 20
-3.979276
  0
VERTEX
  8
PLAN_1
  6
CONTINUOUS
 10
2.051831
 20
-3.980283
  0
VERTEX
  8
PLAN_1
  6
CONTINUOUS
 10
2.056870
 20
-3.980787
  0
VERTEX
  8
PLAN_1
  6
CONTINUOUS
 10
2.061906
 20
-3.980787
  0
VERTEX
  8
PLAN_1
  6
CONTINUOUS
 10
2.069465
 20
-3.980283
  0
VERTEX
  8
PLAN_1
  6
CONTINUOUS
 10
2.078031
 20
-3.979276
  0
VERTEX
  8
PLAN_1
  6
CONTINUOUS
 10
2.082563
 20
-3.978772
  0
VERTEX
  8
PLAN_1
  6
CONTINUOUS
 10
2.086594
 20
-3.977764
  0
VERTEX
  8
PLAN_1
  6
CONTINUOUS
 10
2.091130
 20
-3.976252
  0
VERTEX
  8
PLAN_1
  6
CONTINUOUS
 10
2.095161
 20
-3.974740
  0
VERTEX
  8
PLAN_1
  6
CONTINUOUS
 10
2.099189
 20
-3.972724
  0
VERTEX
  8
PLAN_1
  6
CONTINUOUS
 10
2.102717
 20
-3.970205
  0
VERTEX
  8
PLAN_1
  6
CONTINUOUS
 10
2.105740
 20
-3.967685
  0
VERTEX
  8
PLAN_1
  6
CONTINUOUS
 10
2.108260
 20
-3.964665
  0
VERTEX
  8
PLAN_1
  6
CONTINUOUS
 10
2.110780
 20
-3.960634
  0
VERTEX
  8
PLAN_1
  6
CONTINUOUS
 10
2.112291
 20
-3.956602
  0
VERTEX
  8
PLAN_1
  6
CONTINUOUS
 10
2.113299
 20
-3.952067
  0
VERTEX
  8
PLAN_1
  6
CONTINUOUS
 10
2.113799
 20
-3.947031
  0
VERTEX
  8
PLAN_1
  6
CONTINUOUS
 10
2.113799
 20
-3.943504
  0
VERTEX
  8
PLAN_1
  6
CONTINUOUS
 10
2.113299
 20
-3.939976
  0
VERTEX
  8
PLAN_1
  6
CONTINUOUS
 10
2.112795
 20
-3.936953
  0
VERTEX
  8
PLAN_1
  6
CONTINUOUS
 10
2.111787
 20
-3.933929
  0
VERTEX
  8
PLAN_1
  6
CONTINUOUS
 10
2.110780
 20
-3.931409
  0
VERTEX
  8
PLAN_1
  6
CONTINUOUS
 10
2.109268
 20
-3.928894
  0
VERTEX
  8
PLAN_1
  6
CONTINUOUS
 10
2.107252
 20
-3.926878
  0
VERTEX
  8
PLAN_1
  6
CONTINUOUS
 10
2.104732
 20
-3.924862
  0
VERTEX
  8
PLAN_1
  6
CONTINUOUS
 10
2.102213
 20
-3.922846
  0
VERTEX
  8
PLAN_1
  6
CONTINUOUS
 10
2.099189
 20
-3.920831
  0
VERTEX
  8
PLAN_1
  6
CONTINUOUS
 10
2.095665
 20
-3.919319
  0
VERTEX
  8
PLAN_1
  6
CONTINUOUS
 10
2.092138
 20
-3.917807
  0
VERTEX
  8
PLAN_1
  6
CONTINUOUS
 10
2.082563
 20
-3.914783
  0
VERTEX
  8
PLAN_1
  6
CONTINUOUS
 10
2.071480
 20
-3.911764
  0
VERTEX
  8
PLAN_1
  6
CONTINUOUS
 10
2.030669
 20
-3.902693
  0
VERTEX
  8
PLAN_1
  6
CONTINUOUS
 10
2.025130
 20
-3.901181
  0
VERTEX
  8
PLAN_1
  6
CONTINUOUS
 10
2.018579
 20
-3.898661
  0
VERTEX
  8
PLAN_1
  6
CONTINUOUS
 10
2.015051
 20
-3.897150
  0
VERTEX
  8
PLAN_1
  6
CONTINUOUS
 10
2.011524
 20
-3.895638
  0
VERTEX
  8
PLAN_1
  6
CONTINUOUS
 10
2.008000
 20
-3.893122
  0
VERTEX
  8
PLAN_1
  6
CONTINUOUS
 10
2.004472
 20
-3.891106
  0
VERTEX
  8
PLAN_1
  6
CONTINUOUS
 10
2.001449
 20
-3.888083
  0
VERTEX
  8
PLAN_1
  6
CONTINUOUS
 10
1.997921
 20
-3.885059
  0
VERTEX
  8
PLAN_1
  6
CONTINUOUS
 10
1.995402
 20
-3.881028
  0
VERTEX
  8
PLAN_1
  6
CONTINUOUS
 10
1.992882
 20
-3.877000
  0
VERTEX
  8
PLAN_1
  6
CONTINUOUS
 10
1.990866
 20
-3.872465
  0
VERTEX
  8
PLAN_1
  6
CONTINUOUS
 10
1.989358
 20
-3.867425
  0
VERTEX
  8
PLAN_1
  6
CONTINUOUS
 10
1.988350
 20
-3.861882
  0
VERTEX
  8
PLAN_1
  6
CONTINUOUS
 10
1.988350
 20
-3.855335
  0
VERTEX
  8
PLAN_1
  6
CONTINUOUS
 10
1.988350
 20
-3.849791
  0
VERTEX
  8
PLAN_1
  6
CONTINUOUS
 10
1.989358
 20
-3.843744
  0
VERTEX
  8
PLAN_1
  6
CONTINUOUS
 10
1.990366
 20
-3.838205
  0
VERTEX
  8
PLAN_1
  6
CONTINUOUS
 10
1.991874
 20
-3.832661
  0
VERTEX
  8
PLAN_1
  6
CONTINUOUS
 10
1.994394
 20
-3.827622
  0
VERTEX
  8
PLAN_1
  6
CONTINUOUS
 10
1.996913
 20
-3.822587
  0
VERTEX
  8
PLAN_1
  6
CONTINUOUS
 10
2.000441
 20
-3.817547
  0
VERTEX
  8
PLAN_1
  6
CONTINUOUS
 10
2.004472
 20
-3.813012
  0
VERTEX
  8
PLAN_1
  6
CONTINUOUS
 10
2.009004
 20
-3.808980
  0
VERTEX
  8
PLAN_1
  6
CONTINUOUS
 10
2.014043
 20
-3.805457
  0
VERTEX
  8
PLAN_1
  6
CONTINUOUS
 10
2.019587
 20
-3.801929
  0
VERTEX
  8
PLAN_1
  6
CONTINUOUS
 10
2.025634
 20
-3.799409
  0
VERTEX
  8
PLAN_1
  6
CONTINUOUS
 10
2.032685
 20
-3.796890
  0
VERTEX
  8
PLAN_1
  6
CONTINUOUS
 10
2.039740
 20
-3.795378
  0
VERTEX
  8
PLAN_1
  6
CONTINUOUS
 10
2.047799
 20
-3.794370
  0
VERTEX
  8
PLAN_1
  6
CONTINUOUS
 10
2.056870
 20
-3.793866
  0
VERTEX
  8
PLAN_1
  6
CONTINUOUS
 10
2.068961
 20
-3.794370
  0
VERTEX
  8
PLAN_1
  6
CONTINUOUS
 10
2.080043
 20
-3.795882
  0
VERTEX
  8
PLAN_1
  6
CONTINUOUS
 10
2.089618
 20
-3.797898
  0
VERTEX
  8
PLAN_1
  6
CONTINUOUS
 10
2.098181
 20
-3.800921
  0
VERTEX
  8
PLAN_1
  6
CONTINUOUS
 10
2.105236
 20
-3.804449
  0
VERTEX
  8
PLAN_1
  6
CONTINUOUS
 10
2.111787
 20
-3.808476
  0
VERTEX
  8
PLAN_1
  6
CONTINUOUS
 10
2.116823
 20
-3.812508
  0
VERTEX
  8
PLAN_1
  6
CONTINUOUS
 10
2.121358
 20
-3.817547
  0
VERTEX
  8
PLAN_1
  6
CONTINUOUS
 10
2.124886
 20
-3.822587
  0
VERTEX
  8
PLAN_1
  6
CONTINUOUS
 10
2.127909
 20
-3.827622
  0
VERTEX
  8
PLAN_1
  6
CONTINUOUS
 10
2.129925
 20
-3.833165
  0
VERTEX
  8
PLAN_1
  6
CONTINUOUS
 10
2.131433
 20
-3.838205
  0
VERTEX
  8
PLAN_1
  6
CONTINUOUS
 10
2.132945
 20
-3.843240
  0
VERTEX
  8
PLAN_1
  6
CONTINUOUS
 10
2.133449
 20
-3.848280
  0
VERTEX
  8
PLAN_1
  6
CONTINUOUS
 10
2.133953
 20
-3.853319
  0
VERTEX
  8
PLAN_1
  6
CONTINUOUS
 10
2.134457
 20
-3.857350
  0
VERTEX
  8
PLAN_1
  6
CONTINUOUS
 10
2.109268
 20
-3.857350
  0
SEQEND
  8
0
  0
POLYLINE
  8
PLAN_1
 62
     5
  6
CONTINUOUS
 66
     1
 40
0.003000
 41
0.003000
  0
VERTEX
  8
PLAN_1
 62
     5
  6
CONTINUOUS
 10
-2.139984
 20
-1.004193
  0
VERTEX
  8
PLAN_1
 62
     5
  6
CONTINUOUS
 10
-2.139984
 20
-0.995630
  0
SEQEND
  8
0
  0
POLYLINE
  8
PLAN_1
 62
     5
  6
CONTINUOUS
 66
     1
 40
0.003000
 41
0.003000
  0
VERTEX
  8
PLAN_1
 62
     5
  6
CONTINUOUS
 10
-2.139984
 20
-0.987567
  0
VERTEX
  8
PLAN_1
 62
     5
  6
CONTINUOUS
 10
-2.139984
 20
-0.979004
  0
SEQEND
  8
0
  0
POLYLINE
  8
PLAN_1
 62
     5
  6
CONTINUOUS
 66
     1
 40
0.003000
 41
0.003000
  0
VERTEX
  8
PLAN_1
 62
     5
  6
CONTINUOUS
 10
-2.139984
 20
-0.970941
  0
VERTEX
  8
PLAN_1
 62
     5
  6
CONTINUOUS
 10
-2.139984
 20
-0.962378
  0
SEQEND
  8
0
  0
POLYLINE
  8
PLAN_1
 62
     5
  6
CONTINUOUS
 66
     1
 40
0.003000
 41
0.003000
  0
VERTEX
  8
PLAN_1
 62
     5
  6
CONTINUOUS
 10
-2.139984
 20
-0.954315
  0
VERTEX
  8
PLAN_1
 62
     5
  6
CONTINUOUS
 10
-2.139984
 20
-0.945752
  0
SEQEND
  8
0
  0
POLYLINE
  8
PLAN_1
 62
     5
  6
CONTINUOUS
 66
     1
 40
0.003000
 41
0.003000
  0
VERTEX
  8
PLAN_1
 62
     5
  6
CONTINUOUS
 10
-2.139984
 20
-0.937689
  0
VERTEX
  8
PLAN_1
 62
     5
  6
CONTINUOUS
 10
-2.139984
 20
-0.929126
  0
SEQEND
  8
0
  0
POLYLINE
  8
PLAN_1
 62
     5
  6
CONTINUOUS
 66
     1
 40
0.003000
 41
0.003000
  0
VERTEX
  8
PLAN_1
 62
     5
  6
CONTINUOUS
 10
-2.139984
 20
-0.921063
  0
VERTEX
  8
PLAN_1
 62
     5
  6
CONTINUOUS
 10
-2.139984
 20
-0.912496
  0
SEQEND
  8
0
  0
POLYLINE
  8
PLAN_1
 62
     5
  6
CONTINUOUS
 66
     1
 40
0.003000
 41
0.003000
  0
VERTEX
  8
PLAN_1
 62
     5
  6
CONTINUOUS
 10
-2.139984
 20
-0.903933
  0
VERTEX
  8
PLAN_1
 62
     5
  6
CONTINUOUS
 10
-2.139984
 20
-0.895870
  0
SEQEND
  8
0
  0
POLYLINE
  8
PLAN_1
 62
     5
  6
CONTINUOUS
 66
     1
 40
0.003000
 41
0.003000
  0
VERTEX
  8
PLAN_1
 62
     5
  6
CONTINUOUS
 10
-2.139984
 20
-0.887307
  0
VERTEX
  8
PLAN_1
 62
     5
  6
CONTINUOUS
 10
-2.139984
 20
-0.879244
  0
SEQEND
  8
0
  0
POLYLINE
  8
PLAN_1
 62
     5
  6
CONTINUOUS
 66
     1
 40
0.003000
 41
0.003000
  0
VERTEX
  8
PLAN_1
 62
     5
  6
CONTINUOUS
 10
-2.139984
 20
-0.870681
  0
VERTEX
  8
PLAN_1
 62
     5
  6
CONTINUOUS
 10
-2.139984
 20
-0.862618
  0
SEQEND
  8
0
  0
POLYLINE
  8
PLAN_1
 62
     5
  6
CONTINUOUS
 66
     1
 40
0.003000
 41
0.003000
  0
VERTEX
  8
PLAN_1
 62
     5
  6
CONTINUOUS
 10
-2.139984
 20
-0.854055
  0
VERTEX
  8
PLAN_1
 62
     5
  6
CONTINUOUS
 10
-2.139984
 20
-0.845992
  0
SEQEND
  8
0
  0
POLYLINE
  8
PLAN_1
 62
     5
  6
CONTINUOUS
 66
     1
 40
0.003000
 41
0.003000
  0
VERTEX
  8
PLAN_1
 62
     5
  6
CONTINUOUS
 10
-2.139984
 20
-0.837429
  0
VERTEX
  8
PLAN_1
 62
     5
  6
CONTINUOUS
 10
-2.139984
 20
-0.829366
  0
SEQEND
  8
0
  0
POLYLINE
  8
PLAN_1
 62
     5
  6
CONTINUOUS
 66
     1
 40
0.003000
 41
0.003000
  0
VERTEX
  8
PLAN_1
 62
     5
  6
CONTINUOUS
 10
-2.139984
 20
-0.820803
  0
VERTEX
  8
PLAN_1
 62
     5
  6
CONTINUOUS
 10
-2.139984
 20
-0.812740
  0
SEQEND
  8
0
  0
POLYLINE
  8
PLAN_1
 62
     5
  6
CONTINUOUS
 66
     1
 40
0.003000
 41
0.003000
  0
VERTEX
  8
PLAN_1
 62
     5
  6
CONTINUOUS
 10
-2.139984
 20
-0.804177
  0
VERTEX
  8
PLAN_1
 62
     5
  6
CONTINUOUS
 10
-2.139984
 20
-0.796114
  0
SEQEND
  8
0
  0
POLYLINE
  8
PLAN_1
 62
     5
  6
CONTINUOUS
 66
     1
 40
0.003000
 41
0.003000
  0
VERTEX
  8
PLAN_1
 62
     5
  6
CONTINUOUS
 10
-2.139984
 20
-0.787551
  0
VERTEX
  8
PLAN_1
 62
     5
  6
CONTINUOUS
 10
-2.139984
 20
-0.778984
  0
SEQEND
  8
0
  0
POLYLINE
  8
PLAN_1
 62
     5
  6
CONTINUOUS
 66
     1
 40
0.003000
 41
0.003000
  0
VERTEX
  8
PLAN_1
 62
     5
  6
CONTINUOUS
 10
-2.139984
 20
-0.770925
  0
VERTEX
  8
PLAN_1
 62
     5
  6
CONTINUOUS
 10
-2.139984
 20
-0.762358
  0
SEQEND
  8
0
  0
POLYLINE
  8
PLAN_1
 62
     5
  6
CONTINUOUS
 66
     1
 40
0.003000
 41
0.003000
  0
VERTEX
  8
PLAN_1
 62
     5
  6
CONTINUOUS
 10
-2.139984
 20
-0.754295
  0
VERTEX
  8
PLAN_1
 62
     5
  6
CONTINUOUS
 10
-2.139984
 20
-0.745732
  0
SEQEND
  8
0
  0
POLYLINE
  8
PLAN_1
 62
     5
  6
CONTINUOUS
 66
     1
 40
0.003000
 41
0.003000
  0
VERTEX
  8
PLAN_1
 62
     5
  6
CONTINUOUS
 10
-2.139984
 20
-0.737669
  0
VERTEX
  8
PLAN_1
 62
     5
  6
CONTINUOUS
 10
-2.139984
 20
-0.729106
  0
SEQEND
  8
0
  0
POLYLINE
  8
PLAN_1
 62
     5
  6
CONTINUOUS
 66
     1
 40
0.003000
 41
0.003000
  0
VERTEX
  8
PLAN_1
 62
     5
  6
CONTINUOUS
 10
-2.139984
 20
-0.721043
  0
VERTEX
  8
PLAN_1
 62
     5
  6
CONTINUOUS
 10
-2.139984
 20
-0.712480
  0
SEQEND
  8
0
  0
POLYLINE
  8
PLAN_1
 62
     5
  6
CONTINUOUS
 66
     1
 40
0.003000
 41
0.003000
  0
VERTEX
  8
PLAN_1
 62
     5
  6
CONTINUOUS
 10
-2.139984
 20
-0.704417
  0
VERTEX
  8
PLAN_1
 62
     5
  6
CONTINUOUS
 10
-2.139984
 20
-0.695854
  0
SEQEND
  8
0
  0
POLYLINE
  8
PLAN_1
 62
     5
  6
CONTINUOUS
 66
     1
 40
0.003000
 41
0.003000
  0
VERTEX
  8
PLAN_1
 62
     5
  6
CONTINUOUS
 10
-2.139984
 20
-0.687791
  0
VERTEX
  8
PLAN_1
 62
     5
  6
CONTINUOUS
 10
-2.139984
 20
-0.679228
  0
SEQEND
  8
0
  0
POLYLINE
  8
PLAN_1
 62
     5
  6
CONTINUOUS
 66
     1
 40
0.003000
 41
0.003000
  0
VERTEX
  8
PLAN_1
 62
     5
  6
CONTINUOUS
 10
-2.139984
 20
-0.671165
  0
VERTEX
  8
PLAN_1
 62
     5
  6
CONTINUOUS
 10
-2.139984
 20
-0.662602
  0
SEQEND
  8
0
  0
POLYLINE
  8
PLAN_1
 62
     5
  6
CONTINUOUS
 66
     1
 40
0.003000
 41
0.003000
  0
VERTEX
  8
PLAN_1
 62
     5
  6
CONTINUOUS
 10
-2.139984
 20
-0.654539
  0
VERTEX
  8
PLAN_1
 62
     5
  6
CONTINUOUS
 10
-2.139984
 20
-0.645976
  0
SEQEND
  8
0
  0
POLYLINE
  8
PLAN_1
 62
     5
  6
CONTINUOUS
 66
     1
 40
0.003000
 41
0.003000
  0
VERTEX
  8
PLAN_1
 62
     5
  6
CONTINUOUS
 10
-2.139984
 20
-0.637409
  0
VERTEX
  8
PLAN_1
 62
     5
  6
CONTINUOUS
 10
-2.139984
 20
-0.629350
  0
SEQEND
  8
0
  0
POLYLINE
  8
PLAN_1
 62
     5
  6
CONTINUOUS
 66
     1
 40
0.003000
 41
0.003000
  0
VERTEX
  8
PLAN_1
 62
     5
  6
CONTINUOUS
 10
-2.139984
 20
-0.620783
  0
VERTEX
  8
PLAN_1
 62
     5
  6
CONTINUOUS
 10
-2.139984
 20
-0.612724
  0
SEQEND
  8
0
  0
POLYLINE
  8
PLAN_1
 62
     5
  6
CONTINUOUS
 66
     1
 40
0.003000
 41
0.003000
  0
VERTEX
  8
PLAN_1
 62
     5
  6
CONTINUOUS
 10
-2.139984
 20
-0.604157
  0
VERTEX
  8
PLAN_1
 62
     5
  6
CONTINUOUS
 10
-2.139984
 20
-0.596098
  0
SEQEND
  8
0
  0
POLYLINE
  8
PLAN_1
 62
     5
  6
CONTINUOUS
 66
     1
 40
0.003000
 41
0.003000
  0
VERTEX
  8
PLAN_1
 62
     5
  6
CONTINUOUS
 10
-2.139984
 20
-0.587531
  0
VERTEX
  8
PLAN_1
 62
     5
  6
CONTINUOUS
 10
-2.139984
 20
-0.579469
  0
SEQEND
  8
0
  0
POLYLINE
  8
PLAN_1
 62
     5
  6
CONTINUOUS
 66
     1
 40
0.003000
 41
0.003000
  0
VERTEX
  8
PLAN_1
 62
     5
  6
CONTINUOUS
 10
-2.139984
 20
-0.570906
  0
VERTEX
  8
PLAN_1
 62
     5
  6
CONTINUOUS
 10
-2.139984
 20
-0.562843
  0
SEQEND
  8
0
  0
POLYLINE
  8
PLAN_1
 62
     5
  6
CONTINUOUS
 66
     1
 40
0.003000
 41
0.003000
  0
VERTEX
  8
PLAN_1
 62
     5
  6
CONTINUOUS
 10
-2.139984
 20
-0.554280
  0
VERTEX
  8
PLAN_1
 62
     5
  6
CONTINUOUS
 10
-2.139984
 20
-0.546217
  0
SEQEND
  8
0
  0
POLYLINE
  8
PLAN_1
 62
     5
  6
CONTINUOUS
 66
     1
 40
0.003000
 41
0.003000
  0
VERTEX
  8
PLAN_1
 62
     5
  6
CONTINUOUS
 10
-2.139984
 20
-0.537654
  0
VERTEX
  8
PLAN_1
 62
     5
  6
CONTINUOUS
 10
-2.139984
 20
-0.529591
  0
SEQEND
  8
0
  0
POLYLINE
  8
PLAN_1
 62
     5
  6
CONTINUOUS
 66
     1
 40
0.003000
 41
0.003000
  0
VERTEX
  8
PLAN_1
 62
     5
  6
CONTINUOUS
 10
-2.139984
 20
-0.521028
  0
VERTEX
  8
PLAN_1
 62
     5
  6
CONTINUOUS
 10
-2.139984
 20
-0.512461
  0
SEQEND
  8
0
  0
POLYLINE
  8
PLAN_1
 62
     5
  6
CONTINUOUS
 66
     1
 40
0.003000
 41
0.003000
  0
VERTEX
  8
PLAN_1
 62
     5
  6
CONTINUOUS
 10
-2.139984
 20
-0.504402
  0
VERTEX
  8
PLAN_1
 62
     5
  6
CONTINUOUS
 10
-2.139984
 20
-0.495835
  0
SEQEND
  8
0
  0
POLYLINE
  8
PLAN_1
 62
     5
  6
CONTINUOUS
 66
     1
 40
0.003000
 41
0.003000
  0
VERTEX
  8
PLAN_1
 62
     5
  6
CONTINUOUS
 10
-2.139984
 20
-0.487776
  0
VERTEX
  8
PLAN_1
 62
     5
  6
CONTINUOUS
 10
-2.139984
 20
-0.479209
  0
SEQEND
  8
0
  0
POLYLINE
  8
PLAN_1
 62
     5
  6
CONTINUOUS
 66
     1
 40
0.003000
 41
0.003000
  0
VERTEX
  8
PLAN_1
 62
     5
  6
CONTINUOUS
 10
-2.139984
 20
-0.471150
  0
VERTEX
  8
PLAN_1
 62
     5
  6
CONTINUOUS
 10
-2.139984
 20
-0.462583
  0
SEQEND
  8
0
  0
POLYLINE
  8
PLAN_1
 62
     5
  6
CONTINUOUS
 66
     1
 40
0.003000
 41
0.003000
  0
VERTEX
  8
PLAN_1
 62
     5
  6
CONTINUOUS
 10
-2.139984
 20
-0.454524
  0
VERTEX
  8
PLAN_1
 62
     5
  6
CONTINUOUS
 10
-2.139984
 20
-0.445957
  0
SEQEND
  8
0
  0
POLYLINE
  8
PLAN_1
 62
     5
  6
CONTINUOUS
 66
     1
 40
0.003000
 41
0.003000
  0
VERTEX
  8
PLAN_1
 62
     5
  6
CONTINUOUS
 10
-2.139984
 20
-0.437898
  0
VERTEX
  8
PLAN_1
 62
     5
  6
CONTINUOUS
 10
-2.139984
 20
-0.429331
  0
SEQEND
  8
0
  0
POLYLINE
  8
PLAN_1
 62
     5
  6
CONTINUOUS
 66
     1
 40
0.003000
 41
0.003000
  0
VERTEX
  8
PLAN_1
 62
     5
  6
CONTINUOUS
 10
-2.139984
 20
-0.421268
  0
VERTEX
  8
PLAN_1
 62
     5
  6
CONTINUOUS
 10
-2.139984
 20
-0.412705
  0
SEQEND
  8
0
  0
POLYLINE
  8
PLAN_1
 62
     5
  6
CONTINUOUS
 66
     1
 40
0.003000
 41
0.003000
  0
VERTEX
  8
PLAN_1
 62
     5
  6
CONTINUOUS
 10
-2.139984
 20
-0.404642
  0
VERTEX
  8
PLAN_1
 62
     5
  6
CONTINUOUS
 10
-2.139984
 20
-0.396079
  0
SEQEND
  8
0
  0
POLYLINE
  8
PLAN_1
 62
     5
  6
CONTINUOUS
 66
     1
 40
0.003000
 41
0.003000
  0
VERTEX
  8
PLAN_1
 62
     5
  6
CONTINUOUS
 10
-2.139984
 20
-0.388016
  0
VERTEX
  8
PLAN_1
 62
     5
  6
CONTINUOUS
 10
-2.139984
 20
-0.379453
  0
SEQEND
  8
0
  0
POLYLINE
  8
PLAN_1
 62
     5
  6
CONTINUOUS
 66
     1
 40
0.003000
 41
0.003000
  0
VERTEX
  8
PLAN_1
 62
     5
  6
CONTINUOUS
 10
-2.139984
 20
-0.370886
  0
VERTEX
  8
PLAN_1
 62
     5
  6
CONTINUOUS
 10
-2.139984
 20
-0.362827
  0
SEQEND
  8
0
  0
POLYLINE
  8
PLAN_1
 62
     5
  6
CONTINUOUS
 66
     1
 40
0.003000
 41
0.003000
  0
VERTEX
  8
PLAN_1
 62
     5
  6
CONTINUOUS
 10
-2.139984
 20
-0.354260
  0
VERTEX
  8
PLAN_1
 62
     5
  6
CONTINUOUS
 10
-2.139984
 20
-0.346201
  0
SEQEND
  8
0
  0
POLYLINE
  8
PLAN_1
 62
     5
  6
CONTINUOUS
 66
     1
 40
0.003000
 41
0.003000
  0
VERTEX
  8
PLAN_1
 62
     5
  6
CONTINUOUS
 10
-2.139984
 20
-0.337634
  0
VERTEX
  8
PLAN_1
 62
     5
  6
CONTINUOUS
 10
-2.139984
 20
-0.329575
  0
SEQEND
  8
0
  0
POLYLINE
  8
PLAN_1
 62
     5
  6
CONTINUOUS
 66
     1
 40
0.003000
 41
0.003000
  0
VERTEX
  8
PLAN_1
 62
     5
  6
CONTINUOUS
 10
-2.139984
 20
-0.321008
  0
VERTEX
  8
PLAN_1
 62
     5
  6
CONTINUOUS
 10
-2.139984
 20
-0.312949
  0
SEQEND
  8
0
  0
POLYLINE
  8
PLAN_1
 62
     5
  6
CONTINUOUS
 66
     1
 40
0.003000
 41
0.003000
  0
VERTEX
  8
PLAN_1
 62
     5
  6
CONTINUOUS
 10
-2.139984
 20
-0.304382
  0
VERTEX
  8
PLAN_1
 62
     5
  6
CONTINUOUS
 10
-2.139984
 20
-0.301358
  0
SEQEND
  8
0
  0
POLYLINE
  8
PLAN_1
 62
     5
  6
CONTINUOUS
 66
     1
 40
0.003000
 41
0.003000
  0
VERTEX
  8
PLAN_1
 62
     5
  6
CONTINUOUS
 10
-2.139984
 20
-0.304382
  0
VERTEX
  8
PLAN_1
 62
     5
  6
CONTINUOUS
 10
-2.139984
 20
-0.301358
  0
SEQEND
  8
0
  0
POLYLINE
  8
PLAN_1
 62
     5
  6
CONTINUOUS
 66
     1
 40
0.003000
 41
0.003000
  0
VERTEX
  8
PLAN_1
 62
     5
  6
CONTINUOUS
 10
-2.139984
 20
-0.301358
  0
VERTEX
  8
PLAN_1
 62
     5
  6
CONTINUOUS
 10
-2.139984
 20
-0.297331
  0
VERTEX
  8
PLAN_1
 62
     5
  6
CONTINUOUS
 10
-2.139984
 20
-0.293803
  0
VERTEX
  8
PLAN_1
 62
     5
  6
CONTINUOUS
 10
-2.139984
 20
-0.293299
  0
SEQEND
  8
0
  0
POLYLINE
  8
PLAN_1
 62
     5
  6
CONTINUOUS
 66
     1
 40
0.003000
 41
0.003000
  0
VERTEX
  8
PLAN_1
 62
     5
  6
CONTINUOUS
 10
-2.137969
 20
-0.285236
  0
VERTEX
  8
PLAN_1
 62
     5
  6
CONTINUOUS
 10
-2.136961
 20
-0.283220
  0
VERTEX
  8
PLAN_1
 62
     5
  6
CONTINUOUS
 10
-2.135449
 20
-0.279697
  0
VERTEX
  8
PLAN_1
 62
     5
  6
CONTINUOUS
 10
-2.133937
 20
-0.277681
  0
SEQEND
  8
0
  0
POLYLINE
  8
PLAN_1
 62
     5
  6
CONTINUOUS
 66
     1
 40
0.003000
 41
0.003000
  0
VERTEX
  8
PLAN_1
 62
     5
  6
CONTINUOUS
 10
-2.128398
 20
-0.271634
  0
VERTEX
  8
PLAN_1
 62
     5
  6
CONTINUOUS
 10
-2.125374
 20
-0.269618
  0
VERTEX
  8
PLAN_1
 62
     5
  6
CONTINUOUS
 10
-2.122350
 20
-0.268106
  0
VERTEX
  8
PLAN_1
 62
     5
  6
CONTINUOUS
 10
-2.121343
 20
-0.267098
  0
SEQEND
  8
0
  0
POLYLINE
  8
PLAN_1
 62
     5
  6
CONTINUOUS
 66
     1
 40
0.003000
 41
0.003000
  0
VERTEX
  8
PLAN_1
 62
     5
  6
CONTINUOUS
 10
-2.113283
 20
-0.264579
  0
VERTEX
  8
PLAN_1
 62
     5
  6
CONTINUOUS
 10
-2.112276
 20
-0.264075
  0
VERTEX
  8
PLAN_1
 62
     5
  6
CONTINUOUS
 10
-2.108748
 20
-0.263571
  0
VERTEX
  8
PLAN_1
 62
     5
  6
CONTINUOUS
 10
-2.105220
 20
-0.263571
  0
SEQEND
  8
0
  0
POLYLINE
  8
PLAN_1
 62
     5
  6
CONTINUOUS
 66
     1
 40
0.003000
 41
0.003000
  0
VERTEX
  8
PLAN_1
 62
     5
  6
CONTINUOUS
 10
-2.104717
 20
-0.263571
  0
VERTEX
  8
PLAN_1
 62
     5
  6
CONTINUOUS
 10
-2.096154
 20
-0.263571
  0
SEQEND
  8
0
  0
POLYLINE
  8
PLAN_1
 62
     5
  6
CONTINUOUS
 66
     1
 40
0.003000
 41
0.003000
  0
VERTEX
  8
PLAN_1
 62
     5
  6
CONTINUOUS
 10
-2.088091
 20
-0.263571
  0
VERTEX
  8
PLAN_1
 62
     5
  6
CONTINUOUS
 10
-2.079528
 20
-0.263571
  0
SEQEND
  8
0
  0
POLYLINE
  8
PLAN_1
 62
     5
  6
CONTINUOUS
 66
     1
 40
0.003000
 41
0.003000
  0
VERTEX
  8
PLAN_1
 62
     5
  6
CONTINUOUS
 10
-2.071465
 20
-0.263571
  0
VERTEX
  8
PLAN_1
 62
     5
  6
CONTINUOUS
 10
-2.062902
 20
-0.263571
  0
SEQEND
  8
0
  0
POLYLINE
  8
PLAN_1
 62
     5
  6
CONTINUOUS
 66
     1
 40
0.003000
 41
0.003000
  0
VERTEX
  8
PLAN_1
 62
     5
  6
CONTINUOUS
 10
-2.054839
 20
-0.263571
  0
VERTEX
  8
PLAN_1
 62
     5
  6
CONTINUOUS
 10
-2.046272
 20
-0.263571
  0
SEQEND
  8
0
  0
POLYLINE
  8
PLAN_1
 62
     5
  6
CONTINUOUS
 66
     1
 40
0.003000
 41
0.003000
  0
VERTEX
  8
PLAN_1
 62
     5
  6
CONTINUOUS
 10
-2.038213
 20
-0.263571
  0
VERTEX
  8
PLAN_1
 62
     5
  6
CONTINUOUS
 10
-2.029646
 20
-0.263571
  0
SEQEND
  8
0
  0
POLYLINE
  8
PLAN_1
 62
     5
  6
CONTINUOUS
 66
     1
 40
0.003000
 41
0.003000
  0
VERTEX
  8
PLAN_1
 62
     5
  6
CONTINUOUS
 10
-2.021587
 20
-0.263571
  0
VERTEX
  8
PLAN_1
 62
     5
  6
CONTINUOUS
 10
-2.013020
 20
-0.263571
  0
SEQEND
  8
0
  0
POLYLINE
  8
PLAN_1
 62
     5
  6
CONTINUOUS
 66
     1
 40
0.003000
 41
0.003000
  0
VERTEX
  8
PLAN_1
 62
     5
  6
CONTINUOUS
 10
-2.004457
 20
-0.263571
  0
VERTEX
  8
PLAN_1
 62
     5
  6
CONTINUOUS
 10
-1.996394
 20
-0.263571
  0
SEQEND
  8
0
  0
POLYLINE
  8
PLAN_1
 62
     5
  6
CONTINUOUS
 66
     1
 40
0.003000
 41
0.003000
  0
VERTEX
  8
PLAN_1
 62
     5
  6
CONTINUOUS
 10
-1.987831
 20
-0.263571
  0
VERTEX
  8
PLAN_1
 62
     5
  6
CONTINUOUS
 10
-1.979768
 20
-0.263571
  0
SEQEND
  8
0
  0
POLYLINE
  8
PLAN_1
 62
     5
  6
CONTINUOUS
 66
     1
 40
0.003000
 41
0.003000
  0
VERTEX
  8
PLAN_1
 62
     5
  6
CONTINUOUS
 10
-1.971205
 20
-0.263571
  0
VERTEX
  8
PLAN_1
 62
     5
  6
CONTINUOUS
 10
-1.963142
 20
-0.263571
  0
SEQEND
  8
0
  0
POLYLINE
  8
PLAN_1
 62
     5
  6
CONTINUOUS
 66
     1
 40
0.003000
 41
0.003000
  0
VERTEX
  8
PLAN_1
 62
     5
  6
CONTINUOUS
 10
-1.954579
 20
-0.263571
  0
VERTEX
  8
PLAN_1
 62
     5
  6
CONTINUOUS
 10
-1.946516
 20
-0.263571
  0
SEQEND
  8
0
  0
POLYLINE
  8
PLAN_1
 62
     5
  6
CONTINUOUS
 66
     1
 40
0.003000
 41
0.003000
  0
VERTEX
  8
PLAN_1
 62
     5
  6
CONTINUOUS
 10
-1.937953
 20
-0.263571
  0
VERTEX
  8
PLAN_1
 62
     5
  6
CONTINUOUS
 10
-1.929890
 20
-0.263571
  0
SEQEND
  8
0
  0
POLYLINE
  8
PLAN_1
 62
     5
  6
CONTINUOUS
 66
     1
 40
0.003000
 41
0.003000
  0
VERTEX
  8
PLAN_1
 62
     5
  6
CONTINUOUS
 10
-1.921327
 20
-0.263571
  0
VERTEX
  8
PLAN_1
 62
     5
  6
CONTINUOUS
 10
-1.913264
 20
-0.263571
  0
SEQEND
  8
0
  0
POLYLINE
  8
PLAN_1
 62
     5
  6
CONTINUOUS
 66
     1
 40
0.003000
 41
0.003000
  0
VERTEX
  8
PLAN_1
 62
     5
  6
CONTINUOUS
 10
-1.904701
 20
-0.263571
  0
VERTEX
  8
PLAN_1
 62
     5
  6
CONTINUOUS
 10
-1.896638
 20
-0.263571
  0
SEQEND
  8
0
  0
POLYLINE
  8
PLAN_1
 62
     5
  6
CONTINUOUS
 66
     1
 40
0.003000
 41
0.003000
  0
VERTEX
  8
PLAN_1
 62
     5
  6
CONTINUOUS
 10
-1.888071
 20
-0.263571
  0
VERTEX
  8
PLAN_1
 62
     5
  6
CONTINUOUS
 10
-1.880012
 20
-0.263571
  0
SEQEND
  8
0
  0
POLYLINE
  8
PLAN_1
 62
     5
  6
CONTINUOUS
 66
     1
 40
0.003000
 41
0.003000
  0
VERTEX
  8
PLAN_1
 62
     5
  6
CONTINUOUS
 10
-1.871445
 20
-0.263571
  0
VERTEX
  8
PLAN_1
 62
     5
  6
CONTINUOUS
 10
-1.862882
 20
-0.263571
  0
SEQEND
  8
0
  0
POLYLINE
  8
PLAN_1
 62
     5
  6
CONTINUOUS
 66
     1
 40
0.003000
 41
0.003000
  0
VERTEX
  8
PLAN_1
 62
     5
  6
CONTINUOUS
 10
-1.854819
 20
-0.263571
  0
VERTEX
  8
PLAN_1
 62
     5
  6
CONTINUOUS
 10
-1.846256
 20
-0.263571
  0
SEQEND
  8
0
  0
POLYLINE
  8
PLAN_1
 62
     5
  6
CONTINUOUS
 66
     1
 40
0.003000
 41
0.003000
  0
VERTEX
  8
PLAN_1
 62
     5
  6
CONTINUOUS
 10
-1.838193
 20
-0.263571
  0
VERTEX
  8
PLAN_1
 62
     5
  6
CONTINUOUS
 10
-1.829630
 20
-0.263571
  0
SEQEND
  8
0
  0
POLYLINE
  8
PLAN_1
 62
     5
  6
CONTINUOUS
 66
     1
 40
0.003000
 41
0.003000
  0
VERTEX
  8
PLAN_1
 62
     5
  6
CONTINUOUS
 10
-1.821567
 20
-0.263571
  0
VERTEX
  8
PLAN_1
 62
     5
  6
CONTINUOUS
 10
-1.813004
 20
-0.263571
  0
SEQEND
  8
0
  0
POLYLINE
  8
PLAN_1
 62
     5
  6
CONTINUOUS
 66
     1
 40
0.003000
 41
0.003000
  0
VERTEX
  8
PLAN_1
 62
     5
  6
CONTINUOUS
 10
-1.804941
 20
-0.263571
  0
VERTEX
  8
PLAN_1
 62
     5
  6
CONTINUOUS
 10
-1.796378
 20
-0.263571
  0
SEQEND
  8
0
  0
POLYLINE
  8
PLAN_1
 62
     5
  6
CONTINUOUS
 66
     1
 40
0.003000
 41
0.003000
  0
VERTEX
  8
PLAN_1
 62
     5
  6
CONTINUOUS
 10
-1.788315
 20
-0.263571
  0
VERTEX
  8
PLAN_1
 62
     5
  6
CONTINUOUS
 10
-1.779752
 20
-0.263571
  0
SEQEND
  8
0
  0
POLYLINE
  8
PLAN_1
 62
     5
  6
CONTINUOUS
 66
     1
 40
0.003000
 41
0.003000
  0
VERTEX
  8
PLAN_1
 62
     5
  6
CONTINUOUS
 10
-1.771689
 20
-0.263571
  0
VERTEX
  8
PLAN_1
 62
     5
  6
CONTINUOUS
 10
-1.763126
 20
-0.263571
  0
SEQEND
  8
0
  0
POLYLINE
  8
PLAN_1
 62
     5
  6
CONTINUOUS
 66
     1
 40
0.003000
 41
0.003000
  0
VERTEX
  8
PLAN_1
 62
     5
  6
CONTINUOUS
 10
-1.755063
 20
-0.263571
  0
VERTEX
  8
PLAN_1
 62
     5
  6
CONTINUOUS
 10
-1.746500
 20
-0.263571
  0
SEQEND
  8
0
  0
POLYLINE
  8
PLAN_1
 62
     5
  6
CONTINUOUS
 66
     1
 40
0.003000
 41
0.003000
  0
VERTEX
  8
PLAN_1
 62
     5
  6
CONTINUOUS
 10
-1.737933
 20
-0.263571
  0
VERTEX
  8
PLAN_1
 62
     5
  6
CONTINUOUS
 10
-1.729870
 20
-0.263571
  0
SEQEND
  8
0
  0
POLYLINE
  8
PLAN_1
 62
     5
  6
CONTINUOUS
 66
     1
 40
0.003000
 41
0.003000
  0
VERTEX
  8
PLAN_1
 62
     5
  6
CONTINUOUS
 10
-1.721307
 20
-0.263571
  0
VERTEX
  8
PLAN_1
 62
     5
  6
CONTINUOUS
 10
-1.713244
 20
-0.263571
  0
SEQEND
  8
0
  0
POLYLINE
  8
PLAN_1
 62
     5
  6
CONTINUOUS
 66
     1
 40
0.003000
 41
0.003000
  0
VERTEX
  8
PLAN_1
 62
     5
  6
CONTINUOUS
 10
-1.704681
 20
-0.263571
  0
VERTEX
  8
PLAN_1
 62
     5
  6
CONTINUOUS
 10
-1.696618
 20
-0.263571
  0
SEQEND
  8
0
  0
POLYLINE
  8
PLAN_1
 62
     5
  6
CONTINUOUS
 66
     1
 40
0.003000
 41
0.003000
  0
VERTEX
  8
PLAN_1
 62
     5
  6
CONTINUOUS
 10
-1.688055
 20
-0.263571
  0
VERTEX
  8
PLAN_1
 62
     5
  6
CONTINUOUS
 10
-1.679992
 20
-0.263571
  0
SEQEND
  8
0
  0
POLYLINE
  8
PLAN_1
 62
     5
  6
CONTINUOUS
 66
     1
 40
0.003000
 41
0.003000
  0
VERTEX
  8
PLAN_1
 62
     5
  6
CONTINUOUS
 10
-1.671429
 20
-0.263571
  0
VERTEX
  8
PLAN_1
 62
     5
  6
CONTINUOUS
 10
-1.663366
 20
-0.263571
  0
SEQEND
  8
0
  0
POLYLINE
  8
PLAN_1
 62
     5
  6
CONTINUOUS
 66
     1
 40
0.003000
 41
0.003000
  0
VERTEX
  8
PLAN_1
 62
     5
  6
CONTINUOUS
 10
-1.654803
 20
-0.263571
  0
VERTEX
  8
PLAN_1
 62
     5
  6
CONTINUOUS
 10
-1.646740
 20
-0.263571
  0
SEQEND
  8
0
  0
POLYLINE
  8
PLAN_1
 62
     5
  6
CONTINUOUS
 66
     1
 40
0.003000
 41
0.003000
  0
VERTEX
  8
PLAN_1
 62
     5
  6
CONTINUOUS
 10
-1.638177
 20
-0.263571
  0
VERTEX
  8
PLAN_1
 62
     5
  6
CONTINUOUS
 10
-1.630114
 20
-0.263571
  0
SEQEND
  8
0
  0
POLYLINE
  8
PLAN_1
 62
     5
  6
CONTINUOUS
 66
     1
 40
0.003000
 41
0.003000
  0
VERTEX
  8
PLAN_1
 62
     5
  6
CONTINUOUS
 10
-1.621551
 20
-0.263571
  0
VERTEX
  8
PLAN_1
 62
     5
  6
CONTINUOUS
 10
-1.613488
 20
-0.263571
  0
SEQEND
  8
0
  0
POLYLINE
  8
PLAN_1
 62
     5
  6
CONTINUOUS
 66
     1
 40
0.003000
 41
0.003000
  0
VERTEX
  8
PLAN_1
 62
     5
  6
CONTINUOUS
 10
-1.604925
 20
-0.263571
  0
VERTEX
  8
PLAN_1
 62
     5
  6
CONTINUOUS
 10
-1.596358
 20
-0.263571
  0
SEQEND
  8
0
  0
POLYLINE
  8
PLAN_1
 62
     5
  6
CONTINUOUS
 66
     1
 40
0.003000
 41
0.003000
  0
VERTEX
  8
PLAN_1
 62
     5
  6
CONTINUOUS
 10
-1.588299
 20
-0.263571
  0
VERTEX
  8
PLAN_1
 62
     5
  6
CONTINUOUS
 10
-1.579732
 20
-0.263571
  0
SEQEND
  8
0
  0
POLYLINE
  8
PLAN_1
 62
     5
  6
CONTINUOUS
 66
     1
 40
0.003000
 41
0.003000
  0
VERTEX
  8
PLAN_1
 62
     5
  6
CONTINUOUS
 10
-1.571669
 20
-0.263571
  0
VERTEX
  8
PLAN_1
 62
     5
  6
CONTINUOUS
 10
-1.563106
 20
-0.263571
  0
SEQEND
  8
0
  0
POLYLINE
  8
PLAN_1
 62
     5
  6
CONTINUOUS
 66
     1
 40
0.003000
 41
0.003000
  0
VERTEX
  8
PLAN_1
 62
     5
  6
CONTINUOUS
 10
-1.555043
 20
-0.263571
  0
VERTEX
  8
PLAN_1
 62
     5
  6
CONTINUOUS
 10
-1.546480
 20
-0.263571
  0
SEQEND
  8
0
  0
POLYLINE
  8
PLAN_1
 62
     5
  6
CONTINUOUS
 66
     1
 40
0.003000
 41
0.003000
  0
VERTEX
  8
PLAN_1
 62
     5
  6
CONTINUOUS
 10
-1.538417
 20
-0.263571
  0
VERTEX
  8
PLAN_1
 62
     5
  6
CONTINUOUS
 10
-1.529854
 20
-0.263571
  0
SEQEND
  8
0
  0
POLYLINE
  8
PLAN_1
 62
     5
  6
CONTINUOUS
 66
     1
 40
0.003000
 41
0.003000
  0
VERTEX
  8
PLAN_1
 62
     5
  6
CONTINUOUS
 10
-1.521791
 20
-0.263571
  0
VERTEX
  8
PLAN_1
 62
     5
  6
CONTINUOUS
 10
-1.513228
 20
-0.263571
  0
SEQEND
  8
0
  0
POLYLINE
  8
PLAN_1
 62
     5
  6
CONTINUOUS
 66
     1
 40
0.003000
 41
0.003000
  0
VERTEX
  8
PLAN_1
 62
     5
  6
CONTINUOUS
 10
-1.505165
 20
-0.263571
  0
VERTEX
  8
PLAN_1
 62
     5
  6
CONTINUOUS
 10
-1.496602
 20
-0.263571
  0
SEQEND
  8
0
  0
POLYLINE
  8
PLAN_1
 62
     5
  6
CONTINUOUS
 66
     1
 40
0.003000
 41
0.003000
  0
VERTEX
  8
PLAN_1
 62
     5
  6
CONTINUOUS
 10
-1.488539
 20
-0.263571
  0
VERTEX
  8
PLAN_1
 62
     5
  6
CONTINUOUS
 10
-1.479976
 20
-0.263571
  0
SEQEND
  8
0
  0
POLYLINE
  8
PLAN_1
 62
     5
  6
CONTINUOUS
 66
     1
 40
0.003000
 41
0.003000
  0
VERTEX
  8
PLAN_1
 62
     5
  6
CONTINUOUS
 10
-1.471409
 20
-0.263571
  0
VERTEX
  8
PLAN_1
 62
     5
  6
CONTINUOUS
 10
-1.463350
 20
-0.263571
  0
SEQEND
  8
0
  0
POLYLINE
  8
PLAN_1
 62
     5
  6
CONTINUOUS
 66
     1
 40
0.003000
 41
0.003000
  0
VERTEX
  8
PLAN_1
 62
     5
  6
CONTINUOUS
 10
-1.454783
 20
-0.263571
  0
VERTEX
  8
PLAN_1
 62
     5
  6
CONTINUOUS
 10
-1.446724
 20
-0.263571
  0
SEQEND
  8
0
  0
POLYLINE
  8
PLAN_1
 62
     5
  6
CONTINUOUS
 66
     1
 40
0.003000
 41
0.003000
  0
VERTEX
  8
PLAN_1
 62
     5
  6
CONTINUOUS
 10
-1.438157
 20
-0.263571
  0
VERTEX
  8
PLAN_1
 62
     5
  6
CONTINUOUS
 10
-1.430098
 20
-0.263571
  0
SEQEND
  8
0
  0
POLYLINE
  8
PLAN_1
 62
     5
  6
CONTINUOUS
 66
     1
 40
0.003000
 41
0.003000
  0
VERTEX
  8
PLAN_1
 62
     5
  6
CONTINUOUS
 10
-1.421531
 20
-0.263571
  0
VERTEX
  8
PLAN_1
 62
     5
  6
CONTINUOUS
 10
-1.413472
 20
-0.263571
  0
SEQEND
  8
0
  0
POLYLINE
  8
PLAN_1
 62
     5
  6
CONTINUOUS
 66
     1
 40
0.003000
 41
0.003000
  0
VERTEX
  8
PLAN_1
 62
     5
  6
CONTINUOUS
 10
-1.404906
 20
-0.263571
  0
VERTEX
  8
PLAN_1
 62
     5
  6
CONTINUOUS
 10
-1.396843
 20
-0.263571
  0
SEQEND
  8
0
  0
POLYLINE
  8
PLAN_1
 62
     5
  6
CONTINUOUS
 66
     1
 40
0.003000
 41
0.003000
  0
VERTEX
  8
PLAN_1
 62
     5
  6
CONTINUOUS
 10
-1.388280
 20
-0.263571
  0
VERTEX
  8
PLAN_1
 62
     5
  6
CONTINUOUS
 10
-1.380217
 20
-0.263571
  0
SEQEND
  8
0
  0
POLYLINE
  8
PLAN_1
 62
     5
  6
CONTINUOUS
 66
     1
 40
0.003000
 41
0.003000
  0
VERTEX
  8
PLAN_1
 62
     5
  6
CONTINUOUS
 10
-1.371654
 20
-0.263571
  0
VERTEX
  8
PLAN_1
 62
     5
  6
CONTINUOUS
 10
-1.363591
 20
-0.263571
  0
SEQEND
  8
0
  0
POLYLINE
  8
PLAN_1
 62
     5
  6
CONTINUOUS
 66
     1
 40
0.003000
 41
0.003000
  0
VERTEX
  8
PLAN_1
 62
     5
  6
CONTINUOUS
 10
-1.355028
 20
-0.263571
  0
VERTEX
  8
PLAN_1
 62
     5
  6
CONTINUOUS
 10
-1.346965
 20
-0.263571
  0
SEQEND
  8
0
  0
POLYLINE
  8
PLAN_1
 62
     5
  6
CONTINUOUS
 66
     1
 40
0.003000
 41
0.003000
  0
VERTEX
  8
PLAN_1
 62
     5
  6
CONTINUOUS
 10
-1.338402
 20
-0.263571
  0
VERTEX
  8
PLAN_1
 62
     5
  6
CONTINUOUS
 10
-1.329835
 20
-0.263571
  0
SEQEND
  8
0
  0
POLYLINE
  8
PLAN_1
 62
     5
  6
CONTINUOUS
 66
     1
 40
0.003000
 41
0.003000
  0
VERTEX
  8
PLAN_1
 62
     5
  6
CONTINUOUS
 10
-1.321776
 20
-0.263571
  0
VERTEX
  8
PLAN_1
 62
     5
  6
CONTINUOUS
 10
-1.313209
 20
-0.263571
  0
SEQEND
  8
0
  0
POLYLINE
  8
PLAN_1
 62
     5
  6
CONTINUOUS
 66
     1
 40
0.003000
 41
0.003000
  0
VERTEX
  8
PLAN_1
 62
     5
  6
CONTINUOUS
 10
-1.305150
 20
-0.263571
  0
VERTEX
  8
PLAN_1
 62
     5
  6
CONTINUOUS
 10
-1.296583
 20
-0.263571
  0
SEQEND
  8
0
  0
POLYLINE
  8
PLAN_1
 62
     5
  6
CONTINUOUS
 66
     1
 40
0.003000
 41
0.003000
  0
VERTEX
  8
PLAN_1
 62
     5
  6
CONTINUOUS
 10
-1.288524
 20
-0.263571
  0
VERTEX
  8
PLAN_1
 62
     5
  6
CONTINUOUS
 10
-1.279957
 20
-0.263571
  0
SEQEND
  8
0
  0
POLYLINE
  8
PLAN_1
 62
     5
  6
CONTINUOUS
 66
     1
 40
0.003000
 41
0.003000
  0
VERTEX
  8
PLAN_1
 62
     5
  6
CONTINUOUS
 10
-1.271898
 20
-0.263571
  0
VERTEX
  8
PLAN_1
 62
     5
  6
CONTINUOUS
 10
-1.263331
 20
-0.263571
  0
SEQEND
  8
0
  0
POLYLINE
  8
PLAN_1
 62
     5
  6
CONTINUOUS
 66
     1
 40
0.003000
 41
0.003000
  0
VERTEX
  8
PLAN_1
 62
     5
  6
CONTINUOUS
 10
-1.255272
 20
-0.263571
  0
VERTEX
  8
PLAN_1
 62
     5
  6
CONTINUOUS
 10
-1.246705
 20
-0.263571
  0
SEQEND
  8
0
  0
POLYLINE
  8
PLAN_1
 62
     5
  6
CONTINUOUS
 66
     1
 40
0.003000
 41
0.003000
  0
VERTEX
  8
PLAN_1
 62
     5
  6
CONTINUOUS
 10
-1.238642
 20
-0.263571
  0
VERTEX
  8
PLAN_1
 62
     5
  6
CONTINUOUS
 10
-1.230079
 20
-0.263571
  0
SEQEND
  8
0
  0
POLYLINE
  8
PLAN_1
 62
     5
  6
CONTINUOUS
 66
     1
 40
0.003000
 41
0.003000
  0
VERTEX
  8
PLAN_1
 62
     5
  6
CONTINUOUS
 10
-1.222016
 20
-0.263571
  0
VERTEX
  8
PLAN_1
 62
     5
  6
CONTINUOUS
 10
-1.213453
 20
-0.263571
  0
SEQEND
  8
0
  0
POLYLINE
  8
PLAN_1
 62
     5
  6
CONTINUOUS
 66
     1
 40
0.003000
 41
0.003000
  0
VERTEX
  8
PLAN_1
 62
     5
  6
CONTINUOUS
 10
-1.204886
 20
-0.263571
  0
VERTEX
  8
PLAN_1
 62
     5
  6
CONTINUOUS
 10
-1.196827
 20
-0.263571
  0
SEQEND
  8
0
  0
POLYLINE
  8
PLAN_1
 62
     5
  6
CONTINUOUS
 66
     1
 40
0.003000
 41
0.003000
  0
VERTEX
  8
PLAN_1
 62
     5
  6
CONTINUOUS
 10
-1.188260
 20
-0.263571
  0
VERTEX
  8
PLAN_1
 62
     5
  6
CONTINUOUS
 10
-1.180201
 20
-0.263571
  0
SEQEND
  8
0
  0
POLYLINE
  8
PLAN_1
 62
     5
  6
CONTINUOUS
 66
     1
 40
0.003000
 41
0.003000
  0
VERTEX
  8
PLAN_1
 62
     5
  6
CONTINUOUS
 10
-1.171634
 20
-0.263571
  0
VERTEX
  8
PLAN_1
 62
     5
  6
CONTINUOUS
 10
-1.163575
 20
-0.263571
  0
SEQEND
  8
0
  0
POLYLINE
  8
PLAN_1
 62
     5
  6
CONTINUOUS
 66
     1
 40
0.003000
 41
0.003000
  0
VERTEX
  8
PLAN_1
 62
     5
  6
CONTINUOUS
 10
-1.155008
 20
-0.263571
  0
VERTEX
  8
PLAN_1
 62
     5
  6
CONTINUOUS
 10
-1.146949
 20
-0.263571
  0
SEQEND
  8
0
  0
POLYLINE
  8
PLAN_1
 62
     5
  6
CONTINUOUS
 66
     1
 40
0.003000
 41
0.003000
  0
VERTEX
  8
PLAN_1
 62
     5
  6
CONTINUOUS
 10
-1.138382
 20
-0.263571
  0
VERTEX
  8
PLAN_1
 62
     5
  6
CONTINUOUS
 10
-1.130323
 20
-0.263571
  0
SEQEND
  8
0
  0
POLYLINE
  8
PLAN_1
 62
     5
  6
CONTINUOUS
 66
     1
 40
0.003000
 41
0.003000
  0
VERTEX
  8
PLAN_1
 62
     5
  6
CONTINUOUS
 10
-1.121756
 20
-0.263571
  0
VERTEX
  8
PLAN_1
 62
     5
  6
CONTINUOUS
 10
-1.113697
 20
-0.263571
  0
SEQEND
  8
0
  0
POLYLINE
  8
PLAN_1
 62
     5
  6
CONTINUOUS
 66
     1
 40
0.003000
 41
0.003000
  0
VERTEX
  8
PLAN_1
 62
     5
  6
CONTINUOUS
 10
-1.105130
 20
-0.263571
  0
VERTEX
  8
PLAN_1
 62
     5
  6
CONTINUOUS
 10
-1.097071
 20
-0.263571
  0
SEQEND
  8
0
  0
POLYLINE
  8
PLAN_1
 62
     5
  6
CONTINUOUS
 66
     1
 40
0.003000
 41
0.003000
  0
VERTEX
  8
PLAN_1
 62
     5
  6
CONTINUOUS
 10
-1.088504
 20
-0.263571
  0
VERTEX
  8
PLAN_1
 62
     5
  6
CONTINUOUS
 10
-1.080441
 20
-0.263571
  0
SEQEND
  8
0
  0
POLYLINE
  8
PLAN_1
 62
     5
  6
CONTINUOUS
 66
     1
 40
0.003000
 41
0.003000
  0
VERTEX
  8
PLAN_1
 62
     5
  6
CONTINUOUS
 10
-1.071878
 20
-0.263571
  0
VERTEX
  8
PLAN_1
 62
     5
  6
CONTINUOUS
 10
-1.063311
 20
-0.263571
  0
SEQEND
  8
0
  0
POLYLINE
  8
PLAN_1
 62
     5
  6
CONTINUOUS
 66
     1
 40
0.003000
 41
0.003000
  0
VERTEX
  8
PLAN_1
 62
     5
  6
CONTINUOUS
 10
-1.055252
 20
-0.263571
  0
VERTEX
  8
PLAN_1
 62
     5
  6
CONTINUOUS
 10
-1.046685
 20
-0.263571
  0
SEQEND
  8
0
  0
POLYLINE
  8
PLAN_1
 62
     5
  6
CONTINUOUS
 66
     1
 40
0.003000
 41
0.003000
  0
VERTEX
  8
PLAN_1
 62
     5
  6
CONTINUOUS
 10
-1.038626
 20
-0.263571
  0
VERTEX
  8
PLAN_1
 62
     5
  6
CONTINUOUS
 10
-1.030059
 20
-0.263571
  0
SEQEND
  8
0
  0
POLYLINE
  8
PLAN_1
 62
     5
  6
CONTINUOUS
 66
     1
 40
0.003000
 41
0.003000
  0
VERTEX
  8
PLAN_1
 62
     5
  6
CONTINUOUS
 10
-1.022000
 20
-0.263571
  0
VERTEX
  8
PLAN_1
 62
     5
  6
CONTINUOUS
 10
-1.013433
 20
-0.263571
  0
SEQEND
  8
0
  0
POLYLINE
  8
PLAN_1
 62
     5
  6
CONTINUOUS
 66
     1
 40
0.003000
 41
0.003000
  0
VERTEX
  8
PLAN_1
 62
     5
  6
CONTINUOUS
 10
-1.005374
 20
-0.263571
  0
VERTEX
  8
PLAN_1
 62
     5
  6
CONTINUOUS
 10
-0.996807
 20
-0.263571
  0
SEQEND
  8
0
  0
POLYLINE
  8
PLAN_1
 62
     5
  6
CONTINUOUS
 66
     1
 40
0.003000
 41
0.003000
  0
VERTEX
  8
PLAN_1
 62
     5
  6
CONTINUOUS
 10
-0.988748
 20
-0.263571
  0
VERTEX
  8
PLAN_1
 62
     5
  6
CONTINUOUS
 10
-0.980181
 20
-0.263571
  0
SEQEND
  8
0
  0
POLYLINE
  8
PLAN_1
 62
     5
  6
CONTINUOUS
 66
     1
 40
0.003000
 41
0.003000
  0
VERTEX
  8
PLAN_1
 62
     5
  6
CONTINUOUS
 10
-0.972122
 20
-0.263571
  0
VERTEX
  8
PLAN_1
 62
     5
  6
CONTINUOUS
 10
-0.963555
 20
-0.263571
  0
SEQEND
  8
0
  0
POLYLINE
  8
PLAN_1
 62
     5
  6
CONTINUOUS
 66
     1
 40
0.003000
 41
0.003000
  0
VERTEX
  8
PLAN_1
 62
     5
  6
CONTINUOUS
 10
-0.955496
 20
-0.263571
  0
VERTEX
  8
PLAN_1
 62
     5
  6
CONTINUOUS
 10
-0.946929
 20
-0.263571
  0
SEQEND
  8
0
  0
POLYLINE
  8
PLAN_1
 62
     5
  6
CONTINUOUS
 66
     1
 40
0.003000
 41
0.003000
  0
VERTEX
  8
PLAN_1
 62
     5
  6
CONTINUOUS
 10
-0.938366
 20
-0.263571
  0
VERTEX
  8
PLAN_1
 62
     5
  6
CONTINUOUS
 10
-0.930303
 20
-0.263571
  0
SEQEND
  8
0
  0
POLYLINE
  8
PLAN_1
 62
     5
  6
CONTINUOUS
 66
     1
 40
0.003000
 41
0.003000
  0
VERTEX
  8
PLAN_1
 62
     5
  6
CONTINUOUS
 10
-0.921740
 20
-0.263571
  0
VERTEX
  8
PLAN_1
 62
     5
  6
CONTINUOUS
 10
-0.913677
 20
-0.263571
  0
SEQEND
  8
0
  0
POLYLINE
  8
PLAN_1
 62
     5
  6
CONTINUOUS
 66
     1
 40
0.003000
 41
0.003000
  0
VERTEX
  8
PLAN_1
 62
     5
  6
CONTINUOUS
 10
-0.905110
 20
-0.263571
  0
VERTEX
  8
PLAN_1
 62
     5
  6
CONTINUOUS
 10
-0.897051
 20
-0.263571
  0
SEQEND
  8
0
  0
POLYLINE
  8
PLAN_1
 62
     5
  6
CONTINUOUS
 66
     1
 40
0.003000
 41
0.003000
  0
VERTEX
  8
PLAN_1
 62
     5
  6
CONTINUOUS
 10
-0.888484
 20
-0.263571
  0
VERTEX
  8
PLAN_1
 62
     5
  6
CONTINUOUS
 10
-0.880425
 20
-0.263571
  0
SEQEND
  8
0
  0
POLYLINE
  8
PLAN_1
 62
     5
  6
CONTINUOUS
 66
     1
 40
0.003000
 41
0.003000
  0
VERTEX
  8
PLAN_1
 62
     5
  6
CONTINUOUS
 10
-0.871858
 20
-0.263571
  0
VERTEX
  8
PLAN_1
 62
     5
  6
CONTINUOUS
 10
-0.863799
 20
-0.263571
  0
SEQEND
  8
0
  0
POLYLINE
  8
PLAN_1
 62
     5
  6
CONTINUOUS
 66
     1
 40
0.003000
 41
0.003000
  0
VERTEX
  8
PLAN_1
 62
     5
  6
CONTINUOUS
 10
-0.855232
 20
-0.263571
  0
VERTEX
  8
PLAN_1
 62
     5
  6
CONTINUOUS
 10
-0.847173
 20
-0.263571
  0
SEQEND
  8
0
  0
POLYLINE
  8
PLAN_1
 62
     5
  6
CONTINUOUS
 66
     1
 40
0.003000
 41
0.003000
  0
VERTEX
  8
PLAN_1
 62
     5
  6
CONTINUOUS
 10
-0.838606
 20
-0.263571
  0
VERTEX
  8
PLAN_1
 62
     5
  6
CONTINUOUS
 10
-0.830547
 20
-0.263571
  0
SEQEND
  8
0
  0
POLYLINE
  8
PLAN_1
 62
     5
  6
CONTINUOUS
 66
     1
 40
0.003000
 41
0.003000
  0
VERTEX
  8
PLAN_1
 62
     5
  6
CONTINUOUS
 10
-0.821980
 20
-0.263571
  0
VERTEX
  8
PLAN_1
 62
     5
  6
CONTINUOUS
 10
-0.813921
 20
-0.263571
  0
SEQEND
  8
0
  0
POLYLINE
  8
PLAN_1
 62
     5
  6
CONTINUOUS
 66
     1
 40
0.003000
 41
0.003000
  0
VERTEX
  8
PLAN_1
 62
     5
  6
CONTINUOUS
 10
-0.805354
 20
-0.263571
  0
VERTEX
  8
PLAN_1
 62
     5
  6
CONTINUOUS
 10
-0.796791
 20
-0.263571
  0
SEQEND
  8
0
  0
POLYLINE
  8
PLAN_1
 62
     5
  6
CONTINUOUS
 66
     1
 40
0.003000
 41
0.003000
  0
VERTEX
  8
PLAN_1
 62
     5
  6
CONTINUOUS
 10
-0.788728
 20
-0.263571
  0
VERTEX
  8
PLAN_1
 62
     5
  6
CONTINUOUS
 10
-0.780165
 20
-0.263571
  0
SEQEND
  8
0
  0
POLYLINE
  8
PLAN_1
 62
     5
  6
CONTINUOUS
 66
     1
 40
0.003000
 41
0.003000
  0
VERTEX
  8
PLAN_1
 62
     5
  6
CONTINUOUS
 10
-0.772102
 20
-0.263571
  0
VERTEX
  8
PLAN_1
 62
     5
  6
CONTINUOUS
 10
-0.763539
 20
-0.263571
  0
SEQEND
  8
0
  0
POLYLINE
  8
PLAN_1
 62
     5
  6
CONTINUOUS
 66
     1
 40
0.003000
 41
0.003000
  0
VERTEX
  8
PLAN_1
 62
     5
  6
CONTINUOUS
 10
-0.755476
 20
-0.263571
  0
VERTEX
  8
PLAN_1
 62
     5
  6
CONTINUOUS
 10
-0.746909
 20
-0.263571
  0
SEQEND
  8
0
  0
POLYLINE
  8
PLAN_1
 62
     5
  6
CONTINUOUS
 66
     1
 40
0.003000
 41
0.003000
  0
VERTEX
  8
PLAN_1
 62
     5
  6
CONTINUOUS
 10
-0.738850
 20
-0.263571
  0
VERTEX
  8
PLAN_1
 62
     5
  6
CONTINUOUS
 10
-0.730283
 20
-0.263571
  0
SEQEND
  8
0
  0
POLYLINE
  8
PLAN_1
 62
     5
  6
CONTINUOUS
 66
     1
 40
0.003000
 41
0.003000
  0
VERTEX
  8
PLAN_1
 62
     5
  6
CONTINUOUS
 10
-0.722224
 20
-0.263571
  0
VERTEX
  8
PLAN_1
 62
     5
  6
CONTINUOUS
 10
-0.713657
 20
-0.263571
  0
SEQEND
  8
0
  0
POLYLINE
  8
PLAN_1
 62
     5
  6
CONTINUOUS
 66
     1
 40
0.003000
 41
0.003000
  0
VERTEX
  8
PLAN_1
 62
     5
  6
CONTINUOUS
 10
-0.705598
 20
-0.263571
  0
VERTEX
  8
PLAN_1
 62
     5
  6
CONTINUOUS
 10
-0.697031
 20
-0.263571
  0
SEQEND
  8
0
  0
POLYLINE
  8
PLAN_1
 62
     5
  6
CONTINUOUS
 66
     1
 40
0.003000
 41
0.003000
  0
VERTEX
  8
PLAN_1
 62
     5
  6
CONTINUOUS
 10
-0.688972
 20
-0.263571
  0
VERTEX
  8
PLAN_1
 62
     5
  6
CONTINUOUS
 10
-0.680406
 20
-0.263571
  0
SEQEND
  8
0
  0
POLYLINE
  8
PLAN_1
 62
     5
  6
CONTINUOUS
 66
     1
 40
0.003000
 41
0.003000
  0
VERTEX
  8
PLAN_1
 62
     5
  6
CONTINUOUS
 10
-0.671843
 20
-0.263571
  0
VERTEX
  8
PLAN_1
 62
     5
  6
CONTINUOUS
 10
-0.663780
 20
-0.263571
  0
SEQEND
  8
0
  0
POLYLINE
  8
PLAN_1
 62
     5
  6
CONTINUOUS
 66
     1
 40
0.003000
 41
0.003000
  0
VERTEX
  8
PLAN_1
 62
     5
  6
CONTINUOUS
 10
-0.655217
 20
-0.263571
  0
VERTEX
  8
PLAN_1
 62
     5
  6
CONTINUOUS
 10
-0.647154
 20
-0.263571
  0
SEQEND
  8
0
  0
POLYLINE
  8
PLAN_1
 62
     5
  6
CONTINUOUS
 66
     1
 40
0.003000
 41
0.003000
  0
VERTEX
  8
PLAN_1
 62
     5
  6
CONTINUOUS
 10
-0.638591
 20
-0.263571
  0
VERTEX
  8
PLAN_1
 62
     5
  6
CONTINUOUS
 10
-0.630528
 20
-0.263571
  0
SEQEND
  8
0
  0
POLYLINE
  8
PLAN_1
 62
     5
  6
CONTINUOUS
 66
     1
 40
0.003000
 41
0.003000
  0
VERTEX
  8
PLAN_1
 62
     5
  6
CONTINUOUS
 10
-0.621965
 20
-0.263571
  0
VERTEX
  8
PLAN_1
 62
     5
  6
CONTINUOUS
 10
-0.614909
 20
-0.263571
  0
SEQEND
  8
0
  0
POLYLINE
  8
PLAN_1
 62
     5
  6
CONTINUOUS
 66
     1
 40
0.003000
 41
0.003000
  0
VERTEX
  8
PLAN_1
 62
     5
  6
CONTINUOUS
 10
-0.621965
 20
-0.263571
  0
VERTEX
  8
PLAN_1
 62
     5
  6
CONTINUOUS
 10
-0.614909
 20
-0.263571
  0
SEQEND
  8
0
  0
POLYLINE
  8
PLAN_1
 62
     5
  6
CONTINUOUS
 66
     1
 40
0.003000
 41
0.003000
  0
VERTEX
  8
PLAN_1
 62
     5
  6
CONTINUOUS
 10
-0.614909
 20
-0.263571
  0
VERTEX
  8
PLAN_1
 62
     5
  6
CONTINUOUS
 10
-0.611382
 20
-0.263571
  0
VERTEX
  8
PLAN_1
 62
     5
  6
CONTINUOUS
 10
-0.607350
 20
-0.264075
  0
VERTEX
  8
PLAN_1
 62
     5
  6
CONTINUOUS
 10
-0.606846
 20
-0.264579
  0
SEQEND
  8
0
  0
POLYLINE
  8
PLAN_1
 62
     5
  6
CONTINUOUS
 66
     1
 40
0.003000
 41
0.003000
  0
VERTEX
  8
PLAN_1
 62
     5
  6
CONTINUOUS
 10
-0.598787
 20
-0.267098
  0
VERTEX
  8
PLAN_1
 62
     5
  6
CONTINUOUS
 10
-0.597276
 20
-0.268106
  0
VERTEX
  8
PLAN_1
 62
     5
  6
CONTINUOUS
 10
-0.593748
 20
-0.270122
  0
VERTEX
  8
PLAN_1
 62
     5
  6
CONTINUOUS
 10
-0.591732
 20
-0.271130
  0
SEQEND
  8
0
  0
POLYLINE
  8
PLAN_1
 62
     5
  6
CONTINUOUS
 66
     1
 40
0.003000
 41
0.003000
  0
VERTEX
  8
PLAN_1
 62
     5
  6
CONTINUOUS
 10
-0.585689
 20
-0.277177
  0
VERTEX
  8
PLAN_1
 62
     5
  6
CONTINUOUS
 10
-0.583673
 20
-0.280201
  0
VERTEX
  8
PLAN_1
 62
     5
  6
CONTINUOUS
 10
-0.581657
 20
-0.283220
  0
VERTEX
  8
PLAN_1
 62
     5
  6
CONTINUOUS
 10
-0.581154
 20
-0.283724
  0
SEQEND
  8
0
  0
POLYLINE
  8
PLAN_1
 62
     5
  6
CONTINUOUS
 66
     1
 40
0.003000
 41
0.003000
  0
VERTEX
  8
PLAN_1
 62
     5
  6
CONTINUOUS
 10
-0.577626
 20
-0.291283
  0
VERTEX
  8
PLAN_1
 62
     5
  6
CONTINUOUS
 10
-0.577122
 20
-0.293299
  0
VERTEX
  8
PLAN_1
 62
     5
  6
CONTINUOUS
 10
-0.576114
 20
-0.297331
  0
VERTEX
  8
PLAN_1
 62
     5
  6
CONTINUOUS
 10
-0.576114
 20
-0.299846
  0
SEQEND
  8
0
  0
POLYLINE
  8
PLAN_1
 62
     5
  6
CONTINUOUS
 66
     1
 40
0.003000
 41
0.003000
  0
VERTEX
  8
PLAN_1
 62
     5
  6
CONTINUOUS
 10
-0.575610
 20
-0.301358
  0
VERTEX
  8
PLAN_1
 62
     5
  6
CONTINUOUS
 10
-0.575610
 20
-0.309421
  0
SEQEND
  8
0
  0
POLYLINE
  8
PLAN_1
 62
     5
  6
CONTINUOUS
 66
     1
 40
0.003000
 41
0.003000
  0
VERTEX
  8
PLAN_1
 62
     5
  6
CONTINUOUS
 10
-0.575610
 20
-0.317984
  0
VERTEX
  8
PLAN_1
 62
     5
  6
CONTINUOUS
 10
-0.575610
 20
-0.326047
  0
SEQEND
  8
0
  0
POLYLINE
  8
PLAN_1
 62
     5
  6
CONTINUOUS
 66
     1
 40
0.003000
 41
0.003000
  0
VERTEX
  8
PLAN_1
 62
     5
  6
CONTINUOUS
 10
-0.575610
 20
-0.334610
  0
VERTEX
  8
PLAN_1
 62
     5
  6
CONTINUOUS
 10
-0.575610
 20
-0.342673
  0
SEQEND
  8
0
  0
POLYLINE
  8
PLAN_1
 62
     5
  6
CONTINUOUS
 66
     1
 40
0.003000
 41
0.003000
  0
VERTEX
  8
PLAN_1
 62
     5
  6
CONTINUOUS
 10
-0.575610
 20
-0.351236
  0
VERTEX
  8
PLAN_1
 62
     5
  6
CONTINUOUS
 10
-0.575610
 20
-0.359299
  0
SEQEND
  8
0
  0
POLYLINE
  8
PLAN_1
 62
     5
  6
CONTINUOUS
 66
     1
 40
0.003000
 41
0.003000
  0
VERTEX
  8
PLAN_1
 62
     5
  6
CONTINUOUS
 10
-0.575610
 20
-0.367866
  0
VERTEX
  8
PLAN_1
 62
     5
  6
CONTINUOUS
 10
-0.575610
 20
-0.375925
  0
SEQEND
  8
0
  0
POLYLINE
  8
PLAN_1
 62
     5
  6
CONTINUOUS
 66
     1
 40
0.003000
 41
0.003000
  0
VERTEX
  8
PLAN_1
 62
     5
  6
CONTINUOUS
 10
-0.575610
 20
-0.384492
  0
VERTEX
  8
PLAN_1
 62
     5
  6
CONTINUOUS
 10
-0.575610
 20
-0.392551
  0
SEQEND
  8
0
  0
POLYLINE
  8
PLAN_1
 62
     5
  6
CONTINUOUS
 66
     1
 40
0.003000
 41
0.003000
  0
VERTEX
  8
PLAN_1
 62
     5
  6
CONTINUOUS
 10
-0.575610
 20
-0.401118
  0
VERTEX
  8
PLAN_1
 62
     5
  6
CONTINUOUS
 10
-0.575610
 20
-0.409177
  0
SEQEND
  8
0
  0
POLYLINE
  8
PLAN_1
 62
     5
  6
CONTINUOUS
 66
     1
 40
0.003000
 41
0.003000
  0
VERTEX
  8
PLAN_1
 62
     5
  6
CONTINUOUS
 10
-0.575610
 20
-0.417744
  0
VERTEX
  8
PLAN_1
 62
     5
  6
CONTINUOUS
 10
-0.575610
 20
-0.426307
  0
SEQEND
  8
0
  0
POLYLINE
  8
PLAN_1
 62
     5
  6
CONTINUOUS
 66
     1
 40
0.003000
 41
0.003000
  0
VERTEX
  8
PLAN_1
 62
     5
  6
CONTINUOUS
 10
-0.575610
 20
-0.434370
  0
VERTEX
  8
PLAN_1
 62
     5
  6
CONTINUOUS
 10
-0.575610
 20
-0.442933
  0
SEQEND
  8
0
  0
POLYLINE
  8
PLAN_1
 62
     5
  6
CONTINUOUS
 66
     1
 40
0.003000
 41
0.003000
  0
VERTEX
  8
PLAN_1
 62
     5
  6
CONTINUOUS
 10
-0.575610
 20
-0.450996
  0
VERTEX
  8
PLAN_1
 62
     5
  6
CONTINUOUS
 10
-0.575610
 20
-0.459559
  0
SEQEND
  8
0
  0
POLYLINE
  8
PLAN_1
 62
     5
  6
CONTINUOUS
 66
     1
 40
0.003000
 41
0.003000
  0
VERTEX
  8
PLAN_1
 62
     5
  6
CONTINUOUS
 10
-0.575610
 20
-0.467622
  0
VERTEX
  8
PLAN_1
 62
     5
  6
CONTINUOUS
 10
-0.575610
 20
-0.476185
  0
SEQEND
  8
0
  0
POLYLINE
  8
PLAN_1
 62
     5
  6
CONTINUOUS
 66
     1
 40
0.003000
 41
0.003000
  0
VERTEX
  8
PLAN_1
 62
     5
  6
CONTINUOUS
 10
-0.575610
 20
-0.484248
  0
VERTEX
  8
PLAN_1
 62
     5
  6
CONTINUOUS
 10
-0.575610
 20
-0.492811
  0
SEQEND
  8
0
  0
POLYLINE
  8
PLAN_1
 62
     5
  6
CONTINUOUS
 66
     1
 40
0.003000
 41
0.003000
  0
VERTEX
  8
PLAN_1
 62
     5
  6
CONTINUOUS
 10
-0.575610
 20
-0.500874
  0
VERTEX
  8
PLAN_1
 62
     5
  6
CONTINUOUS
 10
-0.575610
 20
-0.509437
  0
SEQEND
  8
0
  0
POLYLINE
  8
PLAN_1
 62
     5
  6
CONTINUOUS
 66
     1
 40
0.003000
 41
0.003000
  0
VERTEX
  8
PLAN_1
 62
     5
  6
CONTINUOUS
 10
-0.575610
 20
-0.517500
  0
VERTEX
  8
PLAN_1
 62
     5
  6
CONTINUOUS
 10
-0.575610
 20
-0.526063
  0
SEQEND
  8
0
  0
POLYLINE
  8
PLAN_1
 62
     5
  6
CONTINUOUS
 66
     1
 40
0.003000
 41
0.003000
  0
VERTEX
  8
PLAN_1
 62
     5
  6
CONTINUOUS
 10
-0.575610
 20
-0.534126
  0
VERTEX
  8
PLAN_1
 62
     5
  6
CONTINUOUS
 10
-0.575610
 20
-0.542693
  0
SEQEND
  8
0
  0
POLYLINE
  8
PLAN_1
 62
     5
  6
CONTINUOUS
 66
     1
 40
0.003000
 41
0.003000
  0
VERTEX
  8
PLAN_1
 62
     5
  6
CONTINUOUS
 10
-0.575610
 20
-0.551256
  0
VERTEX
  8
PLAN_1
 62
     5
  6
CONTINUOUS
 10
-0.575610
 20
-0.559319
  0
SEQEND
  8
0
  0
POLYLINE
  8
PLAN_1
 62
     5
  6
CONTINUOUS
 66
     1
 40
0.003000
 41
0.003000
  0
VERTEX
  8
PLAN_1
 62
     5
  6
CONTINUOUS
 10
-0.575610
 20
-0.567882
  0
VERTEX
  8
PLAN_1
 62
     5
  6
CONTINUOUS
 10
-0.575610
 20
-0.575945
  0
SEQEND
  8
0
  0
POLYLINE
  8
PLAN_1
 62
     5
  6
CONTINUOUS
 66
     1
 40
0.003000
 41
0.003000
  0
VERTEX
  8
PLAN_1
 62
     5
  6
CONTINUOUS
 10
-0.575610
 20
-0.584508
  0
VERTEX
  8
PLAN_1
 62
     5
  6
CONTINUOUS
 10
-0.575610
 20
-0.592571
  0
SEQEND
  8
0
  0
POLYLINE
  8
PLAN_1
 62
     5
  6
CONTINUOUS
 66
     1
 40
0.003000
 41
0.003000
  0
VERTEX
  8
PLAN_1
 62
     5
  6
CONTINUOUS
 10
-0.575610
 20
-0.601134
  0
VERTEX
  8
PLAN_1
 62
     5
  6
CONTINUOUS
 10
-0.575610
 20
-0.609197
  0
SEQEND
  8
0
  0
POLYLINE
  8
PLAN_1
 62
     5
  6
CONTINUOUS
 66
     1
 40
0.003000
 41
0.003000
  0
VERTEX
  8
PLAN_1
 62
     5
  6
CONTINUOUS
 10
-0.575610
 20
-0.617760
  0
VERTEX
  8
PLAN_1
 62
     5
  6
CONTINUOUS
 10
-0.575610
 20
-0.625823
  0
SEQEND
  8
0
  0
POLYLINE
  8
PLAN_1
 62
     5
  6
CONTINUOUS
 66
     1
 40
0.003000
 41
0.003000
  0
VERTEX
  8
PLAN_1
 62
     5
  6
CONTINUOUS
 10
-0.575610
 20
-0.634386
  0
VERTEX
  8
PLAN_1
 62
     5
  6
CONTINUOUS
 10
-0.575610
 20
-0.642449
  0
SEQEND
  8
0
  0
POLYLINE
  8
PLAN_1
 62
     5
  6
CONTINUOUS
 66
     1
 40
0.003000
 41
0.003000
  0
VERTEX
  8
PLAN_1
 62
     5
  6
CONTINUOUS
 10
-0.575610
 20
-0.651012
  0
VERTEX
  8
PLAN_1
 62
     5
  6
CONTINUOUS
 10
-0.575610
 20
-0.659075
  0
SEQEND
  8
0
  0
POLYLINE
  8
PLAN_1
 62
     5
  6
CONTINUOUS
 66
     1
 40
0.003000
 41
0.003000
  0
VERTEX
  8
PLAN_1
 62
     5
  6
CONTINUOUS
 10
-0.575610
 20
-0.667638
  0
VERTEX
  8
PLAN_1
 62
     5
  6
CONTINUOUS
 10
-0.575610
 20
-0.675701
  0
SEQEND
  8
0
  0
POLYLINE
  8
PLAN_1
 62
     5
  6
CONTINUOUS
 66
     1
 40
0.003000
 41
0.003000
  0
VERTEX
  8
PLAN_1
 62
     5
  6
CONTINUOUS
 10
-0.575610
 20
-0.684264
  0
VERTEX
  8
PLAN_1
 62
     5
  6
CONTINUOUS
 10
-0.575610
 20
-0.692831
  0
SEQEND
  8
0
  0
POLYLINE
  8
PLAN_1
 62
     5
  6
CONTINUOUS
 66
     1
 40
0.003000
 41
0.003000
  0
VERTEX
  8
PLAN_1
 62
     5
  6
CONTINUOUS
 10
-0.575610
 20
-0.700894
  0
VERTEX
  8
PLAN_1
 62
     5
  6
CONTINUOUS
 10
-0.575610
 20
-0.709457
  0
SEQEND
  8
0
  0
POLYLINE
  8
PLAN_1
 62
     5
  6
CONTINUOUS
 66
     1
 40
0.003000
 41
0.003000
  0
VERTEX
  8
PLAN_1
 62
     5
  6
CONTINUOUS
 10
-0.575610
 20
-0.717520
  0
VERTEX
  8
PLAN_1
 62
     5
  6
CONTINUOUS
 10
-0.575610
 20
-0.726083
  0
SEQEND
  8
0
  0
POLYLINE
  8
PLAN_1
 62
     5
  6
CONTINUOUS
 66
     1
 40
0.003000
 41
0.003000
  0
VERTEX
  8
PLAN_1
 62
     5
  6
CONTINUOUS
 10
-0.575610
 20
-0.734146
  0
VERTEX
  8
PLAN_1
 62
     5
  6
CONTINUOUS
 10
-0.575610
 20
-0.742709
  0
SEQEND
  8
0
  0
POLYLINE
  8
PLAN_1
 62
     5
  6
CONTINUOUS
 66
     1
 40
0.003000
 41
0.003000
  0
VERTEX
  8
PLAN_1
 62
     5
  6
CONTINUOUS
 10
-0.575610
 20
-0.750772
  0
VERTEX
  8
PLAN_1
 62
     5
  6
CONTINUOUS
 10
-0.575610
 20
-0.759335
  0
SEQEND
  8
0
  0
POLYLINE
  8
PLAN_1
 62
     5
  6
CONTINUOUS
 66
     1
 40
0.003000
 41
0.003000
  0
VERTEX
  8
PLAN_1
 62
     5
  6
CONTINUOUS
 10
-0.575610
 20
-0.767398
  0
VERTEX
  8
PLAN_1
 62
     5
  6
CONTINUOUS
 10
-0.575610
 20
-0.775961
  0
SEQEND
  8
0
  0
POLYLINE
  8
PLAN_1
 62
     5
  6
CONTINUOUS
 66
     1
 40
0.003000
 41
0.003000
  0
VERTEX
  8
PLAN_1
 62
     5
  6
CONTINUOUS
 10
-0.575610
 20
-0.784024
  0
VERTEX
  8
PLAN_1
 62
     5
  6
CONTINUOUS
 10
-0.575610
 20
-0.792587
  0
SEQEND
  8
0
  0
POLYLINE
  8
PLAN_1
 62
     5
  6
CONTINUOUS
 66
     1
 40
0.003000
 41
0.003000
  0
VERTEX
  8
PLAN_1
 62
     5
  6
CONTINUOUS
 10
-0.575610
 20
-0.800650
  0
VERTEX
  8
PLAN_1
 62
     5
  6
CONTINUOUS
 10
-0.575610
 20
-0.809213
  0
SEQEND
  8
0
  0
POLYLINE
  8
PLAN_1
 62
     5
  6
CONTINUOUS
 66
     1
 40
0.003000
 41
0.003000
  0
VERTEX
  8
PLAN_1
 62
     5
  6
CONTINUOUS
 10
-0.575610
 20
-0.817780
  0
VERTEX
  8
PLAN_1
 62
     5
  6
CONTINUOUS
 10
-0.575610
 20
-0.825839
  0
SEQEND
  8
0
  0
POLYLINE
  8
PLAN_1
 62
     5
  6
CONTINUOUS
 66
     1
 40
0.003000
 41
0.003000
  0
VERTEX
  8
PLAN_1
 62
     5
  6
CONTINUOUS
 10
-0.575610
 20
-0.834406
  0
VERTEX
  8
PLAN_1
 62
     5
  6
CONTINUOUS
 10
-0.575610
 20
-0.842465
  0
SEQEND
  8
0
  0
POLYLINE
  8
PLAN_1
 62
     5
  6
CONTINUOUS
 66
     1
 40
0.003000
 41
0.003000
  0
VERTEX
  8
PLAN_1
 62
     5
  6
CONTINUOUS
 10
-0.575610
 20
-0.851031
  0
VERTEX
  8
PLAN_1
 62
     5
  6
CONTINUOUS
 10
-0.575610
 20
-0.859094
  0
SEQEND
  8
0
  0
POLYLINE
  8
PLAN_1
 62
     5
  6
CONTINUOUS
 66
     1
 40
0.003000
 41
0.003000
  0
VERTEX
  8
PLAN_1
 62
     5
  6
CONTINUOUS
 10
-0.575610
 20
-0.867657
  0
VERTEX
  8
PLAN_1
 62
     5
  6
CONTINUOUS
 10
-0.575610
 20
-0.875720
  0
SEQEND
  8
0
  0
POLYLINE
  8
PLAN_1
 62
     5
  6
CONTINUOUS
 66
     1
 40
0.003000
 41
0.003000
  0
VERTEX
  8
PLAN_1
 62
     5
  6
CONTINUOUS
 10
-0.575610
 20
-0.884283
  0
VERTEX
  8
PLAN_1
 62
     5
  6
CONTINUOUS
 10
-0.575610
 20
-0.892346
  0
SEQEND
  8
0
  0
POLYLINE
  8
PLAN_1
 62
     5
  6
CONTINUOUS
 66
     1
 40
0.003000
 41
0.003000
  0
VERTEX
  8
PLAN_1
 62
     5
  6
CONTINUOUS
 10
-0.575610
 20
-0.900909
  0
VERTEX
  8
PLAN_1
 62
     5
  6
CONTINUOUS
 10
-0.575610
 20
-0.908972
  0
SEQEND
  8
0
  0
POLYLINE
  8
PLAN_1
 62
     5
  6
CONTINUOUS
 66
     1
 40
0.003000
 41
0.003000
  0
VERTEX
  8
PLAN_1
 62
     5
  6
CONTINUOUS
 10
-0.575610
 20
-0.917535
  0
VERTEX
  8
PLAN_1
 62
     5
  6
CONTINUOUS
 10
-0.575610
 20
-0.925598
  0
SEQEND
  8
0
  0
POLYLINE
  8
PLAN_1
 62
     5
  6
CONTINUOUS
 66
     1
 40
0.003000
 41
0.003000
  0
VERTEX
  8
PLAN_1
 62
     5
  6
CONTINUOUS
 10
-0.575610
 20
-0.934161
  0
VERTEX
  8
PLAN_1
 62
     5
  6
CONTINUOUS
 10
-0.575610
 20
-0.942224
  0
SEQEND
  8
0
  0
POLYLINE
  8
PLAN_1
 62
     5
  6
CONTINUOUS
 66
     1
 40
0.003000
 41
0.003000
  0
VERTEX
  8
PLAN_1
 62
     5
  6
CONTINUOUS
 10
-0.575610
 20
-0.950787
  0
VERTEX
  8
PLAN_1
 62
     5
  6
CONTINUOUS
 10
-0.575610
 20
-0.959354
  0
SEQEND
  8
0
  0
POLYLINE
  8
PLAN_1
 62
     5
  6
CONTINUOUS
 66
     1
 40
0.003000
 41
0.003000
  0
VERTEX
  8
PLAN_1
 62
     5
  6
CONTINUOUS
 10
-0.575610
 20
-0.967413
  0
VERTEX
  8
PLAN_1
 62
     5
  6
CONTINUOUS
 10
-0.575610
 20
-0.975980
  0
SEQEND
  8
0
  0
POLYLINE
  8
PLAN_1
 62
     5
  6
CONTINUOUS
 66
     1
 40
0.003000
 41
0.003000
  0
VERTEX
  8
PLAN_1
 62
     5
  6
CONTINUOUS
 10
-0.575610
 20
-0.984039
  0
VERTEX
  8
PLAN_1
 62
     5
  6
CONTINUOUS
 10
-0.575610
 20
-0.992606
  0
SEQEND
  8
0
  0
POLYLINE
  8
PLAN_1
 62
     5
  6
CONTINUOUS
 66
     1
 40
0.003000
 41
0.003000
  0
VERTEX
  8
PLAN_1
 62
     5
  6
CONTINUOUS
 10
-0.575610
 20
-1.000665
  0
VERTEX
  8
PLAN_1
 62
     5
  6
CONTINUOUS
 10
-0.575610
 20
-1.004193
  0
SEQEND
  8
0
  0
POLYLINE
  8
PLAN_1
 62
     5
  6
CONTINUOUS
 66
     1
 40
0.003000
 41
0.003000
  0
VERTEX
  8
PLAN_1
 62
     5
  6
CONTINUOUS
 10
-0.575610
 20
-1.000665
  0
VERTEX
  8
PLAN_1
 62
     5
  6
CONTINUOUS
 10
-0.575610
 20
-1.004193
  0
SEQEND
  8
0
  0
POLYLINE
  8
PLAN_1
 62
     5
  6
CONTINUOUS
 66
     1
 40
0.003000
 41
0.003000
  0
VERTEX
  8
PLAN_1
 62
     5
  6
CONTINUOUS
 10
-0.888484
 20
-0.524051
  0
VERTEX
  8
PLAN_1
 62
     5
  6
CONTINUOUS
 10
-0.879921
 20
-0.524051
  0
SEQEND
  8
0
  0
POLYLINE
  8
PLAN_1
 62
     5
  6
CONTINUOUS
 66
     1
 40
0.003000
 41
0.003000
  0
VERTEX
  8
PLAN_1
 62
     5
  6
CONTINUOUS
 10
-0.871858
 20
-0.524051
  0
VERTEX
  8
PLAN_1
 62
     5
  6
CONTINUOUS
 10
-0.863295
 20
-0.524051
  0
SEQEND
  8
0
  0
POLYLINE
  8
PLAN_1
 62
     5
  6
CONTINUOUS
 66
     1
 40
0.003000
 41
0.003000
  0
VERTEX
  8
PLAN_1
 62
     5
  6
CONTINUOUS
 10
-0.855232
 20
-0.524051
  0
VERTEX
  8
PLAN_1
 62
     5
  6
CONTINUOUS
 10
-0.846669
 20
-0.524051
  0
SEQEND
  8
0
  0
POLYLINE
  8
PLAN_1
 62
     5
  6
CONTINUOUS
 66
     1
 40
0.003000
 41
0.003000
  0
VERTEX
  8
PLAN_1
 62
     5
  6
CONTINUOUS
 10
-0.838102
 20
-0.524051
  0
VERTEX
  8
PLAN_1
 62
     5
  6
CONTINUOUS
 10
-0.830043
 20
-0.524051
  0
SEQEND
  8
0
  0
POLYLINE
  8
PLAN_1
 62
     5
  6
CONTINUOUS
 66
     1
 40
0.003000
 41
0.003000
  0
VERTEX
  8
PLAN_1
 62
     5
  6
CONTINUOUS
 10
-0.821476
 20
-0.524051
  0
VERTEX
  8
PLAN_1
 62
     5
  6
CONTINUOUS
 10
-0.813417
 20
-0.524051
  0
SEQEND
  8
0
  0
POLYLINE
  8
PLAN_1
 62
     5
  6
CONTINUOUS
 66
     1
 40
0.003000
 41
0.003000
  0
VERTEX
  8
PLAN_1
 62
     5
  6
CONTINUOUS
 10
-0.804850
 20
-0.524051
  0
VERTEX
  8
PLAN_1
 62
     5
  6
CONTINUOUS
 10
-0.796791
 20
-0.524051
  0
SEQEND
  8
0
  0
POLYLINE
  8
PLAN_1
 62
     5
  6
CONTINUOUS
 66
     1
 40
0.003000
 41
0.003000
  0
VERTEX
  8
PLAN_1
 62
     5
  6
CONTINUOUS
 10
-0.788224
 20
-0.524051
  0
VERTEX
  8
PLAN_1
 62
     5
  6
CONTINUOUS
 10
-0.780165
 20
-0.524051
  0
SEQEND
  8
0
  0
POLYLINE
  8
PLAN_1
 62
     5
  6
CONTINUOUS
 66
     1
 40
0.003000
 41
0.003000
  0
VERTEX
  8
PLAN_1
 62
     5
  6
CONTINUOUS
 10
-0.771598
 20
-0.524051
  0
VERTEX
  8
PLAN_1
 62
     5
  6
CONTINUOUS
 10
-0.763539
 20
-0.524051
  0
SEQEND
  8
0
  0
POLYLINE
  8
PLAN_1
 62
     5
  6
CONTINUOUS
 66
     1
 40
0.003000
 41
0.003000
  0
VERTEX
  8
PLAN_1
 62
     5
  6
CONTINUOUS
 10
-0.754972
 20
-0.524051
  0
VERTEX
  8
PLAN_1
 62
     5
  6
CONTINUOUS
 10
-0.746909
 20
-0.524051
  0
SEQEND
  8
0
  0
POLYLINE
  8
PLAN_1
 62
     5
  6
CONTINUOUS
 66
     1
 40
0.003000
 41
0.003000
  0
VERTEX
  8
PLAN_1
 62
     5
  6
CONTINUOUS
 10
-0.738346
 20
-0.524051
  0
VERTEX
  8
PLAN_1
 62
     5
  6
CONTINUOUS
 10
-0.730283
 20
-0.524051
  0
SEQEND
  8
0
  0
POLYLINE
  8
PLAN_1
 62
     5
  6
CONTINUOUS
 66
     1
 40
0.003000
 41
0.003000
  0
VERTEX
  8
PLAN_1
 62
     5
  6
CONTINUOUS
 10
-0.721720
 20
-0.524051
  0
VERTEX
  8
PLAN_1
 62
     5
  6
CONTINUOUS
 10
-0.713154
 20
-0.524051
  0
SEQEND
  8
0
  0
POLYLINE
  8
PLAN_1
 62
     5
  6
CONTINUOUS
 66
     1
 40
0.003000
 41
0.003000
  0
VERTEX
  8
PLAN_1
 62
     5
  6
CONTINUOUS
 10
-0.705094
 20
-0.524051
  0
VERTEX
  8
PLAN_1
 62
     5
  6
CONTINUOUS
 10
-0.696528
 20
-0.524051
  0
SEQEND
  8
0
  0
POLYLINE
  8
PLAN_1
 62
     5
  6
CONTINUOUS
 66
     1
 40
0.003000
 41
0.003000
  0
VERTEX
  8
PLAN_1
 62
     5
  6
CONTINUOUS
 10
-0.688469
 20
-0.524051
  0
VERTEX
  8
PLAN_1
 62
     5
  6
CONTINUOUS
 10
-0.679902
 20
-0.524051
  0
SEQEND
  8
0
  0
POLYLINE
  8
PLAN_1
 62
     5
  6
CONTINUOUS
 66
     1
 40
0.003000
 41
0.003000
  0
VERTEX
  8
PLAN_1
 62
     5
  6
CONTINUOUS
 10
-0.671843
 20
-0.524051
  0
VERTEX
  8
PLAN_1
 62
     5
  6
CONTINUOUS
 10
-0.663276
 20
-0.524051
  0
SEQEND
  8
0
  0
POLYLINE
  8
PLAN_1
 62
     5
  6
CONTINUOUS
 66
     1
 40
0.003000
 41
0.003000
  0
VERTEX
  8
PLAN_1
 62
     5
  6
CONTINUOUS
 10
-0.655217
 20
-0.524051
  0
VERTEX
  8
PLAN_1
 62
     5
  6
CONTINUOUS
 10
-0.646650
 20
-0.524051
  0
SEQEND
  8
0
  0
POLYLINE
  8
PLAN_1
 62
     5
  6
CONTINUOUS
 66
     1
 40
0.003000
 41
0.003000
  0
VERTEX
  8
PLAN_1
 62
     5
  6
CONTINUOUS
 10
-0.638591
 20
-0.524051
  0
VERTEX
  8
PLAN_1
 62
     5
  6
CONTINUOUS
 10
-0.630024
 20
-0.524051
  0
SEQEND
  8
0
  0
POLYLINE
  8
PLAN_1
 62
     5
  6
CONTINUOUS
 66
     1
 40
0.003000
 41
0.003000
  0
VERTEX
  8
PLAN_1
 62
     5
  6
CONTINUOUS
 10
-0.621965
 20
-0.524051
  0
VERTEX
  8
PLAN_1
 62
     5
  6
CONTINUOUS
 10
-0.613398
 20
-0.524051
  0
SEQEND
  8
0
  0
POLYLINE
  8
PLAN_1
 62
     5
  6
CONTINUOUS
 66
     1
 40
0.003000
 41
0.003000
  0
VERTEX
  8
PLAN_1
 62
     5
  6
CONTINUOUS
 10
-0.605339
 20
-0.524051
  0
VERTEX
  8
PLAN_1
 62
     5
  6
CONTINUOUS
 10
-0.596772
 20
-0.524051
  0
SEQEND
  8
0
  0
POLYLINE
  8
PLAN_1
 62
     5
  6
CONTINUOUS
 66
     1
 40
0.003000
 41
0.003000
  0
VERTEX
  8
PLAN_1
 62
     5
  6
CONTINUOUS
 10
-0.588713
 20
-0.524051
  0
VERTEX
  8
PLAN_1
 62
     5
  6
CONTINUOUS
 10
-0.581154
 20
-0.524051
  0
SEQEND
  8
0
  0
POLYLINE
  8
PLAN_1
 62
     5
  6
CONTINUOUS
 66
     1
 40
0.003000
 41
0.003000
  0
VERTEX
  8
PLAN_1
 62
     5
  6
CONTINUOUS
 10
-0.588713
 20
-0.524051
  0
VERTEX
  8
PLAN_1
 62
     5
  6
CONTINUOUS
 10
-0.581154
 20
-0.524051
  0
SEQEND
  8
0
  0
POLYLINE
  8
PLAN_1
 62
     5
  6
CONTINUOUS
 66
     1
 40
0.003000
 41
0.003000
  0
VERTEX
  8
PLAN_1
 62
     5
  6
CONTINUOUS
 10
-0.756484
 20
-0.650004
  0
VERTEX
  8
PLAN_1
 62
     5
  6
CONTINUOUS
 10
-0.756484
 20
-0.641441
  0
SEQEND
  8
0
  0
POLYLINE
  8
PLAN_1
 62
     5
  6
CONTINUOUS
 66
     1
 40
0.003000
 41
0.003000
  0
VERTEX
  8
PLAN_1
 62
     5
  6
CONTINUOUS
 10
-0.756484
 20
-0.633378
  0
VERTEX
  8
PLAN_1
 62
     5
  6
CONTINUOUS
 10
-0.756484
 20
-0.624815
  0
SEQEND
  8
0
  0
POLYLINE
  8
PLAN_1
 62
     5
  6
CONTINUOUS
 66
     1
 40
0.003000
 41
0.003000
  0
VERTEX
  8
PLAN_1
 62
     5
  6
CONTINUOUS
 10
-0.756484
 20
-0.616752
  0
VERTEX
  8
PLAN_1
 62
     5
  6
CONTINUOUS
 10
-0.756484
 20
-0.608189
  0
SEQEND
  8
0
  0
POLYLINE
  8
PLAN_1
 62
     5
  6
CONTINUOUS
 66
     1
 40
0.003000
 41
0.003000
  0
VERTEX
  8
PLAN_1
 62
     5
  6
CONTINUOUS
 10
-0.756484
 20
-0.600126
  0
VERTEX
  8
PLAN_1
 62
     5
  6
CONTINUOUS
 10
-0.756484
 20
-0.591563
  0
SEQEND
  8
0
  0
POLYLINE
  8
PLAN_1
 62
     5
  6
CONTINUOUS
 66
     1
 40
0.003000
 41
0.003000
  0
VERTEX
  8
PLAN_1
 62
     5
  6
CONTINUOUS
 10
-0.756484
 20
-0.583500
  0
VERTEX
  8
PLAN_1
 62
     5
  6
CONTINUOUS
 10
-0.756484
 20
-0.574937
  0
SEQEND
  8
0
  0
POLYLINE
  8
PLAN_1
 62
     5
  6
CONTINUOUS
 66
     1
 40
0.003000
 41
0.003000
  0
VERTEX
  8
PLAN_1
 62
     5
  6
CONTINUOUS
 10
-0.756484
 20
-0.566874
  0
VERTEX
  8
PLAN_1
 62
     5
  6
CONTINUOUS
 10
-0.756484
 20
-0.558311
  0
SEQEND
  8
0
  0
POLYLINE
  8
PLAN_1
 62
     5
  6
CONTINUOUS
 66
     1
 40
0.003000
 41
0.003000
  0
VERTEX
  8
PLAN_1
 62
     5
  6
CONTINUOUS
 10
-0.756484
 20
-0.550248
  0
VERTEX
  8
PLAN_1
 62
     5
  6
CONTINUOUS
 10
-0.756484
 20
-0.541685
  0
SEQEND
  8
0
  0
POLYLINE
  8
PLAN_1
 62
     5
  6
CONTINUOUS
 66
     1
 40
0.003000
 41
0.003000
  0
VERTEX
  8
PLAN_1
 62
     5
  6
CONTINUOUS
 10
-0.756484
 20
-0.533622
  0
VERTEX
  8
PLAN_1
 62
     5
  6
CONTINUOUS
 10
-0.756484
 20
-0.525059
  0
SEQEND
  8
0
  0
POLYLINE
  8
PLAN_1
 62
     5
  6
CONTINUOUS
 66
     1
 40
0.003000
 41
0.003000
  0
VERTEX
  8
PLAN_1
 62
     5
  6
CONTINUOUS
 10
-0.756484
 20
-0.516996
  0
VERTEX
  8
PLAN_1
 62
     5
  6
CONTINUOUS
 10
-0.756484
 20
-0.508433
  0
SEQEND
  8
0
  0
POLYLINE
  8
PLAN_1
 62
     5
  6
CONTINUOUS
 66
     1
 40
0.003000
 41
0.003000
  0
VERTEX
  8
PLAN_1
 62
     5
  6
CONTINUOUS
 10
-0.756484
 20
-0.499866
  0
VERTEX
  8
PLAN_1
 62
     5
  6
CONTINUOUS
 10
-0.756484
 20
-0.491803
  0
SEQEND
  8
0
  0
POLYLINE
  8
PLAN_1
 62
     5
  6
CONTINUOUS
 66
     1
 40
0.003000
 41
0.003000
  0
VERTEX
  8
PLAN_1
 62
     5
  6
CONTINUOUS
 10
-0.756484
 20
-0.483240
  0
VERTEX
  8
PLAN_1
 62
     5
  6
CONTINUOUS
 10
-0.756484
 20
-0.475177
  0
SEQEND
  8
0
  0
POLYLINE
  8
PLAN_1
 62
     5
  6
CONTINUOUS
 66
     1
 40
0.003000
 41
0.003000
  0
VERTEX
  8
PLAN_1
 62
     5
  6
CONTINUOUS
 10
-0.756484
 20
-0.466614
  0
VERTEX
  8
PLAN_1
 62
     5
  6
CONTINUOUS
 10
-0.756484
 20
-0.458551
  0
SEQEND
  8
0
  0
POLYLINE
  8
PLAN_1
 62
     5
  6
CONTINUOUS
 66
     1
 40
0.003000
 41
0.003000
  0
VERTEX
  8
PLAN_1
 62
     5
  6
CONTINUOUS
 10
-0.756484
 20
-0.449988
  0
VERTEX
  8
PLAN_1
 62
     5
  6
CONTINUOUS
 10
-0.756484
 20
-0.441925
  0
SEQEND
  8
0
  0
POLYLINE
  8
PLAN_1
 62
     5
  6
CONTINUOUS
 66
     1
 40
0.003000
 41
0.003000
  0
VERTEX
  8
PLAN_1
 62
     5
  6
CONTINUOUS
 10
-0.756484
 20
-0.433362
  0
VERTEX
  8
PLAN_1
 62
     5
  6
CONTINUOUS
 10
-0.756484
 20
-0.425299
  0
SEQEND
  8
0
  0
POLYLINE
  8
PLAN_1
 62
     5
  6
CONTINUOUS
 66
     1
 40
0.003000
 41
0.003000
  0
VERTEX
  8
PLAN_1
 62
     5
  6
CONTINUOUS
 10
-0.756484
 20
-0.416736
  0
VERTEX
  8
PLAN_1
 62
     5
  6
CONTINUOUS
 10
-0.756484
 20
-0.408673
  0
SEQEND
  8
0
  0
POLYLINE
  8
PLAN_1
 62
     5
  6
CONTINUOUS
 66
     1
 40
0.003000
 41
0.003000
  0
VERTEX
  8
PLAN_1
 62
     5
  6
CONTINUOUS
 10
-0.756484
 20
-0.400110
  0
VERTEX
  8
PLAN_1
 62
     5
  6
CONTINUOUS
 10
-0.756484
 20
-0.392047
  0
SEQEND
  8
0
  0
POLYLINE
  8
PLAN_1
 62
     5
  6
CONTINUOUS
 66
     1
 40
0.003000
 41
0.003000
  0
VERTEX
  8
PLAN_1
 62
     5
  6
CONTINUOUS
 10
-0.756484
 20
-0.400110
  0
VERTEX
  8
PLAN_1
 62
     5
  6
CONTINUOUS
 10
-0.756484
 20
-0.392047
  0
SEQEND
  8
0
  0
POLYLINE
  8
PLAN_1
 62
     5
  6
CONTINUOUS
 66
     1
 40
0.003000
 41
0.003000
  0
VERTEX
  8
PLAN_1
 62
     5
  6
CONTINUOUS
 10
-2.098669
 20
-0.524051
  0
VERTEX
  8
PLAN_1
 62
     5
  6
CONTINUOUS
 10
-2.090610
 20
-0.524051
  0
SEQEND
  8
0
  0
POLYLINE
  8
PLAN_1
 62
     5
  6
CONTINUOUS
 66
     1
 40
0.003000
 41
0.003000
  0
VERTEX
  8
PLAN_1
 62
     5
  6
CONTINUOUS
 10
-2.082043
 20
-0.524051
  0
VERTEX
  8
PLAN_1
 62
     5
  6
CONTINUOUS
 10
-2.073984
 20
-0.524051
  0
SEQEND
  8
0
  0
POLYLINE
  8
PLAN_1
 62
     5
  6
CONTINUOUS
 66
     1
 40
0.003000
 41
0.003000
  0
VERTEX
  8
PLAN_1
 62
     5
  6
CONTINUOUS
 10
-2.065417
 20
-0.524051
  0
VERTEX
  8
PLAN_1
 62
     5
  6
CONTINUOUS
 10
-2.057358
 20
-0.524051
  0
SEQEND
  8
0
  0
POLYLINE
  8
PLAN_1
 62
     5
  6
CONTINUOUS
 66
     1
 40
0.003000
 41
0.003000
  0
VERTEX
  8
PLAN_1
 62
     5
  6
CONTINUOUS
 10
-2.048791
 20
-0.524051
  0
VERTEX
  8
PLAN_1
 62
     5
  6
CONTINUOUS
 10
-2.040732
 20
-0.524051
  0
SEQEND
  8
0
  0
POLYLINE
  8
PLAN_1
 62
     5
  6
CONTINUOUS
 66
     1
 40
0.003000
 41
0.003000
  0
VERTEX
  8
PLAN_1
 62
     5
  6
CONTINUOUS
 10
-2.032165
 20
-0.524051
  0
VERTEX
  8
PLAN_1
 62
     5
  6
CONTINUOUS
 10
-2.024106
 20
-0.524051
  0
SEQEND
  8
0
  0
POLYLINE
  8
PLAN_1
 62
     5
  6
CONTINUOUS
 66
     1
 40
0.003000
 41
0.003000
  0
VERTEX
  8
PLAN_1
 62
     5
  6
CONTINUOUS
 10
-2.015539
 20
-0.524051
  0
VERTEX
  8
PLAN_1
 62
     5
  6
CONTINUOUS
 10
-2.007480
 20
-0.524051
  0
SEQEND
  8
0
  0
POLYLINE
  8
PLAN_1
 62
     5
  6
CONTINUOUS
 66
     1
 40
0.003000
 41
0.003000
  0
VERTEX
  8
PLAN_1
 62
     5
  6
CONTINUOUS
 10
-1.998913
 20
-0.524051
  0
VERTEX
  8
PLAN_1
 62
     5
  6
CONTINUOUS
 10
-1.990854
 20
-0.524051
  0
SEQEND
  8
0
  0
POLYLINE
  8
PLAN_1
 62
     5
  6
CONTINUOUS
 66
     1
 40
0.003000
 41
0.003000
  0
VERTEX
  8
PLAN_1
 62
     5
  6
CONTINUOUS
 10
-1.982287
 20
-0.524051
  0
VERTEX
  8
PLAN_1
 62
     5
  6
CONTINUOUS
 10
-1.973724
 20
-0.524051
  0
SEQEND
  8
0
  0
POLYLINE
  8
PLAN_1
 62
     5
  6
CONTINUOUS
 66
     1
 40
0.003000
 41
0.003000
  0
VERTEX
  8
PLAN_1
 62
     5
  6
CONTINUOUS
 10
-1.965661
 20
-0.524051
  0
VERTEX
  8
PLAN_1
 62
     5
  6
CONTINUOUS
 10
-1.957098
 20
-0.524051
  0
SEQEND
  8
0
  0
POLYLINE
  8
PLAN_1
 62
     5
  6
CONTINUOUS
 66
     1
 40
0.003000
 41
0.003000
  0
VERTEX
  8
PLAN_1
 62
     5
  6
CONTINUOUS
 10
-1.949035
 20
-0.524051
  0
VERTEX
  8
PLAN_1
 62
     5
  6
CONTINUOUS
 10
-1.940469
 20
-0.524051
  0
SEQEND
  8
0
  0
POLYLINE
  8
PLAN_1
 62
     5
  6
CONTINUOUS
 66
     1
 40
0.003000
 41
0.003000
  0
VERTEX
  8
PLAN_1
 62
     5
  6
CONTINUOUS
 10
-1.932409
 20
-0.524051
  0
VERTEX
  8
PLAN_1
 62
     5
  6
CONTINUOUS
 10
-1.923843
 20
-0.524051
  0
SEQEND
  8
0
  0
POLYLINE
  8
PLAN_1
 62
     5
  6
CONTINUOUS
 66
     1
 40
0.003000
 41
0.003000
  0
VERTEX
  8
PLAN_1
 62
     5
  6
CONTINUOUS
 10
-1.915783
 20
-0.524051
  0
VERTEX
  8
PLAN_1
 62
     5
  6
CONTINUOUS
 10
-1.907217
 20
-0.524051
  0
SEQEND
  8
0
  0
POLYLINE
  8
PLAN_1
 62
     5
  6
CONTINUOUS
 66
     1
 40
0.003000
 41
0.003000
  0
VERTEX
  8
PLAN_1
 62
     5
  6
CONTINUOUS
 10
-1.899157
 20
-0.524051
  0
VERTEX
  8
PLAN_1
 62
     5
  6
CONTINUOUS
 10
-1.890591
 20
-0.524051
  0
SEQEND
  8
0
  0
POLYLINE
  8
PLAN_1
 62
     5
  6
CONTINUOUS
 66
     1
 40
0.003000
 41
0.003000
  0
VERTEX
  8
PLAN_1
 62
     5
  6
CONTINUOUS
 10
-1.882531
 20
-0.524051
  0
VERTEX
  8
PLAN_1
 62
     5
  6
CONTINUOUS
 10
-1.873965
 20
-0.524051
  0
SEQEND
  8
0
  0
POLYLINE
  8
PLAN_1
 62
     5
  6
CONTINUOUS
 66
     1
 40
0.003000
 41
0.003000
  0
VERTEX
  8
PLAN_1
 62
     5
  6
CONTINUOUS
 10
-1.865906
 20
-0.524051
  0
VERTEX
  8
PLAN_1
 62
     5
  6
CONTINUOUS
 10
-1.857339
 20
-0.524051
  0
SEQEND
  8
0
  0
POLYLINE
  8
PLAN_1
 62
     5
  6
CONTINUOUS
 66
     1
 40
0.003000
 41
0.003000
  0
VERTEX
  8
PLAN_1
 62
     5
  6
CONTINUOUS
 10
-1.848776
 20
-0.524051
  0
VERTEX
  8
PLAN_1
 62
     5
  6
CONTINUOUS
 10
-1.840713
 20
-0.524051
  0
SEQEND
  8
0
  0
POLYLINE
  8
PLAN_1
 62
     5
  6
CONTINUOUS
 66
     1
 40
0.003000
 41
0.003000
  0
VERTEX
  8
PLAN_1
 62
     5
  6
CONTINUOUS
 10
-1.832150
 20
-0.524051
  0
VERTEX
  8
PLAN_1
 62
     5
  6
CONTINUOUS
 10
-1.830638
 20
-0.524051
  0
SEQEND
  8
0
  0
POLYLINE
  8
PLAN_1
 62
     5
  6
CONTINUOUS
 66
     1
 40
0.003000
 41
0.003000
  0
VERTEX
  8
PLAN_1
 62
     5
  6
CONTINUOUS
 10
-1.832150
 20
-0.524051
  0
VERTEX
  8
PLAN_1
 62
     5
  6
CONTINUOUS
 10
-1.830638
 20
-0.524051
  0
SEQEND
  8
0
  0
POLYLINE
  8
PLAN_1
 62
     5
  6
CONTINUOUS
 66
     1
 40
0.003000
 41
0.003000
  0
VERTEX
  8
PLAN_1
 62
     5
  6
CONTINUOUS
 10
-1.967173
 20
-0.664114
  0
VERTEX
  8
PLAN_1
 62
     5
  6
CONTINUOUS
 10
-1.967173
 20
-0.656051
  0
SEQEND
  8
0
  0
POLYLINE
  8
PLAN_1
 62
     5
  6
CONTINUOUS
 66
     1
 40
0.003000
 41
0.003000
  0
VERTEX
  8
PLAN_1
 62
     5
  6
CONTINUOUS
 10
-1.967173
 20
-0.647488
  0
VERTEX
  8
PLAN_1
 62
     5
  6
CONTINUOUS
 10
-1.967173
 20
-0.639425
  0
SEQEND
  8
0
  0
POLYLINE
  8
PLAN_1
 62
     5
  6
CONTINUOUS
 66
     1
 40
0.003000
 41
0.003000
  0
VERTEX
  8
PLAN_1
 62
     5
  6
CONTINUOUS
 10
-1.967173
 20
-0.630862
  0
VERTEX
  8
PLAN_1
 62
     5
  6
CONTINUOUS
 10
-1.967173
 20
-0.622799
  0
SEQEND
  8
0
  0
POLYLINE
  8
PLAN_1
 62
     5
  6
CONTINUOUS
 66
     1
 40
0.003000
 41
0.003000
  0
VERTEX
  8
PLAN_1
 62
     5
  6
CONTINUOUS
 10
-1.967173
 20
-0.614232
  0
VERTEX
  8
PLAN_1
 62
     5
  6
CONTINUOUS
 10
-1.967173
 20
-0.606173
  0
SEQEND
  8
0
  0
POLYLINE
  8
PLAN_1
 62
     5
  6
CONTINUOUS
 66
     1
 40
0.003000
 41
0.003000
  0
VERTEX
  8
PLAN_1
 62
     5
  6
CONTINUOUS
 10
-1.967173
 20
-0.597606
  0
VERTEX
  8
PLAN_1
 62
     5
  6
CONTINUOUS
 10
-1.967173
 20
-0.589547
  0
SEQEND
  8
0
  0
POLYLINE
  8
PLAN_1
 62
     5
  6
CONTINUOUS
 66
     1
 40
0.003000
 41
0.003000
  0
VERTEX
  8
PLAN_1
 62
     5
  6
CONTINUOUS
 10
-1.967173
 20
-0.580980
  0
VERTEX
  8
PLAN_1
 62
     5
  6
CONTINUOUS
 10
-1.967173
 20
-0.572417
  0
SEQEND
  8
0
  0
POLYLINE
  8
PLAN_1
 62
     5
  6
CONTINUOUS
 66
     1
 40
0.003000
 41
0.003000
  0
VERTEX
  8
PLAN_1
 62
     5
  6
CONTINUOUS
 10
-1.967173
 20
-0.564354
  0
VERTEX
  8
PLAN_1
 62
     5
  6
CONTINUOUS
 10
-1.967173
 20
-0.555791
  0
SEQEND
  8
0
  0
POLYLINE
  8
PLAN_1
 62
     5
  6
CONTINUOUS
 66
     1
 40
0.003000
 41
0.003000
  0
VERTEX
  8
PLAN_1
 62
     5
  6
CONTINUOUS
 10
-1.967173
 20
-0.547728
  0
VERTEX
  8
PLAN_1
 62
     5
  6
CONTINUOUS
 10
-1.967173
 20
-0.539165
  0
SEQEND
  8
0
  0
POLYLINE
  8
PLAN_1
 62
     5
  6
CONTINUOUS
 66
     1
 40
0.003000
 41
0.003000
  0
VERTEX
  8
PLAN_1
 62
     5
  6
CONTINUOUS
 10
-1.967173
 20
-0.531102
  0
VERTEX
  8
PLAN_1
 62
     5
  6
CONTINUOUS
 10
-1.967173
 20
-0.522539
  0
SEQEND
  8
0
  0
POLYLINE
  8
PLAN_1
 62
     5
  6
CONTINUOUS
 66
     1
 40
0.003000
 41
0.003000
  0
VERTEX
  8
PLAN_1
 62
     5
  6
CONTINUOUS
 10
-1.967173
 20
-0.514476
  0
VERTEX
  8
PLAN_1
 62
     5
  6
CONTINUOUS
 10
-1.967173
 20
-0.505913
  0
SEQEND
  8
0
  0
POLYLINE
  8
PLAN_1
 62
     5
  6
CONTINUOUS
 66
     1
 40
0.003000
 41
0.003000
  0
VERTEX
  8
PLAN_1
 62
     5
  6
CONTINUOUS
 10
-1.967173
 20
-0.497850
  0
VERTEX
  8
PLAN_1
 62
     5
  6
CONTINUOUS
 10
-1.967173
 20
-0.489287
  0
SEQEND
  8
0
  0
POLYLINE
  8
PLAN_1
 62
     5
  6
CONTINUOUS
 66
     1
 40
0.003000
 41
0.003000
  0
VERTEX
  8
PLAN_1
 62
     5
  6
CONTINUOUS
 10
-1.967173
 20
-0.481224
  0
VERTEX
  8
PLAN_1
 62
     5
  6
CONTINUOUS
 10
-1.967173
 20
-0.472661
  0
SEQEND
  8
0
  0
POLYLINE
  8
PLAN_1
 62
     5
  6
CONTINUOUS
 66
     1
 40
0.003000
 41
0.003000
  0
VERTEX
  8
PLAN_1
 62
     5
  6
CONTINUOUS
 10
-1.967173
 20
-0.464598
  0
VERTEX
  8
PLAN_1
 62
     5
  6
CONTINUOUS
 10
-1.967173
 20
-0.456031
  0
SEQEND
  8
0
  0
POLYLINE
  8
PLAN_1
 62
     5
  6
CONTINUOUS
 66
     1
 40
0.003000
 41
0.003000
  0
VERTEX
  8
PLAN_1
 62
     5
  6
CONTINUOUS
 10
-1.967173
 20
-0.447469
  0
VERTEX
  8
PLAN_1
 62
     5
  6
CONTINUOUS
 10
-1.967173
 20
-0.439406
  0
SEQEND
  8
0
  0
POLYLINE
  8
PLAN_1
 62
     5
  6
CONTINUOUS
 66
     1
 40
0.003000
 41
0.003000
  0
VERTEX
  8
PLAN_1
 62
     5
  6
CONTINUOUS
 10
-1.967173
 20
-0.430843
  0
VERTEX
  8
PLAN_1
 62
     5
  6
CONTINUOUS
 10
-1.967173
 20
-0.422780
  0
SEQEND
  8
0
  0
POLYLINE
  8
PLAN_1
 62
     5
  6
CONTINUOUS
 66
     1
 40
0.003000
 41
0.003000
  0
VERTEX
  8
PLAN_1
 62
     5
  6
CONTINUOUS
 10
-1.967173
 20
-0.414217
  0
VERTEX
  8
PLAN_1
 62
     5
  6
CONTINUOUS
 10
-1.967173
 20
-0.406154
  0
SEQEND
  8
0
  0
POLYLINE
  8
PLAN_1
  6
CONTINUOUS
 66
     1
 40
0.008563
 41
0.008563
  0
VERTEX
  8
PLAN_1
  6
CONTINUOUS
 10
-1.286004
 20
-0.868161
  0
VERTEX
  8
PLAN_1
  6
CONTINUOUS
 10
-1.286004
 20
-0.758327
  0
VERTEX
  8
PLAN_1
  6
CONTINUOUS
 10
-1.422035
 20
-0.758327
  0
VERTEX
  8
PLAN_1
  6
CONTINUOUS
 10
-1.422035
 20
-0.868161
  0
VERTEX
  8
PLAN_1
  6
CONTINUOUS
 10
-1.286004
 20
-0.868161
  0
SEQEND
  8
0
  0
POLYLINE
  8
PLAN_1
  6
CONTINUOUS
 66
     1
 40
0.008563
 41
0.008563
  0
VERTEX
  8
PLAN_1
  6
CONTINUOUS
 10
-0.831555
 20
-0.285740
  0
VERTEX
  8
PLAN_1
  6
CONTINUOUS
 10
-0.831555
 20
-0.263571
  0
VERTEX
  8
PLAN_1
  6
CONTINUOUS
 10
-1.891598
 20
-0.263571
  0
VERTEX
  8
PLAN_1
  6
CONTINUOUS
 10
-1.891598
 20
-0.285740
  0
VERTEX
  8
PLAN_1
  6
CONTINUOUS
 10
-0.831555
 20
-0.285740
  0
SEQEND
  8
0
  0
POLYLINE
  8
PLAN_1
  6
CONTINUOUS
 66
     1
 40
0.008563
 41
0.008563
  0
VERTEX
  8
PLAN_1
  6
CONTINUOUS
 10
-1.036610
 20
-0.758327
  0
VERTEX
  8
PLAN_1
  6
CONTINUOUS
 10
-1.036610
 20
-0.285740
  0
VERTEX
  8
PLAN_1
  6
CONTINUOUS
 10
-1.687047
 20
-0.285740
  0
VERTEX
  8
PLAN_1
  6
CONTINUOUS
 10
-1.687047
 20
-0.758327
  0
VERTEX
  8
PLAN_1
  6
CONTINUOUS
 10
-1.036610
 20
-0.758327
  0
SEQEND
  8
0
  0
POLYLINE
  8
PLAN_1
  6
CONTINUOUS
 66
     1
 40
0.008563
 41
0.008563
  0
VERTEX
  8
PLAN_1
  6
CONTINUOUS
 10
-1.890087
 20
0.734000
  0
VERTEX
  8
PLAN_1
  6
CONTINUOUS
 10
-2.008488
 20
0.734000
  0
VERTEX
  8
PLAN_1
  6
CONTINUOUS
 10
-2.008488
 20
-0.263571
  0
VERTEX
  8
PLAN_1
  6
CONTINUOUS
 10
-0.715673
 20
-0.263571
  0
VERTEX
  8
PLAN_1
  6
CONTINUOUS
 10
-0.715673
 20
0.734000
  0
VERTEX
  8
PLAN_1
  6
CONTINUOUS
 10
-0.832563
 20
0.734000
  0
SEQEND
  8
0
  0
POLYLINE
  8
PLAN_1
  6
CONTINUOUS
 66
     1
 40
0.008563
 41
0.008563
  0
VERTEX
  8
PLAN_1
  6
CONTINUOUS
 10
-0.832563
 20
0.734000
  0
VERTEX
  8
PLAN_1
  6
CONTINUOUS
 10
-0.832563
 20
0.753146
  0
VERTEX
  8
PLAN_1
  6
CONTINUOUS
 10
-1.890087
 20
0.753146
  0
VERTEX
  8
PLAN_1
  6
CONTINUOUS
 10
-1.890087
 20
0.734000
  0
SEQEND
  8
0
  0
POLYLINE
  8
PLAN_1
  6
CONTINUOUS
 66
     1
 40
0.008563
 41
0.008563
  0
VERTEX
  8
PLAN_1
  6
CONTINUOUS
 10
-0.717689
 20
0.531965
  0
VERTEX
  8
PLAN_1
  6
CONTINUOUS
 10
-0.832563
 20
0.531965
  0
SEQEND
  8
0
  0
POLYLINE
  8
PLAN_1
  6
CONTINUOUS
 66
     1
 40
0.008563
 41
0.008563
  0
VERTEX
  8
PLAN_1
  6
CONTINUOUS
 10
-1.890087
 20
0.531965
  0
VERTEX
  8
PLAN_1
  6
CONTINUOUS
 10
-2.006976
 20
0.531965
  0
SEQEND
  8
0
  0
POLYLINE
  8
PLAN_1
  6
CONTINUOUS
 66
     1
 40
0.008563
 41
0.008563
  0
VERTEX
  8
PLAN_1
  6
CONTINUOUS
 10
-1.684528
 20
-0.156260
  0
VERTEX
  8
PLAN_1
  6
CONTINUOUS
 10
-1.684528
 20
-0.263571
  0
SEQEND
  8
0
  0
POLYLINE
  8
PLAN_1
  6
CONTINUOUS
 66
     1
 40
0.008563
 41
0.008563
  0
VERTEX
  8
PLAN_1
  6
CONTINUOUS
 10
-1.890087
 20
-0.074134
  0
VERTEX
  8
PLAN_1
  6
CONTINUOUS
 10
-2.007984
 20
-0.074134
  0
SEQEND
  8
0
  0
POLYLINE
  8
PLAN_1
  6
CONTINUOUS
 66
     1
 40
0.008563
 41
0.008563
  0
VERTEX
  8
PLAN_1
  6
CONTINUOUS
 10
-1.043161
 20
-0.156260
  0
VERTEX
  8
PLAN_1
  6
CONTINUOUS
 10
-1.043161
 20
-0.263571
  0
SEQEND
  8
0
  0
POLYLINE
  8
PLAN_1
  6
CONTINUOUS
 66
     1
 40
0.008563
 41
0.008563
  0
VERTEX
  8
PLAN_1
  6
CONTINUOUS
 10
-0.714665
 20
-0.075142
  0
VERTEX
  8
PLAN_1
  6
CONTINUOUS
 10
-0.832563
 20
-0.075142
  0
SEQEND
  8
0
  0
POLYLINE
  8
PLAN_1
  6
CONTINUOUS
 66
     1
 40
0.008563
 41
0.008563
  0
VERTEX
  8
PLAN_1
  6
CONTINUOUS
 10
-1.773705
 20
-0.156260
  0
VERTEX
  8
PLAN_1
  6
CONTINUOUS
 10
-1.773705
 20
-0.263571
  0
SEQEND
  8
0
  0
POLYLINE
  8
PLAN_1
  6
CONTINUOUS
 66
     1
 40
0.008563
 41
0.008563
  0
VERTEX
  8
PLAN_1
  6
CONTINUOUS
 10
-0.945921
 20
-0.263571
  0
VERTEX
  8
PLAN_1
  6
CONTINUOUS
 10
-0.945921
 20
-0.156260
  0
SEQEND
  8
0
  0
POLYLINE
  8
PLAN_1
  6
CONTINUOUS
 66
     1
 40
0.008563
 41
0.008563
  0
VERTEX
  8
PLAN_1
  6
CONTINUOUS
 10
-1.890087
 20
0.531965
  0
VERTEX
  8
PLAN_1
  6
CONTINUOUS
 10
-1.890087
 20
-0.074134
  0
SEQEND
  8
0
  0
POLYLINE
  8
PLAN_1
  6
CONTINUOUS
 66
     1
 40
0.008563
 41
0.008563
  0
VERTEX
  8
PLAN_1
  6
CONTINUOUS
 10
-0.832563
 20
0.531965
  0
VERTEX
  8
PLAN_1
  6
CONTINUOUS
 10
-0.832563
 20
-0.075142
  0
SEQEND
  8
0
  0
POLYLINE
  8
PLAN_1
  6
CONTINUOUS
 66
     1
 40
0.008563
 41
0.008563
  0
VERTEX
  8
PLAN_1
  6
CONTINUOUS
 10
-1.043161
 20
-0.156260
  0
VERTEX
  8
PLAN_1
  6
CONTINUOUS
 10
-0.945921
 20
-0.156260
  0
SEQEND
  8
0
  0
POLYLINE
  8
PLAN_1
  6
CONTINUOUS
 66
     1
 40
0.008563
 41
0.008563
  0
VERTEX
  8
PLAN_1
  6
CONTINUOUS
 10
-1.684528
 20
-0.156260
  0
VERTEX
  8
PLAN_1
  6
CONTINUOUS
 10
-1.773705
 20
-0.156260
  0
SEQEND
  8
0
  0
POLYLINE
  8
PLAN_1
  6
CONTINUOUS
 66
     1
 40
0.008563
 41
0.008563
  0
VERTEX
  8
PLAN_1
  6
CONTINUOUS
 10
-0.832563
 20
-0.075142
  0
VERTEX
  8
PLAN_1
  6
CONTINUOUS
 10
-0.832563
 20
-0.156260
  0
VERTEX
  8
PLAN_1
  6
CONTINUOUS
 10
-0.945921
 20
-0.156260
  0
SEQEND
  8
0
  0
POLYLINE
  8
PLAN_1
  6
CONTINUOUS
 66
     1
 40
0.008563
 41
0.008563
  0
VERTEX
  8
PLAN_1
  6
CONTINUOUS
 10
-1.043161
 20
-0.156260
  0
VERTEX
  8
PLAN_1
  6
CONTINUOUS
 10
-1.684528
 20
-0.156260
  0
SEQEND
  8
0
  0
POLYLINE
  8
PLAN_1
  6
CONTINUOUS
 66
     1
 40
0.008563
 41
0.008563
  0
VERTEX
  8
PLAN_1
  6
CONTINUOUS
 10
-1.773705
 20
-0.156260
  0
VERTEX
  8
PLAN_1
  6
CONTINUOUS
 10
-1.890087
 20
-0.156260
  0
VERTEX
  8
PLAN_1
  6
CONTINUOUS
 10
-1.890087
 20
-0.074134
  0
SEQEND
  8
0
  0
POLYLINE
  8
PLAN_1
  6
CONTINUOUS
 66
     1
 40
0.008563
 41
0.008563
  0
VERTEX
  8
PLAN_1
  6
CONTINUOUS
 10
-1.890087
 20
0.734000
  0
VERTEX
  8
PLAN_1
  6
CONTINUOUS
 10
-1.890087
 20
0.531965
  0
SEQEND
  8
0
  0
POLYLINE
  8
PLAN_1
  6
CONTINUOUS
 66
     1
 40
0.008563
 41
0.008563
  0
VERTEX
  8
PLAN_1
  6
CONTINUOUS
 10
-0.832563
 20
0.734000
  0
VERTEX
  8
PLAN_1
  6
CONTINUOUS
 10
-0.832563
 20
0.531965
  0
SEQEND
  8
0
  0
POLYLINE
  8
PLAN_1
  6
CONTINUOUS
 66
     1
 40
0.008563
 41
0.008563
  0
VERTEX
  8
PLAN_1
  6
CONTINUOUS
 10
-1.628098
 20
0.753146
  0
VERTEX
  8
PLAN_1
  6
CONTINUOUS
 10
-1.890087
 20
0.753146
  0
VERTEX
  8
PLAN_1
  6
CONTINUOUS
 10
-1.890087
 20
0.814610
  0
VERTEX
  8
PLAN_1
  6
CONTINUOUS
 10
-1.628098
 20
0.814610
  0
SEQEND
  8
0
  0
POLYLINE
  8
PLAN_1
  6
CONTINUOUS
 66
     1
 40
0.008563
 41
0.008563
  0
VERTEX
  8
PLAN_1
  6
CONTINUOUS
 10
-1.734406
 20
0.792441
  0
VERTEX
  8
PLAN_1
  6
CONTINUOUS
 10
-1.734406
 20
0.814610
  0
VERTEX
  8
PLAN_1
  6
CONTINUOUS
 10
-1.781264
 20
0.814610
  0
VERTEX
  8
PLAN_1
  6
CONTINUOUS
 10
-1.781264
 20
0.792441
  0
VERTEX
  8
PLAN_1
  6
CONTINUOUS
 10
-1.734406
 20
0.792441
  0
SEQEND
  8
0
  0
POLYLINE
  8
PLAN_1
  6
CONTINUOUS
 66
     1
 40
0.008563
 41
0.008563
  0
VERTEX
  8
PLAN_1
  6
CONTINUOUS
 10
-1.082961
 20
0.814610
  0
VERTEX
  8
PLAN_1
  6
CONTINUOUS
 10
-0.835079
 20
0.814610
  0
VERTEX
  8
PLAN_1
  6
CONTINUOUS
 10
-0.835079
 20
0.753146
  0
VERTEX
  8
PLAN_1
  6
CONTINUOUS
 10
-1.082961
 20
0.753146
  0
SEQEND
  8
0
  0
POLYLINE
  8
PLAN_1
  6
CONTINUOUS
 66
     1
 40
0.008563
 41
0.008563
  0
VERTEX
  8
PLAN_1
  6
CONTINUOUS
 10
-0.943402
 20
0.792441
  0
VERTEX
  8
PLAN_1
  6
CONTINUOUS
 10
-0.943402
 20
0.814610
  0
VERTEX
  8
PLAN_1
  6
CONTINUOUS
 10
-0.989756
 20
0.814610
  0
VERTEX
  8
PLAN_1
  6
CONTINUOUS
 10
-0.989756
 20
0.792441
  0
VERTEX
  8
PLAN_1
  6
CONTINUOUS
 10
-0.943402
 20
0.792441
  0
SEQEND
  8
0
  0
POLYLINE
  8
PLAN_1
  6
CONTINUOUS
 66
     1
 40
0.008563
 41
0.008563
  0
VERTEX
  8
PLAN_1
  6
CONTINUOUS
 10
-1.610969
 20
0.753146
  0
VERTEX
  8
PLAN_1
  6
CONTINUOUS
 10
-1.610969
 20
0.751130
  0
VERTEX
  8
PLAN_1
  6
CONTINUOUS
 10
-1.610465
 20
0.744579
  0
VERTEX
  8
PLAN_1
  6
CONTINUOUS
 10
-1.610465
 20
0.735512
  0
VERTEX
  8
PLAN_1
  6
CONTINUOUS
 10
-1.609961
 20
0.725433
  0
VERTEX
  8
PLAN_1
  6
CONTINUOUS
 10
-1.609457
 20
0.715358
  0
VERTEX
  8
PLAN_1
  6
CONTINUOUS
 10
-1.608953
 20
0.706791
  0
VERTEX
  8
PLAN_1
  6
CONTINUOUS
 10
-1.608449
 20
0.700748
  0
VERTEX
  8
PLAN_1
  6
CONTINUOUS
 10
-1.608449
 20
0.698732
  0
VERTEX
  8
PLAN_1
  6
CONTINUOUS
 10
-1.616008
 20
0.691677
  0
VERTEX
  8
PLAN_1
  6
CONTINUOUS
 10
-1.623063
 20
0.685126
  0
VERTEX
  8
PLAN_1
  6
CONTINUOUS
 10
-1.630114
 20
0.678075
  0
VERTEX
  8
PLAN_1
  6
CONTINUOUS
 10
-1.637169
 20
0.670516
  0
VERTEX
  8
PLAN_1
  6
CONTINUOUS
 10
-1.643717
 20
0.662961
  0
VERTEX
  8
PLAN_1
  6
CONTINUOUS
 10
-1.650268
 20
0.655402
  0
VERTEX
  8
PLAN_1
  6
CONTINUOUS
 10
-1.656819
 20
0.647846
  0
VERTEX
  8
PLAN_1
  6
CONTINUOUS
 10
-1.662862
 20
0.639783
  0
VERTEX
  8
PLAN_1
  6
CONTINUOUS
 10
-1.668909
 20
0.631724
  0
VERTEX
  8
PLAN_1
  6
CONTINUOUS
 10
-1.674453
 20
0.623157
  0
VERTEX
  8
PLAN_1
  6
CONTINUOUS
 10
-1.679992
 20
0.615094
  0
VERTEX
  8
PLAN_1
  6
CONTINUOUS
 10
-1.685031
 20
0.606531
  0
VERTEX
  8
PLAN_1
  6
CONTINUOUS
 10
-1.690071
 20
0.597461
  0
VERTEX
  8
PLAN_1
  6
CONTINUOUS
 10
-1.695106
 20
0.588898
  0
VERTEX
  8
PLAN_1
  6
CONTINUOUS
 10
-1.699642
 20
0.579827
  0
VERTEX
  8
PLAN_1
  6
CONTINUOUS
 10
-1.704177
 20
0.570760
  0
VERTEX
  8
PLAN_1
  6
CONTINUOUS
 10
-1.708209
 20
0.561189
  0
VERTEX
  8
PLAN_1
  6
CONTINUOUS
 10
-1.712236
 20
0.552118
  0
VERTEX
  8
PLAN_1
  6
CONTINUOUS
 10
-1.715764
 20
0.542547
  0
VERTEX
  8
PLAN_1
  6
CONTINUOUS
 10
-1.719291
 20
0.532972
  0
VERTEX
  8
PLAN_1
  6
CONTINUOUS
 10
-1.722315
 20
0.522898
  0
VERTEX
  8
PLAN_1
  6
CONTINUOUS
 10
-1.725339
 20
0.513323
  0
VERTEX
  8
PLAN_1
  6
CONTINUOUS
 10
-1.727858
 20
0.503248
  0
VERTEX
  8
PLAN_1
  6
CONTINUOUS
 10
-1.730374
 20
0.493169
  0
VERTEX
  8
PLAN_1
  6
CONTINUOUS
 10
-1.732390
 20
0.483094
  0
VERTEX
  8
PLAN_1
  6
CONTINUOUS
 10
-1.733902
 20
0.473020
  0
VERTEX
  8
PLAN_1
  6
CONTINUOUS
 10
-1.735413
 20
0.462437
  0
VERTEX
  8
PLAN_1
  6
CONTINUOUS
 10
-1.736925
 20
0.451858
  0
VERTEX
  8
PLAN_1
  6
CONTINUOUS
 10
-1.737933
 20
0.441276
  0
VERTEX
  8
PLAN_1
  6
CONTINUOUS
 10
-1.738941
 20
0.430697
  0
VERTEX
  8
PLAN_1
  6
CONTINUOUS
 10
-1.738941
 20
0.420118
  0
VERTEX
  8
PLAN_1
  6
CONTINUOUS
 10
-1.739445
 20
0.409535
  0
VERTEX
  8
PLAN_1
  6
CONTINUOUS
 10
-1.738941
 20
0.389382
  0
VERTEX
  8
PLAN_1
  6
CONTINUOUS
 10
-1.737429
 20
0.369732
  0
VERTEX
  8
PLAN_1
  6
CONTINUOUS
 10
-1.734909
 20
0.350591
  0
VERTEX
  8
PLAN_1
  6
CONTINUOUS
 10
-1.731382
 20
0.331949
  0
VERTEX
  8
PLAN_1
  6
CONTINUOUS
 10
-1.727354
 20
0.313307
  0
VERTEX
  8
PLAN_1
  6
CONTINUOUS
 10
-1.721811
 20
0.294665
  0
VERTEX
  8
PLAN_1
  6
CONTINUOUS
 10
-1.715764
 20
0.277031
  0
VERTEX
  8
PLAN_1
  6
CONTINUOUS
 10
-1.709217
 20
0.259398
  0
VERTEX
  8
PLAN_1
  6
CONTINUOUS
 10
-1.701154
 20
0.242268
  0
VERTEX
  8
PLAN_1
  6
CONTINUOUS
 10
-1.692591
 20
0.225642
  0
VERTEX
  8
PLAN_1
  6
CONTINUOUS
 10
-1.683520
 20
0.209520
  0
VERTEX
  8
PLAN_1
  6
CONTINUOUS
 10
-1.673445
 20
0.193898
  0
VERTEX
  8
PLAN_1
  6
CONTINUOUS
 10
-1.662862
 20
0.178783
  0
VERTEX
  8
PLAN_1
  6
CONTINUOUS
 10
-1.651276
 20
0.164173
  0
VERTEX
  8
PLAN_1
  6
CONTINUOUS
 10
-1.639185
 20
0.150571
  0
VERTEX
  8
PLAN_1
  6
CONTINUOUS
 10
-1.626587
 20
0.136969
  0
VERTEX
  8
PLAN_1
  6
CONTINUOUS
 10
-1.612984
 20
0.124370
  0
VERTEX
  8
PLAN_1
  6
CONTINUOUS
 10
-1.598878
 20
0.112280
  0
VERTEX
  8
PLAN_1
  6
CONTINUOUS
 10
-1.584772
 20
0.100693
  0
VERTEX
  8
PLAN_1
  6
CONTINUOUS
 10
-1.569657
 20
0.090110
  0
VERTEX
  8
PLAN_1
  6
CONTINUOUS
 10
-1.554039
 20
0.080035
  0
VERTEX
  8
PLAN_1
  6
CONTINUOUS
 10
-1.537913
 20
0.070465
  0
VERTEX
  8
PLAN_1
  6
CONTINUOUS
 10
-1.521287
 20
0.062402
  0
VERTEX
  8
PLAN_1
  6
CONTINUOUS
 10
-1.504157
 20
0.054339
  0
VERTEX
  8
PLAN_1
  6
CONTINUOUS
 10
-1.486524
 20
0.047791
  0
VERTEX
  8
PLAN_1
  6
CONTINUOUS
 10
-1.468386
 20
0.041240
  0
VERTEX
  8
PLAN_1
  6
CONTINUOUS
 10
-1.450248
 20
0.036201
  0
VERTEX
  8
PLAN_1
  6
CONTINUOUS
 10
-1.431606
 20
0.032173
  0
VERTEX
  8
PLAN_1
  6
CONTINUOUS
 10
-1.412969
 20
0.028646
  0
VERTEX
  8
PLAN_1
  6
CONTINUOUS
 10
-1.393319
 20
0.026126
  0
VERTEX
  8
PLAN_1
  6
CONTINUOUS
 10
-1.373669
 20
0.024614
  0
VERTEX
  8
PLAN_1
  6
CONTINUOUS
 10
-1.354020
 20
0.024110
  0
VERTEX
  8
PLAN_1
  6
CONTINUOUS
 10
-1.334370
 20
0.024614
  0
VERTEX
  8
PLAN_1
  6
CONTINUOUS
 10
-1.314720
 20
0.026126
  0
VERTEX
  8
PLAN_1
  6
CONTINUOUS
 10
-1.295575
 20
0.028646
  0
VERTEX
  8
PLAN_1
  6
CONTINUOUS
 10
-1.276429
 20
0.032173
  0
VERTEX
  8
PLAN_1
  6
CONTINUOUS
 10
-1.257787
 20
0.036201
  0
VERTEX
  8
PLAN_1
  6
CONTINUOUS
 10
-1.239650
 20
0.041240
  0
VERTEX
  8
PLAN_1
  6
CONTINUOUS
 10
-1.221512
 20
0.047791
  0
VERTEX
  8
PLAN_1
  6
CONTINUOUS
 10
-1.204382
 20
0.054339
  0
VERTEX
  8
PLAN_1
  6
CONTINUOUS
 10
-1.187252
 20
0.062402
  0
VERTEX
  8
PLAN_1
  6
CONTINUOUS
 10
-1.170626
 20
0.070465
  0
VERTEX
  8
PLAN_1
  6
CONTINUOUS
 10
-1.154504
 20
0.080035
  0
VERTEX
  8
PLAN_1
  6
CONTINUOUS
 10
-1.138886
 20
0.090110
  0
VERTEX
  8
PLAN_1
  6
CONTINUOUS
 10
-1.123772
 20
0.100693
  0
VERTEX
  8
PLAN_1
  6
CONTINUOUS
 10
-1.109161
 20
0.112280
  0
VERTEX
  8
PLAN_1
  6
CONTINUOUS
 10
-1.095055
 20
0.124370
  0
VERTEX
  8
PLAN_1
  6
CONTINUOUS
 10
-1.081953
 20
0.136969
  0
VERTEX
  8
PLAN_1
  6
CONTINUOUS
 10
-1.068854
 20
0.150571
  0
VERTEX
  8
PLAN_1
  6
CONTINUOUS
 10
-1.056764
 20
0.164173
  0
VERTEX
  8
PLAN_1
  6
CONTINUOUS
 10
-1.045177
 20
0.178783
  0
VERTEX
  8
PLAN_1
  6
CONTINUOUS
 10
-1.034594
 20
0.193898
  0
VERTEX
  8
PLAN_1
  6
CONTINUOUS
 10
-1.024520
 20
0.209520
  0
VERTEX
  8
PLAN_1
  6
CONTINUOUS
 10
-1.015449
 20
0.225642
  0
VERTEX
  8
PLAN_1
  6
CONTINUOUS
 10
-1.006886
 20
0.242268
  0
VERTEX
  8
PLAN_1
  6
CONTINUOUS
 10
-0.999327
 20
0.259398
  0
VERTEX
  8
PLAN_1
  6
CONTINUOUS
 10
-0.992276
 20
0.277031
  0
VERTEX
  8
PLAN_1
  6
CONTINUOUS
 10
-0.986228
 20
0.294665
  0
VERTEX
  8
PLAN_1
  6
CONTINUOUS
 10
-0.981189
 20
0.313307
  0
VERTEX
  8
PLAN_1
  6
CONTINUOUS
 10
-0.976654
 20
0.331949
  0
VERTEX
  8
PLAN_1
  6
CONTINUOUS
 10
-0.973130
 20
0.350591
  0
VERTEX
  8
PLAN_1
  6
CONTINUOUS
 10
-0.971114
 20
0.369732
  0
VERTEX
  8
PLAN_1
  6
CONTINUOUS
 10
-0.969602
 20
0.389382
  0
VERTEX
  8
PLAN_1
  6
CONTINUOUS
 10
-0.969098
 20
0.409535
  0
VERTEX
  8
PLAN_1
  6
CONTINUOUS
 10
-0.969098
 20
0.420118
  0
VERTEX
  8
PLAN_1
  6
CONTINUOUS
 10
-0.969602
 20
0.430697
  0
VERTEX
  8
PLAN_1
  6
CONTINUOUS
 10
-0.970106
 20
0.441276
  0
VERTEX
  8
PLAN_1
  6
CONTINUOUS
 10
-0.971114
 20
0.451858
  0
VERTEX
  8
PLAN_1
  6
CONTINUOUS
 10
-0.972626
 20
0.462437
  0
VERTEX
  8
PLAN_1
  6
CONTINUOUS
 10
-0.974138
 20
0.473020
  0
VERTEX
  8
PLAN_1
  6
CONTINUOUS
 10
-0.976150
 20
0.483094
  0
VERTEX
  8
PLAN_1
  6
CONTINUOUS
 10
-0.978165
 20
0.493169
  0
VERTEX
  8
PLAN_1
  6
CONTINUOUS
 10
-0.980181
 20
0.503248
  0
VERTEX
  8
PLAN_1
  6
CONTINUOUS
 10
-0.983205
 20
0.513323
  0
VERTEX
  8
PLAN_1
  6
CONTINUOUS
 10
-0.985724
 20
0.522898
  0
VERTEX
  8
PLAN_1
  6
CONTINUOUS
 10
-0.989252
 20
0.532972
  0
VERTEX
  8
PLAN_1
  6
CONTINUOUS
 10
-0.992776
 20
0.542547
  0
VERTEX
  8
PLAN_1
  6
CONTINUOUS
 10
-0.996303
 20
0.552118
  0
VERTEX
  8
PLAN_1
  6
CONTINUOUS
 10
-0.999831
 20
0.561189
  0
VERTEX
  8
PLAN_1
  6
CONTINUOUS
 10
-1.004366
 20
0.570760
  0
VERTEX
  8
PLAN_1
  6
CONTINUOUS
 10
-1.008398
 20
0.579827
  0
VERTEX
  8
PLAN_1
  6
CONTINUOUS
 10
-1.012929
 20
0.588898
  0
VERTEX
  8
PLAN_1
  6
CONTINUOUS
 10
-1.017969
 20
0.597461
  0
VERTEX
  8
PLAN_1
  6
CONTINUOUS
 10
-1.023008
 20
0.606531
  0
VERTEX
  8
PLAN_1
  6
CONTINUOUS
 10
-1.028547
 20
0.615094
  0
VERTEX
  8
PLAN_1
  6
CONTINUOUS
 10
-1.033587
 20
0.623157
  0
VERTEX
  8
PLAN_1
  6
CONTINUOUS
 10
-1.039634
 20
0.631724
  0
VERTEX
  8
PLAN_1
  6
CONTINUOUS
 10
-1.045177
 20
0.639783
  0
VERTEX
  8
PLAN_1
  6
CONTINUOUS
 10
-1.051724
 20
0.647846
  0
VERTEX
  8
PLAN_1
  6
CONTINUOUS
 10
-1.057772
 20
0.655402
  0
VERTEX
  8
PLAN_1
  6
CONTINUOUS
 10
-1.064319
 20
0.662961
  0
VERTEX
  8
PLAN_1
  6
CONTINUOUS
 10
-1.070870
 20
0.670516
  0
VERTEX
  8
PLAN_1
  6
CONTINUOUS
 10
-1.077925
 20
0.678075
  0
VERTEX
  8
PLAN_1
  6
CONTINUOUS
 10
-1.084976
 20
0.685126
  0
VERTEX
  8
PLAN_1
  6
CONTINUOUS
 10
-1.092031
 20
0.691677
  0
VERTEX
  8
PLAN_1
  6
CONTINUOUS
 10
-1.099587
 20
0.698732
  0
SEQEND
  8
0
  0
POLYLINE
  8
PLAN_1
  6
CONTINUOUS
 66
     1
 40
0.008563
 41
0.008563
  0
VERTEX
  8
PLAN_1
  6
CONTINUOUS
 10
-1.099587
 20
0.698732
  0
VERTEX
  8
PLAN_1
  6
CONTINUOUS
 10
-1.100091
 20
0.753146
  0
VERTEX
  8
PLAN_1
  6
CONTINUOUS
 10
-1.610969
 20
0.753146
  0
SEQEND
  8
0
  0
POLYLINE
  8
PLAN_1
  6
CONTINUOUS
 66
     1
 40
0.008563
 41
0.008563
  0
VERTEX
  8
PLAN_1
  6
CONTINUOUS
 10
-1.388783
 20
0.677571
  0
VERTEX
  8
PLAN_1
  6
CONTINUOUS
 10
-1.388783
 20
0.629709
  0
SEQEND
  8
0
  0
POLYLINE
  8
PLAN_1
  6
CONTINUOUS
 66
     1
 40
0.008563
 41
0.008563
  0
VERTEX
  8
PLAN_1
  6
CONTINUOUS
 10
-1.587795
 20
0.698732
  0
VERTEX
  8
PLAN_1
  6
CONTINUOUS
 10
-1.587291
 20
0.753146
  0
SEQEND
  8
0
  0
POLYLINE
  8
PLAN_1
  6
CONTINUOUS
 66
     1
 40
0.008563
 41
0.008563
  0
VERTEX
  8
PLAN_1
  6
CONTINUOUS
 10
-1.122260
 20
0.442283
  0
VERTEX
  8
PLAN_1
  6
CONTINUOUS
 10
-0.984717
 20
0.442283
  0
SEQEND
  8
0
  0
POLYLINE
  8
PLAN_1
  6
CONTINUOUS
 66
     1
 40
0.008563
 41
0.008563
  0
VERTEX
  8
PLAN_1
  6
CONTINUOUS
 10
-0.984717
 20
0.442283
  0
VERTEX
  8
PLAN_1
  6
CONTINUOUS
 10
-0.987236
 20
0.461429
  0
VERTEX
  8
PLAN_1
  6
CONTINUOUS
 10
-0.990260
 20
0.480575
  0
VERTEX
  8
PLAN_1
  6
CONTINUOUS
 10
-0.994287
 20
0.499217
  0
VERTEX
  8
PLAN_1
  6
CONTINUOUS
 10
-0.998823
 20
0.517354
  0
VERTEX
  8
PLAN_1
  6
CONTINUOUS
 10
-1.004870
 20
0.534988
  0
VERTEX
  8
PLAN_1
  6
CONTINUOUS
 10
-1.011417
 20
0.552622
  0
VERTEX
  8
PLAN_1
  6
CONTINUOUS
 10
-1.018976
 20
0.569752
  0
VERTEX
  8
PLAN_1
  6
CONTINUOUS
 10
-1.027543
 20
0.585874
  0
VERTEX
  8
PLAN_1
  6
CONTINUOUS
 10
-1.036610
 20
0.601996
  0
VERTEX
  8
PLAN_1
  6
CONTINUOUS
 10
-1.046685
 20
0.617614
  0
VERTEX
  8
PLAN_1
  6
CONTINUOUS
 10
-1.057268
 20
0.632728
  0
VERTEX
  8
PLAN_1
  6
CONTINUOUS
 10
-1.068350
 20
0.646839
  0
VERTEX
  8
PLAN_1
  6
CONTINUOUS
 10
-1.080441
 20
0.660945
  0
VERTEX
  8
PLAN_1
  6
CONTINUOUS
 10
-1.093039
 20
0.674043
  0
VERTEX
  8
PLAN_1
  6
CONTINUOUS
 10
-1.106642
 20
0.686638
  0
VERTEX
  8
PLAN_1
  6
CONTINUOUS
 10
-1.120244
 20
0.698732
  0
SEQEND
  8
0
  0
POLYLINE
  8
PLAN_1
  6
CONTINUOUS
 66
     1
 40
0.008563
 41
0.008563
  0
VERTEX
  8
PLAN_1
  6
CONTINUOUS
 10
-1.315728
 20
0.677067
  0
VERTEX
  8
PLAN_1
  6
CONTINUOUS
 10
-1.315728
 20
0.629709
  0
SEQEND
  8
0
  0
POLYLINE
  8
PLAN_1
  6
CONTINUOUS
 66
     1
 40
0.008563
 41
0.008563
  0
VERTEX
  8
PLAN_1
  6
CONTINUOUS
 10
-1.119236
 20
0.369228
  0
VERTEX
  8
PLAN_1
  6
CONTINUOUS
 10
-0.985724
 20
0.369228
  0
SEQEND
  8
0
  0
POLYLINE
  8
PLAN_1
  6
CONTINUOUS
 66
     1
 40
0.008563
 41
0.008563
  0
VERTEX
  8
PLAN_1
  6
CONTINUOUS
 10
-0.985724
 20
0.369228
  0
VERTEX
  8
PLAN_1
  6
CONTINUOUS
 10
-0.988244
 20
0.353610
  0
VERTEX
  8
PLAN_1
  6
CONTINUOUS
 10
-0.990764
 20
0.337488
  0
VERTEX
  8
PLAN_1
  6
CONTINUOUS
 10
-0.994287
 20
0.321870
  0
VERTEX
  8
PLAN_1
  6
CONTINUOUS
 10
-0.998319
 20
0.306756
  0
VERTEX
  8
PLAN_1
  6
CONTINUOUS
 10
-1.003358
 20
0.291642
  0
VERTEX
  8
PLAN_1
  6
CONTINUOUS
 10
-1.008902
 20
0.276528
  0
VERTEX
  8
PLAN_1
  6
CONTINUOUS
 10
-1.014945
 20
0.262421
  0
VERTEX
  8
PLAN_1
  6
CONTINUOUS
 10
-1.021496
 20
0.248311
  0
VERTEX
  8
PLAN_1
  6
CONTINUOUS
 10
-1.028547
 20
0.234205
  0
VERTEX
  8
PLAN_1
  6
CONTINUOUS
 10
-1.036106
 20
0.220602
  0
VERTEX
  8
PLAN_1
  6
CONTINUOUS
 10
-1.044673
 20
0.207504
  0
VERTEX
  8
PLAN_1
  6
CONTINUOUS
 10
-1.053236
 20
0.194906
  0
VERTEX
  8
PLAN_1
  6
CONTINUOUS
 10
-1.062307
 20
0.182311
  0
VERTEX
  8
PLAN_1
  6
CONTINUOUS
 10
-1.072382
 20
0.170724
  0
VERTEX
  8
PLAN_1
  6
CONTINUOUS
 10
-1.082457
 20
0.159134
  0
VERTEX
  8
PLAN_1
  6
CONTINUOUS
 10
-1.093039
 20
0.148051
  0
VERTEX
  8
PLAN_1
  6
CONTINUOUS
 10
-1.104626
 20
0.137472
  0
VERTEX
  8
PLAN_1
  6
CONTINUOUS
 10
-1.116213
 20
0.127394
  0
VERTEX
  8
PLAN_1
  6
CONTINUOUS
 10
-1.128307
 20
0.117319
  0
VERTEX
  8
PLAN_1
  6
CONTINUOUS
 10
-1.140398
 20
0.108248
  0
VERTEX
  8
PLAN_1
  6
CONTINUOUS
 10
-1.153496
 20
0.099685
  0
VERTEX
  8
PLAN_1
  6
CONTINUOUS
 10
-1.166598
 20
0.091622
  0
VERTEX
  8
PLAN_1
  6
CONTINUOUS
 10
-1.180201
 20
0.084067
  0
VERTEX
  8
PLAN_1
  6
CONTINUOUS
 10
-1.193803
 20
0.077012
  0
VERTEX
  8
PLAN_1
  6
CONTINUOUS
 10
-1.208413
 20
0.070465
  0
VERTEX
  8
PLAN_1
  6
CONTINUOUS
 10
-1.223024
 20
0.064417
  0
VERTEX
  8
PLAN_1
  6
CONTINUOUS
 10
-1.237638
 20
0.059378
  0
VERTEX
  8
PLAN_1
  6
CONTINUOUS
 10
-1.252752
 20
0.054843
  0
VERTEX
  8
PLAN_1
  6
CONTINUOUS
 10
-1.268370
 20
0.050815
  0
VERTEX
  8
PLAN_1
  6
CONTINUOUS
 10
-1.283988
 20
0.047287
  0
VERTEX
  8
PLAN_1
  6
CONTINUOUS
 10
-1.299606
 20
0.044768
  0
VERTEX
  8
PLAN_1
  6
CONTINUOUS
 10
-1.315728
 20
0.042752
  0
SEQEND
  8
0
  0
POLYLINE
  8
PLAN_1
  6
CONTINUOUS
 66
     1
 40
0.008563
 41
0.008563
  0
VERTEX
  8
PLAN_1
  6
CONTINUOUS
 10
-1.315728
 20
0.042752
  0
VERTEX
  8
PLAN_1
  6
CONTINUOUS
 10
-1.315728
 20
0.163165
  0
SEQEND
  8
0
  0
POLYLINE
  8
PLAN_1
  6
CONTINUOUS
 66
     1
 40
0.008563
 41
0.008563
  0
VERTEX
  8
PLAN_1
  6
CONTINUOUS
 10
-1.120244
 20
0.698732
  0
VERTEX
  8
PLAN_1
  6
CONTINUOUS
 10
-1.120748
 20
0.753146
  0
SEQEND
  8
0
  0
POLYLINE
  8
PLAN_1
  6
CONTINUOUS
 66
     1
 40
0.008563
 41
0.008563
  0
VERTEX
  8
PLAN_1
  6
CONTINUOUS
 10
-1.131835
 20
0.678075
  0
VERTEX
  8
PLAN_1
  6
CONTINUOUS
 10
-1.131835
 20
0.753146
  0
VERTEX
  8
PLAN_1
  6
CONTINUOUS
 10
-1.566634
 20
0.753146
  0
VERTEX
  8
PLAN_1
  6
CONTINUOUS
 10
-1.566634
 20
0.678075
  0
VERTEX
  8
PLAN_1
  6
CONTINUOUS
 10
-1.131835
 20
0.678075
  0
SEQEND
  8
0
  0
POLYLINE
  8
PLAN_1
  6
CONTINUOUS
 66
     1
 40
0.008563
 41
0.008563
  0
VERTEX
  8
PLAN_1
  6
CONTINUOUS
 10
-1.354020
 20
0.160142
  0
VERTEX
  8
PLAN_1
  6
CONTINUOUS
 10
-1.341425
 20
0.160646
  0
VERTEX
  8
PLAN_1
  6
CONTINUOUS
 10
-1.329835
 20
0.161654
  0
VERTEX
  8
PLAN_1
  6
CONTINUOUS
 10
-1.317744
 20
0.163165
  0
VERTEX
  8
PLAN_1
  6
CONTINUOUS
 10
-1.306157
 20
0.165181
  0
VERTEX
  8
PLAN_1
  6
CONTINUOUS
 10
-1.295071
 20
0.167701
  0
VERTEX
  8
PLAN_1
  6
CONTINUOUS
 10
-1.283484
 20
0.171228
  0
VERTEX
  8
PLAN_1
  6
CONTINUOUS
 10
-1.272906
 20
0.174756
  0
VERTEX
  8
PLAN_1
  6
CONTINUOUS
 10
-1.261819
 20
0.178783
  0
VERTEX
  8
PLAN_1
  6
CONTINUOUS
 10
-1.251240
 20
0.183823
  0
VERTEX
  8
PLAN_1
  6
CONTINUOUS
 10
-1.241161
 20
0.188862
  0
VERTEX
  8
PLAN_1
  6
CONTINUOUS
 10
-1.231591
 20
0.194402
  0
VERTEX
  8
PLAN_1
  6
CONTINUOUS
 10
-1.222016
 20
0.200449
  0
VERTEX
  8
PLAN_1
  6
CONTINUOUS
 10
-1.212445
 20
0.207504
  0
VERTEX
  8
PLAN_1
  6
CONTINUOUS
 10
-1.203878
 20
0.214051
  0
VERTEX
  8
PLAN_1
  6
CONTINUOUS
 10
-1.195315
 20
0.221610
  0
VERTEX
  8
PLAN_1
  6
CONTINUOUS
 10
-1.186748
 20
0.229669
  0
VERTEX
  8
PLAN_1
  6
CONTINUOUS
 10
-1.179193
 20
0.237732
  0
VERTEX
  8
PLAN_1
  6
CONTINUOUS
 10
-1.171634
 20
0.246295
  0
VERTEX
  8
PLAN_1
  6
CONTINUOUS
 10
-1.164583
 20
0.255366
  0
VERTEX
  8
PLAN_1
  6
CONTINUOUS
 10
-1.158031
 20
0.264433
  0
VERTEX
  8
PLAN_1
  6
CONTINUOUS
 10
-1.151984
 20
0.274008
  0
VERTEX
  8
PLAN_1
  6
CONTINUOUS
 10
-1.146445
 20
0.284083
  0
VERTEX
  8
PLAN_1
  6
CONTINUOUS
 10
-1.140902
 20
0.294161
  0
VERTEX
  8
PLAN_1
  6
CONTINUOUS
 10
-1.136366
 20
0.304740
  0
VERTEX
  8
PLAN_1
  6
CONTINUOUS
 10
-1.132339
 20
0.315323
  0
VERTEX
  8
PLAN_1
  6
CONTINUOUS
 10
-1.128307
 20
0.326406
  0
VERTEX
  8
PLAN_1
  6
CONTINUOUS
 10
-1.125283
 20
0.337488
  0
VERTEX
  8
PLAN_1
  6
CONTINUOUS
 10
-1.122764
 20
0.349079
  0
VERTEX
  8
PLAN_1
  6
CONTINUOUS
 10
-1.120244
 20
0.360665
  0
VERTEX
  8
PLAN_1
  6
CONTINUOUS
 10
-1.118732
 20
0.372252
  0
VERTEX
  8
PLAN_1
  6
CONTINUOUS
 10
-1.118228
 20
0.384346
  0
VERTEX
  8
PLAN_1
  6
CONTINUOUS
 10
-1.117724
 20
0.396437
  0
VERTEX
  8
PLAN_1
  6
CONTINUOUS
 10
-1.118228
 20
0.408528
  0
VERTEX
  8
PLAN_1
  6
CONTINUOUS
 10
-1.118732
 20
0.420622
  0
VERTEX
  8
PLAN_1
  6
CONTINUOUS
 10
-1.120244
 20
0.432209
  0
VERTEX
  8
PLAN_1
  6
CONTINUOUS
 10
-1.122764
 20
0.443795
  0
VERTEX
  8
PLAN_1
  6
CONTINUOUS
 10
-1.125283
 20
0.455386
  0
VERTEX
  8
PLAN_1
  6
CONTINUOUS
 10
-1.128307
 20
0.466469
  0
VERTEX
  8
PLAN_1
  6
CONTINUOUS
 10
-1.132339
 20
0.477551
  0
VERTEX
  8
PLAN_1
  6
CONTINUOUS
 10
-1.136366
 20
0.488134
  0
VERTEX
  8
PLAN_1
  6
CONTINUOUS
 10
-1.140902
 20
0.498713
  0
VERTEX
  8
PLAN_1
  6
CONTINUOUS
 10
-1.146445
 20
0.508791
  0
VERTEX
  8
PLAN_1
  6
CONTINUOUS
 10
-1.151984
 20
0.518866
  0
VERTEX
  8
PLAN_1
  6
CONTINUOUS
 10
-1.158031
 20
0.528437
  0
VERTEX
  8
PLAN_1
  6
CONTINUOUS
 10
-1.164583
 20
0.537508
  0
VERTEX
  8
PLAN_1
  6
CONTINUOUS
 10
-1.171634
 20
0.546575
  0
VERTEX
  8
PLAN_1
  6
CONTINUOUS
 10
-1.179193
 20
0.555142
  0
VERTEX
  8
PLAN_1
  6
CONTINUOUS
 10
-1.186748
 20
0.563201
  0
VERTEX
  8
PLAN_1
  6
CONTINUOUS
 10
-1.195315
 20
0.571264
  0
VERTEX
  8
PLAN_1
  6
CONTINUOUS
 10
-1.203878
 20
0.578823
  0
VERTEX
  8
PLAN_1
  6
CONTINUOUS
 10
-1.212445
 20
0.585370
  0
VERTEX
  8
PLAN_1
  6
CONTINUOUS
 10
-1.222016
 20
0.591921
  0
VERTEX
  8
PLAN_1
  6
CONTINUOUS
 10
-1.231591
 20
0.598469
  0
VERTEX
  8
PLAN_1
  6
CONTINUOUS
 10
-1.241161
 20
0.604012
  0
VERTEX
  8
PLAN_1
  6
CONTINUOUS
 10
-1.251240
 20
0.609051
  0
VERTEX
  8
PLAN_1
  6
CONTINUOUS
 10
-1.261819
 20
0.614091
  0
VERTEX
  8
PLAN_1
  6
CONTINUOUS
 10
-1.272906
 20
0.618118
  0
VERTEX
  8
PLAN_1
  6
CONTINUOUS
 10
-1.283484
 20
0.621646
  0
VERTEX
  8
PLAN_1
  6
CONTINUOUS
 10
-1.295071
 20
0.625173
  0
VERTEX
  8
PLAN_1
  6
CONTINUOUS
 10
-1.306157
 20
0.627693
  0
VERTEX
  8
PLAN_1
  6
CONTINUOUS
 10
-1.317744
 20
0.629709
  0
VERTEX
  8
PLAN_1
  6
CONTINUOUS
 10
-1.329835
 20
0.631220
  0
VERTEX
  8
PLAN_1
  6
CONTINUOUS
 10
-1.341425
 20
0.632228
  0
VERTEX
  8
PLAN_1
  6
CONTINUOUS
 10
-1.354020
 20
0.632728
  0
VERTEX
  8
PLAN_1
  6
CONTINUOUS
 10
-1.366110
 20
0.632228
  0
VERTEX
  8
PLAN_1
  6
CONTINUOUS
 10
-1.378205
 20
0.631220
  0
VERTEX
  8
PLAN_1
  6
CONTINUOUS
 10
-1.389791
 20
0.629709
  0
VERTEX
  8
PLAN_1
  6
CONTINUOUS
 10
-1.401378
 20
0.627693
  0
VERTEX
  8
PLAN_1
  6
CONTINUOUS
 10
-1.412969
 20
0.625173
  0
VERTEX
  8
PLAN_1
  6
CONTINUOUS
 10
-1.424051
 20
0.621646
  0
VERTEX
  8
PLAN_1
  6
CONTINUOUS
 10
-1.435134
 20
0.618118
  0
VERTEX
  8
PLAN_1
  6
CONTINUOUS
 10
-1.445717
 20
0.614091
  0
VERTEX
  8
PLAN_1
  6
CONTINUOUS
 10
-1.456295
 20
0.609051
  0
VERTEX
  8
PLAN_1
  6
CONTINUOUS
 10
-1.466370
 20
0.604012
  0
VERTEX
  8
PLAN_1
  6
CONTINUOUS
 10
-1.476449
 20
0.598469
  0
VERTEX
  8
PLAN_1
  6
CONTINUOUS
 10
-1.486020
 20
0.591921
  0
VERTEX
  8
PLAN_1
  6
CONTINUOUS
 10
-1.495091
 20
0.585370
  0
VERTEX
  8
PLAN_1
  6
CONTINUOUS
 10
-1.504157
 20
0.578823
  0
VERTEX
  8
PLAN_1
  6
CONTINUOUS
 10
-1.512724
 20
0.571264
  0
VERTEX
  8
PLAN_1
  6
CONTINUOUS
 10
-1.520783
 20
0.563201
  0
VERTEX
  8
PLAN_1
  6
CONTINUOUS
 10
-1.528343
 20
0.555142
  0
VERTEX
  8
PLAN_1
  6
CONTINUOUS
 10
-1.535902
 20
0.546575
  0
VERTEX
  8
PLAN_1
  6
CONTINUOUS
 10
-1.542953
 20
0.537508
  0
VERTEX
  8
PLAN_1
  6
CONTINUOUS
 10
-1.549504
 20
0.528437
  0
VERTEX
  8
PLAN_1
  6
CONTINUOUS
 10
-1.555547
 20
0.518866
  0
VERTEX
  8
PLAN_1
  6
CONTINUOUS
 10
-1.561594
 20
0.508791
  0
VERTEX
  8
PLAN_1
  6
CONTINUOUS
 10
-1.566634
 20
0.498713
  0
VERTEX
  8
PLAN_1
  6
CONTINUOUS
 10
-1.571169
 20
0.488134
  0
VERTEX
  8
PLAN_1
  6
CONTINUOUS
 10
-1.575701
 20
0.477551
  0
VERTEX
  8
PLAN_1
  6
CONTINUOUS
 10
-1.579228
 20
0.466469
  0
VERTEX
  8
PLAN_1
  6
CONTINUOUS
 10
-1.582252
 20
0.455386
  0
VERTEX
  8
PLAN_1
  6
CONTINUOUS
 10
-1.585276
 20
0.443795
  0
VERTEX
  8
PLAN_1
  6
CONTINUOUS
 10
-1.587291
 20
0.432209
  0
VERTEX
  8
PLAN_1
  6
CONTINUOUS
 10
-1.588803
 20
0.420622
  0
VERTEX
  8
PLAN_1
  6
CONTINUOUS
 10
-1.589807
 20
0.408528
  0
VERTEX
  8
PLAN_1
  6
CONTINUOUS
 10
-1.589807
 20
0.396437
  0
VERTEX
  8
PLAN_1
  6
CONTINUOUS
 10
-1.589807
 20
0.384346
  0
VERTEX
  8
PLAN_1
  6
CONTINUOUS
 10
-1.588803
 20
0.372252
  0
VERTEX
  8
PLAN_1
  6
CONTINUOUS
 10
-1.587291
 20
0.360665
  0
VERTEX
  8
PLAN_1
  6
CONTINUOUS
 10
-1.585276
 20
0.349079
  0
VERTEX
  8
PLAN_1
  6
CONTINUOUS
 10
-1.582252
 20
0.337488
  0
VERTEX
  8
PLAN_1
  6
CONTINUOUS
 10
-1.579228
 20
0.326406
  0
VERTEX
  8
PLAN_1
  6
CONTINUOUS
 10
-1.575701
 20
0.315323
  0
VERTEX
  8
PLAN_1
  6
CONTINUOUS
 10
-1.571169
 20
0.304740
  0
VERTEX
  8
PLAN_1
  6
CONTINUOUS
 10
-1.566634
 20
0.294161
  0
VERTEX
  8
PLAN_1
  6
CONTINUOUS
 10
-1.561594
 20
0.284083
  0
VERTEX
  8
PLAN_1
  6
CONTINUOUS
 10
-1.555547
 20
0.274008
  0
VERTEX
  8
PLAN_1
  6
CONTINUOUS
 10
-1.549504
 20
0.264433
  0
VERTEX
  8
PLAN_1
  6
CONTINUOUS
 10
-1.542953
 20
0.255366
  0
VERTEX
  8
PLAN_1
  6
CONTINUOUS
 10
-1.535902
 20
0.246295
  0
VERTEX
  8
PLAN_1
  6
CONTINUOUS
 10
-1.528343
 20
0.237732
  0
VERTEX
  8
PLAN_1
  6
CONTINUOUS
 10
-1.520783
 20
0.229669
  0
VERTEX
  8
PLAN_1
  6
CONTINUOUS
 10
-1.512724
 20
0.221610
  0
VERTEX
  8
PLAN_1
  6
CONTINUOUS
 10
-1.504157
 20
0.214051
  0
VERTEX
  8
PLAN_1
  6
CONTINUOUS
 10
-1.495091
 20
0.207504
  0
VERTEX
  8
PLAN_1
  6
CONTINUOUS
 10
-1.486020
 20
0.200449
  0
VERTEX
  8
PLAN_1
  6
CONTINUOUS
 10
-1.476449
 20
0.194402
  0
VERTEX
  8
PLAN_1
  6
CONTINUOUS
 10
-1.466370
 20
0.188862
  0
VERTEX
  8
PLAN_1
  6
CONTINUOUS
 10
-1.456295
 20
0.183823
  0
VERTEX
  8
PLAN_1
  6
CONTINUOUS
 10
-1.445717
 20
0.178783
  0
VERTEX
  8
PLAN_1
  6
CONTINUOUS
 10
-1.435134
 20
0.174756
  0
VERTEX
  8
PLAN_1
  6
CONTINUOUS
 10
-1.424051
 20
0.171228
  0
VERTEX
  8
PLAN_1
  6
CONTINUOUS
 10
-1.412969
 20
0.167701
  0
VERTEX
  8
PLAN_1
  6
CONTINUOUS
 10
-1.401378
 20
0.165181
  0
VERTEX
  8
PLAN_1
  6
CONTINUOUS
 10
-1.389791
 20
0.163165
  0
VERTEX
  8
PLAN_1
  6
CONTINUOUS
 10
-1.378205
 20
0.161654
  0
VERTEX
  8
PLAN_1
  6
CONTINUOUS
 10
-1.366110
 20
0.160646
  0
VERTEX
  8
PLAN_1
  6
CONTINUOUS
 10
-1.354020
 20
0.160142
  0
SEQEND
  8
0
  0
POLYLINE
  8
PLAN_1
  6
CONTINUOUS
 66
     1
 40
0.008563
 41
0.008563
  0
VERTEX
  8
PLAN_1
  6
CONTINUOUS
 10
-1.364598
 20
0.625677
  0
VERTEX
  8
PLAN_1
  6
CONTINUOUS
 10
-1.161559
 20
0.516346
  0
VERTEX
  8
PLAN_1
  6
CONTINUOUS
 10
-1.161559
 20
0.276024
  0
VERTEX
  8
PLAN_1
  6
CONTINUOUS
 10
-1.364598
 20
0.163669
  0
VERTEX
  8
PLAN_1
  6
CONTINUOUS
 10
-1.558067
 20
0.276024
  0
VERTEX
  8
PLAN_1
  6
CONTINUOUS
 10
-1.558067
 20
0.516346
  0
VERTEX
  8
PLAN_1
  6
CONTINUOUS
 10
-1.364598
 20
0.625677
  0
SEQEND
  8
0
  0
POLYLINE
  8
PLAN_1
  6
CONTINUOUS
 66
     1
 40
0.008563
 41
0.008563
  0
VERTEX
  8
PLAN_1
  6
CONTINUOUS
 10
-1.361071
 20
0.287610
  0
VERTEX
  8
PLAN_1
  6
CONTINUOUS
 10
-1.355531
 20
0.287610
  0
VERTEX
  8
PLAN_1
  6
CONTINUOUS
 10
-1.349988
 20
0.288114
  0
VERTEX
  8
PLAN_1
  6
CONTINUOUS
 10
-1.344445
 20
0.288618
  0
VERTEX
  8
PLAN_1
  6
CONTINUOUS
 10
-1.338906
 20
0.289626
  0
VERTEX
  8
PLAN_1
  6
CONTINUOUS
 10
-1.333866
 20
0.290634
  0
VERTEX
  8
PLAN_1
  6
CONTINUOUS
 10
-1.328827
 20
0.292146
  0
VERTEX
  8
PLAN_1
  6
CONTINUOUS
 10
-1.323791
 20
0.294161
  0
VERTEX
  8
PLAN_1
  6
CONTINUOUS
 10
-1.318752
 20
0.295673
  0
VERTEX
  8
PLAN_1
  6
CONTINUOUS
 10
-1.314217
 20
0.298193
  0
VERTEX
  8
PLAN_1
  6
CONTINUOUS
 10
-1.309177
 20
0.300205
  0
VERTEX
  8
PLAN_1
  6
CONTINUOUS
 10
-1.304646
 20
0.303228
  0
VERTEX
  8
PLAN_1
  6
CONTINUOUS
 10
-1.300614
 20
0.305748
  0
VERTEX
  8
PLAN_1
  6
CONTINUOUS
 10
-1.292047
 20
0.312299
  0
VERTEX
  8
PLAN_1
  6
CONTINUOUS
 10
-1.284492
 20
0.318846
  0
VERTEX
  8
PLAN_1
  6
CONTINUOUS
 10
-1.277437
 20
0.326909
  0
VERTEX
  8
PLAN_1
  6
CONTINUOUS
 10
-1.271394
 20
0.334969
  0
VERTEX
  8
PLAN_1
  6
CONTINUOUS
 10
-1.268370
 20
0.339504
  0
VERTEX
  8
PLAN_1
  6
CONTINUOUS
 10
-1.265850
 20
0.344039
  0
VERTEX
  8
PLAN_1
  6
CONTINUOUS
 10
-1.263331
 20
0.348575
  0
VERTEX
  8
PLAN_1
  6
CONTINUOUS
 10
-1.261315
 20
0.353610
  0
VERTEX
  8
PLAN_1
  6
CONTINUOUS
 10
-1.259299
 20
0.358146
  0
VERTEX
  8
PLAN_1
  6
CONTINUOUS
 10
-1.257787
 20
0.363185
  0
VERTEX
  8
PLAN_1
  6
CONTINUOUS
 10
-1.256276
 20
0.368728
  0
VERTEX
  8
PLAN_1
  6
CONTINUOUS
 10
-1.254768
 20
0.373764
  0
VERTEX
  8
PLAN_1
  6
CONTINUOUS
 10
-1.253760
 20
0.379307
  0
VERTEX
  8
PLAN_1
  6
CONTINUOUS
 10
-1.253256
 20
0.384346
  0
VERTEX
  8
PLAN_1
  6
CONTINUOUS
 10
-1.252752
 20
0.389886
  0
VERTEX
  8
PLAN_1
  6
CONTINUOUS
 10
-1.252752
 20
0.395429
  0
VERTEX
  8
PLAN_1
  6
CONTINUOUS
 10
-1.252752
 20
0.400972
  0
VERTEX
  8
PLAN_1
  6
CONTINUOUS
 10
-1.253256
 20
0.406512
  0
VERTEX
  8
PLAN_1
  6
CONTINUOUS
 10
-1.253760
 20
0.412055
  0
VERTEX
  8
PLAN_1
  6
CONTINUOUS
 10
-1.254768
 20
0.417598
  0
VERTEX
  8
PLAN_1
  6
CONTINUOUS
 10
-1.256276
 20
0.422634
  0
VERTEX
  8
PLAN_1
  6
CONTINUOUS
 10
-1.257787
 20
0.427673
  0
VERTEX
  8
PLAN_1
  6
CONTINUOUS
 10
-1.259299
 20
0.432713
  0
VERTEX
  8
PLAN_1
  6
CONTINUOUS
 10
-1.261315
 20
0.437752
  0
VERTEX
  8
PLAN_1
  6
CONTINUOUS
 10
-1.265850
 20
0.447323
  0
VERTEX
  8
PLAN_1
  6
CONTINUOUS
 10
-1.271394
 20
0.455890
  0
VERTEX
  8
PLAN_1
  6
CONTINUOUS
 10
-1.277437
 20
0.464453
  0
VERTEX
  8
PLAN_1
  6
CONTINUOUS
 10
-1.284492
 20
0.472012
  0
VERTEX
  8
PLAN_1
  6
CONTINUOUS
 10
-1.292047
 20
0.479063
  0
VERTEX
  8
PLAN_1
  6
CONTINUOUS
 10
-1.300614
 20
0.485110
  0
VERTEX
  8
PLAN_1
  6
CONTINUOUS
 10
-1.309177
 20
0.490654
  0
VERTEX
  8
PLAN_1
  6
CONTINUOUS
 10
-1.318752
 20
0.495185
  0
VERTEX
  8
PLAN_1
  6
CONTINUOUS
 10
-1.323791
 20
0.497201
  0
VERTEX
  8
PLAN_1
  6
CONTINUOUS
 10
-1.328827
 20
0.498713
  0
VERTEX
  8
PLAN_1
  6
CONTINUOUS
 10
-1.333866
 20
0.500224
  0
VERTEX
  8
PLAN_1
  6
CONTINUOUS
 10
-1.338906
 20
0.501736
  0
VERTEX
  8
PLAN_1
  6
CONTINUOUS
 10
-1.344445
 20
0.502744
  0
VERTEX
  8
PLAN_1
  6
CONTINUOUS
 10
-1.349988
 20
0.503248
  0
VERTEX
  8
PLAN_1
  6
CONTINUOUS
 10
-1.355531
 20
0.503752
  0
VERTEX
  8
PLAN_1
  6
CONTINUOUS
 10
-1.361071
 20
0.503752
  0
VERTEX
  8
PLAN_1
  6
CONTINUOUS
 10
-1.366614
 20
0.503752
  0
VERTEX
  8
PLAN_1
  6
CONTINUOUS
 10
-1.372157
 20
0.503248
  0
VERTEX
  8
PLAN_1
  6
CONTINUOUS
 10
-1.377197
 20
0.502744
  0
VERTEX
  8
PLAN_1
  6
CONTINUOUS
 10
-1.382736
 20
0.501736
  0
VERTEX
  8
PLAN_1
  6
CONTINUOUS
 10
-1.387776
 20
0.500224
  0
VERTEX
  8
PLAN_1
  6
CONTINUOUS
 10
-1.393319
 20
0.498713
  0
VERTEX
  8
PLAN_1
  6
CONTINUOUS
 10
-1.398354
 20
0.497201
  0
VERTEX
  8
PLAN_1
  6
CONTINUOUS
 10
-1.402890
 20
0.495185
  0
VERTEX
  8
PLAN_1
  6
CONTINUOUS
 10
-1.407929
 20
0.493169
  0
VERTEX
  8
PLAN_1
  6
CONTINUOUS
 10
-1.412465
 20
0.490654
  0
VERTEX
  8
PLAN_1
  6
CONTINUOUS
 10
-1.416996
 20
0.488134
  0
VERTEX
  8
PLAN_1
  6
CONTINUOUS
 10
-1.421531
 20
0.485110
  0
VERTEX
  8
PLAN_1
  6
CONTINUOUS
 10
-1.429594
 20
0.479063
  0
VERTEX
  8
PLAN_1
  6
CONTINUOUS
 10
-1.437654
 20
0.472012
  0
VERTEX
  8
PLAN_1
  6
CONTINUOUS
 10
-1.444205
 20
0.464453
  0
VERTEX
  8
PLAN_1
  6
CONTINUOUS
 10
-1.450752
 20
0.455890
  0
VERTEX
  8
PLAN_1
  6
CONTINUOUS
 10
-1.453272
 20
0.451858
  0
VERTEX
  8
PLAN_1
  6
CONTINUOUS
 10
-1.456295
 20
0.447323
  0
VERTEX
  8
PLAN_1
  6
CONTINUOUS
 10
-1.458311
 20
0.442283
  0
VERTEX
  8
PLAN_1
  6
CONTINUOUS
 10
-1.460831
 20
0.437752
  0
VERTEX
  8
PLAN_1
  6
CONTINUOUS
 10
-1.462343
 20
0.432713
  0
VERTEX
  8
PLAN_1
  6
CONTINUOUS
 10
-1.464358
 20
0.427673
  0
VERTEX
  8
PLAN_1
  6
CONTINUOUS
 10
-1.465870
 20
0.422634
  0
VERTEX
  8
PLAN_1
  6
CONTINUOUS
 10
-1.466874
 20
0.417598
  0
VERTEX
  8
PLAN_1
  6
CONTINUOUS
 10
-1.467882
 20
0.412055
  0
VERTEX
  8
PLAN_1
  6
CONTINUOUS
 10
-1.468386
 20
0.406512
  0
VERTEX
  8
PLAN_1
  6
CONTINUOUS
 10
-1.468890
 20
0.400972
  0
VERTEX
  8
PLAN_1
  6
CONTINUOUS
 10
-1.468890
 20
0.395429
  0
VERTEX
  8
PLAN_1
  6
CONTINUOUS
 10
-1.468890
 20
0.389886
  0
VERTEX
  8
PLAN_1
  6
CONTINUOUS
 10
-1.468386
 20
0.384346
  0
VERTEX
  8
PLAN_1
  6
CONTINUOUS
 10
-1.467882
 20
0.379307
  0
VERTEX
  8
PLAN_1
  6
CONTINUOUS
 10
-1.466874
 20
0.373764
  0
VERTEX
  8
PLAN_1
  6
CONTINUOUS
 10
-1.465870
 20
0.368728
  0
VERTEX
  8
PLAN_1
  6
CONTINUOUS
 10
-1.464358
 20
0.363185
  0
VERTEX
  8
PLAN_1
  6
CONTINUOUS
 10
-1.462343
 20
0.358146
  0
VERTEX
  8
PLAN_1
  6
CONTINUOUS
 10
-1.460831
 20
0.353610
  0
VERTEX
  8
PLAN_1
  6
CONTINUOUS
 10
-1.458311
 20
0.348575
  0
VERTEX
  8
PLAN_1
  6
CONTINUOUS
 10
-1.456295
 20
0.344039
  0
VERTEX
  8
PLAN_1
  6
CONTINUOUS
 10
-1.453272
 20
0.339504
  0
VERTEX
  8
PLAN_1
  6
CONTINUOUS
 10
-1.450752
 20
0.334969
  0
VERTEX
  8
PLAN_1
  6
CONTINUOUS
 10
-1.444205
 20
0.326909
  0
VERTEX
  8
PLAN_1
  6
CONTINUOUS
 10
-1.437654
 20
0.318846
  0
VERTEX
  8
PLAN_1
  6
CONTINUOUS
 10
-1.429594
 20
0.312299
  0
VERTEX
  8
PLAN_1
  6
CONTINUOUS
 10
-1.421531
 20
0.305748
  0
VERTEX
  8
PLAN_1
  6
CONTINUOUS
 10
-1.416996
 20
0.303228
  0
VERTEX
  8
PLAN_1
  6
CONTINUOUS
 10
-1.412465
 20
0.300205
  0
VERTEX
  8
PLAN_1
  6
CONTINUOUS
 10
-1.407929
 20
0.298193
  0
VERTEX
  8
PLAN_1
  6
CONTINUOUS
 10
-1.402890
 20
0.295673
  0
VERTEX
  8
PLAN_1
  6
CONTINUOUS
 10
-1.398354
 20
0.294161
  0
VERTEX
  8
PLAN_1
  6
CONTINUOUS
 10
-1.393319
 20
0.292146
  0
VERTEX
  8
PLAN_1
  6
CONTINUOUS
 10
-1.387776
 20
0.290634
  0
VERTEX
  8
PLAN_1
  6
CONTINUOUS
 10
-1.382736
 20
0.289626
  0
VERTEX
  8
PLAN_1
  6
CONTINUOUS
 10
-1.377197
 20
0.288618
  0
VERTEX
  8
PLAN_1
  6
CONTINUOUS
 10
-1.372157
 20
0.288114
  0
VERTEX
  8
PLAN_1
  6
CONTINUOUS
 10
-1.366614
 20
0.287610
  0
VERTEX
  8
PLAN_1
  6
CONTINUOUS
 10
-1.361071
 20
0.287610
  0
SEQEND
  8
0
  0
POLYLINE
  8
PLAN_1
  6
CONTINUOUS
 66
     1
 40
0.008563
 41
0.008563
  0
VERTEX
  8
PLAN_1
  6
CONTINUOUS
 10
-1.584772
 20
0.442283
  0
VERTEX
  8
PLAN_1
  6
CONTINUOUS
 10
-1.723323
 20
0.442283
  0
SEQEND
  8
0
  0
POLYLINE
  8
PLAN_1
  6
CONTINUOUS
 66
     1
 40
0.008563
 41
0.008563
  0
VERTEX
  8
PLAN_1
  6
CONTINUOUS
 10
-1.723323
 20
0.442283
  0
VERTEX
  8
PLAN_1
  6
CONTINUOUS
 10
-1.721307
 20
0.461429
  0
VERTEX
  8
PLAN_1
  6
CONTINUOUS
 10
-1.718283
 20
0.480575
  0
VERTEX
  8
PLAN_1
  6
CONTINUOUS
 10
-1.714252
 20
0.499217
  0
VERTEX
  8
PLAN_1
  6
CONTINUOUS
 10
-1.709217
 20
0.517354
  0
VERTEX
  8
PLAN_1
  6
CONTINUOUS
 10
-1.703169
 20
0.534988
  0
VERTEX
  8
PLAN_1
  6
CONTINUOUS
 10
-1.696618
 20
0.552622
  0
VERTEX
  8
PLAN_1
  6
CONTINUOUS
 10
-1.689063
 20
0.569752
  0
VERTEX
  8
PLAN_1
  6
CONTINUOUS
 10
-1.680496
 20
0.585874
  0
VERTEX
  8
PLAN_1
  6
CONTINUOUS
 10
-1.671429
 20
0.601996
  0
VERTEX
  8
PLAN_1
  6
CONTINUOUS
 10
-1.661854
 20
0.617614
  0
VERTEX
  8
PLAN_1
  6
CONTINUOUS
 10
-1.651276
 20
0.632728
  0
VERTEX
  8
PLAN_1
  6
CONTINUOUS
 10
-1.639689
 20
0.646839
  0
VERTEX
  8
PLAN_1
  6
CONTINUOUS
 10
-1.627594
 20
0.660945
  0
VERTEX
  8
PLAN_1
  6
CONTINUOUS
 10
-1.615000
 20
0.674043
  0
VERTEX
  8
PLAN_1
  6
CONTINUOUS
 10
-1.601902
 20
0.686638
  0
VERTEX
  8
PLAN_1
  6
CONTINUOUS
 10
-1.587795
 20
0.698732
  0
SEQEND
  8
0
  0
POLYLINE
  8
PLAN_1
  6
CONTINUOUS
 66
     1
 40
0.008563
 41
0.008563
  0
VERTEX
  8
PLAN_1
  6
CONTINUOUS
 10
-1.587291
 20
0.369228
  0
VERTEX
  8
PLAN_1
  6
CONTINUOUS
 10
-1.722315
 20
0.369732
  0
SEQEND
  8
0
  0
POLYLINE
  8
PLAN_1
  6
CONTINUOUS
 66
     1
 40
0.008563
 41
0.008563
  0
VERTEX
  8
PLAN_1
  6
CONTINUOUS
 10
-1.722315
 20
0.369732
  0
VERTEX
  8
PLAN_1
  6
CONTINUOUS
 10
-1.720299
 20
0.353106
  0
VERTEX
  8
PLAN_1
  6
CONTINUOUS
 10
-1.717276
 20
0.337488
  0
VERTEX
  8
PLAN_1
  6
CONTINUOUS
 10
-1.713748
 20
0.321870
  0
VERTEX
  8
PLAN_1
  6
CONTINUOUS
 10
-1.709720
 20
0.306252
  0
VERTEX
  8
PLAN_1
  6
CONTINUOUS
 10
-1.704681
 20
0.291138
  0
VERTEX
  8
PLAN_1
  6
CONTINUOUS
 10
-1.699138
 20
0.276024
  0
VERTEX
  8
PLAN_1
  6
CONTINUOUS
 10
-1.693094
 20
0.261413
  0
VERTEX
  8
PLAN_1
  6
CONTINUOUS
 10
-1.686543
 20
0.247303
  0
VERTEX
  8
PLAN_1
  6
CONTINUOUS
 10
-1.679488
 20
0.233701
  0
VERTEX
  8
PLAN_1
  6
CONTINUOUS
 10
-1.671429
 20
0.220098
  0
VERTEX
  8
PLAN_1
  6
CONTINUOUS
 10
-1.663366
 20
0.206496
  0
VERTEX
  8
PLAN_1
  6
CONTINUOUS
 10
-1.654299
 20
0.193898
  0
VERTEX
  8
PLAN_1
  6
CONTINUOUS
 10
-1.644724
 20
0.181303
  0
VERTEX
  8
PLAN_1
  6
CONTINUOUS
 10
-1.635154
 20
0.169717
  0
VERTEX
  8
PLAN_1
  6
CONTINUOUS
 10
-1.624571
 20
0.158130
  0
VERTEX
  8
PLAN_1
  6
CONTINUOUS
 10
-1.613488
 20
0.147043
  0
VERTEX
  8
PLAN_1
  6
CONTINUOUS
 10
-1.602406
 20
0.135961
  0
VERTEX
  8
PLAN_1
  6
CONTINUOUS
 10
-1.590815
 20
0.125882
  0
VERTEX
  8
PLAN_1
  6
CONTINUOUS
 10
-1.578724
 20
0.116311
  0
VERTEX
  8
PLAN_1
  6
CONTINUOUS
 10
-1.566130
 20
0.107240
  0
VERTEX
  8
PLAN_1
  6
CONTINUOUS
 10
-1.553031
 20
0.098677
  0
VERTEX
  8
PLAN_1
  6
CONTINUOUS
 10
-1.539425
 20
0.090110
  0
VERTEX
  8
PLAN_1
  6
CONTINUOUS
 10
-1.525823
 20
0.082555
  0
VERTEX
  8
PLAN_1
  6
CONTINUOUS
 10
-1.511717
 20
0.076004
  0
VERTEX
  8
PLAN_1
  6
CONTINUOUS
 10
-1.497610
 20
0.069457
  0
VERTEX
  8
PLAN_1
  6
CONTINUOUS
 10
-1.482496
 20
0.063409
  0
VERTEX
  8
PLAN_1
  6
CONTINUOUS
 10
-1.467882
 20
0.058370
  0
VERTEX
  8
PLAN_1
  6
CONTINUOUS
 10
-1.452264
 20
0.053835
  0
VERTEX
  8
PLAN_1
  6
CONTINUOUS
 10
-1.437150
 20
0.049807
  0
VERTEX
  8
PLAN_1
  6
CONTINUOUS
 10
-1.421028
 20
0.046783
  0
VERTEX
  8
PLAN_1
  6
CONTINUOUS
 10
-1.404906
 20
0.044264
  0
VERTEX
  8
PLAN_1
  6
CONTINUOUS
 10
-1.388783
 20
0.042248
  0
SEQEND
  8
0
  0
POLYLINE
  8
PLAN_1
  6
CONTINUOUS
 66
     1
 40
0.008563
 41
0.008563
  0
VERTEX
  8
PLAN_1
  6
CONTINUOUS
 10
-1.388783
 20
0.042248
  0
VERTEX
  8
PLAN_1
  6
CONTINUOUS
 10
-1.388783
 20
0.163165
  0
SEQEND
  8
0
  0
POLYLINE
  8
PLAN_1
  6
CONTINUOUS
 66
     1
 40
0.008563
 41
0.008563
  0
VERTEX
  8
PLAN_1
  6
CONTINUOUS
 10
-1.080945
 20
0.839803
  0
VERTEX
  8
PLAN_1
  6
CONTINUOUS
 10
-1.080945
 20
0.753146
  0
VERTEX
  8
PLAN_1
  6
CONTINUOUS
 10
-1.627091
 20
0.753146
  0
VERTEX
  8
PLAN_1
  6
CONTINUOUS
 10
-1.627091
 20
0.839803
  0
VERTEX
  8
PLAN_1
  6
CONTINUOUS
 10
-1.080945
 20
0.839803
  0
SEQEND
  8
0
  0
POLYLINE
  8
PLAN_1
  6
CONTINUOUS
 66
     1
 40
0.007051
 41
0.007051
  0
VERTEX
  8
PLAN_1
  6
CONTINUOUS
 10
-1.207909
 20
1.444390
  0
VERTEX
  8
PLAN_1
  6
CONTINUOUS
 10
-1.202874
 20
1.448925
  0
VERTEX
  8
PLAN_1
  6
CONTINUOUS
 10
-1.199346
 20
1.453461
  0
VERTEX
  8
PLAN_1
  6
CONTINUOUS
 10
-1.196827
 20
1.457488
  0
VERTEX
  8
PLAN_1
  6
CONTINUOUS
 10
-1.195315
 20
1.462024
  0
VERTEX
  8
PLAN_1
  6
CONTINUOUS
 10
-1.194811
 20
1.466055
  0
VERTEX
  8
PLAN_1
  6
CONTINUOUS
 10
-1.194811
 20
1.470087
  0
VERTEX
  8
PLAN_1
  6
CONTINUOUS
 10
-1.195315
 20
1.473614
  0
VERTEX
  8
PLAN_1
  6
CONTINUOUS
 10
-1.196827
 20
1.477138
  0
VERTEX
  8
PLAN_1
  6
CONTINUOUS
 10
-1.198339
 20
1.480161
  0
VERTEX
  8
PLAN_1
  6
CONTINUOUS
 10
-1.199850
 20
1.482681
  0
VERTEX
  8
PLAN_1
  6
CONTINUOUS
 10
-1.201866
 20
1.485201
  0
VERTEX
  8
PLAN_1
  6
CONTINUOUS
 10
-1.203878
 20
1.487217
  0
VERTEX
  8
PLAN_1
  6
CONTINUOUS
 10
-1.206398
 20
1.490240
  0
VERTEX
  8
PLAN_1
  6
CONTINUOUS
 10
-1.207909
 20
1.491248
  0
SEQEND
  8
0
  0
POLYLINE
  8
PLAN_1
  6
CONTINUOUS
 66
     1
 40
0.007051
 41
0.007051
  0
VERTEX
  8
PLAN_1
  6
CONTINUOUS
 10
-1.207909
 20
1.491248
  0
VERTEX
  8
PLAN_1
  6
CONTINUOUS
 10
-1.495594
 20
1.491248
  0
SEQEND
  8
0
  0
POLYLINE
  8
PLAN_1
  6
CONTINUOUS
 66
     1
 40
0.007051
 41
0.007051
  0
VERTEX
  8
PLAN_1
  6
CONTINUOUS
 10
-1.495594
 20
1.491248
  0
VERTEX
  8
PLAN_1
  6
CONTINUOUS
 10
-1.497106
 20
1.490240
  0
VERTEX
  8
PLAN_1
  6
CONTINUOUS
 10
-1.499626
 20
1.487720
  0
VERTEX
  8
PLAN_1
  6
CONTINUOUS
 10
-1.502646
 20
1.483185
  0
VERTEX
  8
PLAN_1
  6
CONTINUOUS
 10
-1.505669
 20
1.477642
  0
VERTEX
  8
PLAN_1
  6
CONTINUOUS
 10
-1.506677
 20
1.474118
  0
VERTEX
  8
PLAN_1
  6
CONTINUOUS
 10
-1.507181
 20
1.470591
  0
VERTEX
  8
PLAN_1
  6
CONTINUOUS
 10
-1.507181
 20
1.466559
  0
VERTEX
  8
PLAN_1
  6
CONTINUOUS
 10
-1.506677
 20
1.462528
  0
VERTEX
  8
PLAN_1
  6
CONTINUOUS
 10
-1.505669
 20
1.458496
  0
VERTEX
  8
PLAN_1
  6
CONTINUOUS
 10
-1.503150
 20
1.453965
  0
VERTEX
  8
PLAN_1
  6
CONTINUOUS
 10
-1.500130
 20
1.449429
  0
VERTEX
  8
PLAN_1
  6
CONTINUOUS
 10
-1.495594
 20
1.444390
  0
SEQEND
  8
0
  0
POLYLINE
  8
PLAN_1
  6
CONTINUOUS
 66
     1
 40
0.007051
 41
0.007051
  0
VERTEX
  8
PLAN_1
  6
CONTINUOUS
 10
-1.495594
 20
1.444390
  0
VERTEX
  8
PLAN_1
  6
CONTINUOUS
 10
-1.207909
 20
1.444390
  0
SEQEND
  8
0
  0
POLYLINE
  8
PLAN_1
  6
CONTINUOUS
 66
     1
 40
0.007051
 41
0.007051
  0
VERTEX
  8
PLAN_1
  6
CONTINUOUS
 10
-1.207406
 20
1.398039
  0
VERTEX
  8
PLAN_1
  6
CONTINUOUS
 10
-1.202370
 20
1.402575
  0
VERTEX
  8
PLAN_1
  6
CONTINUOUS
 10
-1.198843
 20
1.407106
  0
VERTEX
  8
PLAN_1
  6
CONTINUOUS
 10
-1.196323
 20
1.411138
  0
VERTEX
  8
PLAN_1
  6
CONTINUOUS
 10
-1.194811
 20
1.415673
  0
VERTEX
  8
PLAN_1
  6
CONTINUOUS
 10
-1.194307
 20
1.419705
  0
VERTEX
  8
PLAN_1
  6
CONTINUOUS
 10
-1.194307
 20
1.423228
  0
VERTEX
  8
PLAN_1
  6
CONTINUOUS
 10
-1.195315
 20
1.427260
  0
VERTEX
  8
PLAN_1
  6
CONTINUOUS
 10
-1.196323
 20
1.430283
  0
VERTEX
  8
PLAN_1
  6
CONTINUOUS
 10
-1.197835
 20
1.433811
  0
VERTEX
  8
PLAN_1
  6
CONTINUOUS
 10
-1.199850
 20
1.436331
  0
VERTEX
  8
PLAN_1
  6
CONTINUOUS
 10
-1.201362
 20
1.438850
  0
VERTEX
  8
PLAN_1
  6
CONTINUOUS
 10
-1.203374
 20
1.440862
  0
VERTEX
  8
PLAN_1
  6
CONTINUOUS
 10
-1.206398
 20
1.443886
  0
VERTEX
  8
PLAN_1
  6
CONTINUOUS
 10
-1.207406
 20
1.444894
  0
SEQEND
  8
0
  0
POLYLINE
  8
PLAN_1
  6
CONTINUOUS
 66
     1
 40
0.007051
 41
0.007051
  0
VERTEX
  8
PLAN_1
  6
CONTINUOUS
 10
-1.207406
 20
1.444894
  0
VERTEX
  8
PLAN_1
  6
CONTINUOUS
 10
-1.495594
 20
1.444894
  0
SEQEND
  8
0
  0
POLYLINE
  8
PLAN_1
  6
CONTINUOUS
 66
     1
 40
0.007051
 41
0.007051
  0
VERTEX
  8
PLAN_1
  6
CONTINUOUS
 10
-1.495594
 20
1.444894
  0
VERTEX
  8
PLAN_1
  6
CONTINUOUS
 10
-1.496602
 20
1.443886
  0
VERTEX
  8
PLAN_1
  6
CONTINUOUS
 10
-1.499122
 20
1.441366
  0
VERTEX
  8
PLAN_1
  6
CONTINUOUS
 10
-1.502142
 20
1.436835
  0
VERTEX
  8
PLAN_1
  6
CONTINUOUS
 10
-1.505165
 20
1.431291
  0
VERTEX
  8
PLAN_1
  6
CONTINUOUS
 10
-1.506173
 20
1.427764
  0
VERTEX
  8
PLAN_1
  6
CONTINUOUS
 10
-1.506677
 20
1.424236
  0
VERTEX
  8
PLAN_1
  6
CONTINUOUS
 10
-1.506677
 20
1.420209
  0
VERTEX
  8
PLAN_1
  6
CONTINUOUS
 10
-1.506173
 20
1.416177
  0
VERTEX
  8
PLAN_1
  6
CONTINUOUS
 10
-1.505165
 20
1.412146
  0
VERTEX
  8
PLAN_1
  6
CONTINUOUS
 10
-1.502646
 20
1.407610
  0
VERTEX
  8
PLAN_1
  6
CONTINUOUS
 10
-1.499626
 20
1.402575
  0
VERTEX
  8
PLAN_1
  6
CONTINUOUS
 10
-1.495594
 20
1.398039
  0
SEQEND
  8
0
  0
POLYLINE
  8
PLAN_1
  6
CONTINUOUS
 66
     1
 40
0.007051
 41
0.007051
  0
VERTEX
  8
PLAN_1
  6
CONTINUOUS
 10
-1.495594
 20
1.398039
  0
VERTEX
  8
PLAN_1
  6
CONTINUOUS
 10
-1.207406
 20
1.398039
  0
SEQEND
  8
0
  0
POLYLINE
  8
PLAN_1
  6
CONTINUOUS
 66
     1
 40
0.007051
 41
0.007051
  0
VERTEX
  8
PLAN_1
  6
CONTINUOUS
 10
-1.207406
 20
1.350681
  0
VERTEX
  8
PLAN_1
  6
CONTINUOUS
 10
-1.202874
 20
1.355213
  0
VERTEX
  8
PLAN_1
  6
CONTINUOUS
 10
-1.199346
 20
1.359748
  0
VERTEX
  8
PLAN_1
  6
CONTINUOUS
 10
-1.196827
 20
1.364283
  0
VERTEX
  8
PLAN_1
  6
CONTINUOUS
 10
-1.195315
 20
1.368315
  0
VERTEX
  8
PLAN_1
  6
CONTINUOUS
 10
-1.194307
 20
1.372343
  0
VERTEX
  8
PLAN_1
  6
CONTINUOUS
 10
-1.194811
 20
1.376374
  0
VERTEX
  8
PLAN_1
  6
CONTINUOUS
 10
-1.195315
 20
1.379902
  0
VERTEX
  8
PLAN_1
  6
CONTINUOUS
 10
-1.196323
 20
1.383429
  0
VERTEX
  8
PLAN_1
  6
CONTINUOUS
 10
-1.197835
 20
1.386453
  0
VERTEX
  8
PLAN_1
  6
CONTINUOUS
 10
-1.199850
 20
1.389472
  0
VERTEX
  8
PLAN_1
  6
CONTINUOUS
 10
-1.201866
 20
1.391992
  0
VERTEX
  8
PLAN_1
  6
CONTINUOUS
 10
-1.203374
 20
1.394008
  0
VERTEX
  8
PLAN_1
  6
CONTINUOUS
 10
-1.206398
 20
1.396528
  0
VERTEX
  8
PLAN_1
  6
CONTINUOUS
 10
-1.207406
 20
1.397535
  0
SEQEND
  8
0
  0
POLYLINE
  8
PLAN_1
  6
CONTINUOUS
 66
     1
 40
0.007051
 41
0.007051
  0
VERTEX
  8
PLAN_1
  6
CONTINUOUS
 10
-1.207406
 20
1.397535
  0
VERTEX
  8
PLAN_1
  6
CONTINUOUS
 10
-1.495594
 20
1.397535
  0
SEQEND
  8
0
  0
POLYLINE
  8
PLAN_1
  6
CONTINUOUS
 66
     1
 40
0.007051
 41
0.007051
  0
VERTEX
  8
PLAN_1
  6
CONTINUOUS
 10
-1.495594
 20
1.397535
  0
VERTEX
  8
PLAN_1
  6
CONTINUOUS
 10
-1.496602
 20
1.397031
  0
VERTEX
  8
PLAN_1
  6
CONTINUOUS
 10
-1.499122
 20
1.394008
  0
VERTEX
  8
PLAN_1
  6
CONTINUOUS
 10
-1.502646
 20
1.389976
  0
VERTEX
  8
PLAN_1
  6
CONTINUOUS
 10
-1.505165
 20
1.383933
  0
VERTEX
  8
PLAN_1
  6
CONTINUOUS
 10
-1.506173
 20
1.380909
  0
VERTEX
  8
PLAN_1
  6
CONTINUOUS
 10
-1.507181
 20
1.377382
  0
VERTEX
  8
PLAN_1
  6
CONTINUOUS
 10
-1.507181
 20
1.373350
  0
VERTEX
  8
PLAN_1
  6
CONTINUOUS
 10
-1.506677
 20
1.369319
  0
VERTEX
  8
PLAN_1
  6
CONTINUOUS
 10
-1.505165
 20
1.364787
  0
VERTEX
  8
PLAN_1
  6
CONTINUOUS
 10
-1.503150
 20
1.360252
  0
VERTEX
  8
PLAN_1
  6
CONTINUOUS
 10
-1.499626
 20
1.355717
  0
VERTEX
  8
PLAN_1
  6
CONTINUOUS
 10
-1.495594
 20
1.350681
  0
SEQEND
  8
0
  0
POLYLINE
  8
PLAN_1
  6
CONTINUOUS
 66
     1
 40
0.007051
 41
0.007051
  0
VERTEX
  8
PLAN_1
  6
CONTINUOUS
 10
-1.495594
 20
1.350681
  0
VERTEX
  8
PLAN_1
  6
CONTINUOUS
 10
-1.207406
 20
1.350681
  0
SEQEND
  8
0
  0
POLYLINE
  8
PLAN_1
  6
CONTINUOUS
 66
     1
 40
0.007051
 41
0.007051
  0
VERTEX
  8
PLAN_1
  6
CONTINUOUS
 10
-1.206902
 20
1.304327
  0
VERTEX
  8
PLAN_1
  6
CONTINUOUS
 10
-1.202370
 20
1.308862
  0
VERTEX
  8
PLAN_1
  6
CONTINUOUS
 10
-1.198843
 20
1.313398
  0
VERTEX
  8
PLAN_1
  6
CONTINUOUS
 10
-1.196323
 20
1.317929
  0
VERTEX
  8
PLAN_1
  6
CONTINUOUS
 10
-1.194811
 20
1.321961
  0
VERTEX
  8
PLAN_1
  6
CONTINUOUS
 10
-1.194307
 20
1.325992
  0
VERTEX
  8
PLAN_1
  6
CONTINUOUS
 10
-1.194307
 20
1.330024
  0
VERTEX
  8
PLAN_1
  6
CONTINUOUS
 10
-1.194811
 20
1.333551
  0
VERTEX
  8
PLAN_1
  6
CONTINUOUS
 10
-1.196323
 20
1.337075
  0
VERTEX
  8
PLAN_1
  6
CONTINUOUS
 10
-1.197835
 20
1.340098
  0
VERTEX
  8
PLAN_1
  6
CONTINUOUS
 10
-1.199346
 20
1.343122
  0
VERTEX
  8
PLAN_1
  6
CONTINUOUS
 10
-1.201362
 20
1.345138
  0
VERTEX
  8
PLAN_1
  6
CONTINUOUS
 10
-1.202874
 20
1.347657
  0
VERTEX
  8
PLAN_1
  6
CONTINUOUS
 10
-1.205894
 20
1.350177
  0
VERTEX
  8
PLAN_1
  6
CONTINUOUS
 10
-1.206902
 20
1.351185
  0
SEQEND
  8
0
  0
POLYLINE
  8
PLAN_1
  6
CONTINUOUS
 66
     1
 40
0.007051
 41
0.007051
  0
VERTEX
  8
PLAN_1
  6
CONTINUOUS
 10
-1.206902
 20
1.351185
  0
VERTEX
  8
PLAN_1
  6
CONTINUOUS
 10
-1.495091
 20
1.351185
  0
SEQEND
  8
0
  0
POLYLINE
  8
PLAN_1
  6
CONTINUOUS
 66
     1
 40
0.007051
 41
0.007051
  0
VERTEX
  8
PLAN_1
  6
CONTINUOUS
 10
-1.495091
 20
1.351185
  0
VERTEX
  8
PLAN_1
  6
CONTINUOUS
 10
-1.496098
 20
1.350177
  0
VERTEX
  8
PLAN_1
  6
CONTINUOUS
 10
-1.498618
 20
1.347657
  0
VERTEX
  8
PLAN_1
  6
CONTINUOUS
 10
-1.502142
 20
1.343122
  0
VERTEX
  8
PLAN_1
  6
CONTINUOUS
 10
-1.504661
 20
1.337579
  0
VERTEX
  8
PLAN_1
  6
CONTINUOUS
 10
-1.506173
 20
1.334555
  0
VERTEX
  8
PLAN_1
  6
CONTINUOUS
 10
-1.506677
 20
1.330528
  0
VERTEX
  8
PLAN_1
  6
CONTINUOUS
 10
-1.506677
 20
1.327000
  0
VERTEX
  8
PLAN_1
  6
CONTINUOUS
 10
-1.506173
 20
1.322969
  0
VERTEX
  8
PLAN_1
  6
CONTINUOUS
 10
-1.504661
 20
1.318433
  0
VERTEX
  8
PLAN_1
  6
CONTINUOUS
 10
-1.502646
 20
1.313902
  0
VERTEX
  8
PLAN_1
  6
CONTINUOUS
 10
-1.499626
 20
1.309366
  0
VERTEX
  8
PLAN_1
  6
CONTINUOUS
 10
-1.495091
 20
1.304327
  0
SEQEND
  8
0
  0
POLYLINE
  8
PLAN_1
  6
CONTINUOUS
 66
     1
 40
0.007051
 41
0.007051
  0
VERTEX
  8
PLAN_1
  6
CONTINUOUS
 10
-1.495091
 20
1.304327
  0
VERTEX
  8
PLAN_1
  6
CONTINUOUS
 10
-1.206902
 20
1.304327
  0
SEQEND
  8
0
  0
POLYLINE
  8
PLAN_1
  6
CONTINUOUS
 66
     1
 40
0.007051
 41
0.007051
  0
VERTEX
  8
PLAN_1
  6
CONTINUOUS
 10
-1.207406
 20
1.257976
  0
VERTEX
  8
PLAN_1
  6
CONTINUOUS
 10
-1.202874
 20
1.262512
  0
VERTEX
  8
PLAN_1
  6
CONTINUOUS
 10
-1.199346
 20
1.267043
  0
VERTEX
  8
PLAN_1
  6
CONTINUOUS
 10
-1.196827
 20
1.271579
  0
VERTEX
  8
PLAN_1
  6
CONTINUOUS
 10
-1.195315
 20
1.275610
  0
VERTEX
  8
PLAN_1
  6
CONTINUOUS
 10
-1.194307
 20
1.279642
  0
VERTEX
  8
PLAN_1
  6
CONTINUOUS
 10
-1.194811
 20
1.283669
  0
VERTEX
  8
PLAN_1
  6
CONTINUOUS
 10
-1.195315
 20
1.287197
  0
VERTEX
  8
PLAN_1
  6
CONTINUOUS
 10
-1.196323
 20
1.290724
  0
VERTEX
  8
PLAN_1
  6
CONTINUOUS
 10
-1.197835
 20
1.293748
  0
VERTEX
  8
PLAN_1
  6
CONTINUOUS
 10
-1.199850
 20
1.296268
  0
VERTEX
  8
PLAN_1
  6
CONTINUOUS
 10
-1.201866
 20
1.298787
  0
VERTEX
  8
PLAN_1
  6
CONTINUOUS
 10
-1.203374
 20
1.300799
  0
VERTEX
  8
PLAN_1
  6
CONTINUOUS
 10
-1.206398
 20
1.303823
  0
VERTEX
  8
PLAN_1
  6
CONTINUOUS
 10
-1.207406
 20
1.304831
  0
SEQEND
  8
0
  0
POLYLINE
  8
PLAN_1
  6
CONTINUOUS
 66
     1
 40
0.007051
 41
0.007051
  0
VERTEX
  8
PLAN_1
  6
CONTINUOUS
 10
-1.207406
 20
1.304831
  0
VERTEX
  8
PLAN_1
  6
CONTINUOUS
 10
-1.495594
 20
1.304831
  0
SEQEND
  8
0
  0
POLYLINE
  8
PLAN_1
  6
CONTINUOUS
 66
     1
 40
0.007051
 41
0.007051
  0
VERTEX
  8
PLAN_1
  6
CONTINUOUS
 10
-1.495594
 20
1.304831
  0
VERTEX
  8
PLAN_1
  6
CONTINUOUS
 10
-1.496602
 20
1.303823
  0
VERTEX
  8
PLAN_1
  6
CONTINUOUS
 10
-1.499122
 20
1.301303
  0
VERTEX
  8
PLAN_1
  6
CONTINUOUS
 10
-1.502646
 20
1.296772
  0
VERTEX
  8
PLAN_1
  6
CONTINUOUS
 10
-1.505165
 20
1.291228
  0
VERTEX
  8
PLAN_1
  6
CONTINUOUS
 10
-1.506173
 20
1.287701
  0
VERTEX
  8
PLAN_1
  6
CONTINUOUS
 10
-1.507181
 20
1.284173
  0
VERTEX
  8
PLAN_1
  6
CONTINUOUS
 10
-1.507181
 20
1.280650
  0
VERTEX
  8
PLAN_1
  6
CONTINUOUS
 10
-1.506677
 20
1.276618
  0
VERTEX
  8
PLAN_1
  6
CONTINUOUS
 10
-1.505165
 20
1.272083
  0
VERTEX
  8
PLAN_1
  6
CONTINUOUS
 10
-1.503150
 20
1.267547
  0
VERTEX
  8
PLAN_1
  6
CONTINUOUS
 10
-1.499626
 20
1.263016
  0
VERTEX
  8
PLAN_1
  6
CONTINUOUS
 10
-1.495594
 20
1.257976
  0
SEQEND
  8
0
  0
POLYLINE
  8
PLAN_1
  6
CONTINUOUS
 66
     1
 40
0.007051
 41
0.007051
  0
VERTEX
  8
PLAN_1
  6
CONTINUOUS
 10
-1.495594
 20
1.257976
  0
VERTEX
  8
PLAN_1
  6
CONTINUOUS
 10
-1.207406
 20
1.257976
  0
SEQEND
  8
0
  0
POLYLINE
  8
PLAN_1
  6
CONTINUOUS
 66
     1
 40
0.007051
 41
0.007051
  0
VERTEX
  8
PLAN_1
  6
CONTINUOUS
 10
-1.206902
 20
1.211622
  0
VERTEX
  8
PLAN_1
  6
CONTINUOUS
 10
-1.202370
 20
1.216157
  0
VERTEX
  8
PLAN_1
  6
CONTINUOUS
 10
-1.198843
 20
1.220693
  0
VERTEX
  8
PLAN_1
  6
CONTINUOUS
 10
-1.196323
 20
1.225228
  0
VERTEX
  8
PLAN_1
  6
CONTINUOUS
 10
-1.194811
 20
1.229256
  0
VERTEX
  8
PLAN_1
  6
CONTINUOUS
 10
-1.194307
 20
1.233287
  0
VERTEX
  8
PLAN_1
  6
CONTINUOUS
 10
-1.194307
 20
1.237319
  0
VERTEX
  8
PLAN_1
  6
CONTINUOUS
 10
-1.194811
 20
1.240846
  0
VERTEX
  8
PLAN_1
  6
CONTINUOUS
 10
-1.196323
 20
1.244374
  0
VERTEX
  8
PLAN_1
  6
CONTINUOUS
 10
-1.197835
 20
1.247394
  0
VERTEX
  8
PLAN_1
  6
CONTINUOUS
 10
-1.199346
 20
1.249913
  0
VERTEX
  8
PLAN_1
  6
CONTINUOUS
 10
-1.201362
 20
1.252433
  0
VERTEX
  8
PLAN_1
  6
CONTINUOUS
 10
-1.202874
 20
1.254449
  0
VERTEX
  8
PLAN_1
  6
CONTINUOUS
 10
-1.205894
 20
1.257472
  0
VERTEX
  8
PLAN_1
  6
CONTINUOUS
 10
-1.206902
 20
1.258480
  0
SEQEND
  8
0
  0
POLYLINE
  8
PLAN_1
  6
CONTINUOUS
 66
     1
 40
0.007051
 41
0.007051
  0
VERTEX
  8
PLAN_1
  6
CONTINUOUS
 10
-1.206902
 20
1.258480
  0
VERTEX
  8
PLAN_1
  6
CONTINUOUS
 10
-1.495091
 20
1.258480
  0
SEQEND
  8
0
  0
POLYLINE
  8
PLAN_1
  6
CONTINUOUS
 66
     1
 40
0.007051
 41
0.007051
  0
VERTEX
  8
PLAN_1
  6
CONTINUOUS
 10
-1.495091
 20
1.258480
  0
VERTEX
  8
PLAN_1
  6
CONTINUOUS
 10
-1.496098
 20
1.257472
  0
VERTEX
  8
PLAN_1
  6
CONTINUOUS
 10
-1.498618
 20
1.254953
  0
VERTEX
  8
PLAN_1
  6
CONTINUOUS
 10
-1.502142
 20
1.250417
  0
VERTEX
  8
PLAN_1
  6
CONTINUOUS
 10
-1.504661
 20
1.244878
  0
VERTEX
  8
PLAN_1
  6
CONTINUOUS
 10
-1.506173
 20
1.241350
  0
VERTEX
  8
PLAN_1
  6
CONTINUOUS
 10
-1.506677
 20
1.237823
  0
VERTEX
  8
PLAN_1
  6
CONTINUOUS
 10
-1.506677
 20
1.234295
  0
VERTEX
  8
PLAN_1
  6
CONTINUOUS
 10
-1.506173
 20
1.229760
  0
VERTEX
  8
PLAN_1
  6
CONTINUOUS
 10
-1.504661
 20
1.225732
  0
VERTEX
  8
PLAN_1
  6
CONTINUOUS
 10
-1.502646
 20
1.221197
  0
VERTEX
  8
PLAN_1
  6
CONTINUOUS
 10
-1.499626
 20
1.216661
  0
VERTEX
  8
PLAN_1
  6
CONTINUOUS
 10
-1.495091
 20
1.211622
  0
SEQEND
  8
0
  0
POLYLINE
  8
PLAN_1
  6
CONTINUOUS
 66
     1
 40
0.007051
 41
0.007051
  0
VERTEX
  8
PLAN_1
  6
CONTINUOUS
 10
-1.495091
 20
1.211622
  0
VERTEX
  8
PLAN_1
  6
CONTINUOUS
 10
-1.206902
 20
1.211622
  0
SEQEND
  8
0
  0
POLYLINE
  8
PLAN_1
  6
CONTINUOUS
 66
     1
 40
0.007051
 41
0.007051
  0
VERTEX
  8
PLAN_1
  6
CONTINUOUS
 10
-1.207406
 20
1.165272
  0
VERTEX
  8
PLAN_1
  6
CONTINUOUS
 10
-1.202874
 20
1.169807
  0
VERTEX
  8
PLAN_1
  6
CONTINUOUS
 10
-1.199346
 20
1.174343
  0
VERTEX
  8
PLAN_1
  6
CONTINUOUS
 10
-1.196827
 20
1.178370
  0
VERTEX
  8
PLAN_1
  6
CONTINUOUS
 10
-1.195315
 20
1.182906
  0
VERTEX
  8
PLAN_1
  6
CONTINUOUS
 10
-1.194307
 20
1.186937
  0
VERTEX
  8
PLAN_1
  6
CONTINUOUS
 10
-1.194811
 20
1.190969
  0
VERTEX
  8
PLAN_1
  6
CONTINUOUS
 10
-1.195315
 20
1.194492
  0
VERTEX
  8
PLAN_1
  6
CONTINUOUS
 10
-1.196323
 20
1.198020
  0
VERTEX
  8
PLAN_1
  6
CONTINUOUS
 10
-1.197835
 20
1.201043
  0
VERTEX
  8
PLAN_1
  6
CONTINUOUS
 10
-1.199850
 20
1.203563
  0
VERTEX
  8
PLAN_1
  6
CONTINUOUS
 10
-1.201866
 20
1.206083
  0
VERTEX
  8
PLAN_1
  6
CONTINUOUS
 10
-1.203374
 20
1.208098
  0
VERTEX
  8
PLAN_1
  6
CONTINUOUS
 10
-1.206398
 20
1.211122
  0
VERTEX
  8
PLAN_1
  6
CONTINUOUS
 10
-1.207406
 20
1.212126
  0
SEQEND
  8
0
  0
POLYLINE
  8
PLAN_1
  6
CONTINUOUS
 66
     1
 40
0.007051
 41
0.007051
  0
VERTEX
  8
PLAN_1
  6
CONTINUOUS
 10
-1.207406
 20
1.212126
  0
VERTEX
  8
PLAN_1
  6
CONTINUOUS
 10
-1.495594
 20
1.212126
  0
SEQEND
  8
0
  0
POLYLINE
  8
PLAN_1
  6
CONTINUOUS
 66
     1
 40
0.007051
 41
0.007051
  0
VERTEX
  8
PLAN_1
  6
CONTINUOUS
 10
-1.495594
 20
1.212126
  0
VERTEX
  8
PLAN_1
  6
CONTINUOUS
 10
-1.496602
 20
1.211122
  0
VERTEX
  8
PLAN_1
  6
CONTINUOUS
 10
-1.499122
 20
1.208602
  0
VERTEX
  8
PLAN_1
  6
CONTINUOUS
 10
-1.502646
 20
1.204067
  0
VERTEX
  8
PLAN_1
  6
CONTINUOUS
 10
-1.505165
 20
1.198524
  0
VERTEX
  8
PLAN_1
  6
CONTINUOUS
 10
-1.506173
 20
1.194996
  0
VERTEX
  8
PLAN_1
  6
CONTINUOUS
 10
-1.507181
 20
1.191472
  0
VERTEX
  8
PLAN_1
  6
CONTINUOUS
 10
-1.507181
 20
1.187441
  0
VERTEX
  8
PLAN_1
  6
CONTINUOUS
 10
-1.506677
 20
1.183409
  0
VERTEX
  8
PLAN_1
  6
CONTINUOUS
 10
-1.505165
 20
1.179378
  0
VERTEX
  8
PLAN_1
  6
CONTINUOUS
 10
-1.503150
 20
1.174846
  0
VERTEX
  8
PLAN_1
  6
CONTINUOUS
 10
-1.499626
 20
1.170311
  0
VERTEX
  8
PLAN_1
  6
CONTINUOUS
 10
-1.495594
 20
1.165272
  0
SEQEND
  8
0
  0
POLYLINE
  8
PLAN_1
  6
CONTINUOUS
 66
     1
 40
0.007051
 41
0.007051
  0
VERTEX
  8
PLAN_1
  6
CONTINUOUS
 10
-1.495594
 20
1.165272
  0
VERTEX
  8
PLAN_1
  6
CONTINUOUS
 10
-1.207406
 20
1.165272
  0
SEQEND
  8
0
  0
POLYLINE
  8
PLAN_1
  6
CONTINUOUS
 66
     1
 40
0.007051
 41
0.007051
  0
VERTEX
  8
PLAN_1
  6
CONTINUOUS
 10
-1.206902
 20
1.118921
  0
VERTEX
  8
PLAN_1
  6
CONTINUOUS
 10
-1.202370
 20
1.123457
  0
VERTEX
  8
PLAN_1
  6
CONTINUOUS
 10
-1.198843
 20
1.127988
  0
VERTEX
  8
PLAN_1
  6
CONTINUOUS
 10
-1.196323
 20
1.132020
  0
VERTEX
  8
PLAN_1
  6
CONTINUOUS
 10
-1.194811
 20
1.136555
  0
VERTEX
  8
PLAN_1
  6
CONTINUOUS
 10
-1.194307
 20
1.140587
  0
VERTEX
  8
PLAN_1
  6
CONTINUOUS
 10
-1.194307
 20
1.144110
  0
VERTEX
  8
PLAN_1
  6
CONTINUOUS
 10
-1.194811
 20
1.148142
  0
VERTEX
  8
PLAN_1
  6
CONTINUOUS
 10
-1.196323
 20
1.151165
  0
VERTEX
  8
PLAN_1
  6
CONTINUOUS
 10
-1.197835
 20
1.154693
  0
VERTEX
  8
PLAN_1
  6
CONTINUOUS
 10
-1.199346
 20
1.157213
  0
VERTEX
  8
PLAN_1
  6
CONTINUOUS
 10
-1.201362
 20
1.159728
  0
VERTEX
  8
PLAN_1
  6
CONTINUOUS
 10
-1.202874
 20
1.161744
  0
VERTEX
  8
PLAN_1
  6
CONTINUOUS
 10
-1.205894
 20
1.164768
  0
VERTEX
  8
PLAN_1
  6
CONTINUOUS
 10
-1.206902
 20
1.165776
  0
SEQEND
  8
0
  0
POLYLINE
  8
PLAN_1
  6
CONTINUOUS
 66
     1
 40
0.007051
 41
0.007051
  0
VERTEX
  8
PLAN_1
  6
CONTINUOUS
 10
-1.206902
 20
1.165776
  0
VERTEX
  8
PLAN_1
  6
CONTINUOUS
 10
-1.495091
 20
1.165776
  0
SEQEND
  8
0
  0
POLYLINE
  8
PLAN_1
  6
CONTINUOUS
 66
     1
 40
0.007051
 41
0.007051
  0
VERTEX
  8
PLAN_1
  6
CONTINUOUS
 10
-1.495091
 20
1.165776
  0
VERTEX
  8
PLAN_1
  6
CONTINUOUS
 10
-1.496098
 20
1.164768
  0
VERTEX
  8
PLAN_1
  6
CONTINUOUS
 10
-1.498618
 20
1.162248
  0
VERTEX
  8
PLAN_1
  6
CONTINUOUS
 10
-1.502142
 20
1.157717
  0
VERTEX
  8
PLAN_1
  6
CONTINUOUS
 10
-1.504661
 20
1.152173
  0
VERTEX
  8
PLAN_1
  6
CONTINUOUS
 10
-1.506173
 20
1.148646
  0
VERTEX
  8
PLAN_1
  6
CONTINUOUS
 10
-1.506677
 20
1.145118
  0
VERTEX
  8
PLAN_1
  6
CONTINUOUS
 10
-1.506677
 20
1.141091
  0
VERTEX
  8
PLAN_1
  6
CONTINUOUS
 10
-1.506173
 20
1.137059
  0
VERTEX
  8
PLAN_1
  6
CONTINUOUS
 10
-1.504661
 20
1.133028
  0
VERTEX
  8
PLAN_1
  6
CONTINUOUS
 10
-1.502646
 20
1.128492
  0
VERTEX
  8
PLAN_1
  6
CONTINUOUS
 10
-1.499626
 20
1.123457
  0
VERTEX
  8
PLAN_1
  6
CONTINUOUS
 10
-1.495091
 20
1.118921
  0
SEQEND
  8
0
  0
POLYLINE
  8
PLAN_1
  6
CONTINUOUS
 66
     1
 40
0.007051
 41
0.007051
  0
VERTEX
  8
PLAN_1
  6
CONTINUOUS
 10
-1.495091
 20
1.118921
  0
VERTEX
  8
PLAN_1
  6
CONTINUOUS
 10
-1.206902
 20
1.118921
  0
SEQEND
  8
0
  0
POLYLINE
  8
PLAN_1
  6
CONTINUOUS
 66
     1
 40
0.007051
 41
0.007051
  0
VERTEX
  8
PLAN_1
  6
CONTINUOUS
 10
-1.207406
 20
1.072567
  0
VERTEX
  8
PLAN_1
  6
CONTINUOUS
 10
-1.202874
 20
1.077102
  0
VERTEX
  8
PLAN_1
  6
CONTINUOUS
 10
-1.199346
 20
1.081638
  0
VERTEX
  8
PLAN_1
  6
CONTINUOUS
 10
-1.196827
 20
1.085669
  0
VERTEX
  8
PLAN_1
  6
CONTINUOUS
 10
-1.195315
 20
1.090201
  0
VERTEX
  8
PLAN_1
  6
CONTINUOUS
 10
-1.194307
 20
1.094232
  0
VERTEX
  8
PLAN_1
  6
CONTINUOUS
 10
-1.194811
 20
1.097760
  0
VERTEX
  8
PLAN_1
  6
CONTINUOUS
 10
-1.195315
 20
1.101791
  0
VERTEX
  8
PLAN_1
  6
CONTINUOUS
 10
-1.196323
 20
1.104815
  0
VERTEX
  8
PLAN_1
  6
CONTINUOUS
 10
-1.197835
 20
1.108339
  0
VERTEX
  8
PLAN_1
  6
CONTINUOUS
 10
-1.199850
 20
1.110858
  0
VERTEX
  8
PLAN_1
  6
CONTINUOUS
 10
-1.201866
 20
1.113378
  0
VERTEX
  8
PLAN_1
  6
CONTINUOUS
 10
-1.203374
 20
1.115394
  0
VERTEX
  8
PLAN_1
  6
CONTINUOUS
 10
-1.206398
 20
1.118417
  0
VERTEX
  8
PLAN_1
  6
CONTINUOUS
 10
-1.207406
 20
1.119425
  0
SEQEND
  8
0
  0
POLYLINE
  8
PLAN_1
  6
CONTINUOUS
 66
     1
 40
0.007051
 41
0.007051
  0
VERTEX
  8
PLAN_1
  6
CONTINUOUS
 10
-1.207406
 20
1.119425
  0
VERTEX
  8
PLAN_1
  6
CONTINUOUS
 10
-1.495594
 20
1.119425
  0
SEQEND
  8
0
  0
POLYLINE
  8
PLAN_1
  6
CONTINUOUS
 66
     1
 40
0.007051
 41
0.007051
  0
VERTEX
  8
PLAN_1
  6
CONTINUOUS
 10
-1.495594
 20
1.119425
  0
VERTEX
  8
PLAN_1
  6
CONTINUOUS
 10
-1.496602
 20
1.118417
  0
VERTEX
  8
PLAN_1
  6
CONTINUOUS
 10
-1.499122
 20
1.115394
  0
VERTEX
  8
PLAN_1
  6
CONTINUOUS
 10
-1.502646
 20
1.111362
  0
VERTEX
  8
PLAN_1
  6
CONTINUOUS
 10
-1.505165
 20
1.105823
  0
VERTEX
  8
PLAN_1
  6
CONTINUOUS
 10
-1.506173
 20
1.102295
  0
VERTEX
  8
PLAN_1
  6
CONTINUOUS
 10
-1.507181
 20
1.098768
  0
VERTEX
  8
PLAN_1
  6
CONTINUOUS
 10
-1.507181
 20
1.094736
  0
VERTEX
  8
PLAN_1
  6
CONTINUOUS
 10
-1.506677
 20
1.090705
  0
VERTEX
  8
PLAN_1
  6
CONTINUOUS
 10
-1.505165
 20
1.086677
  0
VERTEX
  8
PLAN_1
  6
CONTINUOUS
 10
-1.503150
 20
1.082142
  0
VERTEX
  8
PLAN_1
  6
CONTINUOUS
 10
-1.499626
 20
1.077102
  0
VERTEX
  8
PLAN_1
  6
CONTINUOUS
 10
-1.495594
 20
1.072567
  0
SEQEND
  8
0
  0
POLYLINE
  8
PLAN_1
  6
CONTINUOUS
 66
     1
 40
0.007051
 41
0.007051
  0
VERTEX
  8
PLAN_1
  6
CONTINUOUS
 10
-1.495594
 20
1.072567
  0
VERTEX
  8
PLAN_1
  6
CONTINUOUS
 10
-1.207406
 20
1.072567
  0
SEQEND
  8
0
  0
POLYLINE
  8
PLAN_1
  6
CONTINUOUS
 66
     1
 40
0.007051
 41
0.007051
  0
VERTEX
  8
PLAN_1
  6
CONTINUOUS
 10
-1.206902
 20
1.026217
  0
VERTEX
  8
PLAN_1
  6
CONTINUOUS
 10
-1.202370
 20
1.030752
  0
VERTEX
  8
PLAN_1
  6
CONTINUOUS
 10
-1.198843
 20
1.034783
  0
VERTEX
  8
PLAN_1
  6
CONTINUOUS
 10
-1.196323
 20
1.039315
  0
VERTEX
  8
PLAN_1
  6
CONTINUOUS
 10
-1.194811
 20
1.043850
  0
VERTEX
  8
PLAN_1
  6
CONTINUOUS
 10
-1.194307
 20
1.047882
  0
VERTEX
  8
PLAN_1
  6
CONTINUOUS
 10
-1.194307
 20
1.051409
  0
VERTEX
  8
PLAN_1
  6
CONTINUOUS
 10
-1.194811
 20
1.054933
  0
VERTEX
  8
PLAN_1
  6
CONTINUOUS
 10
-1.196323
 20
1.058461
  0
VERTEX
  8
PLAN_1
  6
CONTINUOUS
 10
-1.197835
 20
1.061484
  0
VERTEX
  8
PLAN_1
  6
CONTINUOUS
 10
-1.199346
 20
1.064508
  0
VERTEX
  8
PLAN_1
  6
CONTINUOUS
 10
-1.201362
 20
1.067028
  0
VERTEX
  8
PLAN_1
  6
CONTINUOUS
 10
-1.202874
 20
1.069043
  0
VERTEX
  8
PLAN_1
  6
CONTINUOUS
 10
-1.205894
 20
1.072063
  0
VERTEX
  8
PLAN_1
  6
CONTINUOUS
 10
-1.206902
 20
1.073071
  0
SEQEND
  8
0
  0
POLYLINE
  8
PLAN_1
  6
CONTINUOUS
 66
     1
 40
0.007051
 41
0.007051
  0
VERTEX
  8
PLAN_1
  6
CONTINUOUS
 10
-1.206902
 20
1.073071
  0
VERTEX
  8
PLAN_1
  6
CONTINUOUS
 10
-1.495091
 20
1.073071
  0
SEQEND
  8
0
  0
POLYLINE
  8
PLAN_1
  6
CONTINUOUS
 66
     1
 40
0.007051
 41
0.007051
  0
VERTEX
  8
PLAN_1
  6
CONTINUOUS
 10
-1.495091
 20
1.073071
  0
VERTEX
  8
PLAN_1
  6
CONTINUOUS
 10
-1.496098
 20
1.072063
  0
VERTEX
  8
PLAN_1
  6
CONTINUOUS
 10
-1.498618
 20
1.069043
  0
VERTEX
  8
PLAN_1
  6
CONTINUOUS
 10
-1.502142
 20
1.065012
  0
VERTEX
  8
PLAN_1
  6
CONTINUOUS
 10
-1.504661
 20
1.059469
  0
VERTEX
  8
PLAN_1
  6
CONTINUOUS
 10
-1.506173
 20
1.055941
  0
VERTEX
  8
PLAN_1
  6
CONTINUOUS
 10
-1.506677
 20
1.052417
  0
VERTEX
  8
PLAN_1
  6
CONTINUOUS
 10
-1.506677
 20
1.048386
  0
VERTEX
  8
PLAN_1
  6
CONTINUOUS
 10
-1.506173
 20
1.044354
  0
VERTEX
  8
PLAN_1
  6
CONTINUOUS
 10
-1.504661
 20
1.039819
  0
VERTEX
  8
PLAN_1
  6
CONTINUOUS
 10
-1.502646
 20
1.035287
  0
VERTEX
  8
PLAN_1
  6
CONTINUOUS
 10
-1.499626
 20
1.030752
  0
VERTEX
  8
PLAN_1
  6
CONTINUOUS
 10
-1.495091
 20
1.026217
  0
SEQEND
  8
0
  0
POLYLINE
  8
PLAN_1
  6
CONTINUOUS
 66
     1
 40
0.007051
 41
0.007051
  0
VERTEX
  8
PLAN_1
  6
CONTINUOUS
 10
-1.495091
 20
1.026217
  0
VERTEX
  8
PLAN_1
  6
CONTINUOUS
 10
-1.206902
 20
1.026217
  0
SEQEND
  8
0
  0
POLYLINE
  8
PLAN_1
  6
CONTINUOUS
 66
     1
 40
0.007051
 41
0.007051
  0
VERTEX
  8
PLAN_1
  6
CONTINUOUS
 10
-1.207406
 20
0.979866
  0
VERTEX
  8
PLAN_1
  6
CONTINUOUS
 10
-1.202874
 20
0.984398
  0
VERTEX
  8
PLAN_1
  6
CONTINUOUS
 10
-1.199346
 20
0.988429
  0
VERTEX
  8
PLAN_1
  6
CONTINUOUS
 10
-1.196827
 20
0.992965
  0
VERTEX
  8
PLAN_1
  6
CONTINUOUS
 10
-1.195315
 20
0.996996
  0
VERTEX
  8
PLAN_1
  6
CONTINUOUS
 10
-1.194307
 20
1.001024
  0
VERTEX
  8
PLAN_1
  6
CONTINUOUS
 10
-1.194811
 20
1.005055
  0
VERTEX
  8
PLAN_1
  6
CONTINUOUS
 10
-1.195315
 20
1.008583
  0
VERTEX
  8
PLAN_1
  6
CONTINUOUS
 10
-1.196323
 20
1.012110
  0
VERTEX
  8
PLAN_1
  6
CONTINUOUS
 10
-1.197835
 20
1.015134
  0
VERTEX
  8
PLAN_1
  6
CONTINUOUS
 10
-1.199850
 20
1.018157
  0
VERTEX
  8
PLAN_1
  6
CONTINUOUS
 10
-1.201866
 20
1.020673
  0
VERTEX
  8
PLAN_1
  6
CONTINUOUS
 10
-1.203374
 20
1.022689
  0
VERTEX
  8
PLAN_1
  6
CONTINUOUS
 10
-1.206398
 20
1.025713
  0
VERTEX
  8
PLAN_1
  6
CONTINUOUS
 10
-1.207406
 20
1.026720
  0
SEQEND
  8
0
  0
POLYLINE
  8
PLAN_1
  6
CONTINUOUS
 66
     1
 40
0.007051
 41
0.007051
  0
VERTEX
  8
PLAN_1
  6
CONTINUOUS
 10
-1.207406
 20
1.026720
  0
VERTEX
  8
PLAN_1
  6
CONTINUOUS
 10
-1.495594
 20
1.026720
  0
SEQEND
  8
0
  0
POLYLINE
  8
PLAN_1
  6
CONTINUOUS
 66
     1
 40
0.007051
 41
0.007051
  0
VERTEX
  8
PLAN_1
  6
CONTINUOUS
 10
-1.495594
 20
1.026720
  0
VERTEX
  8
PLAN_1
  6
CONTINUOUS
 10
-1.496602
 20
1.025713
  0
VERTEX
  8
PLAN_1
  6
CONTINUOUS
 10
-1.499122
 20
1.022689
  0
VERTEX
  8
PLAN_1
  6
CONTINUOUS
 10
-1.502646
 20
1.018657
  0
VERTEX
  8
PLAN_1
  6
CONTINUOUS
 10
-1.505165
 20
1.012614
  0
VERTEX
  8
PLAN_1
  6
CONTINUOUS
 10
-1.506173
 20
1.009591
  0
VERTEX
  8
PLAN_1
  6
CONTINUOUS
 10
-1.507181
 20
1.006063
  0
VERTEX
  8
PLAN_1
  6
CONTINUOUS
 10
-1.507181
 20
1.002031
  0
VERTEX
  8
PLAN_1
  6
CONTINUOUS
 10
-1.506677
 20
0.998004
  0
VERTEX
  8
PLAN_1
  6
CONTINUOUS
 10
-1.505165
 20
0.993469
  0
VERTEX
  8
PLAN_1
  6
CONTINUOUS
 10
-1.503150
 20
0.988933
  0
VERTEX
  8
PLAN_1
  6
CONTINUOUS
 10
-1.499626
 20
0.984398
  0
VERTEX
  8
PLAN_1
  6
CONTINUOUS
 10
-1.495594
 20
0.979866
  0
SEQEND
  8
0
  0
POLYLINE
  8
PLAN_1
  6
CONTINUOUS
 66
     1
 40
0.007051
 41
0.007051
  0
VERTEX
  8
PLAN_1
  6
CONTINUOUS
 10
-1.495594
 20
0.979866
  0
VERTEX
  8
PLAN_1
  6
CONTINUOUS
 10
-1.207406
 20
0.979866
  0
SEQEND
  8
0
  0
POLYLINE
  8
PLAN_1
  6
CONTINUOUS
 66
     1
 40
0.007051
 41
0.007051
  0
VERTEX
  8
PLAN_1
  6
CONTINUOUS
 10
-1.206902
 20
0.933008
  0
VERTEX
  8
PLAN_1
  6
CONTINUOUS
 10
-1.202370
 20
0.937543
  0
VERTEX
  8
PLAN_1
  6
CONTINUOUS
 10
-1.198843
 20
0.942079
  0
VERTEX
  8
PLAN_1
  6
CONTINUOUS
 10
-1.196323
 20
0.946614
  0
VERTEX
  8
PLAN_1
  6
CONTINUOUS
 10
-1.194811
 20
0.950642
  0
VERTEX
  8
PLAN_1
  6
CONTINUOUS
 10
-1.194307
 20
0.954673
  0
VERTEX
  8
PLAN_1
  6
CONTINUOUS
 10
-1.194307
 20
0.958705
  0
VERTEX
  8
PLAN_1
  6
CONTINUOUS
 10
-1.194811
 20
0.962232
  0
VERTEX
  8
PLAN_1
  6
CONTINUOUS
 10
-1.196323
 20
0.965756
  0
VERTEX
  8
PLAN_1
  6
CONTINUOUS
 10
-1.197835
 20
0.968780
  0
VERTEX
  8
PLAN_1
  6
CONTINUOUS
 10
-1.199346
 20
0.971803
  0
VERTEX
  8
PLAN_1
  6
CONTINUOUS
 10
-1.201362
 20
0.974323
  0
VERTEX
  8
PLAN_1
  6
CONTINUOUS
 10
-1.202874
 20
0.976339
  0
VERTEX
  8
PLAN_1
  6
CONTINUOUS
 10
-1.205894
 20
0.978858
  0
VERTEX
  8
PLAN_1
  6
CONTINUOUS
 10
-1.206902
 20
0.979866
  0
SEQEND
  8
0
  0
POLYLINE
  8
PLAN_1
  6
CONTINUOUS
 66
     1
 40
0.007051
 41
0.007051
  0
VERTEX
  8
PLAN_1
  6
CONTINUOUS
 10
-1.206902
 20
0.979866
  0
VERTEX
  8
PLAN_1
  6
CONTINUOUS
 10
-1.495091
 20
0.979866
  0
SEQEND
  8
0
  0
POLYLINE
  8
PLAN_1
  6
CONTINUOUS
 66
     1
 40
0.007051
 41
0.007051
  0
VERTEX
  8
PLAN_1
  6
CONTINUOUS
 10
-1.495091
 20
0.979866
  0
VERTEX
  8
PLAN_1
  6
CONTINUOUS
 10
-1.496098
 20
0.979362
  0
VERTEX
  8
PLAN_1
  6
CONTINUOUS
 10
-1.498618
 20
0.976339
  0
VERTEX
  8
PLAN_1
  6
CONTINUOUS
 10
-1.502142
 20
0.972307
  0
VERTEX
  8
PLAN_1
  6
CONTINUOUS
 10
-1.504661
 20
0.966260
  0
VERTEX
  8
PLAN_1
  6
CONTINUOUS
 10
-1.506173
 20
0.963240
  0
VERTEX
  8
PLAN_1
  6
CONTINUOUS
 10
-1.506677
 20
0.959713
  0
VERTEX
  8
PLAN_1
  6
CONTINUOUS
 10
-1.506677
 20
0.955681
  0
VERTEX
  8
PLAN_1
  6
CONTINUOUS
 10
-1.506173
 20
0.951650
  0
VERTEX
  8
PLAN_1
  6
CONTINUOUS
 10
-1.504661
 20
0.947118
  0
VERTEX
  8
PLAN_1
  6
CONTINUOUS
 10
-1.502646
 20
0.942583
  0
VERTEX
  8
PLAN_1
  6
CONTINUOUS
 10
-1.499626
 20
0.938047
  0
VERTEX
  8
PLAN_1
  6
CONTINUOUS
 10
-1.495091
 20
0.933008
  0
SEQEND
  8
0
  0
POLYLINE
  8
PLAN_1
  6
CONTINUOUS
 66
     1
 40
0.007051
 41
0.007051
  0
VERTEX
  8
PLAN_1
  6
CONTINUOUS
 10
-1.495091
 20
0.933008
  0
VERTEX
  8
PLAN_1
  6
CONTINUOUS
 10
-1.206902
 20
0.933008
  0
SEQEND
  8
0
  0
POLYLINE
  8
PLAN_1
  6
CONTINUOUS
 66
     1
 40
0.007051
 41
0.007051
  0
VERTEX
  8
PLAN_1
  6
CONTINUOUS
 10
-1.207406
 20
0.886657
  0
VERTEX
  8
PLAN_1
  6
CONTINUOUS
 10
-1.202874
 20
0.891193
  0
VERTEX
  8
PLAN_1
  6
CONTINUOUS
 10
-1.199346
 20
0.895724
  0
VERTEX
  8
PLAN_1
  6
CONTINUOUS
 10
-1.196827
 20
0.900260
  0
VERTEX
  8
PLAN_1
  6
CONTINUOUS
 10
-1.195315
 20
0.904291
  0
VERTEX
  8
PLAN_1
  6
CONTINUOUS
 10
-1.194307
 20
0.908323
  0
VERTEX
  8
PLAN_1
  6
CONTINUOUS
 10
-1.194811
 20
0.912354
  0
VERTEX
  8
PLAN_1
  6
CONTINUOUS
 10
-1.195315
 20
0.915878
  0
VERTEX
  8
PLAN_1
  6
CONTINUOUS
 10
-1.196323
 20
0.919406
  0
VERTEX
  8
PLAN_1
  6
CONTINUOUS
 10
-1.197835
 20
0.922429
  0
VERTEX
  8
PLAN_1
  6
CONTINUOUS
 10
-1.199850
 20
0.925453
  0
VERTEX
  8
PLAN_1
  6
CONTINUOUS
 10
-1.201866
 20
0.927469
  0
VERTEX
  8
PLAN_1
  6
CONTINUOUS
 10
-1.203374
 20
0.929988
  0
VERTEX
  8
PLAN_1
  6
CONTINUOUS
 10
-1.206398
 20
0.932504
  0
VERTEX
  8
PLAN_1
  6
CONTINUOUS
 10
-1.207406
 20
0.933512
  0
SEQEND
  8
0
  0
POLYLINE
  8
PLAN_1
  6
CONTINUOUS
 66
     1
 40
0.007051
 41
0.007051
  0
VERTEX
  8
PLAN_1
  6
CONTINUOUS
 10
-1.207406
 20
0.933512
  0
VERTEX
  8
PLAN_1
  6
CONTINUOUS
 10
-1.495594
 20
0.933512
  0
SEQEND
  8
0
  0
POLYLINE
  8
PLAN_1
  6
CONTINUOUS
 66
     1
 40
0.007051
 41
0.007051
  0
VERTEX
  8
PLAN_1
  6
CONTINUOUS
 10
-1.495594
 20
0.933512
  0
VERTEX
  8
PLAN_1
  6
CONTINUOUS
 10
-1.496602
 20
0.932504
  0
VERTEX
  8
PLAN_1
  6
CONTINUOUS
 10
-1.499122
 20
0.929988
  0
VERTEX
  8
PLAN_1
  6
CONTINUOUS
 10
-1.502646
 20
0.925453
  0
VERTEX
  8
PLAN_1
  6
CONTINUOUS
 10
-1.505165
 20
0.919909
  0
VERTEX
  8
PLAN_1
  6
CONTINUOUS
 10
-1.506173
 20
0.916886
  0
VERTEX
  8
PLAN_1
  6
CONTINUOUS
 10
-1.507181
 20
0.912858
  0
VERTEX
  8
PLAN_1
  6
CONTINUOUS
 10
-1.507181
 20
0.909331
  0
VERTEX
  8
PLAN_1
  6
CONTINUOUS
 10
-1.506677
 20
0.905299
  0
VERTEX
  8
PLAN_1
  6
CONTINUOUS
 10
-1.505165
 20
0.900764
  0
VERTEX
  8
PLAN_1
  6
CONTINUOUS
 10
-1.503150
 20
0.896228
  0
VERTEX
  8
PLAN_1
  6
CONTINUOUS
 10
-1.499626
 20
0.891697
  0
VERTEX
  8
PLAN_1
  6
CONTINUOUS
 10
-1.495594
 20
0.886657
  0
SEQEND
  8
0
  0
POLYLINE
  8
PLAN_1
  6
CONTINUOUS
 66
     1
 40
0.007051
 41
0.007051
  0
VERTEX
  8
PLAN_1
  6
CONTINUOUS
 10
-1.495594
 20
0.886657
  0
VERTEX
  8
PLAN_1
  6
CONTINUOUS
 10
-1.207406
 20
0.886657
  0
SEQEND
  8
0
  0
POLYLINE
  8
PLAN_1
  6
CONTINUOUS
 66
     1
 40
0.008563
 41
0.008563
  0
VERTEX
  8
PLAN_1
  6
CONTINUOUS
 10
-1.505165
 20
0.873055
  0
VERTEX
  8
PLAN_1
  6
CONTINUOUS
 10
-1.890087
 20
0.873055
  0
VERTEX
  8
PLAN_1
  6
CONTINUOUS
 10
-1.890087
 20
0.753146
  0
SEQEND
  8
0
  0
POLYLINE
  8
PLAN_1
  6
CONTINUOUS
 66
     1
 40
0.008563
 41
0.008563
  0
VERTEX
  8
PLAN_1
  6
CONTINUOUS
 10
-0.832563
 20
0.753146
  0
VERTEX
  8
PLAN_1
  6
CONTINUOUS
 10
-0.832563
 20
0.873055
  0
VERTEX
  8
PLAN_1
  6
CONTINUOUS
 10
-1.196323
 20
0.873055
  0
SEQEND
  8
0
  0
POLYLINE
  8
PLAN_1
  6
CONTINUOUS
 66
     1
 40
0.008563
 41
0.008563
  0
VERTEX
  8
PLAN_1
  6
CONTINUOUS
 10
-1.505165
 20
0.873055
  0
VERTEX
  8
PLAN_1
  6
CONTINUOUS
 10
-1.503654
 20
0.876079
  0
VERTEX
  8
PLAN_1
  6
CONTINUOUS
 10
-1.502142
 20
0.879098
  0
VERTEX
  8
PLAN_1
  6
CONTINUOUS
 10
-1.500634
 20
0.881618
  0
VERTEX
  8
PLAN_1
  6
CONTINUOUS
 10
-1.499122
 20
0.883634
  0
VERTEX
  8
PLAN_1
  6
CONTINUOUS
 10
-1.497610
 20
0.885146
  0
VERTEX
  8
PLAN_1
  6
CONTINUOUS
 10
-1.496098
 20
0.886154
  0
VERTEX
  8
PLAN_1
  6
CONTINUOUS
 10
-1.495594
 20
0.887161
  0
VERTEX
  8
PLAN_1
  6
CONTINUOUS
 10
-1.495091
 20
0.887161
  0
SEQEND
  8
0
  0
POLYLINE
  8
PLAN_1
  6
CONTINUOUS
 66
     1
 40
0.008563
 41
0.008563
  0
VERTEX
  8
PLAN_1
  6
CONTINUOUS
 10
-1.495091
 20
0.887161
  0
VERTEX
  8
PLAN_1
  6
CONTINUOUS
 10
-1.206902
 20
0.887161
  0
SEQEND
  8
0
  0
POLYLINE
  8
PLAN_1
  6
CONTINUOUS
 66
     1
 40
0.008563
 41
0.008563
  0
VERTEX
  8
PLAN_1
  6
CONTINUOUS
 10
-1.206902
 20
0.887161
  0
VERTEX
  8
PLAN_1
  6
CONTINUOUS
 10
-1.205894
 20
0.886154
  0
VERTEX
  8
PLAN_1
  6
CONTINUOUS
 10
-1.204886
 20
0.885146
  0
VERTEX
  8
PLAN_1
  6
CONTINUOUS
 10
-1.202874
 20
0.883634
  0
VERTEX
  8
PLAN_1
  6
CONTINUOUS
 10
-1.201362
 20
0.881114
  0
VERTEX
  8
PLAN_1
  6
CONTINUOUS
 10
-1.199346
 20
0.879098
  0
VERTEX
  8
PLAN_1
  6
CONTINUOUS
 10
-1.197835
 20
0.876079
  0
VERTEX
  8
PLAN_1
  6
CONTINUOUS
 10
-1.196323
 20
0.873055
  0
SEQEND
  8
0
  0
POLYLINE
  8
PLAN_1
  6
CONTINUOUS
 66
     1
 40
0.008563
 41
0.008563
  0
VERTEX
  8
PLAN_1
  6
CONTINUOUS
 10
-1.505165
 20
0.873055
  0
VERTEX
  8
PLAN_1
  6
CONTINUOUS
 10
-1.506173
 20
0.870031
  0
VERTEX
  8
PLAN_1
  6
CONTINUOUS
 10
-1.506677
 20
0.866504
  0
VERTEX
  8
PLAN_1
  6
CONTINUOUS
 10
-1.506677
 20
0.862472
  0
VERTEX
  8
PLAN_1
  6
CONTINUOUS
 10
-1.506173
 20
0.858445
  0
VERTEX
  8
PLAN_1
  6
CONTINUOUS
 10
-1.504661
 20
0.854413
  0
VERTEX
  8
PLAN_1
  6
CONTINUOUS
 10
-1.502646
 20
0.849878
  0
VERTEX
  8
PLAN_1
  6
CONTINUOUS
 10
-1.499626
 20
0.845343
  0
VERTEX
  8
PLAN_1
  6
CONTINUOUS
 10
-1.495091
 20
0.840307
  0
SEQEND
  8
0
  0
POLYLINE
  8
PLAN_1
  6
CONTINUOUS
 66
     1
 40
0.008563
 41
0.008563
  0
VERTEX
  8
PLAN_1
  6
CONTINUOUS
 10
-1.495091
 20
0.840307
  0
VERTEX
  8
PLAN_1
  6
CONTINUOUS
 10
-1.206902
 20
0.840307
  0
SEQEND
  8
0
  0
POLYLINE
  8
PLAN_1
  6
CONTINUOUS
 66
     1
 40
0.008563
 41
0.008563
  0
VERTEX
  8
PLAN_1
  6
CONTINUOUS
 10
-1.206902
 20
0.840307
  0
VERTEX
  8
PLAN_1
  6
CONTINUOUS
 10
-1.202370
 20
0.844839
  0
VERTEX
  8
PLAN_1
  6
CONTINUOUS
 10
-1.198843
 20
0.849374
  0
VERTEX
  8
PLAN_1
  6
CONTINUOUS
 10
-1.196323
 20
0.853909
  0
VERTEX
  8
PLAN_1
  6
CONTINUOUS
 10
-1.194811
 20
0.857941
  0
VERTEX
  8
PLAN_1
  6
CONTINUOUS
 10
-1.194307
 20
0.861969
  0
VERTEX
  8
PLAN_1
  6
CONTINUOUS
 10
-1.194307
 20
0.866000
  0
VERTEX
  8
PLAN_1
  6
CONTINUOUS
 10
-1.194811
 20
0.869528
  0
VERTEX
  8
PLAN_1
  6
CONTINUOUS
 10
-1.196323
 20
0.873055
  0
SEQEND
  8
0
  0
POLYLINE
  8
PLAN_1
  6
CONTINUOUS
 66
     1
 40
0.008563
 41
0.008563
  0
VERTEX
  8
PLAN_1
  6
CONTINUOUS
 10
-1.206902
 20
2.141681
  0
VERTEX
  8
PLAN_1
  6
CONTINUOUS
 10
-1.261819
 20
3.928748
  0
SEQEND
  8
0
  0
POLYLINE
  8
PLAN_1
  6
CONTINUOUS
 66
     1
 40
0.008563
 41
0.008563
  0
VERTEX
  8
PLAN_1
  6
CONTINUOUS
 10
-1.261819
 20
3.928748
  0
VERTEX
  8
PLAN_1
  6
CONTINUOUS
 10
-1.271394
 20
3.947390
  0
VERTEX
  8
PLAN_1
  6
CONTINUOUS
 10
-1.280965
 20
3.964016
  0
VERTEX
  8
PLAN_1
  6
CONTINUOUS
 10
-1.291039
 20
3.978122
  0
VERTEX
  8
PLAN_1
  6
CONTINUOUS
 10
-1.300614
 20
3.989709
  0
VERTEX
  8
PLAN_1
  6
CONTINUOUS
 10
-1.310689
 20
3.999787
  0
VERTEX
  8
PLAN_1
  6
CONTINUOUS
 10
-1.320264
 20
4.007846
  0
VERTEX
  8
PLAN_1
  6
CONTINUOUS
 10
-1.329835
 20
4.013894
  0
VERTEX
  8
PLAN_1
  6
CONTINUOUS
 10
-1.338906
 20
4.018429
  0
VERTEX
  8
PLAN_1
  6
CONTINUOUS
 10
-1.348476
 20
4.021449
  0
VERTEX
  8
PLAN_1
  6
CONTINUOUS
 10
-1.357547
 20
4.022961
  0
VERTEX
  8
PLAN_1
  6
CONTINUOUS
 10
-1.366614
 20
4.022961
  0
VERTEX
  8
PLAN_1
  6
CONTINUOUS
 10
-1.375181
 20
4.021953
  0
VERTEX
  8
PLAN_1
  6
CONTINUOUS
 10
-1.383744
 20
4.019937
  0
VERTEX
  8
PLAN_1
  6
CONTINUOUS
 10
-1.392311
 20
4.016413
  0
VERTEX
  8
PLAN_1
  6
CONTINUOUS
 10
-1.400370
 20
4.012382
  0
VERTEX
  8
PLAN_1
  6
CONTINUOUS
 10
-1.408433
 20
4.007846
  0
VERTEX
  8
PLAN_1
  6
CONTINUOUS
 10
-1.415484
 20
4.002303
  0
VERTEX
  8
PLAN_1
  6
CONTINUOUS
 10
-1.423043
 20
3.996764
  0
VERTEX
  8
PLAN_1
  6
CONTINUOUS
 10
-1.429594
 20
3.990213
  0
VERTEX
  8
PLAN_1
  6
CONTINUOUS
 10
-1.436142
 20
3.983665
  0
VERTEX
  8
PLAN_1
  6
CONTINUOUS
 10
-1.442189
 20
3.977114
  0
VERTEX
  8
PLAN_1
  6
CONTINUOUS
 10
-1.447732
 20
3.970563
  0
VERTEX
  8
PLAN_1
  6
CONTINUOUS
 10
-1.452768
 20
3.963512
  0
VERTEX
  8
PLAN_1
  6
CONTINUOUS
 10
-1.457807
 20
3.957465
  0
VERTEX
  8
PLAN_1
  6
CONTINUOUS
 10
-1.471913
 20
3.935799
  0
VERTEX
  8
PLAN_1
  6
CONTINUOUS
 10
-1.476953
 20
3.926732
  0
SEQEND
  8
0
  0
POLYLINE
  8
PLAN_1
  6
CONTINUOUS
 66
     1
 40
0.008563
 41
0.008563
  0
VERTEX
  8
PLAN_1
  6
CONTINUOUS
 10
-1.476953
 20
3.926732
  0
VERTEX
  8
PLAN_1
  6
CONTINUOUS
 10
-1.496602
 20
2.141681
  0
SEQEND
  8
0
  0
POLYLINE
  8
PLAN_1
  6
CONTINUOUS
 66
     1
 40
0.007051
 41
0.007051
  0
VERTEX
  8
PLAN_1
  6
CONTINUOUS
 10
-1.207909
 20
2.094827
  0
VERTEX
  8
PLAN_1
  6
CONTINUOUS
 10
-1.202874
 20
2.099362
  0
VERTEX
  8
PLAN_1
  6
CONTINUOUS
 10
-1.199346
 20
2.103898
  0
VERTEX
  8
PLAN_1
  6
CONTINUOUS
 10
-1.196827
 20
2.108429
  0
VERTEX
  8
PLAN_1
  6
CONTINUOUS
 10
-1.195315
 20
2.112461
  0
VERTEX
  8
PLAN_1
  6
CONTINUOUS
 10
-1.194811
 20
2.116492
  0
VERTEX
  8
PLAN_1
  6
CONTINUOUS
 10
-1.194811
 20
2.120524
  0
VERTEX
  8
PLAN_1
  6
CONTINUOUS
 10
-1.195315
 20
2.124047
  0
VERTEX
  8
PLAN_1
  6
CONTINUOUS
 10
-1.196827
 20
2.127575
  0
VERTEX
  8
PLAN_1
  6
CONTINUOUS
 10
-1.198339
 20
2.130598
  0
VERTEX
  8
PLAN_1
  6
CONTINUOUS
 10
-1.199850
 20
2.133118
  0
VERTEX
  8
PLAN_1
  6
CONTINUOUS
 10
-1.201866
 20
2.135638
  0
VERTEX
  8
PLAN_1
  6
CONTINUOUS
 10
-1.203878
 20
2.137654
  0
VERTEX
  8
PLAN_1
  6
CONTINUOUS
 10
-1.206398
 20
2.140677
  0
VERTEX
  8
PLAN_1
  6
CONTINUOUS
 10
-1.207909
 20
2.141681
  0
SEQEND
  8
0
  0
POLYLINE
  8
PLAN_1
  6
CONTINUOUS
 66
     1
 40
0.007051
 41
0.007051
  0
VERTEX
  8
PLAN_1
  6
CONTINUOUS
 10
-1.207909
 20
2.141681
  0
VERTEX
  8
PLAN_1
  6
CONTINUOUS
 10
-1.495594
 20
2.141681
  0
SEQEND
  8
0
  0
POLYLINE
  8
PLAN_1
  6
CONTINUOUS
 66
     1
 40
0.007051
 41
0.007051
  0
VERTEX
  8
PLAN_1
  6
CONTINUOUS
 10
-1.495594
 20
2.141681
  0
VERTEX
  8
PLAN_1
  6
CONTINUOUS
 10
-1.497106
 20
2.140677
  0
VERTEX
  8
PLAN_1
  6
CONTINUOUS
 10
-1.499626
 20
2.138157
  0
VERTEX
  8
PLAN_1
  6
CONTINUOUS
 10
-1.502646
 20
2.133622
  0
VERTEX
  8
PLAN_1
  6
CONTINUOUS
 10
-1.505669
 20
2.128079
  0
VERTEX
  8
PLAN_1
  6
CONTINUOUS
 10
-1.506677
 20
2.124551
  0
VERTEX
  8
PLAN_1
  6
CONTINUOUS
 10
-1.507181
 20
2.121028
  0
VERTEX
  8
PLAN_1
  6
CONTINUOUS
 10
-1.507181
 20
2.117500
  0
VERTEX
  8
PLAN_1
  6
CONTINUOUS
 10
-1.506677
 20
2.112965
  0
VERTEX
  8
PLAN_1
  6
CONTINUOUS
 10
-1.505669
 20
2.108933
  0
VERTEX
  8
PLAN_1
  6
CONTINUOUS
 10
-1.503150
 20
2.104402
  0
VERTEX
  8
PLAN_1
  6
CONTINUOUS
 10
-1.500130
 20
2.099866
  0
VERTEX
  8
PLAN_1
  6
CONTINUOUS
 10
-1.495594
 20
2.094827
  0
SEQEND
  8
0
  0
POLYLINE
  8
PLAN_1
  6
CONTINUOUS
 66
     1
 40
0.007051
 41
0.007051
  0
VERTEX
  8
PLAN_1
  6
CONTINUOUS
 10
-1.495594
 20
2.094827
  0
VERTEX
  8
PLAN_1
  6
CONTINUOUS
 10
-1.207909
 20
2.094827
  0
SEQEND
  8
0
  0
POLYLINE
  8
PLAN_1
  6
CONTINUOUS
 66
     1
 40
0.007051
 41
0.007051
  0
VERTEX
  8
PLAN_1
  6
CONTINUOUS
 10
-1.207406
 20
2.048476
  0
VERTEX
  8
PLAN_1
  6
CONTINUOUS
 10
-1.202370
 20
2.053012
  0
VERTEX
  8
PLAN_1
  6
CONTINUOUS
 10
-1.198843
 20
2.057543
  0
VERTEX
  8
PLAN_1
  6
CONTINUOUS
 10
-1.196323
 20
2.062079
  0
VERTEX
  8
PLAN_1
  6
CONTINUOUS
 10
-1.194811
 20
2.066110
  0
VERTEX
  8
PLAN_1
  6
CONTINUOUS
 10
-1.194307
 20
2.070142
  0
VERTEX
  8
PLAN_1
  6
CONTINUOUS
 10
-1.194307
 20
2.074169
  0
VERTEX
  8
PLAN_1
  6
CONTINUOUS
 10
-1.195315
 20
2.077697
  0
VERTEX
  8
PLAN_1
  6
CONTINUOUS
 10
-1.196323
 20
2.081224
  0
VERTEX
  8
PLAN_1
  6
CONTINUOUS
 10
-1.197835
 20
2.084248
  0
VERTEX
  8
PLAN_1
  6
CONTINUOUS
 10
-1.199850
 20
2.086768
  0
VERTEX
  8
PLAN_1
  6
CONTINUOUS
 10
-1.201362
 20
2.089283
  0
VERTEX
  8
PLAN_1
  6
CONTINUOUS
 10
-1.203374
 20
2.091299
  0
VERTEX
  8
PLAN_1
  6
CONTINUOUS
 10
-1.206398
 20
2.094323
  0
VERTEX
  8
PLAN_1
  6
CONTINUOUS
 10
-1.207406
 20
2.095331
  0
SEQEND
  8
0
  0
POLYLINE
  8
PLAN_1
  6
CONTINUOUS
 66
     1
 40
0.007051
 41
0.007051
  0
VERTEX
  8
PLAN_1
  6
CONTINUOUS
 10
-1.207406
 20
2.095331
  0
VERTEX
  8
PLAN_1
  6
CONTINUOUS
 10
-1.495594
 20
2.095331
  0
SEQEND
  8
0
  0
POLYLINE
  8
PLAN_1
  6
CONTINUOUS
 66
     1
 40
0.007051
 41
0.007051
  0
VERTEX
  8
PLAN_1
  6
CONTINUOUS
 10
-1.495594
 20
2.095331
  0
VERTEX
  8
PLAN_1
  6
CONTINUOUS
 10
-1.496602
 20
2.094323
  0
VERTEX
  8
PLAN_1
  6
CONTINUOUS
 10
-1.499122
 20
2.091803
  0
VERTEX
  8
PLAN_1
  6
CONTINUOUS
 10
-1.502142
 20
2.087272
  0
VERTEX
  8
PLAN_1
  6
CONTINUOUS
 10
-1.505165
 20
2.081728
  0
VERTEX
  8
PLAN_1
  6
CONTINUOUS
 10
-1.506173
 20
2.078201
  0
VERTEX
  8
PLAN_1
  6
CONTINUOUS
 10
-1.506677
 20
2.074673
  0
VERTEX
  8
PLAN_1
  6
CONTINUOUS
 10
-1.506677
 20
2.071150
  0
VERTEX
  8
PLAN_1
  6
CONTINUOUS
 10
-1.506173
 20
2.066614
  0
VERTEX
  8
PLAN_1
  6
CONTINUOUS
 10
-1.505165
 20
2.062583
  0
VERTEX
  8
PLAN_1
  6
CONTINUOUS
 10
-1.502646
 20
2.058047
  0
VERTEX
  8
PLAN_1
  6
CONTINUOUS
 10
-1.499626
 20
2.053516
  0
VERTEX
  8
PLAN_1
  6
CONTINUOUS
 10
-1.495594
 20
2.048476
  0
SEQEND
  8
0
  0
POLYLINE
  8
PLAN_1
  6
CONTINUOUS
 66
     1
 40
0.007051
 41
0.007051
  0
VERTEX
  8
PLAN_1
  6
CONTINUOUS
 10
-1.495594
 20
2.048476
  0
VERTEX
  8
PLAN_1
  6
CONTINUOUS
 10
-1.207406
 20
2.048476
  0
SEQEND
  8
0
  0
POLYLINE
  8
PLAN_1
  6
CONTINUOUS
 66
     1
 40
0.007051
 41
0.007051
  0
VERTEX
  8
PLAN_1
  6
CONTINUOUS
 10
-1.207406
 20
2.001618
  0
VERTEX
  8
PLAN_1
  6
CONTINUOUS
 10
-1.202874
 20
2.006154
  0
VERTEX
  8
PLAN_1
  6
CONTINUOUS
 10
-1.199346
 20
2.010185
  0
VERTEX
  8
PLAN_1
  6
CONTINUOUS
 10
-1.196827
 20
2.014720
  0
VERTEX
  8
PLAN_1
  6
CONTINUOUS
 10
-1.195315
 20
2.019252
  0
VERTEX
  8
PLAN_1
  6
CONTINUOUS
 10
-1.194307
 20
2.023283
  0
VERTEX
  8
PLAN_1
  6
CONTINUOUS
 10
-1.194811
 20
2.026811
  0
VERTEX
  8
PLAN_1
  6
CONTINUOUS
 10
-1.195315
 20
2.030339
  0
VERTEX
  8
PLAN_1
  6
CONTINUOUS
 10
-1.196323
 20
2.033866
  0
VERTEX
  8
PLAN_1
  6
CONTINUOUS
 10
-1.197835
 20
2.036886
  0
VERTEX
  8
PLAN_1
  6
CONTINUOUS
 10
-1.199850
 20
2.039909
  0
VERTEX
  8
PLAN_1
  6
CONTINUOUS
 10
-1.201866
 20
2.042429
  0
VERTEX
  8
PLAN_1
  6
CONTINUOUS
 10
-1.203374
 20
2.044445
  0
VERTEX
  8
PLAN_1
  6
CONTINUOUS
 10
-1.206398
 20
2.047469
  0
VERTEX
  8
PLAN_1
  6
CONTINUOUS
 10
-1.207406
 20
2.048476
  0
SEQEND
  8
0
  0
POLYLINE
  8
PLAN_1
  6
CONTINUOUS
 66
     1
 40
0.007051
 41
0.007051
  0
VERTEX
  8
PLAN_1
  6
CONTINUOUS
 10
-1.207406
 20
2.048476
  0
VERTEX
  8
PLAN_1
  6
CONTINUOUS
 10
-1.495594
 20
2.048476
  0
SEQEND
  8
0
  0
POLYLINE
  8
PLAN_1
  6
CONTINUOUS
 66
     1
 40
0.007051
 41
0.007051
  0
VERTEX
  8
PLAN_1
  6
CONTINUOUS
 10
-1.495594
 20
2.048476
  0
VERTEX
  8
PLAN_1
  6
CONTINUOUS
 10
-1.496602
 20
2.047469
  0
VERTEX
  8
PLAN_1
  6
CONTINUOUS
 10
-1.499122
 20
2.044445
  0
VERTEX
  8
PLAN_1
  6
CONTINUOUS
 10
-1.502646
 20
2.040413
  0
VERTEX
  8
PLAN_1
  6
CONTINUOUS
 10
-1.505165
 20
2.034874
  0
VERTEX
  8
PLAN_1
  6
CONTINUOUS
 10
-1.506173
 20
2.031346
  0
VERTEX
  8
PLAN_1
  6
CONTINUOUS
 10
-1.507181
 20
2.027819
  0
VERTEX
  8
PLAN_1
  6
CONTINUOUS
 10
-1.507181
 20
2.023787
  0
VERTEX
  8
PLAN_1
  6
CONTINUOUS
 10
-1.506677
 20
2.019756
  0
VERTEX
  8
PLAN_1
  6
CONTINUOUS
 10
-1.505165
 20
2.015224
  0
VERTEX
  8
PLAN_1
  6
CONTINUOUS
 10
-1.503150
 20
2.010689
  0
VERTEX
  8
PLAN_1
  6
CONTINUOUS
 10
-1.499626
 20
2.006154
  0
VERTEX
  8
PLAN_1
  6
CONTINUOUS
 10
-1.495594
 20
2.001618
  0
SEQEND
  8
0
  0
POLYLINE
  8
PLAN_1
  6
CONTINUOUS
 66
     1
 40
0.007051
 41
0.007051
  0
VERTEX
  8
PLAN_1
  6
CONTINUOUS
 10
-1.495594
 20
2.001618
  0
VERTEX
  8
PLAN_1
  6
CONTINUOUS
 10
-1.207406
 20
2.001618
  0
SEQEND
  8
0
  0
POLYLINE
  8
PLAN_1
  6
CONTINUOUS
 66
     1
 40
0.007051
 41
0.007051
  0
VERTEX
  8
PLAN_1
  6
CONTINUOUS
 10
-1.206902
 20
1.955268
  0
VERTEX
  8
PLAN_1
  6
CONTINUOUS
 10
-1.202370
 20
1.959803
  0
VERTEX
  8
PLAN_1
  6
CONTINUOUS
 10
-1.198843
 20
1.963835
  0
VERTEX
  8
PLAN_1
  6
CONTINUOUS
 10
-1.196323
 20
1.968366
  0
VERTEX
  8
PLAN_1
  6
CONTINUOUS
 10
-1.194811
 20
1.972398
  0
VERTEX
  8
PLAN_1
  6
CONTINUOUS
 10
-1.194307
 20
1.976429
  0
VERTEX
  8
PLAN_1
  6
CONTINUOUS
 10
-1.194307
 20
1.980461
  0
VERTEX
  8
PLAN_1
  6
CONTINUOUS
 10
-1.194811
 20
1.983984
  0
VERTEX
  8
PLAN_1
  6
CONTINUOUS
 10
-1.196323
 20
1.987512
  0
VERTEX
  8
PLAN_1
  6
CONTINUOUS
 10
-1.197835
 20
1.990535
  0
VERTEX
  8
PLAN_1
  6
CONTINUOUS
 10
-1.199346
 20
1.993559
  0
VERTEX
  8
PLAN_1
  6
CONTINUOUS
 10
-1.201362
 20
1.996079
  0
VERTEX
  8
PLAN_1
  6
CONTINUOUS
 10
-1.202874
 20
1.998094
  0
VERTEX
  8
PLAN_1
  6
CONTINUOUS
 10
-1.205894
 20
2.001114
  0
VERTEX
  8
PLAN_1
  6
CONTINUOUS
 10
-1.206902
 20
2.002122
  0
SEQEND
  8
0
  0
POLYLINE
  8
PLAN_1
  6
CONTINUOUS
 66
     1
 40
0.007051
 41
0.007051
  0
VERTEX
  8
PLAN_1
  6
CONTINUOUS
 10
-1.206902
 20
2.002122
  0
VERTEX
  8
PLAN_1
  6
CONTINUOUS
 10
-1.495091
 20
2.002122
  0
SEQEND
  8
0
  0
POLYLINE
  8
PLAN_1
  6
CONTINUOUS
 66
     1
 40
0.007051
 41
0.007051
  0
VERTEX
  8
PLAN_1
  6
CONTINUOUS
 10
-1.495091
 20
2.002122
  0
VERTEX
  8
PLAN_1
  6
CONTINUOUS
 10
-1.496098
 20
2.001114
  0
VERTEX
  8
PLAN_1
  6
CONTINUOUS
 10
-1.498618
 20
1.998094
  0
VERTEX
  8
PLAN_1
  6
CONTINUOUS
 10
-1.502142
 20
1.994063
  0
VERTEX
  8
PLAN_1
  6
CONTINUOUS
 10
-1.504661
 20
1.988016
  0
VERTEX
  8
PLAN_1
  6
CONTINUOUS
 10
-1.506173
 20
1.984992
  0
VERTEX
  8
PLAN_1
  6
CONTINUOUS
 10
-1.506677
 20
1.981469
  0
VERTEX
  8
PLAN_1
  6
CONTINUOUS
 10
-1.506677
 20
1.977437
  0
VERTEX
  8
PLAN_1
  6
CONTINUOUS
 10
-1.506173
 20
1.973406
  0
VERTEX
  8
PLAN_1
  6
CONTINUOUS
 10
-1.504661
 20
1.968870
  0
VERTEX
  8
PLAN_1
  6
CONTINUOUS
 10
-1.502646
 20
1.964339
  0
VERTEX
  8
PLAN_1
  6
CONTINUOUS
 10
-1.499626
 20
1.959803
  0
VERTEX
  8
PLAN_1
  6
CONTINUOUS
 10
-1.495091
 20
1.955268
  0
SEQEND
  8
0
  0
POLYLINE
  8
PLAN_1
  6
CONTINUOUS
 66
     1
 40
0.007051
 41
0.007051
  0
VERTEX
  8
PLAN_1
  6
CONTINUOUS
 10
-1.495091
 20
1.955268
  0
VERTEX
  8
PLAN_1
  6
CONTINUOUS
 10
-1.206902
 20
1.955268
  0
SEQEND
  8
0
  0
POLYLINE
  8
PLAN_1
  6
CONTINUOUS
 66
     1
 40
0.007051
 41
0.007051
  0
VERTEX
  8
PLAN_1
  6
CONTINUOUS
 10
-1.207406
 20
1.908413
  0
VERTEX
  8
PLAN_1
  6
CONTINUOUS
 10
-1.202874
 20
1.912949
  0
VERTEX
  8
PLAN_1
  6
CONTINUOUS
 10
-1.199346
 20
1.917480
  0
VERTEX
  8
PLAN_1
  6
CONTINUOUS
 10
-1.196827
 20
1.922016
  0
VERTEX
  8
PLAN_1
  6
CONTINUOUS
 10
-1.195315
 20
1.926047
  0
VERTEX
  8
PLAN_1
  6
CONTINUOUS
 10
-1.194307
 20
1.930079
  0
VERTEX
  8
PLAN_1
  6
CONTINUOUS
 10
-1.194811
 20
1.934106
  0
VERTEX
  8
PLAN_1
  6
CONTINUOUS
 10
-1.195315
 20
1.937634
  0
VERTEX
  8
PLAN_1
  6
CONTINUOUS
 10
-1.196323
 20
1.941161
  0
VERTEX
  8
PLAN_1
  6
CONTINUOUS
 10
-1.197835
 20
1.944185
  0
VERTEX
  8
PLAN_1
  6
CONTINUOUS
 10
-1.199850
 20
1.947209
  0
VERTEX
  8
PLAN_1
  6
CONTINUOUS
 10
-1.201866
 20
1.949724
  0
VERTEX
  8
PLAN_1
  6
CONTINUOUS
 10
-1.203374
 20
1.951740
  0
VERTEX
  8
PLAN_1
  6
CONTINUOUS
 10
-1.206398
 20
1.954260
  0
VERTEX
  8
PLAN_1
  6
CONTINUOUS
 10
-1.207406
 20
1.955268
  0
SEQEND
  8
0
  0
POLYLINE
  8
PLAN_1
  6
CONTINUOUS
 66
     1
 40
0.007051
 41
0.007051
  0
VERTEX
  8
PLAN_1
  6
CONTINUOUS
 10
-1.207406
 20
1.955268
  0
VERTEX
  8
PLAN_1
  6
CONTINUOUS
 10
-1.495594
 20
1.955268
  0
SEQEND
  8
0
  0
POLYLINE
  8
PLAN_1
  6
CONTINUOUS
 66
     1
 40
0.007051
 41
0.007051
  0
VERTEX
  8
PLAN_1
  6
CONTINUOUS
 10
-1.495594
 20
1.955268
  0
VERTEX
  8
PLAN_1
  6
CONTINUOUS
 10
-1.496602
 20
1.954764
  0
VERTEX
  8
PLAN_1
  6
CONTINUOUS
 10
-1.499122
 20
1.951740
  0
VERTEX
  8
PLAN_1
  6
CONTINUOUS
 10
-1.502646
 20
1.947713
  0
VERTEX
  8
PLAN_1
  6
CONTINUOUS
 10
-1.505165
 20
1.941665
  0
VERTEX
  8
PLAN_1
  6
CONTINUOUS
 10
-1.506173
 20
1.938642
  0
VERTEX
  8
PLAN_1
  6
CONTINUOUS
 10
-1.507181
 20
1.935114
  0
VERTEX
  8
PLAN_1
  6
CONTINUOUS
 10
-1.507181
 20
1.931083
  0
VERTEX
  8
PLAN_1
  6
CONTINUOUS
 10
-1.506677
 20
1.927055
  0
VERTEX
  8
PLAN_1
  6
CONTINUOUS
 10
-1.505165
 20
1.922520
  0
VERTEX
  8
PLAN_1
  6
CONTINUOUS
 10
-1.503150
 20
1.917984
  0
VERTEX
  8
PLAN_1
  6
CONTINUOUS
 10
-1.499626
 20
1.913449
  0
VERTEX
  8
PLAN_1
  6
CONTINUOUS
 10
-1.495594
 20
1.908413
  0
SEQEND
  8
0
  0
POLYLINE
  8
PLAN_1
  6
CONTINUOUS
 66
     1
 40
0.007051
 41
0.007051
  0
VERTEX
  8
PLAN_1
  6
CONTINUOUS
 10
-1.495594
 20
1.908413
  0
VERTEX
  8
PLAN_1
  6
CONTINUOUS
 10
-1.207406
 20
1.908413
  0
SEQEND
  8
0
  0
POLYLINE
  8
PLAN_1
  6
CONTINUOUS
 66
     1
 40
0.007051
 41
0.007051
  0
VERTEX
  8
PLAN_1
  6
CONTINUOUS
 10
-1.206902
 20
1.862059
  0
VERTEX
  8
PLAN_1
  6
CONTINUOUS
 10
-1.202370
 20
1.866594
  0
VERTEX
  8
PLAN_1
  6
CONTINUOUS
 10
-1.198843
 20
1.871130
  0
VERTEX
  8
PLAN_1
  6
CONTINUOUS
 10
-1.196323
 20
1.875665
  0
VERTEX
  8
PLAN_1
  6
CONTINUOUS
 10
-1.194811
 20
1.879693
  0
VERTEX
  8
PLAN_1
  6
CONTINUOUS
 10
-1.194307
 20
1.883724
  0
VERTEX
  8
PLAN_1
  6
CONTINUOUS
 10
-1.194307
 20
1.887756
  0
VERTEX
  8
PLAN_1
  6
CONTINUOUS
 10
-1.194811
 20
1.891283
  0
VERTEX
  8
PLAN_1
  6
CONTINUOUS
 10
-1.196323
 20
1.894811
  0
VERTEX
  8
PLAN_1
  6
CONTINUOUS
 10
-1.197835
 20
1.897831
  0
VERTEX
  8
PLAN_1
  6
CONTINUOUS
 10
-1.199346
 20
1.900854
  0
VERTEX
  8
PLAN_1
  6
CONTINUOUS
 10
-1.201362
 20
1.902870
  0
VERTEX
  8
PLAN_1
  6
CONTINUOUS
 10
-1.202874
 20
1.905390
  0
VERTEX
  8
PLAN_1
  6
CONTINUOUS
 10
-1.205894
 20
1.907909
  0
VERTEX
  8
PLAN_1
  6
CONTINUOUS
 10
-1.206902
 20
1.908917
  0
SEQEND
  8
0
  0
POLYLINE
  8
PLAN_1
  6
CONTINUOUS
 66
     1
 40
0.007051
 41
0.007051
  0
VERTEX
  8
PLAN_1
  6
CONTINUOUS
 10
-1.206902
 20
1.908917
  0
VERTEX
  8
PLAN_1
  6
CONTINUOUS
 10
-1.495091
 20
1.908917
  0
SEQEND
  8
0
  0
POLYLINE
  8
PLAN_1
  6
CONTINUOUS
 66
     1
 40
0.007051
 41
0.007051
  0
VERTEX
  8
PLAN_1
  6
CONTINUOUS
 10
-1.495091
 20
1.908917
  0
VERTEX
  8
PLAN_1
  6
CONTINUOUS
 10
-1.496098
 20
1.907909
  0
VERTEX
  8
PLAN_1
  6
CONTINUOUS
 10
-1.498618
 20
1.905390
  0
VERTEX
  8
PLAN_1
  6
CONTINUOUS
 10
-1.502142
 20
1.900854
  0
VERTEX
  8
PLAN_1
  6
CONTINUOUS
 10
-1.504661
 20
1.895315
  0
VERTEX
  8
PLAN_1
  6
CONTINUOUS
 10
-1.506173
 20
1.892291
  0
VERTEX
  8
PLAN_1
  6
CONTINUOUS
 10
-1.506677
 20
1.888260
  0
VERTEX
  8
PLAN_1
  6
CONTINUOUS
 10
-1.506677
 20
1.884732
  0
VERTEX
  8
PLAN_1
  6
CONTINUOUS
 10
-1.506173
 20
1.880701
  0
VERTEX
  8
PLAN_1
  6
CONTINUOUS
 10
-1.504661
 20
1.876169
  0
VERTEX
  8
PLAN_1
  6
CONTINUOUS
 10
-1.502646
 20
1.871634
  0
VERTEX
  8
PLAN_1
  6
CONTINUOUS
 10
-1.499626
 20
1.867098
  0
VERTEX
  8
PLAN_1
  6
CONTINUOUS
 10
-1.495091
 20
1.862059
  0
SEQEND
  8
0
  0
POLYLINE
  8
PLAN_1
  6
CONTINUOUS
 66
     1
 40
0.007051
 41
0.007051
  0
VERTEX
  8
PLAN_1
  6
CONTINUOUS
 10
-1.495091
 20
1.862059
  0
VERTEX
  8
PLAN_1
  6
CONTINUOUS
 10
-1.206902
 20
1.862059
  0
SEQEND
  8
0
  0
POLYLINE
  8
PLAN_1
  6
CONTINUOUS
 66
     1
 40
0.007051
 41
0.007051
  0
VERTEX
  8
PLAN_1
  6
CONTINUOUS
 10
-1.207406
 20
1.815709
  0
VERTEX
  8
PLAN_1
  6
CONTINUOUS
 10
-1.202874
 20
1.820244
  0
VERTEX
  8
PLAN_1
  6
CONTINUOUS
 10
-1.199346
 20
1.824780
  0
VERTEX
  8
PLAN_1
  6
CONTINUOUS
 10
-1.196827
 20
1.829311
  0
VERTEX
  8
PLAN_1
  6
CONTINUOUS
 10
-1.195315
 20
1.833343
  0
VERTEX
  8
PLAN_1
  6
CONTINUOUS
 10
-1.194307
 20
1.837374
  0
VERTEX
  8
PLAN_1
  6
CONTINUOUS
 10
-1.194811
 20
1.841406
  0
VERTEX
  8
PLAN_1
  6
CONTINUOUS
 10
-1.195315
 20
1.844929
  0
VERTEX
  8
PLAN_1
  6
CONTINUOUS
 10
-1.196323
 20
1.848457
  0
VERTEX
  8
PLAN_1
  6
CONTINUOUS
 10
-1.197835
 20
1.851480
  0
VERTEX
  8
PLAN_1
  6
CONTINUOUS
 10
-1.199850
 20
1.854000
  0
VERTEX
  8
PLAN_1
  6
CONTINUOUS
 10
-1.201866
 20
1.856520
  0
VERTEX
  8
PLAN_1
  6
CONTINUOUS
 10
-1.203374
 20
1.858535
  0
VERTEX
  8
PLAN_1
  6
CONTINUOUS
 10
-1.206398
 20
1.861555
  0
VERTEX
  8
PLAN_1
  6
CONTINUOUS
 10
-1.207406
 20
1.862563
  0
SEQEND
  8
0
  0
POLYLINE
  8
PLAN_1
  6
CONTINUOUS
 66
     1
 40
0.007051
 41
0.007051
  0
VERTEX
  8
PLAN_1
  6
CONTINUOUS
 10
-1.207406
 20
1.862563
  0
VERTEX
  8
PLAN_1
  6
CONTINUOUS
 10
-1.495594
 20
1.862563
  0
SEQEND
  8
0
  0
POLYLINE
  8
PLAN_1
  6
CONTINUOUS
 66
     1
 40
0.007051
 41
0.007051
  0
VERTEX
  8
PLAN_1
  6
CONTINUOUS
 10
-1.495594
 20
1.862563
  0
VERTEX
  8
PLAN_1
  6
CONTINUOUS
 10
-1.496602
 20
1.861555
  0
VERTEX
  8
PLAN_1
  6
CONTINUOUS
 10
-1.499122
 20
1.859039
  0
VERTEX
  8
PLAN_1
  6
CONTINUOUS
 10
-1.502646
 20
1.854504
  0
VERTEX
  8
PLAN_1
  6
CONTINUOUS
 10
-1.505165
 20
1.848961
  0
VERTEX
  8
PLAN_1
  6
CONTINUOUS
 10
-1.506173
 20
1.845433
  0
VERTEX
  8
PLAN_1
  6
CONTINUOUS
 10
-1.507181
 20
1.841909
  0
VERTEX
  8
PLAN_1
  6
CONTINUOUS
 10
-1.507181
 20
1.838382
  0
VERTEX
  8
PLAN_1
  6
CONTINUOUS
 10
-1.506677
 20
1.834350
  0
VERTEX
  8
PLAN_1
  6
CONTINUOUS
 10
-1.505165
 20
1.829815
  0
VERTEX
  8
PLAN_1
  6
CONTINUOUS
 10
-1.503150
 20
1.825283
  0
VERTEX
  8
PLAN_1
  6
CONTINUOUS
 10
-1.499626
 20
1.820748
  0
VERTEX
  8
PLAN_1
  6
CONTINUOUS
 10
-1.495594
 20
1.815709
  0
SEQEND
  8
0
  0
POLYLINE
  8
PLAN_1
  6
CONTINUOUS
 66
     1
 40
0.007051
 41
0.007051
  0
VERTEX
  8
PLAN_1
  6
CONTINUOUS
 10
-1.495594
 20
1.815709
  0
VERTEX
  8
PLAN_1
  6
CONTINUOUS
 10
-1.207406
 20
1.815709
  0
SEQEND
  8
0
  0
POLYLINE
  8
PLAN_1
  6
CONTINUOUS
 66
     1
 40
0.007051
 41
0.007051
  0
VERTEX
  8
PLAN_1
  6
CONTINUOUS
 10
-1.206902
 20
1.769358
  0
VERTEX
  8
PLAN_1
  6
CONTINUOUS
 10
-1.202370
 20
1.773890
  0
VERTEX
  8
PLAN_1
  6
CONTINUOUS
 10
-1.198843
 20
1.778425
  0
VERTEX
  8
PLAN_1
  6
CONTINUOUS
 10
-1.196323
 20
1.782961
  0
VERTEX
  8
PLAN_1
  6
CONTINUOUS
 10
-1.194811
 20
1.786992
  0
VERTEX
  8
PLAN_1
  6
CONTINUOUS
 10
-1.194307
 20
1.791020
  0
VERTEX
  8
PLAN_1
  6
CONTINUOUS
 10
-1.194307
 20
1.795051
  0
VERTEX
  8
PLAN_1
  6
CONTINUOUS
 10
-1.194811
 20
1.798579
  0
VERTEX
  8
PLAN_1
  6
CONTINUOUS
 10
-1.196323
 20
1.802106
  0
VERTEX
  8
PLAN_1
  6
CONTINUOUS
 10
-1.197835
 20
1.805130
  0
VERTEX
  8
PLAN_1
  6
CONTINUOUS
 10
-1.199346
 20
1.807650
  0
VERTEX
  8
PLAN_1
  6
CONTINUOUS
 10
-1.201362
 20
1.810165
  0
VERTEX
  8
PLAN_1
  6
CONTINUOUS
 10
-1.202874
 20
1.812181
  0
VERTEX
  8
PLAN_1
  6
CONTINUOUS
 10
-1.205894
 20
1.815205
  0
VERTEX
  8
PLAN_1
  6
CONTINUOUS
 10
-1.206902
 20
1.816213
  0
SEQEND
  8
0
  0
POLYLINE
  8
PLAN_1
  6
CONTINUOUS
 66
     1
 40
0.007051
 41
0.007051
  0
VERTEX
  8
PLAN_1
  6
CONTINUOUS
 10
-1.206902
 20
1.816213
  0
VERTEX
  8
PLAN_1
  6
CONTINUOUS
 10
-1.495091
 20
1.816213
  0
SEQEND
  8
0
  0
POLYLINE
  8
PLAN_1
  6
CONTINUOUS
 66
     1
 40
0.007051
 41
0.007051
  0
VERTEX
  8
PLAN_1
  6
CONTINUOUS
 10
-1.495091
 20
1.816213
  0
VERTEX
  8
PLAN_1
  6
CONTINUOUS
 10
-1.496098
 20
1.815205
  0
VERTEX
  8
PLAN_1
  6
CONTINUOUS
 10
-1.498618
 20
1.812685
  0
VERTEX
  8
PLAN_1
  6
CONTINUOUS
 10
-1.502142
 20
1.808150
  0
VERTEX
  8
PLAN_1
  6
CONTINUOUS
 10
-1.504661
 20
1.802610
  0
VERTEX
  8
PLAN_1
  6
CONTINUOUS
 10
-1.506173
 20
1.799083
  0
VERTEX
  8
PLAN_1
  6
CONTINUOUS
 10
-1.506677
 20
1.795555
  0
VERTEX
  8
PLAN_1
  6
CONTINUOUS
 10
-1.506677
 20
1.792028
  0
VERTEX
  8
PLAN_1
  6
CONTINUOUS
 10
-1.506173
 20
1.787496
  0
VERTEX
  8
PLAN_1
  6
CONTINUOUS
 10
-1.504661
 20
1.783465
  0
VERTEX
  8
PLAN_1
  6
CONTINUOUS
 10
-1.502646
 20
1.778929
  0
VERTEX
  8
PLAN_1
  6
CONTINUOUS
 10
-1.499626
 20
1.774394
  0
VERTEX
  8
PLAN_1
  6
CONTINUOUS
 10
-1.495091
 20
1.769358
  0
SEQEND
  8
0
  0
POLYLINE
  8
PLAN_1
  6
CONTINUOUS
 66
     1
 40
0.007051
 41
0.007051
  0
VERTEX
  8
PLAN_1
  6
CONTINUOUS
 10
-1.495091
 20
1.769358
  0
VERTEX
  8
PLAN_1
  6
CONTINUOUS
 10
-1.206902
 20
1.769358
  0
SEQEND
  8
0
  0
POLYLINE
  8
PLAN_1
  6
CONTINUOUS
 66
     1
 40
0.007051
 41
0.007051
  0
VERTEX
  8
PLAN_1
  6
CONTINUOUS
 10
-1.207406
 20
1.723004
  0
VERTEX
  8
PLAN_1
  6
CONTINUOUS
 10
-1.202874
 20
1.727539
  0
VERTEX
  8
PLAN_1
  6
CONTINUOUS
 10
-1.199346
 20
1.732075
  0
VERTEX
  8
PLAN_1
  6
CONTINUOUS
 10
-1.196827
 20
1.736106
  0
VERTEX
  8
PLAN_1
  6
CONTINUOUS
 10
-1.195315
 20
1.740638
  0
VERTEX
  8
PLAN_1
  6
CONTINUOUS
 10
-1.194307
 20
1.744669
  0
VERTEX
  8
PLAN_1
  6
CONTINUOUS
 10
-1.194811
 20
1.748701
  0
VERTEX
  8
PLAN_1
  6
CONTINUOUS
 10
-1.195315
 20
1.752228
  0
VERTEX
  8
PLAN_1
  6
CONTINUOUS
 10
-1.196323
 20
1.755752
  0
VERTEX
  8
PLAN_1
  6
CONTINUOUS
 10
-1.197835
 20
1.758776
  0
VERTEX
  8
PLAN_1
  6
CONTINUOUS
 10
-1.199850
 20
1.761295
  0
VERTEX
  8
PLAN_1
  6
CONTINUOUS
 10
-1.201866
 20
1.763815
  0
VERTEX
  8
PLAN_1
  6
CONTINUOUS
 10
-1.203374
 20
1.765831
  0
VERTEX
  8
PLAN_1
  6
CONTINUOUS
 10
-1.206398
 20
1.768854
  0
VERTEX
  8
PLAN_1
  6
CONTINUOUS
 10
-1.207406
 20
1.769862
  0
SEQEND
  8
0
  0
POLYLINE
  8
PLAN_1
  6
CONTINUOUS
 66
     1
 40
0.007051
 41
0.007051
  0
VERTEX
  8
PLAN_1
  6
CONTINUOUS
 10
-1.207406
 20
1.769862
  0
VERTEX
  8
PLAN_1
  6
CONTINUOUS
 10
-1.495594
 20
1.769862
  0
SEQEND
  8
0
  0
POLYLINE
  8
PLAN_1
  6
CONTINUOUS
 66
     1
 40
0.007051
 41
0.007051
  0
VERTEX
  8
PLAN_1
  6
CONTINUOUS
 10
-1.495594
 20
1.769862
  0
VERTEX
  8
PLAN_1
  6
CONTINUOUS
 10
-1.496602
 20
1.768854
  0
VERTEX
  8
PLAN_1
  6
CONTINUOUS
 10
-1.499122
 20
1.766335
  0
VERTEX
  8
PLAN_1
  6
CONTINUOUS
 10
-1.502646
 20
1.761799
  0
VERTEX
  8
PLAN_1
  6
CONTINUOUS
 10
-1.505165
 20
1.756256
  0
VERTEX
  8
PLAN_1
  6
CONTINUOUS
 10
-1.506173
 20
1.752732
  0
VERTEX
  8
PLAN_1
  6
CONTINUOUS
 10
-1.507181
 20
1.749205
  0
VERTEX
  8
PLAN_1
  6
CONTINUOUS
 10
-1.507181
 20
1.745173
  0
VERTEX
  8
PLAN_1
  6
CONTINUOUS
 10
-1.506677
 20
1.741142
  0
VERTEX
  8
PLAN_1
  6
CONTINUOUS
 10
-1.505165
 20
1.737114
  0
VERTEX
  8
PLAN_1
  6
CONTINUOUS
 10
-1.503150
 20
1.732579
  0
VERTEX
  8
PLAN_1
  6
CONTINUOUS
 10
-1.499626
 20
1.728043
  0
VERTEX
  8
PLAN_1
  6
CONTINUOUS
 10
-1.495594
 20
1.723004
  0
SEQEND
  8
0
  0
POLYLINE
  8
PLAN_1
  6
CONTINUOUS
 66
     1
 40
0.007051
 41
0.007051
  0
VERTEX
  8
PLAN_1
  6
CONTINUOUS
 10
-1.495594
 20
1.723004
  0
VERTEX
  8
PLAN_1
  6
CONTINUOUS
 10
-1.207406
 20
1.723004
  0
SEQEND
  8
0
  0
POLYLINE
  8
PLAN_1
  6
CONTINUOUS
 66
     1
 40
0.007051
 41
0.007051
  0
VERTEX
  8
PLAN_1
  6
CONTINUOUS
 10
-1.206902
 20
1.676654
  0
VERTEX
  8
PLAN_1
  6
CONTINUOUS
 10
-1.202370
 20
1.681189
  0
VERTEX
  8
PLAN_1
  6
CONTINUOUS
 10
-1.198843
 20
1.685720
  0
VERTEX
  8
PLAN_1
  6
CONTINUOUS
 10
-1.196323
 20
1.689752
  0
VERTEX
  8
PLAN_1
  6
CONTINUOUS
 10
-1.194811
 20
1.694287
  0
VERTEX
  8
PLAN_1
  6
CONTINUOUS
 10
-1.194307
 20
1.698319
  0
VERTEX
  8
PLAN_1
  6
CONTINUOUS
 10
-1.194307
 20
1.701846
  0
VERTEX
  8
PLAN_1
  6
CONTINUOUS
 10
-1.194811
 20
1.705874
  0
VERTEX
  8
PLAN_1
  6
CONTINUOUS
 10
-1.196323
 20
1.708898
  0
VERTEX
  8
PLAN_1
  6
CONTINUOUS
 10
-1.197835
 20
1.712425
  0
VERTEX
  8
PLAN_1
  6
CONTINUOUS
 10
-1.199346
 20
1.714945
  0
VERTEX
  8
PLAN_1
  6
CONTINUOUS
 10
-1.201362
 20
1.717465
  0
VERTEX
  8
PLAN_1
  6
CONTINUOUS
 10
-1.202874
 20
1.719480
  0
VERTEX
  8
PLAN_1
  6
CONTINUOUS
 10
-1.205894
 20
1.722500
  0
VERTEX
  8
PLAN_1
  6
CONTINUOUS
 10
-1.206902
 20
1.723508
  0
SEQEND
  8
0
  0
POLYLINE
  8
PLAN_1
  6
CONTINUOUS
 66
     1
 40
0.007051
 41
0.007051
  0
VERTEX
  8
PLAN_1
  6
CONTINUOUS
 10
-1.206902
 20
1.723508
  0
VERTEX
  8
PLAN_1
  6
CONTINUOUS
 10
-1.495091
 20
1.723508
  0
SEQEND
  8
0
  0
POLYLINE
  8
PLAN_1
  6
CONTINUOUS
 66
     1
 40
0.007051
 41
0.007051
  0
VERTEX
  8
PLAN_1
  6
CONTINUOUS
 10
-1.495091
 20
1.723508
  0
VERTEX
  8
PLAN_1
  6
CONTINUOUS
 10
-1.496098
 20
1.722500
  0
VERTEX
  8
PLAN_1
  6
CONTINUOUS
 10
-1.498618
 20
1.719984
  0
VERTEX
  8
PLAN_1
  6
CONTINUOUS
 10
-1.502142
 20
1.715449
  0
VERTEX
  8
PLAN_1
  6
CONTINUOUS
 10
-1.504661
 20
1.709906
  0
VERTEX
  8
PLAN_1
  6
CONTINUOUS
 10
-1.506173
 20
1.706378
  0
VERTEX
  8
PLAN_1
  6
CONTINUOUS
 10
-1.506677
 20
1.702850
  0
VERTEX
  8
PLAN_1
  6
CONTINUOUS
 10
-1.506677
 20
1.698823
  0
VERTEX
  8
PLAN_1
  6
CONTINUOUS
 10
-1.506173
 20
1.694791
  0
VERTEX
  8
PLAN_1
  6
CONTINUOUS
 10
-1.504661
 20
1.690760
  0
VERTEX
  8
PLAN_1
  6
CONTINUOUS
 10
-1.502646
 20
1.686224
  0
VERTEX
  8
PLAN_1
  6
CONTINUOUS
 10
-1.499626
 20
1.681189
  0
VERTEX
  8
PLAN_1
  6
CONTINUOUS
 10
-1.495091
 20
1.676654
  0
SEQEND
  8
0
  0
POLYLINE
  8
PLAN_1
  6
CONTINUOUS
 66
     1
 40
0.007051
 41
0.007051
  0
VERTEX
  8
PLAN_1
  6
CONTINUOUS
 10
-1.495091
 20
1.676654
  0
VERTEX
  8
PLAN_1
  6
CONTINUOUS
 10
-1.206902
 20
1.676654
  0
SEQEND
  8
0
  0
POLYLINE
  8
PLAN_1
  6
CONTINUOUS
 66
     1
 40
0.007051
 41
0.007051
  0
VERTEX
  8
PLAN_1
  6
CONTINUOUS
 10
-1.207406
 20
1.630303
  0
VERTEX
  8
PLAN_1
  6
CONTINUOUS
 10
-1.202874
 20
1.634835
  0
VERTEX
  8
PLAN_1
  6
CONTINUOUS
 10
-1.199346
 20
1.639370
  0
VERTEX
  8
PLAN_1
  6
CONTINUOUS
 10
-1.196827
 20
1.643402
  0
VERTEX
  8
PLAN_1
  6
CONTINUOUS
 10
-1.195315
 20
1.647937
  0
VERTEX
  8
PLAN_1
  6
CONTINUOUS
 10
-1.194307
 20
1.651965
  0
VERTEX
  8
PLAN_1
  6
CONTINUOUS
 10
-1.194811
 20
1.655492
  0
VERTEX
  8
PLAN_1
  6
CONTINUOUS
 10
-1.195315
 20
1.659524
  0
VERTEX
  8
PLAN_1
  6
CONTINUOUS
 10
-1.196323
 20
1.662547
  0
VERTEX
  8
PLAN_1
  6
CONTINUOUS
 10
-1.197835
 20
1.665571
  0
VERTEX
  8
PLAN_1
  6
CONTINUOUS
 10
-1.199850
 20
1.668591
  0
VERTEX
  8
PLAN_1
  6
CONTINUOUS
 10
-1.201866
 20
1.671110
  0
VERTEX
  8
PLAN_1
  6
CONTINUOUS
 10
-1.203374
 20
1.673126
  0
VERTEX
  8
PLAN_1
  6
CONTINUOUS
 10
-1.206398
 20
1.676150
  0
VERTEX
  8
PLAN_1
  6
CONTINUOUS
 10
-1.207406
 20
1.677157
  0
SEQEND
  8
0
  0
POLYLINE
  8
PLAN_1
  6
CONTINUOUS
 66
     1
 40
0.007051
 41
0.007051
  0
VERTEX
  8
PLAN_1
  6
CONTINUOUS
 10
-1.207406
 20
1.677157
  0
VERTEX
  8
PLAN_1
  6
CONTINUOUS
 10
-1.495594
 20
1.677157
  0
SEQEND
  8
0
  0
POLYLINE
  8
PLAN_1
  6
CONTINUOUS
 66
     1
 40
0.007051
 41
0.007051
  0
VERTEX
  8
PLAN_1
  6
CONTINUOUS
 10
-1.495594
 20
1.677157
  0
VERTEX
  8
PLAN_1
  6
CONTINUOUS
 10
-1.496602
 20
1.676150
  0
VERTEX
  8
PLAN_1
  6
CONTINUOUS
 10
-1.499122
 20
1.673126
  0
VERTEX
  8
PLAN_1
  6
CONTINUOUS
 10
-1.502646
 20
1.669094
  0
VERTEX
  8
PLAN_1
  6
CONTINUOUS
 10
-1.505165
 20
1.663555
  0
VERTEX
  8
PLAN_1
  6
CONTINUOUS
 10
-1.506173
 20
1.660028
  0
VERTEX
  8
PLAN_1
  6
CONTINUOUS
 10
-1.507181
 20
1.656500
  0
VERTEX
  8
PLAN_1
  6
CONTINUOUS
 10
-1.507181
 20
1.652469
  0
VERTEX
  8
PLAN_1
  6
CONTINUOUS
 10
-1.506677
 20
1.648441
  0
VERTEX
  8
PLAN_1
  6
CONTINUOUS
 10
-1.505165
 20
1.644409
  0
VERTEX
  8
PLAN_1
  6
CONTINUOUS
 10
-1.503150
 20
1.639874
  0
VERTEX
  8
PLAN_1
  6
CONTINUOUS
 10
-1.499626
 20
1.634835
  0
VERTEX
  8
PLAN_1
  6
CONTINUOUS
 10
-1.495594
 20
1.630303
  0
SEQEND
  8
0
  0
POLYLINE
  8
PLAN_1
  6
CONTINUOUS
 66
     1
 40
0.007051
 41
0.007051
  0
VERTEX
  8
PLAN_1
  6
CONTINUOUS
 10
-1.495594
 20
1.630303
  0
VERTEX
  8
PLAN_1
  6
CONTINUOUS
 10
-1.207406
 20
1.630303
  0
SEQEND
  8
0
  0
POLYLINE
  8
PLAN_1
  6
CONTINUOUS
 66
     1
 40
0.007051
 41
0.007051
  0
VERTEX
  8
PLAN_1
  6
CONTINUOUS
 10
-1.206902
 20
1.583949
  0
VERTEX
  8
PLAN_1
  6
CONTINUOUS
 10
-1.202370
 20
1.588484
  0
VERTEX
  8
PLAN_1
  6
CONTINUOUS
 10
-1.198843
 20
1.592516
  0
VERTEX
  8
PLAN_1
  6
CONTINUOUS
 10
-1.196323
 20
1.597051
  0
VERTEX
  8
PLAN_1
  6
CONTINUOUS
 10
-1.194811
 20
1.601583
  0
VERTEX
  8
PLAN_1
  6
CONTINUOUS
 10
-1.194307
 20
1.605614
  0
VERTEX
  8
PLAN_1
  6
CONTINUOUS
 10
-1.194307
 20
1.609142
  0
VERTEX
  8
PLAN_1
  6
CONTINUOUS
 10
-1.194811
 20
1.612669
  0
VERTEX
  8
PLAN_1
  6
CONTINUOUS
 10
-1.196323
 20
1.616193
  0
VERTEX
  8
PLAN_1
  6
CONTINUOUS
 10
-1.197835
 20
1.619217
  0
VERTEX
  8
PLAN_1
  6
CONTINUOUS
 10
-1.199346
 20
1.622240
  0
VERTEX
  8
PLAN_1
  6
CONTINUOUS
 10
-1.201362
 20
1.624760
  0
VERTEX
  8
PLAN_1
  6
CONTINUOUS
 10
-1.202874
 20
1.626776
  0
VERTEX
  8
PLAN_1
  6
CONTINUOUS
 10
-1.205894
 20
1.629799
  0
VERTEX
  8
PLAN_1
  6
CONTINUOUS
 10
-1.206902
 20
1.630807
  0
SEQEND
  8
0
  0
POLYLINE
  8
PLAN_1
  6
CONTINUOUS
 66
     1
 40
0.007051
 41
0.007051
  0
VERTEX
  8
PLAN_1
  6
CONTINUOUS
 10
-1.206902
 20
1.630807
  0
VERTEX
  8
PLAN_1
  6
CONTINUOUS
 10
-1.495091
 20
1.630807
  0
SEQEND
  8
0
  0
POLYLINE
  8
PLAN_1
  6
CONTINUOUS
 66
     1
 40
0.007051
 41
0.007051
  0
VERTEX
  8
PLAN_1
  6
CONTINUOUS
 10
-1.495091
 20
1.630807
  0
VERTEX
  8
PLAN_1
  6
CONTINUOUS
 10
-1.496098
 20
1.629799
  0
VERTEX
  8
PLAN_1
  6
CONTINUOUS
 10
-1.498618
 20
1.626776
  0
VERTEX
  8
PLAN_1
  6
CONTINUOUS
 10
-1.502142
 20
1.622744
  0
VERTEX
  8
PLAN_1
  6
CONTINUOUS
 10
-1.504661
 20
1.617201
  0
VERTEX
  8
PLAN_1
  6
CONTINUOUS
 10
-1.506173
 20
1.613677
  0
VERTEX
  8
PLAN_1
  6
CONTINUOUS
 10
-1.506677
 20
1.610150
  0
VERTEX
  8
PLAN_1
  6
CONTINUOUS
 10
-1.506677
 20
1.606118
  0
VERTEX
  8
PLAN_1
  6
CONTINUOUS
 10
-1.506173
 20
1.602087
  0
VERTEX
  8
PLAN_1
  6
CONTINUOUS
 10
-1.504661
 20
1.597551
  0
VERTEX
  8
PLAN_1
  6
CONTINUOUS
 10
-1.502646
 20
1.593020
  0
VERTEX
  8
PLAN_1
  6
CONTINUOUS
 10
-1.499626
 20
1.588484
  0
VERTEX
  8
PLAN_1
  6
CONTINUOUS
 10
-1.495091
 20
1.583949
  0
SEQEND
  8
0
  0
POLYLINE
  8
PLAN_1
  6
CONTINUOUS
 66
     1
 40
0.007051
 41
0.007051
  0
VERTEX
  8
PLAN_1
  6
CONTINUOUS
 10
-1.495091
 20
1.583949
  0
VERTEX
  8
PLAN_1
  6
CONTINUOUS
 10
-1.206902
 20
1.583949
  0
SEQEND
  8
0
  0
POLYLINE
  8
PLAN_1
  6
CONTINUOUS
 66
     1
 40
0.007051
 41
0.007051
  0
VERTEX
  8
PLAN_1
  6
CONTINUOUS
 10
-1.207406
 20
1.537598
  0
VERTEX
  8
PLAN_1
  6
CONTINUOUS
 10
-1.202874
 20
1.542134
  0
VERTEX
  8
PLAN_1
  6
CONTINUOUS
 10
-1.199346
 20
1.546161
  0
VERTEX
  8
PLAN_1
  6
CONTINUOUS
 10
-1.196827
 20
1.550697
  0
VERTEX
  8
PLAN_1
  6
CONTINUOUS
 10
-1.195315
 20
1.554728
  0
VERTEX
  8
PLAN_1
  6
CONTINUOUS
 10
-1.194307
 20
1.558760
  0
VERTEX
  8
PLAN_1
  6
CONTINUOUS
 10
-1.194811
 20
1.562787
  0
VERTEX
  8
PLAN_1
  6
CONTINUOUS
 10
-1.195315
 20
1.566315
  0
VERTEX
  8
PLAN_1
  6
CONTINUOUS
 10
-1.196323
 20
1.569843
  0
VERTEX
  8
PLAN_1
  6
CONTINUOUS
 10
-1.197835
 20
1.572866
  0
VERTEX
  8
PLAN_1
  6
CONTINUOUS
 10
-1.199850
 20
1.575890
  0
VERTEX
  8
PLAN_1
  6
CONTINUOUS
 10
-1.201866
 20
1.578409
  0
VERTEX
  8
PLAN_1
  6
CONTINUOUS
 10
-1.203374
 20
1.580421
  0
VERTEX
  8
PLAN_1
  6
CONTINUOUS
 10
-1.206398
 20
1.582941
  0
VERTEX
  8
PLAN_1
  6
CONTINUOUS
 10
-1.207406
 20
1.584453
  0
SEQEND
  8
0
  0
POLYLINE
  8
PLAN_1
  6
CONTINUOUS
 66
     1
 40
0.007051
 41
0.007051
  0
VERTEX
  8
PLAN_1
  6
CONTINUOUS
 10
-1.207406
 20
1.584453
  0
VERTEX
  8
PLAN_1
  6
CONTINUOUS
 10
-1.495594
 20
1.584453
  0
SEQEND
  8
0
  0
POLYLINE
  8
PLAN_1
  6
CONTINUOUS
 66
     1
 40
0.007051
 41
0.007051
  0
VERTEX
  8
PLAN_1
  6
CONTINUOUS
 10
-1.495594
 20
1.584453
  0
VERTEX
  8
PLAN_1
  6
CONTINUOUS
 10
-1.496602
 20
1.583445
  0
VERTEX
  8
PLAN_1
  6
CONTINUOUS
 10
-1.499122
 20
1.580421
  0
VERTEX
  8
PLAN_1
  6
CONTINUOUS
 10
-1.502646
 20
1.576394
  0
VERTEX
  8
PLAN_1
  6
CONTINUOUS
 10
-1.505165
 20
1.570346
  0
VERTEX
  8
PLAN_1
  6
CONTINUOUS
 10
-1.506173
 20
1.567323
  0
VERTEX
  8
PLAN_1
  6
CONTINUOUS
 10
-1.507181
 20
1.563795
  0
VERTEX
  8
PLAN_1
  6
CONTINUOUS
 10
-1.507181
 20
1.559768
  0
VERTEX
  8
PLAN_1
  6
CONTINUOUS
 10
-1.506677
 20
1.555736
  0
VERTEX
  8
PLAN_1
  6
CONTINUOUS
 10
-1.505165
 20
1.551201
  0
VERTEX
  8
PLAN_1
  6
CONTINUOUS
 10
-1.503150
 20
1.546665
  0
VERTEX
  8
PLAN_1
  6
CONTINUOUS
 10
-1.499626
 20
1.542134
  0
VERTEX
  8
PLAN_1
  6
CONTINUOUS
 10
-1.495594
 20
1.537598
  0
SEQEND
  8
0
  0
POLYLINE
  8
PLAN_1
  6
CONTINUOUS
 66
     1
 40
0.007051
 41
0.007051
  0
VERTEX
  8
PLAN_1
  6
CONTINUOUS
 10
-1.495594
 20
1.537598
  0
VERTEX
  8
PLAN_1
  6
CONTINUOUS
 10
-1.207406
 20
1.537598
  0
SEQEND
  8
0
  0
POLYLINE
  8
PLAN_1
  6
CONTINUOUS
 66
     1
 40
0.007051
 41
0.007051
  0
VERTEX
  8
PLAN_1
  6
CONTINUOUS
 10
-1.206902
 20
1.490744
  0
VERTEX
  8
PLAN_1
  6
CONTINUOUS
 10
-1.202370
 20
1.495276
  0
VERTEX
  8
PLAN_1
  6
CONTINUOUS
 10
-1.198843
 20
1.499811
  0
VERTEX
  8
PLAN_1
  6
CONTINUOUS
 10
-1.196323
 20
1.504346
  0
VERTEX
  8
PLAN_1
  6
CONTINUOUS
 10
-1.194811
 20
1.508378
  0
VERTEX
  8
PLAN_1
  6
CONTINUOUS
 10
-1.194307
 20
1.512406
  0
VERTEX
  8
PLAN_1
  6
CONTINUOUS
 10
-1.194307
 20
1.516437
  0
VERTEX
  8
PLAN_1
  6
CONTINUOUS
 10
-1.194811
 20
1.519965
  0
VERTEX
  8
PLAN_1
  6
CONTINUOUS
 10
-1.196323
 20
1.523492
  0
VERTEX
  8
PLAN_1
  6
CONTINUOUS
 10
-1.197835
 20
1.526516
  0
VERTEX
  8
PLAN_1
  6
CONTINUOUS
 10
-1.199346
 20
1.529535
  0
VERTEX
  8
PLAN_1
  6
CONTINUOUS
 10
-1.201362
 20
1.532055
  0
VERTEX
  8
PLAN_1
  6
CONTINUOUS
 10
-1.202874
 20
1.534071
  0
VERTEX
  8
PLAN_1
  6
CONTINUOUS
 10
-1.205894
 20
1.536591
  0
VERTEX
  8
PLAN_1
  6
CONTINUOUS
 10
-1.206902
 20
1.537598
  0
SEQEND
  8
0
  0
POLYLINE
  8
PLAN_1
  6
CONTINUOUS
 66
     1
 40
0.007051
 41
0.007051
  0
VERTEX
  8
PLAN_1
  6
CONTINUOUS
 10
-1.206902
 20
1.537598
  0
VERTEX
  8
PLAN_1
  6
CONTINUOUS
 10
-1.495091
 20
1.537598
  0
SEQEND
  8
0
  0
POLYLINE
  8
PLAN_1
  6
CONTINUOUS
 66
     1
 40
0.007051
 41
0.007051
  0
VERTEX
  8
PLAN_1
  6
CONTINUOUS
 10
-1.495091
 20
1.537598
  0
VERTEX
  8
PLAN_1
  6
CONTINUOUS
 10
-1.496098
 20
1.537094
  0
VERTEX
  8
PLAN_1
  6
CONTINUOUS
 10
-1.498618
 20
1.534071
  0
VERTEX
  8
PLAN_1
  6
CONTINUOUS
 10
-1.502142
 20
1.530039
  0
VERTEX
  8
PLAN_1
  6
CONTINUOUS
 10
-1.504661
 20
1.523996
  0
VERTEX
  8
PLAN_1
  6
CONTINUOUS
 10
-1.506173
 20
1.520972
  0
VERTEX
  8
PLAN_1
  6
CONTINUOUS
 10
-1.506677
 20
1.517445
  0
VERTEX
  8
PLAN_1
  6
CONTINUOUS
 10
-1.506677
 20
1.513413
  0
VERTEX
  8
PLAN_1
  6
CONTINUOUS
 10
-1.506173
 20
1.509386
  0
VERTEX
  8
PLAN_1
  6
CONTINUOUS
 10
-1.504661
 20
1.504850
  0
VERTEX
  8
PLAN_1
  6
CONTINUOUS
 10
-1.502646
 20
1.500315
  0
VERTEX
  8
PLAN_1
  6
CONTINUOUS
 10
-1.499626
 20
1.495780
  0
VERTEX
  8
PLAN_1
  6
CONTINUOUS
 10
-1.495091
 20
1.490744
  0
SEQEND
  8
0
  0
POLYLINE
  8
PLAN_1
  6
CONTINUOUS
 66
     1
 40
0.007051
 41
0.007051
  0
VERTEX
  8
PLAN_1
  6
CONTINUOUS
 10
-1.495091
 20
1.490744
  0
VERTEX
  8
PLAN_1
  6
CONTINUOUS
 10
-1.206902
 20
1.490744
  0
SEQEND
  8
0
  0
POLYLINE
  8
PLAN_1
 62
     2
  6
CONTINUOUS
 66
     1
 40
0.004028
 41
0.004028
  0
VERTEX
  8
PLAN_1
 62
     2
  6
CONTINUOUS
 10
-0.261224
 20
-0.497346
  0
VERTEX
  8
PLAN_1
 62
     2
  6
CONTINUOUS
 10
-0.261224
 20
3.996260
  0
SEQEND
  8
0
  0
SOLID
  8
PLAN_1
 62
     2
 10
-0.261224
 20
4.025984
 11
-0.276843
 21
3.967035
 12
-0.261224
 22
4.025984
 13
-0.245606
 23
3.967035
  0
POLYLINE
  8
PLAN_1
 62
     2
  6
CONTINUOUS
 66
     1
 40
0.003000
 41
0.003000
  0
VERTEX
  8
PLAN_1
 62
     2
  6
CONTINUOUS
 10
-0.261224
 20
4.025984
  0
VERTEX
  8
PLAN_1
 62
     2
  6
CONTINUOUS
 10
-0.276843
 20
3.967035
  0
VERTEX
  8
PLAN_1
 62
     2
  6
CONTINUOUS
 10
-0.245606
 20
3.967035
  0
VERTEX
  8
PLAN_1
 62
     2
  6
CONTINUOUS
 10
-0.261224
 20
4.025984
  0
SEQEND
  8
0
  0
SOLID
  8
PLAN_1
 62
     2
 10
-0.261224
 20
-0.526567
 11
-0.276843
 21
-0.467622
 12
-0.261224
 22
-0.526567
 13
-0.245606
 23
-0.467622
  0
POLYLINE
  8
PLAN_1
 62
     2
  6
CONTINUOUS
 66
     1
 40
0.003000
 41
0.003000
  0
VERTEX
  8
PLAN_1
 62
     2
  6
CONTINUOUS
 10
-0.261224
 20
-0.526567
  0
VERTEX
  8
PLAN_1
 62
     2
  6
CONTINUOUS
 10
-0.276843
 20
-0.467622
  0
VERTEX
  8
PLAN_1
 62
     2
  6
CONTINUOUS
 10
-0.245606
 20
-0.467622
  0
VERTEX
  8
PLAN_1
 62
     2
  6
CONTINUOUS
 10
-0.261224
 20
-0.526567
  0
SEQEND
  8
0
  0
POLYLINE
  8
PLAN_1
 62
     2
  6
CONTINUOUS
 66
     1
 40
0.003000
 41
0.003000
  0
VERTEX
  8
PLAN_1
 62
     2
  6
CONTINUOUS
 10
-0.284906
 20
1.700335
  0
VERTEX
  8
PLAN_1
 62
     2
  6
CONTINUOUS
 10
-0.284906
 20
1.690256
  0
VERTEX
  8
PLAN_1
 62
     2
  6
CONTINUOUS
 10
-0.336799
 20
1.690256
  0
VERTEX
  8
PLAN_1
 62
     2
  6
CONTINUOUS
 10
-0.336799
 20
1.673126
  0
VERTEX
  8
PLAN_1
 62
     2
  6
CONTINUOUS
 10
-0.344354
 20
1.673126
  0
VERTEX
  8
PLAN_1
 62
     2
  6
CONTINUOUS
 10
-0.344354
 20
1.677157
  0
VERTEX
  8
PLAN_1
 62
     2
  6
CONTINUOUS
 10
-0.344858
 20
1.680685
  0
VERTEX
  8
PLAN_1
 62
     2
  6
CONTINUOUS
 10
-0.345866
 20
1.683709
  0
VERTEX
  8
PLAN_1
 62
     2
  6
CONTINUOUS
 10
-0.346874
 20
1.686224
  0
VERTEX
  8
PLAN_1
 62
     2
  6
CONTINUOUS
 10
-0.348890
 20
1.688744
  0
VERTEX
  8
PLAN_1
 62
     2
  6
CONTINUOUS
 10
-0.350906
 20
1.690256
  0
VERTEX
  8
PLAN_1
 62
     2
  6
CONTINUOUS
 10
-0.353929
 20
1.691768
  0
VERTEX
  8
PLAN_1
 62
     2
  6
CONTINUOUS
 10
-0.357961
 20
1.692776
  0
VERTEX
  8
PLAN_1
 62
     2
  6
CONTINUOUS
 10
-0.357961
 20
1.700335
  0
VERTEX
  8
PLAN_1
 62
     2
  6
CONTINUOUS
 10
-0.284906
 20
1.700335
  0
SEQEND
  8
0
  0
POLYLINE
  8
PLAN_1
 62
     2
  6
CONTINUOUS
 66
     1
 40
0.003000
 41
0.003000
  0
VERTEX
  8
PLAN_1
 62
     2
  6
CONTINUOUS
 10
-0.284906
 20
1.757768
  0
VERTEX
  8
PLAN_1
 62
     2
  6
CONTINUOUS
 10
-0.284906
 20
1.748197
  0
VERTEX
  8
PLAN_1
 62
     2
  6
CONTINUOUS
 10
-0.336799
 20
1.748197
  0
VERTEX
  8
PLAN_1
 62
     2
  6
CONTINUOUS
 10
-0.336799
 20
1.731067
  0
VERTEX
  8
PLAN_1
 62
     2
  6
CONTINUOUS
 10
-0.344354
 20
1.731067
  0
VERTEX
  8
PLAN_1
 62
     2
  6
CONTINUOUS
 10
-0.344354
 20
1.735098
  0
VERTEX
  8
PLAN_1
 62
     2
  6
CONTINUOUS
 10
-0.344858
 20
1.738622
  0
VERTEX
  8
PLAN_1
 62
     2
  6
CONTINUOUS
 10
-0.345866
 20
1.741646
  0
VERTEX
  8
PLAN_1
 62
     2
  6
CONTINUOUS
 10
-0.346874
 20
1.744165
  0
VERTEX
  8
PLAN_1
 62
     2
  6
CONTINUOUS
 10
-0.348890
 20
1.746181
  0
VERTEX
  8
PLAN_1
 62
     2
  6
CONTINUOUS
 10
-0.350906
 20
1.748197
  0
VERTEX
  8
PLAN_1
 62
     2
  6
CONTINUOUS
 10
-0.353929
 20
1.749709
  0
VERTEX
  8
PLAN_1
 62
     2
  6
CONTINUOUS
 10
-0.357961
 20
1.750717
  0
VERTEX
  8
PLAN_1
 62
     2
  6
CONTINUOUS
 10
-0.357961
 20
1.757768
  0
VERTEX
  8
PLAN_1
 62
     2
  6
CONTINUOUS
 10
-0.284906
 20
1.757768
  0
SEQEND
  8
0
  0
POLYLINE
  8
PLAN_1
 62
     2
  6
CONTINUOUS
 66
     1
 40
0.003000
 41
0.003000
  0
VERTEX
  8
PLAN_1
 62
     2
  6
CONTINUOUS
 10
-0.302539
 20
1.822260
  0
VERTEX
  8
PLAN_1
 62
     2
  6
CONTINUOUS
 10
-0.284906
 20
1.822260
  0
VERTEX
  8
PLAN_1
 62
     2
  6
CONTINUOUS
 10
-0.284906
 20
1.813189
  0
VERTEX
  8
PLAN_1
 62
     2
  6
CONTINUOUS
 10
-0.302539
 20
1.813189
  0
VERTEX
  8
PLAN_1
 62
     2
  6
CONTINUOUS
 10
-0.302539
 20
1.780945
  0
VERTEX
  8
PLAN_1
 62
     2
  6
CONTINUOUS
 10
-0.311606
 20
1.780945
  0
VERTEX
  8
PLAN_1
 62
     2
  6
CONTINUOUS
 10
-0.357961
 20
1.814701
  0
VERTEX
  8
PLAN_1
 62
     2
  6
CONTINUOUS
 10
-0.357961
 20
1.822260
  0
VERTEX
  8
PLAN_1
 62
     2
  6
CONTINUOUS
 10
-0.310598
 20
1.822260
  0
VERTEX
  8
PLAN_1
 62
     2
  6
CONTINUOUS
 10
-0.310598
 20
1.832839
  0
VERTEX
  8
PLAN_1
 62
     2
  6
CONTINUOUS
 10
-0.302539
 20
1.832839
  0
VERTEX
  8
PLAN_1
 62
     2
  6
CONTINUOUS
 10
-0.302539
 20
1.822260
  0
SEQEND
  8
0
  0
SOLID
  8
PLAN_1
 62
     2
 10
-0.310598
 20
1.789512
 11
-0.310598
 21
1.813189
 12
-0.343850
 22
1.812685
 13
-0.343850
 23
1.813189
  0
POLYLINE
  8
PLAN_1
 62
     2
  6
CONTINUOUS
 66
     1
 40
0.003000
 41
0.003000
  0
VERTEX
  8
PLAN_1
 62
     2
  6
CONTINUOUS
 10
-0.310598
 20
1.789512
  0
VERTEX
  8
PLAN_1
 62
     2
  6
CONTINUOUS
 10
-0.310598
 20
1.813189
  0
VERTEX
  8
PLAN_1
 62
     2
  6
CONTINUOUS
 10
-0.343850
 20
1.813189
  0
VERTEX
  8
PLAN_1
 62
     2
  6
CONTINUOUS
 10
-0.343850
 20
1.812685
  0
VERTEX
  8
PLAN_1
 62
     2
  6
CONTINUOUS
 10
-0.310598
 20
1.789512
  0
SEQEND
  8
0
  0
POLYLINE
  8
PLAN_1
 62
     2
  6
CONTINUOUS
 66
     1
 40
0.004028
 41
0.004028
  0
VERTEX
  8
PLAN_1
 62
     2
  6
CONTINUOUS
 10
-0.418921
 20
0.434224
  0
VERTEX
  8
PLAN_1
 62
     2
  6
CONTINUOUS
 10
-0.418921
 20
3.996260
  0
SEQEND
  8
0
  0
SOLID
  8
PLAN_1
 62
     2
 10
-0.418921
 20
4.025984
 11
-0.434539
 21
3.967035
 12
-0.418921
 22
4.025984
 13
-0.402799
 23
3.967035
  0
POLYLINE
  8
PLAN_1
 62
     2
  6
CONTINUOUS
 66
     1
 40
0.003000
 41
0.003000
  0
VERTEX
  8
PLAN_1
 62
     2
  6
CONTINUOUS
 10
-0.418921
 20
4.025984
  0
VERTEX
  8
PLAN_1
 62
     2
  6
CONTINUOUS
 10
-0.434539
 20
3.967035
  0
VERTEX
  8
PLAN_1
 62
     2
  6
CONTINUOUS
 10
-0.402799
 20
3.967035
  0
VERTEX
  8
PLAN_1
 62
     2
  6
CONTINUOUS
 10
-0.418921
 20
4.025984
  0
SEQEND
  8
0
  0
SOLID
  8
PLAN_1
 62
     2
 10
-0.418921
 20
0.404496
 11
-0.434539
 21
0.463949
 12
-0.418921
 22
0.404496
 13
-0.402799
 23
0.463949
  0
POLYLINE
  8
PLAN_1
 62
     2
  6
CONTINUOUS
 66
     1
 40
0.003000
 41
0.003000
  0
VERTEX
  8
PLAN_1
 62
     2
  6
CONTINUOUS
 10
-0.418921
 20
0.404496
  0
VERTEX
  8
PLAN_1
 62
     2
  6
CONTINUOUS
 10
-0.434539
 20
0.463949
  0
VERTEX
  8
PLAN_1
 62
     2
  6
CONTINUOUS
 10
-0.402799
 20
0.463949
  0
VERTEX
  8
PLAN_1
 62
     2
  6
CONTINUOUS
 10
-0.418921
 20
0.404496
  0
SEQEND
  8
0
  0
POLYLINE
  8
PLAN_1
 62
     2
  6
CONTINUOUS
 66
     1
 40
0.003000
 41
0.003000
  0
VERTEX
  8
PLAN_1
 62
     2
  6
CONTINUOUS
 10
-0.490465
 20
2.161835
  0
VERTEX
  8
PLAN_1
 62
     2
  6
CONTINUOUS
 10
-0.495504
 20
2.162339
  0
VERTEX
  8
PLAN_1
 62
     2
  6
CONTINUOUS
 10
-0.500039
 20
2.163346
  0
VERTEX
  8
PLAN_1
 62
     2
  6
CONTINUOUS
 10
-0.504067
 20
2.165362
  0
VERTEX
  8
PLAN_1
 62
     2
  6
CONTINUOUS
 10
-0.508098
 20
2.167882
  0
VERTEX
  8
PLAN_1
 62
     2
  6
CONTINUOUS
 10
-0.509610
 20
2.169394
  0
VERTEX
  8
PLAN_1
 62
     2
  6
CONTINUOUS
 10
-0.511122
 20
2.170906
  0
VERTEX
  8
PLAN_1
 62
     2
  6
CONTINUOUS
 10
-0.512634
 20
2.172921
  0
VERTEX
  8
PLAN_1
 62
     2
  6
CONTINUOUS
 10
-0.513642
 20
2.174937
  0
VERTEX
  8
PLAN_1
 62
     2
  6
CONTINUOUS
 10
-0.514146
 20
2.177453
  0
VERTEX
  8
PLAN_1
 62
     2
  6
CONTINUOUS
 10
-0.515154
 20
2.179972
  0
VERTEX
  8
PLAN_1
 62
     2
  6
CONTINUOUS
 10
-0.515154
 20
2.182492
  0
VERTEX
  8
PLAN_1
 62
     2
  6
CONTINUOUS
 10
-0.515657
 20
2.185516
  0
VERTEX
  8
PLAN_1
 62
     2
  6
CONTINUOUS
 10
-0.515154
 20
2.189547
  0
VERTEX
  8
PLAN_1
 62
     2
  6
CONTINUOUS
 10
-0.514650
 20
2.193075
  0
VERTEX
  8
PLAN_1
 62
     2
  6
CONTINUOUS
 10
-0.513642
 20
2.196094
  0
VERTEX
  8
PLAN_1
 62
     2
  6
CONTINUOUS
 10
-0.512130
 20
2.199118
  0
VERTEX
  8
PLAN_1
 62
     2
  6
CONTINUOUS
 10
-0.510114
 20
2.201638
  0
VERTEX
  8
PLAN_1
 62
     2
  6
CONTINUOUS
 10
-0.508098
 20
2.203654
  0
VERTEX
  8
PLAN_1
 62
     2
  6
CONTINUOUS
 10
-0.505579
 20
2.205165
  0
VERTEX
  8
PLAN_1
 62
     2
  6
CONTINUOUS
 10
-0.503059
 20
2.206677
  0
VERTEX
  8
PLAN_1
 62
     2
  6
CONTINUOUS
 10
-0.497520
 20
2.208693
  0
VERTEX
  8
PLAN_1
 62
     2
  6
CONTINUOUS
 10
-0.491976
 20
2.210205
  0
VERTEX
  8
PLAN_1
 62
     2
  6
CONTINUOUS
 10
-0.486433
 20
2.210709
  0
VERTEX
  8
PLAN_1
 62
     2
  6
CONTINUOUS
 10
-0.481398
 20
2.210709
  0
VERTEX
  8
PLAN_1
 62
     2
  6
CONTINUOUS
 10
-0.477366
 20
2.210709
  0
VERTEX
  8
PLAN_1
 62
     2
  6
CONTINUOUS
 10
-0.471823
 20
2.210205
  0
VERTEX
  8
PLAN_1
 62
     2
  6
CONTINUOUS
 10
-0.465276
 20
2.209197
  0
VERTEX
  8
PLAN_1
 62
     2
  6
CONTINUOUS
 10
-0.458220
 20
2.207181
  0
VERTEX
  8
PLAN_1
 62
     2
  6
CONTINUOUS
 10
-0.454693
 20
2.205669
  0
VERTEX
  8
PLAN_1
 62
     2
  6
CONTINUOUS
 10
-0.451165
 20
2.203654
  0
VERTEX
  8
PLAN_1
 62
     2
  6
CONTINUOUS
 10
-0.448646
 20
2.201638
  0
VERTEX
  8
PLAN_1
 62
     2
  6
CONTINUOUS
 10
-0.445626
 20
2.199118
  0
VERTEX
  8
PLAN_1
 62
     2
  6
CONTINUOUS
 10
-0.443610
 20
2.196094
  0
VERTEX
  8
PLAN_1
 62
     2
  6
CONTINUOUS
 10
-0.442098
 20
2.192571
  0
VERTEX
  8
PLAN_1
 62
     2
  6
CONTINUOUS
 10
-0.440587
 20
2.189043
  0
VERTEX
  8
PLAN_1
 62
     2
  6
CONTINUOUS
 10
-0.440587
 20
2.184508
  0
VERTEX
  8
PLAN_1
 62
     2
  6
CONTINUOUS
 10
-0.440587
 20
2.181484
  0
VERTEX
  8
PLAN_1
 62
     2
  6
CONTINUOUS
 10
-0.441091
 20
2.178461
  0
VERTEX
  8
PLAN_1
 62
     2
  6
CONTINUOUS
 10
-0.441594
 20
2.175945
  0
VERTEX
  8
PLAN_1
 62
     2
  6
CONTINUOUS
 10
-0.442602
 20
2.173929
  0
VERTEX
  8
PLAN_1
 62
     2
  6
CONTINUOUS
 10
-0.444618
 20
2.169898
  0
VERTEX
  8
PLAN_1
 62
     2
  6
CONTINUOUS
 10
-0.447642
 20
2.166874
  0
VERTEX
  8
PLAN_1
 62
     2
  6
CONTINUOUS
 10
-0.450661
 20
2.164858
  0
VERTEX
  8
PLAN_1
 62
     2
  6
CONTINUOUS
 10
-0.454189
 20
2.163346
  0
VERTEX
  8
PLAN_1
 62
     2
  6
CONTINUOUS
 10
-0.457213
 20
2.162843
  0
VERTEX
  8
PLAN_1
 62
     2
  6
CONTINUOUS
 10
-0.459732
 20
2.162843
  0
VERTEX
  8
PLAN_1
 62
     2
  6
CONTINUOUS
 10
-0.459732
 20
2.171913
  0
VERTEX
  8
PLAN_1
 62
     2
  6
CONTINUOUS
 10
-0.457213
 20
2.171913
  0
VERTEX
  8
PLAN_1
 62
     2
  6
CONTINUOUS
 10
-0.455197
 20
2.172921
  0
VERTEX
  8
PLAN_1
 62
     2
  6
CONTINUOUS
 10
-0.453181
 20
2.173929
  0
VERTEX
  8
PLAN_1
 62
     2
  6
CONTINUOUS
 10
-0.451165
 20
2.175441
  0
VERTEX
  8
PLAN_1
 62
     2
  6
CONTINUOUS
 10
-0.449654
 20
2.176949
  0
VERTEX
  8
PLAN_1
 62
     2
  6
CONTINUOUS
 10
-0.448646
 20
2.178965
  0
VERTEX
  8
PLAN_1
 62
     2
  6
CONTINUOUS
 10
-0.448146
 20
2.181484
  0
VERTEX
  8
PLAN_1
 62
     2
  6
CONTINUOUS
 10
-0.448146
 20
2.184004
  0
VERTEX
  8
PLAN_1
 62
     2
  6
CONTINUOUS
 10
-0.448646
 20
2.187531
  0
VERTEX
  8
PLAN_1
 62
     2
  6
CONTINUOUS
 10
-0.449654
 20
2.190555
  0
VERTEX
  8
PLAN_1
 62
     2
  6
CONTINUOUS
 10
-0.451669
 20
2.193579
  0
VERTEX
  8
PLAN_1
 62
     2
  6
CONTINUOUS
 10
-0.454693
 20
2.195591
  0
VERTEX
  8
PLAN_1
 62
     2
  6
CONTINUOUS
 10
-0.458220
 20
2.197606
  0
VERTEX
  8
PLAN_1
 62
     2
  6
CONTINUOUS
 10
-0.463260
 20
2.199622
  0
VERTEX
  8
PLAN_1
 62
     2
  6
CONTINUOUS
 10
-0.468799
 20
2.200630
  0
VERTEX
  8
PLAN_1
 62
     2
  6
CONTINUOUS
 10
-0.475350
 20
2.201638
  0
VERTEX
  8
PLAN_1
 62
     2
  6
CONTINUOUS
 10
-0.473839
 20
2.200126
  0
VERTEX
  8
PLAN_1
 62
     2
  6
CONTINUOUS
 10
-0.471823
 20
2.198614
  0
VERTEX
  8
PLAN_1
 62
     2
  6
CONTINUOUS
 10
-0.470311
 20
2.196598
  0
VERTEX
  8
PLAN_1
 62
     2
  6
CONTINUOUS
 10
-0.469303
 20
2.194583
  0
VERTEX
  8
PLAN_1
 62
     2
  6
CONTINUOUS
 10
-0.468295
 20
2.192571
  0
VERTEX
  8
PLAN_1
 62
     2
  6
CONTINUOUS
 10
-0.467287
 20
2.190051
  0
VERTEX
  8
PLAN_1
 62
     2
  6
CONTINUOUS
 10
-0.466783
 20
2.187531
  0
VERTEX
  8
PLAN_1
 62
     2
  6
CONTINUOUS
 10
-0.466783
 20
2.185012
  0
VERTEX
  8
PLAN_1
 62
     2
  6
CONTINUOUS
 10
-0.467287
 20
2.179972
  0
VERTEX
  8
PLAN_1
 62
     2
  6
CONTINUOUS
 10
-0.468295
 20
2.175441
  0
VERTEX
  8
PLAN_1
 62
     2
  6
CONTINUOUS
 10
-0.470311
 20
2.171409
  0
VERTEX
  8
PLAN_1
 62
     2
  6
CONTINUOUS
 10
-0.473335
 20
2.168386
  0
VERTEX
  8
PLAN_1
 62
     2
  6
CONTINUOUS
 10
-0.476358
 20
2.165362
  0
VERTEX
  8
PLAN_1
 62
     2
  6
CONTINUOUS
 10
-0.480390
 20
2.163346
  0
VERTEX
  8
PLAN_1
 62
     2
  6
CONTINUOUS
 10
-0.485425
 20
2.162339
  0
VERTEX
  8
PLAN_1
 62
     2
  6
CONTINUOUS
 10
-0.490465
 20
2.161835
  0
SEQEND
  8
0
  0
POLYLINE
  8
PLAN_1
 62
     2
  6
CONTINUOUS
 66
     1
 40
0.003000
 41
0.003000
  0
VERTEX
  8
PLAN_1
 62
     2
  6
CONTINUOUS
 10
-0.491472
 20
2.200126
  0
VERTEX
  8
PLAN_1
 62
     2
  6
CONTINUOUS
 10
-0.495000
 20
2.200126
  0
VERTEX
  8
PLAN_1
 62
     2
  6
CONTINUOUS
 10
-0.497520
 20
2.199118
  0
VERTEX
  8
PLAN_1
 62
     2
  6
CONTINUOUS
 10
-0.500543
 20
2.198110
  0
VERTEX
  8
PLAN_1
 62
     2
  6
CONTINUOUS
 10
-0.502555
 20
2.196598
  0
VERTEX
  8
PLAN_1
 62
     2
  6
CONTINUOUS
 10
-0.504571
 20
2.194583
  0
VERTEX
  8
PLAN_1
 62
     2
  6
CONTINUOUS
 10
-0.506083
 20
2.192067
  0
VERTEX
  8
PLAN_1
 62
     2
  6
CONTINUOUS
 10
-0.507091
 20
2.189043
  0
VERTEX
  8
PLAN_1
 62
     2
  6
CONTINUOUS
 10
-0.507091
 20
2.185516
  0
VERTEX
  8
PLAN_1
 62
     2
  6
CONTINUOUS
 10
-0.507091
 20
2.182492
  0
VERTEX
  8
PLAN_1
 62
     2
  6
CONTINUOUS
 10
-0.506083
 20
2.179469
  0
VERTEX
  8
PLAN_1
 62
     2
  6
CONTINUOUS
 10
-0.504571
 20
2.176949
  0
VERTEX
  8
PLAN_1
 62
     2
  6
CONTINUOUS
 10
-0.502555
 20
2.174937
  0
VERTEX
  8
PLAN_1
 62
     2
  6
CONTINUOUS
 10
-0.500543
 20
2.173425
  0
VERTEX
  8
PLAN_1
 62
     2
  6
CONTINUOUS
 10
-0.497520
 20
2.172417
  0
VERTEX
  8
PLAN_1
 62
     2
  6
CONTINUOUS
 10
-0.494496
 20
2.171409
  0
VERTEX
  8
PLAN_1
 62
     2
  6
CONTINUOUS
 10
-0.490969
 20
2.171409
  0
VERTEX
  8
PLAN_1
 62
     2
  6
CONTINUOUS
 10
-0.485929
 20
2.171409
  0
VERTEX
  8
PLAN_1
 62
     2
  6
CONTINUOUS
 10
-0.482406
 20
2.172921
  0
VERTEX
  8
PLAN_1
 62
     2
  6
CONTINUOUS
 10
-0.479886
 20
2.174433
  0
VERTEX
  8
PLAN_1
 62
     2
  6
CONTINUOUS
 10
-0.477870
 20
2.176449
  0
VERTEX
  8
PLAN_1
 62
     2
  6
CONTINUOUS
 10
-0.476358
 20
2.178965
  0
VERTEX
  8
PLAN_1
 62
     2
  6
CONTINUOUS
 10
-0.475350
 20
2.180980
  0
VERTEX
  8
PLAN_1
 62
     2
  6
CONTINUOUS
 10
-0.475350
 20
2.183500
  0
VERTEX
  8
PLAN_1
 62
     2
  6
CONTINUOUS
 10
-0.474846
 20
2.186020
  0
VERTEX
  8
PLAN_1
 62
     2
  6
CONTINUOUS
 10
-0.475350
 20
2.188035
  0
VERTEX
  8
PLAN_1
 62
     2
  6
CONTINUOUS
 10
-0.475854
 20
2.190555
  0
VERTEX
  8
PLAN_1
 62
     2
  6
CONTINUOUS
 10
-0.476358
 20
2.192571
  0
VERTEX
  8
PLAN_1
 62
     2
  6
CONTINUOUS
 10
-0.477870
 20
2.195087
  0
VERTEX
  8
PLAN_1
 62
     2
  6
CONTINUOUS
 10
-0.479886
 20
2.197102
  0
VERTEX
  8
PLAN_1
 62
     2
  6
CONTINUOUS
 10
-0.482909
 20
2.198614
  0
VERTEX
  8
PLAN_1
 62
     2
  6
CONTINUOUS
 10
-0.486937
 20
2.199622
  0
VERTEX
  8
PLAN_1
 62
     2
  6
CONTINUOUS
 10
-0.491472
 20
2.200126
  0
SEQEND
  8
0
  0
POLYLINE
  8
PLAN_1
 62
     2
  6
CONTINUOUS
 66
     1
 40
0.003000
 41
0.003000
  0
VERTEX
  8
PLAN_1
 62
     2
  6
CONTINUOUS
 10
-0.489457
 20
2.219776
  0
VERTEX
  8
PLAN_1
 62
     2
  6
CONTINUOUS
 10
-0.493488
 20
2.220280
  0
VERTEX
  8
PLAN_1
 62
     2
  6
CONTINUOUS
 10
-0.497520
 20
2.220783
  0
VERTEX
  8
PLAN_1
 62
     2
  6
CONTINUOUS
 10
-0.500543
 20
2.221287
  0
VERTEX
  8
PLAN_1
 62
     2
  6
CONTINUOUS
 10
-0.503563
 20
2.222799
  0
VERTEX
  8
PLAN_1
 62
     2
  6
CONTINUOUS
 10
-0.506083
 20
2.224311
  0
VERTEX
  8
PLAN_1
 62
     2
  6
CONTINUOUS
 10
-0.508098
 20
2.225823
  0
VERTEX
  8
PLAN_1
 62
     2
  6
CONTINUOUS
 10
-0.510114
 20
2.227839
  0
VERTEX
  8
PLAN_1
 62
     2
  6
CONTINUOUS
 10
-0.511122
 20
2.229346
  0
VERTEX
  8
PLAN_1
 62
     2
  6
CONTINUOUS
 10
-0.513642
 20
2.233882
  0
VERTEX
  8
PLAN_1
 62
     2
  6
CONTINUOUS
 10
-0.514650
 20
2.237913
  0
VERTEX
  8
PLAN_1
 62
     2
  6
CONTINUOUS
 10
-0.515154
 20
2.241945
  0
VERTEX
  8
PLAN_1
 62
     2
  6
CONTINUOUS
 10
-0.515657
 20
2.244969
  0
VERTEX
  8
PLAN_1
 62
     2
  6
CONTINUOUS
 10
-0.515154
 20
2.250004
  0
VERTEX
  8
PLAN_1
 62
     2
  6
CONTINUOUS
 10
-0.514146
 20
2.254035
  0
VERTEX
  8
PLAN_1
 62
     2
  6
CONTINUOUS
 10
-0.512130
 20
2.258067
  0
VERTEX
  8
PLAN_1
 62
     2
  6
CONTINUOUS
 10
-0.509610
 20
2.261594
  0
VERTEX
  8
PLAN_1
 62
     2
  6
CONTINUOUS
 10
-0.506587
 20
2.264114
  0
VERTEX
  8
PLAN_1
 62
     2
  6
CONTINUOUS
 10
-0.503059
 20
2.266126
  0
VERTEX
  8
PLAN_1
 62
     2
  6
CONTINUOUS
 10
-0.498528
 20
2.267638
  0
VERTEX
  8
PLAN_1
 62
     2
  6
CONTINUOUS
 10
-0.493488
 20
2.268142
  0
VERTEX
  8
PLAN_1
 62
     2
  6
CONTINUOUS
 10
-0.488953
 20
2.267638
  0
VERTEX
  8
PLAN_1
 62
     2
  6
CONTINUOUS
 10
-0.484921
 20
2.266630
  0
VERTEX
  8
PLAN_1
 62
     2
  6
CONTINUOUS
 10
-0.481902
 20
2.264614
  0
VERTEX
  8
PLAN_1
 62
     2
  6
CONTINUOUS
 10
-0.478878
 20
2.262602
  0
VERTEX
  8
PLAN_1
 62
     2
  6
CONTINUOUS
 10
-0.475854
 20
2.259579
  0
VERTEX
  8
PLAN_1
 62
     2
  6
CONTINUOUS
 10
-0.473839
 20
2.256051
  0
VERTEX
  8
PLAN_1
 62
     2
  6
CONTINUOUS
 10
-0.471319
 20
2.252524
  0
VERTEX
  8
PLAN_1
 62
     2
  6
CONTINUOUS
 10
-0.469303
 20
2.248492
  0
VERTEX
  8
PLAN_1
 62
     2
  6
CONTINUOUS
 10
-0.465276
 20
2.240937
  0
VERTEX
  8
PLAN_1
 62
     2
  6
CONTINUOUS
 10
-0.463260
 20
2.237409
  0
VERTEX
  8
PLAN_1
 62
     2
  6
CONTINUOUS
 10
-0.460740
 20
2.234890
  0
VERTEX
  8
PLAN_1
 62
     2
  6
CONTINUOUS
 10
-0.458724
 20
2.232874
  0
VERTEX
  8
PLAN_1
 62
     2
  6
CONTINUOUS
 10
-0.457213
 20
2.230858
  0
VERTEX
  8
PLAN_1
 62
     2
  6
CONTINUOUS
 10
-0.455197
 20
2.229850
  0
VERTEX
  8
PLAN_1
 62
     2
  6
CONTINUOUS
 10
-0.453685
 20
2.228846
  0
VERTEX
  8
PLAN_1
 62
     2
  6
CONTINUOUS
 10
-0.452173
 20
2.228343
  0
VERTEX
  8
PLAN_1
 62
     2
  6
CONTINUOUS
 10
-0.451165
 20
2.228343
  0
VERTEX
  8
PLAN_1
 62
     2
  6
CONTINUOUS
 10
-0.451165
 20
2.268142
  0
VERTEX
  8
PLAN_1
 62
     2
  6
CONTINUOUS
 10
-0.442602
 20
2.268142
  0
VERTEX
  8
PLAN_1
 62
     2
  6
CONTINUOUS
 10
-0.442602
 20
2.218264
  0
VERTEX
  8
PLAN_1
 62
     2
  6
CONTINUOUS
 10
-0.447642
 20
2.218264
  0
VERTEX
  8
PLAN_1
 62
     2
  6
CONTINUOUS
 10
-0.452677
 20
2.219776
  0
VERTEX
  8
PLAN_1
 62
     2
  6
CONTINUOUS
 10
-0.456709
 20
2.221287
  0
VERTEX
  8
PLAN_1
 62
     2
  6
CONTINUOUS
 10
-0.460236
 20
2.223303
  0
VERTEX
  8
PLAN_1
 62
     2
  6
CONTINUOUS
 10
-0.463764
 20
2.225823
  0
VERTEX
  8
PLAN_1
 62
     2
  6
CONTINUOUS
 10
-0.466783
 20
2.228343
  0
VERTEX
  8
PLAN_1
 62
     2
  6
CONTINUOUS
 10
-0.469303
 20
2.231866
  0
VERTEX
  8
PLAN_1
 62
     2
  6
CONTINUOUS
 10
-0.471319
 20
2.235394
  0
VERTEX
  8
PLAN_1
 62
     2
  6
CONTINUOUS
 10
-0.476862
 20
2.244969
  0
VERTEX
  8
PLAN_1
 62
     2
  6
CONTINUOUS
 10
-0.478878
 20
2.247484
  0
VERTEX
  8
PLAN_1
 62
     2
  6
CONTINUOUS
 10
-0.480390
 20
2.250004
  0
VERTEX
  8
PLAN_1
 62
     2
  6
CONTINUOUS
 10
-0.481902
 20
2.252524
  0
VERTEX
  8
PLAN_1
 62
     2
  6
CONTINUOUS
 10
-0.483413
 20
2.254539
  0
VERTEX
  8
PLAN_1
 62
     2
  6
CONTINUOUS
 10
-0.485929
 20
2.256051
  0
VERTEX
  8
PLAN_1
 62
     2
  6
CONTINUOUS
 10
-0.487945
 20
2.257059
  0
VERTEX
  8
PLAN_1
 62
     2
  6
CONTINUOUS
 10
-0.490969
 20
2.258067
  0
VERTEX
  8
PLAN_1
 62
     2
  6
CONTINUOUS
 10
-0.493992
 20
2.258067
  0
VERTEX
  8
PLAN_1
 62
     2
  6
CONTINUOUS
 10
-0.496512
 20
2.258067
  0
VERTEX
  8
PLAN_1
 62
     2
  6
CONTINUOUS
 10
-0.498528
 20
2.257563
  0
VERTEX
  8
PLAN_1
 62
     2
  6
CONTINUOUS
 10
-0.501047
 20
2.256555
  0
VERTEX
  8
PLAN_1
 62
     2
  6
CONTINUOUS
 10
-0.503059
 20
2.255043
  0
VERTEX
  8
PLAN_1
 62
     2
  6
CONTINUOUS
 10
-0.504571
 20
2.253028
  0
VERTEX
  8
PLAN_1
 62
     2
  6
CONTINUOUS
 10
-0.506083
 20
2.250508
  0
VERTEX
  8
PLAN_1
 62
     2
  6
CONTINUOUS
 10
-0.507091
 20
2.247484
  0
VERTEX
  8
PLAN_1
 62
     2
  6
CONTINUOUS
 10
-0.507091
 20
2.243961
  0
VERTEX
  8
PLAN_1
 62
     2
  6
CONTINUOUS
 10
-0.507091
 20
2.241441
  0
VERTEX
  8
PLAN_1
 62
     2
  6
CONTINUOUS
 10
-0.506587
 20
2.239425
  0
VERTEX
  8
PLAN_1
 62
     2
  6
CONTINUOUS
 10
-0.506083
 20
2.237409
  0
VERTEX
  8
PLAN_1
 62
     2
  6
CONTINUOUS
 10
-0.505075
 20
2.235898
  0
VERTEX
  8
PLAN_1
 62
     2
  6
CONTINUOUS
 10
-0.503059
 20
2.233378
  0
VERTEX
  8
PLAN_1
 62
     2
  6
CONTINUOUS
 10
-0.500039
 20
2.231362
  0
VERTEX
  8
PLAN_1
 62
     2
  6
CONTINUOUS
 10
-0.497016
 20
2.230354
  0
VERTEX
  8
PLAN_1
 62
     2
  6
CONTINUOUS
 10
-0.494496
 20
2.229346
  0
VERTEX
  8
PLAN_1
 62
     2
  6
CONTINUOUS
 10
-0.491472
 20
2.229346
  0
VERTEX
  8
PLAN_1
 62
     2
  6
CONTINUOUS
 10
-0.489457
 20
2.228846
  0
VERTEX
  8
PLAN_1
 62
     2
  6
CONTINUOUS
 10
-0.489457
 20
2.219776
  0
SEQEND
  8
0
  0
POLYLINE
  8
PLAN_1
 62
     2
  6
CONTINUOUS
 66
     1
 40
0.004028
 41
0.004028
  0
VERTEX
  8
PLAN_1
 62
     2
  6
CONTINUOUS
 10
-0.534299
 20
-0.526567
  0
VERTEX
  8
PLAN_1
 62
     2
  6
CONTINUOUS
 10
-0.237547
 20
-0.526567
  0
SEQEND
  8
0
  0
POLYLINE
  8
PLAN_1
 62
     2
  6
CONTINUOUS
 66
     1
 40
0.004028
 41
0.004028
  0
VERTEX
  8
PLAN_1
 62
     2
  6
CONTINUOUS
 10
-0.867831
 20
0.404496
  0
VERTEX
  8
PLAN_1
 62
     2
  6
CONTINUOUS
 10
-0.395244
 20
0.404496
  0
SEQEND
  8
0
  0
POLYLINE
  8
PLAN_1
 62
     2
  6
CONTINUOUS
 66
     1
 40
0.004028
 41
0.004028
  0
VERTEX
  8
PLAN_1
 62
     2
  6
CONTINUOUS
 10
-1.311193
 20
4.025984
  0
VERTEX
  8
PLAN_1
 62
     2
  6
CONTINUOUS
 10
-0.241071
 20
4.025984
  0
SEQEND
  8
0
  0
ENDSEC
  0
EOF
