  0
SECTION
  2
HEADER
  9
$ACADVER
  1
AC1006
  9
$EXTMIN
 10
-2.297224
 20
-3.582083
  9
$EXTMAX
 10
2.293000
 20
3.580000
  9
$LTSCALE
 40
0.000394
  9
$PDMODE
 70
    35
  9
$PDSIZE
 40
0.000315
  0
ENDSEC
  0
SECTION
  2
TABLES
  0
TABLE
  2
LTYPE
 70
     9
  0
LTYPE
  2
CONTINUOUS
 70
    64
  3
Solid line
 72
    65
 73
     0
 40
0.000000
  0
LTYPE
  2
DASHED
 70
    64
  3
__ __ __ __ __ __ __ __ __ __ __ __ __ __ __
 72
    65
 73
     2
 40
0.000003
 49
0.000002
 49
-0.000001
  0
LTYPE
  2
HIDDEN
 70
    64
  3
 _ _ _ _ _ _ _ _ _ _ _ _ _ _ _ _ _ _ _ _ _ _
 72
    65
 73
     2
 40
0.000001
 49
0.000001
 49
-0.000000
  0
LTYPE
  2
CENTER
 70
    64
  3
____ _ ____ _ ____ _ ____ _ ____ _ ____ _ ____
 72
    65
 73
     4
 40
0.000008
 49
0.000005
 49
-0.000001
 49
0.000001
 49
-0.000001
  0
LTYPE
  2
PHANTOM
 70
    64
  3
_____ _ _ _____ _ _ _____ _ _ _____ _ _ ____
 72
    65
 73
     6
 40
0.000010
 49
0.000005
 49
-0.000001
 49
0.000001
 49
-0.000001
 49
0.000001
 49
-0.000001
  0
LTYPE
  2
DOT
 70
    64
  3
...............................................
 72
    65
 73
     2
 40
0.000001
 49
0.000000
 49
-0.000001
  0
LTYPE
  2
DASHDOT
 70
    64
  3
__ . __ . __ . __ . __ . __ . __ . __ . __ . __
 72
    65
 73
     4
 40
0.000004
 49
0.000002
 49
-0.000001
 49
0.000000
 49
-0.000001
  0
LTYPE
  2
BORDER
 70
    64
  3
__ __ . __ __ . __ __ . __ __ . __ __ . __ __
 72
    65
 73
     6
 40
0.000007
 49
0.000002
 49
-0.000001
 49
0.000002
 49
-0.000001
 49
0.000000
 49
-0.000001
  0
LTYPE
  2
DIVIDE
 70
    64
  3
__ . . __ . . __ . . __ . . __ . . __ . . __
 72
    65
 73
     6
 40
0.000005
 49
0.000002
 49
-0.000001
 49
0.000000
 49
-0.000001
 49
0.000000
 49
-0.000001
  0
LTYPE
  2
DOTDOT
 70
    64
  3
 . .  . .  . .  . .  . .  . . 
 72
    65
 73
     5
 40
0.000002
 49
-0.000001
 49
0.000000
 49
-0.000001
 49
0.000000
 49
-0.000001
  0
ENDTAB
  0
TABLE
  2
STYLE
 70
     0
  0
ENDTAB
  0
TABLE
  2
LAYER
 70
     3
  0
LAYER
  2
FOREGROUND
 70
    64
 62
     7
  6
CONTINUOUS
  0
LAYER
  2
BACKGROUND
 70
    65
 62
    -7
  6
CONTINUOUS
  0
LAYER
  2
PLAN_1
 70
    64
 62
     7
  6
CONTINUOUS
  0
ENDTAB
  0
ENDSEC
  0
SECTION
  2
ENTITIES
  0
POLYLINE
  8
PLAN_1
  6
CONTINUOUS
 66
     1
 40
0.003000
 41
0.003000
  0
VERTEX
  8
PLAN_1
  6
CONTINUOUS
 10
0.504717
 20
-3.547169
  0
VERTEX
  8
PLAN_1
  6
CONTINUOUS
 10
0.348047
 20
-3.547169
  0
VERTEX
  8
PLAN_1
  6
CONTINUOUS
 10
0.348047
 20
-3.524787
  0
VERTEX
  8
PLAN_1
  6
CONTINUOUS
 10
0.469803
 20
-3.372146
  0
VERTEX
  8
PLAN_1
  6
CONTINUOUS
 10
0.357000
 20
-3.372146
  0
VERTEX
  8
PLAN_1
  6
CONTINUOUS
 10
0.357000
 20
-3.347972
  0
VERTEX
  8
PLAN_1
  6
CONTINUOUS
 10
0.504717
 20
-3.347972
  0
VERTEX
  8
PLAN_1
  6
CONTINUOUS
 10
0.504717
 20
-3.371248
  0
VERTEX
  8
PLAN_1
  6
CONTINUOUS
 10
0.382067
 20
-3.523445
  0
VERTEX
  8
PLAN_1
  6
CONTINUOUS
 10
0.504717
 20
-3.523445
  0
VERTEX
  8
PLAN_1
  6
CONTINUOUS
 10
0.504717
 20
-3.547169
  0
SEQEND
  8
0
  0
POLYLINE
  8
PLAN_1
  6
CONTINUOUS
 66
     1
 40
0.003000
 41
0.003000
  0
VERTEX
  8
PLAN_1
  6
CONTINUOUS
 10
0.672130
 20
-3.407957
  0
VERTEX
  8
PLAN_1
  6
CONTINUOUS
 10
0.670339
 20
-3.401689
  0
VERTEX
  8
PLAN_1
  6
CONTINUOUS
 10
0.668551
 20
-3.396315
  0
VERTEX
  8
PLAN_1
  6
CONTINUOUS
 10
0.665866
 20
-3.391394
  0
VERTEX
  8
PLAN_1
  6
CONTINUOUS
 10
0.662732
 20
-3.386917
  0
VERTEX
  8
PLAN_1
  6
CONTINUOUS
 10
0.659598
 20
-3.382886
  0
VERTEX
  8
PLAN_1
  6
CONTINUOUS
 10
0.656016
 20
-3.379756
  0
VERTEX
  8
PLAN_1
  6
CONTINUOUS
 10
0.652437
 20
-3.376622
  0
VERTEX
  8
PLAN_1
  6
CONTINUOUS
 10
0.648406
 20
-3.374382
  0
VERTEX
  8
PLAN_1
  6
CONTINUOUS
 10
0.644378
 20
-3.372146
  0
VERTEX
  8
PLAN_1
  6
CONTINUOUS
 10
0.640350
 20
-3.370354
  0
VERTEX
  8
PLAN_1
  6
CONTINUOUS
 10
0.636319
 20
-3.369461
  0
VERTEX
  8
PLAN_1
  6
CONTINUOUS
 10
0.632291
 20
-3.368114
  0
VERTEX
  8
PLAN_1
  6
CONTINUOUS
 10
0.623787
 20
-3.367220
  0
VERTEX
  8
PLAN_1
  6
CONTINUOUS
 10
0.616177
 20
-3.366772
  0
VERTEX
  8
PLAN_1
  6
CONTINUOUS
 10
0.609465
 20
-3.367220
  0
VERTEX
  8
PLAN_1
  6
CONTINUOUS
 10
0.603197
 20
-3.368114
  0
VERTEX
  8
PLAN_1
  6
CONTINUOUS
 10
0.596929
 20
-3.369461
  0
VERTEX
  8
PLAN_1
  6
CONTINUOUS
 10
0.591110
 20
-3.371697
  0
VERTEX
  8
PLAN_1
  6
CONTINUOUS
 10
0.585291
 20
-3.374382
  0
VERTEX
  8
PLAN_1
  6
CONTINUOUS
 10
0.579917
 20
-3.377965
  0
VERTEX
  8
PLAN_1
  6
CONTINUOUS
 10
0.574996
 20
-3.381992
  0
VERTEX
  8
PLAN_1
  6
CONTINUOUS
 10
0.570071
 20
-3.386469
  0
VERTEX
  8
PLAN_1
  6
CONTINUOUS
 10
0.566043
 20
-3.391839
  0
VERTEX
  8
PLAN_1
  6
CONTINUOUS
 10
0.562461
 20
-3.397661
  0
VERTEX
  8
PLAN_1
  6
CONTINUOUS
 10
0.558882
 20
-3.404374
  0
VERTEX
  8
PLAN_1
  6
CONTINUOUS
 10
0.556193
 20
-3.411535
  0
VERTEX
  8
PLAN_1
  6
CONTINUOUS
 10
0.553957
 20
-3.419146
  0
VERTEX
  8
PLAN_1
  6
CONTINUOUS
 10
0.552614
 20
-3.427205
  0
VERTEX
  8
PLAN_1
  6
CONTINUOUS
 10
0.551272
 20
-3.436157
  0
VERTEX
  8
PLAN_1
  6
CONTINUOUS
 10
0.551272
 20
-3.446004
  0
VERTEX
  8
PLAN_1
  6
CONTINUOUS
 10
0.551272
 20
-3.454508
  0
VERTEX
  8
PLAN_1
  6
CONTINUOUS
 10
0.551720
 20
-3.463012
  0
VERTEX
  8
PLAN_1
  6
CONTINUOUS
 10
0.553063
 20
-3.471071
  0
VERTEX
  8
PLAN_1
  6
CONTINUOUS
 10
0.554406
 20
-3.478681
  0
VERTEX
  8
PLAN_1
  6
CONTINUOUS
 10
0.556642
 20
-3.485843
  0
VERTEX
  8
PLAN_1
  6
CONTINUOUS
 10
0.558882
 20
-3.492555
  0
VERTEX
  8
PLAN_1
  6
CONTINUOUS
 10
0.562016
 20
-3.498823
  0
VERTEX
  8
PLAN_1
  6
CONTINUOUS
 10
0.565594
 20
-3.505091
  0
VERTEX
  8
PLAN_1
  6
CONTINUOUS
 10
0.569622
 20
-3.510016
  0
VERTEX
  8
PLAN_1
  6
CONTINUOUS
 10
0.574547
 20
-3.514937
  0
VERTEX
  8
PLAN_1
  6
CONTINUOUS
 10
0.577232
 20
-3.517177
  0
VERTEX
  8
PLAN_1
  6
CONTINUOUS
 10
0.579917
 20
-3.518969
  0
VERTEX
  8
PLAN_1
  6
CONTINUOUS
 10
0.583051
 20
-3.520756
  0
VERTEX
  8
PLAN_1
  6
CONTINUOUS
 10
0.586185
 20
-3.522547
  0
VERTEX
  8
PLAN_1
  6
CONTINUOUS
 10
0.589319
 20
-3.523890
  0
VERTEX
  8
PLAN_1
  6
CONTINUOUS
 10
0.592902
 20
-3.525232
  0
VERTEX
  8
PLAN_1
  6
CONTINUOUS
 10
0.596480
 20
-3.526130
  0
VERTEX
  8
PLAN_1
  6
CONTINUOUS
 10
0.600063
 20
-3.527024
  0
VERTEX
  8
PLAN_1
  6
CONTINUOUS
 10
0.608118
 20
-3.528366
  0
VERTEX
  8
PLAN_1
  6
CONTINUOUS
 10
0.617071
 20
-3.528815
  0
VERTEX
  8
PLAN_1
  6
CONTINUOUS
 10
0.620654
 20
-3.528815
  0
VERTEX
  8
PLAN_1
  6
CONTINUOUS
 10
0.624236
 20
-3.528366
  0
VERTEX
  8
PLAN_1
  6
CONTINUOUS
 10
0.628264
 20
-3.527921
  0
VERTEX
  8
PLAN_1
  6
CONTINUOUS
 10
0.632291
 20
-3.526579
  0
VERTEX
  8
PLAN_1
  6
CONTINUOUS
 10
0.636319
 20
-3.525232
  0
VERTEX
  8
PLAN_1
  6
CONTINUOUS
 10
0.640350
 20
-3.523890
  0
VERTEX
  8
PLAN_1
  6
CONTINUOUS
 10
0.644827
 20
-3.521654
  0
VERTEX
  8
PLAN_1
  6
CONTINUOUS
 10
0.648854
 20
-3.518969
  0
VERTEX
  8
PLAN_1
  6
CONTINUOUS
 10
0.652882
 20
-3.515386
  0
VERTEX
  8
PLAN_1
  6
CONTINUOUS
 10
0.656465
 20
-3.511807
  0
VERTEX
  8
PLAN_1
  6
CONTINUOUS
 10
0.660492
 20
-3.507331
  0
VERTEX
  8
PLAN_1
  6
CONTINUOUS
 10
0.663626
 20
-3.502406
  0
VERTEX
  8
PLAN_1
  6
CONTINUOUS
 10
0.666760
 20
-3.496587
  0
VERTEX
  8
PLAN_1
  6
CONTINUOUS
 10
0.669894
 20
-3.489870
  0
VERTEX
  8
PLAN_1
  6
CONTINUOUS
 10
0.672130
 20
-3.482260
  0
VERTEX
  8
PLAN_1
  6
CONTINUOUS
 10
0.673921
 20
-3.474205
  0
VERTEX
  8
PLAN_1
  6
CONTINUOUS
 10
0.700331
 20
-3.474205
  0
VERTEX
  8
PLAN_1
  6
CONTINUOUS
 10
0.698988
 20
-3.480917
  0
VERTEX
  8
PLAN_1
  6
CONTINUOUS
 10
0.697646
 20
-3.487185
  0
VERTEX
  8
PLAN_1
  6
CONTINUOUS
 10
0.695854
 20
-3.493453
  0
VERTEX
  8
PLAN_1
  6
CONTINUOUS
 10
0.694063
 20
-3.499272
  0
VERTEX
  8
PLAN_1
  6
CONTINUOUS
 10
0.691827
 20
-3.504197
  0
VERTEX
  8
PLAN_1
  6
CONTINUOUS
 10
0.689142
 20
-3.509118
  0
VERTEX
  8
PLAN_1
  6
CONTINUOUS
 10
0.686902
 20
-3.514043
  0
VERTEX
  8
PLAN_1
  6
CONTINUOUS
 10
0.683768
 20
-3.518071
  0
VERTEX
  8
PLAN_1
  6
CONTINUOUS
 10
0.681083
 20
-3.522102
  0
VERTEX
  8
PLAN_1
  6
CONTINUOUS
 10
0.677949
 20
-3.525681
  0
VERTEX
  8
PLAN_1
  6
CONTINUOUS
 10
0.674815
 20
-3.528815
  0
VERTEX
  8
PLAN_1
  6
CONTINUOUS
 10
0.671685
 20
-3.531949
  0
VERTEX
  8
PLAN_1
  6
CONTINUOUS
 10
0.668551
 20
-3.534634
  0
VERTEX
  8
PLAN_1
  6
CONTINUOUS
 10
0.664969
 20
-3.537319
  0
VERTEX
  8
PLAN_1
  6
CONTINUOUS
 10
0.661390
 20
-3.539559
  0
VERTEX
  8
PLAN_1
  6
CONTINUOUS
 10
0.658256
 20
-3.541795
  0
VERTEX
  8
PLAN_1
  6
CONTINUOUS
 10
0.651091
 20
-3.544929
  0
VERTEX
  8
PLAN_1
  6
CONTINUOUS
 10
0.644378
 20
-3.547614
  0
VERTEX
  8
PLAN_1
  6
CONTINUOUS
 10
0.637665
 20
-3.549406
  0
VERTEX
  8
PLAN_1
  6
CONTINUOUS
 10
0.631398
 20
-3.551197
  0
VERTEX
  8
PLAN_1
  6
CONTINUOUS
 10
0.620654
 20
-3.552539
  0
VERTEX
  8
PLAN_1
  6
CONTINUOUS
 10
0.613043
 20
-3.552539
  0
VERTEX
  8
PLAN_1
  6
CONTINUOUS
 10
0.604539
 20
-3.552539
  0
VERTEX
  8
PLAN_1
  6
CONTINUOUS
 10
0.596035
 20
-3.551197
  0
VERTEX
  8
PLAN_1
  6
CONTINUOUS
 10
0.587976
 20
-3.549406
  0
VERTEX
  8
PLAN_1
  6
CONTINUOUS
 10
0.579917
 20
-3.546720
  0
VERTEX
  8
PLAN_1
  6
CONTINUOUS
 10
0.572311
 20
-3.543587
  0
VERTEX
  8
PLAN_1
  6
CONTINUOUS
 10
0.564701
 20
-3.539110
  0
VERTEX
  8
PLAN_1
  6
CONTINUOUS
 10
0.561118
 20
-3.536874
  0
VERTEX
  8
PLAN_1
  6
CONTINUOUS
 10
0.557539
 20
-3.534185
  0
VERTEX
  8
PLAN_1
  6
CONTINUOUS
 10
0.554406
 20
-3.531500
  0
VERTEX
  8
PLAN_1
  6
CONTINUOUS
 10
0.551272
 20
-3.528366
  0
VERTEX
  8
PLAN_1
  6
CONTINUOUS
 10
0.548138
 20
-3.525232
  0
VERTEX
  8
PLAN_1
  6
CONTINUOUS
 10
0.545004
 20
-3.521654
  0
VERTEX
  8
PLAN_1
  6
CONTINUOUS
 10
0.542319
 20
-3.517626
  0
VERTEX
  8
PLAN_1
  6
CONTINUOUS
 10
0.539634
 20
-3.514043
  0
VERTEX
  8
PLAN_1
  6
CONTINUOUS
 10
0.537394
 20
-3.509567
  0
VERTEX
  8
PLAN_1
  6
CONTINUOUS
 10
0.535157
 20
-3.505091
  0
VERTEX
  8
PLAN_1
  6
CONTINUOUS
 10
0.532917
 20
-3.500614
  0
VERTEX
  8
PLAN_1
  6
CONTINUOUS
 10
0.531126
 20
-3.495689
  0
VERTEX
  8
PLAN_1
  6
CONTINUOUS
 10
0.529339
 20
-3.490319
  0
VERTEX
  8
PLAN_1
  6
CONTINUOUS
 10
0.527547
 20
-3.484949
  0
VERTEX
  8
PLAN_1
  6
CONTINUOUS
 10
0.526650
 20
-3.479130
  0
VERTEX
  8
PLAN_1
  6
CONTINUOUS
 10
0.525307
 20
-3.473307
  0
VERTEX
  8
PLAN_1
  6
CONTINUOUS
 10
0.524413
 20
-3.467043
  0
VERTEX
  8
PLAN_1
  6
CONTINUOUS
 10
0.523965
 20
-3.460327
  0
VERTEX
  8
PLAN_1
  6
CONTINUOUS
 10
0.523520
 20
-3.453614
  0
VERTEX
  8
PLAN_1
  6
CONTINUOUS
 10
0.523520
 20
-3.446453
  0
VERTEX
  8
PLAN_1
  6
CONTINUOUS
 10
0.523965
 20
-3.435260
  0
VERTEX
  8
PLAN_1
  6
CONTINUOUS
 10
0.524862
 20
-3.424516
  0
VERTEX
  8
PLAN_1
  6
CONTINUOUS
 10
0.527098
 20
-3.414220
  0
VERTEX
  8
PLAN_1
  6
CONTINUOUS
 10
0.529783
 20
-3.404374
  0
VERTEX
  8
PLAN_1
  6
CONTINUOUS
 10
0.531575
 20
-3.399898
  0
VERTEX
  8
PLAN_1
  6
CONTINUOUS
 10
0.533366
 20
-3.395421
  0
VERTEX
  8
PLAN_1
  6
CONTINUOUS
 10
0.535157
 20
-3.390945
  0
VERTEX
  8
PLAN_1
  6
CONTINUOUS
 10
0.537394
 20
-3.386917
  0
VERTEX
  8
PLAN_1
  6
CONTINUOUS
 10
0.540079
 20
-3.382886
  0
VERTEX
  8
PLAN_1
  6
CONTINUOUS
 10
0.542319
 20
-3.378858
  0
VERTEX
  8
PLAN_1
  6
CONTINUOUS
 10
0.545004
 20
-3.375280
  0
VERTEX
  8
PLAN_1
  6
CONTINUOUS
 10
0.548138
 20
-3.371697
  0
VERTEX
  8
PLAN_1
  6
CONTINUOUS
 10
0.551272
 20
-3.368563
  0
VERTEX
  8
PLAN_1
  6
CONTINUOUS
 10
0.554406
 20
-3.365429
  0
VERTEX
  8
PLAN_1
  6
CONTINUOUS
 10
0.557984
 20
-3.362295
  0
VERTEX
  8
PLAN_1
  6
CONTINUOUS
 10
0.561567
 20
-3.359610
  0
VERTEX
  8
PLAN_1
  6
CONTINUOUS
 10
0.565146
 20
-3.356925
  0
VERTEX
  8
PLAN_1
  6
CONTINUOUS
 10
0.569177
 20
-3.354685
  0
VERTEX
  8
PLAN_1
  6
CONTINUOUS
 10
0.573205
 20
-3.352449
  0
VERTEX
  8
PLAN_1
  6
CONTINUOUS
 10
0.577232
 20
-3.350213
  0
VERTEX
  8
PLAN_1
  6
CONTINUOUS
 10
0.581709
 20
-3.348866
  0
VERTEX
  8
PLAN_1
  6
CONTINUOUS
 10
0.586185
 20
-3.347079
  0
VERTEX
  8
PLAN_1
  6
CONTINUOUS
 10
0.590661
 20
-3.345736
  0
VERTEX
  8
PLAN_1
  6
CONTINUOUS
 10
0.595587
 20
-3.344839
  0
VERTEX
  8
PLAN_1
  6
CONTINUOUS
 10
0.600512
 20
-3.343945
  0
VERTEX
  8
PLAN_1
  6
CONTINUOUS
 10
0.605882
 20
-3.343496
  0
VERTEX
  8
PLAN_1
  6
CONTINUOUS
 10
0.610807
 20
-3.343047
  0
VERTEX
  8
PLAN_1
  6
CONTINUOUS
 10
0.616177
 20
-3.343047
  0
VERTEX
  8
PLAN_1
  6
CONTINUOUS
 10
0.625579
 20
-3.343047
  0
VERTEX
  8
PLAN_1
  6
CONTINUOUS
 10
0.634531
 20
-3.344390
  0
VERTEX
  8
PLAN_1
  6
CONTINUOUS
 10
0.642587
 20
-3.346181
  0
VERTEX
  8
PLAN_1
  6
CONTINUOUS
 10
0.650197
 20
-3.348421
  0
VERTEX
  8
PLAN_1
  6
CONTINUOUS
 10
0.657358
 20
-3.351106
  0
VERTEX
  8
PLAN_1
  6
CONTINUOUS
 10
0.663626
 20
-3.354685
  0
VERTEX
  8
PLAN_1
  6
CONTINUOUS
 10
0.669894
 20
-3.358717
  0
VERTEX
  8
PLAN_1
  6
CONTINUOUS
 10
0.675264
 20
-3.362744
  0
VERTEX
  8
PLAN_1
  6
CONTINUOUS
 10
0.679740
 20
-3.367669
  0
VERTEX
  8
PLAN_1
  6
CONTINUOUS
 10
0.684217
 20
-3.372591
  0
VERTEX
  8
PLAN_1
  6
CONTINUOUS
 10
0.687799
 20
-3.377965
  0
VERTEX
  8
PLAN_1
  6
CONTINUOUS
 10
0.690933
 20
-3.383783
  0
VERTEX
  8
PLAN_1
  6
CONTINUOUS
 10
0.693618
 20
-3.389602
  0
VERTEX
  8
PLAN_1
  6
CONTINUOUS
 10
0.695854
 20
-3.395870
  0
VERTEX
  8
PLAN_1
  6
CONTINUOUS
 10
0.697197
 20
-3.401689
  0
VERTEX
  8
PLAN_1
  6
CONTINUOUS
 10
0.698094
 20
-3.407957
  0
VERTEX
  8
PLAN_1
  6
CONTINUOUS
 10
0.672130
 20
-3.407957
  0
SEQEND
  8
0
  0
POLYLINE
  8
PLAN_1
  6
CONTINUOUS
 66
     1
 40
0.003000
 41
0.003000
  0
VERTEX
  8
PLAN_1
  6
CONTINUOUS
 10
0.759866
 20
-3.547169
  0
VERTEX
  8
PLAN_1
  6
CONTINUOUS
 10
0.732563
 20
-3.547169
  0
VERTEX
  8
PLAN_1
  6
CONTINUOUS
 10
0.732563
 20
-3.347972
  0
VERTEX
  8
PLAN_1
  6
CONTINUOUS
 10
0.759866
 20
-3.347972
  0
VERTEX
  8
PLAN_1
  6
CONTINUOUS
 10
0.759866
 20
-3.444661
  0
VERTEX
  8
PLAN_1
  6
CONTINUOUS
 10
0.856106
 20
-3.347972
  0
VERTEX
  8
PLAN_1
  6
CONTINUOUS
 10
0.893260
 20
-3.347972
  0
VERTEX
  8
PLAN_1
  6
CONTINUOUS
 10
0.810449
 20
-3.428547
  0
VERTEX
  8
PLAN_1
  6
CONTINUOUS
 10
0.895500
 20
-3.547169
  0
VERTEX
  8
PLAN_1
  6
CONTINUOUS
 10
0.860583
 20
-3.547169
  0
VERTEX
  8
PLAN_1
  6
CONTINUOUS
 10
0.791201
 20
-3.447346
  0
VERTEX
  8
PLAN_1
  6
CONTINUOUS
 10
0.759866
 20
-3.477339
  0
VERTEX
  8
PLAN_1
  6
CONTINUOUS
 10
0.759866
 20
-3.547169
  0
SEQEND
  8
0
  0
POLYLINE
  8
PLAN_1
  6
CONTINUOUS
 66
     1
 40
0.003000
 41
0.003000
  0
VERTEX
  8
PLAN_1
  6
CONTINUOUS
 10
1.002929
 20
-3.547169
  0
VERTEX
  8
PLAN_1
  6
CONTINUOUS
 10
0.976071
 20
-3.547169
  0
VERTEX
  8
PLAN_1
  6
CONTINUOUS
 10
0.976071
 20
-3.467043
  0
VERTEX
  8
PLAN_1
  6
CONTINUOUS
 10
0.900870
 20
-3.347972
  0
VERTEX
  8
PLAN_1
  6
CONTINUOUS
 10
0.932205
 20
-3.347972
  0
VERTEX
  8
PLAN_1
  6
CONTINUOUS
 10
0.989500
 20
-3.443764
  0
VERTEX
  8
PLAN_1
  6
CONTINUOUS
 10
1.046350
 20
-3.347972
  0
VERTEX
  8
PLAN_1
  6
CONTINUOUS
 10
1.078130
 20
-3.347972
  0
VERTEX
  8
PLAN_1
  6
CONTINUOUS
 10
1.002929
 20
-3.467043
  0
VERTEX
  8
PLAN_1
  6
CONTINUOUS
 10
1.002929
 20
-3.547169
  0
SEQEND
  8
0
  0
POLYLINE
  8
PLAN_1
  6
CONTINUOUS
 66
     1
 40
0.003000
 41
0.003000
  0
VERTEX
  8
PLAN_1
  6
CONTINUOUS
 10
1.197650
 20
-3.404374
  0
VERTEX
  8
PLAN_1
  6
CONTINUOUS
 10
1.196307
 20
-3.398106
  0
VERTEX
  8
PLAN_1
  6
CONTINUOUS
 10
1.194067
 20
-3.392287
  0
VERTEX
  8
PLAN_1
  6
CONTINUOUS
 10
1.193173
 20
-3.389602
  0
VERTEX
  8
PLAN_1
  6
CONTINUOUS
 10
1.191382
 20
-3.386917
  0
VERTEX
  8
PLAN_1
  6
CONTINUOUS
 10
1.189591
 20
-3.384677
  0
VERTEX
  8
PLAN_1
  6
CONTINUOUS
 10
1.187799
 20
-3.382886
  0
VERTEX
  8
PLAN_1
  6
CONTINUOUS
 10
1.185563
 20
-3.380650
  0
VERTEX
  8
PLAN_1
  6
CONTINUOUS
 10
1.183323
 20
-3.379307
  0
VERTEX
  8
PLAN_1
  6
CONTINUOUS
 10
1.180638
 20
-3.377516
  0
VERTEX
  8
PLAN_1
  6
CONTINUOUS
 10
1.177953
 20
-3.376622
  0
VERTEX
  8
PLAN_1
  6
CONTINUOUS
 10
1.174819
 20
-3.375280
  0
VERTEX
  8
PLAN_1
  6
CONTINUOUS
 10
1.171685
 20
-3.374831
  0
VERTEX
  8
PLAN_1
  6
CONTINUOUS
 10
1.168106
 20
-3.374382
  0
VERTEX
  8
PLAN_1
  6
CONTINUOUS
 10
1.164075
 20
-3.374382
  0
VERTEX
  8
PLAN_1
  6
CONTINUOUS
 10
1.160945
 20
-3.374382
  0
VERTEX
  8
PLAN_1
  6
CONTINUOUS
 10
1.157362
 20
-3.374831
  0
VERTEX
  8
PLAN_1
  6
CONTINUOUS
 10
1.154228
 20
-3.375280
  0
VERTEX
  8
PLAN_1
  6
CONTINUOUS
 10
1.151094
 20
-3.376622
  0
VERTEX
  8
PLAN_1
  6
CONTINUOUS
 10
1.148409
 20
-3.377516
  0
VERTEX
  8
PLAN_1
  6
CONTINUOUS
 10
1.145724
 20
-3.379307
  0
VERTEX
  8
PLAN_1
  6
CONTINUOUS
 10
1.143039
 20
-3.380650
  0
VERTEX
  8
PLAN_1
  6
CONTINUOUS
 10
1.140799
 20
-3.382441
  0
VERTEX
  8
PLAN_1
  6
CONTINUOUS
 10
1.136323
 20
-3.386917
  0
VERTEX
  8
PLAN_1
  6
CONTINUOUS
 10
1.132744
 20
-3.391394
  0
VERTEX
  8
PLAN_1
  6
CONTINUOUS
 10
1.129610
 20
-3.396764
  0
VERTEX
  8
PLAN_1
  6
CONTINUOUS
 10
1.126925
 20
-3.402583
  0
VERTEX
  8
PLAN_1
  6
CONTINUOUS
 10
1.124236
 20
-3.408402
  0
VERTEX
  8
PLAN_1
  6
CONTINUOUS
 10
1.122449
 20
-3.414669
  0
VERTEX
  8
PLAN_1
  6
CONTINUOUS
 10
1.121102
 20
-3.420488
  0
VERTEX
  8
PLAN_1
  6
CONTINUOUS
 10
1.119760
 20
-3.426307
  0
VERTEX
  8
PLAN_1
  6
CONTINUOUS
 10
1.118417
 20
-3.437500
  0
VERTEX
  8
PLAN_1
  6
CONTINUOUS
 10
1.117972
 20
-3.446453
  0
VERTEX
  8
PLAN_1
  6
CONTINUOUS
 10
1.118417
 20
-3.446898
  0
VERTEX
  8
PLAN_1
  6
CONTINUOUS
 10
1.121102
 20
-3.442870
  0
VERTEX
  8
PLAN_1
  6
CONTINUOUS
 10
1.124685
 20
-3.438843
  0
VERTEX
  8
PLAN_1
  6
CONTINUOUS
 10
1.128713
 20
-3.434811
  0
VERTEX
  8
PLAN_1
  6
CONTINUOUS
 10
1.134087
 20
-3.431232
  0
VERTEX
  8
PLAN_1
  6
CONTINUOUS
 10
1.136772
 20
-3.429441
  0
VERTEX
  8
PLAN_1
  6
CONTINUOUS
 10
1.139906
 20
-3.427650
  0
VERTEX
  8
PLAN_1
  6
CONTINUOUS
 10
1.143484
 20
-3.426307
  0
VERTEX
  8
PLAN_1
  6
CONTINUOUS
 10
1.147067
 20
-3.425413
  0
VERTEX
  8
PLAN_1
  6
CONTINUOUS
 10
1.151094
 20
-3.424516
  0
VERTEX
  8
PLAN_1
  6
CONTINUOUS
 10
1.155571
 20
-3.423622
  0
VERTEX
  8
PLAN_1
  6
CONTINUOUS
 10
1.160047
 20
-3.423173
  0
VERTEX
  8
PLAN_1
  6
CONTINUOUS
 10
1.164972
 20
-3.423173
  0
VERTEX
  8
PLAN_1
  6
CONTINUOUS
 10
1.169449
 20
-3.423173
  0
VERTEX
  8
PLAN_1
  6
CONTINUOUS
 10
1.174374
 20
-3.423622
  0
VERTEX
  8
PLAN_1
  6
CONTINUOUS
 10
1.179295
 20
-3.424965
  0
VERTEX
  8
PLAN_1
  6
CONTINUOUS
 10
1.184220
 20
-3.426307
  0
VERTEX
  8
PLAN_1
  6
CONTINUOUS
 10
1.189591
 20
-3.428098
  0
VERTEX
  8
PLAN_1
  6
CONTINUOUS
 10
1.194516
 20
-3.430335
  0
VERTEX
  8
PLAN_1
  6
CONTINUOUS
 10
1.199441
 20
-3.433024
  0
VERTEX
  8
PLAN_1
  6
CONTINUOUS
 10
1.204362
 20
-3.436602
  0
VERTEX
  8
PLAN_1
  6
CONTINUOUS
 10
1.208839
 20
-3.440634
  0
VERTEX
  8
PLAN_1
  6
CONTINUOUS
 10
1.212870
 20
-3.444661
  0
VERTEX
  8
PLAN_1
  6
CONTINUOUS
 10
1.216449
 20
-3.450031
  0
VERTEX
  8
PLAN_1
  6
CONTINUOUS
 10
1.219583
 20
-3.455406
  0
VERTEX
  8
PLAN_1
  6
CONTINUOUS
 10
1.222268
 20
-3.462118
  0
VERTEX
  8
PLAN_1
  6
CONTINUOUS
 10
1.224059
 20
-3.468831
  0
VERTEX
  8
PLAN_1
  6
CONTINUOUS
 10
1.225402
 20
-3.476441
  0
VERTEX
  8
PLAN_1
  6
CONTINUOUS
 10
1.225850
 20
-3.484949
  0
VERTEX
  8
PLAN_1
  6
CONTINUOUS
 10
1.225850
 20
-3.492110
  0
VERTEX
  8
PLAN_1
  6
CONTINUOUS
 10
1.224953
 20
-3.498823
  0
VERTEX
  8
PLAN_1
  6
CONTINUOUS
 10
1.223610
 20
-3.505539
  0
VERTEX
  8
PLAN_1
  6
CONTINUOUS
 10
1.221374
 20
-3.511358
  0
VERTEX
  8
PLAN_1
  6
CONTINUOUS
 10
1.219134
 20
-3.517177
  0
VERTEX
  8
PLAN_1
  6
CONTINUOUS
 10
1.216000
 20
-3.522996
  0
VERTEX
  8
PLAN_1
  6
CONTINUOUS
 10
1.211972
 20
-3.528366
  0
VERTEX
  8
PLAN_1
  6
CONTINUOUS
 10
1.207496
 20
-3.533740
  0
VERTEX
  8
PLAN_1
  6
CONTINUOUS
 10
1.203469
 20
-3.537768
  0
VERTEX
  8
PLAN_1
  6
CONTINUOUS
 10
1.198992
 20
-3.541350
  0
VERTEX
  8
PLAN_1
  6
CONTINUOUS
 10
1.194516
 20
-3.544929
  0
VERTEX
  8
PLAN_1
  6
CONTINUOUS
 10
1.189146
 20
-3.547614
  0
VERTEX
  8
PLAN_1
  6
CONTINUOUS
 10
1.182878
 20
-3.549854
  0
VERTEX
  8
PLAN_1
  6
CONTINUOUS
 10
1.175717
 20
-3.551197
  0
VERTEX
  8
PLAN_1
  6
CONTINUOUS
 10
1.167657
 20
-3.552539
  0
VERTEX
  8
PLAN_1
  6
CONTINUOUS
 10
1.157811
 20
-3.552539
  0
VERTEX
  8
PLAN_1
  6
CONTINUOUS
 10
1.151992
 20
-3.552539
  0
VERTEX
  8
PLAN_1
  6
CONTINUOUS
 10
1.145724
 20
-3.551197
  0
VERTEX
  8
PLAN_1
  6
CONTINUOUS
 10
1.139008
 20
-3.549406
  0
VERTEX
  8
PLAN_1
  6
CONTINUOUS
 10
1.132295
 20
-3.546720
  0
VERTEX
  8
PLAN_1
  6
CONTINUOUS
 10
1.129161
 20
-3.544929
  0
VERTEX
  8
PLAN_1
  6
CONTINUOUS
 10
1.125579
 20
-3.542693
  0
VERTEX
  8
PLAN_1
  6
CONTINUOUS
 10
1.122449
 20
-3.540453
  0
VERTEX
  8
PLAN_1
  6
CONTINUOUS
 10
1.119315
 20
-3.537768
  0
VERTEX
  8
PLAN_1
  6
CONTINUOUS
 10
1.116181
 20
-3.535083
  0
VERTEX
  8
PLAN_1
  6
CONTINUOUS
 10
1.113047
 20
-3.531949
  0
VERTEX
  8
PLAN_1
  6
CONTINUOUS
 10
1.110362
 20
-3.528366
  0
VERTEX
  8
PLAN_1
  6
CONTINUOUS
 10
1.107677
 20
-3.524339
  0
VERTEX
  8
PLAN_1
  6
CONTINUOUS
 10
1.103646
 20
-3.517177
  0
VERTEX
  8
PLAN_1
  6
CONTINUOUS
 10
1.100512
 20
-3.509567
  0
VERTEX
  8
PLAN_1
  6
CONTINUOUS
 10
1.097827
 20
-3.501508
  0
VERTEX
  8
PLAN_1
  6
CONTINUOUS
 10
1.095591
 20
-3.493004
  0
VERTEX
  8
PLAN_1
  6
CONTINUOUS
 10
1.094248
 20
-3.484500
  0
VERTEX
  8
PLAN_1
  6
CONTINUOUS
 10
1.093350
 20
-3.475547
  0
VERTEX
  8
PLAN_1
  6
CONTINUOUS
 10
1.092902
 20
-3.466146
  0
VERTEX
  8
PLAN_1
  6
CONTINUOUS
 10
1.092457
 20
-3.456748
  0
VERTEX
  8
PLAN_1
  6
CONTINUOUS
 10
1.092902
 20
-3.448240
  0
VERTEX
  8
PLAN_1
  6
CONTINUOUS
 10
1.093350
 20
-3.439736
  0
VERTEX
  8
PLAN_1
  6
CONTINUOUS
 10
1.094248
 20
-3.431232
  0
VERTEX
  8
PLAN_1
  6
CONTINUOUS
 10
1.095591
 20
-3.422280
  0
VERTEX
  8
PLAN_1
  6
CONTINUOUS
 10
1.097827
 20
-3.413327
  0
VERTEX
  8
PLAN_1
  6
CONTINUOUS
 10
1.100067
 20
-3.404823
  0
VERTEX
  8
PLAN_1
  6
CONTINUOUS
 10
1.103201
 20
-3.396315
  0
VERTEX
  8
PLAN_1
  6
CONTINUOUS
 10
1.106780
 20
-3.388260
  0
VERTEX
  8
PLAN_1
  6
CONTINUOUS
 10
1.109020
 20
-3.384677
  0
VERTEX
  8
PLAN_1
  6
CONTINUOUS
 10
1.111256
 20
-3.381098
  0
VERTEX
  8
PLAN_1
  6
CONTINUOUS
 10
1.113941
 20
-3.377516
  0
VERTEX
  8
PLAN_1
  6
CONTINUOUS
 10
1.116181
 20
-3.373937
  0
VERTEX
  8
PLAN_1
  6
CONTINUOUS
 10
1.119315
 20
-3.370803
  0
VERTEX
  8
PLAN_1
  6
CONTINUOUS
 10
1.122449
 20
-3.367669
  0
VERTEX
  8
PLAN_1
  6
CONTINUOUS
 10
1.125579
 20
-3.364984
  0
VERTEX
  8
PLAN_1
  6
CONTINUOUS
 10
1.129161
 20
-3.362744
  0
VERTEX
  8
PLAN_1
  6
CONTINUOUS
 10
1.132744
 20
-3.360508
  0
VERTEX
  8
PLAN_1
  6
CONTINUOUS
 10
1.136323
 20
-3.358268
  0
VERTEX
  8
PLAN_1
  6
CONTINUOUS
 10
1.140799
 20
-3.356476
  0
VERTEX
  8
PLAN_1
  6
CONTINUOUS
 10
1.144827
 20
-3.355134
  0
VERTEX
  8
PLAN_1
  6
CONTINUOUS
 10
1.149752
 20
-3.353791
  0
VERTEX
  8
PLAN_1
  6
CONTINUOUS
 10
1.154228
 20
-3.352898
  0
VERTEX
  8
PLAN_1
  6
CONTINUOUS
 10
1.159598
 20
-3.352449
  0
VERTEX
  8
PLAN_1
  6
CONTINUOUS
 10
1.164972
 20
-3.352449
  0
VERTEX
  8
PLAN_1
  6
CONTINUOUS
 10
1.169000
 20
-3.352449
  0
VERTEX
  8
PLAN_1
  6
CONTINUOUS
 10
1.173476
 20
-3.352898
  0
VERTEX
  8
PLAN_1
  6
CONTINUOUS
 10
1.178402
 20
-3.353791
  0
VERTEX
  8
PLAN_1
  6
CONTINUOUS
 10
1.182878
 20
-3.354685
  0
VERTEX
  8
PLAN_1
  6
CONTINUOUS
 10
1.187354
 20
-3.356476
  0
VERTEX
  8
PLAN_1
  6
CONTINUOUS
 10
1.191831
 20
-3.358268
  0
VERTEX
  8
PLAN_1
  6
CONTINUOUS
 10
1.196307
 20
-3.360508
  0
VERTEX
  8
PLAN_1
  6
CONTINUOUS
 10
1.200783
 20
-3.363193
  0
VERTEX
  8
PLAN_1
  6
CONTINUOUS
 10
1.204811
 20
-3.366772
  0
VERTEX
  8
PLAN_1
  6
CONTINUOUS
 10
1.208394
 20
-3.370354
  0
VERTEX
  8
PLAN_1
  6
CONTINUOUS
 10
1.211972
 20
-3.374382
  0
VERTEX
  8
PLAN_1
  6
CONTINUOUS
 10
1.215106
 20
-3.379307
  0
VERTEX
  8
PLAN_1
  6
CONTINUOUS
 10
1.217346
 20
-3.384677
  0
VERTEX
  8
PLAN_1
  6
CONTINUOUS
 10
1.219583
 20
-3.390496
  0
VERTEX
  8
PLAN_1
  6
CONTINUOUS
 10
1.220925
 20
-3.397213
  0
VERTEX
  8
PLAN_1
  6
CONTINUOUS
 10
1.221823
 20
-3.404374
  0
VERTEX
  8
PLAN_1
  6
CONTINUOUS
 10
1.197650
 20
-3.404374
  0
SEQEND
  8
0
  0
POLYLINE
  8
PLAN_1
  6
CONTINUOUS
 66
     1
 40
0.003000
 41
0.003000
  0
VERTEX
  8
PLAN_1
  6
CONTINUOUS
 10
1.162287
 20
-3.530606
  0
VERTEX
  8
PLAN_1
  6
CONTINUOUS
 10
1.166764
 20
-3.530606
  0
VERTEX
  8
PLAN_1
  6
CONTINUOUS
 10
1.170791
 20
-3.529709
  0
VERTEX
  8
PLAN_1
  6
CONTINUOUS
 10
1.174374
 20
-3.528815
  0
VERTEX
  8
PLAN_1
  6
CONTINUOUS
 10
1.177953
 20
-3.527472
  0
VERTEX
  8
PLAN_1
  6
CONTINUOUS
 10
1.181535
 20
-3.525681
  0
VERTEX
  8
PLAN_1
  6
CONTINUOUS
 10
1.184669
 20
-3.523445
  0
VERTEX
  8
PLAN_1
  6
CONTINUOUS
 10
1.187799
 20
-3.521205
  0
VERTEX
  8
PLAN_1
  6
CONTINUOUS
 10
1.190039
 20
-3.518071
  0
VERTEX
  8
PLAN_1
  6
CONTINUOUS
 10
1.192724
 20
-3.515386
  0
VERTEX
  8
PLAN_1
  6
CONTINUOUS
 10
1.194516
 20
-3.511807
  0
VERTEX
  8
PLAN_1
  6
CONTINUOUS
 10
1.196307
 20
-3.508224
  0
VERTEX
  8
PLAN_1
  6
CONTINUOUS
 10
1.198098
 20
-3.504197
  0
VERTEX
  8
PLAN_1
  6
CONTINUOUS
 10
1.198992
 20
-3.500165
  0
VERTEX
  8
PLAN_1
  6
CONTINUOUS
 10
1.199886
 20
-3.495689
  0
VERTEX
  8
PLAN_1
  6
CONTINUOUS
 10
1.200335
 20
-3.490768
  0
VERTEX
  8
PLAN_1
  6
CONTINUOUS
 10
1.200783
 20
-3.485843
  0
VERTEX
  8
PLAN_1
  6
CONTINUOUS
 10
1.200335
 20
-3.482709
  0
VERTEX
  8
PLAN_1
  6
CONTINUOUS
 10
1.200335
 20
-3.479130
  0
VERTEX
  8
PLAN_1
  6
CONTINUOUS
 10
1.199441
 20
-3.475996
  0
VERTEX
  8
PLAN_1
  6
CONTINUOUS
 10
1.198543
 20
-3.472413
  0
VERTEX
  8
PLAN_1
  6
CONTINUOUS
 10
1.197650
 20
-3.468831
  0
VERTEX
  8
PLAN_1
  6
CONTINUOUS
 10
1.196307
 20
-3.465701
  0
VERTEX
  8
PLAN_1
  6
CONTINUOUS
 10
1.194516
 20
-3.462118
  0
VERTEX
  8
PLAN_1
  6
CONTINUOUS
 10
1.192276
 20
-3.458984
  0
VERTEX
  8
PLAN_1
  6
CONTINUOUS
 10
1.189591
 20
-3.456299
  0
VERTEX
  8
PLAN_1
  6
CONTINUOUS
 10
1.186906
 20
-3.453614
  0
VERTEX
  8
PLAN_1
  6
CONTINUOUS
 10
1.183772
 20
-3.450929
  0
VERTEX
  8
PLAN_1
  6
CONTINUOUS
 10
1.180193
 20
-3.449138
  0
VERTEX
  8
PLAN_1
  6
CONTINUOUS
 10
1.176161
 20
-3.447346
  0
VERTEX
  8
PLAN_1
  6
CONTINUOUS
 10
1.171685
 20
-3.446004
  0
VERTEX
  8
PLAN_1
  6
CONTINUOUS
 10
1.166764
 20
-3.445106
  0
VERTEX
  8
PLAN_1
  6
CONTINUOUS
 10
1.161390
 20
-3.445106
  0
VERTEX
  8
PLAN_1
  6
CONTINUOUS
 10
1.156469
 20
-3.445106
  0
VERTEX
  8
PLAN_1
  6
CONTINUOUS
 10
1.151543
 20
-3.446004
  0
VERTEX
  8
PLAN_1
  6
CONTINUOUS
 10
1.147516
 20
-3.446898
  0
VERTEX
  8
PLAN_1
  6
CONTINUOUS
 10
1.143484
 20
-3.448240
  0
VERTEX
  8
PLAN_1
  6
CONTINUOUS
 10
1.139906
 20
-3.450031
  0
VERTEX
  8
PLAN_1
  6
CONTINUOUS
 10
1.136772
 20
-3.452272
  0
VERTEX
  8
PLAN_1
  6
CONTINUOUS
 10
1.133638
 20
-3.454957
  0
VERTEX
  8
PLAN_1
  6
CONTINUOUS
 10
1.130953
 20
-3.457642
  0
VERTEX
  8
PLAN_1
  6
CONTINUOUS
 10
1.128713
 20
-3.460776
  0
VERTEX
  8
PLAN_1
  6
CONTINUOUS
 10
1.126925
 20
-3.463909
  0
VERTEX
  8
PLAN_1
  6
CONTINUOUS
 10
1.125134
 20
-3.467488
  0
VERTEX
  8
PLAN_1
  6
CONTINUOUS
 10
1.123791
 20
-3.471071
  0
VERTEX
  8
PLAN_1
  6
CONTINUOUS
 10
1.122449
 20
-3.475098
  0
VERTEX
  8
PLAN_1
  6
CONTINUOUS
 10
1.122000
 20
-3.479130
  0
VERTEX
  8
PLAN_1
  6
CONTINUOUS
 10
1.121551
 20
-3.483157
  0
VERTEX
  8
PLAN_1
  6
CONTINUOUS
 10
1.121102
 20
-3.487634
  0
VERTEX
  8
PLAN_1
  6
CONTINUOUS
 10
1.121551
 20
-3.491213
  0
VERTEX
  8
PLAN_1
  6
CONTINUOUS
 10
1.122000
 20
-3.495244
  0
VERTEX
  8
PLAN_1
  6
CONTINUOUS
 10
1.122449
 20
-3.499272
  0
VERTEX
  8
PLAN_1
  6
CONTINUOUS
 10
1.123791
 20
-3.502854
  0
VERTEX
  8
PLAN_1
  6
CONTINUOUS
 10
1.125134
 20
-3.506882
  0
VERTEX
  8
PLAN_1
  6
CONTINUOUS
 10
1.126925
 20
-3.510461
  0
VERTEX
  8
PLAN_1
  6
CONTINUOUS
 10
1.128713
 20
-3.513594
  0
VERTEX
  8
PLAN_1
  6
CONTINUOUS
 10
1.130953
 20
-3.516728
  0
VERTEX
  8
PLAN_1
  6
CONTINUOUS
 10
1.133638
 20
-3.519862
  0
VERTEX
  8
PLAN_1
  6
CONTINUOUS
 10
1.136772
 20
-3.522547
  0
VERTEX
  8
PLAN_1
  6
CONTINUOUS
 10
1.139906
 20
-3.524787
  0
VERTEX
  8
PLAN_1
  6
CONTINUOUS
 10
1.143933
 20
-3.527024
  0
VERTEX
  8
PLAN_1
  6
CONTINUOUS
 10
1.147961
 20
-3.528366
  0
VERTEX
  8
PLAN_1
  6
CONTINUOUS
 10
1.152437
 20
-3.529709
  0
VERTEX
  8
PLAN_1
  6
CONTINUOUS
 10
1.157362
 20
-3.530606
  0
VERTEX
  8
PLAN_1
  6
CONTINUOUS
 10
1.162287
 20
-3.530606
  0
SEQEND
  8
0
  0
POLYLINE
  8
PLAN_1
  6
CONTINUOUS
 66
     1
 40
0.003000
 41
0.003000
  0
VERTEX
  8
PLAN_1
  6
CONTINUOUS
 10
1.335969
 20
-3.547169
  0
VERTEX
  8
PLAN_1
  6
CONTINUOUS
 10
1.310004
 20
-3.547169
  0
VERTEX
  8
PLAN_1
  6
CONTINUOUS
 10
1.310004
 20
-3.408850
  0
VERTEX
  8
PLAN_1
  6
CONTINUOUS
 10
1.264346
 20
-3.408850
  0
VERTEX
  8
PLAN_1
  6
CONTINUOUS
 10
1.264346
 20
-3.389602
  0
VERTEX
  8
PLAN_1
  6
CONTINUOUS
 10
1.275535
 20
-3.388709
  0
VERTEX
  8
PLAN_1
  6
CONTINUOUS
 10
1.284937
 20
-3.387362
  0
VERTEX
  8
PLAN_1
  6
CONTINUOUS
 10
1.288965
 20
-3.386469
  0
VERTEX
  8
PLAN_1
  6
CONTINUOUS
 10
1.292996
 20
-3.385126
  0
VERTEX
  8
PLAN_1
  6
CONTINUOUS
 10
1.296575
 20
-3.383783
  0
VERTEX
  8
PLAN_1
  6
CONTINUOUS
 10
1.299709
 20
-3.381992
  0
VERTEX
  8
PLAN_1
  6
CONTINUOUS
 10
1.302843
 20
-3.379756
  0
VERTEX
  8
PLAN_1
  6
CONTINUOUS
 10
1.305528
 20
-3.377516
  0
VERTEX
  8
PLAN_1
  6
CONTINUOUS
 10
1.307768
 20
-3.374382
  0
VERTEX
  8
PLAN_1
  6
CONTINUOUS
 10
1.310004
 20
-3.371248
  0
VERTEX
  8
PLAN_1
  6
CONTINUOUS
 10
1.311795
 20
-3.367220
  0
VERTEX
  8
PLAN_1
  6
CONTINUOUS
 10
1.313587
 20
-3.362744
  0
VERTEX
  8
PLAN_1
  6
CONTINUOUS
 10
1.315374
 20
-3.357819
  0
VERTEX
  8
PLAN_1
  6
CONTINUOUS
 10
1.317165
 20
-3.352449
  0
VERTEX
  8
PLAN_1
  6
CONTINUOUS
 10
1.335969
 20
-3.352449
  0
VERTEX
  8
PLAN_1
  6
CONTINUOUS
 10
1.335969
 20
-3.547169
  0
SEQEND
  8
0
  0
SOLID
  8
PLAN_1
 10
1.391024
 20
-3.582083
 11
1.391024
 21
-3.568205
 12
1.545012
 22
-3.582083
 13
1.545012
 23
-3.568205
  0
POLYLINE
  8
PLAN_1
  6
CONTINUOUS
 66
     1
 40
0.003000
 41
0.003000
  0
VERTEX
  8
PLAN_1
  6
CONTINUOUS
 10
1.391024
 20
-3.582083
  0
VERTEX
  8
PLAN_1
  6
CONTINUOUS
 10
1.391024
 20
-3.568205
  0
VERTEX
  8
PLAN_1
  6
CONTINUOUS
 10
1.545012
 20
-3.568205
  0
VERTEX
  8
PLAN_1
  6
CONTINUOUS
 10
1.545012
 20
-3.582083
  0
VERTEX
  8
PLAN_1
  6
CONTINUOUS
 10
1.391024
 20
-3.582083
  0
SEQEND
  8
0
  0
POLYLINE
  8
PLAN_1
  6
CONTINUOUS
 66
     1
 40
0.003000
 41
0.003000
  0
VERTEX
  8
PLAN_1
  6
CONTINUOUS
 10
1.596039
 20
-3.547169
  0
VERTEX
  8
PLAN_1
  6
CONTINUOUS
 10
1.569181
 20
-3.547169
  0
VERTEX
  8
PLAN_1
  6
CONTINUOUS
 10
1.569181
 20
-3.347972
  0
VERTEX
  8
PLAN_1
  6
CONTINUOUS
 10
1.707051
 20
-3.347972
  0
VERTEX
  8
PLAN_1
  6
CONTINUOUS
 10
1.707051
 20
-3.372146
  0
VERTEX
  8
PLAN_1
  6
CONTINUOUS
 10
1.596039
 20
-3.372146
  0
VERTEX
  8
PLAN_1
  6
CONTINUOUS
 10
1.596039
 20
-3.433024
  0
VERTEX
  8
PLAN_1
  6
CONTINUOUS
 10
1.693622
 20
-3.433024
  0
VERTEX
  8
PLAN_1
  6
CONTINUOUS
 10
1.693622
 20
-3.456748
  0
VERTEX
  8
PLAN_1
  6
CONTINUOUS
 10
1.596039
 20
-3.456748
  0
VERTEX
  8
PLAN_1
  6
CONTINUOUS
 10
1.596039
 20
-3.547169
  0
SEQEND
  8
0
  0
SOLID
  8
PLAN_1
 10
1.726299
 20
-3.547169
 11
1.697205
 21
-3.547169
 12
1.726299
 22
-3.518071
 13
1.697205
 23
-3.518071
  0
POLYLINE
  8
PLAN_1
  6
CONTINUOUS
 66
     1
 40
0.003000
 41
0.003000
  0
VERTEX
  8
PLAN_1
  6
CONTINUOUS
 10
1.726299
 20
-3.547169
  0
VERTEX
  8
PLAN_1
  6
CONTINUOUS
 10
1.697205
 20
-3.547169
  0
VERTEX
  8
PLAN_1
  6
CONTINUOUS
 10
1.697205
 20
-3.518071
  0
VERTEX
  8
PLAN_1
  6
CONTINUOUS
 10
1.726299
 20
-3.518071
  0
VERTEX
  8
PLAN_1
  6
CONTINUOUS
 10
1.726299
 20
-3.547169
  0
SEQEND
  8
0
  0
POLYLINE
  8
PLAN_1
  6
CONTINUOUS
 66
     1
 40
0.003000
 41
0.003000
  0
VERTEX
  8
PLAN_1
  6
CONTINUOUS
 10
1.921469
 20
-3.547169
  0
VERTEX
  8
PLAN_1
  6
CONTINUOUS
 10
1.774197
 20
-3.547169
  0
VERTEX
  8
PLAN_1
  6
CONTINUOUS
 10
1.774197
 20
-3.347972
  0
VERTEX
  8
PLAN_1
  6
CONTINUOUS
 10
1.919677
 20
-3.347972
  0
VERTEX
  8
PLAN_1
  6
CONTINUOUS
 10
1.919677
 20
-3.372146
  0
VERTEX
  8
PLAN_1
  6
CONTINUOUS
 10
1.801055
 20
-3.372146
  0
VERTEX
  8
PLAN_1
  6
CONTINUOUS
 10
1.801055
 20
-3.433024
  0
VERTEX
  8
PLAN_1
  6
CONTINUOUS
 10
1.910276
 20
-3.433024
  0
VERTEX
  8
PLAN_1
  6
CONTINUOUS
 10
1.910276
 20
-3.456748
  0
VERTEX
  8
PLAN_1
  6
CONTINUOUS
 10
1.801055
 20
-3.456748
  0
VERTEX
  8
PLAN_1
  6
CONTINUOUS
 10
1.801055
 20
-3.523445
  0
VERTEX
  8
PLAN_1
  6
CONTINUOUS
 10
1.921469
 20
-3.523445
  0
VERTEX
  8
PLAN_1
  6
CONTINUOUS
 10
1.921469
 20
-3.547169
  0
SEQEND
  8
0
  0
POLYLINE
  8
PLAN_1
  6
CONTINUOUS
 66
     1
 40
0.003000
 41
0.003000
  0
VERTEX
  8
PLAN_1
  6
CONTINUOUS
 10
1.986374
 20
-3.547169
  0
VERTEX
  8
PLAN_1
  6
CONTINUOUS
 10
1.959516
 20
-3.547169
  0
VERTEX
  8
PLAN_1
  6
CONTINUOUS
 10
1.959516
 20
-3.347972
  0
VERTEX
  8
PLAN_1
  6
CONTINUOUS
 10
2.049043
 20
-3.347972
  0
VERTEX
  8
PLAN_1
  6
CONTINUOUS
 10
2.055756
 20
-3.348421
  0
VERTEX
  8
PLAN_1
  6
CONTINUOUS
 10
2.062469
 20
-3.349315
  0
VERTEX
  8
PLAN_1
  6
CONTINUOUS
 10
2.068291
 20
-3.350657
  0
VERTEX
  8
PLAN_1
  6
CONTINUOUS
 10
2.074110
 20
-3.352449
  0
VERTEX
  8
PLAN_1
  6
CONTINUOUS
 10
2.079480
 20
-3.354685
  0
VERTEX
  8
PLAN_1
  6
CONTINUOUS
 10
2.083957
 20
-3.357374
  0
VERTEX
  8
PLAN_1
  6
CONTINUOUS
 10
2.088433
 20
-3.360508
  0
VERTEX
  8
PLAN_1
  6
CONTINUOUS
 10
2.092461
 20
-3.364087
  0
VERTEX
  8
PLAN_1
  6
CONTINUOUS
 10
2.096043
 20
-3.368114
  0
VERTEX
  8
PLAN_1
  6
CONTINUOUS
 10
2.099177
 20
-3.372146
  0
VERTEX
  8
PLAN_1
  6
CONTINUOUS
 10
2.101862
 20
-3.377067
  0
VERTEX
  8
PLAN_1
  6
CONTINUOUS
 10
2.104098
 20
-3.381992
  0
VERTEX
  8
PLAN_1
  6
CONTINUOUS
 10
2.105890
 20
-3.386917
  0
VERTEX
  8
PLAN_1
  6
CONTINUOUS
 10
2.107232
 20
-3.392736
  0
VERTEX
  8
PLAN_1
  6
CONTINUOUS
 10
2.108130
 20
-3.398106
  0
VERTEX
  8
PLAN_1
  6
CONTINUOUS
 10
2.108130
 20
-3.404374
  0
VERTEX
  8
PLAN_1
  6
CONTINUOUS
 10
2.108130
 20
-3.409299
  0
VERTEX
  8
PLAN_1
  6
CONTINUOUS
 10
2.107681
 20
-3.414669
  0
VERTEX
  8
PLAN_1
  6
CONTINUOUS
 10
2.106787
 20
-3.420039
  0
VERTEX
  8
PLAN_1
  6
CONTINUOUS
 10
2.104996
 20
-3.424965
  0
VERTEX
  8
PLAN_1
  6
CONTINUOUS
 10
2.103205
 20
-3.430335
  0
VERTEX
  8
PLAN_1
  6
CONTINUOUS
 10
2.100969
 20
-3.435260
  0
VERTEX
  8
PLAN_1
  6
CONTINUOUS
 10
2.098280
 20
-3.439736
  0
VERTEX
  8
PLAN_1
  6
CONTINUOUS
 10
2.095146
 20
-3.444213
  0
VERTEX
  8
PLAN_1
  6
CONTINUOUS
 10
2.091118
 20
-3.448240
  0
VERTEX
  8
PLAN_1
  6
CONTINUOUS
 10
2.087091
 20
-3.451823
  0
VERTEX
  8
PLAN_1
  6
CONTINUOUS
 10
2.082165
 20
-3.454957
  0
VERTEX
  8
PLAN_1
  6
CONTINUOUS
 10
2.076795
 20
-3.458091
  0
VERTEX
  8
PLAN_1
  6
CONTINUOUS
 10
2.070528
 20
-3.460327
  0
VERTEX
  8
PLAN_1
  6
CONTINUOUS
 10
2.064260
 20
-3.461669
  0
VERTEX
  8
PLAN_1
  6
CONTINUOUS
 10
2.057098
 20
-3.463012
  0
VERTEX
  8
PLAN_1
  6
CONTINUOUS
 10
2.049043
 20
-3.463461
  0
VERTEX
  8
PLAN_1
  6
CONTINUOUS
 10
1.986374
 20
-3.463461
  0
VERTEX
  8
PLAN_1
  6
CONTINUOUS
 10
1.986374
 20
-3.547169
  0
SEQEND
  8
0
  0
POLYLINE
  8
PLAN_1
  6
CONTINUOUS
 66
     1
 40
0.003000
 41
0.003000
  0
VERTEX
  8
PLAN_1
  6
CONTINUOUS
 10
1.986374
 20
-3.440185
  0
VERTEX
  8
PLAN_1
  6
CONTINUOUS
 10
2.040091
 20
-3.440185
  0
VERTEX
  8
PLAN_1
  6
CONTINUOUS
 10
2.044567
 20
-3.440185
  0
VERTEX
  8
PLAN_1
  6
CONTINUOUS
 10
2.048594
 20
-3.439736
  0
VERTEX
  8
PLAN_1
  6
CONTINUOUS
 10
2.052622
 20
-3.439287
  0
VERTEX
  8
PLAN_1
  6
CONTINUOUS
 10
2.056650
 20
-3.438394
  0
VERTEX
  8
PLAN_1
  6
CONTINUOUS
 10
2.060232
 20
-3.437500
  0
VERTEX
  8
PLAN_1
  6
CONTINUOUS
 10
2.063366
 20
-3.436157
  0
VERTEX
  8
PLAN_1
  6
CONTINUOUS
 10
2.066500
 20
-3.434366
  0
VERTEX
  8
PLAN_1
  6
CONTINUOUS
 10
2.069185
 20
-3.432575
  0
VERTEX
  8
PLAN_1
  6
CONTINUOUS
 10
2.071870
 20
-3.430335
  0
VERTEX
  8
PLAN_1
  6
CONTINUOUS
 10
2.074110
 20
-3.427650
  0
VERTEX
  8
PLAN_1
  6
CONTINUOUS
 10
2.075898
 20
-3.424516
  0
VERTEX
  8
PLAN_1
  6
CONTINUOUS
 10
2.077689
 20
-3.421382
  0
VERTEX
  8
PLAN_1
  6
CONTINUOUS
 10
2.079031
 20
-3.417803
  0
VERTEX
  8
PLAN_1
  6
CONTINUOUS
 10
2.079929
 20
-3.413776
  0
VERTEX
  8
PLAN_1
  6
CONTINUOUS
 10
2.080374
 20
-3.409299
  0
VERTEX
  8
PLAN_1
  6
CONTINUOUS
 10
2.080374
 20
-3.404374
  0
VERTEX
  8
PLAN_1
  6
CONTINUOUS
 10
2.080374
 20
-3.399898
  0
VERTEX
  8
PLAN_1
  6
CONTINUOUS
 10
2.079929
 20
-3.395870
  0
VERTEX
  8
PLAN_1
  6
CONTINUOUS
 10
2.079031
 20
-3.391839
  0
VERTEX
  8
PLAN_1
  6
CONTINUOUS
 10
2.077689
 20
-3.388709
  0
VERTEX
  8
PLAN_1
  6
CONTINUOUS
 10
2.075898
 20
-3.385575
  0
VERTEX
  8
PLAN_1
  6
CONTINUOUS
 10
2.074110
 20
-3.382886
  0
VERTEX
  8
PLAN_1
  6
CONTINUOUS
 10
2.071870
 20
-3.380201
  0
VERTEX
  8
PLAN_1
  6
CONTINUOUS
 10
2.069185
 20
-3.378409
  0
VERTEX
  8
PLAN_1
  6
CONTINUOUS
 10
2.066500
 20
-3.376622
  0
VERTEX
  8
PLAN_1
  6
CONTINUOUS
 10
2.063366
 20
-3.374831
  0
VERTEX
  8
PLAN_1
  6
CONTINUOUS
 10
2.060232
 20
-3.373937
  0
VERTEX
  8
PLAN_1
  6
CONTINUOUS
 10
2.056650
 20
-3.372591
  0
VERTEX
  8
PLAN_1
  6
CONTINUOUS
 10
2.053071
 20
-3.372146
  0
VERTEX
  8
PLAN_1
  6
CONTINUOUS
 10
2.049043
 20
-3.371697
  0
VERTEX
  8
PLAN_1
  6
CONTINUOUS
 10
2.045461
 20
-3.371248
  0
VERTEX
  8
PLAN_1
  6
CONTINUOUS
 10
2.040984
 20
-3.371248
  0
VERTEX
  8
PLAN_1
  6
CONTINUOUS
 10
1.986374
 20
-3.371248
  0
VERTEX
  8
PLAN_1
  6
CONTINUOUS
 10
1.986374
 20
-3.440185
  0
SEQEND
  8
0
  0
POLYLINE
  8
PLAN_1
  6
CONTINUOUS
 66
     1
 40
0.003000
 41
0.003000
  0
VERTEX
  8
PLAN_1
  6
CONTINUOUS
 10
2.262114
 20
-3.406610
  0
VERTEX
  8
PLAN_1
  6
CONTINUOUS
 10
2.261665
 20
-3.400791
  0
VERTEX
  8
PLAN_1
  6
CONTINUOUS
 10
2.260772
 20
-3.395870
  0
VERTEX
  8
PLAN_1
  6
CONTINUOUS
 10
2.258980
 20
-3.391394
  0
VERTEX
  8
PLAN_1
  6
CONTINUOUS
 10
2.257189
 20
-3.386917
  0
VERTEX
  8
PLAN_1
  6
CONTINUOUS
 10
2.254504
 20
-3.383335
  0
VERTEX
  8
PLAN_1
  6
CONTINUOUS
 10
2.251819
 20
-3.380201
  0
VERTEX
  8
PLAN_1
  6
CONTINUOUS
 10
2.248685
 20
-3.377067
  0
VERTEX
  8
PLAN_1
  6
CONTINUOUS
 10
2.245551
 20
-3.374382
  0
VERTEX
  8
PLAN_1
  6
CONTINUOUS
 10
2.241969
 20
-3.372591
  0
VERTEX
  8
PLAN_1
  6
CONTINUOUS
 10
2.237941
 20
-3.370803
  0
VERTEX
  8
PLAN_1
  6
CONTINUOUS
 10
2.233913
 20
-3.369012
  0
VERTEX
  8
PLAN_1
  6
CONTINUOUS
 10
2.229886
 20
-3.367669
  0
VERTEX
  8
PLAN_1
  6
CONTINUOUS
 10
2.225409
 20
-3.366772
  0
VERTEX
  8
PLAN_1
  6
CONTINUOUS
 10
2.221378
 20
-3.366327
  0
VERTEX
  8
PLAN_1
  6
CONTINUOUS
 10
2.216902
 20
-3.365878
  0
VERTEX
  8
PLAN_1
  6
CONTINUOUS
 10
2.212874
 20
-3.365878
  0
VERTEX
  8
PLAN_1
  6
CONTINUOUS
 10
2.206161
 20
-3.366327
  0
VERTEX
  8
PLAN_1
  6
CONTINUOUS
 10
2.198551
 20
-3.367220
  0
VERTEX
  8
PLAN_1
  6
CONTINUOUS
 10
2.194520
 20
-3.368114
  0
VERTEX
  8
PLAN_1
  6
CONTINUOUS
 10
2.190941
 20
-3.369012
  0
VERTEX
  8
PLAN_1
  6
CONTINUOUS
 10
2.187358
 20
-3.370354
  0
VERTEX
  8
PLAN_1
  6
CONTINUOUS
 10
2.183780
 20
-3.372146
  0
VERTEX
  8
PLAN_1
  6
CONTINUOUS
 10
2.180197
 20
-3.373937
  0
VERTEX
  8
PLAN_1
  6
CONTINUOUS
 10
2.177063
 20
-3.376622
  0
VERTEX
  8
PLAN_1
  6
CONTINUOUS
 10
2.174378
 20
-3.379307
  0
VERTEX
  8
PLAN_1
  6
CONTINUOUS
 10
2.172142
 20
-3.382441
  0
VERTEX
  8
PLAN_1
  6
CONTINUOUS
 10
2.169902
 20
-3.386469
  0
VERTEX
  8
PLAN_1
  6
CONTINUOUS
 10
2.168559
 20
-3.390496
  0
VERTEX
  8
PLAN_1
  6
CONTINUOUS
 10
2.167665
 20
-3.395421
  0
VERTEX
  8
PLAN_1
  6
CONTINUOUS
 10
2.167217
 20
-3.400791
  0
VERTEX
  8
PLAN_1
  6
CONTINUOUS
 10
2.167217
 20
-3.403925
  0
VERTEX
  8
PLAN_1
  6
CONTINUOUS
 10
2.167665
 20
-3.406610
  0
VERTEX
  8
PLAN_1
  6
CONTINUOUS
 10
2.168559
 20
-3.409299
  0
VERTEX
  8
PLAN_1
  6
CONTINUOUS
 10
2.169453
 20
-3.411535
  0
VERTEX
  8
PLAN_1
  6
CONTINUOUS
 10
2.170350
 20
-3.413776
  0
VERTEX
  8
PLAN_1
  6
CONTINUOUS
 10
2.171693
 20
-3.415563
  0
VERTEX
  8
PLAN_1
  6
CONTINUOUS
 10
2.173035
 20
-3.417354
  0
VERTEX
  8
PLAN_1
  6
CONTINUOUS
 10
2.174827
 20
-3.418697
  0
VERTEX
  8
PLAN_1
  6
CONTINUOUS
 10
2.178406
 20
-3.421382
  0
VERTEX
  8
PLAN_1
  6
CONTINUOUS
 10
2.182437
 20
-3.423173
  0
VERTEX
  8
PLAN_1
  6
CONTINUOUS
 10
2.186465
 20
-3.424965
  0
VERTEX
  8
PLAN_1
  6
CONTINUOUS
 10
2.190941
 20
-3.426307
  0
VERTEX
  8
PLAN_1
  6
CONTINUOUS
 10
2.247787
 20
-3.439287
  0
VERTEX
  8
PLAN_1
  6
CONTINUOUS
 10
2.252713
 20
-3.440185
  0
VERTEX
  8
PLAN_1
  6
CONTINUOUS
 10
2.257189
 20
-3.441976
  0
VERTEX
  8
PLAN_1
  6
CONTINUOUS
 10
2.261665
 20
-3.443764
  0
VERTEX
  8
PLAN_1
  6
CONTINUOUS
 10
2.265693
 20
-3.445555
  0
VERTEX
  8
PLAN_1
  6
CONTINUOUS
 10
2.269724
 20
-3.447795
  0
VERTEX
  8
PLAN_1
  6
CONTINUOUS
 10
2.273303
 20
-3.450480
  0
VERTEX
  8
PLAN_1
  6
CONTINUOUS
 10
2.276886
 20
-3.453165
  0
VERTEX
  8
PLAN_1
  6
CONTINUOUS
 10
2.280020
 20
-3.456299
  0
VERTEX
  8
PLAN_1
  6
CONTINUOUS
 10
2.283154
 20
-3.459433
  0
VERTEX
  8
PLAN_1
  6
CONTINUOUS
 10
2.285390
 20
-3.463461
  0
VERTEX
  8
PLAN_1
  6
CONTINUOUS
 10
2.287630
 20
-3.467488
  0
VERTEX
  8
PLAN_1
  6
CONTINUOUS
 10
2.289417
 20
-3.471520
  0
VERTEX
  8
PLAN_1
  6
CONTINUOUS
 10
2.291209
 20
-3.476441
  0
VERTEX
  8
PLAN_1
  6
CONTINUOUS
 10
2.292106
 20
-3.481366
  0
VERTEX
  8
PLAN_1
  6
CONTINUOUS
 10
2.292551
 20
-3.486736
  0
VERTEX
  8
PLAN_1
  6
CONTINUOUS
 10
2.293000
 20
-3.492555
  0
VERTEX
  8
PLAN_1
  6
CONTINUOUS
 10
2.293000
 20
-3.496587
  0
VERTEX
  8
PLAN_1
  6
CONTINUOUS
 10
2.292551
 20
-3.501063
  0
VERTEX
  8
PLAN_1
  6
CONTINUOUS
 10
2.292106
 20
-3.504642
  0
VERTEX
  8
PLAN_1
  6
CONTINUOUS
 10
2.291209
 20
-3.508673
  0
VERTEX
  8
PLAN_1
  6
CONTINUOUS
 10
2.289866
 20
-3.512252
  0
VERTEX
  8
PLAN_1
  6
CONTINUOUS
 10
2.288524
 20
-3.515386
  0
VERTEX
  8
PLAN_1
  6
CONTINUOUS
 10
2.287181
 20
-3.518520
  0
VERTEX
  8
PLAN_1
  6
CONTINUOUS
 10
2.285390
 20
-3.521654
  0
VERTEX
  8
PLAN_1
  6
CONTINUOUS
 10
2.283598
 20
-3.524787
  0
VERTEX
  8
PLAN_1
  6
CONTINUOUS
 10
2.281811
 20
-3.527472
  0
VERTEX
  8
PLAN_1
  6
CONTINUOUS
 10
2.279571
 20
-3.529709
  0
VERTEX
  8
PLAN_1
  6
CONTINUOUS
 10
2.277335
 20
-3.532398
  0
VERTEX
  8
PLAN_1
  6
CONTINUOUS
 10
2.272409
 20
-3.536425
  0
VERTEX
  8
PLAN_1
  6
CONTINUOUS
 10
2.266591
 20
-3.540453
  0
VERTEX
  8
PLAN_1
  6
CONTINUOUS
 10
2.260772
 20
-3.543587
  0
VERTEX
  8
PLAN_1
  6
CONTINUOUS
 10
2.254504
 20
-3.546272
  0
VERTEX
  8
PLAN_1
  6
CONTINUOUS
 10
2.248236
 20
-3.548063
  0
VERTEX
  8
PLAN_1
  6
CONTINUOUS
 10
2.241524
 20
-3.549854
  0
VERTEX
  8
PLAN_1
  6
CONTINUOUS
 10
2.234807
 20
-3.551197
  0
VERTEX
  8
PLAN_1
  6
CONTINUOUS
 10
2.228094
 20
-3.552091
  0
VERTEX
  8
PLAN_1
  6
CONTINUOUS
 10
2.221378
 20
-3.552539
  0
VERTEX
  8
PLAN_1
  6
CONTINUOUS
 10
2.215114
 20
-3.552539
  0
VERTEX
  8
PLAN_1
  6
CONTINUOUS
 10
2.208398
 20
-3.552539
  0
VERTEX
  8
PLAN_1
  6
CONTINUOUS
 10
2.202130
 20
-3.552091
  0
VERTEX
  8
PLAN_1
  6
CONTINUOUS
 10
2.196311
 20
-3.551646
  0
VERTEX
  8
PLAN_1
  6
CONTINUOUS
 10
2.191390
 20
-3.550748
  0
VERTEX
  8
PLAN_1
  6
CONTINUOUS
 10
2.186465
 20
-3.549854
  0
VERTEX
  8
PLAN_1
  6
CONTINUOUS
 10
2.181988
 20
-3.548512
  0
VERTEX
  8
PLAN_1
  6
CONTINUOUS
 10
2.177961
 20
-3.547614
  0
VERTEX
  8
PLAN_1
  6
CONTINUOUS
 10
2.174378
 20
-3.546272
  0
VERTEX
  8
PLAN_1
  6
CONTINUOUS
 10
2.168110
 20
-3.543138
  0
VERTEX
  8
PLAN_1
  6
CONTINUOUS
 10
2.162740
 20
-3.540004
  0
VERTEX
  8
PLAN_1
  6
CONTINUOUS
 10
2.158264
 20
-3.536874
  0
VERTEX
  8
PLAN_1
  6
CONTINUOUS
 10
2.154681
 20
-3.533291
  0
VERTEX
  8
PLAN_1
  6
CONTINUOUS
 10
2.151547
 20
-3.530606
  0
VERTEX
  8
PLAN_1
  6
CONTINUOUS
 10
2.148862
 20
-3.527921
  0
VERTEX
  8
PLAN_1
  6
CONTINUOUS
 10
2.146626
 20
-3.524787
  0
VERTEX
  8
PLAN_1
  6
CONTINUOUS
 10
2.144386
 20
-3.521654
  0
VERTEX
  8
PLAN_1
  6
CONTINUOUS
 10
2.140807
 20
-3.515835
  0
VERTEX
  8
PLAN_1
  6
CONTINUOUS
 10
2.138118
 20
-3.509567
  0
VERTEX
  8
PLAN_1
  6
CONTINUOUS
 10
2.136331
 20
-3.503299
  0
VERTEX
  8
PLAN_1
  6
CONTINUOUS
 10
2.135433
 20
-3.496587
  0
VERTEX
  8
PLAN_1
  6
CONTINUOUS
 10
2.134539
 20
-3.489870
  0
VERTEX
  8
PLAN_1
  6
CONTINUOUS
 10
2.134539
 20
-3.483157
  0
VERTEX
  8
PLAN_1
  6
CONTINUOUS
 10
2.159606
 20
-3.483157
  0
VERTEX
  8
PLAN_1
  6
CONTINUOUS
 10
2.160055
 20
-3.489425
  0
VERTEX
  8
PLAN_1
  6
CONTINUOUS
 10
2.160949
 20
-3.495244
  0
VERTEX
  8
PLAN_1
  6
CONTINUOUS
 10
2.162740
 20
-3.500614
  0
VERTEX
  8
PLAN_1
  6
CONTINUOUS
 10
2.164976
 20
-3.505539
  0
VERTEX
  8
PLAN_1
  6
CONTINUOUS
 10
2.167217
 20
-3.510016
  0
VERTEX
  8
PLAN_1
  6
CONTINUOUS
 10
2.170350
 20
-3.513594
  0
VERTEX
  8
PLAN_1
  6
CONTINUOUS
 10
2.173929
 20
-3.517177
  0
VERTEX
  8
PLAN_1
  6
CONTINUOUS
 10
2.177512
 20
-3.519862
  0
VERTEX
  8
PLAN_1
  6
CONTINUOUS
 10
2.181988
 20
-3.522102
  0
VERTEX
  8
PLAN_1
  6
CONTINUOUS
 10
2.186016
 20
-3.524339
  0
VERTEX
  8
PLAN_1
  6
CONTINUOUS
 10
2.190492
 20
-3.526130
  0
VERTEX
  8
PLAN_1
  6
CONTINUOUS
 10
2.195417
 20
-3.527472
  0
VERTEX
  8
PLAN_1
  6
CONTINUOUS
 10
2.200339
 20
-3.528366
  0
VERTEX
  8
PLAN_1
  6
CONTINUOUS
 10
2.204815
 20
-3.529264
  0
VERTEX
  8
PLAN_1
  6
CONTINUOUS
 10
2.209740
 20
-3.529709
  0
VERTEX
  8
PLAN_1
  6
CONTINUOUS
 10
2.214665
 20
-3.529709
  0
VERTEX
  8
PLAN_1
  6
CONTINUOUS
 10
2.222720
 20
-3.529264
  0
VERTEX
  8
PLAN_1
  6
CONTINUOUS
 10
2.231228
 20
-3.528366
  0
VERTEX
  8
PLAN_1
  6
CONTINUOUS
 10
2.235256
 20
-3.527472
  0
VERTEX
  8
PLAN_1
  6
CONTINUOUS
 10
2.239732
 20
-3.526579
  0
VERTEX
  8
PLAN_1
  6
CONTINUOUS
 10
2.244209
 20
-3.525232
  0
VERTEX
  8
PLAN_1
  6
CONTINUOUS
 10
2.248236
 20
-3.523445
  0
VERTEX
  8
PLAN_1
  6
CONTINUOUS
 10
2.251819
 20
-3.521654
  0
VERTEX
  8
PLAN_1
  6
CONTINUOUS
 10
2.255398
 20
-3.519413
  0
VERTEX
  8
PLAN_1
  6
CONTINUOUS
 10
2.258531
 20
-3.516728
  0
VERTEX
  8
PLAN_1
  6
CONTINUOUS
 10
2.261665
 20
-3.513150
  0
VERTEX
  8
PLAN_1
  6
CONTINUOUS
 10
2.263906
 20
-3.509567
  0
VERTEX
  8
PLAN_1
  6
CONTINUOUS
 10
2.265248
 20
-3.505539
  0
VERTEX
  8
PLAN_1
  6
CONTINUOUS
 10
2.266591
 20
-3.501063
  0
VERTEX
  8
PLAN_1
  6
CONTINUOUS
 10
2.267039
 20
-3.496138
  0
VERTEX
  8
PLAN_1
  6
CONTINUOUS
 10
2.266591
 20
-3.492110
  0
VERTEX
  8
PLAN_1
  6
CONTINUOUS
 10
2.266591
 20
-3.488976
  0
VERTEX
  8
PLAN_1
  6
CONTINUOUS
 10
2.265693
 20
-3.485843
  0
VERTEX
  8
PLAN_1
  6
CONTINUOUS
 10
2.264799
 20
-3.482709
  0
VERTEX
  8
PLAN_1
  6
CONTINUOUS
 10
2.263457
 20
-3.480024
  0
VERTEX
  8
PLAN_1
  6
CONTINUOUS
 10
2.262114
 20
-3.477783
  0
VERTEX
  8
PLAN_1
  6
CONTINUOUS
 10
2.260323
 20
-3.475547
  0
VERTEX
  8
PLAN_1
  6
CONTINUOUS
 10
2.258087
 20
-3.473307
  0
VERTEX
  8
PLAN_1
  6
CONTINUOUS
 10
2.255398
 20
-3.471520
  0
VERTEX
  8
PLAN_1
  6
CONTINUOUS
 10
2.252264
 20
-3.469728
  0
VERTEX
  8
PLAN_1
  6
CONTINUOUS
 10
2.248685
 20
-3.468386
  0
VERTEX
  8
PLAN_1
  6
CONTINUOUS
 10
2.245102
 20
-3.466594
  0
VERTEX
  8
PLAN_1
  6
CONTINUOUS
 10
2.235705
 20
-3.463909
  0
VERTEX
  8
PLAN_1
  6
CONTINUOUS
 10
2.224512
 20
-3.460776
  0
VERTEX
  8
PLAN_1
  6
CONTINUOUS
 10
2.183780
 20
-3.451374
  0
VERTEX
  8
PLAN_1
  6
CONTINUOUS
 10
2.177961
 20
-3.450031
  0
VERTEX
  8
PLAN_1
  6
CONTINUOUS
 10
2.171693
 20
-3.447795
  0
VERTEX
  8
PLAN_1
  6
CONTINUOUS
 10
2.168110
 20
-3.446004
  0
VERTEX
  8
PLAN_1
  6
CONTINUOUS
 10
2.164531
 20
-3.444213
  0
VERTEX
  8
PLAN_1
  6
CONTINUOUS
 10
2.160949
 20
-3.442421
  0
VERTEX
  8
PLAN_1
  6
CONTINUOUS
 10
2.157366
 20
-3.439736
  0
VERTEX
  8
PLAN_1
  6
CONTINUOUS
 10
2.154236
 20
-3.437051
  0
VERTEX
  8
PLAN_1
  6
CONTINUOUS
 10
2.151102
 20
-3.433917
  0
VERTEX
  8
PLAN_1
  6
CONTINUOUS
 10
2.148417
 20
-3.429890
  0
VERTEX
  8
PLAN_1
  6
CONTINUOUS
 10
2.146177
 20
-3.425858
  0
VERTEX
  8
PLAN_1
  6
CONTINUOUS
 10
2.143941
 20
-3.421382
  0
VERTEX
  8
PLAN_1
  6
CONTINUOUS
 10
2.142594
 20
-3.416461
  0
VERTEX
  8
PLAN_1
  6
CONTINUOUS
 10
2.141701
 20
-3.410642
  0
VERTEX
  8
PLAN_1
  6
CONTINUOUS
 10
2.141252
 20
-3.404374
  0
VERTEX
  8
PLAN_1
  6
CONTINUOUS
 10
2.141252
 20
-3.398555
  0
VERTEX
  8
PLAN_1
  6
CONTINUOUS
 10
2.142150
 20
-3.392736
  0
VERTEX
  8
PLAN_1
  6
CONTINUOUS
 10
2.143492
 20
-3.387362
  0
VERTEX
  8
PLAN_1
  6
CONTINUOUS
 10
2.145283
 20
-3.381543
  0
VERTEX
  8
PLAN_1
  6
CONTINUOUS
 10
2.147520
 20
-3.376173
  0
VERTEX
  8
PLAN_1
  6
CONTINUOUS
 10
2.150205
 20
-3.371248
  0
VERTEX
  8
PLAN_1
  6
CONTINUOUS
 10
2.153339
 20
-3.366327
  0
VERTEX
  8
PLAN_1
  6
CONTINUOUS
 10
2.157366
 20
-3.361850
  0
VERTEX
  8
PLAN_1
  6
CONTINUOUS
 10
2.161843
 20
-3.357819
  0
VERTEX
  8
PLAN_1
  6
CONTINUOUS
 10
2.166768
 20
-3.354240
  0
VERTEX
  8
PLAN_1
  6
CONTINUOUS
 10
2.172587
 20
-3.350657
  0
VERTEX
  8
PLAN_1
  6
CONTINUOUS
 10
2.178854
 20
-3.347972
  0
VERTEX
  8
PLAN_1
  6
CONTINUOUS
 10
2.185567
 20
-3.345736
  0
VERTEX
  8
PLAN_1
  6
CONTINUOUS
 10
2.192732
 20
-3.344390
  0
VERTEX
  8
PLAN_1
  6
CONTINUOUS
 10
2.200787
 20
-3.343047
  0
VERTEX
  8
PLAN_1
  6
CONTINUOUS
 10
2.209740
 20
-3.343047
  0
VERTEX
  8
PLAN_1
  6
CONTINUOUS
 10
2.216008
 20
-3.343047
  0
VERTEX
  8
PLAN_1
  6
CONTINUOUS
 10
2.222276
 20
-3.343496
  0
VERTEX
  8
PLAN_1
  6
CONTINUOUS
 10
2.227646
 20
-3.343945
  0
VERTEX
  8
PLAN_1
  6
CONTINUOUS
 10
2.233016
 20
-3.344839
  0
VERTEX
  8
PLAN_1
  6
CONTINUOUS
 10
2.237941
 20
-3.345736
  0
VERTEX
  8
PLAN_1
  6
CONTINUOUS
 10
2.242866
 20
-3.346630
  0
VERTEX
  8
PLAN_1
  6
CONTINUOUS
 10
2.246894
 20
-3.347972
  0
VERTEX
  8
PLAN_1
  6
CONTINUOUS
 10
2.250921
 20
-3.349764
  0
VERTEX
  8
PLAN_1
  6
CONTINUOUS
 10
2.254953
 20
-3.351555
  0
VERTEX
  8
PLAN_1
  6
CONTINUOUS
 10
2.258531
 20
-3.353343
  0
VERTEX
  8
PLAN_1
  6
CONTINUOUS
 10
2.261665
 20
-3.355134
  0
VERTEX
  8
PLAN_1
  6
CONTINUOUS
 10
2.264799
 20
-3.357374
  0
VERTEX
  8
PLAN_1
  6
CONTINUOUS
 10
2.269724
 20
-3.361402
  0
VERTEX
  8
PLAN_1
  6
CONTINUOUS
 10
2.274201
 20
-3.366327
  0
VERTEX
  8
PLAN_1
  6
CONTINUOUS
 10
2.277780
 20
-3.371248
  0
VERTEX
  8
PLAN_1
  6
CONTINUOUS
 10
2.280913
 20
-3.376622
  0
VERTEX
  8
PLAN_1
  6
CONTINUOUS
 10
2.283154
 20
-3.381992
  0
VERTEX
  8
PLAN_1
  6
CONTINUOUS
 10
2.284496
 20
-3.387362
  0
VERTEX
  8
PLAN_1
  6
CONTINUOUS
 10
2.285839
 20
-3.392287
  0
VERTEX
  8
PLAN_1
  6
CONTINUOUS
 10
2.286732
 20
-3.397213
  0
VERTEX
  8
PLAN_1
  6
CONTINUOUS
 10
2.287181
 20
-3.402134
  0
VERTEX
  8
PLAN_1
  6
CONTINUOUS
 10
2.287630
 20
-3.406610
  0
VERTEX
  8
PLAN_1
  6
CONTINUOUS
 10
2.262114
 20
-3.406610
  0
SEQEND
  8
0
  0
POLYLINE
  8
PLAN_1
 62
     5
  6
CONTINUOUS
 66
     1
 40
0.003000
 41
0.003000
  0
VERTEX
  8
PLAN_1
 62
     5
  6
CONTINUOUS
 10
-0.078992
 20
0.476579
  0
VERTEX
  8
PLAN_1
 62
     5
  6
CONTINUOUS
 10
-0.078992
 20
0.484638
  0
SEQEND
  8
0
  0
POLYLINE
  8
PLAN_1
 62
     5
  6
CONTINUOUS
 66
     1
 40
0.003000
 41
0.003000
  0
VERTEX
  8
PLAN_1
 62
     5
  6
CONTINUOUS
 10
-0.078992
 20
0.493142
  0
VERTEX
  8
PLAN_1
 62
     5
  6
CONTINUOUS
 10
-0.078992
 20
0.501646
  0
SEQEND
  8
0
  0
POLYLINE
  8
PLAN_1
 62
     5
  6
CONTINUOUS
 66
     1
 40
0.003000
 41
0.003000
  0
VERTEX
  8
PLAN_1
 62
     5
  6
CONTINUOUS
 10
-0.078992
 20
0.509705
  0
VERTEX
  8
PLAN_1
 62
     5
  6
CONTINUOUS
 10
-0.078992
 20
0.518209
  0
SEQEND
  8
0
  0
POLYLINE
  8
PLAN_1
 62
     5
  6
CONTINUOUS
 66
     1
 40
0.003000
 41
0.003000
  0
VERTEX
  8
PLAN_1
 62
     5
  6
CONTINUOUS
 10
-0.078992
 20
0.526268
  0
VERTEX
  8
PLAN_1
 62
     5
  6
CONTINUOUS
 10
-0.078992
 20
0.534772
  0
SEQEND
  8
0
  0
POLYLINE
  8
PLAN_1
 62
     5
  6
CONTINUOUS
 66
     1
 40
0.003000
 41
0.003000
  0
VERTEX
  8
PLAN_1
 62
     5
  6
CONTINUOUS
 10
-0.078992
 20
0.543276
  0
VERTEX
  8
PLAN_1
 62
     5
  6
CONTINUOUS
 10
-0.078992
 20
0.551335
  0
SEQEND
  8
0
  0
POLYLINE
  8
PLAN_1
 62
     5
  6
CONTINUOUS
 66
     1
 40
0.003000
 41
0.003000
  0
VERTEX
  8
PLAN_1
 62
     5
  6
CONTINUOUS
 10
-0.078992
 20
0.559839
  0
VERTEX
  8
PLAN_1
 62
     5
  6
CONTINUOUS
 10
-0.078992
 20
0.568343
  0
SEQEND
  8
0
  0
POLYLINE
  8
PLAN_1
 62
     5
  6
CONTINUOUS
 66
     1
 40
0.003000
 41
0.003000
  0
VERTEX
  8
PLAN_1
 62
     5
  6
CONTINUOUS
 10
-0.078992
 20
0.576402
  0
VERTEX
  8
PLAN_1
 62
     5
  6
CONTINUOUS
 10
-0.078992
 20
0.584906
  0
SEQEND
  8
0
  0
POLYLINE
  8
PLAN_1
 62
     5
  6
CONTINUOUS
 66
     1
 40
0.003000
 41
0.003000
  0
VERTEX
  8
PLAN_1
 62
     5
  6
CONTINUOUS
 10
-0.078992
 20
0.592965
  0
VERTEX
  8
PLAN_1
 62
     5
  6
CONTINUOUS
 10
-0.078992
 20
0.601469
  0
SEQEND
  8
0
  0
POLYLINE
  8
PLAN_1
 62
     5
  6
CONTINUOUS
 66
     1
 40
0.003000
 41
0.003000
  0
VERTEX
  8
PLAN_1
 62
     5
  6
CONTINUOUS
 10
-0.078992
 20
0.609972
  0
VERTEX
  8
PLAN_1
 62
     5
  6
CONTINUOUS
 10
-0.078992
 20
0.618031
  0
SEQEND
  8
0
  0
POLYLINE
  8
PLAN_1
 62
     5
  6
CONTINUOUS
 66
     1
 40
0.003000
 41
0.003000
  0
VERTEX
  8
PLAN_1
 62
     5
  6
CONTINUOUS
 10
-0.078992
 20
0.626535
  0
VERTEX
  8
PLAN_1
 62
     5
  6
CONTINUOUS
 10
-0.078992
 20
0.634594
  0
SEQEND
  8
0
  0
POLYLINE
  8
PLAN_1
 62
     5
  6
CONTINUOUS
 66
     1
 40
0.003000
 41
0.003000
  0
VERTEX
  8
PLAN_1
 62
     5
  6
CONTINUOUS
 10
-0.078992
 20
0.643098
  0
VERTEX
  8
PLAN_1
 62
     5
  6
CONTINUOUS
 10
-0.078992
 20
0.651602
  0
SEQEND
  8
0
  0
POLYLINE
  8
PLAN_1
 62
     5
  6
CONTINUOUS
 66
     1
 40
0.003000
 41
0.003000
  0
VERTEX
  8
PLAN_1
 62
     5
  6
CONTINUOUS
 10
-0.078992
 20
0.659661
  0
VERTEX
  8
PLAN_1
 62
     5
  6
CONTINUOUS
 10
-0.078992
 20
0.668165
  0
SEQEND
  8
0
  0
POLYLINE
  8
PLAN_1
 62
     5
  6
CONTINUOUS
 66
     1
 40
0.003000
 41
0.003000
  0
VERTEX
  8
PLAN_1
 62
     5
  6
CONTINUOUS
 10
-0.078992
 20
0.676224
  0
VERTEX
  8
PLAN_1
 62
     5
  6
CONTINUOUS
 10
-0.078992
 20
0.684728
  0
SEQEND
  8
0
  0
POLYLINE
  8
PLAN_1
 62
     5
  6
CONTINUOUS
 66
     1
 40
0.003000
 41
0.003000
  0
VERTEX
  8
PLAN_1
 62
     5
  6
CONTINUOUS
 10
-0.078992
 20
0.693232
  0
VERTEX
  8
PLAN_1
 62
     5
  6
CONTINUOUS
 10
-0.078992
 20
0.701291
  0
SEQEND
  8
0
  0
POLYLINE
  8
PLAN_1
 62
     5
  6
CONTINUOUS
 66
     1
 40
0.003000
 41
0.003000
  0
VERTEX
  8
PLAN_1
 62
     5
  6
CONTINUOUS
 10
-0.078992
 20
0.709795
  0
VERTEX
  8
PLAN_1
 62
     5
  6
CONTINUOUS
 10
-0.078992
 20
0.717854
  0
SEQEND
  8
0
  0
POLYLINE
  8
PLAN_1
 62
     5
  6
CONTINUOUS
 66
     1
 40
0.003000
 41
0.003000
  0
VERTEX
  8
PLAN_1
 62
     5
  6
CONTINUOUS
 10
-0.078992
 20
0.726358
  0
VERTEX
  8
PLAN_1
 62
     5
  6
CONTINUOUS
 10
-0.078992
 20
0.734862
  0
SEQEND
  8
0
  0
POLYLINE
  8
PLAN_1
 62
     5
  6
CONTINUOUS
 66
     1
 40
0.003000
 41
0.003000
  0
VERTEX
  8
PLAN_1
 62
     5
  6
CONTINUOUS
 10
-0.211492
 20
0.602811
  0
VERTEX
  8
PLAN_1
 62
     5
  6
CONTINUOUS
 10
-0.202984
 20
0.602811
  0
SEQEND
  8
0
  0
POLYLINE
  8
PLAN_1
 62
     5
  6
CONTINUOUS
 66
     1
 40
0.003000
 41
0.003000
  0
VERTEX
  8
PLAN_1
 62
     5
  6
CONTINUOUS
 10
-0.194480
 20
0.602811
  0
VERTEX
  8
PLAN_1
 62
     5
  6
CONTINUOUS
 10
-0.186425
 20
0.602811
  0
SEQEND
  8
0
  0
POLYLINE
  8
PLAN_1
 62
     5
  6
CONTINUOUS
 66
     1
 40
0.003000
 41
0.003000
  0
VERTEX
  8
PLAN_1
 62
     5
  6
CONTINUOUS
 10
-0.177917
 20
0.602811
  0
VERTEX
  8
PLAN_1
 62
     5
  6
CONTINUOUS
 10
-0.169862
 20
0.602811
  0
SEQEND
  8
0
  0
POLYLINE
  8
PLAN_1
 62
     5
  6
CONTINUOUS
 66
     1
 40
0.003000
 41
0.003000
  0
VERTEX
  8
PLAN_1
 62
     5
  6
CONTINUOUS
 10
-0.161358
 20
0.602811
  0
VERTEX
  8
PLAN_1
 62
     5
  6
CONTINUOUS
 10
-0.152850
 20
0.602811
  0
SEQEND
  8
0
  0
POLYLINE
  8
PLAN_1
 62
     5
  6
CONTINUOUS
 66
     1
 40
0.003000
 41
0.003000
  0
VERTEX
  8
PLAN_1
 62
     5
  6
CONTINUOUS
 10
-0.144795
 20
0.602811
  0
VERTEX
  8
PLAN_1
 62
     5
  6
CONTINUOUS
 10
-0.136287
 20
0.602811
  0
SEQEND
  8
0
  0
POLYLINE
  8
PLAN_1
 62
     5
  6
CONTINUOUS
 66
     1
 40
0.003000
 41
0.003000
  0
VERTEX
  8
PLAN_1
 62
     5
  6
CONTINUOUS
 10
-0.128232
 20
0.602811
  0
VERTEX
  8
PLAN_1
 62
     5
  6
CONTINUOUS
 10
-0.119728
 20
0.602811
  0
SEQEND
  8
0
  0
POLYLINE
  8
PLAN_1
 62
     5
  6
CONTINUOUS
 66
     1
 40
0.003000
 41
0.003000
  0
VERTEX
  8
PLAN_1
 62
     5
  6
CONTINUOUS
 10
-0.111220
 20
0.602811
  0
VERTEX
  8
PLAN_1
 62
     5
  6
CONTINUOUS
 10
-0.103165
 20
0.602811
  0
SEQEND
  8
0
  0
POLYLINE
  8
PLAN_1
 62
     5
  6
CONTINUOUS
 66
     1
 40
0.003000
 41
0.003000
  0
VERTEX
  8
PLAN_1
 62
     5
  6
CONTINUOUS
 10
-0.094661
 20
0.602811
  0
VERTEX
  8
PLAN_1
 62
     5
  6
CONTINUOUS
 10
-0.086602
 20
0.602811
  0
SEQEND
  8
0
  0
POLYLINE
  8
PLAN_1
 62
     5
  6
CONTINUOUS
 66
     1
 40
0.003000
 41
0.003000
  0
VERTEX
  8
PLAN_1
 62
     5
  6
CONTINUOUS
 10
-0.078098
 20
0.602811
  0
VERTEX
  8
PLAN_1
 62
     5
  6
CONTINUOUS
 10
-0.069591
 20
0.602811
  0
SEQEND
  8
0
  0
POLYLINE
  8
PLAN_1
 62
     5
  6
CONTINUOUS
 66
     1
 40
0.003000
 41
0.003000
  0
VERTEX
  8
PLAN_1
 62
     5
  6
CONTINUOUS
 10
-0.061535
 20
0.602811
  0
VERTEX
  8
PLAN_1
 62
     5
  6
CONTINUOUS
 10
-0.053031
 20
0.602811
  0
SEQEND
  8
0
  0
POLYLINE
  8
PLAN_1
 62
     5
  6
CONTINUOUS
 66
     1
 40
0.003000
 41
0.003000
  0
VERTEX
  8
PLAN_1
 62
     5
  6
CONTINUOUS
 10
-0.044524
 20
0.602811
  0
VERTEX
  8
PLAN_1
 62
     5
  6
CONTINUOUS
 10
-0.036469
 20
0.602811
  0
SEQEND
  8
0
  0
POLYLINE
  8
PLAN_1
 62
     5
  6
CONTINUOUS
 66
     1
 40
0.003000
 41
0.003000
  0
VERTEX
  8
PLAN_1
 62
     5
  6
CONTINUOUS
 10
-0.027961
 20
0.602811
  0
VERTEX
  8
PLAN_1
 62
     5
  6
CONTINUOUS
 10
-0.019906
 20
0.602811
  0
SEQEND
  8
0
  0
POLYLINE
  8
PLAN_1
 62
     5
  6
CONTINUOUS
 66
     1
 40
0.003000
 41
0.003000
  0
VERTEX
  8
PLAN_1
 62
     5
  6
CONTINUOUS
 10
-0.011402
 20
0.602811
  0
VERTEX
  8
PLAN_1
 62
     5
  6
CONTINUOUS
 10
-0.002894
 20
0.602811
  0
SEQEND
  8
0
  0
POLYLINE
  8
PLAN_1
 62
     5
  6
CONTINUOUS
 66
     1
 40
0.003000
 41
0.003000
  0
VERTEX
  8
PLAN_1
 62
     5
  6
CONTINUOUS
 10
0.005161
 20
0.602811
  0
VERTEX
  8
PLAN_1
 62
     5
  6
CONTINUOUS
 10
0.013665
 20
0.602811
  0
SEQEND
  8
0
  0
POLYLINE
  8
PLAN_1
 62
     5
  6
CONTINUOUS
 66
     1
 40
0.003000
 41
0.003000
  0
VERTEX
  8
PLAN_1
 62
     5
  6
CONTINUOUS
 10
0.021724
 20
0.602811
  0
VERTEX
  8
PLAN_1
 62
     5
  6
CONTINUOUS
 10
0.030228
 20
0.602811
  0
SEQEND
  8
0
  0
POLYLINE
  8
PLAN_1
 62
     5
  6
CONTINUOUS
 66
     1
 40
0.003000
 41
0.003000
  0
VERTEX
  8
PLAN_1
 62
     5
  6
CONTINUOUS
 10
0.038736
 20
0.602811
  0
VERTEX
  8
PLAN_1
 62
     5
  6
CONTINUOUS
 10
0.046791
 20
0.602811
  0
SEQEND
  8
0
  0
POLYLINE
  8
PLAN_1
 62
     5
  6
CONTINUOUS
 66
     1
 40
0.003000
 41
0.003000
  0
VERTEX
  8
PLAN_1
 62
     5
  6
CONTINUOUS
 10
0.055295
 20
0.602811
  0
VERTEX
  8
PLAN_1
 62
     5
  6
CONTINUOUS
 10
0.063354
 20
0.602811
  0
SEQEND
  8
0
  0
POLYLINE
  8
PLAN_1
 62
     5
  6
CONTINUOUS
 66
     1
 40
0.003000
 41
0.003000
  0
VERTEX
  8
PLAN_1
 62
     5
  6
CONTINUOUS
 10
0.071858
 20
0.602811
  0
VERTEX
  8
PLAN_1
 62
     5
  6
CONTINUOUS
 10
0.080362
 20
0.602811
  0
SEQEND
  8
0
  0
POLYLINE
  8
PLAN_1
 62
     5
  6
CONTINUOUS
 66
     1
 40
0.003000
 41
0.003000
  0
VERTEX
  8
PLAN_1
 62
     5
  6
CONTINUOUS
 10
0.088421
 20
0.602811
  0
VERTEX
  8
PLAN_1
 62
     5
  6
CONTINUOUS
 10
0.096925
 20
0.602811
  0
SEQEND
  8
0
  0
POLYLINE
  8
PLAN_1
  6
CONTINUOUS
 66
     1
 40
0.008504
 41
0.008504
  0
VERTEX
  8
PLAN_1
  6
CONTINUOUS
 10
-0.610776
 20
0.257689
  0
VERTEX
  8
PLAN_1
  6
CONTINUOUS
 10
-0.610776
 20
0.367807
  0
VERTEX
  8
PLAN_1
  6
CONTINUOUS
 10
-0.746858
 20
0.367807
  0
VERTEX
  8
PLAN_1
  6
CONTINUOUS
 10
-0.746858
 20
0.257689
  0
VERTEX
  8
PLAN_1
  6
CONTINUOUS
 10
-0.610776
 20
0.257689
  0
SEQEND
  8
0
  0
POLYLINE
  8
PLAN_1
  6
CONTINUOUS
 66
     1
 40
0.008504
 41
0.008504
  0
VERTEX
  8
PLAN_1
  6
CONTINUOUS
 10
-0.154642
 20
0.842295
  0
VERTEX
  8
PLAN_1
  6
CONTINUOUS
 10
-0.154642
 20
0.864677
  0
VERTEX
  8
PLAN_1
  6
CONTINUOUS
 10
-1.219106
 20
0.864677
  0
VERTEX
  8
PLAN_1
  6
CONTINUOUS
 10
-1.219106
 20
0.842295
  0
VERTEX
  8
PLAN_1
  6
CONTINUOUS
 10
-0.154642
 20
0.842295
  0
SEQEND
  8
0
  0
POLYLINE
  8
PLAN_1
  6
CONTINUOUS
 66
     1
 40
0.008504
 41
0.008504
  0
VERTEX
  8
PLAN_1
  6
CONTINUOUS
 10
-0.398598
 20
0.367807
  0
VERTEX
  8
PLAN_1
  6
CONTINUOUS
 10
-0.398598
 20
0.842295
  0
VERTEX
  8
PLAN_1
  6
CONTINUOUS
 10
-0.952768
 20
0.842295
  0
VERTEX
  8
PLAN_1
  6
CONTINUOUS
 10
-0.952768
 20
0.367807
  0
VERTEX
  8
PLAN_1
  6
CONTINUOUS
 10
-0.398598
 20
0.367807
  0
SEQEND
  8
0
  0
POLYLINE
  8
PLAN_1
 62
     5
  6
CONTINUOUS
 66
     1
 40
0.003000
 41
0.003000
  0
VERTEX
  8
PLAN_1
 62
     5
  6
CONTINUOUS
 10
-1.426807
 20
0.602811
  0
VERTEX
  8
PLAN_1
 62
     5
  6
CONTINUOUS
 10
-1.418303
 20
0.602811
  0
SEQEND
  8
0
  0
POLYLINE
  8
PLAN_1
 62
     5
  6
CONTINUOUS
 66
     1
 40
0.003000
 41
0.003000
  0
VERTEX
  8
PLAN_1
 62
     5
  6
CONTINUOUS
 10
-1.410244
 20
0.602811
  0
VERTEX
  8
PLAN_1
 62
     5
  6
CONTINUOUS
 10
-1.401740
 20
0.602811
  0
SEQEND
  8
0
  0
POLYLINE
  8
PLAN_1
 62
     5
  6
CONTINUOUS
 66
     1
 40
0.003000
 41
0.003000
  0
VERTEX
  8
PLAN_1
 62
     5
  6
CONTINUOUS
 10
-1.393681
 20
0.602811
  0
VERTEX
  8
PLAN_1
 62
     5
  6
CONTINUOUS
 10
-1.385177
 20
0.602811
  0
SEQEND
  8
0
  0
POLYLINE
  8
PLAN_1
 62
     5
  6
CONTINUOUS
 66
     1
 40
0.003000
 41
0.003000
  0
VERTEX
  8
PLAN_1
 62
     5
  6
CONTINUOUS
 10
-1.376673
 20
0.602811
  0
VERTEX
  8
PLAN_1
 62
     5
  6
CONTINUOUS
 10
-1.368614
 20
0.602811
  0
SEQEND
  8
0
  0
POLYLINE
  8
PLAN_1
 62
     5
  6
CONTINUOUS
 66
     1
 40
0.003000
 41
0.003000
  0
VERTEX
  8
PLAN_1
 62
     5
  6
CONTINUOUS
 10
-1.360110
 20
0.602811
  0
VERTEX
  8
PLAN_1
 62
     5
  6
CONTINUOUS
 10
-1.352051
 20
0.602811
  0
SEQEND
  8
0
  0
POLYLINE
  8
PLAN_1
 62
     5
  6
CONTINUOUS
 66
     1
 40
0.003000
 41
0.003000
  0
VERTEX
  8
PLAN_1
 62
     5
  6
CONTINUOUS
 10
-1.343547
 20
0.602811
  0
VERTEX
  8
PLAN_1
 62
     5
  6
CONTINUOUS
 10
-1.335043
 20
0.602811
  0
SEQEND
  8
0
  0
POLYLINE
  8
PLAN_1
 62
     5
  6
CONTINUOUS
 66
     1
 40
0.003000
 41
0.003000
  0
VERTEX
  8
PLAN_1
 62
     5
  6
CONTINUOUS
 10
-1.326984
 20
0.602811
  0
VERTEX
  8
PLAN_1
 62
     5
  6
CONTINUOUS
 10
-1.318480
 20
0.602811
  0
SEQEND
  8
0
  0
POLYLINE
  8
PLAN_1
 62
     5
  6
CONTINUOUS
 66
     1
 40
0.003000
 41
0.003000
  0
VERTEX
  8
PLAN_1
 62
     5
  6
CONTINUOUS
 10
-1.310421
 20
0.602811
  0
VERTEX
  8
PLAN_1
 62
     5
  6
CONTINUOUS
 10
-1.301917
 20
0.602811
  0
SEQEND
  8
0
  0
POLYLINE
  8
PLAN_1
 62
     5
  6
CONTINUOUS
 66
     1
 40
0.003000
 41
0.003000
  0
VERTEX
  8
PLAN_1
 62
     5
  6
CONTINUOUS
 10
-1.293413
 20
0.602811
  0
VERTEX
  8
PLAN_1
 62
     5
  6
CONTINUOUS
 10
-1.285354
 20
0.602811
  0
SEQEND
  8
0
  0
POLYLINE
  8
PLAN_1
 62
     5
  6
CONTINUOUS
 66
     1
 40
0.003000
 41
0.003000
  0
VERTEX
  8
PLAN_1
 62
     5
  6
CONTINUOUS
 10
-1.276850
 20
0.602811
  0
VERTEX
  8
PLAN_1
 62
     5
  6
CONTINUOUS
 10
-1.268795
 20
0.602811
  0
SEQEND
  8
0
  0
POLYLINE
  8
PLAN_1
 62
     5
  6
CONTINUOUS
 66
     1
 40
0.003000
 41
0.003000
  0
VERTEX
  8
PLAN_1
 62
     5
  6
CONTINUOUS
 10
-1.260287
 20
0.602811
  0
VERTEX
  8
PLAN_1
 62
     5
  6
CONTINUOUS
 10
-1.251783
 20
0.602811
  0
SEQEND
  8
0
  0
POLYLINE
  8
PLAN_1
 62
     5
  6
CONTINUOUS
 66
     1
 40
0.003000
 41
0.003000
  0
VERTEX
  8
PLAN_1
 62
     5
  6
CONTINUOUS
 10
-1.243724
 20
0.602811
  0
VERTEX
  8
PLAN_1
 62
     5
  6
CONTINUOUS
 10
-1.235220
 20
0.602811
  0
SEQEND
  8
0
  0
POLYLINE
  8
PLAN_1
 62
     5
  6
CONTINUOUS
 66
     1
 40
0.003000
 41
0.003000
  0
VERTEX
  8
PLAN_1
 62
     5
  6
CONTINUOUS
 10
-1.227165
 20
0.602811
  0
VERTEX
  8
PLAN_1
 62
     5
  6
CONTINUOUS
 10
-1.218657
 20
0.602811
  0
SEQEND
  8
0
  0
POLYLINE
  8
PLAN_1
 62
     5
  6
CONTINUOUS
 66
     1
 40
0.003000
 41
0.003000
  0
VERTEX
  8
PLAN_1
 62
     5
  6
CONTINUOUS
 10
-1.210154
 20
0.602811
  0
VERTEX
  8
PLAN_1
 62
     5
  6
CONTINUOUS
 10
-1.202098
 20
0.602811
  0
SEQEND
  8
0
  0
POLYLINE
  8
PLAN_1
 62
     5
  6
CONTINUOUS
 66
     1
 40
0.003000
 41
0.003000
  0
VERTEX
  8
PLAN_1
 62
     5
  6
CONTINUOUS
 10
-1.193591
 20
0.602811
  0
VERTEX
  8
PLAN_1
 62
     5
  6
CONTINUOUS
 10
-1.185535
 20
0.602811
  0
SEQEND
  8
0
  0
POLYLINE
  8
PLAN_1
 62
     5
  6
CONTINUOUS
 66
     1
 40
0.003000
 41
0.003000
  0
VERTEX
  8
PLAN_1
 62
     5
  6
CONTINUOUS
 10
-1.177028
 20
0.602811
  0
VERTEX
  8
PLAN_1
 62
     5
  6
CONTINUOUS
 10
-1.168524
 20
0.602811
  0
SEQEND
  8
0
  0
POLYLINE
  8
PLAN_1
 62
     5
  6
CONTINUOUS
 66
     1
 40
0.003000
 41
0.003000
  0
VERTEX
  8
PLAN_1
 62
     5
  6
CONTINUOUS
 10
-1.160469
 20
0.602811
  0
VERTEX
  8
PLAN_1
 62
     5
  6
CONTINUOUS
 10
-1.157335
 20
0.602811
  0
SEQEND
  8
0
  0
POLYLINE
  8
PLAN_1
 62
     5
  6
CONTINUOUS
 66
     1
 40
0.003000
 41
0.003000
  0
VERTEX
  8
PLAN_1
 62
     5
  6
CONTINUOUS
 10
-1.160469
 20
0.602811
  0
VERTEX
  8
PLAN_1
 62
     5
  6
CONTINUOUS
 10
-1.157335
 20
0.602811
  0
SEQEND
  8
0
  0
POLYLINE
  8
PLAN_1
 62
     5
  6
CONTINUOUS
 66
     1
 40
0.003000
 41
0.003000
  0
VERTEX
  8
PLAN_1
 62
     5
  6
CONTINUOUS
 10
-1.294307
 20
0.462256
  0
VERTEX
  8
PLAN_1
 62
     5
  6
CONTINUOUS
 10
-1.294307
 20
0.470315
  0
SEQEND
  8
0
  0
POLYLINE
  8
PLAN_1
 62
     5
  6
CONTINUOUS
 66
     1
 40
0.003000
 41
0.003000
  0
VERTEX
  8
PLAN_1
 62
     5
  6
CONTINUOUS
 10
-1.294307
 20
0.478819
  0
VERTEX
  8
PLAN_1
 62
     5
  6
CONTINUOUS
 10
-1.294307
 20
0.487323
  0
SEQEND
  8
0
  0
POLYLINE
  8
PLAN_1
 62
     5
  6
CONTINUOUS
 66
     1
 40
0.003000
 41
0.003000
  0
VERTEX
  8
PLAN_1
 62
     5
  6
CONTINUOUS
 10
-1.294307
 20
0.495382
  0
VERTEX
  8
PLAN_1
 62
     5
  6
CONTINUOUS
 10
-1.294307
 20
0.503886
  0
SEQEND
  8
0
  0
POLYLINE
  8
PLAN_1
 62
     5
  6
CONTINUOUS
 66
     1
 40
0.003000
 41
0.003000
  0
VERTEX
  8
PLAN_1
 62
     5
  6
CONTINUOUS
 10
-1.294307
 20
0.512390
  0
VERTEX
  8
PLAN_1
 62
     5
  6
CONTINUOUS
 10
-1.294307
 20
0.520449
  0
SEQEND
  8
0
  0
POLYLINE
  8
PLAN_1
 62
     5
  6
CONTINUOUS
 66
     1
 40
0.003000
 41
0.003000
  0
VERTEX
  8
PLAN_1
 62
     5
  6
CONTINUOUS
 10
-1.294307
 20
0.528953
  0
VERTEX
  8
PLAN_1
 62
     5
  6
CONTINUOUS
 10
-1.294307
 20
0.537012
  0
SEQEND
  8
0
  0
POLYLINE
  8
PLAN_1
 62
     5
  6
CONTINUOUS
 66
     1
 40
0.003000
 41
0.003000
  0
VERTEX
  8
PLAN_1
 62
     5
  6
CONTINUOUS
 10
-1.294307
 20
0.545516
  0
VERTEX
  8
PLAN_1
 62
     5
  6
CONTINUOUS
 10
-1.294307
 20
0.554020
  0
SEQEND
  8
0
  0
POLYLINE
  8
PLAN_1
 62
     5
  6
CONTINUOUS
 66
     1
 40
0.003000
 41
0.003000
  0
VERTEX
  8
PLAN_1
 62
     5
  6
CONTINUOUS
 10
-1.294307
 20
0.562079
  0
VERTEX
  8
PLAN_1
 62
     5
  6
CONTINUOUS
 10
-1.294307
 20
0.570583
  0
SEQEND
  8
0
  0
POLYLINE
  8
PLAN_1
 62
     5
  6
CONTINUOUS
 66
     1
 40
0.003000
 41
0.003000
  0
VERTEX
  8
PLAN_1
 62
     5
  6
CONTINUOUS
 10
-1.294307
 20
0.578638
  0
VERTEX
  8
PLAN_1
 62
     5
  6
CONTINUOUS
 10
-1.294307
 20
0.587146
  0
SEQEND
  8
0
  0
POLYLINE
  8
PLAN_1
 62
     5
  6
CONTINUOUS
 66
     1
 40
0.003000
 41
0.003000
  0
VERTEX
  8
PLAN_1
 62
     5
  6
CONTINUOUS
 10
-1.294307
 20
0.595650
  0
VERTEX
  8
PLAN_1
 62
     5
  6
CONTINUOUS
 10
-1.294307
 20
0.603709
  0
SEQEND
  8
0
  0
POLYLINE
  8
PLAN_1
 62
     5
  6
CONTINUOUS
 66
     1
 40
0.003000
 41
0.003000
  0
VERTEX
  8
PLAN_1
 62
     5
  6
CONTINUOUS
 10
-1.294307
 20
0.612213
  0
VERTEX
  8
PLAN_1
 62
     5
  6
CONTINUOUS
 10
-1.294307
 20
0.620268
  0
SEQEND
  8
0
  0
POLYLINE
  8
PLAN_1
 62
     5
  6
CONTINUOUS
 66
     1
 40
0.003000
 41
0.003000
  0
VERTEX
  8
PLAN_1
 62
     5
  6
CONTINUOUS
 10
-1.294307
 20
0.628776
  0
VERTEX
  8
PLAN_1
 62
     5
  6
CONTINUOUS
 10
-1.294307
 20
0.637280
  0
SEQEND
  8
0
  0
POLYLINE
  8
PLAN_1
 62
     5
  6
CONTINUOUS
 66
     1
 40
0.003000
 41
0.003000
  0
VERTEX
  8
PLAN_1
 62
     5
  6
CONTINUOUS
 10
-1.294307
 20
0.645335
  0
VERTEX
  8
PLAN_1
 62
     5
  6
CONTINUOUS
 10
-1.294307
 20
0.653843
  0
SEQEND
  8
0
  0
POLYLINE
  8
PLAN_1
 62
     5
  6
CONTINUOUS
 66
     1
 40
0.003000
 41
0.003000
  0
VERTEX
  8
PLAN_1
 62
     5
  6
CONTINUOUS
 10
-1.294307
 20
0.661898
  0
VERTEX
  8
PLAN_1
 62
     5
  6
CONTINUOUS
 10
-1.294307
 20
0.670406
  0
SEQEND
  8
0
  0
POLYLINE
  8
PLAN_1
 62
     5
  6
CONTINUOUS
 66
     1
 40
0.003000
 41
0.003000
  0
VERTEX
  8
PLAN_1
 62
     5
  6
CONTINUOUS
 10
-1.294307
 20
0.678909
  0
VERTEX
  8
PLAN_1
 62
     5
  6
CONTINUOUS
 10
-1.294307
 20
0.686965
  0
SEQEND
  8
0
  0
POLYLINE
  8
PLAN_1
 62
     5
  6
CONTINUOUS
 66
     1
 40
0.003000
 41
0.003000
  0
VERTEX
  8
PLAN_1
 62
     5
  6
CONTINUOUS
 10
-1.294307
 20
0.695472
  0
VERTEX
  8
PLAN_1
 62
     5
  6
CONTINUOUS
 10
-1.294307
 20
0.703528
  0
SEQEND
  8
0
  0
POLYLINE
  8
PLAN_1
 62
     5
  6
CONTINUOUS
 66
     1
 40
0.003000
 41
0.003000
  0
VERTEX
  8
PLAN_1
 62
     5
  6
CONTINUOUS
 10
-1.294307
 20
0.712031
  0
VERTEX
  8
PLAN_1
 62
     5
  6
CONTINUOUS
 10
-1.294307
 20
0.720539
  0
SEQEND
  8
0
  0
POLYLINE
  8
PLAN_1
 62
     5
  6
CONTINUOUS
 66
     1
 40
0.003000
 41
0.003000
  0
VERTEX
  8
PLAN_1
 62
     5
  6
CONTINUOUS
 10
-1.467988
 20
0.121161
  0
VERTEX
  8
PLAN_1
 62
     5
  6
CONTINUOUS
 10
-1.467988
 20
0.129220
  0
SEQEND
  8
0
  0
POLYLINE
  8
PLAN_1
 62
     5
  6
CONTINUOUS
 66
     1
 40
0.003000
 41
0.003000
  0
VERTEX
  8
PLAN_1
 62
     5
  6
CONTINUOUS
 10
-1.467988
 20
0.137724
  0
VERTEX
  8
PLAN_1
 62
     5
  6
CONTINUOUS
 10
-1.467988
 20
0.145780
  0
SEQEND
  8
0
  0
POLYLINE
  8
PLAN_1
 62
     5
  6
CONTINUOUS
 66
     1
 40
0.003000
 41
0.003000
  0
VERTEX
  8
PLAN_1
 62
     5
  6
CONTINUOUS
 10
-1.467988
 20
0.154287
  0
VERTEX
  8
PLAN_1
 62
     5
  6
CONTINUOUS
 10
-1.467988
 20
0.162791
  0
SEQEND
  8
0
  0
POLYLINE
  8
PLAN_1
 62
     5
  6
CONTINUOUS
 66
     1
 40
0.003000
 41
0.003000
  0
VERTEX
  8
PLAN_1
 62
     5
  6
CONTINUOUS
 10
-1.467988
 20
0.170850
  0
VERTEX
  8
PLAN_1
 62
     5
  6
CONTINUOUS
 10
-1.467988
 20
0.179354
  0
SEQEND
  8
0
  0
POLYLINE
  8
PLAN_1
 62
     5
  6
CONTINUOUS
 66
     1
 40
0.003000
 41
0.003000
  0
VERTEX
  8
PLAN_1
 62
     5
  6
CONTINUOUS
 10
-1.467988
 20
0.187409
  0
VERTEX
  8
PLAN_1
 62
     5
  6
CONTINUOUS
 10
-1.467988
 20
0.195917
  0
SEQEND
  8
0
  0
POLYLINE
  8
PLAN_1
 62
     5
  6
CONTINUOUS
 66
     1
 40
0.003000
 41
0.003000
  0
VERTEX
  8
PLAN_1
 62
     5
  6
CONTINUOUS
 10
-1.467988
 20
0.204421
  0
VERTEX
  8
PLAN_1
 62
     5
  6
CONTINUOUS
 10
-1.467988
 20
0.212476
  0
SEQEND
  8
0
  0
POLYLINE
  8
PLAN_1
 62
     5
  6
CONTINUOUS
 66
     1
 40
0.003000
 41
0.003000
  0
VERTEX
  8
PLAN_1
 62
     5
  6
CONTINUOUS
 10
-1.467988
 20
0.220984
  0
VERTEX
  8
PLAN_1
 62
     5
  6
CONTINUOUS
 10
-1.467988
 20
0.229039
  0
SEQEND
  8
0
  0
POLYLINE
  8
PLAN_1
 62
     5
  6
CONTINUOUS
 66
     1
 40
0.003000
 41
0.003000
  0
VERTEX
  8
PLAN_1
 62
     5
  6
CONTINUOUS
 10
-1.467988
 20
0.237547
  0
VERTEX
  8
PLAN_1
 62
     5
  6
CONTINUOUS
 10
-1.467988
 20
0.246051
  0
SEQEND
  8
0
  0
POLYLINE
  8
PLAN_1
 62
     5
  6
CONTINUOUS
 66
     1
 40
0.003000
 41
0.003000
  0
VERTEX
  8
PLAN_1
 62
     5
  6
CONTINUOUS
 10
-1.467988
 20
0.254106
  0
VERTEX
  8
PLAN_1
 62
     5
  6
CONTINUOUS
 10
-1.467988
 20
0.262614
  0
SEQEND
  8
0
  0
POLYLINE
  8
PLAN_1
 62
     5
  6
CONTINUOUS
 66
     1
 40
0.003000
 41
0.003000
  0
VERTEX
  8
PLAN_1
 62
     5
  6
CONTINUOUS
 10
-1.467988
 20
0.271118
  0
VERTEX
  8
PLAN_1
 62
     5
  6
CONTINUOUS
 10
-1.467988
 20
0.279173
  0
SEQEND
  8
0
  0
POLYLINE
  8
PLAN_1
 62
     5
  6
CONTINUOUS
 66
     1
 40
0.003000
 41
0.003000
  0
VERTEX
  8
PLAN_1
 62
     5
  6
CONTINUOUS
 10
-1.467988
 20
0.287681
  0
VERTEX
  8
PLAN_1
 62
     5
  6
CONTINUOUS
 10
-1.467988
 20
0.295736
  0
SEQEND
  8
0
  0
POLYLINE
  8
PLAN_1
 62
     5
  6
CONTINUOUS
 66
     1
 40
0.003000
 41
0.003000
  0
VERTEX
  8
PLAN_1
 62
     5
  6
CONTINUOUS
 10
-1.467988
 20
0.304244
  0
VERTEX
  8
PLAN_1
 62
     5
  6
CONTINUOUS
 10
-1.467988
 20
0.312748
  0
SEQEND
  8
0
  0
POLYLINE
  8
PLAN_1
 62
     5
  6
CONTINUOUS
 66
     1
 40
0.003000
 41
0.003000
  0
VERTEX
  8
PLAN_1
 62
     5
  6
CONTINUOUS
 10
-1.467988
 20
0.320803
  0
VERTEX
  8
PLAN_1
 62
     5
  6
CONTINUOUS
 10
-1.467988
 20
0.329311
  0
SEQEND
  8
0
  0
POLYLINE
  8
PLAN_1
 62
     5
  6
CONTINUOUS
 66
     1
 40
0.003000
 41
0.003000
  0
VERTEX
  8
PLAN_1
 62
     5
  6
CONTINUOUS
 10
-1.467988
 20
0.337366
  0
VERTEX
  8
PLAN_1
 62
     5
  6
CONTINUOUS
 10
-1.467988
 20
0.345870
  0
SEQEND
  8
0
  0
POLYLINE
  8
PLAN_1
 62
     5
  6
CONTINUOUS
 66
     1
 40
0.003000
 41
0.003000
  0
VERTEX
  8
PLAN_1
 62
     5
  6
CONTINUOUS
 10
-1.467988
 20
0.354378
  0
VERTEX
  8
PLAN_1
 62
     5
  6
CONTINUOUS
 10
-1.467988
 20
0.362433
  0
SEQEND
  8
0
  0
POLYLINE
  8
PLAN_1
 62
     5
  6
CONTINUOUS
 66
     1
 40
0.003000
 41
0.003000
  0
VERTEX
  8
PLAN_1
 62
     5
  6
CONTINUOUS
 10
-1.467988
 20
0.370941
  0
VERTEX
  8
PLAN_1
 62
     5
  6
CONTINUOUS
 10
-1.467988
 20
0.378996
  0
SEQEND
  8
0
  0
POLYLINE
  8
PLAN_1
 62
     5
  6
CONTINUOUS
 66
     1
 40
0.003000
 41
0.003000
  0
VERTEX
  8
PLAN_1
 62
     5
  6
CONTINUOUS
 10
-1.467988
 20
0.387500
  0
VERTEX
  8
PLAN_1
 62
     5
  6
CONTINUOUS
 10
-1.467988
 20
0.396008
  0
SEQEND
  8
0
  0
POLYLINE
  8
PLAN_1
 62
     5
  6
CONTINUOUS
 66
     1
 40
0.003000
 41
0.003000
  0
VERTEX
  8
PLAN_1
 62
     5
  6
CONTINUOUS
 10
-1.467988
 20
0.404063
  0
VERTEX
  8
PLAN_1
 62
     5
  6
CONTINUOUS
 10
-1.467988
 20
0.412567
  0
SEQEND
  8
0
  0
POLYLINE
  8
PLAN_1
 62
     5
  6
CONTINUOUS
 66
     1
 40
0.003000
 41
0.003000
  0
VERTEX
  8
PLAN_1
 62
     5
  6
CONTINUOUS
 10
-1.467988
 20
0.420626
  0
VERTEX
  8
PLAN_1
 62
     5
  6
CONTINUOUS
 10
-1.467988
 20
0.429130
  0
SEQEND
  8
0
  0
POLYLINE
  8
PLAN_1
 62
     5
  6
CONTINUOUS
 66
     1
 40
0.003000
 41
0.003000
  0
VERTEX
  8
PLAN_1
 62
     5
  6
CONTINUOUS
 10
-1.467988
 20
0.437638
  0
VERTEX
  8
PLAN_1
 62
     5
  6
CONTINUOUS
 10
-1.467988
 20
0.445693
  0
SEQEND
  8
0
  0
POLYLINE
  8
PLAN_1
 62
     5
  6
CONTINUOUS
 66
     1
 40
0.003000
 41
0.003000
  0
VERTEX
  8
PLAN_1
 62
     5
  6
CONTINUOUS
 10
-1.467988
 20
0.454197
  0
VERTEX
  8
PLAN_1
 62
     5
  6
CONTINUOUS
 10
-1.467988
 20
0.462256
  0
SEQEND
  8
0
  0
POLYLINE
  8
PLAN_1
 62
     5
  6
CONTINUOUS
 66
     1
 40
0.003000
 41
0.003000
  0
VERTEX
  8
PLAN_1
 62
     5
  6
CONTINUOUS
 10
-1.467988
 20
0.470760
  0
VERTEX
  8
PLAN_1
 62
     5
  6
CONTINUOUS
 10
-1.467988
 20
0.479264
  0
SEQEND
  8
0
  0
POLYLINE
  8
PLAN_1
 62
     5
  6
CONTINUOUS
 66
     1
 40
0.003000
 41
0.003000
  0
VERTEX
  8
PLAN_1
 62
     5
  6
CONTINUOUS
 10
-1.467988
 20
0.487323
  0
VERTEX
  8
PLAN_1
 62
     5
  6
CONTINUOUS
 10
-1.467988
 20
0.495827
  0
SEQEND
  8
0
  0
POLYLINE
  8
PLAN_1
 62
     5
  6
CONTINUOUS
 66
     1
 40
0.003000
 41
0.003000
  0
VERTEX
  8
PLAN_1
 62
     5
  6
CONTINUOUS
 10
-1.467988
 20
0.503886
  0
VERTEX
  8
PLAN_1
 62
     5
  6
CONTINUOUS
 10
-1.467988
 20
0.512390
  0
SEQEND
  8
0
  0
POLYLINE
  8
PLAN_1
 62
     5
  6
CONTINUOUS
 66
     1
 40
0.003000
 41
0.003000
  0
VERTEX
  8
PLAN_1
 62
     5
  6
CONTINUOUS
 10
-1.467988
 20
0.520894
  0
VERTEX
  8
PLAN_1
 62
     5
  6
CONTINUOUS
 10
-1.467988
 20
0.528953
  0
SEQEND
  8
0
  0
POLYLINE
  8
PLAN_1
 62
     5
  6
CONTINUOUS
 66
     1
 40
0.003000
 41
0.003000
  0
VERTEX
  8
PLAN_1
 62
     5
  6
CONTINUOUS
 10
-1.467988
 20
0.537457
  0
VERTEX
  8
PLAN_1
 62
     5
  6
CONTINUOUS
 10
-1.467988
 20
0.545961
  0
SEQEND
  8
0
  0
POLYLINE
  8
PLAN_1
 62
     5
  6
CONTINUOUS
 66
     1
 40
0.003000
 41
0.003000
  0
VERTEX
  8
PLAN_1
 62
     5
  6
CONTINUOUS
 10
-1.467988
 20
0.554020
  0
VERTEX
  8
PLAN_1
 62
     5
  6
CONTINUOUS
 10
-1.467988
 20
0.562524
  0
SEQEND
  8
0
  0
POLYLINE
  8
PLAN_1
 62
     5
  6
CONTINUOUS
 66
     1
 40
0.003000
 41
0.003000
  0
VERTEX
  8
PLAN_1
 62
     5
  6
CONTINUOUS
 10
-1.467988
 20
0.570583
  0
VERTEX
  8
PLAN_1
 62
     5
  6
CONTINUOUS
 10
-1.467988
 20
0.579087
  0
SEQEND
  8
0
  0
POLYLINE
  8
PLAN_1
 62
     5
  6
CONTINUOUS
 66
     1
 40
0.003000
 41
0.003000
  0
VERTEX
  8
PLAN_1
 62
     5
  6
CONTINUOUS
 10
-1.467988
 20
0.587591
  0
VERTEX
  8
PLAN_1
 62
     5
  6
CONTINUOUS
 10
-1.467988
 20
0.595650
  0
SEQEND
  8
0
  0
POLYLINE
  8
PLAN_1
 62
     5
  6
CONTINUOUS
 66
     1
 40
0.003000
 41
0.003000
  0
VERTEX
  8
PLAN_1
 62
     5
  6
CONTINUOUS
 10
-1.467988
 20
0.604154
  0
VERTEX
  8
PLAN_1
 62
     5
  6
CONTINUOUS
 10
-1.467988
 20
0.612213
  0
SEQEND
  8
0
  0
POLYLINE
  8
PLAN_1
 62
     5
  6
CONTINUOUS
 66
     1
 40
0.003000
 41
0.003000
  0
VERTEX
  8
PLAN_1
 62
     5
  6
CONTINUOUS
 10
-1.467988
 20
0.620717
  0
VERTEX
  8
PLAN_1
 62
     5
  6
CONTINUOUS
 10
-1.467988
 20
0.629220
  0
SEQEND
  8
0
  0
POLYLINE
  8
PLAN_1
 62
     5
  6
CONTINUOUS
 66
     1
 40
0.003000
 41
0.003000
  0
VERTEX
  8
PLAN_1
 62
     5
  6
CONTINUOUS
 10
-1.467988
 20
0.637280
  0
VERTEX
  8
PLAN_1
 62
     5
  6
CONTINUOUS
 10
-1.467988
 20
0.645783
  0
SEQEND
  8
0
  0
POLYLINE
  8
PLAN_1
 62
     5
  6
CONTINUOUS
 66
     1
 40
0.003000
 41
0.003000
  0
VERTEX
  8
PLAN_1
 62
     5
  6
CONTINUOUS
 10
-1.467988
 20
0.653843
  0
VERTEX
  8
PLAN_1
 62
     5
  6
CONTINUOUS
 10
-1.467988
 20
0.662346
  0
SEQEND
  8
0
  0
POLYLINE
  8
PLAN_1
 62
     5
  6
CONTINUOUS
 66
     1
 40
0.003000
 41
0.003000
  0
VERTEX
  8
PLAN_1
 62
     5
  6
CONTINUOUS
 10
-1.467988
 20
0.670850
  0
VERTEX
  8
PLAN_1
 62
     5
  6
CONTINUOUS
 10
-1.467988
 20
0.678909
  0
SEQEND
  8
0
  0
POLYLINE
  8
PLAN_1
 62
     5
  6
CONTINUOUS
 66
     1
 40
0.003000
 41
0.003000
  0
VERTEX
  8
PLAN_1
 62
     5
  6
CONTINUOUS
 10
-1.467988
 20
0.687413
  0
VERTEX
  8
PLAN_1
 62
     5
  6
CONTINUOUS
 10
-1.467988
 20
0.695472
  0
SEQEND
  8
0
  0
POLYLINE
  8
PLAN_1
 62
     5
  6
CONTINUOUS
 66
     1
 40
0.003000
 41
0.003000
  0
VERTEX
  8
PLAN_1
 62
     5
  6
CONTINUOUS
 10
-1.467988
 20
0.703976
  0
VERTEX
  8
PLAN_1
 62
     5
  6
CONTINUOUS
 10
-1.467988
 20
0.712480
  0
SEQEND
  8
0
  0
POLYLINE
  8
PLAN_1
 62
     5
  6
CONTINUOUS
 66
     1
 40
0.003000
 41
0.003000
  0
VERTEX
  8
PLAN_1
 62
     5
  6
CONTINUOUS
 10
-1.467988
 20
0.720539
  0
VERTEX
  8
PLAN_1
 62
     5
  6
CONTINUOUS
 10
-1.467988
 20
0.729043
  0
SEQEND
  8
0
  0
POLYLINE
  8
PLAN_1
 62
     5
  6
CONTINUOUS
 66
     1
 40
0.003000
 41
0.003000
  0
VERTEX
  8
PLAN_1
 62
     5
  6
CONTINUOUS
 10
-1.467988
 20
0.737102
  0
VERTEX
  8
PLAN_1
 62
     5
  6
CONTINUOUS
 10
-1.467988
 20
0.745606
  0
SEQEND
  8
0
  0
POLYLINE
  8
PLAN_1
 62
     5
  6
CONTINUOUS
 66
     1
 40
0.003000
 41
0.003000
  0
VERTEX
  8
PLAN_1
 62
     5
  6
CONTINUOUS
 10
-1.467988
 20
0.754110
  0
VERTEX
  8
PLAN_1
 62
     5
  6
CONTINUOUS
 10
-1.467988
 20
0.762169
  0
SEQEND
  8
0
  0
POLYLINE
  8
PLAN_1
 62
     5
  6
CONTINUOUS
 66
     1
 40
0.003000
 41
0.003000
  0
VERTEX
  8
PLAN_1
 62
     5
  6
CONTINUOUS
 10
-1.467988
 20
0.770673
  0
VERTEX
  8
PLAN_1
 62
     5
  6
CONTINUOUS
 10
-1.467988
 20
0.778728
  0
SEQEND
  8
0
  0
POLYLINE
  8
PLAN_1
 62
     5
  6
CONTINUOUS
 66
     1
 40
0.003000
 41
0.003000
  0
VERTEX
  8
PLAN_1
 62
     5
  6
CONTINUOUS
 10
-1.467988
 20
0.787236
  0
VERTEX
  8
PLAN_1
 62
     5
  6
CONTINUOUS
 10
-1.467988
 20
0.795740
  0
SEQEND
  8
0
  0
POLYLINE
  8
PLAN_1
 62
     5
  6
CONTINUOUS
 66
     1
 40
0.003000
 41
0.003000
  0
VERTEX
  8
PLAN_1
 62
     5
  6
CONTINUOUS
 10
-1.467988
 20
0.803799
  0
VERTEX
  8
PLAN_1
 62
     5
  6
CONTINUOUS
 10
-1.467988
 20
0.812303
  0
SEQEND
  8
0
  0
POLYLINE
  8
PLAN_1
 62
     5
  6
CONTINUOUS
 66
     1
 40
0.003000
 41
0.003000
  0
VERTEX
  8
PLAN_1
 62
     5
  6
CONTINUOUS
 10
-1.467988
 20
0.820807
  0
VERTEX
  8
PLAN_1
 62
     5
  6
CONTINUOUS
 10
-1.467988
 20
0.826626
  0
SEQEND
  8
0
  0
POLYLINE
  8
PLAN_1
 62
     5
  6
CONTINUOUS
 66
     1
 40
0.003000
 41
0.003000
  0
VERTEX
  8
PLAN_1
 62
     5
  6
CONTINUOUS
 10
-1.467988
 20
0.820807
  0
VERTEX
  8
PLAN_1
 62
     5
  6
CONTINUOUS
 10
-1.467988
 20
0.826626
  0
SEQEND
  8
0
  0
POLYLINE
  8
PLAN_1
 62
     5
  6
CONTINUOUS
 66
     1
 40
0.003000
 41
0.003000
  0
VERTEX
  8
PLAN_1
 62
     5
  6
CONTINUOUS
 10
-1.467988
 20
0.826626
  0
VERTEX
  8
PLAN_1
 62
     5
  6
CONTINUOUS
 10
-1.468437
 20
0.830654
  0
VERTEX
  8
PLAN_1
 62
     5
  6
CONTINUOUS
 10
-1.467988
 20
0.834236
  0
VERTEX
  8
PLAN_1
 62
     5
  6
CONTINUOUS
 10
-1.467988
 20
0.834685
  0
SEQEND
  8
0
  0
POLYLINE
  8
PLAN_1
 62
     5
  6
CONTINUOUS
 66
     1
 40
0.003000
 41
0.003000
  0
VERTEX
  8
PLAN_1
 62
     5
  6
CONTINUOUS
 10
-1.466197
 20
0.842740
  0
VERTEX
  8
PLAN_1
 62
     5
  6
CONTINUOUS
 10
-1.465303
 20
0.844980
  0
VERTEX
  8
PLAN_1
 62
     5
  6
CONTINUOUS
 10
-1.463512
 20
0.848114
  0
VERTEX
  8
PLAN_1
 62
     5
  6
CONTINUOUS
 10
-1.462169
 20
0.849902
  0
SEQEND
  8
0
  0
POLYLINE
  8
PLAN_1
 62
     5
  6
CONTINUOUS
 66
     1
 40
0.003000
 41
0.003000
  0
VERTEX
  8
PLAN_1
 62
     5
  6
CONTINUOUS
 10
-1.456350
 20
0.856169
  0
VERTEX
  8
PLAN_1
 62
     5
  6
CONTINUOUS
 10
-1.453665
 20
0.858409
  0
VERTEX
  8
PLAN_1
 62
     5
  6
CONTINUOUS
 10
-1.450531
 20
0.860201
  0
VERTEX
  8
PLAN_1
 62
     5
  6
CONTINUOUS
 10
-1.449638
 20
0.860646
  0
SEQEND
  8
0
  0
POLYLINE
  8
PLAN_1
 62
     5
  6
CONTINUOUS
 66
     1
 40
0.003000
 41
0.003000
  0
VERTEX
  8
PLAN_1
 62
     5
  6
CONTINUOUS
 10
-1.441579
 20
0.863780
  0
VERTEX
  8
PLAN_1
 62
     5
  6
CONTINUOUS
 10
-1.440236
 20
0.863780
  0
VERTEX
  8
PLAN_1
 62
     5
  6
CONTINUOUS
 10
-1.436654
 20
0.864677
  0
VERTEX
  8
PLAN_1
 62
     5
  6
CONTINUOUS
 10
-1.433520
 20
0.864677
  0
SEQEND
  8
0
  0
POLYLINE
  8
PLAN_1
 62
     5
  6
CONTINUOUS
 66
     1
 40
0.003000
 41
0.003000
  0
VERTEX
  8
PLAN_1
 62
     5
  6
CONTINUOUS
 10
-1.432626
 20
0.864677
  0
VERTEX
  8
PLAN_1
 62
     5
  6
CONTINUOUS
 10
-1.424122
 20
0.864677
  0
SEQEND
  8
0
  0
POLYLINE
  8
PLAN_1
 62
     5
  6
CONTINUOUS
 66
     1
 40
0.003000
 41
0.003000
  0
VERTEX
  8
PLAN_1
 62
     5
  6
CONTINUOUS
 10
-1.416063
 20
0.864677
  0
VERTEX
  8
PLAN_1
 62
     5
  6
CONTINUOUS
 10
-1.407559
 20
0.864677
  0
SEQEND
  8
0
  0
POLYLINE
  8
PLAN_1
 62
     5
  6
CONTINUOUS
 66
     1
 40
0.003000
 41
0.003000
  0
VERTEX
  8
PLAN_1
 62
     5
  6
CONTINUOUS
 10
-1.399500
 20
0.864677
  0
VERTEX
  8
PLAN_1
 62
     5
  6
CONTINUOUS
 10
-1.390996
 20
0.864677
  0
SEQEND
  8
0
  0
POLYLINE
  8
PLAN_1
 62
     5
  6
CONTINUOUS
 66
     1
 40
0.003000
 41
0.003000
  0
VERTEX
  8
PLAN_1
 62
     5
  6
CONTINUOUS
 10
-1.382492
 20
0.864677
  0
VERTEX
  8
PLAN_1
 62
     5
  6
CONTINUOUS
 10
-1.374433
 20
0.864677
  0
SEQEND
  8
0
  0
POLYLINE
  8
PLAN_1
 62
     5
  6
CONTINUOUS
 66
     1
 40
0.003000
 41
0.003000
  0
VERTEX
  8
PLAN_1
 62
     5
  6
CONTINUOUS
 10
-1.365929
 20
0.864677
  0
VERTEX
  8
PLAN_1
 62
     5
  6
CONTINUOUS
 10
-1.357870
 20
0.864677
  0
SEQEND
  8
0
  0
POLYLINE
  8
PLAN_1
 62
     5
  6
CONTINUOUS
 66
     1
 40
0.003000
 41
0.003000
  0
VERTEX
  8
PLAN_1
 62
     5
  6
CONTINUOUS
 10
-1.349366
 20
0.864677
  0
VERTEX
  8
PLAN_1
 62
     5
  6
CONTINUOUS
 10
-1.340862
 20
0.864677
  0
SEQEND
  8
0
  0
POLYLINE
  8
PLAN_1
 62
     5
  6
CONTINUOUS
 66
     1
 40
0.003000
 41
0.003000
  0
VERTEX
  8
PLAN_1
 62
     5
  6
CONTINUOUS
 10
-1.332803
 20
0.864677
  0
VERTEX
  8
PLAN_1
 62
     5
  6
CONTINUOUS
 10
-1.324299
 20
0.864677
  0
SEQEND
  8
0
  0
POLYLINE
  8
PLAN_1
 62
     5
  6
CONTINUOUS
 66
     1
 40
0.003000
 41
0.003000
  0
VERTEX
  8
PLAN_1
 62
     5
  6
CONTINUOUS
 10
-1.316244
 20
0.864677
  0
VERTEX
  8
PLAN_1
 62
     5
  6
CONTINUOUS
 10
-1.307736
 20
0.864677
  0
SEQEND
  8
0
  0
POLYLINE
  8
PLAN_1
 62
     5
  6
CONTINUOUS
 66
     1
 40
0.003000
 41
0.003000
  0
VERTEX
  8
PLAN_1
 62
     5
  6
CONTINUOUS
 10
-1.299232
 20
0.864677
  0
VERTEX
  8
PLAN_1
 62
     5
  6
CONTINUOUS
 10
-1.291173
 20
0.864677
  0
SEQEND
  8
0
  0
POLYLINE
  8
PLAN_1
 62
     5
  6
CONTINUOUS
 66
     1
 40
0.003000
 41
0.003000
  0
VERTEX
  8
PLAN_1
 62
     5
  6
CONTINUOUS
 10
-1.282669
 20
0.864677
  0
VERTEX
  8
PLAN_1
 62
     5
  6
CONTINUOUS
 10
-1.274165
 20
0.864677
  0
SEQEND
  8
0
  0
POLYLINE
  8
PLAN_1
 62
     5
  6
CONTINUOUS
 66
     1
 40
0.003000
 41
0.003000
  0
VERTEX
  8
PLAN_1
 62
     5
  6
CONTINUOUS
 10
-1.266106
 20
0.864677
  0
VERTEX
  8
PLAN_1
 62
     5
  6
CONTINUOUS
 10
-1.257602
 20
0.864677
  0
SEQEND
  8
0
  0
POLYLINE
  8
PLAN_1
 62
     5
  6
CONTINUOUS
 66
     1
 40
0.003000
 41
0.003000
  0
VERTEX
  8
PLAN_1
 62
     5
  6
CONTINUOUS
 10
-1.249547
 20
0.864677
  0
VERTEX
  8
PLAN_1
 62
     5
  6
CONTINUOUS
 10
-1.241039
 20
0.864677
  0
SEQEND
  8
0
  0
POLYLINE
  8
PLAN_1
 62
     5
  6
CONTINUOUS
 66
     1
 40
0.003000
 41
0.003000
  0
VERTEX
  8
PLAN_1
 62
     5
  6
CONTINUOUS
 10
-1.232535
 20
0.864677
  0
VERTEX
  8
PLAN_1
 62
     5
  6
CONTINUOUS
 10
-1.224476
 20
0.864677
  0
SEQEND
  8
0
  0
POLYLINE
  8
PLAN_1
 62
     5
  6
CONTINUOUS
 66
     1
 40
0.003000
 41
0.003000
  0
VERTEX
  8
PLAN_1
 62
     5
  6
CONTINUOUS
 10
-1.215972
 20
0.864677
  0
VERTEX
  8
PLAN_1
 62
     5
  6
CONTINUOUS
 10
-1.207917
 20
0.864677
  0
SEQEND
  8
0
  0
POLYLINE
  8
PLAN_1
 62
     5
  6
CONTINUOUS
 66
     1
 40
0.003000
 41
0.003000
  0
VERTEX
  8
PLAN_1
 62
     5
  6
CONTINUOUS
 10
-1.199409
 20
0.864677
  0
VERTEX
  8
PLAN_1
 62
     5
  6
CONTINUOUS
 10
-1.190906
 20
0.864677
  0
SEQEND
  8
0
  0
POLYLINE
  8
PLAN_1
 62
     5
  6
CONTINUOUS
 66
     1
 40
0.003000
 41
0.003000
  0
VERTEX
  8
PLAN_1
 62
     5
  6
CONTINUOUS
 10
-1.182850
 20
0.864677
  0
VERTEX
  8
PLAN_1
 62
     5
  6
CONTINUOUS
 10
-1.174343
 20
0.864677
  0
SEQEND
  8
0
  0
POLYLINE
  8
PLAN_1
 62
     5
  6
CONTINUOUS
 66
     1
 40
0.003000
 41
0.003000
  0
VERTEX
  8
PLAN_1
 62
     5
  6
CONTINUOUS
 10
-1.166287
 20
0.864677
  0
VERTEX
  8
PLAN_1
 62
     5
  6
CONTINUOUS
 10
-1.157780
 20
0.864677
  0
SEQEND
  8
0
  0
POLYLINE
  8
PLAN_1
 62
     5
  6
CONTINUOUS
 66
     1
 40
0.003000
 41
0.003000
  0
VERTEX
  8
PLAN_1
 62
     5
  6
CONTINUOUS
 10
-1.149276
 20
0.864677
  0
VERTEX
  8
PLAN_1
 62
     5
  6
CONTINUOUS
 10
-1.141220
 20
0.864677
  0
SEQEND
  8
0
  0
POLYLINE
  8
PLAN_1
 62
     5
  6
CONTINUOUS
 66
     1
 40
0.003000
 41
0.003000
  0
VERTEX
  8
PLAN_1
 62
     5
  6
CONTINUOUS
 10
-1.132713
 20
0.864677
  0
VERTEX
  8
PLAN_1
 62
     5
  6
CONTINUOUS
 10
-1.124657
 20
0.864677
  0
SEQEND
  8
0
  0
POLYLINE
  8
PLAN_1
 62
     5
  6
CONTINUOUS
 66
     1
 40
0.003000
 41
0.003000
  0
VERTEX
  8
PLAN_1
 62
     5
  6
CONTINUOUS
 10
-1.116150
 20
0.864677
  0
VERTEX
  8
PLAN_1
 62
     5
  6
CONTINUOUS
 10
-1.107646
 20
0.864677
  0
SEQEND
  8
0
  0
POLYLINE
  8
PLAN_1
 62
     5
  6
CONTINUOUS
 66
     1
 40
0.003000
 41
0.003000
  0
VERTEX
  8
PLAN_1
 62
     5
  6
CONTINUOUS
 10
-1.099591
 20
0.864677
  0
VERTEX
  8
PLAN_1
 62
     5
  6
CONTINUOUS
 10
-1.091083
 20
0.864677
  0
SEQEND
  8
0
  0
POLYLINE
  8
PLAN_1
 62
     5
  6
CONTINUOUS
 66
     1
 40
0.003000
 41
0.003000
  0
VERTEX
  8
PLAN_1
 62
     5
  6
CONTINUOUS
 10
-1.083028
 20
0.864677
  0
VERTEX
  8
PLAN_1
 62
     5
  6
CONTINUOUS
 10
-1.074524
 20
0.864677
  0
SEQEND
  8
0
  0
POLYLINE
  8
PLAN_1
 62
     5
  6
CONTINUOUS
 66
     1
 40
0.003000
 41
0.003000
  0
VERTEX
  8
PLAN_1
 62
     5
  6
CONTINUOUS
 10
-1.066016
 20
0.864677
  0
VERTEX
  8
PLAN_1
 62
     5
  6
CONTINUOUS
 10
-1.057961
 20
0.864677
  0
SEQEND
  8
0
  0
POLYLINE
  8
PLAN_1
 62
     5
  6
CONTINUOUS
 66
     1
 40
0.003000
 41
0.003000
  0
VERTEX
  8
PLAN_1
 62
     5
  6
CONTINUOUS
 10
-1.049453
 20
0.864677
  0
VERTEX
  8
PLAN_1
 62
     5
  6
CONTINUOUS
 10
-1.041398
 20
0.864677
  0
SEQEND
  8
0
  0
POLYLINE
  8
PLAN_1
 62
     5
  6
CONTINUOUS
 66
     1
 40
0.003000
 41
0.003000
  0
VERTEX
  8
PLAN_1
 62
     5
  6
CONTINUOUS
 10
-1.032894
 20
0.864677
  0
VERTEX
  8
PLAN_1
 62
     5
  6
CONTINUOUS
 10
-1.024386
 20
0.864677
  0
SEQEND
  8
0
  0
POLYLINE
  8
PLAN_1
 62
     5
  6
CONTINUOUS
 66
     1
 40
0.003000
 41
0.003000
  0
VERTEX
  8
PLAN_1
 62
     5
  6
CONTINUOUS
 10
-1.016331
 20
0.864677
  0
VERTEX
  8
PLAN_1
 62
     5
  6
CONTINUOUS
 10
-1.007827
 20
0.864677
  0
SEQEND
  8
0
  0
POLYLINE
  8
PLAN_1
 62
     5
  6
CONTINUOUS
 66
     1
 40
0.003000
 41
0.003000
  0
VERTEX
  8
PLAN_1
 62
     5
  6
CONTINUOUS
 10
-0.999319
 20
0.864677
  0
VERTEX
  8
PLAN_1
 62
     5
  6
CONTINUOUS
 10
-0.991264
 20
0.864677
  0
SEQEND
  8
0
  0
POLYLINE
  8
PLAN_1
 62
     5
  6
CONTINUOUS
 66
     1
 40
0.003000
 41
0.003000
  0
VERTEX
  8
PLAN_1
 62
     5
  6
CONTINUOUS
 10
-0.982756
 20
0.864677
  0
VERTEX
  8
PLAN_1
 62
     5
  6
CONTINUOUS
 10
-0.974701
 20
0.864677
  0
SEQEND
  8
0
  0
POLYLINE
  8
PLAN_1
 62
     5
  6
CONTINUOUS
 66
     1
 40
0.003000
 41
0.003000
  0
VERTEX
  8
PLAN_1
 62
     5
  6
CONTINUOUS
 10
-0.966197
 20
0.864677
  0
VERTEX
  8
PLAN_1
 62
     5
  6
CONTINUOUS
 10
-0.957689
 20
0.864677
  0
SEQEND
  8
0
  0
POLYLINE
  8
PLAN_1
 62
     5
  6
CONTINUOUS
 66
     1
 40
0.003000
 41
0.003000
  0
VERTEX
  8
PLAN_1
 62
     5
  6
CONTINUOUS
 10
-0.949634
 20
0.864677
  0
VERTEX
  8
PLAN_1
 62
     5
  6
CONTINUOUS
 10
-0.941130
 20
0.864677
  0
SEQEND
  8
0
  0
POLYLINE
  8
PLAN_1
 62
     5
  6
CONTINUOUS
 66
     1
 40
0.003000
 41
0.003000
  0
VERTEX
  8
PLAN_1
 62
     5
  6
CONTINUOUS
 10
-0.933071
 20
0.864677
  0
VERTEX
  8
PLAN_1
 62
     5
  6
CONTINUOUS
 10
-0.924567
 20
0.864677
  0
SEQEND
  8
0
  0
POLYLINE
  8
PLAN_1
 62
     5
  6
CONTINUOUS
 66
     1
 40
0.003000
 41
0.003000
  0
VERTEX
  8
PLAN_1
 62
     5
  6
CONTINUOUS
 10
-0.916059
 20
0.864677
  0
VERTEX
  8
PLAN_1
 62
     5
  6
CONTINUOUS
 10
-0.908004
 20
0.864677
  0
SEQEND
  8
0
  0
POLYLINE
  8
PLAN_1
 62
     5
  6
CONTINUOUS
 66
     1
 40
0.003000
 41
0.003000
  0
VERTEX
  8
PLAN_1
 62
     5
  6
CONTINUOUS
 10
-0.899500
 20
0.864677
  0
VERTEX
  8
PLAN_1
 62
     5
  6
CONTINUOUS
 10
-0.891441
 20
0.864677
  0
SEQEND
  8
0
  0
POLYLINE
  8
PLAN_1
 62
     5
  6
CONTINUOUS
 66
     1
 40
0.003000
 41
0.003000
  0
VERTEX
  8
PLAN_1
 62
     5
  6
CONTINUOUS
 10
-0.882937
 20
0.864677
  0
VERTEX
  8
PLAN_1
 62
     5
  6
CONTINUOUS
 10
-0.874433
 20
0.864677
  0
SEQEND
  8
0
  0
POLYLINE
  8
PLAN_1
 62
     5
  6
CONTINUOUS
 66
     1
 40
0.003000
 41
0.003000
  0
VERTEX
  8
PLAN_1
 62
     5
  6
CONTINUOUS
 10
-0.866374
 20
0.864677
  0
VERTEX
  8
PLAN_1
 62
     5
  6
CONTINUOUS
 10
-0.857870
 20
0.864677
  0
SEQEND
  8
0
  0
POLYLINE
  8
PLAN_1
 62
     5
  6
CONTINUOUS
 66
     1
 40
0.003000
 41
0.003000
  0
VERTEX
  8
PLAN_1
 62
     5
  6
CONTINUOUS
 10
-0.849811
 20
0.864677
  0
VERTEX
  8
PLAN_1
 62
     5
  6
CONTINUOUS
 10
-0.841307
 20
0.864677
  0
SEQEND
  8
0
  0
POLYLINE
  8
PLAN_1
 62
     5
  6
CONTINUOUS
 66
     1
 40
0.003000
 41
0.003000
  0
VERTEX
  8
PLAN_1
 62
     5
  6
CONTINUOUS
 10
-0.832803
 20
0.864677
  0
VERTEX
  8
PLAN_1
 62
     5
  6
CONTINUOUS
 10
-0.824744
 20
0.864677
  0
SEQEND
  8
0
  0
POLYLINE
  8
PLAN_1
 62
     5
  6
CONTINUOUS
 66
     1
 40
0.003000
 41
0.003000
  0
VERTEX
  8
PLAN_1
 62
     5
  6
CONTINUOUS
 10
-0.816240
 20
0.864677
  0
VERTEX
  8
PLAN_1
 62
     5
  6
CONTINUOUS
 10
-0.808181
 20
0.864677
  0
SEQEND
  8
0
  0
POLYLINE
  8
PLAN_1
 62
     5
  6
CONTINUOUS
 66
     1
 40
0.003000
 41
0.003000
  0
VERTEX
  8
PLAN_1
 62
     5
  6
CONTINUOUS
 10
-0.799677
 20
0.864677
  0
VERTEX
  8
PLAN_1
 62
     5
  6
CONTINUOUS
 10
-0.791173
 20
0.864677
  0
SEQEND
  8
0
  0
POLYLINE
  8
PLAN_1
 62
     5
  6
CONTINUOUS
 66
     1
 40
0.003000
 41
0.003000
  0
VERTEX
  8
PLAN_1
 62
     5
  6
CONTINUOUS
 10
-0.783114
 20
0.864677
  0
VERTEX
  8
PLAN_1
 62
     5
  6
CONTINUOUS
 10
-0.774610
 20
0.864677
  0
SEQEND
  8
0
  0
POLYLINE
  8
PLAN_1
 62
     5
  6
CONTINUOUS
 66
     1
 40
0.003000
 41
0.003000
  0
VERTEX
  8
PLAN_1
 62
     5
  6
CONTINUOUS
 10
-0.766106
 20
0.864677
  0
VERTEX
  8
PLAN_1
 62
     5
  6
CONTINUOUS
 10
-0.758047
 20
0.864677
  0
SEQEND
  8
0
  0
POLYLINE
  8
PLAN_1
 62
     5
  6
CONTINUOUS
 66
     1
 40
0.003000
 41
0.003000
  0
VERTEX
  8
PLAN_1
 62
     5
  6
CONTINUOUS
 10
-0.749543
 20
0.864677
  0
VERTEX
  8
PLAN_1
 62
     5
  6
CONTINUOUS
 10
-0.741484
 20
0.864677
  0
SEQEND
  8
0
  0
POLYLINE
  8
PLAN_1
 62
     5
  6
CONTINUOUS
 66
     1
 40
0.003000
 41
0.003000
  0
VERTEX
  8
PLAN_1
 62
     5
  6
CONTINUOUS
 10
-0.732980
 20
0.864677
  0
VERTEX
  8
PLAN_1
 62
     5
  6
CONTINUOUS
 10
-0.724476
 20
0.864677
  0
SEQEND
  8
0
  0
POLYLINE
  8
PLAN_1
 62
     5
  6
CONTINUOUS
 66
     1
 40
0.003000
 41
0.003000
  0
VERTEX
  8
PLAN_1
 62
     5
  6
CONTINUOUS
 10
-0.716417
 20
0.864677
  0
VERTEX
  8
PLAN_1
 62
     5
  6
CONTINUOUS
 10
-0.707913
 20
0.864677
  0
SEQEND
  8
0
  0
POLYLINE
  8
PLAN_1
 62
     5
  6
CONTINUOUS
 66
     1
 40
0.003000
 41
0.003000
  0
VERTEX
  8
PLAN_1
 62
     5
  6
CONTINUOUS
 10
-0.699854
 20
0.864677
  0
VERTEX
  8
PLAN_1
 62
     5
  6
CONTINUOUS
 10
-0.691350
 20
0.864677
  0
SEQEND
  8
0
  0
POLYLINE
  8
PLAN_1
 62
     5
  6
CONTINUOUS
 66
     1
 40
0.003000
 41
0.003000
  0
VERTEX
  8
PLAN_1
 62
     5
  6
CONTINUOUS
 10
-0.682846
 20
0.864677
  0
VERTEX
  8
PLAN_1
 62
     5
  6
CONTINUOUS
 10
-0.674787
 20
0.864677
  0
SEQEND
  8
0
  0
POLYLINE
  8
PLAN_1
 62
     5
  6
CONTINUOUS
 66
     1
 40
0.003000
 41
0.003000
  0
VERTEX
  8
PLAN_1
 62
     5
  6
CONTINUOUS
 10
-0.666283
 20
0.864677
  0
VERTEX
  8
PLAN_1
 62
     5
  6
CONTINUOUS
 10
-0.658224
 20
0.864677
  0
SEQEND
  8
0
  0
POLYLINE
  8
PLAN_1
 62
     5
  6
CONTINUOUS
 66
     1
 40
0.003000
 41
0.003000
  0
VERTEX
  8
PLAN_1
 62
     5
  6
CONTINUOUS
 10
-0.649720
 20
0.864677
  0
VERTEX
  8
PLAN_1
 62
     5
  6
CONTINUOUS
 10
-0.641217
 20
0.864677
  0
SEQEND
  8
0
  0
POLYLINE
  8
PLAN_1
 62
     5
  6
CONTINUOUS
 66
     1
 40
0.003000
 41
0.003000
  0
VERTEX
  8
PLAN_1
 62
     5
  6
CONTINUOUS
 10
-0.633157
 20
0.864677
  0
VERTEX
  8
PLAN_1
 62
     5
  6
CONTINUOUS
 10
-0.624654
 20
0.864677
  0
SEQEND
  8
0
  0
POLYLINE
  8
PLAN_1
 62
     5
  6
CONTINUOUS
 66
     1
 40
0.003000
 41
0.003000
  0
VERTEX
  8
PLAN_1
 62
     5
  6
CONTINUOUS
 10
-0.616594
 20
0.864677
  0
VERTEX
  8
PLAN_1
 62
     5
  6
CONTINUOUS
 10
-0.608091
 20
0.864677
  0
SEQEND
  8
0
  0
POLYLINE
  8
PLAN_1
 62
     5
  6
CONTINUOUS
 66
     1
 40
0.003000
 41
0.003000
  0
VERTEX
  8
PLAN_1
 62
     5
  6
CONTINUOUS
 10
-0.599587
 20
0.864677
  0
VERTEX
  8
PLAN_1
 62
     5
  6
CONTINUOUS
 10
-0.591528
 20
0.864677
  0
SEQEND
  8
0
  0
POLYLINE
  8
PLAN_1
 62
     5
  6
CONTINUOUS
 66
     1
 40
0.003000
 41
0.003000
  0
VERTEX
  8
PLAN_1
 62
     5
  6
CONTINUOUS
 10
-0.583024
 20
0.864677
  0
VERTEX
  8
PLAN_1
 62
     5
  6
CONTINUOUS
 10
-0.574969
 20
0.864677
  0
SEQEND
  8
0
  0
POLYLINE
  8
PLAN_1
 62
     5
  6
CONTINUOUS
 66
     1
 40
0.003000
 41
0.003000
  0
VERTEX
  8
PLAN_1
 62
     5
  6
CONTINUOUS
 10
-0.566461
 20
0.864677
  0
VERTEX
  8
PLAN_1
 62
     5
  6
CONTINUOUS
 10
-0.557957
 20
0.864677
  0
SEQEND
  8
0
  0
POLYLINE
  8
PLAN_1
 62
     5
  6
CONTINUOUS
 66
     1
 40
0.003000
 41
0.003000
  0
VERTEX
  8
PLAN_1
 62
     5
  6
CONTINUOUS
 10
-0.549898
 20
0.864677
  0
VERTEX
  8
PLAN_1
 62
     5
  6
CONTINUOUS
 10
-0.541394
 20
0.864677
  0
SEQEND
  8
0
  0
POLYLINE
  8
PLAN_1
 62
     5
  6
CONTINUOUS
 66
     1
 40
0.003000
 41
0.003000
  0
VERTEX
  8
PLAN_1
 62
     5
  6
CONTINUOUS
 10
-0.532890
 20
0.864677
  0
VERTEX
  8
PLAN_1
 62
     5
  6
CONTINUOUS
 10
-0.524831
 20
0.864677
  0
SEQEND
  8
0
  0
POLYLINE
  8
PLAN_1
 62
     5
  6
CONTINUOUS
 66
     1
 40
0.003000
 41
0.003000
  0
VERTEX
  8
PLAN_1
 62
     5
  6
CONTINUOUS
 10
-0.516327
 20
0.864677
  0
VERTEX
  8
PLAN_1
 62
     5
  6
CONTINUOUS
 10
-0.508272
 20
0.864677
  0
SEQEND
  8
0
  0
POLYLINE
  8
PLAN_1
 62
     5
  6
CONTINUOUS
 66
     1
 40
0.003000
 41
0.003000
  0
VERTEX
  8
PLAN_1
 62
     5
  6
CONTINUOUS
 10
-0.499764
 20
0.864677
  0
VERTEX
  8
PLAN_1
 62
     5
  6
CONTINUOUS
 10
-0.491260
 20
0.864677
  0
SEQEND
  8
0
  0
POLYLINE
  8
PLAN_1
 62
     5
  6
CONTINUOUS
 66
     1
 40
0.003000
 41
0.003000
  0
VERTEX
  8
PLAN_1
 62
     5
  6
CONTINUOUS
 10
-0.483201
 20
0.864677
  0
VERTEX
  8
PLAN_1
 62
     5
  6
CONTINUOUS
 10
-0.474697
 20
0.864677
  0
SEQEND
  8
0
  0
POLYLINE
  8
PLAN_1
 62
     5
  6
CONTINUOUS
 66
     1
 40
0.003000
 41
0.003000
  0
VERTEX
  8
PLAN_1
 62
     5
  6
CONTINUOUS
 10
-0.466642
 20
0.864677
  0
VERTEX
  8
PLAN_1
 62
     5
  6
CONTINUOUS
 10
-0.458134
 20
0.864677
  0
SEQEND
  8
0
  0
POLYLINE
  8
PLAN_1
 62
     5
  6
CONTINUOUS
 66
     1
 40
0.003000
 41
0.003000
  0
VERTEX
  8
PLAN_1
 62
     5
  6
CONTINUOUS
 10
-0.449630
 20
0.864677
  0
VERTEX
  8
PLAN_1
 62
     5
  6
CONTINUOUS
 10
-0.441575
 20
0.864677
  0
SEQEND
  8
0
  0
POLYLINE
  8
PLAN_1
 62
     5
  6
CONTINUOUS
 66
     1
 40
0.003000
 41
0.003000
  0
VERTEX
  8
PLAN_1
 62
     5
  6
CONTINUOUS
 10
-0.433067
 20
0.864677
  0
VERTEX
  8
PLAN_1
 62
     5
  6
CONTINUOUS
 10
-0.425012
 20
0.864677
  0
SEQEND
  8
0
  0
POLYLINE
  8
PLAN_1
 62
     5
  6
CONTINUOUS
 66
     1
 40
0.003000
 41
0.003000
  0
VERTEX
  8
PLAN_1
 62
     5
  6
CONTINUOUS
 10
-0.416504
 20
0.864677
  0
VERTEX
  8
PLAN_1
 62
     5
  6
CONTINUOUS
 10
-0.408000
 20
0.864677
  0
SEQEND
  8
0
  0
POLYLINE
  8
PLAN_1
 62
     5
  6
CONTINUOUS
 66
     1
 40
0.003000
 41
0.003000
  0
VERTEX
  8
PLAN_1
 62
     5
  6
CONTINUOUS
 10
-0.399945
 20
0.864677
  0
VERTEX
  8
PLAN_1
 62
     5
  6
CONTINUOUS
 10
-0.391437
 20
0.864677
  0
SEQEND
  8
0
  0
POLYLINE
  8
PLAN_1
 62
     5
  6
CONTINUOUS
 66
     1
 40
0.003000
 41
0.003000
  0
VERTEX
  8
PLAN_1
 62
     5
  6
CONTINUOUS
 10
-0.383382
 20
0.864677
  0
VERTEX
  8
PLAN_1
 62
     5
  6
CONTINUOUS
 10
-0.374874
 20
0.864677
  0
SEQEND
  8
0
  0
POLYLINE
  8
PLAN_1
 62
     5
  6
CONTINUOUS
 66
     1
 40
0.003000
 41
0.003000
  0
VERTEX
  8
PLAN_1
 62
     5
  6
CONTINUOUS
 10
-0.366370
 20
0.864677
  0
VERTEX
  8
PLAN_1
 62
     5
  6
CONTINUOUS
 10
-0.358315
 20
0.864677
  0
SEQEND
  8
0
  0
POLYLINE
  8
PLAN_1
 62
     5
  6
CONTINUOUS
 66
     1
 40
0.003000
 41
0.003000
  0
VERTEX
  8
PLAN_1
 62
     5
  6
CONTINUOUS
 10
-0.349807
 20
0.864677
  0
VERTEX
  8
PLAN_1
 62
     5
  6
CONTINUOUS
 10
-0.341752
 20
0.864677
  0
SEQEND
  8
0
  0
POLYLINE
  8
PLAN_1
 62
     5
  6
CONTINUOUS
 66
     1
 40
0.003000
 41
0.003000
  0
VERTEX
  8
PLAN_1
 62
     5
  6
CONTINUOUS
 10
-0.333248
 20
0.864677
  0
VERTEX
  8
PLAN_1
 62
     5
  6
CONTINUOUS
 10
-0.324740
 20
0.864677
  0
SEQEND
  8
0
  0
POLYLINE
  8
PLAN_1
 62
     5
  6
CONTINUOUS
 66
     1
 40
0.003000
 41
0.003000
  0
VERTEX
  8
PLAN_1
 62
     5
  6
CONTINUOUS
 10
-0.316685
 20
0.864677
  0
VERTEX
  8
PLAN_1
 62
     5
  6
CONTINUOUS
 10
-0.308177
 20
0.864677
  0
SEQEND
  8
0
  0
POLYLINE
  8
PLAN_1
 62
     5
  6
CONTINUOUS
 66
     1
 40
0.003000
 41
0.003000
  0
VERTEX
  8
PLAN_1
 62
     5
  6
CONTINUOUS
 10
-0.300122
 20
0.864677
  0
VERTEX
  8
PLAN_1
 62
     5
  6
CONTINUOUS
 10
-0.291618
 20
0.864677
  0
SEQEND
  8
0
  0
POLYLINE
  8
PLAN_1
 62
     5
  6
CONTINUOUS
 66
     1
 40
0.003000
 41
0.003000
  0
VERTEX
  8
PLAN_1
 62
     5
  6
CONTINUOUS
 10
-0.283110
 20
0.864677
  0
VERTEX
  8
PLAN_1
 62
     5
  6
CONTINUOUS
 10
-0.275055
 20
0.864677
  0
SEQEND
  8
0
  0
POLYLINE
  8
PLAN_1
 62
     5
  6
CONTINUOUS
 66
     1
 40
0.003000
 41
0.003000
  0
VERTEX
  8
PLAN_1
 62
     5
  6
CONTINUOUS
 10
-0.266551
 20
0.864677
  0
VERTEX
  8
PLAN_1
 62
     5
  6
CONTINUOUS
 10
-0.258043
 20
0.864677
  0
SEQEND
  8
0
  0
POLYLINE
  8
PLAN_1
 62
     5
  6
CONTINUOUS
 66
     1
 40
0.003000
 41
0.003000
  0
VERTEX
  8
PLAN_1
 62
     5
  6
CONTINUOUS
 10
-0.249988
 20
0.864677
  0
VERTEX
  8
PLAN_1
 62
     5
  6
CONTINUOUS
 10
-0.241480
 20
0.864677
  0
SEQEND
  8
0
  0
POLYLINE
  8
PLAN_1
 62
     5
  6
CONTINUOUS
 66
     1
 40
0.003000
 41
0.003000
  0
VERTEX
  8
PLAN_1
 62
     5
  6
CONTINUOUS
 10
-0.233425
 20
0.864677
  0
VERTEX
  8
PLAN_1
 62
     5
  6
CONTINUOUS
 10
-0.224921
 20
0.864677
  0
SEQEND
  8
0
  0
POLYLINE
  8
PLAN_1
 62
     5
  6
CONTINUOUS
 66
     1
 40
0.003000
 41
0.003000
  0
VERTEX
  8
PLAN_1
 62
     5
  6
CONTINUOUS
 10
-0.216413
 20
0.864677
  0
VERTEX
  8
PLAN_1
 62
     5
  6
CONTINUOUS
 10
-0.208358
 20
0.864677
  0
SEQEND
  8
0
  0
POLYLINE
  8
PLAN_1
 62
     5
  6
CONTINUOUS
 66
     1
 40
0.003000
 41
0.003000
  0
VERTEX
  8
PLAN_1
 62
     5
  6
CONTINUOUS
 10
-0.199854
 20
0.864677
  0
VERTEX
  8
PLAN_1
 62
     5
  6
CONTINUOUS
 10
-0.191795
 20
0.864677
  0
SEQEND
  8
0
  0
POLYLINE
  8
PLAN_1
 62
     5
  6
CONTINUOUS
 66
     1
 40
0.003000
 41
0.003000
  0
VERTEX
  8
PLAN_1
 62
     5
  6
CONTINUOUS
 10
-0.183291
 20
0.864677
  0
VERTEX
  8
PLAN_1
 62
     5
  6
CONTINUOUS
 10
-0.174783
 20
0.864677
  0
SEQEND
  8
0
  0
POLYLINE
  8
PLAN_1
 62
     5
  6
CONTINUOUS
 66
     1
 40
0.003000
 41
0.003000
  0
VERTEX
  8
PLAN_1
 62
     5
  6
CONTINUOUS
 10
-0.166728
 20
0.864677
  0
VERTEX
  8
PLAN_1
 62
     5
  6
CONTINUOUS
 10
-0.158224
 20
0.864677
  0
SEQEND
  8
0
  0
POLYLINE
  8
PLAN_1
 62
     5
  6
CONTINUOUS
 66
     1
 40
0.003000
 41
0.003000
  0
VERTEX
  8
PLAN_1
 62
     5
  6
CONTINUOUS
 10
-0.150165
 20
0.864677
  0
VERTEX
  8
PLAN_1
 62
     5
  6
CONTINUOUS
 10
-0.141661
 20
0.864677
  0
SEQEND
  8
0
  0
POLYLINE
  8
PLAN_1
 62
     5
  6
CONTINUOUS
 66
     1
 40
0.003000
 41
0.003000
  0
VERTEX
  8
PLAN_1
 62
     5
  6
CONTINUOUS
 10
-0.133157
 20
0.864677
  0
VERTEX
  8
PLAN_1
 62
     5
  6
CONTINUOUS
 10
-0.125098
 20
0.864677
  0
SEQEND
  8
0
  0
POLYLINE
  8
PLAN_1
 62
     5
  6
CONTINUOUS
 66
     1
 40
0.003000
 41
0.003000
  0
VERTEX
  8
PLAN_1
 62
     5
  6
CONTINUOUS
 10
-0.116594
 20
0.864677
  0
VERTEX
  8
PLAN_1
 62
     5
  6
CONTINUOUS
 10
-0.108535
 20
0.864677
  0
SEQEND
  8
0
  0
POLYLINE
  8
PLAN_1
 62
     5
  6
CONTINUOUS
 66
     1
 40
0.003000
 41
0.003000
  0
VERTEX
  8
PLAN_1
 62
     5
  6
CONTINUOUS
 10
-0.100031
 20
0.864677
  0
VERTEX
  8
PLAN_1
 62
     5
  6
CONTINUOUS
 10
-0.091528
 20
0.864677
  0
SEQEND
  8
0
  0
POLYLINE
  8
PLAN_1
 62
     5
  6
CONTINUOUS
 66
     1
 40
0.003000
 41
0.003000
  0
VERTEX
  8
PLAN_1
 62
     5
  6
CONTINUOUS
 10
-0.083469
 20
0.864677
  0
VERTEX
  8
PLAN_1
 62
     5
  6
CONTINUOUS
 10
-0.074965
 20
0.864677
  0
SEQEND
  8
0
  0
POLYLINE
  8
PLAN_1
 62
     5
  6
CONTINUOUS
 66
     1
 40
0.003000
 41
0.003000
  0
VERTEX
  8
PLAN_1
 62
     5
  6
CONTINUOUS
 10
-0.066906
 20
0.864677
  0
VERTEX
  8
PLAN_1
 62
     5
  6
CONTINUOUS
 10
-0.058402
 20
0.864677
  0
SEQEND
  8
0
  0
POLYLINE
  8
PLAN_1
 62
     5
  6
CONTINUOUS
 66
     1
 40
0.003000
 41
0.003000
  0
VERTEX
  8
PLAN_1
 62
     5
  6
CONTINUOUS
 10
-0.049898
 20
0.864677
  0
VERTEX
  8
PLAN_1
 62
     5
  6
CONTINUOUS
 10
-0.041839
 20
0.864677
  0
SEQEND
  8
0
  0
POLYLINE
  8
PLAN_1
 62
     5
  6
CONTINUOUS
 66
     1
 40
0.003000
 41
0.003000
  0
VERTEX
  8
PLAN_1
 62
     5
  6
CONTINUOUS
 10
-0.033335
 20
0.864677
  0
VERTEX
  8
PLAN_1
 62
     5
  6
CONTINUOUS
 10
-0.024831
 20
0.864677
  0
SEQEND
  8
0
  0
POLYLINE
  8
PLAN_1
 62
     5
  6
CONTINUOUS
 66
     1
 40
0.003000
 41
0.003000
  0
VERTEX
  8
PLAN_1
 62
     5
  6
CONTINUOUS
 10
-0.016772
 20
0.864677
  0
VERTEX
  8
PLAN_1
 62
     5
  6
CONTINUOUS
 10
-0.008268
 20
0.864677
  0
SEQEND
  8
0
  0
POLYLINE
  8
PLAN_1
 62
     5
  6
CONTINUOUS
 66
     1
 40
0.003000
 41
0.003000
  0
VERTEX
  8
PLAN_1
 62
     5
  6
CONTINUOUS
 10
-0.000209
 20
0.864677
  0
VERTEX
  8
PLAN_1
 62
     5
  6
CONTINUOUS
 10
0.008295
 20
0.864677
  0
SEQEND
  8
0
  0
POLYLINE
  8
PLAN_1
 62
     5
  6
CONTINUOUS
 66
     1
 40
0.003000
 41
0.003000
  0
VERTEX
  8
PLAN_1
 62
     5
  6
CONTINUOUS
 10
0.016799
 20
0.864677
  0
VERTEX
  8
PLAN_1
 62
     5
  6
CONTINUOUS
 10
0.024858
 20
0.864677
  0
SEQEND
  8
0
  0
POLYLINE
  8
PLAN_1
 62
     5
  6
CONTINUOUS
 66
     1
 40
0.003000
 41
0.003000
  0
VERTEX
  8
PLAN_1
 62
     5
  6
CONTINUOUS
 10
0.033362
 20
0.864677
  0
VERTEX
  8
PLAN_1
 62
     5
  6
CONTINUOUS
 10
0.041421
 20
0.864677
  0
SEQEND
  8
0
  0
POLYLINE
  8
PLAN_1
 62
     5
  6
CONTINUOUS
 66
     1
 40
0.003000
 41
0.003000
  0
VERTEX
  8
PLAN_1
 62
     5
  6
CONTINUOUS
 10
0.049925
 20
0.864677
  0
VERTEX
  8
PLAN_1
 62
     5
  6
CONTINUOUS
 10
0.058429
 20
0.864677
  0
SEQEND
  8
0
  0
POLYLINE
  8
PLAN_1
 62
     5
  6
CONTINUOUS
 66
     1
 40
0.003000
 41
0.003000
  0
VERTEX
  8
PLAN_1
 62
     5
  6
CONTINUOUS
 10
0.062906
 20
0.864677
  0
VERTEX
  8
PLAN_1
 62
     5
  6
CONTINUOUS
 10
0.066937
 20
0.864677
  0
VERTEX
  8
PLAN_1
 62
     5
  6
CONTINUOUS
 10
0.070516
 20
0.863780
  0
VERTEX
  8
PLAN_1
 62
     5
  6
CONTINUOUS
 10
0.071409
 20
0.863780
  0
SEQEND
  8
0
  0
POLYLINE
  8
PLAN_1
 62
     5
  6
CONTINUOUS
 66
     1
 40
0.003000
 41
0.003000
  0
VERTEX
  8
PLAN_1
 62
     5
  6
CONTINUOUS
 10
0.079020
 20
0.861094
  0
VERTEX
  8
PLAN_1
 62
     5
  6
CONTINUOUS
 10
0.081260
 20
0.860201
  0
VERTEX
  8
PLAN_1
 62
     5
  6
CONTINUOUS
 10
0.084394
 20
0.858409
  0
VERTEX
  8
PLAN_1
 62
     5
  6
CONTINUOUS
 10
0.086185
 20
0.856618
  0
SEQEND
  8
0
  0
POLYLINE
  8
PLAN_1
 62
     5
  6
CONTINUOUS
 66
     1
 40
0.003000
 41
0.003000
  0
VERTEX
  8
PLAN_1
 62
     5
  6
CONTINUOUS
 10
0.092449
 20
0.851248
  0
VERTEX
  8
PLAN_1
 62
     5
  6
CONTINUOUS
 10
0.092449
 20
0.850799
  0
VERTEX
  8
PLAN_1
 62
     5
  6
CONTINUOUS
 10
0.094689
 20
0.848114
  0
VERTEX
  8
PLAN_1
 62
     5
  6
CONTINUOUS
 10
0.096925
 20
0.844980
  0
VERTEX
  8
PLAN_1
 62
     5
  6
CONTINUOUS
 10
0.096925
 20
0.844083
  0
SEQEND
  8
0
  0
POLYLINE
  8
PLAN_1
 62
     5
  6
CONTINUOUS
 66
     1
 40
0.003000
 41
0.003000
  0
VERTEX
  8
PLAN_1
 62
     5
  6
CONTINUOUS
 10
0.100508
 20
0.836476
  0
VERTEX
  8
PLAN_1
 62
     5
  6
CONTINUOUS
 10
0.101402
 20
0.834236
  0
VERTEX
  8
PLAN_1
 62
     5
  6
CONTINUOUS
 10
0.101850
 20
0.830654
  0
VERTEX
  8
PLAN_1
 62
     5
  6
CONTINUOUS
 10
0.102299
 20
0.828417
  0
SEQEND
  8
0
  0
POLYLINE
  8
PLAN_1
 62
     5
  6
CONTINUOUS
 66
     1
 40
0.003000
 41
0.003000
  0
VERTEX
  8
PLAN_1
 62
     5
  6
CONTINUOUS
 10
0.102299
 20
0.826626
  0
VERTEX
  8
PLAN_1
 62
     5
  6
CONTINUOUS
 10
0.102299
 20
0.818571
  0
SEQEND
  8
0
  0
POLYLINE
  8
PLAN_1
 62
     5
  6
CONTINUOUS
 66
     1
 40
0.003000
 41
0.003000
  0
VERTEX
  8
PLAN_1
 62
     5
  6
CONTINUOUS
 10
0.102299
 20
0.810063
  0
VERTEX
  8
PLAN_1
 62
     5
  6
CONTINUOUS
 10
0.102299
 20
0.802008
  0
SEQEND
  8
0
  0
POLYLINE
  8
PLAN_1
 62
     5
  6
CONTINUOUS
 66
     1
 40
0.003000
 41
0.003000
  0
VERTEX
  8
PLAN_1
 62
     5
  6
CONTINUOUS
 10
0.102299
 20
0.793504
  0
VERTEX
  8
PLAN_1
 62
     5
  6
CONTINUOUS
 10
0.102299
 20
0.784996
  0
SEQEND
  8
0
  0
POLYLINE
  8
PLAN_1
 62
     5
  6
CONTINUOUS
 66
     1
 40
0.003000
 41
0.003000
  0
VERTEX
  8
PLAN_1
 62
     5
  6
CONTINUOUS
 10
0.102299
 20
0.776941
  0
VERTEX
  8
PLAN_1
 62
     5
  6
CONTINUOUS
 10
0.102299
 20
0.768433
  0
SEQEND
  8
0
  0
POLYLINE
  8
PLAN_1
 62
     5
  6
CONTINUOUS
 66
     1
 40
0.003000
 41
0.003000
  0
VERTEX
  8
PLAN_1
 62
     5
  6
CONTINUOUS
 10
0.102299
 20
0.760378
  0
VERTEX
  8
PLAN_1
 62
     5
  6
CONTINUOUS
 10
0.102299
 20
0.751874
  0
SEQEND
  8
0
  0
POLYLINE
  8
PLAN_1
 62
     5
  6
CONTINUOUS
 66
     1
 40
0.003000
 41
0.003000
  0
VERTEX
  8
PLAN_1
 62
     5
  6
CONTINUOUS
 10
0.102299
 20
0.743366
  0
VERTEX
  8
PLAN_1
 62
     5
  6
CONTINUOUS
 10
0.102299
 20
0.735311
  0
SEQEND
  8
0
  0
POLYLINE
  8
PLAN_1
 62
     5
  6
CONTINUOUS
 66
     1
 40
0.003000
 41
0.003000
  0
VERTEX
  8
PLAN_1
 62
     5
  6
CONTINUOUS
 10
0.102299
 20
0.726807
  0
VERTEX
  8
PLAN_1
 62
     5
  6
CONTINUOUS
 10
0.102299
 20
0.718299
  0
SEQEND
  8
0
  0
POLYLINE
  8
PLAN_1
 62
     5
  6
CONTINUOUS
 66
     1
 40
0.003000
 41
0.003000
  0
VERTEX
  8
PLAN_1
 62
     5
  6
CONTINUOUS
 10
0.102299
 20
0.710244
  0
VERTEX
  8
PLAN_1
 62
     5
  6
CONTINUOUS
 10
0.102299
 20
0.701736
  0
SEQEND
  8
0
  0
POLYLINE
  8
PLAN_1
 62
     5
  6
CONTINUOUS
 66
     1
 40
0.003000
 41
0.003000
  0
VERTEX
  8
PLAN_1
 62
     5
  6
CONTINUOUS
 10
0.102299
 20
0.693681
  0
VERTEX
  8
PLAN_1
 62
     5
  6
CONTINUOUS
 10
0.102299
 20
0.685177
  0
SEQEND
  8
0
  0
POLYLINE
  8
PLAN_1
 62
     5
  6
CONTINUOUS
 66
     1
 40
0.003000
 41
0.003000
  0
VERTEX
  8
PLAN_1
 62
     5
  6
CONTINUOUS
 10
0.102299
 20
0.676669
  0
VERTEX
  8
PLAN_1
 62
     5
  6
CONTINUOUS
 10
0.102299
 20
0.668614
  0
SEQEND
  8
0
  0
POLYLINE
  8
PLAN_1
 62
     5
  6
CONTINUOUS
 66
     1
 40
0.003000
 41
0.003000
  0
VERTEX
  8
PLAN_1
 62
     5
  6
CONTINUOUS
 10
0.102299
 20
0.660106
  0
VERTEX
  8
PLAN_1
 62
     5
  6
CONTINUOUS
 10
0.102299
 20
0.652051
  0
SEQEND
  8
0
  0
POLYLINE
  8
PLAN_1
 62
     5
  6
CONTINUOUS
 66
     1
 40
0.003000
 41
0.003000
  0
VERTEX
  8
PLAN_1
 62
     5
  6
CONTINUOUS
 10
0.102299
 20
0.643547
  0
VERTEX
  8
PLAN_1
 62
     5
  6
CONTINUOUS
 10
0.102299
 20
0.635039
  0
SEQEND
  8
0
  0
POLYLINE
  8
PLAN_1
 62
     5
  6
CONTINUOUS
 66
     1
 40
0.003000
 41
0.003000
  0
VERTEX
  8
PLAN_1
 62
     5
  6
CONTINUOUS
 10
0.102299
 20
0.626984
  0
VERTEX
  8
PLAN_1
 62
     5
  6
CONTINUOUS
 10
0.102299
 20
0.618480
  0
SEQEND
  8
0
  0
POLYLINE
  8
PLAN_1
 62
     5
  6
CONTINUOUS
 66
     1
 40
0.003000
 41
0.003000
  0
VERTEX
  8
PLAN_1
 62
     5
  6
CONTINUOUS
 10
0.102299
 20
0.610421
  0
VERTEX
  8
PLAN_1
 62
     5
  6
CONTINUOUS
 10
0.102299
 20
0.601917
  0
SEQEND
  8
0
  0
POLYLINE
  8
PLAN_1
 62
     5
  6
CONTINUOUS
 66
     1
 40
0.003000
 41
0.003000
  0
VERTEX
  8
PLAN_1
 62
     5
  6
CONTINUOUS
 10
0.102299
 20
0.593409
  0
VERTEX
  8
PLAN_1
 62
     5
  6
CONTINUOUS
 10
0.102299
 20
0.585354
  0
SEQEND
  8
0
  0
POLYLINE
  8
PLAN_1
 62
     5
  6
CONTINUOUS
 66
     1
 40
0.003000
 41
0.003000
  0
VERTEX
  8
PLAN_1
 62
     5
  6
CONTINUOUS
 10
0.102299
 20
0.576850
  0
VERTEX
  8
PLAN_1
 62
     5
  6
CONTINUOUS
 10
0.102299
 20
0.568791
  0
SEQEND
  8
0
  0
POLYLINE
  8
PLAN_1
 62
     5
  6
CONTINUOUS
 66
     1
 40
0.003000
 41
0.003000
  0
VERTEX
  8
PLAN_1
 62
     5
  6
CONTINUOUS
 10
0.102299
 20
0.560287
  0
VERTEX
  8
PLAN_1
 62
     5
  6
CONTINUOUS
 10
0.102299
 20
0.551783
  0
SEQEND
  8
0
  0
POLYLINE
  8
PLAN_1
 62
     5
  6
CONTINUOUS
 66
     1
 40
0.003000
 41
0.003000
  0
VERTEX
  8
PLAN_1
 62
     5
  6
CONTINUOUS
 10
0.102299
 20
0.543724
  0
VERTEX
  8
PLAN_1
 62
     5
  6
CONTINUOUS
 10
0.102299
 20
0.535220
  0
SEQEND
  8
0
  0
POLYLINE
  8
PLAN_1
 62
     5
  6
CONTINUOUS
 66
     1
 40
0.003000
 41
0.003000
  0
VERTEX
  8
PLAN_1
 62
     5
  6
CONTINUOUS
 10
0.102299
 20
0.527161
  0
VERTEX
  8
PLAN_1
 62
     5
  6
CONTINUOUS
 10
0.102299
 20
0.518657
  0
SEQEND
  8
0
  0
POLYLINE
  8
PLAN_1
 62
     5
  6
CONTINUOUS
 66
     1
 40
0.003000
 41
0.003000
  0
VERTEX
  8
PLAN_1
 62
     5
  6
CONTINUOUS
 10
0.102299
 20
0.510154
  0
VERTEX
  8
PLAN_1
 62
     5
  6
CONTINUOUS
 10
0.102299
 20
0.502094
  0
SEQEND
  8
0
  0
POLYLINE
  8
PLAN_1
 62
     5
  6
CONTINUOUS
 66
     1
 40
0.003000
 41
0.003000
  0
VERTEX
  8
PLAN_1
 62
     5
  6
CONTINUOUS
 10
0.102299
 20
0.493591
  0
VERTEX
  8
PLAN_1
 62
     5
  6
CONTINUOUS
 10
0.102299
 20
0.485531
  0
SEQEND
  8
0
  0
POLYLINE
  8
PLAN_1
 62
     5
  6
CONTINUOUS
 66
     1
 40
0.003000
 41
0.003000
  0
VERTEX
  8
PLAN_1
 62
     5
  6
CONTINUOUS
 10
0.102299
 20
0.477028
  0
VERTEX
  8
PLAN_1
 62
     5
  6
CONTINUOUS
 10
0.102299
 20
0.468524
  0
SEQEND
  8
0
  0
POLYLINE
  8
PLAN_1
 62
     5
  6
CONTINUOUS
 66
     1
 40
0.003000
 41
0.003000
  0
VERTEX
  8
PLAN_1
 62
     5
  6
CONTINUOUS
 10
0.102299
 20
0.460465
  0
VERTEX
  8
PLAN_1
 62
     5
  6
CONTINUOUS
 10
0.102299
 20
0.451961
  0
SEQEND
  8
0
  0
POLYLINE
  8
PLAN_1
 62
     5
  6
CONTINUOUS
 66
     1
 40
0.003000
 41
0.003000
  0
VERTEX
  8
PLAN_1
 62
     5
  6
CONTINUOUS
 10
0.102299
 20
0.443457
  0
VERTEX
  8
PLAN_1
 62
     5
  6
CONTINUOUS
 10
0.102299
 20
0.435398
  0
SEQEND
  8
0
  0
POLYLINE
  8
PLAN_1
 62
     5
  6
CONTINUOUS
 66
     1
 40
0.003000
 41
0.003000
  0
VERTEX
  8
PLAN_1
 62
     5
  6
CONTINUOUS
 10
0.102299
 20
0.426894
  0
VERTEX
  8
PLAN_1
 62
     5
  6
CONTINUOUS
 10
0.102299
 20
0.418835
  0
SEQEND
  8
0
  0
POLYLINE
  8
PLAN_1
 62
     5
  6
CONTINUOUS
 66
     1
 40
0.003000
 41
0.003000
  0
VERTEX
  8
PLAN_1
 62
     5
  6
CONTINUOUS
 10
0.102299
 20
0.410331
  0
VERTEX
  8
PLAN_1
 62
     5
  6
CONTINUOUS
 10
0.102299
 20
0.401827
  0
SEQEND
  8
0
  0
POLYLINE
  8
PLAN_1
 62
     5
  6
CONTINUOUS
 66
     1
 40
0.003000
 41
0.003000
  0
VERTEX
  8
PLAN_1
 62
     5
  6
CONTINUOUS
 10
0.102299
 20
0.393768
  0
VERTEX
  8
PLAN_1
 62
     5
  6
CONTINUOUS
 10
0.102299
 20
0.385264
  0
SEQEND
  8
0
  0
POLYLINE
  8
PLAN_1
 62
     5
  6
CONTINUOUS
 66
     1
 40
0.003000
 41
0.003000
  0
VERTEX
  8
PLAN_1
 62
     5
  6
CONTINUOUS
 10
0.102299
 20
0.377205
  0
VERTEX
  8
PLAN_1
 62
     5
  6
CONTINUOUS
 10
0.102299
 20
0.368701
  0
SEQEND
  8
0
  0
POLYLINE
  8
PLAN_1
 62
     5
  6
CONTINUOUS
 66
     1
 40
0.003000
 41
0.003000
  0
VERTEX
  8
PLAN_1
 62
     5
  6
CONTINUOUS
 10
0.102299
 20
0.360197
  0
VERTEX
  8
PLAN_1
 62
     5
  6
CONTINUOUS
 10
0.102299
 20
0.352138
  0
SEQEND
  8
0
  0
POLYLINE
  8
PLAN_1
 62
     5
  6
CONTINUOUS
 66
     1
 40
0.003000
 41
0.003000
  0
VERTEX
  8
PLAN_1
 62
     5
  6
CONTINUOUS
 10
0.102299
 20
0.343634
  0
VERTEX
  8
PLAN_1
 62
     5
  6
CONTINUOUS
 10
0.102299
 20
0.335575
  0
SEQEND
  8
0
  0
POLYLINE
  8
PLAN_1
 62
     5
  6
CONTINUOUS
 66
     1
 40
0.003000
 41
0.003000
  0
VERTEX
  8
PLAN_1
 62
     5
  6
CONTINUOUS
 10
0.102299
 20
0.327071
  0
VERTEX
  8
PLAN_1
 62
     5
  6
CONTINUOUS
 10
0.102299
 20
0.318567
  0
SEQEND
  8
0
  0
POLYLINE
  8
PLAN_1
 62
     5
  6
CONTINUOUS
 66
     1
 40
0.003000
 41
0.003000
  0
VERTEX
  8
PLAN_1
 62
     5
  6
CONTINUOUS
 10
0.102299
 20
0.310508
  0
VERTEX
  8
PLAN_1
 62
     5
  6
CONTINUOUS
 10
0.102299
 20
0.302004
  0
SEQEND
  8
0
  0
POLYLINE
  8
PLAN_1
 62
     5
  6
CONTINUOUS
 66
     1
 40
0.003000
 41
0.003000
  0
VERTEX
  8
PLAN_1
 62
     5
  6
CONTINUOUS
 10
0.102299
 20
0.293945
  0
VERTEX
  8
PLAN_1
 62
     5
  6
CONTINUOUS
 10
0.102299
 20
0.285441
  0
SEQEND
  8
0
  0
POLYLINE
  8
PLAN_1
 62
     5
  6
CONTINUOUS
 66
     1
 40
0.003000
 41
0.003000
  0
VERTEX
  8
PLAN_1
 62
     5
  6
CONTINUOUS
 10
0.102299
 20
0.276937
  0
VERTEX
  8
PLAN_1
 62
     5
  6
CONTINUOUS
 10
0.102299
 20
0.268878
  0
SEQEND
  8
0
  0
POLYLINE
  8
PLAN_1
 62
     5
  6
CONTINUOUS
 66
     1
 40
0.003000
 41
0.003000
  0
VERTEX
  8
PLAN_1
 62
     5
  6
CONTINUOUS
 10
0.102299
 20
0.260374
  0
VERTEX
  8
PLAN_1
 62
     5
  6
CONTINUOUS
 10
0.102299
 20
0.252319
  0
SEQEND
  8
0
  0
POLYLINE
  8
PLAN_1
 62
     5
  6
CONTINUOUS
 66
     1
 40
0.003000
 41
0.003000
  0
VERTEX
  8
PLAN_1
 62
     5
  6
CONTINUOUS
 10
0.102299
 20
0.243811
  0
VERTEX
  8
PLAN_1
 62
     5
  6
CONTINUOUS
 10
0.102299
 20
0.235307
  0
SEQEND
  8
0
  0
POLYLINE
  8
PLAN_1
 62
     5
  6
CONTINUOUS
 66
     1
 40
0.003000
 41
0.003000
  0
VERTEX
  8
PLAN_1
 62
     5
  6
CONTINUOUS
 10
0.102299
 20
0.227248
  0
VERTEX
  8
PLAN_1
 62
     5
  6
CONTINUOUS
 10
0.102299
 20
0.218744
  0
SEQEND
  8
0
  0
POLYLINE
  8
PLAN_1
 62
     5
  6
CONTINUOUS
 66
     1
 40
0.003000
 41
0.003000
  0
VERTEX
  8
PLAN_1
 62
     5
  6
CONTINUOUS
 10
0.102299
 20
0.210689
  0
VERTEX
  8
PLAN_1
 62
     5
  6
CONTINUOUS
 10
0.102299
 20
0.202181
  0
SEQEND
  8
0
  0
POLYLINE
  8
PLAN_1
 62
     5
  6
CONTINUOUS
 66
     1
 40
0.003000
 41
0.003000
  0
VERTEX
  8
PLAN_1
 62
     5
  6
CONTINUOUS
 10
0.102299
 20
0.193677
  0
VERTEX
  8
PLAN_1
 62
     5
  6
CONTINUOUS
 10
0.102299
 20
0.185622
  0
SEQEND
  8
0
  0
POLYLINE
  8
PLAN_1
 62
     5
  6
CONTINUOUS
 66
     1
 40
0.003000
 41
0.003000
  0
VERTEX
  8
PLAN_1
 62
     5
  6
CONTINUOUS
 10
0.102299
 20
0.177114
  0
VERTEX
  8
PLAN_1
 62
     5
  6
CONTINUOUS
 10
0.102299
 20
0.168610
  0
SEQEND
  8
0
  0
POLYLINE
  8
PLAN_1
 62
     5
  6
CONTINUOUS
 66
     1
 40
0.003000
 41
0.003000
  0
VERTEX
  8
PLAN_1
 62
     5
  6
CONTINUOUS
 10
0.102299
 20
0.160551
  0
VERTEX
  8
PLAN_1
 62
     5
  6
CONTINUOUS
 10
0.102299
 20
0.152047
  0
SEQEND
  8
0
  0
POLYLINE
  8
PLAN_1
 62
     5
  6
CONTINUOUS
 66
     1
 40
0.003000
 41
0.003000
  0
VERTEX
  8
PLAN_1
 62
     5
  6
CONTINUOUS
 10
0.102299
 20
0.143992
  0
VERTEX
  8
PLAN_1
 62
     5
  6
CONTINUOUS
 10
0.102299
 20
0.135484
  0
SEQEND
  8
0
  0
POLYLINE
  8
PLAN_1
 62
     5
  6
CONTINUOUS
 66
     1
 40
0.003000
 41
0.003000
  0
VERTEX
  8
PLAN_1
 62
     5
  6
CONTINUOUS
 10
0.102299
 20
0.126980
  0
VERTEX
  8
PLAN_1
 62
     5
  6
CONTINUOUS
 10
0.102299
 20
0.121161
  0
SEQEND
  8
0
  0
POLYLINE
  8
PLAN_1
 62
     5
  6
CONTINUOUS
 66
     1
 40
0.003000
 41
0.003000
  0
VERTEX
  8
PLAN_1
 62
     5
  6
CONTINUOUS
 10
0.102299
 20
0.126980
  0
VERTEX
  8
PLAN_1
 62
     5
  6
CONTINUOUS
 10
0.102299
 20
0.121161
  0
SEQEND
  8
0
  0
POLYLINE
  8
PLAN_1
  6
CONTINUOUS
 66
     1
 40
0.008504
 41
0.008504
  0
VERTEX
  8
PLAN_1
  6
CONTINUOUS
 10
-1.335937
 20
1.054469
  0
VERTEX
  8
PLAN_1
  6
CONTINUOUS
 10
-1.010957
 20
1.054469
  0
VERTEX
  8
PLAN_1
  6
CONTINUOUS
 10
-1.010957
 20
0.864677
  0
SEQEND
  8
0
  0
POLYLINE
  8
PLAN_1
  6
CONTINUOUS
 66
     1
 40
0.008504
 41
0.008504
  0
VERTEX
  8
PLAN_1
  6
CONTINUOUS
 10
-0.366819
 20
0.864677
  0
VERTEX
  8
PLAN_1
  6
CONTINUOUS
 10
-0.366819
 20
1.053575
  0
VERTEX
  8
PLAN_1
  6
CONTINUOUS
 10
-0.037362
 20
1.053575
  0
SEQEND
  8
0
  0
POLYLINE
  8
PLAN_1
  6
CONTINUOUS
 66
     1
 40
0.008504
 41
0.008504
  0
VERTEX
  8
PLAN_1
  6
CONTINUOUS
 10
-1.100484
 20
1.054469
  0
VERTEX
  8
PLAN_1
  6
CONTINUOUS
 10
-1.100484
 20
0.864677
  0
SEQEND
  8
0
  0
POLYLINE
  8
PLAN_1
  6
CONTINUOUS
 66
     1
 40
0.008504
 41
0.008504
  0
VERTEX
  8
PLAN_1
  6
CONTINUOUS
 10
-0.269236
 20
1.054469
  0
VERTEX
  8
PLAN_1
  6
CONTINUOUS
 10
-0.269236
 20
0.864677
  0
SEQEND
  8
0
  0
POLYLINE
  8
PLAN_1
  6
CONTINUOUS
 66
     1
 40
0.008504
 41
0.008504
  0
VERTEX
  8
PLAN_1
  6
CONTINUOUS
 10
-0.412028
 20
2.405417
  0
VERTEX
  8
PLAN_1
  6
CONTINUOUS
 10
-0.399496
 20
2.416610
  0
VERTEX
  8
PLAN_1
  6
CONTINUOUS
 10
-0.387409
 20
2.428248
  0
VERTEX
  8
PLAN_1
  6
CONTINUOUS
 10
-0.375772
 20
2.440335
  0
VERTEX
  8
PLAN_1
  6
CONTINUOUS
 10
-0.364579
 20
2.452866
  0
VERTEX
  8
PLAN_1
  6
CONTINUOUS
 10
-0.353839
 20
2.465850
  0
VERTEX
  8
PLAN_1
  6
CONTINUOUS
 10
-0.343543
 20
2.479276
  0
VERTEX
  8
PLAN_1
  6
CONTINUOUS
 10
-0.333693
 20
2.492705
  0
VERTEX
  8
PLAN_1
  6
CONTINUOUS
 10
-0.324740
 20
2.507031
  0
VERTEX
  8
PLAN_1
  6
CONTINUOUS
 10
-0.317130
 20
2.519563
  0
VERTEX
  8
PLAN_1
  6
CONTINUOUS
 10
-0.309969
 20
2.532547
  0
VERTEX
  8
PLAN_1
  6
CONTINUOUS
 10
-0.303701
 20
2.545528
  0
VERTEX
  8
PLAN_1
  6
CONTINUOUS
 10
-0.297437
 20
2.558508
  0
VERTEX
  8
PLAN_1
  6
CONTINUOUS
 10
-0.291618
 20
2.572386
  0
VERTEX
  8
PLAN_1
  6
CONTINUOUS
 10
-0.286244
 20
2.585815
  0
VERTEX
  8
PLAN_1
  6
CONTINUOUS
 10
-0.281323
 20
2.600138
  0
VERTEX
  8
PLAN_1
  6
CONTINUOUS
 10
-0.277291
 20
2.614016
  0
VERTEX
  8
PLAN_1
  6
CONTINUOUS
 10
-0.273264
 20
2.628787
  0
VERTEX
  8
PLAN_1
  6
CONTINUOUS
 10
-0.269681
 20
2.643110
  0
VERTEX
  8
PLAN_1
  6
CONTINUOUS
 10
-0.266996
 20
2.657882
  0
VERTEX
  8
PLAN_1
  6
CONTINUOUS
 10
-0.264760
 20
2.673102
  0
VERTEX
  8
PLAN_1
  6
CONTINUOUS
 10
-0.262520
 20
2.687874
  0
VERTEX
  8
PLAN_1
  6
CONTINUOUS
 10
-0.261177
 20
2.703091
  0
VERTEX
  8
PLAN_1
  6
CONTINUOUS
 10
-0.260728
 20
2.718760
  0
VERTEX
  8
PLAN_1
  6
CONTINUOUS
 10
-0.260283
 20
2.734425
  0
VERTEX
  8
PLAN_1
  6
CONTINUOUS
 10
-0.260728
 20
2.749646
  0
VERTEX
  8
PLAN_1
  6
CONTINUOUS
 10
-0.261177
 20
2.764417
  0
VERTEX
  8
PLAN_1
  6
CONTINUOUS
 10
-0.262520
 20
2.779189
  0
VERTEX
  8
PLAN_1
  6
CONTINUOUS
 10
-0.264311
 20
2.793961
  0
VERTEX
  8
PLAN_1
  6
CONTINUOUS
 10
-0.266551
 20
2.808732
  0
VERTEX
  8
PLAN_1
  6
CONTINUOUS
 10
-0.269236
 20
2.823059
  0
VERTEX
  8
PLAN_1
  6
CONTINUOUS
 10
-0.272815
 20
2.837382
  0
VERTEX
  8
PLAN_1
  6
CONTINUOUS
 10
-0.276398
 20
2.851705
  0
VERTEX
  8
PLAN_1
  6
CONTINUOUS
 10
-0.280425
 20
2.865583
  0
VERTEX
  8
PLAN_1
  6
CONTINUOUS
 10
-0.284902
 20
2.879012
  0
VERTEX
  8
PLAN_1
  6
CONTINUOUS
 10
-0.290276
 20
2.892441
  0
VERTEX
  8
PLAN_1
  6
CONTINUOUS
 10
-0.295646
 20
2.905870
  0
VERTEX
  8
PLAN_1
  6
CONTINUOUS
 10
-0.301465
 20
2.918850
  0
VERTEX
  8
PLAN_1
  6
CONTINUOUS
 10
-0.307732
 20
2.931831
  0
VERTEX
  8
PLAN_1
  6
CONTINUOUS
 10
-0.314445
 20
2.944366
  0
VERTEX
  8
PLAN_1
  6
CONTINUOUS
 10
-0.321606
 20
2.956453
  0
VERTEX
  8
PLAN_1
  6
CONTINUOUS
 10
-0.328772
 20
2.968091
  0
VERTEX
  8
PLAN_1
  6
CONTINUOUS
 10
-0.336378
 20
2.979728
  0
VERTEX
  8
PLAN_1
  6
CONTINUOUS
 10
-0.344437
 20
2.990917
  0
VERTEX
  8
PLAN_1
  6
CONTINUOUS
 10
-0.352941
 20
3.001661
  0
VERTEX
  8
PLAN_1
  6
CONTINUOUS
 10
-0.361449
 20
3.012406
  0
VERTEX
  8
PLAN_1
  6
CONTINUOUS
 10
-0.370402
 20
3.022701
  0
VERTEX
  8
PLAN_1
  6
CONTINUOUS
 10
-0.379799
 20
3.032996
  0
VERTEX
  8
PLAN_1
  6
CONTINUOUS
 10
-0.389201
 20
3.042843
  0
VERTEX
  8
PLAN_1
  6
CONTINUOUS
 10
-0.399496
 20
3.052244
  0
VERTEX
  8
PLAN_1
  6
CONTINUOUS
 10
-0.409343
 20
3.061197
  0
VERTEX
  8
PLAN_1
  6
CONTINUOUS
 10
-0.420087
 20
3.070150
  0
VERTEX
  8
PLAN_1
  6
CONTINUOUS
 10
-0.430831
 20
3.078654
  0
VERTEX
  8
PLAN_1
  6
CONTINUOUS
 10
-0.442020
 20
3.086713
  0
VERTEX
  8
PLAN_1
  6
CONTINUOUS
 10
-0.453213
 20
3.094768
  0
VERTEX
  8
PLAN_1
  6
CONTINUOUS
 10
-0.464850
 20
3.101929
  0
VERTEX
  8
PLAN_1
  6
CONTINUOUS
 10
-0.476488
 20
3.109094
  0
VERTEX
  8
PLAN_1
  6
CONTINUOUS
 10
-0.488575
 20
3.115807
  0
VERTEX
  8
PLAN_1
  6
CONTINUOUS
 10
-0.501106
 20
3.122524
  0
VERTEX
  8
PLAN_1
  6
CONTINUOUS
 10
-0.513642
 20
3.128343
  0
VERTEX
  8
PLAN_1
  6
CONTINUOUS
 10
-0.526173
 20
3.133713
  0
VERTEX
  8
PLAN_1
  6
CONTINUOUS
 10
-0.539157
 20
3.139083
  0
VERTEX
  8
PLAN_1
  6
CONTINUOUS
 10
-0.552138
 20
3.144008
  0
VERTEX
  8
PLAN_1
  6
CONTINUOUS
 10
-0.565567
 20
3.148035
  0
VERTEX
  8
PLAN_1
  6
CONTINUOUS
 10
-0.579445
 20
3.152067
  0
VERTEX
  8
PLAN_1
  6
CONTINUOUS
 10
-0.592870
 20
3.155646
  0
VERTEX
  8
PLAN_1
  6
CONTINUOUS
 10
-0.606748
 20
3.158780
  0
VERTEX
  8
PLAN_1
  6
CONTINUOUS
 10
-0.621071
 20
3.161020
  0
VERTEX
  8
PLAN_1
  6
CONTINUOUS
 10
-0.634949
 20
3.163256
  0
VERTEX
  8
PLAN_1
  6
CONTINUOUS
 10
-0.649272
 20
3.165047
  0
VERTEX
  8
PLAN_1
  6
CONTINUOUS
 10
-0.664043
 20
3.166390
  0
VERTEX
  8
PLAN_1
  6
CONTINUOUS
 10
-0.678370
 20
3.166839
  0
VERTEX
  8
PLAN_1
  6
CONTINUOUS
 10
-0.693142
 20
3.167283
  0
VERTEX
  8
PLAN_1
  6
CONTINUOUS
 10
-0.715524
 20
3.166839
  0
VERTEX
  8
PLAN_1
  6
CONTINUOUS
 10
-0.737457
 20
3.165047
  0
VERTEX
  8
PLAN_1
  6
CONTINUOUS
 10
-0.759390
 20
3.162362
  0
VERTEX
  8
PLAN_1
  6
CONTINUOUS
 10
-0.780429
 20
3.158331
  0
VERTEX
  8
PLAN_1
  6
CONTINUOUS
 10
-0.801469
 20
3.153409
  0
VERTEX
  8
PLAN_1
  6
CONTINUOUS
 10
-0.822059
 20
3.147591
  0
VERTEX
  8
PLAN_1
  6
CONTINUOUS
 10
-0.842201
 20
3.140874
  0
VERTEX
  8
PLAN_1
  6
CONTINUOUS
 10
-0.861898
 20
3.133264
  0
VERTEX
  8
PLAN_1
  6
CONTINUOUS
 10
-0.881146
 20
3.124760
  0
VERTEX
  8
PLAN_1
  6
CONTINUOUS
 10
-0.899500
 20
3.114913
  0
VERTEX
  8
PLAN_1
  6
CONTINUOUS
 10
-0.917850
 20
3.104618
  0
VERTEX
  8
PLAN_1
  6
CONTINUOUS
 10
-0.935307
 20
3.093425
  0
VERTEX
  8
PLAN_1
  6
CONTINUOUS
 10
-0.952319
 20
3.081339
  0
VERTEX
  8
PLAN_1
  6
CONTINUOUS
 10
-0.968882
 20
3.068358
  0
VERTEX
  8
PLAN_1
  6
CONTINUOUS
 10
-0.984547
 20
3.054929
  0
VERTEX
  8
PLAN_1
  6
CONTINUOUS
 10
-0.999319
 20
3.040606
  0
VERTEX
  8
PLAN_1
  6
CONTINUOUS
 10
-1.013646
 20
3.025386
  0
VERTEX
  8
PLAN_1
  6
CONTINUOUS
 10
-1.027520
 20
3.009720
  0
VERTEX
  8
PLAN_1
  6
CONTINUOUS
 10
-1.040055
 20
2.993157
  0
VERTEX
  8
PLAN_1
  6
CONTINUOUS
 10
-1.052142
 20
2.976594
  0
VERTEX
  8
PLAN_1
  6
CONTINUOUS
 10
-1.063780
 20
2.958689
  0
VERTEX
  8
PLAN_1
  6
CONTINUOUS
 10
-1.074075
 20
2.940783
  0
VERTEX
  8
PLAN_1
  6
CONTINUOUS
 10
-1.083476
 20
2.921984
  0
VERTEX
  8
PLAN_1
  6
CONTINUOUS
 10
-1.092425
 20
2.902736
  0
VERTEX
  8
PLAN_1
  6
CONTINUOUS
 10
-1.100035
 20
2.883039
  0
VERTEX
  8
PLAN_1
  6
CONTINUOUS
 10
-1.106752
 20
2.862898
  0
VERTEX
  8
PLAN_1
  6
CONTINUOUS
 10
-1.112571
 20
2.842307
  0
VERTEX
  8
PLAN_1
  6
CONTINUOUS
 10
-1.117496
 20
2.821713
  0
VERTEX
  8
PLAN_1
  6
CONTINUOUS
 10
-1.121075
 20
2.800228
  0
VERTEX
  8
PLAN_1
  6
CONTINUOUS
 10
-1.124209
 20
2.778740
  0
VERTEX
  8
PLAN_1
  6
CONTINUOUS
 10
-1.125551
 20
2.756362
  0
VERTEX
  8
PLAN_1
  6
CONTINUOUS
 10
-1.126449
 20
2.734425
  0
VERTEX
  8
PLAN_1
  6
CONTINUOUS
 10
-1.126000
 20
2.721894
  0
VERTEX
  8
PLAN_1
  6
CONTINUOUS
 10
-1.125551
 20
2.709358
  0
VERTEX
  8
PLAN_1
  6
CONTINUOUS
 10
-1.124657
 20
2.696827
  0
VERTEX
  8
PLAN_1
  6
CONTINUOUS
 10
-1.123315
 20
2.684291
  0
VERTEX
  8
PLAN_1
  6
CONTINUOUS
 10
-1.121972
 20
2.672205
  0
VERTEX
  8
PLAN_1
  6
CONTINUOUS
 10
-1.119732
 20
2.660118
  0
VERTEX
  8
PLAN_1
  6
CONTINUOUS
 10
-1.117496
 20
2.648035
  0
VERTEX
  8
PLAN_1
  6
CONTINUOUS
 10
-1.115256
 20
2.636394
  0
VERTEX
  8
PLAN_1
  6
CONTINUOUS
 10
-1.112122
 20
2.624311
  0
VERTEX
  8
PLAN_1
  6
CONTINUOUS
 10
-1.108988
 20
2.612669
  0
VERTEX
  8
PLAN_1
  6
CONTINUOUS
 10
-1.105409
 20
2.601480
  0
VERTEX
  8
PLAN_1
  6
CONTINUOUS
 10
-1.101378
 20
2.589843
  0
VERTEX
  8
PLAN_1
  6
CONTINUOUS
 10
-1.097350
 20
2.578650
  0
VERTEX
  8
PLAN_1
  6
CONTINUOUS
 10
-1.092874
 20
2.567461
  0
VERTEX
  8
PLAN_1
  6
CONTINUOUS
 10
-1.088398
 20
2.556717
  0
VERTEX
  8
PLAN_1
  6
CONTINUOUS
 10
-1.083028
 20
2.545972
  0
VERTEX
  8
PLAN_1
  6
CONTINUOUS
 10
-1.078102
 20
2.535232
  0
VERTEX
  8
PLAN_1
  6
CONTINUOUS
 10
-1.072283
 20
2.524937
  0
VERTEX
  8
PLAN_1
  6
CONTINUOUS
 10
-1.066465
 20
2.514642
  0
VERTEX
  8
PLAN_1
  6
CONTINUOUS
 10
-1.060197
 20
2.504791
  0
VERTEX
  8
PLAN_1
  6
CONTINUOUS
 10
-1.053929
 20
2.494945
  0
VERTEX
  8
PLAN_1
  6
CONTINUOUS
 10
-1.047217
 20
2.485098
  0
VERTEX
  8
PLAN_1
  6
CONTINUOUS
 10
-1.040504
 20
2.475697
  0
VERTEX
  8
PLAN_1
  6
CONTINUOUS
 10
-1.033339
 20
2.466295
  0
VERTEX
  8
PLAN_1
  6
CONTINUOUS
 10
-1.025728
 20
2.456898
  0
VERTEX
  8
PLAN_1
  6
CONTINUOUS
 10
-1.018122
 20
2.448390
  0
VERTEX
  8
PLAN_1
  6
CONTINUOUS
 10
-1.010512
 20
2.439437
  0
VERTEX
  8
PLAN_1
  6
CONTINUOUS
 10
-1.002453
 20
2.430933
  0
VERTEX
  8
PLAN_1
  6
CONTINUOUS
 10
-0.993949
 20
2.422874
  0
VERTEX
  8
PLAN_1
  6
CONTINUOUS
 10
-0.985445
 20
2.414819
  0
VERTEX
  8
PLAN_1
  6
CONTINUOUS
 10
-0.976492
 20
2.406760
  0
VERTEX
  8
PLAN_1
  6
CONTINUOUS
 10
-0.967539
 20
2.399150
  0
SEQEND
  8
0
  0
POLYLINE
  8
PLAN_1
  6
CONTINUOUS
 66
     1
 40
0.008504
 41
0.008504
  0
VERTEX
  8
PLAN_1
  6
CONTINUOUS
 10
-0.412028
 20
2.405417
  0
VERTEX
  8
PLAN_1
  6
CONTINUOUS
 10
-0.420535
 20
2.477039
  0
VERTEX
  8
PLAN_1
  6
CONTINUOUS
 10
-0.428146
 20
2.543287
  0
VERTEX
  8
PLAN_1
  6
CONTINUOUS
 10
-0.435307
 20
2.603720
  0
VERTEX
  8
PLAN_1
  6
CONTINUOUS
 10
-0.441575
 20
2.656091
  0
VERTEX
  8
PLAN_1
  6
CONTINUOUS
 10
-0.446945
 20
2.699512
  0
VERTEX
  8
PLAN_1
  6
CONTINUOUS
 10
-0.450972
 20
2.732189
  0
VERTEX
  8
PLAN_1
  6
CONTINUOUS
 10
-0.453213
 20
2.753228
  0
VERTEX
  8
PLAN_1
  6
CONTINUOUS
 10
-0.454106
 20
2.761732
  0
VERTEX
  8
PLAN_1
  6
CONTINUOUS
 10
-0.455449
 20
2.772476
  0
VERTEX
  8
PLAN_1
  6
CONTINUOUS
 10
-0.457689
 20
2.783665
  0
VERTEX
  8
PLAN_1
  6
CONTINUOUS
 10
-0.459925
 20
2.793961
  0
VERTEX
  8
PLAN_1
  6
CONTINUOUS
 10
-0.463059
 20
2.804705
  0
VERTEX
  8
PLAN_1
  6
CONTINUOUS
 10
-0.466193
 20
2.815000
  0
VERTEX
  8
PLAN_1
  6
CONTINUOUS
 10
-0.470220
 20
2.825295
  0
VERTEX
  8
PLAN_1
  6
CONTINUOUS
 10
-0.474248
 20
2.835142
  0
VERTEX
  8
PLAN_1
  6
CONTINUOUS
 10
-0.479173
 20
2.844543
  0
VERTEX
  8
PLAN_1
  6
CONTINUOUS
 10
-0.484098
 20
2.853945
  0
VERTEX
  8
PLAN_1
  6
CONTINUOUS
 10
-0.489469
 20
2.863343
  0
VERTEX
  8
PLAN_1
  6
CONTINUOUS
 10
-0.495287
 20
2.871850
  0
VERTEX
  8
PLAN_1
  6
CONTINUOUS
 10
-0.502004
 20
2.880803
  0
VERTEX
  8
PLAN_1
  6
CONTINUOUS
 10
-0.508272
 20
2.888858
  0
VERTEX
  8
PLAN_1
  6
CONTINUOUS
 10
-0.515433
 20
2.896917
  0
VERTEX
  8
PLAN_1
  6
CONTINUOUS
 10
-0.523043
 20
2.904528
  0
VERTEX
  8
PLAN_1
  6
CONTINUOUS
 10
-0.530650
 20
2.911689
  0
VERTEX
  8
PLAN_1
  6
CONTINUOUS
 10
-0.538709
 20
2.918850
  0
VERTEX
  8
PLAN_1
  6
CONTINUOUS
 10
-0.546768
 20
2.925563
  0
VERTEX
  8
PLAN_1
  6
CONTINUOUS
 10
-0.555720
 20
2.931382
  0
VERTEX
  8
PLAN_1
  6
CONTINUOUS
 10
-0.564224
 20
2.937205
  0
VERTEX
  8
PLAN_1
  6
CONTINUOUS
 10
-0.573622
 20
2.943024
  0
VERTEX
  8
PLAN_1
  6
CONTINUOUS
 10
-0.583024
 20
2.947945
  0
VERTEX
  8
PLAN_1
  6
CONTINUOUS
 10
-0.592870
 20
2.952421
  0
VERTEX
  8
PLAN_1
  6
CONTINUOUS
 10
-0.602720
 20
2.956453
  0
VERTEX
  8
PLAN_1
  6
CONTINUOUS
 10
-0.613016
 20
2.960480
  0
VERTEX
  8
PLAN_1
  6
CONTINUOUS
 10
-0.623311
 20
2.963614
  0
VERTEX
  8
PLAN_1
  6
CONTINUOUS
 10
-0.633606
 20
2.966299
  0
VERTEX
  8
PLAN_1
  6
CONTINUOUS
 10
-0.644350
 20
2.968984
  0
VERTEX
  8
PLAN_1
  6
CONTINUOUS
 10
-0.655539
 20
2.970776
  0
VERTEX
  8
PLAN_1
  6
CONTINUOUS
 10
-0.666732
 20
2.972118
  0
VERTEX
  8
PLAN_1
  6
CONTINUOUS
 10
-0.677921
 20
2.972567
  0
VERTEX
  8
PLAN_1
  6
CONTINUOUS
 10
-0.689114
 20
2.973012
  0
VERTEX
  8
PLAN_1
  6
CONTINUOUS
 10
-0.700303
 20
2.972567
  0
VERTEX
  8
PLAN_1
  6
CONTINUOUS
 10
-0.711492
 20
2.972118
  0
VERTEX
  8
PLAN_1
  6
CONTINUOUS
 10
-0.722685
 20
2.970776
  0
VERTEX
  8
PLAN_1
  6
CONTINUOUS
 10
-0.733429
 20
2.968984
  0
VERTEX
  8
PLAN_1
  6
CONTINUOUS
 10
-0.744169
 20
2.966748
  0
VERTEX
  8
PLAN_1
  6
CONTINUOUS
 10
-0.754465
 20
2.963614
  0
VERTEX
  8
PLAN_1
  6
CONTINUOUS
 10
-0.764764
 20
2.960480
  0
VERTEX
  8
PLAN_1
  6
CONTINUOUS
 10
-0.775059
 20
2.956898
  0
VERTEX
  8
PLAN_1
  6
CONTINUOUS
 10
-0.784906
 20
2.952870
  0
VERTEX
  8
PLAN_1
  6
CONTINUOUS
 10
-0.794307
 20
2.948394
  0
VERTEX
  8
PLAN_1
  6
CONTINUOUS
 10
-0.803705
 20
2.943469
  0
VERTEX
  8
PLAN_1
  6
CONTINUOUS
 10
-0.813106
 20
2.938098
  0
VERTEX
  8
PLAN_1
  6
CONTINUOUS
 10
-0.822059
 20
2.932280
  0
VERTEX
  8
PLAN_1
  6
CONTINUOUS
 10
-0.830563
 20
2.926012
  0
VERTEX
  8
PLAN_1
  6
CONTINUOUS
 10
-0.838622
 20
2.919744
  0
VERTEX
  8
PLAN_1
  6
CONTINUOUS
 10
-0.846677
 20
2.912583
  0
VERTEX
  8
PLAN_1
  6
CONTINUOUS
 10
-0.854287
 20
2.905421
  0
VERTEX
  8
PLAN_1
  6
CONTINUOUS
 10
-0.861898
 20
2.897811
  0
VERTEX
  8
PLAN_1
  6
CONTINUOUS
 10
-0.868610
 20
2.890201
  0
VERTEX
  8
PLAN_1
  6
CONTINUOUS
 10
-0.875327
 20
2.881697
  0
VERTEX
  8
PLAN_1
  6
CONTINUOUS
 10
-0.881594
 20
2.873638
  0
VERTEX
  8
PLAN_1
  6
CONTINUOUS
 10
-0.887858
 20
2.864685
  0
VERTEX
  8
PLAN_1
  6
CONTINUOUS
 10
-0.893232
 20
2.855736
  0
VERTEX
  8
PLAN_1
  6
CONTINUOUS
 10
-0.898602
 20
2.846335
  0
VERTEX
  8
PLAN_1
  6
CONTINUOUS
 10
-0.903079
 20
2.836933
  0
VERTEX
  8
PLAN_1
  6
CONTINUOUS
 10
-0.907555
 20
2.827087
  0
VERTEX
  8
PLAN_1
  6
CONTINUOUS
 10
-0.911138
 20
2.817236
  0
VERTEX
  8
PLAN_1
  6
CONTINUOUS
 10
-0.914717
 20
2.806941
  0
VERTEX
  8
PLAN_1
  6
CONTINUOUS
 10
-0.917850
 20
2.796646
  0
VERTEX
  8
PLAN_1
  6
CONTINUOUS
 10
-0.920091
 20
2.785906
  0
VERTEX
  8
PLAN_1
  6
CONTINUOUS
 10
-0.922327
 20
2.775161
  0
VERTEX
  8
PLAN_1
  6
CONTINUOUS
 10
-0.923669
 20
2.764417
  0
VERTEX
  8
PLAN_1
  6
CONTINUOUS
 10
-0.925012
 20
2.755016
  0
VERTEX
  8
PLAN_1
  6
CONTINUOUS
 10
-0.927701
 20
2.732189
  0
VERTEX
  8
PLAN_1
  6
CONTINUOUS
 10
-0.931728
 20
2.696827
  0
VERTEX
  8
PLAN_1
  6
CONTINUOUS
 10
-0.937547
 20
2.651169
  0
VERTEX
  8
PLAN_1
  6
CONTINUOUS
 10
-0.943815
 20
2.596555
  0
VERTEX
  8
PLAN_1
  6
CONTINUOUS
 10
-0.951425
 20
2.535232
  0
VERTEX
  8
PLAN_1
  6
CONTINUOUS
 10
-0.959031
 20
2.468980
  0
VERTEX
  8
PLAN_1
  6
CONTINUOUS
 10
-0.967539
 20
2.399150
  0
SEQEND
  8
0
  0
POLYLINE
  8
PLAN_1
  6
CONTINUOUS
 66
     1
 40
0.008504
 41
0.008504
  0
VERTEX
  8
PLAN_1
  6
CONTINUOUS
 10
-1.335937
 20
1.874083
  0
VERTEX
  8
PLAN_1
  6
CONTINUOUS
 10
-1.335937
 20
2.003894
  0
VERTEX
  8
PLAN_1
  6
CONTINUOUS
 10
-1.015433
 20
2.003894
  0
SEQEND
  8
0
  0
POLYLINE
  8
PLAN_1
  6
CONTINUOUS
 66
     1
 40
0.008504
 41
0.008504
  0
VERTEX
  8
PLAN_1
  6
CONTINUOUS
 10
-1.335937
 20
1.274705
  0
VERTEX
  8
PLAN_1
  6
CONTINUOUS
 10
-1.335937
 20
0.864677
  0
VERTEX
  8
PLAN_1
  6
CONTINUOUS
 10
-0.037811
 20
0.864677
  0
VERTEX
  8
PLAN_1
  6
CONTINUOUS
 10
-0.037811
 20
2.003894
  0
VERTEX
  8
PLAN_1
  6
CONTINUOUS
 10
-0.364134
 20
2.003894
  0
SEQEND
  8
0
  0
POLYLINE
  8
PLAN_1
  6
CONTINUOUS
 66
     1
 40
0.008504
 41
0.008504
  0
VERTEX
  8
PLAN_1
  6
CONTINUOUS
 10
-0.364134
 20
2.003894
  0
VERTEX
  8
PLAN_1
  6
CONTINUOUS
 10
-0.369953
 20
2.053134
  0
VERTEX
  8
PLAN_1
  6
CONTINUOUS
 10
-0.375772
 20
2.103268
  0
VERTEX
  8
PLAN_1
  6
CONTINUOUS
 10
-0.382039
 20
2.154299
  0
VERTEX
  8
PLAN_1
  6
CONTINUOUS
 10
-0.388303
 20
2.205327
  0
VERTEX
  8
PLAN_1
  6
CONTINUOUS
 10
-0.394126
 20
2.256358
  0
VERTEX
  8
PLAN_1
  6
CONTINUOUS
 10
-0.400390
 20
2.306941
  0
VERTEX
  8
PLAN_1
  6
CONTINUOUS
 10
-0.406209
 20
2.356626
  0
VERTEX
  8
PLAN_1
  6
CONTINUOUS
 10
-0.412028
 20
2.405417
  0
SEQEND
  8
0
  0
POLYLINE
  8
PLAN_1
  6
CONTINUOUS
 66
     1
 40
0.008504
 41
0.008504
  0
VERTEX
  8
PLAN_1
  6
CONTINUOUS
 10
-1.335937
 20
1.274705
  0
VERTEX
  8
PLAN_1
  6
CONTINUOUS
 10
-1.361004
 20
1.277839
  0
VERTEX
  8
PLAN_1
  6
CONTINUOUS
 10
-1.385626
 20
1.280524
  0
VERTEX
  8
PLAN_1
  6
CONTINUOUS
 10
-1.410244
 20
1.283657
  0
VERTEX
  8
PLAN_1
  6
CONTINUOUS
 10
-1.434417
 20
1.286343
  0
VERTEX
  8
PLAN_1
  6
CONTINUOUS
 10
-1.458591
 20
1.289476
  0
VERTEX
  8
PLAN_1
  6
CONTINUOUS
 10
-1.482760
 20
1.292161
  0
VERTEX
  8
PLAN_1
  6
CONTINUOUS
 10
-1.506039
 20
1.295295
  0
VERTEX
  8
PLAN_1
  6
CONTINUOUS
 10
-1.529315
 20
1.297980
  0
SEQEND
  8
0
  0
POLYLINE
  8
PLAN_1
  6
CONTINUOUS
 66
     1
 40
0.008504
 41
0.008504
  0
VERTEX
  8
PLAN_1
  6
CONTINUOUS
 10
-1.335937
 20
1.274705
  0
VERTEX
  8
PLAN_1
  6
CONTINUOUS
 10
-1.225823
 20
1.261724
  0
VERTEX
  8
PLAN_1
  6
CONTINUOUS
 10
-1.118390
 20
1.248740
  0
VERTEX
  8
PLAN_1
  6
CONTINUOUS
 10
-1.017224
 20
1.236657
  0
VERTEX
  8
PLAN_1
  6
CONTINUOUS
 10
-0.926803
 20
1.225913
  0
VERTEX
  8
PLAN_1
  6
CONTINUOUS
 10
-0.849811
 20
1.216961
  0
VERTEX
  8
PLAN_1
  6
CONTINUOUS
 10
-0.790276
 20
1.209799
  0
VERTEX
  8
PLAN_1
  6
CONTINUOUS
 10
-0.751780
 20
1.205323
  0
VERTEX
  8
PLAN_1
  6
CONTINUOUS
 10
-0.738350
 20
1.203531
  0
VERTEX
  8
PLAN_1
  6
CONTINUOUS
 10
-0.732087
 20
1.202638
  0
VERTEX
  8
PLAN_1
  6
CONTINUOUS
 10
-0.726264
 20
1.202189
  0
VERTEX
  8
PLAN_1
  6
CONTINUOUS
 10
-0.720000
 20
1.201740
  0
VERTEX
  8
PLAN_1
  6
CONTINUOUS
 10
-0.714181
 20
1.201291
  0
VERTEX
  8
PLAN_1
  6
CONTINUOUS
 10
-0.707913
 20
1.200846
  0
VERTEX
  8
PLAN_1
  6
CONTINUOUS
 10
-0.701646
 20
1.200846
  0
VERTEX
  8
PLAN_1
  6
CONTINUOUS
 10
-0.695827
 20
1.200398
  0
VERTEX
  8
PLAN_1
  6
CONTINUOUS
 10
-0.689559
 20
1.200398
  0
VERTEX
  8
PLAN_1
  6
CONTINUOUS
 10
-0.670311
 20
1.200846
  0
VERTEX
  8
PLAN_1
  6
CONTINUOUS
 10
-0.651063
 20
1.202189
  0
VERTEX
  8
PLAN_1
  6
CONTINUOUS
 10
-0.632713
 20
1.204874
  0
VERTEX
  8
PLAN_1
  6
CONTINUOUS
 10
-0.613909
 20
1.208008
  0
VERTEX
  8
PLAN_1
  6
CONTINUOUS
 10
-0.596004
 20
1.212035
  0
VERTEX
  8
PLAN_1
  6
CONTINUOUS
 10
-0.578098
 20
1.217409
  0
VERTEX
  8
PLAN_1
  6
CONTINUOUS
 10
-0.561091
 20
1.223228
  0
VERTEX
  8
PLAN_1
  6
CONTINUOUS
 10
-0.544079
 20
1.229941
  0
VERTEX
  8
PLAN_1
  6
CONTINUOUS
 10
-0.527520
 20
1.237102
  0
VERTEX
  8
PLAN_1
  6
CONTINUOUS
 10
-0.511402
 20
1.245610
  0
VERTEX
  8
PLAN_1
  6
CONTINUOUS
 10
-0.495736
 20
1.254563
  0
VERTEX
  8
PLAN_1
  6
CONTINUOUS
 10
-0.480516
 20
1.264409
  0
VERTEX
  8
PLAN_1
  6
CONTINUOUS
 10
-0.465744
 20
1.274705
  0
VERTEX
  8
PLAN_1
  6
CONTINUOUS
 10
-0.451421
 20
1.285894
  0
VERTEX
  8
PLAN_1
  6
CONTINUOUS
 10
-0.437992
 20
1.297535
  0
VERTEX
  8
PLAN_1
  6
CONTINUOUS
 10
-0.425012
 20
1.310067
  0
VERTEX
  8
PLAN_1
  6
CONTINUOUS
 10
-0.412925
 20
1.323047
  0
VERTEX
  8
PLAN_1
  6
CONTINUOUS
 10
-0.400839
 20
1.336476
  0
VERTEX
  8
PLAN_1
  6
CONTINUOUS
 10
-0.389650
 20
1.350803
  0
VERTEX
  8
PLAN_1
  6
CONTINUOUS
 10
-0.379350
 20
1.365126
  0
VERTEX
  8
PLAN_1
  6
CONTINUOUS
 10
-0.369504
 20
1.380346
  0
VERTEX
  8
PLAN_1
  6
CONTINUOUS
 10
-0.360551
 20
1.396012
  0
VERTEX
  8
PLAN_1
  6
CONTINUOUS
 10
-0.352496
 20
1.412126
  0
VERTEX
  8
PLAN_1
  6
CONTINUOUS
 10
-0.344886
 20
1.428689
  0
VERTEX
  8
PLAN_1
  6
CONTINUOUS
 10
-0.338169
 20
1.445701
  0
VERTEX
  8
PLAN_1
  6
CONTINUOUS
 10
-0.332350
 20
1.463157
  0
VERTEX
  8
PLAN_1
  6
CONTINUOUS
 10
-0.327425
 20
1.481063
  0
VERTEX
  8
PLAN_1
  6
CONTINUOUS
 10
-0.322953
 20
1.498969
  0
VERTEX
  8
PLAN_1
  6
CONTINUOUS
 10
-0.319819
 20
1.517319
  0
VERTEX
  8
PLAN_1
  6
CONTINUOUS
 10
-0.317579
 20
1.536122
  0
VERTEX
  8
PLAN_1
  6
CONTINUOUS
 10
-0.316236
 20
1.554921
  0
VERTEX
  8
PLAN_1
  6
CONTINUOUS
 10
-0.315343
 20
1.574169
  0
VERTEX
  8
PLAN_1
  6
CONTINUOUS
 10
-0.315787
 20
1.579539
  0
VERTEX
  8
PLAN_1
  6
CONTINUOUS
 10
-0.315787
 20
1.584913
  0
VERTEX
  8
PLAN_1
  6
CONTINUOUS
 10
-0.315787
 20
1.590283
  0
VERTEX
  8
PLAN_1
  6
CONTINUOUS
 10
-0.316236
 20
1.595209
  0
VERTEX
  8
PLAN_1
  6
CONTINUOUS
 10
-0.316685
 20
1.600579
  0
VERTEX
  8
PLAN_1
  6
CONTINUOUS
 10
-0.316685
 20
1.605504
  0
VERTEX
  8
PLAN_1
  6
CONTINUOUS
 10
-0.317130
 20
1.610874
  0
VERTEX
  8
PLAN_1
  6
CONTINUOUS
 10
-0.318028
 20
1.616248
  0
VERTEX
  8
PLAN_1
  6
CONTINUOUS
 10
-0.318921
 20
1.623854
  0
VERTEX
  8
PLAN_1
  6
CONTINUOUS
 10
-0.321606
 20
1.646685
  0
VERTEX
  8
PLAN_1
  6
CONTINUOUS
 10
-0.325638
 20
1.682496
  0
VERTEX
  8
PLAN_1
  6
CONTINUOUS
 10
-0.331457
 20
1.729945
  0
VERTEX
  8
PLAN_1
  6
CONTINUOUS
 10
-0.338169
 20
1.787689
  0
VERTEX
  8
PLAN_1
  6
CONTINUOUS
 10
-0.346228
 20
1.853492
  0
VERTEX
  8
PLAN_1
  6
CONTINUOUS
 10
-0.354732
 20
1.926008
  0
VERTEX
  8
PLAN_1
  6
CONTINUOUS
 10
-0.364134
 20
2.003894
  0
SEQEND
  8
0
  0
POLYLINE
  8
PLAN_1
  6
CONTINUOUS
 66
     1
 40
0.008504
 41
0.008504
  0
VERTEX
  8
PLAN_1
  6
CONTINUOUS
 10
-1.525287
 20
1.851701
  0
VERTEX
  8
PLAN_1
  6
CONTINUOUS
 10
-1.501563
 20
1.854835
  0
VERTEX
  8
PLAN_1
  6
CONTINUOUS
 10
-1.477839
 20
1.857520
  0
VERTEX
  8
PLAN_1
  6
CONTINUOUS
 10
-1.454114
 20
1.860205
  0
VERTEX
  8
PLAN_1
  6
CONTINUOUS
 10
-1.429941
 20
1.862890
  0
VERTEX
  8
PLAN_1
  6
CONTINUOUS
 10
-1.406217
 20
1.866024
  0
VERTEX
  8
PLAN_1
  6
CONTINUOUS
 10
-1.382492
 20
1.868709
  0
VERTEX
  8
PLAN_1
  6
CONTINUOUS
 10
-1.359217
 20
1.871394
  0
VERTEX
  8
PLAN_1
  6
CONTINUOUS
 10
-1.335937
 20
1.874083
  0
SEQEND
  8
0
  0
POLYLINE
  8
PLAN_1
  6
CONTINUOUS
 66
     1
 40
0.008504
 41
0.008504
  0
VERTEX
  8
PLAN_1
  6
CONTINUOUS
 10
-1.335937
 20
1.874083
  0
VERTEX
  8
PLAN_1
  6
CONTINUOUS
 10
-1.274614
 20
1.881244
  0
VERTEX
  8
PLAN_1
  6
CONTINUOUS
 10
-1.216870
 20
1.887957
  0
VERTEX
  8
PLAN_1
  6
CONTINUOUS
 10
-1.164496
 20
1.894224
  0
VERTEX
  8
PLAN_1
  6
CONTINUOUS
 10
-1.118390
 20
1.899594
  0
VERTEX
  8
PLAN_1
  6
CONTINUOUS
 10
-1.080343
 20
1.904071
  0
VERTEX
  8
PLAN_1
  6
CONTINUOUS
 10
-1.051244
 20
1.907205
  0
VERTEX
  8
PLAN_1
  6
CONTINUOUS
 10
-1.032894
 20
1.909445
  0
VERTEX
  8
PLAN_1
  6
CONTINUOUS
 10
-1.026626
 20
1.910339
  0
VERTEX
  8
PLAN_1
  6
CONTINUOUS
 10
-1.026177
 20
1.911681
  0
VERTEX
  8
PLAN_1
  6
CONTINUOUS
 10
-1.025728
 20
1.916606
  0
VERTEX
  8
PLAN_1
  6
CONTINUOUS
 10
-1.024835
 20
1.924665
  0
VERTEX
  8
PLAN_1
  6
CONTINUOUS
 10
-1.023492
 20
1.935406
  0
VERTEX
  8
PLAN_1
  6
CONTINUOUS
 10
-1.021701
 20
1.948835
  0
VERTEX
  8
PLAN_1
  6
CONTINUOUS
 10
-1.019909
 20
1.964949
  0
VERTEX
  8
PLAN_1
  6
CONTINUOUS
 10
-1.017673
 20
1.983303
  0
VERTEX
  8
PLAN_1
  6
CONTINUOUS
 10
-1.015433
 20
2.003894
  0
SEQEND
  8
0
  0
POLYLINE
  8
PLAN_1
  6
CONTINUOUS
 66
     1
 40
0.008504
 41
0.008504
  0
VERTEX
  8
PLAN_1
  6
CONTINUOUS
 10
-0.967539
 20
2.399150
  0
VERTEX
  8
PLAN_1
  6
CONTINUOUS
 10
-0.974252
 20
2.344539
  0
VERTEX
  8
PLAN_1
  6
CONTINUOUS
 10
-0.980969
 20
2.289929
  0
VERTEX
  8
PLAN_1
  6
CONTINUOUS
 10
-0.987232
 20
2.235768
  0
VERTEX
  8
PLAN_1
  6
CONTINUOUS
 10
-0.993500
 20
2.182945
  0
VERTEX
  8
PLAN_1
  6
CONTINUOUS
 10
-0.999768
 20
2.132811
  0
VERTEX
  8
PLAN_1
  6
CONTINUOUS
 10
-1.005587
 20
2.085362
  0
VERTEX
  8
PLAN_1
  6
CONTINUOUS
 10
-1.010512
 20
2.042390
  0
VERTEX
  8
PLAN_1
  6
CONTINUOUS
 10
-1.015433
 20
2.003894
  0
SEQEND
  8
0
  0
POLYLINE
  8
PLAN_1
  6
CONTINUOUS
 66
     1
 40
0.008504
 41
0.008504
  0
VERTEX
  8
PLAN_1
  6
CONTINUOUS
 10
-1.525287
 20
1.851701
  0
VERTEX
  8
PLAN_1
  6
CONTINUOUS
 10
-1.520362
 20
1.845882
  0
VERTEX
  8
PLAN_1
  6
CONTINUOUS
 10
-1.515437
 20
1.839614
  0
VERTEX
  8
PLAN_1
  6
CONTINUOUS
 10
-1.510512
 20
1.832898
  0
VERTEX
  8
PLAN_1
  6
CONTINUOUS
 10
-1.505591
 20
1.826634
  0
VERTEX
  8
PLAN_1
  6
CONTINUOUS
 10
-1.501114
 20
1.819917
  0
VERTEX
  8
PLAN_1
  6
CONTINUOUS
 10
-1.496638
 20
1.813205
  0
VERTEX
  8
PLAN_1
  6
CONTINUOUS
 10
-1.492610
 20
1.806488
  0
VERTEX
  8
PLAN_1
  6
CONTINUOUS
 10
-1.488134
 20
1.799776
  0
VERTEX
  8
PLAN_1
  6
CONTINUOUS
 10
-1.480969
 20
1.787240
  0
VERTEX
  8
PLAN_1
  6
CONTINUOUS
 10
-1.474256
 20
1.774709
  0
VERTEX
  8
PLAN_1
  6
CONTINUOUS
 10
-1.467988
 20
1.762173
  0
VERTEX
  8
PLAN_1
  6
CONTINUOUS
 10
-1.462169
 20
1.749193
  0
VERTEX
  8
PLAN_1
  6
CONTINUOUS
 10
-1.456799
 20
1.735764
  0
VERTEX
  8
PLAN_1
  6
CONTINUOUS
 10
-1.451874
 20
1.722335
  0
VERTEX
  8
PLAN_1
  6
CONTINUOUS
 10
-1.446949
 20
1.708457
  0
VERTEX
  8
PLAN_1
  6
CONTINUOUS
 10
-1.442921
 20
1.694583
  0
VERTEX
  8
PLAN_1
  6
CONTINUOUS
 10
-1.439339
 20
1.680705
  0
VERTEX
  8
PLAN_1
  6
CONTINUOUS
 10
-1.436209
 20
1.666382
  0
VERTEX
  8
PLAN_1
  6
CONTINUOUS
 10
-1.433075
 20
1.652055
  0
VERTEX
  8
PLAN_1
  6
CONTINUOUS
 10
-1.430835
 20
1.637283
  0
VERTEX
  8
PLAN_1
  6
CONTINUOUS
 10
-1.429043
 20
1.622512
  0
VERTEX
  8
PLAN_1
  6
CONTINUOUS
 10
-1.427701
 20
1.607740
  0
VERTEX
  8
PLAN_1
  6
CONTINUOUS
 10
-1.427256
 20
1.592524
  0
VERTEX
  8
PLAN_1
  6
CONTINUOUS
 10
-1.426807
 20
1.577303
  0
VERTEX
  8
PLAN_1
  6
CONTINUOUS
 10
-1.427256
 20
1.562083
  0
VERTEX
  8
PLAN_1
  6
CONTINUOUS
 10
-1.428150
 20
1.546417
  0
VERTEX
  8
PLAN_1
  6
CONTINUOUS
 10
-1.429492
 20
1.531197
  0
VERTEX
  8
PLAN_1
  6
CONTINUOUS
 10
-1.431283
 20
1.515976
  0
VERTEX
  8
PLAN_1
  6
CONTINUOUS
 10
-1.433520
 20
1.501205
  0
VERTEX
  8
PLAN_1
  6
CONTINUOUS
 10
-1.436654
 20
1.486433
  0
VERTEX
  8
PLAN_1
  6
CONTINUOUS
 10
-1.439787
 20
1.471661
  0
VERTEX
  8
PLAN_1
  6
CONTINUOUS
 10
-1.443815
 20
1.457339
  0
VERTEX
  8
PLAN_1
  6
CONTINUOUS
 10
-1.448291
 20
1.443012
  0
VERTEX
  8
PLAN_1
  6
CONTINUOUS
 10
-1.452768
 20
1.429138
  0
VERTEX
  8
PLAN_1
  6
CONTINUOUS
 10
-1.458142
 20
1.415260
  0
VERTEX
  8
PLAN_1
  6
CONTINUOUS
 10
-1.463961
 20
1.401831
  0
VERTEX
  8
PLAN_1
  6
CONTINUOUS
 10
-1.470228
 20
1.388402
  0
VERTEX
  8
PLAN_1
  6
CONTINUOUS
 10
-1.476941
 20
1.375421
  0
VERTEX
  8
PLAN_1
  6
CONTINUOUS
 10
-1.483657
 20
1.362886
  0
VERTEX
  8
PLAN_1
  6
CONTINUOUS
 10
-1.491264
 20
1.350354
  0
VERTEX
  8
PLAN_1
  6
CONTINUOUS
 10
-1.495740
 20
1.343193
  0
VERTEX
  8
PLAN_1
  6
CONTINUOUS
 10
-1.500217
 20
1.336476
  0
VERTEX
  8
PLAN_1
  6
CONTINUOUS
 10
-1.504693
 20
1.329764
  0
VERTEX
  8
PLAN_1
  6
CONTINUOUS
 10
-1.509618
 20
1.323496
  0
VERTEX
  8
PLAN_1
  6
CONTINUOUS
 10
-1.514094
 20
1.316783
  0
VERTEX
  8
PLAN_1
  6
CONTINUOUS
 10
-1.519465
 20
1.310516
  0
VERTEX
  8
PLAN_1
  6
CONTINUOUS
 10
-1.524390
 20
1.304248
  0
VERTEX
  8
PLAN_1
  6
CONTINUOUS
 10
-1.529315
 20
1.297980
  0
SEQEND
  8
0
  0
POLYLINE
  8
PLAN_1
  6
CONTINUOUS
 66
     1
 40
0.008504
 41
0.008504
  0
VERTEX
  8
PLAN_1
  6
CONTINUOUS
 10
-1.525287
 20
1.851701
  0
VERTEX
  8
PLAN_1
  6
CONTINUOUS
 10
-1.532894
 20
1.861098
  0
VERTEX
  8
PLAN_1
  6
CONTINUOUS
 10
-1.540504
 20
1.869606
  0
VERTEX
  8
PLAN_1
  6
CONTINUOUS
 10
-1.548563
 20
1.878110
  0
VERTEX
  8
PLAN_1
  6
CONTINUOUS
 10
-1.556618
 20
1.886614
  0
VERTEX
  8
PLAN_1
  6
CONTINUOUS
 10
-1.565126
 20
1.894673
  0
VERTEX
  8
PLAN_1
  6
CONTINUOUS
 10
-1.574079
 20
1.902283
  0
VERTEX
  8
PLAN_1
  6
CONTINUOUS
 10
-1.583031
 20
1.909894
  0
VERTEX
  8
PLAN_1
  6
CONTINUOUS
 10
-1.591984
 20
1.917500
  0
VERTEX
  8
PLAN_1
  6
CONTINUOUS
 10
-1.601382
 20
1.924665
  0
VERTEX
  8
PLAN_1
  6
CONTINUOUS
 10
-1.610783
 20
1.931378
  0
VERTEX
  8
PLAN_1
  6
CONTINUOUS
 10
-1.620630
 20
1.938091
  0
VERTEX
  8
PLAN_1
  6
CONTINUOUS
 10
-1.630480
 20
1.944358
  0
VERTEX
  8
PLAN_1
  6
CONTINUOUS
 10
-1.640327
 20
1.950626
  0
VERTEX
  8
PLAN_1
  6
CONTINUOUS
 10
-1.650622
 20
1.956445
  0
VERTEX
  8
PLAN_1
  6
CONTINUOUS
 10
-1.660917
 20
1.962264
  0
VERTEX
  8
PLAN_1
  6
CONTINUOUS
 10
-1.671661
 20
1.967638
  0
VERTEX
  8
PLAN_1
  6
CONTINUOUS
 10
-1.682406
 20
1.972559
  0
VERTEX
  8
PLAN_1
  6
CONTINUOUS
 10
-1.693146
 20
1.977035
  0
VERTEX
  8
PLAN_1
  6
CONTINUOUS
 10
-1.704339
 20
1.981512
  0
VERTEX
  8
PLAN_1
  6
CONTINUOUS
 10
-1.715528
 20
1.985988
  0
VERTEX
  8
PLAN_1
  6
CONTINUOUS
 10
-1.727165
 20
1.989571
  0
VERTEX
  8
PLAN_1
  6
CONTINUOUS
 10
-1.738358
 20
1.993150
  0
VERTEX
  8
PLAN_1
  6
CONTINUOUS
 10
-1.749996
 20
1.996283
  0
VERTEX
  8
PLAN_1
  6
CONTINUOUS
 10
-1.761634
 20
1.999417
  0
VERTEX
  8
PLAN_1
  6
CONTINUOUS
 10
-1.773720
 20
2.001657
  0
VERTEX
  8
PLAN_1
  6
CONTINUOUS
 10
-1.785807
 20
2.003894
  0
VERTEX
  8
PLAN_1
  6
CONTINUOUS
 10
-1.797894
 20
2.006134
  0
VERTEX
  8
PLAN_1
  6
CONTINUOUS
 10
-1.809980
 20
2.007476
  0
VERTEX
  8
PLAN_1
  6
CONTINUOUS
 10
-1.822512
 20
2.008819
  0
VERTEX
  8
PLAN_1
  6
CONTINUOUS
 10
-1.834598
 20
2.009713
  0
VERTEX
  8
PLAN_1
  6
CONTINUOUS
 10
-1.847130
 20
2.010161
  0
VERTEX
  8
PLAN_1
  6
CONTINUOUS
 10
-1.859665
 20
2.010610
  0
VERTEX
  8
PLAN_1
  6
CONTINUOUS
 10
-1.882047
 20
2.009713
  0
VERTEX
  8
PLAN_1
  6
CONTINUOUS
 10
-1.903980
 20
2.008370
  0
VERTEX
  8
PLAN_1
  6
CONTINUOUS
 10
-1.925913
 20
2.005685
  0
VERTEX
  8
PLAN_1
  6
CONTINUOUS
 10
-1.946953
 20
2.001657
  0
VERTEX
  8
PLAN_1
  6
CONTINUOUS
 10
-1.967992
 20
1.996732
  0
VERTEX
  8
PLAN_1
  6
CONTINUOUS
 10
-1.988583
 20
1.990913
  0
VERTEX
  8
PLAN_1
  6
CONTINUOUS
 10
-2.008724
 20
1.984197
  0
VERTEX
  8
PLAN_1
  6
CONTINUOUS
 10
-2.028421
 20
1.976591
  0
VERTEX
  8
PLAN_1
  6
CONTINUOUS
 10
-2.047669
 20
1.967638
  0
VERTEX
  8
PLAN_1
  6
CONTINUOUS
 10
-2.066024
 20
1.958236
  0
VERTEX
  8
PLAN_1
  6
CONTINUOUS
 10
-2.084374
 20
1.947941
  0
VERTEX
  8
PLAN_1
  6
CONTINUOUS
 10
-2.101835
 20
1.936303
  0
VERTEX
  8
PLAN_1
  6
CONTINUOUS
 10
-2.118843
 20
1.924217
  0
VERTEX
  8
PLAN_1
  6
CONTINUOUS
 10
-2.135406
 20
1.911681
  0
VERTEX
  8
PLAN_1
  6
CONTINUOUS
 10
-2.151071
 20
1.897807
  0
VERTEX
  8
PLAN_1
  6
CONTINUOUS
 10
-2.165843
 20
1.883480
  0
VERTEX
  8
PLAN_1
  6
CONTINUOUS
 10
-2.180169
 20
1.868709
  0
VERTEX
  8
PLAN_1
  6
CONTINUOUS
 10
-2.194043
 20
1.853043
  0
VERTEX
  8
PLAN_1
  6
CONTINUOUS
 10
-2.207028
 20
1.836480
  0
VERTEX
  8
PLAN_1
  6
CONTINUOUS
 10
-2.219114
 20
1.819469
  0
VERTEX
  8
PLAN_1
  6
CONTINUOUS
 10
-2.230303
 20
1.802012
  0
VERTEX
  8
PLAN_1
  6
CONTINUOUS
 10
-2.240598
 20
1.783661
  0
VERTEX
  8
PLAN_1
  6
CONTINUOUS
 10
-2.250000
 20
1.765307
  0
VERTEX
  8
PLAN_1
  6
CONTINUOUS
 10
-2.258953
 20
1.746059
  0
VERTEX
  8
PLAN_1
  6
CONTINUOUS
 10
-2.266563
 20
1.726362
  0
VERTEX
  8
PLAN_1
  6
CONTINUOUS
 10
-2.273276
 20
1.706220
  0
VERTEX
  8
PLAN_1
  6
CONTINUOUS
 10
-2.279094
 20
1.685630
  0
VERTEX
  8
PLAN_1
  6
CONTINUOUS
 10
-2.284020
 20
1.664591
  0
VERTEX
  8
PLAN_1
  6
CONTINUOUS
 10
-2.288047
 20
1.643551
  0
VERTEX
  8
PLAN_1
  6
CONTINUOUS
 10
-2.290732
 20
1.621618
  0
VERTEX
  8
PLAN_1
  6
CONTINUOUS
 10
-2.292075
 20
1.599685
  0
VERTEX
  8
PLAN_1
  6
CONTINUOUS
 10
-2.292972
 20
1.577303
  0
VERTEX
  8
PLAN_1
  6
CONTINUOUS
 10
-2.292075
 20
1.555370
  0
VERTEX
  8
PLAN_1
  6
CONTINUOUS
 10
-2.290732
 20
1.533433
  0
VERTEX
  8
PLAN_1
  6
CONTINUOUS
 10
-2.288047
 20
1.511500
  0
VERTEX
  8
PLAN_1
  6
CONTINUOUS
 10
-2.284020
 20
1.490016
  0
VERTEX
  8
PLAN_1
  6
CONTINUOUS
 10
-2.279094
 20
1.469425
  0
VERTEX
  8
PLAN_1
  6
CONTINUOUS
 10
-2.273276
 20
1.448831
  0
VERTEX
  8
PLAN_1
  6
CONTINUOUS
 10
-2.266563
 20
1.428689
  0
VERTEX
  8
PLAN_1
  6
CONTINUOUS
 10
-2.258953
 20
1.408992
  0
VERTEX
  8
PLAN_1
  6
CONTINUOUS
 10
-2.250000
 20
1.389744
  0
VERTEX
  8
PLAN_1
  6
CONTINUOUS
 10
-2.240598
 20
1.370945
  0
VERTEX
  8
PLAN_1
  6
CONTINUOUS
 10
-2.230303
 20
1.353039
  0
VERTEX
  8
PLAN_1
  6
CONTINUOUS
 10
-2.219114
 20
1.335583
  0
VERTEX
  8
PLAN_1
  6
CONTINUOUS
 10
-2.207028
 20
1.318571
  0
VERTEX
  8
PLAN_1
  6
CONTINUOUS
 10
-2.194043
 20
1.302012
  0
VERTEX
  8
PLAN_1
  6
CONTINUOUS
 10
-2.180169
 20
1.286343
  0
VERTEX
  8
PLAN_1
  6
CONTINUOUS
 10
-2.165843
 20
1.271122
  0
VERTEX
  8
PLAN_1
  6
CONTINUOUS
 10
-2.151071
 20
1.256799
  0
VERTEX
  8
PLAN_1
  6
CONTINUOUS
 10
-2.135406
 20
1.243370
  0
VERTEX
  8
PLAN_1
  6
CONTINUOUS
 10
-2.118843
 20
1.230390
  0
VERTEX
  8
PLAN_1
  6
CONTINUOUS
 10
-2.101835
 20
1.218303
  0
VERTEX
  8
PLAN_1
  6
CONTINUOUS
 10
-2.084374
 20
1.207114
  0
VERTEX
  8
PLAN_1
  6
CONTINUOUS
 10
-2.066024
 20
1.196815
  0
VERTEX
  8
PLAN_1
  6
CONTINUOUS
 10
-2.047669
 20
1.187417
  0
VERTEX
  8
PLAN_1
  6
CONTINUOUS
 10
-2.028421
 20
1.178465
  0
VERTEX
  8
PLAN_1
  6
CONTINUOUS
 10
-2.008724
 20
1.170854
  0
VERTEX
  8
PLAN_1
  6
CONTINUOUS
 10
-1.988583
 20
1.164142
  0
VERTEX
  8
PLAN_1
  6
CONTINUOUS
 10
-1.967992
 20
1.158319
  0
VERTEX
  8
PLAN_1
  6
CONTINUOUS
 10
-1.946953
 20
1.153398
  0
VERTEX
  8
PLAN_1
  6
CONTINUOUS
 10
-1.925913
 20
1.149366
  0
VERTEX
  8
PLAN_1
  6
CONTINUOUS
 10
-1.903980
 20
1.146681
  0
VERTEX
  8
PLAN_1
  6
CONTINUOUS
 10
-1.882047
 20
1.144894
  0
VERTEX
  8
PLAN_1
  6
CONTINUOUS
 10
-1.859665
 20
1.144445
  0
VERTEX
  8
PLAN_1
  6
CONTINUOUS
 10
-1.847579
 20
1.144894
  0
VERTEX
  8
PLAN_1
  6
CONTINUOUS
 10
-1.835047
 20
1.145339
  0
VERTEX
  8
PLAN_1
  6
CONTINUOUS
 10
-1.822961
 20
1.146236
  0
VERTEX
  8
PLAN_1
  6
CONTINUOUS
 10
-1.810874
 20
1.147130
  0
VERTEX
  8
PLAN_1
  6
CONTINUOUS
 10
-1.798787
 20
1.148921
  0
VERTEX
  8
PLAN_1
  6
CONTINUOUS
 10
-1.787150
 20
1.150713
  0
VERTEX
  8
PLAN_1
  6
CONTINUOUS
 10
-1.775063
 20
1.152949
  0
VERTEX
  8
PLAN_1
  6
CONTINUOUS
 10
-1.763425
 20
1.155189
  0
VERTEX
  8
PLAN_1
  6
CONTINUOUS
 10
-1.751787
 20
1.158319
  0
VERTEX
  8
PLAN_1
  6
CONTINUOUS
 10
-1.740594
 20
1.161008
  0
VERTEX
  8
PLAN_1
  6
CONTINUOUS
 10
-1.729406
 20
1.164587
  0
VERTEX
  8
PLAN_1
  6
CONTINUOUS
 10
-1.718213
 20
1.168169
  0
VERTEX
  8
PLAN_1
  6
CONTINUOUS
 10
-1.707024
 20
1.172197
  0
VERTEX
  8
PLAN_1
  6
CONTINUOUS
 10
-1.696280
 20
1.176673
  0
VERTEX
  8
PLAN_1
  6
CONTINUOUS
 10
-1.685535
 20
1.181150
  0
VERTEX
  8
PLAN_1
  6
CONTINUOUS
 10
-1.674795
 20
1.186075
  0
VERTEX
  8
PLAN_1
  6
CONTINUOUS
 10
-1.664500
 20
1.190996
  0
VERTEX
  8
PLAN_1
  6
CONTINUOUS
 10
-1.654205
 20
1.196370
  0
VERTEX
  8
PLAN_1
  6
CONTINUOUS
 10
-1.643909
 20
1.202189
  0
VERTEX
  8
PLAN_1
  6
CONTINUOUS
 10
-1.634059
 20
1.208008
  0
VERTEX
  8
PLAN_1
  6
CONTINUOUS
 10
-1.624213
 20
1.214276
  0
VERTEX
  8
PLAN_1
  6
CONTINUOUS
 10
-1.614811
 20
1.220988
  0
VERTEX
  8
PLAN_1
  6
CONTINUOUS
 10
-1.605409
 20
1.227256
  0
VERTEX
  8
PLAN_1
  6
CONTINUOUS
 10
-1.596012
 20
1.234417
  0
VERTEX
  8
PLAN_1
  6
CONTINUOUS
 10
-1.587059
 20
1.241579
  0
VERTEX
  8
PLAN_1
  6
CONTINUOUS
 10
-1.578106
 20
1.248740
  0
VERTEX
  8
PLAN_1
  6
CONTINUOUS
 10
-1.569602
 20
1.256350
  0
VERTEX
  8
PLAN_1
  6
CONTINUOUS
 10
-1.561094
 20
1.264409
  0
VERTEX
  8
PLAN_1
  6
CONTINUOUS
 10
-1.553039
 20
1.272465
  0
VERTEX
  8
PLAN_1
  6
CONTINUOUS
 10
-1.544980
 20
1.280524
  0
VERTEX
  8
PLAN_1
  6
CONTINUOUS
 10
-1.536925
 20
1.289028
  0
VERTEX
  8
PLAN_1
  6
CONTINUOUS
 10
-1.529315
 20
1.297980
  0
SEQEND
  8
0
  0
POLYLINE
  8
PLAN_1
  6
CONTINUOUS
 66
     1
 40
0.008504
 41
0.008504
  0
VERTEX
  8
PLAN_1
  6
CONTINUOUS
 10
-2.116606
 20
1.574169
  0
VERTEX
  8
PLAN_1
  6
CONTINUOUS
 10
-1.995299
 20
1.799776
  0
VERTEX
  8
PLAN_1
  6
CONTINUOUS
 10
-1.728063
 20
1.799776
  0
VERTEX
  8
PLAN_1
  6
CONTINUOUS
 10
-1.603173
 20
1.574169
  0
VERTEX
  8
PLAN_1
  6
CONTINUOUS
 10
-1.728063
 20
1.358858
  0
VERTEX
  8
PLAN_1
  6
CONTINUOUS
 10
-1.995299
 20
1.358858
  0
VERTEX
  8
PLAN_1
  6
CONTINUOUS
 10
-2.116606
 20
1.574169
  0
SEQEND
  8
0
  0
POLYLINE
  8
PLAN_1
  6
CONTINUOUS
 66
     1
 40
0.008504
 41
0.008504
  0
VERTEX
  8
PLAN_1
  6
CONTINUOUS
 10
-0.689559
 20
1.200398
  0
VERTEX
  8
PLAN_1
  6
CONTINUOUS
 10
-0.670311
 20
1.200846
  0
VERTEX
  8
PLAN_1
  6
CONTINUOUS
 10
-0.651063
 20
1.202189
  0
VERTEX
  8
PLAN_1
  6
CONTINUOUS
 10
-0.632713
 20
1.204874
  0
VERTEX
  8
PLAN_1
  6
CONTINUOUS
 10
-0.613909
 20
1.208008
  0
VERTEX
  8
PLAN_1
  6
CONTINUOUS
 10
-0.596004
 20
1.212035
  0
VERTEX
  8
PLAN_1
  6
CONTINUOUS
 10
-0.578098
 20
1.217409
  0
VERTEX
  8
PLAN_1
  6
CONTINUOUS
 10
-0.561091
 20
1.223228
  0
VERTEX
  8
PLAN_1
  6
CONTINUOUS
 10
-0.544079
 20
1.229941
  0
VERTEX
  8
PLAN_1
  6
CONTINUOUS
 10
-0.527520
 20
1.237102
  0
VERTEX
  8
PLAN_1
  6
CONTINUOUS
 10
-0.511402
 20
1.245610
  0
VERTEX
  8
PLAN_1
  6
CONTINUOUS
 10
-0.495736
 20
1.254563
  0
VERTEX
  8
PLAN_1
  6
CONTINUOUS
 10
-0.480516
 20
1.264409
  0
VERTEX
  8
PLAN_1
  6
CONTINUOUS
 10
-0.465744
 20
1.274705
  0
VERTEX
  8
PLAN_1
  6
CONTINUOUS
 10
-0.451421
 20
1.285894
  0
VERTEX
  8
PLAN_1
  6
CONTINUOUS
 10
-0.437992
 20
1.297535
  0
VERTEX
  8
PLAN_1
  6
CONTINUOUS
 10
-0.425012
 20
1.310067
  0
VERTEX
  8
PLAN_1
  6
CONTINUOUS
 10
-0.412925
 20
1.323047
  0
VERTEX
  8
PLAN_1
  6
CONTINUOUS
 10
-0.400839
 20
1.336476
  0
VERTEX
  8
PLAN_1
  6
CONTINUOUS
 10
-0.389650
 20
1.350803
  0
VERTEX
  8
PLAN_1
  6
CONTINUOUS
 10
-0.379350
 20
1.365126
  0
VERTEX
  8
PLAN_1
  6
CONTINUOUS
 10
-0.369504
 20
1.380346
  0
VERTEX
  8
PLAN_1
  6
CONTINUOUS
 10
-0.360551
 20
1.396012
  0
VERTEX
  8
PLAN_1
  6
CONTINUOUS
 10
-0.352496
 20
1.412126
  0
VERTEX
  8
PLAN_1
  6
CONTINUOUS
 10
-0.344886
 20
1.428689
  0
VERTEX
  8
PLAN_1
  6
CONTINUOUS
 10
-0.338169
 20
1.445701
  0
VERTEX
  8
PLAN_1
  6
CONTINUOUS
 10
-0.332350
 20
1.463157
  0
VERTEX
  8
PLAN_1
  6
CONTINUOUS
 10
-0.327425
 20
1.481063
  0
VERTEX
  8
PLAN_1
  6
CONTINUOUS
 10
-0.322953
 20
1.498969
  0
VERTEX
  8
PLAN_1
  6
CONTINUOUS
 10
-0.319819
 20
1.517319
  0
VERTEX
  8
PLAN_1
  6
CONTINUOUS
 10
-0.317579
 20
1.536122
  0
VERTEX
  8
PLAN_1
  6
CONTINUOUS
 10
-0.316236
 20
1.554921
  0
VERTEX
  8
PLAN_1
  6
CONTINUOUS
 10
-0.315343
 20
1.574169
  0
VERTEX
  8
PLAN_1
  6
CONTINUOUS
 10
-0.316236
 20
1.593417
  0
VERTEX
  8
PLAN_1
  6
CONTINUOUS
 10
-0.317579
 20
1.612665
  0
VERTEX
  8
PLAN_1
  6
CONTINUOUS
 10
-0.319819
 20
1.631465
  0
VERTEX
  8
PLAN_1
  6
CONTINUOUS
 10
-0.322953
 20
1.649819
  0
VERTEX
  8
PLAN_1
  6
CONTINUOUS
 10
-0.327425
 20
1.667724
  0
VERTEX
  8
PLAN_1
  6
CONTINUOUS
 10
-0.332350
 20
1.685630
  0
VERTEX
  8
PLAN_1
  6
CONTINUOUS
 10
-0.338169
 20
1.703087
  0
VERTEX
  8
PLAN_1
  6
CONTINUOUS
 10
-0.344886
 20
1.720098
  0
VERTEX
  8
PLAN_1
  6
CONTINUOUS
 10
-0.352496
 20
1.736657
  0
VERTEX
  8
PLAN_1
  6
CONTINUOUS
 10
-0.360551
 20
1.752772
  0
VERTEX
  8
PLAN_1
  6
CONTINUOUS
 10
-0.369504
 20
1.768441
  0
VERTEX
  8
PLAN_1
  6
CONTINUOUS
 10
-0.379350
 20
1.783213
  0
VERTEX
  8
PLAN_1
  6
CONTINUOUS
 10
-0.389650
 20
1.797984
  0
VERTEX
  8
PLAN_1
  6
CONTINUOUS
 10
-0.400839
 20
1.812307
  0
VERTEX
  8
PLAN_1
  6
CONTINUOUS
 10
-0.412925
 20
1.825736
  0
VERTEX
  8
PLAN_1
  6
CONTINUOUS
 10
-0.425012
 20
1.838720
  0
VERTEX
  8
PLAN_1
  6
CONTINUOUS
 10
-0.437992
 20
1.851252
  0
VERTEX
  8
PLAN_1
  6
CONTINUOUS
 10
-0.451421
 20
1.862890
  0
VERTEX
  8
PLAN_1
  6
CONTINUOUS
 10
-0.465744
 20
1.874083
  0
VERTEX
  8
PLAN_1
  6
CONTINUOUS
 10
-0.480516
 20
1.884378
  0
VERTEX
  8
PLAN_1
  6
CONTINUOUS
 10
-0.495736
 20
1.894224
  0
VERTEX
  8
PLAN_1
  6
CONTINUOUS
 10
-0.511402
 20
1.903177
  0
VERTEX
  8
PLAN_1
  6
CONTINUOUS
 10
-0.527520
 20
1.911236
  0
VERTEX
  8
PLAN_1
  6
CONTINUOUS
 10
-0.544079
 20
1.918843
  0
VERTEX
  8
PLAN_1
  6
CONTINUOUS
 10
-0.561091
 20
1.925559
  0
VERTEX
  8
PLAN_1
  6
CONTINUOUS
 10
-0.578098
 20
1.931378
  0
VERTEX
  8
PLAN_1
  6
CONTINUOUS
 10
-0.596004
 20
1.936303
  0
VERTEX
  8
PLAN_1
  6
CONTINUOUS
 10
-0.613909
 20
1.940780
  0
VERTEX
  8
PLAN_1
  6
CONTINUOUS
 10
-0.632713
 20
1.943913
  0
VERTEX
  8
PLAN_1
  6
CONTINUOUS
 10
-0.651063
 20
1.946150
  0
VERTEX
  8
PLAN_1
  6
CONTINUOUS
 10
-0.670311
 20
1.947941
  0
VERTEX
  8
PLAN_1
  6
CONTINUOUS
 10
-0.689559
 20
1.948390
  0
VERTEX
  8
PLAN_1
  6
CONTINUOUS
 10
-0.708807
 20
1.947941
  0
VERTEX
  8
PLAN_1
  6
CONTINUOUS
 10
-0.727610
 20
1.946150
  0
VERTEX
  8
PLAN_1
  6
CONTINUOUS
 10
-0.746409
 20
1.943913
  0
VERTEX
  8
PLAN_1
  6
CONTINUOUS
 10
-0.764764
 20
1.940780
  0
VERTEX
  8
PLAN_1
  6
CONTINUOUS
 10
-0.783114
 20
1.936303
  0
VERTEX
  8
PLAN_1
  6
CONTINUOUS
 10
-0.800571
 20
1.931378
  0
VERTEX
  8
PLAN_1
  6
CONTINUOUS
 10
-0.818031
 20
1.925559
  0
VERTEX
  8
PLAN_1
  6
CONTINUOUS
 10
-0.835039
 20
1.918843
  0
VERTEX
  8
PLAN_1
  6
CONTINUOUS
 10
-0.851602
 20
1.911236
  0
VERTEX
  8
PLAN_1
  6
CONTINUOUS
 10
-0.867717
 20
1.903177
  0
VERTEX
  8
PLAN_1
  6
CONTINUOUS
 10
-0.883382
 20
1.894224
  0
VERTEX
  8
PLAN_1
  6
CONTINUOUS
 10
-0.898602
 20
1.884378
  0
VERTEX
  8
PLAN_1
  6
CONTINUOUS
 10
-0.913374
 20
1.874083
  0
VERTEX
  8
PLAN_1
  6
CONTINUOUS
 10
-0.927252
 20
1.862890
  0
VERTEX
  8
PLAN_1
  6
CONTINUOUS
 10
-0.941130
 20
1.851252
  0
VERTEX
  8
PLAN_1
  6
CONTINUOUS
 10
-0.954110
 20
1.838720
  0
VERTEX
  8
PLAN_1
  6
CONTINUOUS
 10
-0.966197
 20
1.825736
  0
VERTEX
  8
PLAN_1
  6
CONTINUOUS
 10
-0.977835
 20
1.812307
  0
VERTEX
  8
PLAN_1
  6
CONTINUOUS
 10
-0.989024
 20
1.797984
  0
VERTEX
  8
PLAN_1
  6
CONTINUOUS
 10
-0.999768
 20
1.783213
  0
VERTEX
  8
PLAN_1
  6
CONTINUOUS
 10
-1.009169
 20
1.768441
  0
VERTEX
  8
PLAN_1
  6
CONTINUOUS
 10
-1.018122
 20
1.752772
  0
VERTEX
  8
PLAN_1
  6
CONTINUOUS
 10
-1.026626
 20
1.736657
  0
VERTEX
  8
PLAN_1
  6
CONTINUOUS
 10
-1.034236
 20
1.720098
  0
VERTEX
  8
PLAN_1
  6
CONTINUOUS
 10
-1.040949
 20
1.703087
  0
VERTEX
  8
PLAN_1
  6
CONTINUOUS
 10
-1.046768
 20
1.685630
  0
VERTEX
  8
PLAN_1
  6
CONTINUOUS
 10
-1.051693
 20
1.667724
  0
VERTEX
  8
PLAN_1
  6
CONTINUOUS
 10
-1.055720
 20
1.649819
  0
VERTEX
  8
PLAN_1
  6
CONTINUOUS
 10
-1.059303
 20
1.631465
  0
VERTEX
  8
PLAN_1
  6
CONTINUOUS
 10
-1.061539
 20
1.612665
  0
VERTEX
  8
PLAN_1
  6
CONTINUOUS
 10
-1.062882
 20
1.593417
  0
VERTEX
  8
PLAN_1
  6
CONTINUOUS
 10
-1.063331
 20
1.574169
  0
VERTEX
  8
PLAN_1
  6
CONTINUOUS
 10
-1.062882
 20
1.554921
  0
VERTEX
  8
PLAN_1
  6
CONTINUOUS
 10
-1.061539
 20
1.536122
  0
VERTEX
  8
PLAN_1
  6
CONTINUOUS
 10
-1.059303
 20
1.517319
  0
VERTEX
  8
PLAN_1
  6
CONTINUOUS
 10
-1.055720
 20
1.498969
  0
VERTEX
  8
PLAN_1
  6
CONTINUOUS
 10
-1.051693
 20
1.481063
  0
VERTEX
  8
PLAN_1
  6
CONTINUOUS
 10
-1.046768
 20
1.463157
  0
VERTEX
  8
PLAN_1
  6
CONTINUOUS
 10
-1.040949
 20
1.445701
  0
VERTEX
  8
PLAN_1
  6
CONTINUOUS
 10
-1.034236
 20
1.428689
  0
VERTEX
  8
PLAN_1
  6
CONTINUOUS
 10
-1.026626
 20
1.412126
  0
VERTEX
  8
PLAN_1
  6
CONTINUOUS
 10
-1.018122
 20
1.396012
  0
VERTEX
  8
PLAN_1
  6
CONTINUOUS
 10
-1.009169
 20
1.380346
  0
VERTEX
  8
PLAN_1
  6
CONTINUOUS
 10
-0.999768
 20
1.365126
  0
VERTEX
  8
PLAN_1
  6
CONTINUOUS
 10
-0.989024
 20
1.350803
  0
VERTEX
  8
PLAN_1
  6
CONTINUOUS
 10
-0.977835
 20
1.336476
  0
VERTEX
  8
PLAN_1
  6
CONTINUOUS
 10
-0.966197
 20
1.323047
  0
VERTEX
  8
PLAN_1
  6
CONTINUOUS
 10
-0.954110
 20
1.310067
  0
VERTEX
  8
PLAN_1
  6
CONTINUOUS
 10
-0.941130
 20
1.297535
  0
VERTEX
  8
PLAN_1
  6
CONTINUOUS
 10
-0.927252
 20
1.285894
  0
VERTEX
  8
PLAN_1
  6
CONTINUOUS
 10
-0.913374
 20
1.274705
  0
VERTEX
  8
PLAN_1
  6
CONTINUOUS
 10
-0.898602
 20
1.264409
  0
VERTEX
  8
PLAN_1
  6
CONTINUOUS
 10
-0.883382
 20
1.254563
  0
VERTEX
  8
PLAN_1
  6
CONTINUOUS
 10
-0.867717
 20
1.245610
  0
VERTEX
  8
PLAN_1
  6
CONTINUOUS
 10
-0.851602
 20
1.237102
  0
VERTEX
  8
PLAN_1
  6
CONTINUOUS
 10
-0.835039
 20
1.229941
  0
VERTEX
  8
PLAN_1
  6
CONTINUOUS
 10
-0.818031
 20
1.223228
  0
VERTEX
  8
PLAN_1
  6
CONTINUOUS
 10
-0.800571
 20
1.217409
  0
VERTEX
  8
PLAN_1
  6
CONTINUOUS
 10
-0.783114
 20
1.212035
  0
VERTEX
  8
PLAN_1
  6
CONTINUOUS
 10
-0.764764
 20
1.208008
  0
VERTEX
  8
PLAN_1
  6
CONTINUOUS
 10
-0.746409
 20
1.204874
  0
VERTEX
  8
PLAN_1
  6
CONTINUOUS
 10
-0.727610
 20
1.202189
  0
VERTEX
  8
PLAN_1
  6
CONTINUOUS
 10
-0.708807
 20
1.200846
  0
VERTEX
  8
PLAN_1
  6
CONTINUOUS
 10
-0.689559
 20
1.200398
  0
SEQEND
  8
0
  0
POLYLINE
  8
PLAN_1
  6
CONTINUOUS
 66
     1
 40
0.008504
 41
0.008504
  0
VERTEX
  8
PLAN_1
  6
CONTINUOUS
 10
-0.689114
 20
1.446146
  0
VERTEX
  8
PLAN_1
  6
CONTINUOUS
 10
-0.682846
 20
1.446594
  0
VERTEX
  8
PLAN_1
  6
CONTINUOUS
 10
-0.676130
 20
1.447043
  0
VERTEX
  8
PLAN_1
  6
CONTINUOUS
 10
-0.669866
 20
1.447488
  0
VERTEX
  8
PLAN_1
  6
CONTINUOUS
 10
-0.663598
 20
1.448831
  0
VERTEX
  8
PLAN_1
  6
CONTINUOUS
 10
-0.657331
 20
1.450177
  0
VERTEX
  8
PLAN_1
  6
CONTINUOUS
 10
-0.651063
 20
1.451965
  0
VERTEX
  8
PLAN_1
  6
CONTINUOUS
 10
-0.645244
 20
1.454205
  0
VERTEX
  8
PLAN_1
  6
CONTINUOUS
 10
-0.639425
 20
1.456441
  0
VERTEX
  8
PLAN_1
  6
CONTINUOUS
 10
-0.634055
 20
1.458681
  0
VERTEX
  8
PLAN_1
  6
CONTINUOUS
 10
-0.628236
 20
1.461815
  0
VERTEX
  8
PLAN_1
  6
CONTINUOUS
 10
-0.622862
 20
1.464949
  0
VERTEX
  8
PLAN_1
  6
CONTINUOUS
 10
-0.617941
 20
1.468083
  0
VERTEX
  8
PLAN_1
  6
CONTINUOUS
 10
-0.612567
 20
1.471661
  0
VERTEX
  8
PLAN_1
  6
CONTINUOUS
 10
-0.608091
 20
1.475244
  0
VERTEX
  8
PLAN_1
  6
CONTINUOUS
 10
-0.603169
 20
1.479272
  0
VERTEX
  8
PLAN_1
  6
CONTINUOUS
 10
-0.598693
 20
1.483748
  0
VERTEX
  8
PLAN_1
  6
CONTINUOUS
 10
-0.594661
 20
1.488224
  0
VERTEX
  8
PLAN_1
  6
CONTINUOUS
 10
-0.590634
 20
1.492701
  0
VERTEX
  8
PLAN_1
  6
CONTINUOUS
 10
-0.586606
 20
1.497626
  0
VERTEX
  8
PLAN_1
  6
CONTINUOUS
 10
-0.583024
 20
1.502547
  0
VERTEX
  8
PLAN_1
  6
CONTINUOUS
 10
-0.579890
 20
1.507921
  0
VERTEX
  8
PLAN_1
  6
CONTINUOUS
 10
-0.576756
 20
1.513291
  0
VERTEX
  8
PLAN_1
  6
CONTINUOUS
 10
-0.574071
 20
1.518661
  0
VERTEX
  8
PLAN_1
  6
CONTINUOUS
 10
-0.571386
 20
1.524480
  0
VERTEX
  8
PLAN_1
  6
CONTINUOUS
 10
-0.569146
 20
1.530303
  0
VERTEX
  8
PLAN_1
  6
CONTINUOUS
 10
-0.567358
 20
1.536122
  0
VERTEX
  8
PLAN_1
  6
CONTINUOUS
 10
-0.565567
 20
1.542386
  0
VERTEX
  8
PLAN_1
  6
CONTINUOUS
 10
-0.563776
 20
1.548205
  0
VERTEX
  8
PLAN_1
  6
CONTINUOUS
 10
-0.562882
 20
1.554472
  0
VERTEX
  8
PLAN_1
  6
CONTINUOUS
 10
-0.561984
 20
1.561189
  0
VERTEX
  8
PLAN_1
  6
CONTINUOUS
 10
-0.561539
 20
1.567453
  0
VERTEX
  8
PLAN_1
  6
CONTINUOUS
 10
-0.561539
 20
1.574169
  0
VERTEX
  8
PLAN_1
  6
CONTINUOUS
 10
-0.561539
 20
1.580882
  0
VERTEX
  8
PLAN_1
  6
CONTINUOUS
 10
-0.561984
 20
1.587150
  0
VERTEX
  8
PLAN_1
  6
CONTINUOUS
 10
-0.562882
 20
1.593417
  0
VERTEX
  8
PLAN_1
  6
CONTINUOUS
 10
-0.563776
 20
1.600130
  0
VERTEX
  8
PLAN_1
  6
CONTINUOUS
 10
-0.565567
 20
1.605953
  0
VERTEX
  8
PLAN_1
  6
CONTINUOUS
 10
-0.567358
 20
1.612217
  0
VERTEX
  8
PLAN_1
  6
CONTINUOUS
 10
-0.569146
 20
1.618035
  0
VERTEX
  8
PLAN_1
  6
CONTINUOUS
 10
-0.571386
 20
1.623854
  0
VERTEX
  8
PLAN_1
  6
CONTINUOUS
 10
-0.574071
 20
1.629677
  0
VERTEX
  8
PLAN_1
  6
CONTINUOUS
 10
-0.576756
 20
1.635047
  0
VERTEX
  8
PLAN_1
  6
CONTINUOUS
 10
-0.579890
 20
1.640417
  0
VERTEX
  8
PLAN_1
  6
CONTINUOUS
 10
-0.583024
 20
1.645791
  0
VERTEX
  8
PLAN_1
  6
CONTINUOUS
 10
-0.586606
 20
1.650713
  0
VERTEX
  8
PLAN_1
  6
CONTINUOUS
 10
-0.590634
 20
1.655638
  0
VERTEX
  8
PLAN_1
  6
CONTINUOUS
 10
-0.594661
 20
1.660114
  0
VERTEX
  8
PLAN_1
  6
CONTINUOUS
 10
-0.598693
 20
1.664591
  0
VERTEX
  8
PLAN_1
  6
CONTINUOUS
 10
-0.603169
 20
1.668618
  0
VERTEX
  8
PLAN_1
  6
CONTINUOUS
 10
-0.608091
 20
1.672650
  0
VERTEX
  8
PLAN_1
  6
CONTINUOUS
 10
-0.612567
 20
1.676677
  0
VERTEX
  8
PLAN_1
  6
CONTINUOUS
 10
-0.617941
 20
1.680256
  0
VERTEX
  8
PLAN_1
  6
CONTINUOUS
 10
-0.622862
 20
1.683390
  0
VERTEX
  8
PLAN_1
  6
CONTINUOUS
 10
-0.628236
 20
1.686524
  0
VERTEX
  8
PLAN_1
  6
CONTINUOUS
 10
-0.634055
 20
1.689657
  0
VERTEX
  8
PLAN_1
  6
CONTINUOUS
 10
-0.639425
 20
1.691898
  0
VERTEX
  8
PLAN_1
  6
CONTINUOUS
 10
-0.645244
 20
1.694134
  0
VERTEX
  8
PLAN_1
  6
CONTINUOUS
 10
-0.651063
 20
1.696374
  0
VERTEX
  8
PLAN_1
  6
CONTINUOUS
 10
-0.657331
 20
1.698161
  0
VERTEX
  8
PLAN_1
  6
CONTINUOUS
 10
-0.663598
 20
1.699504
  0
VERTEX
  8
PLAN_1
  6
CONTINUOUS
 10
-0.669866
 20
1.700402
  0
VERTEX
  8
PLAN_1
  6
CONTINUOUS
 10
-0.676130
 20
1.701295
  0
VERTEX
  8
PLAN_1
  6
CONTINUOUS
 10
-0.682846
 20
1.701744
  0
VERTEX
  8
PLAN_1
  6
CONTINUOUS
 10
-0.689114
 20
1.702193
  0
VERTEX
  8
PLAN_1
  6
CONTINUOUS
 10
-0.695827
 20
1.701744
  0
VERTEX
  8
PLAN_1
  6
CONTINUOUS
 10
-0.702539
 20
1.701295
  0
VERTEX
  8
PLAN_1
  6
CONTINUOUS
 10
-0.708807
 20
1.700402
  0
VERTEX
  8
PLAN_1
  6
CONTINUOUS
 10
-0.715075
 20
1.699504
  0
VERTEX
  8
PLAN_1
  6
CONTINUOUS
 10
-0.721343
 20
1.698161
  0
VERTEX
  8
PLAN_1
  6
CONTINUOUS
 10
-0.727161
 20
1.696374
  0
VERTEX
  8
PLAN_1
  6
CONTINUOUS
 10
-0.733429
 20
1.694134
  0
VERTEX
  8
PLAN_1
  6
CONTINUOUS
 10
-0.739248
 20
1.691898
  0
VERTEX
  8
PLAN_1
  6
CONTINUOUS
 10
-0.744618
 20
1.689657
  0
VERTEX
  8
PLAN_1
  6
CONTINUOUS
 10
-0.750437
 20
1.686524
  0
VERTEX
  8
PLAN_1
  6
CONTINUOUS
 10
-0.755811
 20
1.683390
  0
VERTEX
  8
PLAN_1
  6
CONTINUOUS
 10
-0.760732
 20
1.680256
  0
VERTEX
  8
PLAN_1
  6
CONTINUOUS
 10
-0.765657
 20
1.676677
  0
VERTEX
  8
PLAN_1
  6
CONTINUOUS
 10
-0.770583
 20
1.672650
  0
VERTEX
  8
PLAN_1
  6
CONTINUOUS
 10
-0.775504
 20
1.668618
  0
VERTEX
  8
PLAN_1
  6
CONTINUOUS
 10
-0.779535
 20
1.664591
  0
VERTEX
  8
PLAN_1
  6
CONTINUOUS
 10
-0.784012
 20
1.660114
  0
VERTEX
  8
PLAN_1
  6
CONTINUOUS
 10
-0.788039
 20
1.655638
  0
VERTEX
  8
PLAN_1
  6
CONTINUOUS
 10
-0.791618
 20
1.650713
  0
VERTEX
  8
PLAN_1
  6
CONTINUOUS
 10
-0.795201
 20
1.645791
  0
VERTEX
  8
PLAN_1
  6
CONTINUOUS
 10
-0.798783
 20
1.640417
  0
VERTEX
  8
PLAN_1
  6
CONTINUOUS
 10
-0.801913
 20
1.635047
  0
VERTEX
  8
PLAN_1
  6
CONTINUOUS
 10
-0.804602
 20
1.629677
  0
VERTEX
  8
PLAN_1
  6
CONTINUOUS
 10
-0.807287
 20
1.623854
  0
VERTEX
  8
PLAN_1
  6
CONTINUOUS
 10
-0.809524
 20
1.618035
  0
VERTEX
  8
PLAN_1
  6
CONTINUOUS
 10
-0.811315
 20
1.612217
  0
VERTEX
  8
PLAN_1
  6
CONTINUOUS
 10
-0.813106
 20
1.605953
  0
VERTEX
  8
PLAN_1
  6
CONTINUOUS
 10
-0.814449
 20
1.600130
  0
VERTEX
  8
PLAN_1
  6
CONTINUOUS
 10
-0.815791
 20
1.593417
  0
VERTEX
  8
PLAN_1
  6
CONTINUOUS
 10
-0.816685
 20
1.587150
  0
VERTEX
  8
PLAN_1
  6
CONTINUOUS
 10
-0.817134
 20
1.580882
  0
VERTEX
  8
PLAN_1
  6
CONTINUOUS
 10
-0.817134
 20
1.574169
  0
VERTEX
  8
PLAN_1
  6
CONTINUOUS
 10
-0.817134
 20
1.567453
  0
VERTEX
  8
PLAN_1
  6
CONTINUOUS
 10
-0.816685
 20
1.561189
  0
VERTEX
  8
PLAN_1
  6
CONTINUOUS
 10
-0.815791
 20
1.554472
  0
VERTEX
  8
PLAN_1
  6
CONTINUOUS
 10
-0.814449
 20
1.548205
  0
VERTEX
  8
PLAN_1
  6
CONTINUOUS
 10
-0.813106
 20
1.542386
  0
VERTEX
  8
PLAN_1
  6
CONTINUOUS
 10
-0.811315
 20
1.536122
  0
VERTEX
  8
PLAN_1
  6
CONTINUOUS
 10
-0.809524
 20
1.530303
  0
VERTEX
  8
PLAN_1
  6
CONTINUOUS
 10
-0.807287
 20
1.524480
  0
VERTEX
  8
PLAN_1
  6
CONTINUOUS
 10
-0.804602
 20
1.518661
  0
VERTEX
  8
PLAN_1
  6
CONTINUOUS
 10
-0.801913
 20
1.513291
  0
VERTEX
  8
PLAN_1
  6
CONTINUOUS
 10
-0.798783
 20
1.507921
  0
VERTEX
  8
PLAN_1
  6
CONTINUOUS
 10
-0.795201
 20
1.502547
  0
VERTEX
  8
PLAN_1
  6
CONTINUOUS
 10
-0.791618
 20
1.497626
  0
VERTEX
  8
PLAN_1
  6
CONTINUOUS
 10
-0.788039
 20
1.492701
  0
VERTEX
  8
PLAN_1
  6
CONTINUOUS
 10
-0.784012
 20
1.488224
  0
VERTEX
  8
PLAN_1
  6
CONTINUOUS
 10
-0.779535
 20
1.483748
  0
VERTEX
  8
PLAN_1
  6
CONTINUOUS
 10
-0.775504
 20
1.479272
  0
VERTEX
  8
PLAN_1
  6
CONTINUOUS
 10
-0.770583
 20
1.475244
  0
VERTEX
  8
PLAN_1
  6
CONTINUOUS
 10
-0.765657
 20
1.471661
  0
VERTEX
  8
PLAN_1
  6
CONTINUOUS
 10
-0.760732
 20
1.468083
  0
VERTEX
  8
PLAN_1
  6
CONTINUOUS
 10
-0.755811
 20
1.464949
  0
VERTEX
  8
PLAN_1
  6
CONTINUOUS
 10
-0.750437
 20
1.461815
  0
VERTEX
  8
PLAN_1
  6
CONTINUOUS
 10
-0.744618
 20
1.458681
  0
VERTEX
  8
PLAN_1
  6
CONTINUOUS
 10
-0.739248
 20
1.456441
  0
VERTEX
  8
PLAN_1
  6
CONTINUOUS
 10
-0.733429
 20
1.454205
  0
VERTEX
  8
PLAN_1
  6
CONTINUOUS
 10
-0.727161
 20
1.451965
  0
VERTEX
  8
PLAN_1
  6
CONTINUOUS
 10
-0.721343
 20
1.450177
  0
VERTEX
  8
PLAN_1
  6
CONTINUOUS
 10
-0.715075
 20
1.448831
  0
VERTEX
  8
PLAN_1
  6
CONTINUOUS
 10
-0.708807
 20
1.447488
  0
VERTEX
  8
PLAN_1
  6
CONTINUOUS
 10
-0.702539
 20
1.447043
  0
VERTEX
  8
PLAN_1
  6
CONTINUOUS
 10
-0.695827
 20
1.446594
  0
VERTEX
  8
PLAN_1
  6
CONTINUOUS
 10
-0.689114
 20
1.446146
  0
SEQEND
  8
0
  0
POLYLINE
  8
PLAN_1
  6
CONTINUOUS
 66
     1
 40
0.008504
 41
0.008504
  0
VERTEX
  8
PLAN_1
  6
CONTINUOUS
 10
-0.725370
 20
1.273362
  0
VERTEX
  8
PLAN_1
  6
CONTINUOUS
 10
-0.645244
 20
1.273362
  0
VERTEX
  8
PLAN_1
  6
CONTINUOUS
 10
-0.589740
 20
1.340953
  0
VERTEX
  8
PLAN_1
  6
CONTINUOUS
 10
-0.502449
 20
1.336031
  0
VERTEX
  8
PLAN_1
  6
CONTINUOUS
 10
-0.446047
 20
1.392433
  0
VERTEX
  8
PLAN_1
  6
CONTINUOUS
 10
-0.453657
 20
1.479720
  0
VERTEX
  8
PLAN_1
  6
CONTINUOUS
 10
-0.388752
 20
1.537909
  0
VERTEX
  8
PLAN_1
  6
CONTINUOUS
 10
-0.388752
 20
1.618035
  0
VERTEX
  8
PLAN_1
  6
CONTINUOUS
 10
-0.456346
 20
1.673543
  0
VERTEX
  8
PLAN_1
  6
CONTINUOUS
 10
-0.451421
 20
1.760382
  0
VERTEX
  8
PLAN_1
  6
CONTINUOUS
 10
-0.507823
 20
1.816783
  0
VERTEX
  8
PLAN_1
  6
CONTINUOUS
 10
-0.593319
 20
1.810520
  0
VERTEX
  8
PLAN_1
  6
CONTINUOUS
 10
-0.651512
 20
1.875425
  0
VERTEX
  8
PLAN_1
  6
CONTINUOUS
 10
-0.731189
 20
1.875425
  0
VERTEX
  8
PLAN_1
  6
CONTINUOUS
 10
-0.788488
 20
1.809173
  0
VERTEX
  8
PLAN_1
  6
CONTINUOUS
 10
-0.875327
 20
1.814098
  0
VERTEX
  8
PLAN_1
  6
CONTINUOUS
 10
-0.931728
 20
1.757697
  0
VERTEX
  8
PLAN_1
  6
CONTINUOUS
 10
-0.924567
 20
1.669516
  0
VERTEX
  8
PLAN_1
  6
CONTINUOUS
 10
-0.989472
 20
1.611772
  0
VERTEX
  8
PLAN_1
  6
CONTINUOUS
 10
-0.989472
 20
1.531646
  0
VERTEX
  8
PLAN_1
  6
CONTINUOUS
 10
-0.922327
 20
1.474346
  0
VERTEX
  8
PLAN_1
  6
CONTINUOUS
 10
-0.927252
 20
1.387508
  0
VERTEX
  8
PLAN_1
  6
CONTINUOUS
 10
-0.870850
 20
1.330657
  0
VERTEX
  8
PLAN_1
  6
CONTINUOUS
 10
-0.784457
 20
1.335134
  0
VERTEX
  8
PLAN_1
  6
CONTINUOUS
 10
-0.725370
 20
1.273362
  0
SEQEND
  8
0
  0
POLYLINE
  8
PLAN_1
  6
CONTINUOUS
 66
     1
 40
0.008504
 41
0.008504
  0
VERTEX
  8
PLAN_1
  6
CONTINUOUS
 10
-0.693142
 20
1.804252
  0
VERTEX
  8
PLAN_1
  6
CONTINUOUS
 10
-0.489917
 20
1.695028
  0
VERTEX
  8
PLAN_1
  6
CONTINUOUS
 10
-0.489917
 20
1.454654
  0
VERTEX
  8
PLAN_1
  6
CONTINUOUS
 10
-0.693142
 20
1.341850
  0
VERTEX
  8
PLAN_1
  6
CONTINUOUS
 10
-0.886516
 20
1.454654
  0
VERTEX
  8
PLAN_1
  6
CONTINUOUS
 10
-0.886516
 20
1.695028
  0
VERTEX
  8
PLAN_1
  6
CONTINUOUS
 10
-0.693142
 20
1.804252
  0
SEQEND
  8
0
  0
POLYLINE
  8
PLAN_1
  6
CONTINUOUS
 66
     1
 40
0.008504
 41
0.008504
  0
VERTEX
  8
PLAN_1
  6
CONTINUOUS
 10
-0.689114
 20
1.465843
  0
VERTEX
  8
PLAN_1
  6
CONTINUOUS
 10
-0.683740
 20
1.465843
  0
VERTEX
  8
PLAN_1
  6
CONTINUOUS
 10
-0.678370
 20
1.466291
  0
VERTEX
  8
PLAN_1
  6
CONTINUOUS
 10
-0.672996
 20
1.467185
  0
VERTEX
  8
PLAN_1
  6
CONTINUOUS
 10
-0.667626
 20
1.468083
  0
VERTEX
  8
PLAN_1
  6
CONTINUOUS
 10
-0.662256
 20
1.469425
  0
VERTEX
  8
PLAN_1
  6
CONTINUOUS
 10
-0.657331
 20
1.470768
  0
VERTEX
  8
PLAN_1
  6
CONTINUOUS
 10
-0.651961
 20
1.472555
  0
VERTEX
  8
PLAN_1
  6
CONTINUOUS
 10
-0.647035
 20
1.474346
  0
VERTEX
  8
PLAN_1
  6
CONTINUOUS
 10
-0.642559
 20
1.476587
  0
VERTEX
  8
PLAN_1
  6
CONTINUOUS
 10
-0.637634
 20
1.478823
  0
VERTEX
  8
PLAN_1
  6
CONTINUOUS
 10
-0.633157
 20
1.481508
  0
VERTEX
  8
PLAN_1
  6
CONTINUOUS
 10
-0.628681
 20
1.484197
  0
VERTEX
  8
PLAN_1
  6
CONTINUOUS
 10
-0.624654
 20
1.487331
  0
VERTEX
  8
PLAN_1
  6
CONTINUOUS
 10
-0.620626
 20
1.490461
  0
VERTEX
  8
PLAN_1
  6
CONTINUOUS
 10
-0.616594
 20
1.494043
  0
VERTEX
  8
PLAN_1
  6
CONTINUOUS
 10
-0.612567
 20
1.497626
  0
VERTEX
  8
PLAN_1
  6
CONTINUOUS
 10
-0.608988
 20
1.501205
  0
VERTEX
  8
PLAN_1
  6
CONTINUOUS
 10
-0.605854
 20
1.505232
  0
VERTEX
  8
PLAN_1
  6
CONTINUOUS
 10
-0.602720
 20
1.509264
  0
VERTEX
  8
PLAN_1
  6
CONTINUOUS
 10
-0.599587
 20
1.513291
  0
VERTEX
  8
PLAN_1
  6
CONTINUOUS
 10
-0.596902
 20
1.517768
  0
VERTEX
  8
PLAN_1
  6
CONTINUOUS
 10
-0.594217
 20
1.522244
  0
VERTEX
  8
PLAN_1
  6
CONTINUOUS
 10
-0.591528
 20
1.527169
  0
VERTEX
  8
PLAN_1
  6
CONTINUOUS
 10
-0.589740
 20
1.532091
  0
VERTEX
  8
PLAN_1
  6
CONTINUOUS
 10
-0.587500
 20
1.537016
  0
VERTEX
  8
PLAN_1
  6
CONTINUOUS
 10
-0.585709
 20
1.541941
  0
VERTEX
  8
PLAN_1
  6
CONTINUOUS
 10
-0.584366
 20
1.546862
  0
VERTEX
  8
PLAN_1
  6
CONTINUOUS
 10
-0.583472
 20
1.552236
  0
VERTEX
  8
PLAN_1
  6
CONTINUOUS
 10
-0.582130
 20
1.557606
  0
VERTEX
  8
PLAN_1
  6
CONTINUOUS
 10
-0.581681
 20
1.562980
  0
VERTEX
  8
PLAN_1
  6
CONTINUOUS
 10
-0.581232
 20
1.568350
  0
VERTEX
  8
PLAN_1
  6
CONTINUOUS
 10
-0.581232
 20
1.574169
  0
VERTEX
  8
PLAN_1
  6
CONTINUOUS
 10
-0.581232
 20
1.579539
  0
VERTEX
  8
PLAN_1
  6
CONTINUOUS
 10
-0.581681
 20
1.584913
  0
VERTEX
  8
PLAN_1
  6
CONTINUOUS
 10
-0.582130
 20
1.590283
  0
VERTEX
  8
PLAN_1
  6
CONTINUOUS
 10
-0.583472
 20
1.595654
  0
VERTEX
  8
PLAN_1
  6
CONTINUOUS
 10
-0.584366
 20
1.601028
  0
VERTEX
  8
PLAN_1
  6
CONTINUOUS
 10
-0.585709
 20
1.606398
  0
VERTEX
  8
PLAN_1
  6
CONTINUOUS
 10
-0.587500
 20
1.611323
  0
VERTEX
  8
PLAN_1
  6
CONTINUOUS
 10
-0.589740
 20
1.616248
  0
VERTEX
  8
PLAN_1
  6
CONTINUOUS
 10
-0.591528
 20
1.621169
  0
VERTEX
  8
PLAN_1
  6
CONTINUOUS
 10
-0.594217
 20
1.625646
  0
VERTEX
  8
PLAN_1
  6
CONTINUOUS
 10
-0.596902
 20
1.630122
  0
VERTEX
  8
PLAN_1
  6
CONTINUOUS
 10
-0.599587
 20
1.634598
  0
VERTEX
  8
PLAN_1
  6
CONTINUOUS
 10
-0.602720
 20
1.638626
  0
VERTEX
  8
PLAN_1
  6
CONTINUOUS
 10
-0.605854
 20
1.642657
  0
VERTEX
  8
PLAN_1
  6
CONTINUOUS
 10
-0.608988
 20
1.646685
  0
VERTEX
  8
PLAN_1
  6
CONTINUOUS
 10
-0.612567
 20
1.650713
  0
VERTEX
  8
PLAN_1
  6
CONTINUOUS
 10
-0.616594
 20
1.654295
  0
VERTEX
  8
PLAN_1
  6
CONTINUOUS
 10
-0.620626
 20
1.657429
  0
VERTEX
  8
PLAN_1
  6
CONTINUOUS
 10
-0.624654
 20
1.660563
  0
VERTEX
  8
PLAN_1
  6
CONTINUOUS
 10
-0.628681
 20
1.663697
  0
VERTEX
  8
PLAN_1
  6
CONTINUOUS
 10
-0.633157
 20
1.666382
  0
VERTEX
  8
PLAN_1
  6
CONTINUOUS
 10
-0.637634
 20
1.669067
  0
VERTEX
  8
PLAN_1
  6
CONTINUOUS
 10
-0.642559
 20
1.671752
  0
VERTEX
  8
PLAN_1
  6
CONTINUOUS
 10
-0.647035
 20
1.673543
  0
VERTEX
  8
PLAN_1
  6
CONTINUOUS
 10
-0.651961
 20
1.675780
  0
VERTEX
  8
PLAN_1
  6
CONTINUOUS
 10
-0.657331
 20
1.677571
  0
VERTEX
  8
PLAN_1
  6
CONTINUOUS
 10
-0.662256
 20
1.678913
  0
VERTEX
  8
PLAN_1
  6
CONTINUOUS
 10
-0.667626
 20
1.680256
  0
VERTEX
  8
PLAN_1
  6
CONTINUOUS
 10
-0.672996
 20
1.681154
  0
VERTEX
  8
PLAN_1
  6
CONTINUOUS
 10
-0.678370
 20
1.681598
  0
VERTEX
  8
PLAN_1
  6
CONTINUOUS
 10
-0.683740
 20
1.682047
  0
VERTEX
  8
PLAN_1
  6
CONTINUOUS
 10
-0.689114
 20
1.682047
  0
VERTEX
  8
PLAN_1
  6
CONTINUOUS
 10
-0.694933
 20
1.682047
  0
VERTEX
  8
PLAN_1
  6
CONTINUOUS
 10
-0.700303
 20
1.681598
  0
VERTEX
  8
PLAN_1
  6
CONTINUOUS
 10
-0.705673
 20
1.681154
  0
VERTEX
  8
PLAN_1
  6
CONTINUOUS
 10
-0.711047
 20
1.680256
  0
VERTEX
  8
PLAN_1
  6
CONTINUOUS
 10
-0.716417
 20
1.678913
  0
VERTEX
  8
PLAN_1
  6
CONTINUOUS
 10
-0.721343
 20
1.677571
  0
VERTEX
  8
PLAN_1
  6
CONTINUOUS
 10
-0.726713
 20
1.675780
  0
VERTEX
  8
PLAN_1
  6
CONTINUOUS
 10
-0.731638
 20
1.673543
  0
VERTEX
  8
PLAN_1
  6
CONTINUOUS
 10
-0.736114
 20
1.671752
  0
VERTEX
  8
PLAN_1
  6
CONTINUOUS
 10
-0.741039
 20
1.669067
  0
VERTEX
  8
PLAN_1
  6
CONTINUOUS
 10
-0.745512
 20
1.666382
  0
VERTEX
  8
PLAN_1
  6
CONTINUOUS
 10
-0.749988
 20
1.663697
  0
VERTEX
  8
PLAN_1
  6
CONTINUOUS
 10
-0.754020
 20
1.660563
  0
VERTEX
  8
PLAN_1
  6
CONTINUOUS
 10
-0.758047
 20
1.657429
  0
VERTEX
  8
PLAN_1
  6
CONTINUOUS
 10
-0.762075
 20
1.654295
  0
VERTEX
  8
PLAN_1
  6
CONTINUOUS
 10
-0.765657
 20
1.650713
  0
VERTEX
  8
PLAN_1
  6
CONTINUOUS
 10
-0.769236
 20
1.646685
  0
VERTEX
  8
PLAN_1
  6
CONTINUOUS
 10
-0.772819
 20
1.642657
  0
VERTEX
  8
PLAN_1
  6
CONTINUOUS
 10
-0.775953
 20
1.638626
  0
VERTEX
  8
PLAN_1
  6
CONTINUOUS
 10
-0.779087
 20
1.634598
  0
VERTEX
  8
PLAN_1
  6
CONTINUOUS
 10
-0.781772
 20
1.630122
  0
VERTEX
  8
PLAN_1
  6
CONTINUOUS
 10
-0.784457
 20
1.625646
  0
VERTEX
  8
PLAN_1
  6
CONTINUOUS
 10
-0.786697
 20
1.621169
  0
VERTEX
  8
PLAN_1
  6
CONTINUOUS
 10
-0.788933
 20
1.616248
  0
VERTEX
  8
PLAN_1
  6
CONTINUOUS
 10
-0.791173
 20
1.611323
  0
VERTEX
  8
PLAN_1
  6
CONTINUOUS
 10
-0.792516
 20
1.606398
  0
VERTEX
  8
PLAN_1
  6
CONTINUOUS
 10
-0.794307
 20
1.601028
  0
VERTEX
  8
PLAN_1
  6
CONTINUOUS
 10
-0.795201
 20
1.595654
  0
VERTEX
  8
PLAN_1
  6
CONTINUOUS
 10
-0.796094
 20
1.590283
  0
VERTEX
  8
PLAN_1
  6
CONTINUOUS
 10
-0.796992
 20
1.584913
  0
VERTEX
  8
PLAN_1
  6
CONTINUOUS
 10
-0.797437
 20
1.579539
  0
VERTEX
  8
PLAN_1
  6
CONTINUOUS
 10
-0.797437
 20
1.574169
  0
VERTEX
  8
PLAN_1
  6
CONTINUOUS
 10
-0.797437
 20
1.568350
  0
VERTEX
  8
PLAN_1
  6
CONTINUOUS
 10
-0.796992
 20
1.562980
  0
VERTEX
  8
PLAN_1
  6
CONTINUOUS
 10
-0.796094
 20
1.557606
  0
VERTEX
  8
PLAN_1
  6
CONTINUOUS
 10
-0.795201
 20
1.552236
  0
VERTEX
  8
PLAN_1
  6
CONTINUOUS
 10
-0.794307
 20
1.546862
  0
VERTEX
  8
PLAN_1
  6
CONTINUOUS
 10
-0.792516
 20
1.541941
  0
VERTEX
  8
PLAN_1
  6
CONTINUOUS
 10
-0.791173
 20
1.537016
  0
VERTEX
  8
PLAN_1
  6
CONTINUOUS
 10
-0.788933
 20
1.532091
  0
VERTEX
  8
PLAN_1
  6
CONTINUOUS
 10
-0.786697
 20
1.527169
  0
VERTEX
  8
PLAN_1
  6
CONTINUOUS
 10
-0.784457
 20
1.522244
  0
VERTEX
  8
PLAN_1
  6
CONTINUOUS
 10
-0.781772
 20
1.517768
  0
VERTEX
  8
PLAN_1
  6
CONTINUOUS
 10
-0.779087
 20
1.513291
  0
VERTEX
  8
PLAN_1
  6
CONTINUOUS
 10
-0.775953
 20
1.509264
  0
VERTEX
  8
PLAN_1
  6
CONTINUOUS
 10
-0.772819
 20
1.505232
  0
VERTEX
  8
PLAN_1
  6
CONTINUOUS
 10
-0.769236
 20
1.501205
  0
VERTEX
  8
PLAN_1
  6
CONTINUOUS
 10
-0.765657
 20
1.497626
  0
VERTEX
  8
PLAN_1
  6
CONTINUOUS
 10
-0.762075
 20
1.494043
  0
VERTEX
  8
PLAN_1
  6
CONTINUOUS
 10
-0.758047
 20
1.490461
  0
VERTEX
  8
PLAN_1
  6
CONTINUOUS
 10
-0.754020
 20
1.487331
  0
VERTEX
  8
PLAN_1
  6
CONTINUOUS
 10
-0.749988
 20
1.484197
  0
VERTEX
  8
PLAN_1
  6
CONTINUOUS
 10
-0.745512
 20
1.481508
  0
VERTEX
  8
PLAN_1
  6
CONTINUOUS
 10
-0.741039
 20
1.478823
  0
VERTEX
  8
PLAN_1
  6
CONTINUOUS
 10
-0.736114
 20
1.476587
  0
VERTEX
  8
PLAN_1
  6
CONTINUOUS
 10
-0.731638
 20
1.474346
  0
VERTEX
  8
PLAN_1
  6
CONTINUOUS
 10
-0.726713
 20
1.472555
  0
VERTEX
  8
PLAN_1
  6
CONTINUOUS
 10
-0.721343
 20
1.470768
  0
VERTEX
  8
PLAN_1
  6
CONTINUOUS
 10
-0.716417
 20
1.469425
  0
VERTEX
  8
PLAN_1
  6
CONTINUOUS
 10
-0.711047
 20
1.468083
  0
VERTEX
  8
PLAN_1
  6
CONTINUOUS
 10
-0.705673
 20
1.467185
  0
VERTEX
  8
PLAN_1
  6
CONTINUOUS
 10
-0.700303
 20
1.466291
  0
VERTEX
  8
PLAN_1
  6
CONTINUOUS
 10
-0.694933
 20
1.465843
  0
VERTEX
  8
PLAN_1
  6
CONTINUOUS
 10
-0.689114
 20
1.465843
  0
SEQEND
  8
0
  0
POLYLINE
  8
PLAN_1
  6
CONTINUOUS
 66
     1
 40
0.008504
 41
0.008504
  0
VERTEX
  8
PLAN_1
  6
CONTINUOUS
 10
-0.690457
 20
2.927354
  0
VERTEX
  8
PLAN_1
  6
CONTINUOUS
 10
-0.521252
 20
2.836039
  0
VERTEX
  8
PLAN_1
  6
CONTINUOUS
 10
-0.521252
 20
2.635949
  0
VERTEX
  8
PLAN_1
  6
CONTINUOUS
 10
-0.690457
 20
2.541945
  0
VERTEX
  8
PLAN_1
  6
CONTINUOUS
 10
-0.852051
 20
2.635949
  0
VERTEX
  8
PLAN_1
  6
CONTINUOUS
 10
-0.852051
 20
2.836039
  0
VERTEX
  8
PLAN_1
  6
CONTINUOUS
 10
-0.690457
 20
2.927354
  0
SEQEND
  8
0
  0
POLYLINE
  8
PLAN_1
  6
CONTINUOUS
 66
     1
 40
0.008504
 41
0.008504
  0
VERTEX
  8
PLAN_1
  6
CONTINUOUS
 10
-0.686874
 20
2.501657
  0
VERTEX
  8
PLAN_1
  6
CONTINUOUS
 10
-0.674339
 20
2.502106
  0
VERTEX
  8
PLAN_1
  6
CONTINUOUS
 10
-0.662701
 20
2.503000
  0
VERTEX
  8
PLAN_1
  6
CONTINUOUS
 10
-0.650618
 20
2.504346
  0
VERTEX
  8
PLAN_1
  6
CONTINUOUS
 10
-0.638976
 20
2.506583
  0
VERTEX
  8
PLAN_1
  6
CONTINUOUS
 10
-0.627787
 20
2.509268
  0
VERTEX
  8
PLAN_1
  6
CONTINUOUS
 10
-0.616594
 20
2.512402
  0
VERTEX
  8
PLAN_1
  6
CONTINUOUS
 10
-0.605406
 20
2.515984
  0
VERTEX
  8
PLAN_1
  6
CONTINUOUS
 10
-0.594661
 20
2.520012
  0
VERTEX
  8
PLAN_1
  6
CONTINUOUS
 10
-0.584366
 20
2.524937
  0
VERTEX
  8
PLAN_1
  6
CONTINUOUS
 10
-0.574071
 20
2.530307
  0
VERTEX
  8
PLAN_1
  6
CONTINUOUS
 10
-0.564224
 20
2.535677
  0
VERTEX
  8
PLAN_1
  6
CONTINUOUS
 10
-0.554823
 20
2.541945
  0
VERTEX
  8
PLAN_1
  6
CONTINUOUS
 10
-0.545421
 20
2.548661
  0
VERTEX
  8
PLAN_1
  6
CONTINUOUS
 10
-0.536469
 20
2.555374
  0
VERTEX
  8
PLAN_1
  6
CONTINUOUS
 10
-0.527965
 20
2.562984
  0
VERTEX
  8
PLAN_1
  6
CONTINUOUS
 10
-0.519909
 20
2.571043
  0
VERTEX
  8
PLAN_1
  6
CONTINUOUS
 10
-0.511850
 20
2.579098
  0
VERTEX
  8
PLAN_1
  6
CONTINUOUS
 10
-0.504240
 20
2.587602
  0
VERTEX
  8
PLAN_1
  6
CONTINUOUS
 10
-0.497528
 20
2.596555
  0
VERTEX
  8
PLAN_1
  6
CONTINUOUS
 10
-0.490811
 20
2.605957
  0
VERTEX
  8
PLAN_1
  6
CONTINUOUS
 10
-0.484547
 20
2.615358
  0
VERTEX
  8
PLAN_1
  6
CONTINUOUS
 10
-0.479173
 20
2.625205
  0
VERTEX
  8
PLAN_1
  6
CONTINUOUS
 10
-0.473803
 20
2.635500
  0
VERTEX
  8
PLAN_1
  6
CONTINUOUS
 10
-0.468878
 20
2.645795
  0
VERTEX
  8
PLAN_1
  6
CONTINUOUS
 10
-0.464850
 20
2.656539
  0
VERTEX
  8
PLAN_1
  6
CONTINUOUS
 10
-0.461268
 20
2.667728
  0
VERTEX
  8
PLAN_1
  6
CONTINUOUS
 10
-0.458134
 20
2.678921
  0
VERTEX
  8
PLAN_1
  6
CONTINUOUS
 10
-0.455449
 20
2.690110
  0
VERTEX
  8
PLAN_1
  6
CONTINUOUS
 10
-0.453213
 20
2.701748
  0
VERTEX
  8
PLAN_1
  6
CONTINUOUS
 10
-0.451870
 20
2.713835
  0
VERTEX
  8
PLAN_1
  6
CONTINUOUS
 10
-0.450972
 20
2.725472
  0
VERTEX
  8
PLAN_1
  6
CONTINUOUS
 10
-0.450524
 20
2.738008
  0
VERTEX
  8
PLAN_1
  6
CONTINUOUS
 10
-0.450972
 20
2.750094
  0
VERTEX
  8
PLAN_1
  6
CONTINUOUS
 10
-0.451870
 20
2.761732
  0
VERTEX
  8
PLAN_1
  6
CONTINUOUS
 10
-0.453213
 20
2.773819
  0
VERTEX
  8
PLAN_1
  6
CONTINUOUS
 10
-0.455449
 20
2.785457
  0
VERTEX
  8
PLAN_1
  6
CONTINUOUS
 10
-0.458134
 20
2.796646
  0
VERTEX
  8
PLAN_1
  6
CONTINUOUS
 10
-0.461268
 20
2.807839
  0
VERTEX
  8
PLAN_1
  6
CONTINUOUS
 10
-0.464850
 20
2.819028
  0
VERTEX
  8
PLAN_1
  6
CONTINUOUS
 10
-0.468878
 20
2.829772
  0
VERTEX
  8
PLAN_1
  6
CONTINUOUS
 10
-0.473803
 20
2.840067
  0
VERTEX
  8
PLAN_1
  6
CONTINUOUS
 10
-0.479173
 20
2.850362
  0
VERTEX
  8
PLAN_1
  6
CONTINUOUS
 10
-0.484547
 20
2.860213
  0
VERTEX
  8
PLAN_1
  6
CONTINUOUS
 10
-0.490811
 20
2.870059
  0
VERTEX
  8
PLAN_1
  6
CONTINUOUS
 10
-0.497528
 20
2.879012
  0
VERTEX
  8
PLAN_1
  6
CONTINUOUS
 10
-0.504240
 20
2.887965
  0
VERTEX
  8
PLAN_1
  6
CONTINUOUS
 10
-0.511850
 20
2.896469
  0
VERTEX
  8
PLAN_1
  6
CONTINUOUS
 10
-0.519909
 20
2.904972
  0
VERTEX
  8
PLAN_1
  6
CONTINUOUS
 10
-0.527965
 20
2.912583
  0
VERTEX
  8
PLAN_1
  6
CONTINUOUS
 10
-0.536469
 20
2.920193
  0
VERTEX
  8
PLAN_1
  6
CONTINUOUS
 10
-0.545421
 20
2.926909
  0
VERTEX
  8
PLAN_1
  6
CONTINUOUS
 10
-0.554823
 20
2.933622
  0
VERTEX
  8
PLAN_1
  6
CONTINUOUS
 10
-0.564224
 20
2.939890
  0
VERTEX
  8
PLAN_1
  6
CONTINUOUS
 10
-0.574071
 20
2.945260
  0
VERTEX
  8
PLAN_1
  6
CONTINUOUS
 10
-0.584366
 20
2.950634
  0
VERTEX
  8
PLAN_1
  6
CONTINUOUS
 10
-0.594661
 20
2.955555
  0
VERTEX
  8
PLAN_1
  6
CONTINUOUS
 10
-0.605406
 20
2.959583
  0
VERTEX
  8
PLAN_1
  6
CONTINUOUS
 10
-0.616594
 20
2.963165
  0
VERTEX
  8
PLAN_1
  6
CONTINUOUS
 10
-0.627787
 20
2.966748
  0
VERTEX
  8
PLAN_1
  6
CONTINUOUS
 10
-0.638976
 20
2.968984
  0
VERTEX
  8
PLAN_1
  6
CONTINUOUS
 10
-0.650618
 20
2.971224
  0
VERTEX
  8
PLAN_1
  6
CONTINUOUS
 10
-0.662701
 20
2.972567
  0
VERTEX
  8
PLAN_1
  6
CONTINUOUS
 10
-0.674339
 20
2.973461
  0
VERTEX
  8
PLAN_1
  6
CONTINUOUS
 10
-0.686874
 20
2.973909
  0
VERTEX
  8
PLAN_1
  6
CONTINUOUS
 10
-0.698961
 20
2.973461
  0
VERTEX
  8
PLAN_1
  6
CONTINUOUS
 10
-0.711047
 20
2.972567
  0
VERTEX
  8
PLAN_1
  6
CONTINUOUS
 10
-0.722685
 20
2.971224
  0
VERTEX
  8
PLAN_1
  6
CONTINUOUS
 10
-0.734323
 20
2.968984
  0
VERTEX
  8
PLAN_1
  6
CONTINUOUS
 10
-0.745512
 20
2.966748
  0
VERTEX
  8
PLAN_1
  6
CONTINUOUS
 10
-0.756705
 20
2.963165
  0
VERTEX
  8
PLAN_1
  6
CONTINUOUS
 10
-0.767894
 20
2.959583
  0
VERTEX
  8
PLAN_1
  6
CONTINUOUS
 10
-0.778638
 20
2.955555
  0
VERTEX
  8
PLAN_1
  6
CONTINUOUS
 10
-0.788933
 20
2.950634
  0
VERTEX
  8
PLAN_1
  6
CONTINUOUS
 10
-0.799228
 20
2.945260
  0
VERTEX
  8
PLAN_1
  6
CONTINUOUS
 10
-0.809079
 20
2.939890
  0
VERTEX
  8
PLAN_1
  6
CONTINUOUS
 10
-0.818925
 20
2.933622
  0
VERTEX
  8
PLAN_1
  6
CONTINUOUS
 10
-0.827878
 20
2.926909
  0
VERTEX
  8
PLAN_1
  6
CONTINUOUS
 10
-0.836831
 20
2.920193
  0
VERTEX
  8
PLAN_1
  6
CONTINUOUS
 10
-0.845335
 20
2.912583
  0
VERTEX
  8
PLAN_1
  6
CONTINUOUS
 10
-0.853839
 20
2.904972
  0
VERTEX
  8
PLAN_1
  6
CONTINUOUS
 10
-0.861449
 20
2.896469
  0
VERTEX
  8
PLAN_1
  6
CONTINUOUS
 10
-0.869059
 20
2.887965
  0
VERTEX
  8
PLAN_1
  6
CONTINUOUS
 10
-0.875776
 20
2.879012
  0
VERTEX
  8
PLAN_1
  6
CONTINUOUS
 10
-0.882488
 20
2.870059
  0
VERTEX
  8
PLAN_1
  6
CONTINUOUS
 10
-0.888756
 20
2.860213
  0
VERTEX
  8
PLAN_1
  6
CONTINUOUS
 10
-0.894575
 20
2.850362
  0
VERTEX
  8
PLAN_1
  6
CONTINUOUS
 10
-0.899500
 20
2.840067
  0
VERTEX
  8
PLAN_1
  6
CONTINUOUS
 10
-0.904421
 20
2.829772
  0
VERTEX
  8
PLAN_1
  6
CONTINUOUS
 10
-0.908453
 20
2.819028
  0
VERTEX
  8
PLAN_1
  6
CONTINUOUS
 10
-0.912031
 20
2.807839
  0
VERTEX
  8
PLAN_1
  6
CONTINUOUS
 10
-0.915614
 20
2.796646
  0
VERTEX
  8
PLAN_1
  6
CONTINUOUS
 10
-0.917850
 20
2.785457
  0
VERTEX
  8
PLAN_1
  6
CONTINUOUS
 10
-0.920091
 20
2.773819
  0
VERTEX
  8
PLAN_1
  6
CONTINUOUS
 10
-0.921433
 20
2.761732
  0
VERTEX
  8
PLAN_1
  6
CONTINUOUS
 10
-0.922327
 20
2.750094
  0
VERTEX
  8
PLAN_1
  6
CONTINUOUS
 10
-0.922776
 20
2.738008
  0
VERTEX
  8
PLAN_1
  6
CONTINUOUS
 10
-0.922327
 20
2.725472
  0
VERTEX
  8
PLAN_1
  6
CONTINUOUS
 10
-0.921433
 20
2.713835
  0
VERTEX
  8
PLAN_1
  6
CONTINUOUS
 10
-0.920091
 20
2.701748
  0
VERTEX
  8
PLAN_1
  6
CONTINUOUS
 10
-0.917850
 20
2.690110
  0
VERTEX
  8
PLAN_1
  6
CONTINUOUS
 10
-0.915614
 20
2.678921
  0
VERTEX
  8
PLAN_1
  6
CONTINUOUS
 10
-0.912031
 20
2.667728
  0
VERTEX
  8
PLAN_1
  6
CONTINUOUS
 10
-0.908453
 20
2.656539
  0
VERTEX
  8
PLAN_1
  6
CONTINUOUS
 10
-0.904421
 20
2.645795
  0
VERTEX
  8
PLAN_1
  6
CONTINUOUS
 10
-0.899500
 20
2.635500
  0
VERTEX
  8
PLAN_1
  6
CONTINUOUS
 10
-0.894575
 20
2.625205
  0
VERTEX
  8
PLAN_1
  6
CONTINUOUS
 10
-0.888756
 20
2.615358
  0
VERTEX
  8
PLAN_1
  6
CONTINUOUS
 10
-0.882488
 20
2.605957
  0
VERTEX
  8
PLAN_1
  6
CONTINUOUS
 10
-0.875776
 20
2.596555
  0
VERTEX
  8
PLAN_1
  6
CONTINUOUS
 10
-0.869059
 20
2.587602
  0
VERTEX
  8
PLAN_1
  6
CONTINUOUS
 10
-0.861449
 20
2.579098
  0
VERTEX
  8
PLAN_1
  6
CONTINUOUS
 10
-0.853839
 20
2.571043
  0
VERTEX
  8
PLAN_1
  6
CONTINUOUS
 10
-0.845335
 20
2.562984
  0
VERTEX
  8
PLAN_1
  6
CONTINUOUS
 10
-0.836831
 20
2.555374
  0
VERTEX
  8
PLAN_1
  6
CONTINUOUS
 10
-0.827878
 20
2.548661
  0
VERTEX
  8
PLAN_1
  6
CONTINUOUS
 10
-0.818925
 20
2.541945
  0
VERTEX
  8
PLAN_1
  6
CONTINUOUS
 10
-0.809079
 20
2.535677
  0
VERTEX
  8
PLAN_1
  6
CONTINUOUS
 10
-0.799228
 20
2.530307
  0
VERTEX
  8
PLAN_1
  6
CONTINUOUS
 10
-0.788933
 20
2.524937
  0
VERTEX
  8
PLAN_1
  6
CONTINUOUS
 10
-0.778638
 20
2.520012
  0
VERTEX
  8
PLAN_1
  6
CONTINUOUS
 10
-0.767894
 20
2.515984
  0
VERTEX
  8
PLAN_1
  6
CONTINUOUS
 10
-0.756705
 20
2.512402
  0
VERTEX
  8
PLAN_1
  6
CONTINUOUS
 10
-0.745512
 20
2.509268
  0
VERTEX
  8
PLAN_1
  6
CONTINUOUS
 10
-0.734323
 20
2.506583
  0
VERTEX
  8
PLAN_1
  6
CONTINUOUS
 10
-0.722685
 20
2.504346
  0
VERTEX
  8
PLAN_1
  6
CONTINUOUS
 10
-0.711047
 20
2.503000
  0
VERTEX
  8
PLAN_1
  6
CONTINUOUS
 10
-0.698961
 20
2.502106
  0
VERTEX
  8
PLAN_1
  6
CONTINUOUS
 10
-0.686874
 20
2.501657
  0
SEQEND
  8
0
  0
POLYLINE
  8
PLAN_1
  6
CONTINUOUS
 66
     1
 40
0.008504
 41
0.008504
  0
VERTEX
  8
PLAN_1
  6
CONTINUOUS
 10
-0.686874
 20
2.659224
  0
VERTEX
  8
PLAN_1
  6
CONTINUOUS
 10
-0.678815
 20
2.659673
  0
VERTEX
  8
PLAN_1
  6
CONTINUOUS
 10
-0.670760
 20
2.660567
  0
VERTEX
  8
PLAN_1
  6
CONTINUOUS
 10
-0.663150
 20
2.662807
  0
VERTEX
  8
PLAN_1
  6
CONTINUOUS
 10
-0.655988
 20
2.665492
  0
VERTEX
  8
PLAN_1
  6
CONTINUOUS
 10
-0.649272
 20
2.668626
  0
VERTEX
  8
PLAN_1
  6
CONTINUOUS
 10
-0.642559
 20
2.672654
  0
VERTEX
  8
PLAN_1
  6
CONTINUOUS
 10
-0.636740
 20
2.677130
  0
VERTEX
  8
PLAN_1
  6
CONTINUOUS
 10
-0.630921
 20
2.682055
  0
VERTEX
  8
PLAN_1
  6
CONTINUOUS
 10
-0.625996
 20
2.687874
  0
VERTEX
  8
PLAN_1
  6
CONTINUOUS
 10
-0.621520
 20
2.693693
  0
VERTEX
  8
PLAN_1
  6
CONTINUOUS
 10
-0.617492
 20
2.700406
  0
VERTEX
  8
PLAN_1
  6
CONTINUOUS
 10
-0.614358
 20
2.707122
  0
VERTEX
  8
PLAN_1
  6
CONTINUOUS
 10
-0.611673
 20
2.714283
  0
VERTEX
  8
PLAN_1
  6
CONTINUOUS
 10
-0.609433
 20
2.721894
  0
VERTEX
  8
PLAN_1
  6
CONTINUOUS
 10
-0.608539
 20
2.729949
  0
VERTEX
  8
PLAN_1
  6
CONTINUOUS
 10
-0.608091
 20
2.738008
  0
VERTEX
  8
PLAN_1
  6
CONTINUOUS
 10
-0.608539
 20
2.746063
  0
VERTEX
  8
PLAN_1
  6
CONTINUOUS
 10
-0.609433
 20
2.753673
  0
VERTEX
  8
PLAN_1
  6
CONTINUOUS
 10
-0.611673
 20
2.761283
  0
VERTEX
  8
PLAN_1
  6
CONTINUOUS
 10
-0.614358
 20
2.768445
  0
VERTEX
  8
PLAN_1
  6
CONTINUOUS
 10
-0.617492
 20
2.775161
  0
VERTEX
  8
PLAN_1
  6
CONTINUOUS
 10
-0.621520
 20
2.781874
  0
VERTEX
  8
PLAN_1
  6
CONTINUOUS
 10
-0.625996
 20
2.787693
  0
VERTEX
  8
PLAN_1
  6
CONTINUOUS
 10
-0.630921
 20
2.793512
  0
VERTEX
  8
PLAN_1
  6
CONTINUOUS
 10
-0.636740
 20
2.798437
  0
VERTEX
  8
PLAN_1
  6
CONTINUOUS
 10
-0.642559
 20
2.802913
  0
VERTEX
  8
PLAN_1
  6
CONTINUOUS
 10
-0.649272
 20
2.806941
  0
VERTEX
  8
PLAN_1
  6
CONTINUOUS
 10
-0.655988
 20
2.810524
  0
VERTEX
  8
PLAN_1
  6
CONTINUOUS
 10
-0.663150
 20
2.812764
  0
VERTEX
  8
PLAN_1
  6
CONTINUOUS
 10
-0.670760
 20
2.815000
  0
VERTEX
  8
PLAN_1
  6
CONTINUOUS
 10
-0.678815
 20
2.816343
  0
VERTEX
  8
PLAN_1
  6
CONTINUOUS
 10
-0.686874
 20
2.816343
  0
VERTEX
  8
PLAN_1
  6
CONTINUOUS
 10
-0.694933
 20
2.816343
  0
VERTEX
  8
PLAN_1
  6
CONTINUOUS
 10
-0.702539
 20
2.815000
  0
VERTEX
  8
PLAN_1
  6
CONTINUOUS
 10
-0.710150
 20
2.812764
  0
VERTEX
  8
PLAN_1
  6
CONTINUOUS
 10
-0.717315
 20
2.810524
  0
VERTEX
  8
PLAN_1
  6
CONTINUOUS
 10
-0.724028
 20
2.806941
  0
VERTEX
  8
PLAN_1
  6
CONTINUOUS
 10
-0.730740
 20
2.802913
  0
VERTEX
  8
PLAN_1
  6
CONTINUOUS
 10
-0.736563
 20
2.798437
  0
VERTEX
  8
PLAN_1
  6
CONTINUOUS
 10
-0.742382
 20
2.793512
  0
VERTEX
  8
PLAN_1
  6
CONTINUOUS
 10
-0.747303
 20
2.787693
  0
VERTEX
  8
PLAN_1
  6
CONTINUOUS
 10
-0.751780
 20
2.781874
  0
VERTEX
  8
PLAN_1
  6
CONTINUOUS
 10
-0.755811
 20
2.775161
  0
VERTEX
  8
PLAN_1
  6
CONTINUOUS
 10
-0.759390
 20
2.768445
  0
VERTEX
  8
PLAN_1
  6
CONTINUOUS
 10
-0.762075
 20
2.761283
  0
VERTEX
  8
PLAN_1
  6
CONTINUOUS
 10
-0.763866
 20
2.753673
  0
VERTEX
  8
PLAN_1
  6
CONTINUOUS
 10
-0.765209
 20
2.746063
  0
VERTEX
  8
PLAN_1
  6
CONTINUOUS
 10
-0.765209
 20
2.738008
  0
VERTEX
  8
PLAN_1
  6
CONTINUOUS
 10
-0.765209
 20
2.729949
  0
VERTEX
  8
PLAN_1
  6
CONTINUOUS
 10
-0.763866
 20
2.721894
  0
VERTEX
  8
PLAN_1
  6
CONTINUOUS
 10
-0.762075
 20
2.714283
  0
VERTEX
  8
PLAN_1
  6
CONTINUOUS
 10
-0.759390
 20
2.707122
  0
VERTEX
  8
PLAN_1
  6
CONTINUOUS
 10
-0.755811
 20
2.700406
  0
VERTEX
  8
PLAN_1
  6
CONTINUOUS
 10
-0.751780
 20
2.693693
  0
VERTEX
  8
PLAN_1
  6
CONTINUOUS
 10
-0.747303
 20
2.687874
  0
VERTEX
  8
PLAN_1
  6
CONTINUOUS
 10
-0.742382
 20
2.682055
  0
VERTEX
  8
PLAN_1
  6
CONTINUOUS
 10
-0.736563
 20
2.677130
  0
VERTEX
  8
PLAN_1
  6
CONTINUOUS
 10
-0.730740
 20
2.672654
  0
VERTEX
  8
PLAN_1
  6
CONTINUOUS
 10
-0.724028
 20
2.668626
  0
VERTEX
  8
PLAN_1
  6
CONTINUOUS
 10
-0.717315
 20
2.665492
  0
VERTEX
  8
PLAN_1
  6
CONTINUOUS
 10
-0.710150
 20
2.662807
  0
VERTEX
  8
PLAN_1
  6
CONTINUOUS
 10
-0.702539
 20
2.660567
  0
VERTEX
  8
PLAN_1
  6
CONTINUOUS
 10
-0.694933
 20
2.659673
  0
VERTEX
  8
PLAN_1
  6
CONTINUOUS
 10
-0.686874
 20
2.659224
  0
SEQEND
  8
0
  0
POLYLINE
  8
PLAN_1
  6
CONTINUOUS
 66
     1
 40
0.004028
 41
0.004028
  0
VERTEX
  8
PLAN_1
  6
CONTINUOUS
 10
-0.502898
 20
2.738457
  0
VERTEX
  8
PLAN_1
  6
CONTINUOUS
 10
-0.861449
 20
2.738457
  0
SEQEND
  8
0
  0
POLYLINE
  8
PLAN_1
  6
CONTINUOUS
 66
     1
 40
0.004028
 41
0.004028
  0
VERTEX
  8
PLAN_1
  6
CONTINUOUS
 10
-0.691799
 20
2.556272
  0
VERTEX
  8
PLAN_1
  6
CONTINUOUS
 10
-0.691799
 20
2.914823
  0
SEQEND
  8
0
  0
SOLID
  8
PLAN_1
 62
     2
 10
-1.002902
 20
3.039264
 11
-1.033339
 21
3.092083
 12
-1.002902
 22
3.039264
 13
-1.055720
 23
3.069701
  0
POLYLINE
  8
PLAN_1
 62
     2
  6
CONTINUOUS
 66
     1
 40
0.003000
 41
0.003000
  0
VERTEX
  8
PLAN_1
 62
     2
  6
CONTINUOUS
 10
-1.002902
 20
3.039264
  0
VERTEX
  8
PLAN_1
 62
     2
  6
CONTINUOUS
 10
-1.033339
 20
3.092083
  0
VERTEX
  8
PLAN_1
 62
     2
  6
CONTINUOUS
 10
-1.055720
 20
3.069701
  0
VERTEX
  8
PLAN_1
 62
     2
  6
CONTINUOUS
 10
-1.002902
 20
3.039264
  0
SEQEND
  8
0
  0
POLYLINE
  8
PLAN_1
 62
     2
  6
CONTINUOUS
 66
     1
 40
0.004028
 41
0.004028
  0
VERTEX
  8
PLAN_1
 62
     2
  6
CONTINUOUS
 10
-1.029311
 20
3.065673
  0
VERTEX
  8
PLAN_1
 62
     2
  6
CONTINUOUS
 10
-1.159126
 20
3.190114
  0
VERTEX
  8
PLAN_1
 62
     2
  6
CONTINUOUS
 10
-1.447398
 20
3.190114
  0
SEQEND
  8
0
  0
POLYLINE
  8
PLAN_1
 62
     2
  6
CONTINUOUS
 66
     1
 40
0.003000
 41
0.003000
  0
VERTEX
  8
PLAN_1
 62
     2
  6
CONTINUOUS
 10
-1.352500
 20
3.277850
  0
VERTEX
  8
PLAN_1
 62
     2
  6
CONTINUOUS
 10
-1.350264
 20
3.274717
  0
VERTEX
  8
PLAN_1
 62
     2
  6
CONTINUOUS
 10
-1.348472
 20
3.271583
  0
VERTEX
  8
PLAN_1
 62
     2
  6
CONTINUOUS
 10
-1.346681
 20
3.268449
  0
VERTEX
  8
PLAN_1
 62
     2
  6
CONTINUOUS
 10
-1.345787
 20
3.264870
  0
VERTEX
  8
PLAN_1
 62
     2
  6
CONTINUOUS
 10
-1.344890
 20
3.261287
  0
VERTEX
  8
PLAN_1
 62
     2
  6
CONTINUOUS
 10
-1.344445
 20
3.257705
  0
VERTEX
  8
PLAN_1
 62
     2
  6
CONTINUOUS
 10
-1.343996
 20
3.254575
  0
VERTEX
  8
PLAN_1
 62
     2
  6
CONTINUOUS
 10
-1.343996
 20
3.251441
  0
VERTEX
  8
PLAN_1
 62
     2
  6
CONTINUOUS
 10
-1.343996
 20
3.245173
  0
VERTEX
  8
PLAN_1
 62
     2
  6
CONTINUOUS
 10
-1.345787
 20
3.238457
  0
VERTEX
  8
PLAN_1
 62
     2
  6
CONTINUOUS
 10
-1.346681
 20
3.234878
  0
VERTEX
  8
PLAN_1
 62
     2
  6
CONTINUOUS
 10
-1.348024
 20
3.231744
  0
VERTEX
  8
PLAN_1
 62
     2
  6
CONTINUOUS
 10
-1.349815
 20
3.228610
  0
VERTEX
  8
PLAN_1
 62
     2
  6
CONTINUOUS
 10
-1.351606
 20
3.225476
  0
VERTEX
  8
PLAN_1
 62
     2
  6
CONTINUOUS
 10
-1.353843
 20
3.222791
  0
VERTEX
  8
PLAN_1
 62
     2
  6
CONTINUOUS
 10
-1.356528
 20
3.220106
  0
VERTEX
  8
PLAN_1
 62
     2
  6
CONTINUOUS
 10
-1.359217
 20
3.217866
  0
VERTEX
  8
PLAN_1
 62
     2
  6
CONTINUOUS
 10
-1.362795
 20
3.215630
  0
VERTEX
  8
PLAN_1
 62
     2
  6
CONTINUOUS
 10
-1.366378
 20
3.214287
  0
VERTEX
  8
PLAN_1
 62
     2
  6
CONTINUOUS
 10
-1.370854
 20
3.212945
  0
VERTEX
  8
PLAN_1
 62
     2
  6
CONTINUOUS
 10
-1.375331
 20
3.212047
  0
VERTEX
  8
PLAN_1
 62
     2
  6
CONTINUOUS
 10
-1.380252
 20
3.212047
  0
VERTEX
  8
PLAN_1
 62
     2
  6
CONTINUOUS
 10
-1.384283
 20
3.212047
  0
VERTEX
  8
PLAN_1
 62
     2
  6
CONTINUOUS
 10
-1.387862
 20
3.212496
  0
VERTEX
  8
PLAN_1
 62
     2
  6
CONTINUOUS
 10
-1.391445
 20
3.213390
  0
VERTEX
  8
PLAN_1
 62
     2
  6
CONTINUOUS
 10
-1.394579
 20
3.214287
  0
VERTEX
  8
PLAN_1
 62
     2
  6
CONTINUOUS
 10
-1.397264
 20
3.215630
  0
VERTEX
  8
PLAN_1
 62
     2
  6
CONTINUOUS
 10
-1.399949
 20
3.217421
  0
VERTEX
  8
PLAN_1
 62
     2
  6
CONTINUOUS
 10
-1.402634
 20
3.219209
  0
VERTEX
  8
PLAN_1
 62
     2
  6
CONTINUOUS
 10
-1.404874
 20
3.221000
  0
VERTEX
  8
PLAN_1
 62
     2
  6
CONTINUOUS
 10
-1.412929
 20
3.212047
  0
VERTEX
  8
PLAN_1
 62
     2
  6
CONTINUOUS
 10
-1.416512
 20
3.214732
  0
VERTEX
  8
PLAN_1
 62
     2
  6
CONTINUOUS
 10
-1.407559
 20
3.224134
  0
VERTEX
  8
PLAN_1
 62
     2
  6
CONTINUOUS
 10
-1.409795
 20
3.227268
  0
VERTEX
  8
PLAN_1
 62
     2
  6
CONTINUOUS
 10
-1.412035
 20
3.230850
  0
VERTEX
  8
PLAN_1
 62
     2
  6
CONTINUOUS
 10
-1.413378
 20
3.233980
  0
VERTEX
  8
PLAN_1
 62
     2
  6
CONTINUOUS
 10
-1.414720
 20
3.237563
  0
VERTEX
  8
PLAN_1
 62
     2
  6
CONTINUOUS
 10
-1.415618
 20
3.241146
  0
VERTEX
  8
PLAN_1
 62
     2
  6
CONTINUOUS
 10
-1.416063
 20
3.244724
  0
VERTEX
  8
PLAN_1
 62
     2
  6
CONTINUOUS
 10
-1.416512
 20
3.247858
  0
VERTEX
  8
PLAN_1
 62
     2
  6
CONTINUOUS
 10
-1.416512
 20
3.251441
  0
VERTEX
  8
PLAN_1
 62
     2
  6
CONTINUOUS
 10
-1.416063
 20
3.257705
  0
VERTEX
  8
PLAN_1
 62
     2
  6
CONTINUOUS
 10
-1.414720
 20
3.264421
  0
VERTEX
  8
PLAN_1
 62
     2
  6
CONTINUOUS
 10
-1.413827
 20
3.267555
  0
VERTEX
  8
PLAN_1
 62
     2
  6
CONTINUOUS
 10
-1.412484
 20
3.270689
  0
VERTEX
  8
PLAN_1
 62
     2
  6
CONTINUOUS
 10
-1.410693
 20
3.273823
  0
VERTEX
  8
PLAN_1
 62
     2
  6
CONTINUOUS
 10
-1.408902
 20
3.276953
  0
VERTEX
  8
PLAN_1
 62
     2
  6
CONTINUOUS
 10
-1.406665
 20
3.279642
  0
VERTEX
  8
PLAN_1
 62
     2
  6
CONTINUOUS
 10
-1.403976
 20
3.282327
  0
VERTEX
  8
PLAN_1
 62
     2
  6
CONTINUOUS
 10
-1.400843
 20
3.284563
  0
VERTEX
  8
PLAN_1
 62
     2
  6
CONTINUOUS
 10
-1.397713
 20
3.286803
  0
VERTEX
  8
PLAN_1
 62
     2
  6
CONTINUOUS
 10
-1.394130
 20
3.288146
  0
VERTEX
  8
PLAN_1
 62
     2
  6
CONTINUOUS
 10
-1.389654
 20
3.289488
  0
VERTEX
  8
PLAN_1
 62
     2
  6
CONTINUOUS
 10
-1.385177
 20
3.290382
  0
VERTEX
  8
PLAN_1
 62
     2
  6
CONTINUOUS
 10
-1.380252
 20
3.290831
  0
VERTEX
  8
PLAN_1
 62
     2
  6
CONTINUOUS
 10
-1.376224
 20
3.290382
  0
VERTEX
  8
PLAN_1
 62
     2
  6
CONTINUOUS
 10
-1.372197
 20
3.289937
  0
VERTEX
  8
PLAN_1
 62
     2
  6
CONTINUOUS
 10
-1.369063
 20
3.289039
  0
VERTEX
  8
PLAN_1
 62
     2
  6
CONTINUOUS
 10
-1.365480
 20
3.288146
  0
VERTEX
  8
PLAN_1
 62
     2
  6
CONTINUOUS
 10
-1.362795
 20
3.286803
  0
VERTEX
  8
PLAN_1
 62
     2
  6
CONTINUOUS
 10
-1.360110
 20
3.285012
  0
VERTEX
  8
PLAN_1
 62
     2
  6
CONTINUOUS
 10
-1.357425
 20
3.283220
  0
VERTEX
  8
PLAN_1
 62
     2
  6
CONTINUOUS
 10
-1.355185
 20
3.281429
  0
VERTEX
  8
PLAN_1
 62
     2
  6
CONTINUOUS
 10
-1.347130
 20
3.290831
  0
VERTEX
  8
PLAN_1
 62
     2
  6
CONTINUOUS
 10
-1.343547
 20
3.287697
  0
VERTEX
  8
PLAN_1
 62
     2
  6
CONTINUOUS
 10
-1.352500
 20
3.277850
  0
SEQEND
  8
0
  0
POLYLINE
  8
PLAN_1
 62
     2
  6
CONTINUOUS
 66
     1
 40
0.003000
 41
0.003000
  0
VERTEX
  8
PLAN_1
 62
     2
  6
CONTINUOUS
 10
-1.398157
 20
3.228161
  0
VERTEX
  8
PLAN_1
 62
     2
  6
CONTINUOUS
 10
-1.396366
 20
3.226819
  0
VERTEX
  8
PLAN_1
 62
     2
  6
CONTINUOUS
 10
-1.394579
 20
3.225028
  0
VERTEX
  8
PLAN_1
 62
     2
  6
CONTINUOUS
 10
-1.392339
 20
3.223685
  0
VERTEX
  8
PLAN_1
 62
     2
  6
CONTINUOUS
 10
-1.390547
 20
3.222791
  0
VERTEX
  8
PLAN_1
 62
     2
  6
CONTINUOUS
 10
-1.387862
 20
3.221898
  0
VERTEX
  8
PLAN_1
 62
     2
  6
CONTINUOUS
 10
-1.385626
 20
3.221449
  0
VERTEX
  8
PLAN_1
 62
     2
  6
CONTINUOUS
 10
-1.382941
 20
3.221000
  0
VERTEX
  8
PLAN_1
 62
     2
  6
CONTINUOUS
 10
-1.380252
 20
3.221000
  0
VERTEX
  8
PLAN_1
 62
     2
  6
CONTINUOUS
 10
-1.377118
 20
3.221000
  0
VERTEX
  8
PLAN_1
 62
     2
  6
CONTINUOUS
 10
-1.374433
 20
3.221449
  0
VERTEX
  8
PLAN_1
 62
     2
  6
CONTINUOUS
 10
-1.371748
 20
3.222343
  0
VERTEX
  8
PLAN_1
 62
     2
  6
CONTINUOUS
 10
-1.369512
 20
3.223240
  0
VERTEX
  8
PLAN_1
 62
     2
  6
CONTINUOUS
 10
-1.366823
 20
3.224583
  0
VERTEX
  8
PLAN_1
 62
     2
  6
CONTINUOUS
 10
-1.365035
 20
3.225925
  0
VERTEX
  8
PLAN_1
 62
     2
  6
CONTINUOUS
 10
-1.362795
 20
3.227717
  0
VERTEX
  8
PLAN_1
 62
     2
  6
CONTINUOUS
 10
-1.361004
 20
3.229504
  0
VERTEX
  8
PLAN_1
 62
     2
  6
CONTINUOUS
 10
-1.359661
 20
3.231744
  0
VERTEX
  8
PLAN_1
 62
     2
  6
CONTINUOUS
 10
-1.358319
 20
3.233980
  0
VERTEX
  8
PLAN_1
 62
     2
  6
CONTINUOUS
 10
-1.356976
 20
3.236669
  0
VERTEX
  8
PLAN_1
 62
     2
  6
CONTINUOUS
 10
-1.356083
 20
3.238906
  0
VERTEX
  8
PLAN_1
 62
     2
  6
CONTINUOUS
 10
-1.355185
 20
3.242039
  0
VERTEX
  8
PLAN_1
 62
     2
  6
CONTINUOUS
 10
-1.354740
 20
3.244724
  0
VERTEX
  8
PLAN_1
 62
     2
  6
CONTINUOUS
 10
-1.354291
 20
3.247858
  0
VERTEX
  8
PLAN_1
 62
     2
  6
CONTINUOUS
 10
-1.354291
 20
3.251441
  0
VERTEX
  8
PLAN_1
 62
     2
  6
CONTINUOUS
 10
-1.354291
 20
3.254126
  0
VERTEX
  8
PLAN_1
 62
     2
  6
CONTINUOUS
 10
-1.354740
 20
3.256811
  0
VERTEX
  8
PLAN_1
 62
     2
  6
CONTINUOUS
 10
-1.354740
 20
3.259496
  0
VERTEX
  8
PLAN_1
 62
     2
  6
CONTINUOUS
 10
-1.355634
 20
3.261736
  0
VERTEX
  8
PLAN_1
 62
     2
  6
CONTINUOUS
 10
-1.356083
 20
3.263972
  0
VERTEX
  8
PLAN_1
 62
     2
  6
CONTINUOUS
 10
-1.356976
 20
3.266213
  0
VERTEX
  8
PLAN_1
 62
     2
  6
CONTINUOUS
 10
-1.358319
 20
3.268449
  0
VERTEX
  8
PLAN_1
 62
     2
  6
CONTINUOUS
 10
-1.359217
 20
3.270240
  0
VERTEX
  8
PLAN_1
 62
     2
  6
CONTINUOUS
 10
-1.398157
 20
3.228161
  0
SEQEND
  8
0
  0
POLYLINE
  8
PLAN_1
 62
     2
  6
CONTINUOUS
 66
     1
 40
0.003000
 41
0.003000
  0
VERTEX
  8
PLAN_1
 62
     2
  6
CONTINUOUS
 10
-1.361902
 20
3.274268
  0
VERTEX
  8
PLAN_1
 62
     2
  6
CONTINUOUS
 10
-1.363693
 20
3.275610
  0
VERTEX
  8
PLAN_1
 62
     2
  6
CONTINUOUS
 10
-1.365480
 20
3.277402
  0
VERTEX
  8
PLAN_1
 62
     2
  6
CONTINUOUS
 10
-1.367720
 20
3.278744
  0
VERTEX
  8
PLAN_1
 62
     2
  6
CONTINUOUS
 10
-1.369957
 20
3.279642
  0
VERTEX
  8
PLAN_1
 62
     2
  6
CONTINUOUS
 10
-1.372197
 20
3.280535
  0
VERTEX
  8
PLAN_1
 62
     2
  6
CONTINUOUS
 10
-1.374882
 20
3.280984
  0
VERTEX
  8
PLAN_1
 62
     2
  6
CONTINUOUS
 10
-1.377567
 20
3.281429
  0
VERTEX
  8
PLAN_1
 62
     2
  6
CONTINUOUS
 10
-1.380252
 20
3.281878
  0
VERTEX
  8
PLAN_1
 62
     2
  6
CONTINUOUS
 10
-1.383386
 20
3.281429
  0
VERTEX
  8
PLAN_1
 62
     2
  6
CONTINUOUS
 10
-1.386071
 20
3.280984
  0
VERTEX
  8
PLAN_1
 62
     2
  6
CONTINUOUS
 10
-1.388760
 20
3.280535
  0
VERTEX
  8
PLAN_1
 62
     2
  6
CONTINUOUS
 10
-1.390996
 20
3.279193
  0
VERTEX
  8
PLAN_1
 62
     2
  6
CONTINUOUS
 10
-1.393236
 20
3.278299
  0
VERTEX
  8
PLAN_1
 62
     2
  6
CONTINUOUS
 10
-1.395472
 20
3.276508
  0
VERTEX
  8
PLAN_1
 62
     2
  6
CONTINUOUS
 10
-1.397713
 20
3.275165
  0
VERTEX
  8
PLAN_1
 62
     2
  6
CONTINUOUS
 10
-1.399500
 20
3.272925
  0
VERTEX
  8
PLAN_1
 62
     2
  6
CONTINUOUS
 10
-1.400843
 20
3.271134
  0
VERTEX
  8
PLAN_1
 62
     2
  6
CONTINUOUS
 10
-1.402189
 20
3.268449
  0
VERTEX
  8
PLAN_1
 62
     2
  6
CONTINUOUS
 10
-1.403531
 20
3.266213
  0
VERTEX
  8
PLAN_1
 62
     2
  6
CONTINUOUS
 10
-1.404425
 20
3.263524
  0
VERTEX
  8
PLAN_1
 62
     2
  6
CONTINUOUS
 10
-1.405319
 20
3.260839
  0
VERTEX
  8
PLAN_1
 62
     2
  6
CONTINUOUS
 10
-1.405768
 20
3.257705
  0
VERTEX
  8
PLAN_1
 62
     2
  6
CONTINUOUS
 10
-1.406217
 20
3.254575
  0
VERTEX
  8
PLAN_1
 62
     2
  6
CONTINUOUS
 10
-1.406217
 20
3.251441
  0
VERTEX
  8
PLAN_1
 62
     2
  6
CONTINUOUS
 10
-1.406217
 20
3.248307
  0
VERTEX
  8
PLAN_1
 62
     2
  6
CONTINUOUS
 10
-1.405768
 20
3.245622
  0
VERTEX
  8
PLAN_1
 62
     2
  6
CONTINUOUS
 10
-1.405319
 20
3.243382
  0
VERTEX
  8
PLAN_1
 62
     2
  6
CONTINUOUS
 10
-1.404874
 20
3.240697
  0
VERTEX
  8
PLAN_1
 62
     2
  6
CONTINUOUS
 10
-1.403976
 20
3.238457
  0
VERTEX
  8
PLAN_1
 62
     2
  6
CONTINUOUS
 10
-1.403083
 20
3.235772
  0
VERTEX
  8
PLAN_1
 62
     2
  6
CONTINUOUS
 10
-1.402189
 20
3.233980
  0
VERTEX
  8
PLAN_1
 62
     2
  6
CONTINUOUS
 10
-1.400843
 20
3.231744
  0
VERTEX
  8
PLAN_1
 62
     2
  6
CONTINUOUS
 10
-1.361902
 20
3.274268
  0
SEQEND
  8
0
  0
POLYLINE
  8
PLAN_1
 62
     2
  6
CONTINUOUS
 66
     1
 40
0.003000
 41
0.003000
  0
VERTEX
  8
PLAN_1
 62
     2
  6
CONTINUOUS
 10
-1.335043
 20
3.260839
  0
VERTEX
  8
PLAN_1
 62
     2
  6
CONTINUOUS
 10
-1.335043
 20
3.264870
  0
VERTEX
  8
PLAN_1
 62
     2
  6
CONTINUOUS
 10
-1.334146
 20
3.268898
  0
VERTEX
  8
PLAN_1
 62
     2
  6
CONTINUOUS
 10
-1.333252
 20
3.272031
  0
VERTEX
  8
PLAN_1
 62
     2
  6
CONTINUOUS
 10
-1.332358
 20
3.275165
  0
VERTEX
  8
PLAN_1
 62
     2
  6
CONTINUOUS
 10
-1.331016
 20
3.277402
  0
VERTEX
  8
PLAN_1
 62
     2
  6
CONTINUOUS
 10
-1.329224
 20
3.279642
  0
VERTEX
  8
PLAN_1
 62
     2
  6
CONTINUOUS
 10
-1.327433
 20
3.281429
  0
VERTEX
  8
PLAN_1
 62
     2
  6
CONTINUOUS
 10
-1.325193
 20
3.282772
  0
VERTEX
  8
PLAN_1
 62
     2
  6
CONTINUOUS
 10
-1.321165
 20
3.285012
  0
VERTEX
  8
PLAN_1
 62
     2
  6
CONTINUOUS
 10
-1.317138
 20
3.286354
  0
VERTEX
  8
PLAN_1
 62
     2
  6
CONTINUOUS
 10
-1.313110
 20
3.286803
  0
VERTEX
  8
PLAN_1
 62
     2
  6
CONTINUOUS
 10
-1.309976
 20
3.287248
  0
VERTEX
  8
PLAN_1
 62
     2
  6
CONTINUOUS
 10
-1.305051
 20
3.286803
  0
VERTEX
  8
PLAN_1
 62
     2
  6
CONTINUOUS
 10
-1.301024
 20
3.285461
  0
VERTEX
  8
PLAN_1
 62
     2
  6
CONTINUOUS
 10
-1.296996
 20
3.283669
  0
VERTEX
  8
PLAN_1
 62
     2
  6
CONTINUOUS
 10
-1.293413
 20
3.281429
  0
VERTEX
  8
PLAN_1
 62
     2
  6
CONTINUOUS
 10
-1.292071
 20
3.279642
  0
VERTEX
  8
PLAN_1
 62
     2
  6
CONTINUOUS
 10
-1.290728
 20
3.278299
  0
VERTEX
  8
PLAN_1
 62
     2
  6
CONTINUOUS
 10
-1.289831
 20
3.276508
  0
VERTEX
  8
PLAN_1
 62
     2
  6
CONTINUOUS
 10
-1.288937
 20
3.274268
  0
VERTEX
  8
PLAN_1
 62
     2
  6
CONTINUOUS
 10
-1.288043
 20
3.272476
  0
VERTEX
  8
PLAN_1
 62
     2
  6
CONTINUOUS
 10
-1.287594
 20
3.270240
  0
VERTEX
  8
PLAN_1
 62
     2
  6
CONTINUOUS
 10
-1.287146
 20
3.267555
  0
VERTEX
  8
PLAN_1
 62
     2
  6
CONTINUOUS
 10
-1.287146
 20
3.265315
  0
VERTEX
  8
PLAN_1
 62
     2
  6
CONTINUOUS
 10
-1.287146
 20
3.260839
  0
VERTEX
  8
PLAN_1
 62
     2
  6
CONTINUOUS
 10
-1.288488
 20
3.256811
  0
VERTEX
  8
PLAN_1
 62
     2
  6
CONTINUOUS
 10
-1.290280
 20
3.253228
  0
VERTEX
  8
PLAN_1
 62
     2
  6
CONTINUOUS
 10
-1.292520
 20
3.250098
  0
VERTEX
  8
PLAN_1
 62
     2
  6
CONTINUOUS
 10
-1.295650
 20
3.247409
  0
VERTEX
  8
PLAN_1
 62
     2
  6
CONTINUOUS
 10
-1.298783
 20
3.245173
  0
VERTEX
  8
PLAN_1
 62
     2
  6
CONTINUOUS
 10
-1.302366
 20
3.242933
  0
VERTEX
  8
PLAN_1
 62
     2
  6
CONTINUOUS
 10
-1.306394
 20
3.240697
  0
VERTEX
  8
PLAN_1
 62
     2
  6
CONTINUOUS
 10
-1.314004
 20
3.236669
  0
VERTEX
  8
PLAN_1
 62
     2
  6
CONTINUOUS
 10
-1.317587
 20
3.234429
  0
VERTEX
  8
PLAN_1
 62
     2
  6
CONTINUOUS
 10
-1.320272
 20
3.232638
  0
VERTEX
  8
PLAN_1
 62
     2
  6
CONTINUOUS
 10
-1.322508
 20
3.230402
  0
VERTEX
  8
PLAN_1
 62
     2
  6
CONTINUOUS
 10
-1.323850
 20
3.228610
  0
VERTEX
  8
PLAN_1
 62
     2
  6
CONTINUOUS
 10
-1.325193
 20
3.226819
  0
VERTEX
  8
PLAN_1
 62
     2
  6
CONTINUOUS
 10
-1.326091
 20
3.225028
  0
VERTEX
  8
PLAN_1
 62
     2
  6
CONTINUOUS
 10
-1.326539
 20
3.223685
  0
VERTEX
  8
PLAN_1
 62
     2
  6
CONTINUOUS
 10
-1.326539
 20
3.222791
  0
VERTEX
  8
PLAN_1
 62
     2
  6
CONTINUOUS
 10
-1.287146
 20
3.222791
  0
VERTEX
  8
PLAN_1
 62
     2
  6
CONTINUOUS
 10
-1.287146
 20
3.213839
  0
VERTEX
  8
PLAN_1
 62
     2
  6
CONTINUOUS
 10
-1.336835
 20
3.213839
  0
VERTEX
  8
PLAN_1
 62
     2
  6
CONTINUOUS
 10
-1.336386
 20
3.219209
  0
VERTEX
  8
PLAN_1
 62
     2
  6
CONTINUOUS
 10
-1.335492
 20
3.224134
  0
VERTEX
  8
PLAN_1
 62
     2
  6
CONTINUOUS
 10
-1.333701
 20
3.228161
  0
VERTEX
  8
PLAN_1
 62
     2
  6
CONTINUOUS
 10
-1.331909
 20
3.232193
  0
VERTEX
  8
PLAN_1
 62
     2
  6
CONTINUOUS
 10
-1.329224
 20
3.235323
  0
VERTEX
  8
PLAN_1
 62
     2
  6
CONTINUOUS
 10
-1.326539
 20
3.238012
  0
VERTEX
  8
PLAN_1
 62
     2
  6
CONTINUOUS
 10
-1.323406
 20
3.240697
  0
VERTEX
  8
PLAN_1
 62
     2
  6
CONTINUOUS
 10
-1.319823
 20
3.242933
  0
VERTEX
  8
PLAN_1
 62
     2
  6
CONTINUOUS
 10
-1.309976
 20
3.248752
  0
VERTEX
  8
PLAN_1
 62
     2
  6
CONTINUOUS
 10
-1.307291
 20
3.250098
  0
VERTEX
  8
PLAN_1
 62
     2
  6
CONTINUOUS
 10
-1.304602
 20
3.251886
  0
VERTEX
  8
PLAN_1
 62
     2
  6
CONTINUOUS
 10
-1.302366
 20
3.253228
  0
VERTEX
  8
PLAN_1
 62
     2
  6
CONTINUOUS
 10
-1.300575
 20
3.255020
  0
VERTEX
  8
PLAN_1
 62
     2
  6
CONTINUOUS
 10
-1.298783
 20
3.257260
  0
VERTEX
  8
PLAN_1
 62
     2
  6
CONTINUOUS
 10
-1.297890
 20
3.259496
  0
VERTEX
  8
PLAN_1
 62
     2
  6
CONTINUOUS
 10
-1.296996
 20
3.262181
  0
VERTEX
  8
PLAN_1
 62
     2
  6
CONTINUOUS
 10
-1.296547
 20
3.265764
  0
VERTEX
  8
PLAN_1
 62
     2
  6
CONTINUOUS
 10
-1.296996
 20
3.268000
  0
VERTEX
  8
PLAN_1
 62
     2
  6
CONTINUOUS
 10
-1.297441
 20
3.270240
  0
VERTEX
  8
PLAN_1
 62
     2
  6
CONTINUOUS
 10
-1.298339
 20
3.272476
  0
VERTEX
  8
PLAN_1
 62
     2
  6
CONTINUOUS
 10
-1.300126
 20
3.274268
  0
VERTEX
  8
PLAN_1
 62
     2
  6
CONTINUOUS
 10
-1.301917
 20
3.276059
  0
VERTEX
  8
PLAN_1
 62
     2
  6
CONTINUOUS
 10
-1.304602
 20
3.277402
  0
VERTEX
  8
PLAN_1
 62
     2
  6
CONTINUOUS
 10
-1.307291
 20
3.278744
  0
VERTEX
  8
PLAN_1
 62
     2
  6
CONTINUOUS
 10
-1.311319
 20
3.278744
  0
VERTEX
  8
PLAN_1
 62
     2
  6
CONTINUOUS
 10
-1.313555
 20
3.278744
  0
VERTEX
  8
PLAN_1
 62
     2
  6
CONTINUOUS
 10
-1.315795
 20
3.278299
  0
VERTEX
  8
PLAN_1
 62
     2
  6
CONTINUOUS
 10
-1.317587
 20
3.277850
  0
VERTEX
  8
PLAN_1
 62
     2
  6
CONTINUOUS
 10
-1.319374
 20
3.276953
  0
VERTEX
  8
PLAN_1
 62
     2
  6
CONTINUOUS
 10
-1.320720
 20
3.275610
  0
VERTEX
  8
PLAN_1
 62
     2
  6
CONTINUOUS
 10
-1.322063
 20
3.274717
  0
VERTEX
  8
PLAN_1
 62
     2
  6
CONTINUOUS
 10
-1.322957
 20
3.273374
  0
VERTEX
  8
PLAN_1
 62
     2
  6
CONTINUOUS
 10
-1.323406
 20
3.271583
  0
VERTEX
  8
PLAN_1
 62
     2
  6
CONTINUOUS
 10
-1.324748
 20
3.268898
  0
VERTEX
  8
PLAN_1
 62
     2
  6
CONTINUOUS
 10
-1.325642
 20
3.265764
  0
VERTEX
  8
PLAN_1
 62
     2
  6
CONTINUOUS
 10
-1.325642
 20
3.263079
  0
VERTEX
  8
PLAN_1
 62
     2
  6
CONTINUOUS
 10
-1.326091
 20
3.260839
  0
VERTEX
  8
PLAN_1
 62
     2
  6
CONTINUOUS
 10
-1.335043
 20
3.260839
  0
SEQEND
  8
0
  0
POLYLINE
  8
PLAN_1
 62
     2
  6
CONTINUOUS
 66
     1
 40
0.003000
 41
0.003000
  0
VERTEX
  8
PLAN_1
 62
     2
  6
CONTINUOUS
 10
-1.277299
 20
3.260839
  0
VERTEX
  8
PLAN_1
 62
     2
  6
CONTINUOUS
 10
-1.276850
 20
3.264870
  0
VERTEX
  8
PLAN_1
 62
     2
  6
CONTINUOUS
 10
-1.276402
 20
3.268898
  0
VERTEX
  8
PLAN_1
 62
     2
  6
CONTINUOUS
 10
-1.275508
 20
3.272031
  0
VERTEX
  8
PLAN_1
 62
     2
  6
CONTINUOUS
 10
-1.274165
 20
3.275165
  0
VERTEX
  8
PLAN_1
 62
     2
  6
CONTINUOUS
 10
-1.272823
 20
3.277402
  0
VERTEX
  8
PLAN_1
 62
     2
  6
CONTINUOUS
 10
-1.271480
 20
3.279642
  0
VERTEX
  8
PLAN_1
 62
     2
  6
CONTINUOUS
 10
-1.269689
 20
3.281429
  0
VERTEX
  8
PLAN_1
 62
     2
  6
CONTINUOUS
 10
-1.267449
 20
3.282772
  0
VERTEX
  8
PLAN_1
 62
     2
  6
CONTINUOUS
 10
-1.263421
 20
3.285012
  0
VERTEX
  8
PLAN_1
 62
     2
  6
CONTINUOUS
 10
-1.259394
 20
3.286354
  0
VERTEX
  8
PLAN_1
 62
     2
  6
CONTINUOUS
 10
-1.255366
 20
3.286803
  0
VERTEX
  8
PLAN_1
 62
     2
  6
CONTINUOUS
 10
-1.251783
 20
3.287248
  0
VERTEX
  8
PLAN_1
 62
     2
  6
CONTINUOUS
 10
-1.247307
 20
3.286803
  0
VERTEX
  8
PLAN_1
 62
     2
  6
CONTINUOUS
 10
-1.242831
 20
3.285461
  0
VERTEX
  8
PLAN_1
 62
     2
  6
CONTINUOUS
 10
-1.239248
 20
3.283669
  0
VERTEX
  8
PLAN_1
 62
     2
  6
CONTINUOUS
 10
-1.235669
 20
3.281429
  0
VERTEX
  8
PLAN_1
 62
     2
  6
CONTINUOUS
 10
-1.234327
 20
3.279642
  0
VERTEX
  8
PLAN_1
 62
     2
  6
CONTINUOUS
 10
-1.232984
 20
3.278299
  0
VERTEX
  8
PLAN_1
 62
     2
  6
CONTINUOUS
 10
-1.231642
 20
3.276508
  0
VERTEX
  8
PLAN_1
 62
     2
  6
CONTINUOUS
 10
-1.230744
 20
3.274268
  0
VERTEX
  8
PLAN_1
 62
     2
  6
CONTINUOUS
 10
-1.229850
 20
3.272476
  0
VERTEX
  8
PLAN_1
 62
     2
  6
CONTINUOUS
 10
-1.229402
 20
3.270240
  0
VERTEX
  8
PLAN_1
 62
     2
  6
CONTINUOUS
 10
-1.228953
 20
3.267555
  0
VERTEX
  8
PLAN_1
 62
     2
  6
CONTINUOUS
 10
-1.228953
 20
3.265315
  0
VERTEX
  8
PLAN_1
 62
     2
  6
CONTINUOUS
 10
-1.229402
 20
3.260839
  0
VERTEX
  8
PLAN_1
 62
     2
  6
CONTINUOUS
 10
-1.230744
 20
3.256811
  0
VERTEX
  8
PLAN_1
 62
     2
  6
CONTINUOUS
 10
-1.232535
 20
3.253228
  0
VERTEX
  8
PLAN_1
 62
     2
  6
CONTINUOUS
 10
-1.234772
 20
3.250098
  0
VERTEX
  8
PLAN_1
 62
     2
  6
CONTINUOUS
 10
-1.237461
 20
3.247409
  0
VERTEX
  8
PLAN_1
 62
     2
  6
CONTINUOUS
 10
-1.241039
 20
3.245173
  0
VERTEX
  8
PLAN_1
 62
     2
  6
CONTINUOUS
 10
-1.244622
 20
3.242933
  0
VERTEX
  8
PLAN_1
 62
     2
  6
CONTINUOUS
 10
-1.248650
 20
3.240697
  0
VERTEX
  8
PLAN_1
 62
     2
  6
CONTINUOUS
 10
-1.256260
 20
3.236669
  0
VERTEX
  8
PLAN_1
 62
     2
  6
CONTINUOUS
 10
-1.259394
 20
3.234429
  0
VERTEX
  8
PLAN_1
 62
     2
  6
CONTINUOUS
 10
-1.262528
 20
3.232638
  0
VERTEX
  8
PLAN_1
 62
     2
  6
CONTINUOUS
 10
-1.264319
 20
3.230402
  0
VERTEX
  8
PLAN_1
 62
     2
  6
CONTINUOUS
 10
-1.266106
 20
3.228610
  0
VERTEX
  8
PLAN_1
 62
     2
  6
CONTINUOUS
 10
-1.267449
 20
3.226819
  0
VERTEX
  8
PLAN_1
 62
     2
  6
CONTINUOUS
 10
-1.267898
 20
3.225028
  0
VERTEX
  8
PLAN_1
 62
     2
  6
CONTINUOUS
 10
-1.268346
 20
3.223685
  0
VERTEX
  8
PLAN_1
 62
     2
  6
CONTINUOUS
 10
-1.268795
 20
3.222791
  0
VERTEX
  8
PLAN_1
 62
     2
  6
CONTINUOUS
 10
-1.228953
 20
3.222791
  0
VERTEX
  8
PLAN_1
 62
     2
  6
CONTINUOUS
 10
-1.228953
 20
3.213839
  0
VERTEX
  8
PLAN_1
 62
     2
  6
CONTINUOUS
 10
-1.279091
 20
3.213839
  0
VERTEX
  8
PLAN_1
 62
     2
  6
CONTINUOUS
 10
-1.278642
 20
3.219209
  0
VERTEX
  8
PLAN_1
 62
     2
  6
CONTINUOUS
 10
-1.277744
 20
3.224134
  0
VERTEX
  8
PLAN_1
 62
     2
  6
CONTINUOUS
 10
-1.275957
 20
3.228161
  0
VERTEX
  8
PLAN_1
 62
     2
  6
CONTINUOUS
 10
-1.274165
 20
3.232193
  0
VERTEX
  8
PLAN_1
 62
     2
  6
CONTINUOUS
 10
-1.271480
 20
3.235323
  0
VERTEX
  8
PLAN_1
 62
     2
  6
CONTINUOUS
 10
-1.268795
 20
3.238012
  0
VERTEX
  8
PLAN_1
 62
     2
  6
CONTINUOUS
 10
-1.265213
 20
3.240697
  0
VERTEX
  8
PLAN_1
 62
     2
  6
CONTINUOUS
 10
-1.262079
 20
3.242933
  0
VERTEX
  8
PLAN_1
 62
     2
  6
CONTINUOUS
 10
-1.252232
 20
3.248752
  0
VERTEX
  8
PLAN_1
 62
     2
  6
CONTINUOUS
 10
-1.249547
 20
3.250098
  0
VERTEX
  8
PLAN_1
 62
     2
  6
CONTINUOUS
 10
-1.246858
 20
3.251886
  0
VERTEX
  8
PLAN_1
 62
     2
  6
CONTINUOUS
 10
-1.244622
 20
3.253228
  0
VERTEX
  8
PLAN_1
 62
     2
  6
CONTINUOUS
 10
-1.242382
 20
3.255020
  0
VERTEX
  8
PLAN_1
 62
     2
  6
CONTINUOUS
 10
-1.241039
 20
3.257260
  0
VERTEX
  8
PLAN_1
 62
     2
  6
CONTINUOUS
 10
-1.239697
 20
3.259496
  0
VERTEX
  8
PLAN_1
 62
     2
  6
CONTINUOUS
 10
-1.239248
 20
3.262181
  0
VERTEX
  8
PLAN_1
 62
     2
  6
CONTINUOUS
 10
-1.238803
 20
3.265764
  0
VERTEX
  8
PLAN_1
 62
     2
  6
CONTINUOUS
 10
-1.238803
 20
3.268000
  0
VERTEX
  8
PLAN_1
 62
     2
  6
CONTINUOUS
 10
-1.239697
 20
3.270240
  0
VERTEX
  8
PLAN_1
 62
     2
  6
CONTINUOUS
 10
-1.240594
 20
3.272476
  0
VERTEX
  8
PLAN_1
 62
     2
  6
CONTINUOUS
 10
-1.241937
 20
3.274268
  0
VERTEX
  8
PLAN_1
 62
     2
  6
CONTINUOUS
 10
-1.244173
 20
3.276059
  0
VERTEX
  8
PLAN_1
 62
     2
  6
CONTINUOUS
 10
-1.246413
 20
3.277402
  0
VERTEX
  8
PLAN_1
 62
     2
  6
CONTINUOUS
 10
-1.249547
 20
3.278744
  0
VERTEX
  8
PLAN_1
 62
     2
  6
CONTINUOUS
 10
-1.253126
 20
3.278744
  0
VERTEX
  8
PLAN_1
 62
     2
  6
CONTINUOUS
 10
-1.255811
 20
3.278744
  0
VERTEX
  8
PLAN_1
 62
     2
  6
CONTINUOUS
 10
-1.258051
 20
3.278299
  0
VERTEX
  8
PLAN_1
 62
     2
  6
CONTINUOUS
 10
-1.259843
 20
3.277850
  0
VERTEX
  8
PLAN_1
 62
     2
  6
CONTINUOUS
 10
-1.261185
 20
3.276953
  0
VERTEX
  8
PLAN_1
 62
     2
  6
CONTINUOUS
 10
-1.262972
 20
3.275610
  0
VERTEX
  8
PLAN_1
 62
     2
  6
CONTINUOUS
 10
-1.263870
 20
3.274717
  0
VERTEX
  8
PLAN_1
 62
     2
  6
CONTINUOUS
 10
-1.264764
 20
3.273374
  0
VERTEX
  8
PLAN_1
 62
     2
  6
CONTINUOUS
 10
-1.265661
 20
3.271583
  0
VERTEX
  8
PLAN_1
 62
     2
  6
CONTINUOUS
 10
-1.267004
 20
3.268898
  0
VERTEX
  8
PLAN_1
 62
     2
  6
CONTINUOUS
 10
-1.267449
 20
3.265764
  0
VERTEX
  8
PLAN_1
 62
     2
  6
CONTINUOUS
 10
-1.267898
 20
3.263079
  0
VERTEX
  8
PLAN_1
 62
     2
  6
CONTINUOUS
 10
-1.267898
 20
3.260839
  0
VERTEX
  8
PLAN_1
 62
     2
  6
CONTINUOUS
 10
-1.277299
 20
3.260839
  0
SEQEND
  8
0
  0
POLYLINE
  8
PLAN_1
 62
     2
  6
CONTINUOUS
 66
     1
 40
0.004028
 41
0.004028
  0
VERTEX
  8
PLAN_1
 62
     2
  6
CONTINUOUS
 10
-0.691350
 20
3.021358
  0
VERTEX
  8
PLAN_1
 62
     2
  6
CONTINUOUS
 10
-0.691350
 20
3.349469
  0
SEQEND
  8
0
  0
POLYLINE
  8
PLAN_1
 62
     2
  6
CONTINUOUS
 66
     1
 40
0.004028
 41
0.004028
  0
VERTEX
  8
PLAN_1
 62
     2
  6
CONTINUOUS
 10
-0.080335
 20
3.507035
  0
VERTEX
  8
PLAN_1
 62
     2
  6
CONTINUOUS
 10
-0.080335
 20
0.759035
  0
SEQEND
  8
0
  0
POLYLINE
  8
PLAN_1
 62
     2
  6
CONTINUOUS
 66
     1
 40
0.004028
 41
0.004028
  0
VERTEX
  8
PLAN_1
 62
     2
  6
CONTINUOUS
 10
-2.292075
 20
3.507035
  0
VERTEX
  8
PLAN_1
 62
     2
  6
CONTINUOUS
 10
-2.292075
 20
1.746059
  0
SEQEND
  8
0
  0
POLYLINE
  8
PLAN_1
 62
     2
  6
CONTINUOUS
 66
     1
 40
0.004028
 41
0.004028
  0
VERTEX
  8
PLAN_1
 62
     2
  6
CONTINUOUS
 10
-0.541394
 20
3.168181
  0
VERTEX
  8
PLAN_1
 62
     2
  6
CONTINUOUS
 10
-0.104059
 20
3.168181
  0
SEQEND
  8
0
  0
POLYLINE
  8
PLAN_1
 62
     2
  6
CONTINUOUS
 66
     1
 40
0.004028
 41
0.004028
  0
VERTEX
  8
PLAN_1
 62
     2
  6
CONTINUOUS
 10
-0.056610
 20
3.168181
  0
VERTEX
  8
PLAN_1
 62
     2
  6
CONTINUOUS
 10
0.271949
 20
3.168181
  0
SEQEND
  8
0
  0
POLYLINE
  8
PLAN_1
 62
     2
  6
CONTINUOUS
 66
     1
 40
0.004028
 41
0.004028
  0
VERTEX
  8
PLAN_1
 62
     2
  6
CONTINUOUS
 10
0.126024
 20
0.600575
  0
VERTEX
  8
PLAN_1
 62
     2
  6
CONTINUOUS
 10
0.280453
 20
0.600575
  0
SEQEND
  8
0
  0
POLYLINE
  8
PLAN_1
 62
     2
  6
CONTINUOUS
 66
     1
 40
0.004028
 41
0.004028
  0
VERTEX
  8
PLAN_1
 62
     2
  6
CONTINUOUS
 10
0.256728
 20
0.630118
  0
VERTEX
  8
PLAN_1
 62
     2
  6
CONTINUOUS
 10
0.256728
 20
3.138638
  0
SEQEND
  8
0
  0
SOLID
  8
PLAN_1
 62
     2
 10
0.256728
 20
3.168181
 11
0.241063
 21
3.109094
 12
0.256728
 22
3.168181
 13
0.272398
 23
3.109094
  0
POLYLINE
  8
PLAN_1
 62
     2
  6
CONTINUOUS
 66
     1
 40
0.003000
 41
0.003000
  0
VERTEX
  8
PLAN_1
 62
     2
  6
CONTINUOUS
 10
0.256728
 20
3.168181
  0
VERTEX
  8
PLAN_1
 62
     2
  6
CONTINUOUS
 10
0.241063
 20
3.109094
  0
VERTEX
  8
PLAN_1
 62
     2
  6
CONTINUOUS
 10
0.272398
 20
3.109094
  0
VERTEX
  8
PLAN_1
 62
     2
  6
CONTINUOUS
 10
0.256728
 20
3.168181
  0
SEQEND
  8
0
  0
SOLID
  8
PLAN_1
 62
     2
 10
0.256728
 20
0.600575
 11
0.241063
 21
0.659661
 12
0.256728
 22
0.600575
 13
0.272398
 23
0.659661
  0
POLYLINE
  8
PLAN_1
 62
     2
  6
CONTINUOUS
 66
     1
 40
0.003000
 41
0.003000
  0
VERTEX
  8
PLAN_1
 62
     2
  6
CONTINUOUS
 10
0.256728
 20
0.600575
  0
VERTEX
  8
PLAN_1
 62
     2
  6
CONTINUOUS
 10
0.241063
 20
0.659661
  0
VERTEX
  8
PLAN_1
 62
     2
  6
CONTINUOUS
 10
0.272398
 20
0.659661
  0
VERTEX
  8
PLAN_1
 62
     2
  6
CONTINUOUS
 10
0.256728
 20
0.600575
  0
SEQEND
  8
0
  0
POLYLINE
  8
PLAN_1
 62
     2
  6
CONTINUOUS
 66
     1
 40
0.003000
 41
0.003000
  0
VERTEX
  8
PLAN_1
 62
     2
  6
CONTINUOUS
 10
0.179736
 20
1.870051
  0
VERTEX
  8
PLAN_1
 62
     2
  6
CONTINUOUS
 10
0.177051
 20
1.869606
  0
VERTEX
  8
PLAN_1
 62
     2
  6
CONTINUOUS
 10
0.175260
 20
1.868709
  0
VERTEX
  8
PLAN_1
 62
     2
  6
CONTINUOUS
 10
0.173024
 20
1.867366
  0
VERTEX
  8
PLAN_1
 62
     2
  6
CONTINUOUS
 10
0.171681
 20
1.866024
  0
VERTEX
  8
PLAN_1
 62
     2
  6
CONTINUOUS
 10
0.170339
 20
1.864681
  0
VERTEX
  8
PLAN_1
 62
     2
  6
CONTINUOUS
 10
0.168996
 20
1.862445
  0
VERTEX
  8
PLAN_1
 62
     2
  6
CONTINUOUS
 10
0.168547
 20
1.860205
  0
VERTEX
  8
PLAN_1
 62
     2
  6
CONTINUOUS
 10
0.168098
 20
1.857520
  0
VERTEX
  8
PLAN_1
 62
     2
  6
CONTINUOUS
 10
0.168547
 20
1.854835
  0
VERTEX
  8
PLAN_1
 62
     2
  6
CONTINUOUS
 10
0.168996
 20
1.852594
  0
VERTEX
  8
PLAN_1
 62
     2
  6
CONTINUOUS
 10
0.170339
 20
1.850358
  0
VERTEX
  8
PLAN_1
 62
     2
  6
CONTINUOUS
 10
0.171232
 20
1.848567
  0
VERTEX
  8
PLAN_1
 62
     2
  6
CONTINUOUS
 10
0.173024
 20
1.846776
  0
VERTEX
  8
PLAN_1
 62
     2
  6
CONTINUOUS
 10
0.174815
 20
1.845433
  0
VERTEX
  8
PLAN_1
 62
     2
  6
CONTINUOUS
 10
0.176606
 20
1.844539
  0
VERTEX
  8
PLAN_1
 62
     2
  6
CONTINUOUS
 10
0.178843
 20
1.843193
  0
VERTEX
  8
PLAN_1
 62
     2
  6
CONTINUOUS
 10
0.183319
 20
1.841850
  0
VERTEX
  8
PLAN_1
 62
     2
  6
CONTINUOUS
 10
0.187795
 20
1.840508
  0
VERTEX
  8
PLAN_1
 62
     2
  6
CONTINUOUS
 10
0.191823
 20
1.840063
  0
VERTEX
  8
PLAN_1
 62
     2
  6
CONTINUOUS
 10
0.195406
 20
1.840063
  0
VERTEX
  8
PLAN_1
 62
     2
  6
CONTINUOUS
 10
0.194063
 20
1.841406
  0
VERTEX
  8
PLAN_1
 62
     2
  6
CONTINUOUS
 10
0.192272
 20
1.842299
  0
VERTEX
  8
PLAN_1
 62
     2
  6
CONTINUOUS
 10
0.190929
 20
1.844091
  0
VERTEX
  8
PLAN_1
 62
     2
  6
CONTINUOUS
 10
0.189587
 20
1.845882
  0
VERTEX
  8
PLAN_1
 62
     2
  6
CONTINUOUS
 10
0.188244
 20
1.848118
  0
VERTEX
  8
PLAN_1
 62
     2
  6
CONTINUOUS
 10
0.187346
 20
1.850803
  0
VERTEX
  8
PLAN_1
 62
     2
  6
CONTINUOUS
 10
0.186902
 20
1.853937
  0
VERTEX
  8
PLAN_1
 62
     2
  6
CONTINUOUS
 10
0.186453
 20
1.857520
  0
VERTEX
  8
PLAN_1
 62
     2
  6
CONTINUOUS
 10
0.186902
 20
1.861098
  0
VERTEX
  8
PLAN_1
 62
     2
  6
CONTINUOUS
 10
0.187795
 20
1.865130
  0
VERTEX
  8
PLAN_1
 62
     2
  6
CONTINUOUS
 10
0.189138
 20
1.868709
  0
VERTEX
  8
PLAN_1
 62
     2
  6
CONTINUOUS
 10
0.191823
 20
1.872291
  0
VERTEX
  8
PLAN_1
 62
     2
  6
CONTINUOUS
 10
0.193165
 20
1.874083
  0
VERTEX
  8
PLAN_1
 62
     2
  6
CONTINUOUS
 10
0.194957
 20
1.875425
  0
VERTEX
  8
PLAN_1
 62
     2
  6
CONTINUOUS
 10
0.196748
 20
1.876768
  0
VERTEX
  8
PLAN_1
 62
     2
  6
CONTINUOUS
 10
0.198984
 20
1.878110
  0
VERTEX
  8
PLAN_1
 62
     2
  6
CONTINUOUS
 10
0.201224
 20
1.879004
  0
VERTEX
  8
PLAN_1
 62
     2
  6
CONTINUOUS
 10
0.203909
 20
1.879902
  0
VERTEX
  8
PLAN_1
 62
     2
  6
CONTINUOUS
 10
0.206594
 20
1.880346
  0
VERTEX
  8
PLAN_1
 62
     2
  6
CONTINUOUS
 10
0.209728
 20
1.880346
  0
VERTEX
  8
PLAN_1
 62
     2
  6
CONTINUOUS
 10
0.212413
 20
1.880346
  0
VERTEX
  8
PLAN_1
 62
     2
  6
CONTINUOUS
 10
0.215102
 20
1.879902
  0
VERTEX
  8
PLAN_1
 62
     2
  6
CONTINUOUS
 10
0.217339
 20
1.879453
  0
VERTEX
  8
PLAN_1
 62
     2
  6
CONTINUOUS
 10
0.219579
 20
1.879004
  0
VERTEX
  8
PLAN_1
 62
     2
  6
CONTINUOUS
 10
0.221815
 20
1.877661
  0
VERTEX
  8
PLAN_1
 62
     2
  6
CONTINUOUS
 10
0.224055
 20
1.876768
  0
VERTEX
  8
PLAN_1
 62
     2
  6
CONTINUOUS
 10
0.226291
 20
1.875425
  0
VERTEX
  8
PLAN_1
 62
     2
  6
CONTINUOUS
 10
0.228083
 20
1.873634
  0
VERTEX
  8
PLAN_1
 62
     2
  6
CONTINUOUS
 10
0.229425
 20
1.871843
  0
VERTEX
  8
PLAN_1
 62
     2
  6
CONTINUOUS
 10
0.231217
 20
1.870500
  0
VERTEX
  8
PLAN_1
 62
     2
  6
CONTINUOUS
 10
0.232110
 20
1.868709
  0
VERTEX
  8
PLAN_1
 62
     2
  6
CONTINUOUS
 10
0.233453
 20
1.866472
  0
VERTEX
  8
PLAN_1
 62
     2
  6
CONTINUOUS
 10
0.233902
 20
1.864232
  0
VERTEX
  8
PLAN_1
 62
     2
  6
CONTINUOUS
 10
0.234795
 20
1.861547
  0
VERTEX
  8
PLAN_1
 62
     2
  6
CONTINUOUS
 10
0.235244
 20
1.858413
  0
VERTEX
  8
PLAN_1
 62
     2
  6
CONTINUOUS
 10
0.235244
 20
1.854835
  0
VERTEX
  8
PLAN_1
 62
     2
  6
CONTINUOUS
 10
0.235244
 20
1.852594
  0
VERTEX
  8
PLAN_1
 62
     2
  6
CONTINUOUS
 10
0.234795
 20
1.850358
  0
VERTEX
  8
PLAN_1
 62
     2
  6
CONTINUOUS
 10
0.233902
 20
1.848118
  0
VERTEX
  8
PLAN_1
 62
     2
  6
CONTINUOUS
 10
0.233004
 20
1.845433
  0
VERTEX
  8
PLAN_1
 62
     2
  6
CONTINUOUS
 10
0.231661
 20
1.842748
  0
VERTEX
  8
PLAN_1
 62
     2
  6
CONTINUOUS
 10
0.229874
 20
1.840508
  0
VERTEX
  8
PLAN_1
 62
     2
  6
CONTINUOUS
 10
0.227185
 20
1.838272
  0
VERTEX
  8
PLAN_1
 62
     2
  6
CONTINUOUS
 10
0.224500
 20
1.836031
  0
VERTEX
  8
PLAN_1
 62
     2
  6
CONTINUOUS
 10
0.221815
 20
1.834689
  0
VERTEX
  8
PLAN_1
 62
     2
  6
CONTINUOUS
 10
0.219130
 20
1.833346
  0
VERTEX
  8
PLAN_1
 62
     2
  6
CONTINUOUS
 10
0.215996
 20
1.832453
  0
VERTEX
  8
PLAN_1
 62
     2
  6
CONTINUOUS
 10
0.212862
 20
1.831555
  0
VERTEX
  8
PLAN_1
 62
     2
  6
CONTINUOUS
 10
0.209728
 20
1.831110
  0
VERTEX
  8
PLAN_1
 62
     2
  6
CONTINUOUS
 10
0.206150
 20
1.830661
  0
VERTEX
  8
PLAN_1
 62
     2
  6
CONTINUOUS
 10
0.202567
 20
1.830661
  0
VERTEX
  8
PLAN_1
 62
     2
  6
CONTINUOUS
 10
0.198984
 20
1.830661
  0
VERTEX
  8
PLAN_1
 62
     2
  6
CONTINUOUS
 10
0.192720
 20
1.830661
  0
VERTEX
  8
PLAN_1
 62
     2
  6
CONTINUOUS
 10
0.186453
 20
1.831555
  0
VERTEX
  8
PLAN_1
 62
     2
  6
CONTINUOUS
 10
0.182870
 20
1.832453
  0
VERTEX
  8
PLAN_1
 62
     2
  6
CONTINUOUS
 10
0.179736
 20
1.833346
  0
VERTEX
  8
PLAN_1
 62
     2
  6
CONTINUOUS
 10
0.176606
 20
1.834244
  0
VERTEX
  8
PLAN_1
 62
     2
  6
CONTINUOUS
 10
0.173472
 20
1.836031
  0
VERTEX
  8
PLAN_1
 62
     2
  6
CONTINUOUS
 10
0.170783
 20
1.837374
  0
VERTEX
  8
PLAN_1
 62
     2
  6
CONTINUOUS
 10
0.168098
 20
1.839614
  0
VERTEX
  8
PLAN_1
 62
     2
  6
CONTINUOUS
 10
0.165862
 20
1.841406
  0
VERTEX
  8
PLAN_1
 62
     2
  6
CONTINUOUS
 10
0.164071
 20
1.844091
  0
VERTEX
  8
PLAN_1
 62
     2
  6
CONTINUOUS
 10
0.162280
 20
1.846776
  0
VERTEX
  8
PLAN_1
 62
     2
  6
CONTINUOUS
 10
0.160937
 20
1.849909
  0
VERTEX
  8
PLAN_1
 62
     2
  6
CONTINUOUS
 10
0.160488
 20
1.853492
  0
VERTEX
  8
PLAN_1
 62
     2
  6
CONTINUOUS
 10
0.160043
 20
1.857520
  0
VERTEX
  8
PLAN_1
 62
     2
  6
CONTINUOUS
 10
0.160488
 20
1.860654
  0
VERTEX
  8
PLAN_1
 62
     2
  6
CONTINUOUS
 10
0.160937
 20
1.864232
  0
VERTEX
  8
PLAN_1
 62
     2
  6
CONTINUOUS
 10
0.162280
 20
1.867815
  0
VERTEX
  8
PLAN_1
 62
     2
  6
CONTINUOUS
 10
0.164071
 20
1.870949
  0
VERTEX
  8
PLAN_1
 62
     2
  6
CONTINUOUS
 10
0.165413
 20
1.872740
  0
VERTEX
  8
PLAN_1
 62
     2
  6
CONTINUOUS
 10
0.166756
 20
1.874083
  0
VERTEX
  8
PLAN_1
 62
     2
  6
CONTINUOUS
 10
0.168547
 20
1.875425
  0
VERTEX
  8
PLAN_1
 62
     2
  6
CONTINUOUS
 10
0.170339
 20
1.876319
  0
VERTEX
  8
PLAN_1
 62
     2
  6
CONTINUOUS
 10
0.172130
 20
1.877217
  0
VERTEX
  8
PLAN_1
 62
     2
  6
CONTINUOUS
 10
0.174366
 20
1.878110
  0
VERTEX
  8
PLAN_1
 62
     2
  6
CONTINUOUS
 10
0.177051
 20
1.878559
  0
VERTEX
  8
PLAN_1
 62
     2
  6
CONTINUOUS
 10
0.179736
 20
1.879004
  0
VERTEX
  8
PLAN_1
 62
     2
  6
CONTINUOUS
 10
0.179736
 20
1.870051
  0
SEQEND
  8
0
  0
POLYLINE
  8
PLAN_1
 62
     2
  6
CONTINUOUS
 66
     1
 40
0.003000
 41
0.003000
  0
VERTEX
  8
PLAN_1
 62
     2
  6
CONTINUOUS
 10
0.227185
 20
1.856622
  0
VERTEX
  8
PLAN_1
 62
     2
  6
CONTINUOUS
 10
0.226740
 20
1.859756
  0
VERTEX
  8
PLAN_1
 62
     2
  6
CONTINUOUS
 10
0.225843
 20
1.862445
  0
VERTEX
  8
PLAN_1
 62
     2
  6
CONTINUOUS
 10
0.224055
 20
1.865130
  0
VERTEX
  8
PLAN_1
 62
     2
  6
CONTINUOUS
 10
0.222264
 20
1.866917
  0
VERTEX
  8
PLAN_1
 62
     2
  6
CONTINUOUS
 10
0.220024
 20
1.868709
  0
VERTEX
  8
PLAN_1
 62
     2
  6
CONTINUOUS
 10
0.216890
 20
1.870051
  0
VERTEX
  8
PLAN_1
 62
     2
  6
CONTINUOUS
 10
0.213756
 20
1.870500
  0
VERTEX
  8
PLAN_1
 62
     2
  6
CONTINUOUS
 10
0.210177
 20
1.870949
  0
VERTEX
  8
PLAN_1
 62
     2
  6
CONTINUOUS
 10
0.207492
 20
1.870949
  0
VERTEX
  8
PLAN_1
 62
     2
  6
CONTINUOUS
 10
0.205252
 20
1.870051
  0
VERTEX
  8
PLAN_1
 62
     2
  6
CONTINUOUS
 10
0.202567
 20
1.869157
  0
VERTEX
  8
PLAN_1
 62
     2
  6
CONTINUOUS
 10
0.200331
 20
1.867815
  0
VERTEX
  8
PLAN_1
 62
     2
  6
CONTINUOUS
 10
0.198091
 20
1.866024
  0
VERTEX
  8
PLAN_1
 62
     2
  6
CONTINUOUS
 10
0.196299
 20
1.863339
  0
VERTEX
  8
PLAN_1
 62
     2
  6
CONTINUOUS
 10
0.195406
 20
1.860205
  0
VERTEX
  8
PLAN_1
 62
     2
  6
CONTINUOUS
 10
0.194957
 20
1.856177
  0
VERTEX
  8
PLAN_1
 62
     2
  6
CONTINUOUS
 10
0.194957
 20
1.852594
  0
VERTEX
  8
PLAN_1
 62
     2
  6
CONTINUOUS
 10
0.196299
 20
1.849461
  0
VERTEX
  8
PLAN_1
 62
     2
  6
CONTINUOUS
 10
0.197642
 20
1.847224
  0
VERTEX
  8
PLAN_1
 62
     2
  6
CONTINUOUS
 10
0.199433
 20
1.844984
  0
VERTEX
  8
PLAN_1
 62
     2
  6
CONTINUOUS
 10
0.202118
 20
1.843193
  0
VERTEX
  8
PLAN_1
 62
     2
  6
CONTINUOUS
 10
0.204807
 20
1.842299
  0
VERTEX
  8
PLAN_1
 62
     2
  6
CONTINUOUS
 10
0.207492
 20
1.841406
  0
VERTEX
  8
PLAN_1
 62
     2
  6
CONTINUOUS
 10
0.210626
 20
1.841406
  0
VERTEX
  8
PLAN_1
 62
     2
  6
CONTINUOUS
 10
0.213756
 20
1.841406
  0
VERTEX
  8
PLAN_1
 62
     2
  6
CONTINUOUS
 10
0.216445
 20
1.842299
  0
VERTEX
  8
PLAN_1
 62
     2
  6
CONTINUOUS
 10
0.219130
 20
1.843193
  0
VERTEX
  8
PLAN_1
 62
     2
  6
CONTINUOUS
 10
0.221815
 20
1.844984
  0
VERTEX
  8
PLAN_1
 62
     2
  6
CONTINUOUS
 10
0.224055
 20
1.847224
  0
VERTEX
  8
PLAN_1
 62
     2
  6
CONTINUOUS
 10
0.225398
 20
1.849909
  0
VERTEX
  8
PLAN_1
 62
     2
  6
CONTINUOUS
 10
0.226740
 20
1.853043
  0
VERTEX
  8
PLAN_1
 62
     2
  6
CONTINUOUS
 10
0.227185
 20
1.856622
  0
SEQEND
  8
0
  0
POLYLINE
  8
PLAN_1
 62
     2
  6
CONTINUOUS
 66
     1
 40
0.003000
 41
0.003000
  0
VERTEX
  8
PLAN_1
 62
     2
  6
CONTINUOUS
 10
0.191823
 20
1.907654
  0
VERTEX
  8
PLAN_1
 62
     2
  6
CONTINUOUS
 10
0.191823
 20
1.908547
  0
VERTEX
  8
PLAN_1
 62
     2
  6
CONTINUOUS
 10
0.191823
 20
1.908996
  0
VERTEX
  8
PLAN_1
 62
     2
  6
CONTINUOUS
 10
0.191823
 20
1.909445
  0
VERTEX
  8
PLAN_1
 62
     2
  6
CONTINUOUS
 10
0.191823
 20
1.910339
  0
VERTEX
  8
PLAN_1
 62
     2
  6
CONTINUOUS
 10
0.191823
 20
1.910787
  0
VERTEX
  8
PLAN_1
 62
     2
  6
CONTINUOUS
 10
0.191823
 20
1.911236
  0
VERTEX
  8
PLAN_1
 62
     2
  6
CONTINUOUS
 10
0.191823
 20
1.912130
  0
VERTEX
  8
PLAN_1
 62
     2
  6
CONTINUOUS
 10
0.191823
 20
1.912579
  0
VERTEX
  8
PLAN_1
 62
     2
  6
CONTINUOUS
 10
0.191823
 20
1.915264
  0
VERTEX
  8
PLAN_1
 62
     2
  6
CONTINUOUS
 10
0.191378
 20
1.917500
  0
VERTEX
  8
PLAN_1
 62
     2
  6
CONTINUOUS
 10
0.190480
 20
1.920189
  0
VERTEX
  8
PLAN_1
 62
     2
  6
CONTINUOUS
 10
0.189138
 20
1.921976
  0
VERTEX
  8
PLAN_1
 62
     2
  6
CONTINUOUS
 10
0.187795
 20
1.923768
  0
VERTEX
  8
PLAN_1
 62
     2
  6
CONTINUOUS
 10
0.185555
 20
1.925110
  0
VERTEX
  8
PLAN_1
 62
     2
  6
CONTINUOUS
 10
0.182870
 20
1.926008
  0
VERTEX
  8
PLAN_1
 62
     2
  6
CONTINUOUS
 10
0.179736
 20
1.926453
  0
VERTEX
  8
PLAN_1
 62
     2
  6
CONTINUOUS
 10
0.177949
 20
1.926453
  0
VERTEX
  8
PLAN_1
 62
     2
  6
CONTINUOUS
 10
0.176157
 20
1.926008
  0
VERTEX
  8
PLAN_1
 62
     2
  6
CONTINUOUS
 10
0.174366
 20
1.925110
  0
VERTEX
  8
PLAN_1
 62
     2
  6
CONTINUOUS
 10
0.172575
 20
1.923768
  0
VERTEX
  8
PLAN_1
 62
     2
  6
CONTINUOUS
 10
0.170783
 20
1.921976
  0
VERTEX
  8
PLAN_1
 62
     2
  6
CONTINUOUS
 10
0.169441
 20
1.919740
  0
VERTEX
  8
PLAN_1
 62
     2
  6
CONTINUOUS
 10
0.168547
 20
1.916606
  0
VERTEX
  8
PLAN_1
 62
     2
  6
CONTINUOUS
 10
0.168098
 20
1.913024
  0
VERTEX
  8
PLAN_1
 62
     2
  6
CONTINUOUS
 10
0.168547
 20
1.910787
  0
VERTEX
  8
PLAN_1
 62
     2
  6
CONTINUOUS
 10
0.168547
 20
1.908547
  0
VERTEX
  8
PLAN_1
 62
     2
  6
CONTINUOUS
 10
0.169441
 20
1.906760
  0
VERTEX
  8
PLAN_1
 62
     2
  6
CONTINUOUS
 10
0.169890
 20
1.905417
  0
VERTEX
  8
PLAN_1
 62
     2
  6
CONTINUOUS
 10
0.172130
 20
1.902728
  0
VERTEX
  8
PLAN_1
 62
     2
  6
CONTINUOUS
 10
0.174366
 20
1.900941
  0
VERTEX
  8
PLAN_1
 62
     2
  6
CONTINUOUS
 10
0.176606
 20
1.900043
  0
VERTEX
  8
PLAN_1
 62
     2
  6
CONTINUOUS
 10
0.179291
 20
1.899150
  0
VERTEX
  8
PLAN_1
 62
     2
  6
CONTINUOUS
 10
0.181976
 20
1.898701
  0
VERTEX
  8
PLAN_1
 62
     2
  6
CONTINUOUS
 10
0.184213
 20
1.898701
  0
VERTEX
  8
PLAN_1
 62
     2
  6
CONTINUOUS
 10
0.184213
 20
1.889748
  0
VERTEX
  8
PLAN_1
 62
     2
  6
CONTINUOUS
 10
0.179736
 20
1.890197
  0
VERTEX
  8
PLAN_1
 62
     2
  6
CONTINUOUS
 10
0.175709
 20
1.890642
  0
VERTEX
  8
PLAN_1
 62
     2
  6
CONTINUOUS
 10
0.171681
 20
1.891988
  0
VERTEX
  8
PLAN_1
 62
     2
  6
CONTINUOUS
 10
0.168098
 20
1.894224
  0
VERTEX
  8
PLAN_1
 62
     2
  6
CONTINUOUS
 10
0.166307
 20
1.895567
  0
VERTEX
  8
PLAN_1
 62
     2
  6
CONTINUOUS
 10
0.164965
 20
1.897358
  0
VERTEX
  8
PLAN_1
 62
     2
  6
CONTINUOUS
 10
0.163622
 20
1.899150
  0
VERTEX
  8
PLAN_1
 62
     2
  6
CONTINUOUS
 10
0.162280
 20
1.901386
  0
VERTEX
  8
PLAN_1
 62
     2
  6
CONTINUOUS
 10
0.161386
 20
1.904071
  0
VERTEX
  8
PLAN_1
 62
     2
  6
CONTINUOUS
 10
0.160488
 20
1.906760
  0
VERTEX
  8
PLAN_1
 62
     2
  6
CONTINUOUS
 10
0.160043
 20
1.909894
  0
VERTEX
  8
PLAN_1
 62
     2
  6
CONTINUOUS
 10
0.160043
 20
1.913472
  0
VERTEX
  8
PLAN_1
 62
     2
  6
CONTINUOUS
 10
0.160488
 20
1.918398
  0
VERTEX
  8
PLAN_1
 62
     2
  6
CONTINUOUS
 10
0.161386
 20
1.922874
  0
VERTEX
  8
PLAN_1
 62
     2
  6
CONTINUOUS
 10
0.163177
 20
1.926902
  0
VERTEX
  8
PLAN_1
 62
     2
  6
CONTINUOUS
 10
0.165413
 20
1.930035
  0
VERTEX
  8
PLAN_1
 62
     2
  6
CONTINUOUS
 10
0.168547
 20
1.932720
  0
VERTEX
  8
PLAN_1
 62
     2
  6
CONTINUOUS
 10
0.171681
 20
1.934512
  0
VERTEX
  8
PLAN_1
 62
     2
  6
CONTINUOUS
 10
0.175260
 20
1.935406
  0
VERTEX
  8
PLAN_1
 62
     2
  6
CONTINUOUS
 10
0.179291
 20
1.935854
  0
VERTEX
  8
PLAN_1
 62
     2
  6
CONTINUOUS
 10
0.182425
 20
1.935854
  0
VERTEX
  8
PLAN_1
 62
     2
  6
CONTINUOUS
 10
0.185555
 20
1.934961
  0
VERTEX
  8
PLAN_1
 62
     2
  6
CONTINUOUS
 10
0.187795
 20
1.934063
  0
VERTEX
  8
PLAN_1
 62
     2
  6
CONTINUOUS
 10
0.190031
 20
1.932720
  0
VERTEX
  8
PLAN_1
 62
     2
  6
CONTINUOUS
 10
0.191378
 20
1.931378
  0
VERTEX
  8
PLAN_1
 62
     2
  6
CONTINUOUS
 10
0.192720
 20
1.929587
  0
VERTEX
  8
PLAN_1
 62
     2
  6
CONTINUOUS
 10
0.193614
 20
1.928244
  0
VERTEX
  8
PLAN_1
 62
     2
  6
CONTINUOUS
 10
0.194508
 20
1.926453
  0
VERTEX
  8
PLAN_1
 62
     2
  6
CONTINUOUS
 10
0.195406
 20
1.929142
  0
VERTEX
  8
PLAN_1
 62
     2
  6
CONTINUOUS
 10
0.196748
 20
1.931378
  0
VERTEX
  8
PLAN_1
 62
     2
  6
CONTINUOUS
 10
0.198539
 20
1.933618
  0
VERTEX
  8
PLAN_1
 62
     2
  6
CONTINUOUS
 10
0.200331
 20
1.935406
  0
VERTEX
  8
PLAN_1
 62
     2
  6
CONTINUOUS
 10
0.202567
 20
1.936748
  0
VERTEX
  8
PLAN_1
 62
     2
  6
CONTINUOUS
 10
0.205252
 20
1.937646
  0
VERTEX
  8
PLAN_1
 62
     2
  6
CONTINUOUS
 10
0.208386
 20
1.938539
  0
VERTEX
  8
PLAN_1
 62
     2
  6
CONTINUOUS
 10
0.211520
 20
1.938539
  0
VERTEX
  8
PLAN_1
 62
     2
  6
CONTINUOUS
 10
0.215996
 20
1.938539
  0
VERTEX
  8
PLAN_1
 62
     2
  6
CONTINUOUS
 10
0.220472
 20
1.937197
  0
VERTEX
  8
PLAN_1
 62
     2
  6
CONTINUOUS
 10
0.222264
 20
1.936303
  0
VERTEX
  8
PLAN_1
 62
     2
  6
CONTINUOUS
 10
0.224500
 20
1.935406
  0
VERTEX
  8
PLAN_1
 62
     2
  6
CONTINUOUS
 10
0.226291
 20
1.934063
  0
VERTEX
  8
PLAN_1
 62
     2
  6
CONTINUOUS
 10
0.228083
 20
1.932720
  0
VERTEX
  8
PLAN_1
 62
     2
  6
CONTINUOUS
 10
0.229425
 20
1.930929
  0
VERTEX
  8
PLAN_1
 62
     2
  6
CONTINUOUS
 10
0.230768
 20
1.929142
  0
VERTEX
  8
PLAN_1
 62
     2
  6
CONTINUOUS
 10
0.232110
 20
1.926902
  0
VERTEX
  8
PLAN_1
 62
     2
  6
CONTINUOUS
 10
0.233004
 20
1.924217
  0
VERTEX
  8
PLAN_1
 62
     2
  6
CONTINUOUS
 10
0.233902
 20
1.921976
  0
VERTEX
  8
PLAN_1
 62
     2
  6
CONTINUOUS
 10
0.234795
 20
1.918843
  0
VERTEX
  8
PLAN_1
 62
     2
  6
CONTINUOUS
 10
0.235244
 20
1.915713
  0
VERTEX
  8
PLAN_1
 62
     2
  6
CONTINUOUS
 10
0.235244
 20
1.912579
  0
VERTEX
  8
PLAN_1
 62
     2
  6
CONTINUOUS
 10
0.235244
 20
1.910339
  0
VERTEX
  8
PLAN_1
 62
     2
  6
CONTINUOUS
 10
0.234795
 20
1.908547
  0
VERTEX
  8
PLAN_1
 62
     2
  6
CONTINUOUS
 10
0.234795
 20
1.906760
  0
VERTEX
  8
PLAN_1
 62
     2
  6
CONTINUOUS
 10
0.234350
 20
1.904969
  0
VERTEX
  8
PLAN_1
 62
     2
  6
CONTINUOUS
 10
0.233902
 20
1.903177
  0
VERTEX
  8
PLAN_1
 62
     2
  6
CONTINUOUS
 10
0.233453
 20
1.901835
  0
VERTEX
  8
PLAN_1
 62
     2
  6
CONTINUOUS
 10
0.232559
 20
1.900492
  0
VERTEX
  8
PLAN_1
 62
     2
  6
CONTINUOUS
 10
0.232110
 20
1.898701
  0
VERTEX
  8
PLAN_1
 62
     2
  6
CONTINUOUS
 10
0.230319
 20
1.896016
  0
VERTEX
  8
PLAN_1
 62
     2
  6
CONTINUOUS
 10
0.228083
 20
1.893776
  0
VERTEX
  8
PLAN_1
 62
     2
  6
CONTINUOUS
 10
0.225843
 20
1.891988
  0
VERTEX
  8
PLAN_1
 62
     2
  6
CONTINUOUS
 10
0.223157
 20
1.890642
  0
VERTEX
  8
PLAN_1
 62
     2
  6
CONTINUOUS
 10
0.220024
 20
1.889748
  0
VERTEX
  8
PLAN_1
 62
     2
  6
CONTINUOUS
 10
0.216890
 20
1.888854
  0
VERTEX
  8
PLAN_1
 62
     2
  6
CONTINUOUS
 10
0.214205
 20
1.888406
  0
VERTEX
  8
PLAN_1
 62
     2
  6
CONTINUOUS
 10
0.211071
 20
1.887957
  0
VERTEX
  8
PLAN_1
 62
     2
  6
CONTINUOUS
 10
0.211071
 20
1.897358
  0
VERTEX
  8
PLAN_1
 62
     2
  6
CONTINUOUS
 10
0.213311
 20
1.897807
  0
VERTEX
  8
PLAN_1
 62
     2
  6
CONTINUOUS
 10
0.216445
 20
1.898252
  0
VERTEX
  8
PLAN_1
 62
     2
  6
CONTINUOUS
 10
0.219130
 20
1.899150
  0
VERTEX
  8
PLAN_1
 62
     2
  6
CONTINUOUS
 10
0.221366
 20
1.900043
  0
VERTEX
  8
PLAN_1
 62
     2
  6
CONTINUOUS
 10
0.223606
 20
1.902283
  0
VERTEX
  8
PLAN_1
 62
     2
  6
CONTINUOUS
 10
0.225398
 20
1.904969
  0
VERTEX
  8
PLAN_1
 62
     2
  6
CONTINUOUS
 10
0.226291
 20
1.906760
  0
VERTEX
  8
PLAN_1
 62
     2
  6
CONTINUOUS
 10
0.226740
 20
1.908547
  0
VERTEX
  8
PLAN_1
 62
     2
  6
CONTINUOUS
 10
0.226740
 20
1.910787
  0
VERTEX
  8
PLAN_1
 62
     2
  6
CONTINUOUS
 10
0.227185
 20
1.913024
  0
VERTEX
  8
PLAN_1
 62
     2
  6
CONTINUOUS
 10
0.226740
 20
1.916606
  0
VERTEX
  8
PLAN_1
 62
     2
  6
CONTINUOUS
 10
0.225843
 20
1.919291
  0
VERTEX
  8
PLAN_1
 62
     2
  6
CONTINUOUS
 10
0.224500
 20
1.922425
  0
VERTEX
  8
PLAN_1
 62
     2
  6
CONTINUOUS
 10
0.223157
 20
1.924665
  0
VERTEX
  8
PLAN_1
 62
     2
  6
CONTINUOUS
 10
0.220921
 20
1.926453
  0
VERTEX
  8
PLAN_1
 62
     2
  6
CONTINUOUS
 10
0.218681
 20
1.927795
  0
VERTEX
  8
PLAN_1
 62
     2
  6
CONTINUOUS
 10
0.215996
 20
1.928693
  0
VERTEX
  8
PLAN_1
 62
     2
  6
CONTINUOUS
 10
0.212862
 20
1.929142
  0
VERTEX
  8
PLAN_1
 62
     2
  6
CONTINUOUS
 10
0.210626
 20
1.928693
  0
VERTEX
  8
PLAN_1
 62
     2
  6
CONTINUOUS
 10
0.208835
 20
1.928693
  0
VERTEX
  8
PLAN_1
 62
     2
  6
CONTINUOUS
 10
0.207043
 20
1.927795
  0
VERTEX
  8
PLAN_1
 62
     2
  6
CONTINUOUS
 10
0.205701
 20
1.927350
  0
VERTEX
  8
PLAN_1
 62
     2
  6
CONTINUOUS
 10
0.203016
 20
1.925110
  0
VERTEX
  8
PLAN_1
 62
     2
  6
CONTINUOUS
 10
0.201673
 20
1.922874
  0
VERTEX
  8
PLAN_1
 62
     2
  6
CONTINUOUS
 10
0.200331
 20
1.920189
  0
VERTEX
  8
PLAN_1
 62
     2
  6
CONTINUOUS
 10
0.199882
 20
1.917055
  0
VERTEX
  8
PLAN_1
 62
     2
  6
CONTINUOUS
 10
0.199433
 20
1.914366
  0
VERTEX
  8
PLAN_1
 62
     2
  6
CONTINUOUS
 10
0.199433
 20
1.912130
  0
VERTEX
  8
PLAN_1
 62
     2
  6
CONTINUOUS
 10
0.199433
 20
1.911236
  0
VERTEX
  8
PLAN_1
 62
     2
  6
CONTINUOUS
 10
0.199433
 20
1.910787
  0
VERTEX
  8
PLAN_1
 62
     2
  6
CONTINUOUS
 10
0.199433
 20
1.910339
  0
VERTEX
  8
PLAN_1
 62
     2
  6
CONTINUOUS
 10
0.199433
 20
1.909894
  0
VERTEX
  8
PLAN_1
 62
     2
  6
CONTINUOUS
 10
0.199433
 20
1.909445
  0
VERTEX
  8
PLAN_1
 62
     2
  6
CONTINUOUS
 10
0.199433
 20
1.908996
  0
VERTEX
  8
PLAN_1
 62
     2
  6
CONTINUOUS
 10
0.199433
 20
1.908102
  0
VERTEX
  8
PLAN_1
 62
     2
  6
CONTINUOUS
 10
0.199433
 20
1.907654
  0
VERTEX
  8
PLAN_1
 62
     2
  6
CONTINUOUS
 10
0.191823
 20
1.907654
  0
SEQEND
  8
0
  0
POLYLINE
  8
PLAN_1
 62
     2
  6
CONTINUOUS
 66
     1
 40
0.004028
 41
0.004028
  0
VERTEX
  8
PLAN_1
 62
     2
  6
CONTINUOUS
 10
-0.661807
 20
3.325744
  0
VERTEX
  8
PLAN_1
 62
     2
  6
CONTINUOUS
 10
-0.109878
 20
3.325744
  0
SEQEND
  8
0
  0
SOLID
  8
PLAN_1
 62
     2
 10
-0.080335
 20
3.325744
 11
-0.139421
 21
3.341413
 12
-0.080335
 22
3.325744
 13
-0.139421
 23
3.310079
  0
POLYLINE
  8
PLAN_1
 62
     2
  6
CONTINUOUS
 66
     1
 40
0.003000
 41
0.003000
  0
VERTEX
  8
PLAN_1
 62
     2
  6
CONTINUOUS
 10
-0.080335
 20
3.325744
  0
VERTEX
  8
PLAN_1
 62
     2
  6
CONTINUOUS
 10
-0.139421
 20
3.341413
  0
VERTEX
  8
PLAN_1
 62
     2
  6
CONTINUOUS
 10
-0.139421
 20
3.310079
  0
VERTEX
  8
PLAN_1
 62
     2
  6
CONTINUOUS
 10
-0.080335
 20
3.325744
  0
SEQEND
  8
0
  0
SOLID
  8
PLAN_1
 62
     2
 10
-0.691350
 20
3.325744
 11
-0.632264
 21
3.341413
 12
-0.691350
 22
3.325744
 13
-0.632264
 23
3.310079
  0
POLYLINE
  8
PLAN_1
 62
     2
  6
CONTINUOUS
 66
     1
 40
0.003000
 41
0.003000
  0
VERTEX
  8
PLAN_1
 62
     2
  6
CONTINUOUS
 10
-0.691350
 20
3.325744
  0
VERTEX
  8
PLAN_1
 62
     2
  6
CONTINUOUS
 10
-0.632264
 20
3.341413
  0
VERTEX
  8
PLAN_1
 62
     2
  6
CONTINUOUS
 10
-0.632264
 20
3.310079
  0
VERTEX
  8
PLAN_1
 62
     2
  6
CONTINUOUS
 10
-0.691350
 20
3.325744
  0
SEQEND
  8
0
  0
POLYLINE
  8
PLAN_1
 62
     2
  6
CONTINUOUS
 66
     1
 40
0.003000
 41
0.003000
  0
VERTEX
  8
PLAN_1
 62
     2
  6
CONTINUOUS
 10
-0.406209
 20
3.349469
  0
VERTEX
  8
PLAN_1
 62
     2
  6
CONTINUOUS
 10
-0.416059
 20
3.349469
  0
VERTEX
  8
PLAN_1
 62
     2
  6
CONTINUOUS
 10
-0.416059
 20
3.401394
  0
VERTEX
  8
PLAN_1
 62
     2
  6
CONTINUOUS
 10
-0.433067
 20
3.401394
  0
VERTEX
  8
PLAN_1
 62
     2
  6
CONTINUOUS
 10
-0.433067
 20
3.408559
  0
VERTEX
  8
PLAN_1
 62
     2
  6
CONTINUOUS
 10
-0.429039
 20
3.409004
  0
VERTEX
  8
PLAN_1
 62
     2
  6
CONTINUOUS
 10
-0.425457
 20
3.409453
  0
VERTEX
  8
PLAN_1
 62
     2
  6
CONTINUOUS
 10
-0.422772
 20
3.410346
  0
VERTEX
  8
PLAN_1
 62
     2
  6
CONTINUOUS
 10
-0.420087
 20
3.411244
  0
VERTEX
  8
PLAN_1
 62
     2
  6
CONTINUOUS
 10
-0.417850
 20
3.413035
  0
VERTEX
  8
PLAN_1
 62
     2
  6
CONTINUOUS
 10
-0.416059
 20
3.415272
  0
VERTEX
  8
PLAN_1
 62
     2
  6
CONTINUOUS
 10
-0.414717
 20
3.418406
  0
VERTEX
  8
PLAN_1
 62
     2
  6
CONTINUOUS
 10
-0.413374
 20
3.422433
  0
VERTEX
  8
PLAN_1
 62
     2
  6
CONTINUOUS
 10
-0.406209
 20
3.422433
  0
VERTEX
  8
PLAN_1
 62
     2
  6
CONTINUOUS
 10
-0.406209
 20
3.349469
  0
SEQEND
  8
0
  0
POLYLINE
  8
PLAN_1
 62
     2
  6
CONTINUOUS
 66
     1
 40
0.003000
 41
0.003000
  0
VERTEX
  8
PLAN_1
 62
     2
  6
CONTINUOUS
 10
-0.370402
 20
3.391996
  0
VERTEX
  8
PLAN_1
 62
     2
  6
CONTINUOUS
 10
-0.369504
 20
3.392890
  0
VERTEX
  8
PLAN_1
 62
     2
  6
CONTINUOUS
 10
-0.368161
 20
3.393787
  0
VERTEX
  8
PLAN_1
 62
     2
  6
CONTINUOUS
 10
-0.366370
 20
3.394681
  0
VERTEX
  8
PLAN_1
 62
     2
  6
CONTINUOUS
 10
-0.364579
 20
3.395130
  0
VERTEX
  8
PLAN_1
 62
     2
  6
CONTINUOUS
 10
-0.362791
 20
3.395575
  0
VERTEX
  8
PLAN_1
 62
     2
  6
CONTINUOUS
 10
-0.361000
 20
3.396024
  0
VERTEX
  8
PLAN_1
 62
     2
  6
CONTINUOUS
 10
-0.358760
 20
3.396472
  0
VERTEX
  8
PLAN_1
 62
     2
  6
CONTINUOUS
 10
-0.356524
 20
3.396472
  0
VERTEX
  8
PLAN_1
 62
     2
  6
CONTINUOUS
 10
-0.352047
 20
3.396024
  0
VERTEX
  8
PLAN_1
 62
     2
  6
CONTINUOUS
 10
-0.347571
 20
3.395130
  0
VERTEX
  8
PLAN_1
 62
     2
  6
CONTINUOUS
 10
-0.343543
 20
3.393339
  0
VERTEX
  8
PLAN_1
 62
     2
  6
CONTINUOUS
 10
-0.339961
 20
3.390654
  0
VERTEX
  8
PLAN_1
 62
     2
  6
CONTINUOUS
 10
-0.338169
 20
3.388862
  0
VERTEX
  8
PLAN_1
 62
     2
  6
CONTINUOUS
 10
-0.336827
 20
3.387071
  0
VERTEX
  8
PLAN_1
 62
     2
  6
CONTINUOUS
 10
-0.335484
 20
3.385280
  0
VERTEX
  8
PLAN_1
 62
     2
  6
CONTINUOUS
 10
-0.334591
 20
3.383043
  0
VERTEX
  8
PLAN_1
 62
     2
  6
CONTINUOUS
 10
-0.333693
 20
3.380803
  0
VERTEX
  8
PLAN_1
 62
     2
  6
CONTINUOUS
 10
-0.332799
 20
3.378567
  0
VERTEX
  8
PLAN_1
 62
     2
  6
CONTINUOUS
 10
-0.332350
 20
3.375882
  0
VERTEX
  8
PLAN_1
 62
     2
  6
CONTINUOUS
 10
-0.332350
 20
3.373193
  0
VERTEX
  8
PLAN_1
 62
     2
  6
CONTINUOUS
 10
-0.332799
 20
3.369614
  0
VERTEX
  8
PLAN_1
 62
     2
  6
CONTINUOUS
 10
-0.333248
 20
3.365587
  0
VERTEX
  8
PLAN_1
 62
     2
  6
CONTINUOUS
 10
-0.334591
 20
3.361555
  0
VERTEX
  8
PLAN_1
 62
     2
  6
CONTINUOUS
 10
-0.337276
 20
3.357079
  0
VERTEX
  8
PLAN_1
 62
     2
  6
CONTINUOUS
 10
-0.338618
 20
3.355291
  0
VERTEX
  8
PLAN_1
 62
     2
  6
CONTINUOUS
 10
-0.340409
 20
3.353500
  0
VERTEX
  8
PLAN_1
 62
     2
  6
CONTINUOUS
 10
-0.342646
 20
3.351709
  0
VERTEX
  8
PLAN_1
 62
     2
  6
CONTINUOUS
 10
-0.345331
 20
3.350366
  0
VERTEX
  8
PLAN_1
 62
     2
  6
CONTINUOUS
 10
-0.348020
 20
3.349024
  0
VERTEX
  8
PLAN_1
 62
     2
  6
CONTINUOUS
 10
-0.351150
 20
3.348126
  0
VERTEX
  8
PLAN_1
 62
     2
  6
CONTINUOUS
 10
-0.354732
 20
3.347681
  0
VERTEX
  8
PLAN_1
 62
     2
  6
CONTINUOUS
 10
-0.358760
 20
3.347232
  0
VERTEX
  8
PLAN_1
 62
     2
  6
CONTINUOUS
 10
-0.362791
 20
3.347681
  0
VERTEX
  8
PLAN_1
 62
     2
  6
CONTINUOUS
 10
-0.366370
 20
3.348126
  0
VERTEX
  8
PLAN_1
 62
     2
  6
CONTINUOUS
 10
-0.369953
 20
3.349469
  0
VERTEX
  8
PLAN_1
 62
     2
  6
CONTINUOUS
 10
-0.373531
 20
3.351260
  0
VERTEX
  8
PLAN_1
 62
     2
  6
CONTINUOUS
 10
-0.375323
 20
3.352602
  0
VERTEX
  8
PLAN_1
 62
     2
  6
CONTINUOUS
 10
-0.376665
 20
3.353945
  0
VERTEX
  8
PLAN_1
 62
     2
  6
CONTINUOUS
 10
-0.378008
 20
3.355736
  0
VERTEX
  8
PLAN_1
 62
     2
  6
CONTINUOUS
 10
-0.379350
 20
3.357528
  0
VERTEX
  8
PLAN_1
 62
     2
  6
CONTINUOUS
 10
-0.380697
 20
3.359768
  0
VERTEX
  8
PLAN_1
 62
     2
  6
CONTINUOUS
 10
-0.381591
 20
3.362004
  0
VERTEX
  8
PLAN_1
 62
     2
  6
CONTINUOUS
 10
-0.382039
 20
3.364689
  0
VERTEX
  8
PLAN_1
 62
     2
  6
CONTINUOUS
 10
-0.382484
 20
3.367823
  0
VERTEX
  8
PLAN_1
 62
     2
  6
CONTINUOUS
 10
-0.373087
 20
3.367823
  0
VERTEX
  8
PLAN_1
 62
     2
  6
CONTINUOUS
 10
-0.372638
 20
3.364689
  0
VERTEX
  8
PLAN_1
 62
     2
  6
CONTINUOUS
 10
-0.371295
 20
3.362004
  0
VERTEX
  8
PLAN_1
 62
     2
  6
CONTINUOUS
 10
-0.369953
 20
3.359768
  0
VERTEX
  8
PLAN_1
 62
     2
  6
CONTINUOUS
 10
-0.368161
 20
3.358421
  0
VERTEX
  8
PLAN_1
 62
     2
  6
CONTINUOUS
 10
-0.365925
 20
3.357079
  0
VERTEX
  8
PLAN_1
 62
     2
  6
CONTINUOUS
 10
-0.363236
 20
3.356185
  0
VERTEX
  8
PLAN_1
 62
     2
  6
CONTINUOUS
 10
-0.360551
 20
3.355736
  0
VERTEX
  8
PLAN_1
 62
     2
  6
CONTINUOUS
 10
-0.357417
 20
3.355291
  0
VERTEX
  8
PLAN_1
 62
     2
  6
CONTINUOUS
 10
-0.354283
 20
3.355736
  0
VERTEX
  8
PLAN_1
 62
     2
  6
CONTINUOUS
 10
-0.351150
 20
3.356634
  0
VERTEX
  8
PLAN_1
 62
     2
  6
CONTINUOUS
 10
-0.348465
 20
3.358421
  0
VERTEX
  8
PLAN_1
 62
     2
  6
CONTINUOUS
 10
-0.346228
 20
3.360213
  0
VERTEX
  8
PLAN_1
 62
     2
  6
CONTINUOUS
 10
-0.344437
 20
3.362898
  0
VERTEX
  8
PLAN_1
 62
     2
  6
CONTINUOUS
 10
-0.343094
 20
3.365587
  0
VERTEX
  8
PLAN_1
 62
     2
  6
CONTINUOUS
 10
-0.342646
 20
3.368720
  0
VERTEX
  8
PLAN_1
 62
     2
  6
CONTINUOUS
 10
-0.342201
 20
3.372299
  0
VERTEX
  8
PLAN_1
 62
     2
  6
CONTINUOUS
 10
-0.342646
 20
3.375882
  0
VERTEX
  8
PLAN_1
 62
     2
  6
CONTINUOUS
 10
-0.343543
 20
3.379016
  0
VERTEX
  8
PLAN_1
 62
     2
  6
CONTINUOUS
 10
-0.344886
 20
3.381701
  0
VERTEX
  8
PLAN_1
 62
     2
  6
CONTINUOUS
 10
-0.347122
 20
3.383937
  0
VERTEX
  8
PLAN_1
 62
     2
  6
CONTINUOUS
 10
-0.349362
 20
3.386177
  0
VERTEX
  8
PLAN_1
 62
     2
  6
CONTINUOUS
 10
-0.352047
 20
3.387071
  0
VERTEX
  8
PLAN_1
 62
     2
  6
CONTINUOUS
 10
-0.355181
 20
3.387969
  0
VERTEX
  8
PLAN_1
 62
     2
  6
CONTINUOUS
 10
-0.358315
 20
3.388413
  0
VERTEX
  8
PLAN_1
 62
     2
  6
CONTINUOUS
 10
-0.360551
 20
3.388413
  0
VERTEX
  8
PLAN_1
 62
     2
  6
CONTINUOUS
 10
-0.362343
 20
3.387969
  0
VERTEX
  8
PLAN_1
 62
     2
  6
CONTINUOUS
 10
-0.364134
 20
3.387520
  0
VERTEX
  8
PLAN_1
 62
     2
  6
CONTINUOUS
 10
-0.365925
 20
3.386622
  0
VERTEX
  8
PLAN_1
 62
     2
  6
CONTINUOUS
 10
-0.367713
 20
3.385728
  0
VERTEX
  8
PLAN_1
 62
     2
  6
CONTINUOUS
 10
-0.369055
 20
3.384386
  0
VERTEX
  8
PLAN_1
 62
     2
  6
CONTINUOUS
 10
-0.370402
 20
3.383043
  0
VERTEX
  8
PLAN_1
 62
     2
  6
CONTINUOUS
 10
-0.371744
 20
3.381252
  0
VERTEX
  8
PLAN_1
 62
     2
  6
CONTINUOUS
 10
-0.379799
 20
3.381701
  0
VERTEX
  8
PLAN_1
 62
     2
  6
CONTINUOUS
 10
-0.374429
 20
3.421091
  0
VERTEX
  8
PLAN_1
 62
     2
  6
CONTINUOUS
 10
-0.336378
 20
3.421091
  0
VERTEX
  8
PLAN_1
 62
     2
  6
CONTINUOUS
 10
-0.336378
 20
3.412138
  0
VERTEX
  8
PLAN_1
 62
     2
  6
CONTINUOUS
 10
-0.367268
 20
3.412138
  0
VERTEX
  8
PLAN_1
 62
     2
  6
CONTINUOUS
 10
-0.370402
 20
3.391996
  0
SEQEND
  8
0
  0
POLYLINE
  8
PLAN_1
 62
     2
  6
CONTINUOUS
 66
     1
 40
0.004028
 41
0.004028
  0
VERTEX
  8
PLAN_1
 62
     2
  6
CONTINUOUS
 10
-2.262531
 20
3.483311
  0
VERTEX
  8
PLAN_1
 62
     2
  6
CONTINUOUS
 10
-0.109878
 20
3.483311
  0
SEQEND
  8
0
  0
SOLID
  8
PLAN_1
 62
     2
 10
-0.080335
 20
3.483311
 11
-0.139421
 21
3.498980
 12
-0.080335
 22
3.483311
 13
-0.139421
 23
3.467646
  0
POLYLINE
  8
PLAN_1
 62
     2
  6
CONTINUOUS
 66
     1
 40
0.003000
 41
0.003000
  0
VERTEX
  8
PLAN_1
 62
     2
  6
CONTINUOUS
 10
-0.080335
 20
3.483311
  0
VERTEX
  8
PLAN_1
 62
     2
  6
CONTINUOUS
 10
-0.139421
 20
3.498980
  0
VERTEX
  8
PLAN_1
 62
     2
  6
CONTINUOUS
 10
-0.139421
 20
3.467646
  0
VERTEX
  8
PLAN_1
 62
     2
  6
CONTINUOUS
 10
-0.080335
 20
3.483311
  0
SEQEND
  8
0
  0
SOLID
  8
PLAN_1
 62
     2
 10
-2.292075
 20
3.483311
 11
-2.232988
 21
3.498980
 12
-2.292075
 22
3.483311
 13
-2.232988
 23
3.467646
  0
POLYLINE
  8
PLAN_1
 62
     2
  6
CONTINUOUS
 66
     1
 40
0.003000
 41
0.003000
  0
VERTEX
  8
PLAN_1
 62
     2
  6
CONTINUOUS
 10
-2.292075
 20
3.483311
  0
VERTEX
  8
PLAN_1
 62
     2
  6
CONTINUOUS
 10
-2.232988
 20
3.498980
  0
VERTEX
  8
PLAN_1
 62
     2
  6
CONTINUOUS
 10
-2.232988
 20
3.467646
  0
VERTEX
  8
PLAN_1
 62
     2
  6
CONTINUOUS
 10
-2.292075
 20
3.483311
  0
SEQEND
  8
0
  0
POLYLINE
  8
PLAN_1
 62
     2
  6
CONTINUOUS
 66
     1
 40
0.003000
 41
0.003000
  0
VERTEX
  8
PLAN_1
 62
     2
  6
CONTINUOUS
 10
-1.228953
 20
3.549563
  0
VERTEX
  8
PLAN_1
 62
     2
  6
CONTINUOUS
 10
-1.227610
 20
3.550457
  0
VERTEX
  8
PLAN_1
 62
     2
  6
CONTINUOUS
 10
-1.226268
 20
3.551350
  0
VERTEX
  8
PLAN_1
 62
     2
  6
CONTINUOUS
 10
-1.224925
 20
3.551799
  0
VERTEX
  8
PLAN_1
 62
     2
  6
CONTINUOUS
 10
-1.223134
 20
3.552693
  0
VERTEX
  8
PLAN_1
 62
     2
  6
CONTINUOUS
 10
-1.221346
 20
3.553142
  0
VERTEX
  8
PLAN_1
 62
     2
  6
CONTINUOUS
 10
-1.219106
 20
3.553591
  0
VERTEX
  8
PLAN_1
 62
     2
  6
CONTINUOUS
 10
-1.216870
 20
3.554039
  0
VERTEX
  8
PLAN_1
 62
     2
  6
CONTINUOUS
 10
-1.214630
 20
3.554039
  0
VERTEX
  8
PLAN_1
 62
     2
  6
CONTINUOUS
 10
-1.210154
 20
3.553591
  0
VERTEX
  8
PLAN_1
 62
     2
  6
CONTINUOUS
 10
-1.206126
 20
3.552248
  0
VERTEX
  8
PLAN_1
 62
     2
  6
CONTINUOUS
 10
-1.202098
 20
3.550457
  0
VERTEX
  8
PLAN_1
 62
     2
  6
CONTINUOUS
 10
-1.198067
 20
3.547772
  0
VERTEX
  8
PLAN_1
 62
     2
  6
CONTINUOUS
 10
-1.196724
 20
3.546429
  0
VERTEX
  8
PLAN_1
 62
     2
  6
CONTINUOUS
 10
-1.194933
 20
3.544638
  0
VERTEX
  8
PLAN_1
 62
     2
  6
CONTINUOUS
 10
-1.194039
 20
3.542846
  0
VERTEX
  8
PLAN_1
 62
     2
  6
CONTINUOUS
 10
-1.192697
 20
3.540610
  0
VERTEX
  8
PLAN_1
 62
     2
  6
CONTINUOUS
 10
-1.191799
 20
3.538370
  0
VERTEX
  8
PLAN_1
 62
     2
  6
CONTINUOUS
 10
-1.191354
 20
3.536134
  0
VERTEX
  8
PLAN_1
 62
     2
  6
CONTINUOUS
 10
-1.190906
 20
3.533445
  0
VERTEX
  8
PLAN_1
 62
     2
  6
CONTINUOUS
 10
-1.190457
 20
3.530760
  0
VERTEX
  8
PLAN_1
 62
     2
  6
CONTINUOUS
 10
-1.190906
 20
3.527181
  0
VERTEX
  8
PLAN_1
 62
     2
  6
CONTINUOUS
 10
-1.191799
 20
3.523150
  0
VERTEX
  8
PLAN_1
 62
     2
  6
CONTINUOUS
 10
-1.193146
 20
3.518673
  0
VERTEX
  8
PLAN_1
 62
     2
  6
CONTINUOUS
 10
-1.195382
 20
3.514646
  0
VERTEX
  8
PLAN_1
 62
     2
  6
CONTINUOUS
 10
-1.196724
 20
3.512854
  0
VERTEX
  8
PLAN_1
 62
     2
  6
CONTINUOUS
 10
-1.198965
 20
3.511063
  0
VERTEX
  8
PLAN_1
 62
     2
  6
CONTINUOUS
 10
-1.200752
 20
3.509276
  0
VERTEX
  8
PLAN_1
 62
     2
  6
CONTINUOUS
 10
-1.203441
 20
3.507933
  0
VERTEX
  8
PLAN_1
 62
     2
  6
CONTINUOUS
 10
-1.206126
 20
3.506591
  0
VERTEX
  8
PLAN_1
 62
     2
  6
CONTINUOUS
 10
-1.209705
 20
3.505693
  0
VERTEX
  8
PLAN_1
 62
     2
  6
CONTINUOUS
 10
-1.213287
 20
3.505244
  0
VERTEX
  8
PLAN_1
 62
     2
  6
CONTINUOUS
 10
-1.217315
 20
3.504799
  0
VERTEX
  8
PLAN_1
 62
     2
  6
CONTINUOUS
 10
-1.220898
 20
3.505244
  0
VERTEX
  8
PLAN_1
 62
     2
  6
CONTINUOUS
 10
-1.224476
 20
3.505693
  0
VERTEX
  8
PLAN_1
 62
     2
  6
CONTINUOUS
 10
-1.228508
 20
3.507035
  0
VERTEX
  8
PLAN_1
 62
     2
  6
CONTINUOUS
 10
-1.232087
 20
3.508827
  0
VERTEX
  8
PLAN_1
 62
     2
  6
CONTINUOUS
 10
-1.233429
 20
3.510169
  0
VERTEX
  8
PLAN_1
 62
     2
  6
CONTINUOUS
 10
-1.235220
 20
3.511512
  0
VERTEX
  8
PLAN_1
 62
     2
  6
CONTINUOUS
 10
-1.236563
 20
3.513303
  0
VERTEX
  8
PLAN_1
 62
     2
  6
CONTINUOUS
 10
-1.237906
 20
3.515094
  0
VERTEX
  8
PLAN_1
 62
     2
  6
CONTINUOUS
 10
-1.238803
 20
3.517331
  0
VERTEX
  8
PLAN_1
 62
     2
  6
CONTINUOUS
 10
-1.239697
 20
3.519571
  0
VERTEX
  8
PLAN_1
 62
     2
  6
CONTINUOUS
 10
-1.240146
 20
3.522256
  0
VERTEX
  8
PLAN_1
 62
     2
  6
CONTINUOUS
 10
-1.240594
 20
3.524941
  0
VERTEX
  8
PLAN_1
 62
     2
  6
CONTINUOUS
 10
-1.231193
 20
3.524941
  0
VERTEX
  8
PLAN_1
 62
     2
  6
CONTINUOUS
 10
-1.230744
 20
3.522256
  0
VERTEX
  8
PLAN_1
 62
     2
  6
CONTINUOUS
 10
-1.229850
 20
3.519571
  0
VERTEX
  8
PLAN_1
 62
     2
  6
CONTINUOUS
 10
-1.228059
 20
3.517331
  0
VERTEX
  8
PLAN_1
 62
     2
  6
CONTINUOUS
 10
-1.226268
 20
3.515539
  0
VERTEX
  8
PLAN_1
 62
     2
  6
CONTINUOUS
 10
-1.224031
 20
3.514646
  0
VERTEX
  8
PLAN_1
 62
     2
  6
CONTINUOUS
 10
-1.221791
 20
3.513303
  0
VERTEX
  8
PLAN_1
 62
     2
  6
CONTINUOUS
 10
-1.218657
 20
3.512854
  0
VERTEX
  8
PLAN_1
 62
     2
  6
CONTINUOUS
 10
-1.215972
 20
3.512854
  0
VERTEX
  8
PLAN_1
 62
     2
  6
CONTINUOUS
 10
-1.212394
 20
3.513303
  0
VERTEX
  8
PLAN_1
 62
     2
  6
CONTINUOUS
 10
-1.209260
 20
3.514197
  0
VERTEX
  8
PLAN_1
 62
     2
  6
CONTINUOUS
 10
-1.207020
 20
3.515539
  0
VERTEX
  8
PLAN_1
 62
     2
  6
CONTINUOUS
 10
-1.204783
 20
3.517780
  0
VERTEX
  8
PLAN_1
 62
     2
  6
CONTINUOUS
 10
-1.202992
 20
3.520016
  0
VERTEX
  8
PLAN_1
 62
     2
  6
CONTINUOUS
 10
-1.201650
 20
3.523150
  0
VERTEX
  8
PLAN_1
 62
     2
  6
CONTINUOUS
 10
-1.200752
 20
3.526283
  0
VERTEX
  8
PLAN_1
 62
     2
  6
CONTINUOUS
 10
-1.200307
 20
3.529417
  0
VERTEX
  8
PLAN_1
 62
     2
  6
CONTINUOUS
 10
-1.200752
 20
3.533445
  0
VERTEX
  8
PLAN_1
 62
     2
  6
CONTINUOUS
 10
-1.201650
 20
3.536579
  0
VERTEX
  8
PLAN_1
 62
     2
  6
CONTINUOUS
 10
-1.202992
 20
3.539264
  0
VERTEX
  8
PLAN_1
 62
     2
  6
CONTINUOUS
 10
-1.205228
 20
3.541504
  0
VERTEX
  8
PLAN_1
 62
     2
  6
CONTINUOUS
 10
-1.207469
 20
3.543295
  0
VERTEX
  8
PLAN_1
 62
     2
  6
CONTINUOUS
 10
-1.210154
 20
3.544638
  0
VERTEX
  8
PLAN_1
 62
     2
  6
CONTINUOUS
 10
-1.213287
 20
3.545531
  0
VERTEX
  8
PLAN_1
 62
     2
  6
CONTINUOUS
 10
-1.216870
 20
3.545980
  0
VERTEX
  8
PLAN_1
 62
     2
  6
CONTINUOUS
 10
-1.218657
 20
3.545531
  0
VERTEX
  8
PLAN_1
 62
     2
  6
CONTINUOUS
 10
-1.220449
 20
3.545087
  0
VERTEX
  8
PLAN_1
 62
     2
  6
CONTINUOUS
 10
-1.222240
 20
3.544638
  0
VERTEX
  8
PLAN_1
 62
     2
  6
CONTINUOUS
 10
-1.224031
 20
3.543740
  0
VERTEX
  8
PLAN_1
 62
     2
  6
CONTINUOUS
 10
-1.225823
 20
3.542846
  0
VERTEX
  8
PLAN_1
 62
     2
  6
CONTINUOUS
 10
-1.227610
 20
3.541953
  0
VERTEX
  8
PLAN_1
 62
     2
  6
CONTINUOUS
 10
-1.228953
 20
3.540161
  0
VERTEX
  8
PLAN_1
 62
     2
  6
CONTINUOUS
 10
-1.230299
 20
3.538819
  0
VERTEX
  8
PLAN_1
 62
     2
  6
CONTINUOUS
 10
-1.237906
 20
3.539264
  0
VERTEX
  8
PLAN_1
 62
     2
  6
CONTINUOUS
 10
-1.232535
 20
3.578657
  0
VERTEX
  8
PLAN_1
 62
     2
  6
CONTINUOUS
 10
-1.194933
 20
3.578657
  0
VERTEX
  8
PLAN_1
 62
     2
  6
CONTINUOUS
 10
-1.194933
 20
3.569705
  0
VERTEX
  8
PLAN_1
 62
     2
  6
CONTINUOUS
 10
-1.225823
 20
3.569705
  0
VERTEX
  8
PLAN_1
 62
     2
  6
CONTINUOUS
 10
-1.228953
 20
3.549563
  0
SEQEND
  8
0
  0
POLYLINE
  8
PLAN_1
 62
     2
  6
CONTINUOUS
 66
     1
 40
0.003000
 41
0.003000
  0
VERTEX
  8
PLAN_1
 62
     2
  6
CONTINUOUS
 10
-1.143008
 20
3.560752
  0
VERTEX
  8
PLAN_1
 62
     2
  6
CONTINUOUS
 10
-1.143457
 20
3.562988
  0
VERTEX
  8
PLAN_1
 62
     2
  6
CONTINUOUS
 10
-1.144350
 20
3.565228
  0
VERTEX
  8
PLAN_1
 62
     2
  6
CONTINUOUS
 10
-1.145248
 20
3.567020
  0
VERTEX
  8
PLAN_1
 62
     2
  6
CONTINUOUS
 10
-1.146591
 20
3.568362
  0
VERTEX
  8
PLAN_1
 62
     2
  6
CONTINUOUS
 10
-1.148382
 20
3.569705
  0
VERTEX
  8
PLAN_1
 62
     2
  6
CONTINUOUS
 10
-1.150173
 20
3.571047
  0
VERTEX
  8
PLAN_1
 62
     2
  6
CONTINUOUS
 10
-1.152858
 20
3.571496
  0
VERTEX
  8
PLAN_1
 62
     2
  6
CONTINUOUS
 10
-1.155543
 20
3.571941
  0
VERTEX
  8
PLAN_1
 62
     2
  6
CONTINUOUS
 10
-1.158228
 20
3.571496
  0
VERTEX
  8
PLAN_1
 62
     2
  6
CONTINUOUS
 10
-1.160469
 20
3.571047
  0
VERTEX
  8
PLAN_1
 62
     2
  6
CONTINUOUS
 10
-1.162256
 20
3.570154
  0
VERTEX
  8
PLAN_1
 62
     2
  6
CONTINUOUS
 10
-1.164047
 20
3.568811
  0
VERTEX
  8
PLAN_1
 62
     2
  6
CONTINUOUS
 10
-1.165839
 20
3.567020
  0
VERTEX
  8
PLAN_1
 62
     2
  6
CONTINUOUS
 10
-1.167181
 20
3.565228
  0
VERTEX
  8
PLAN_1
 62
     2
  6
CONTINUOUS
 10
-1.168524
 20
3.563437
  0
VERTEX
  8
PLAN_1
 62
     2
  6
CONTINUOUS
 10
-1.169421
 20
3.561201
  0
VERTEX
  8
PLAN_1
 62
     2
  6
CONTINUOUS
 10
-1.171209
 20
3.556724
  0
VERTEX
  8
PLAN_1
 62
     2
  6
CONTINUOUS
 10
-1.172106
 20
3.552248
  0
VERTEX
  8
PLAN_1
 62
     2
  6
CONTINUOUS
 10
-1.172551
 20
3.548217
  0
VERTEX
  8
PLAN_1
 62
     2
  6
CONTINUOUS
 10
-1.173000
 20
3.544638
  0
VERTEX
  8
PLAN_1
 62
     2
  6
CONTINUOUS
 10
-1.172551
 20
3.544638
  0
VERTEX
  8
PLAN_1
 62
     2
  6
CONTINUOUS
 10
-1.171657
 20
3.545980
  0
VERTEX
  8
PLAN_1
 62
     2
  6
CONTINUOUS
 10
-1.170315
 20
3.547772
  0
VERTEX
  8
PLAN_1
 62
     2
  6
CONTINUOUS
 10
-1.168972
 20
3.549114
  0
VERTEX
  8
PLAN_1
 62
     2
  6
CONTINUOUS
 10
-1.166732
 20
3.550457
  0
VERTEX
  8
PLAN_1
 62
     2
  6
CONTINUOUS
 10
-1.164496
 20
3.551799
  0
VERTEX
  8
PLAN_1
 62
     2
  6
CONTINUOUS
 10
-1.161811
 20
3.552693
  0
VERTEX
  8
PLAN_1
 62
     2
  6
CONTINUOUS
 10
-1.158677
 20
3.553142
  0
VERTEX
  8
PLAN_1
 62
     2
  6
CONTINUOUS
 10
-1.155094
 20
3.553591
  0
VERTEX
  8
PLAN_1
 62
     2
  6
CONTINUOUS
 10
-1.151516
 20
3.553142
  0
VERTEX
  8
PLAN_1
 62
     2
  6
CONTINUOUS
 10
-1.147933
 20
3.552248
  0
VERTEX
  8
PLAN_1
 62
     2
  6
CONTINUOUS
 10
-1.143906
 20
3.550906
  0
VERTEX
  8
PLAN_1
 62
     2
  6
CONTINUOUS
 10
-1.140323
 20
3.548217
  0
VERTEX
  8
PLAN_1
 62
     2
  6
CONTINUOUS
 10
-1.138980
 20
3.546874
  0
VERTEX
  8
PLAN_1
 62
     2
  6
CONTINUOUS
 10
-1.137189
 20
3.545087
  0
VERTEX
  8
PLAN_1
 62
     2
  6
CONTINUOUS
 10
-1.135846
 20
3.543295
  0
VERTEX
  8
PLAN_1
 62
     2
  6
CONTINUOUS
 10
-1.134504
 20
3.541055
  0
VERTEX
  8
PLAN_1
 62
     2
  6
CONTINUOUS
 10
-1.133610
 20
3.538819
  0
VERTEX
  8
PLAN_1
 62
     2
  6
CONTINUOUS
 10
-1.133161
 20
3.536134
  0
VERTEX
  8
PLAN_1
 62
     2
  6
CONTINUOUS
 10
-1.132713
 20
3.533445
  0
VERTEX
  8
PLAN_1
 62
     2
  6
CONTINUOUS
 10
-1.132268
 20
3.530315
  0
VERTEX
  8
PLAN_1
 62
     2
  6
CONTINUOUS
 10
-1.132268
 20
3.527626
  0
VERTEX
  8
PLAN_1
 62
     2
  6
CONTINUOUS
 10
-1.132713
 20
3.524941
  0
VERTEX
  8
PLAN_1
 62
     2
  6
CONTINUOUS
 10
-1.133161
 20
3.522705
  0
VERTEX
  8
PLAN_1
 62
     2
  6
CONTINUOUS
 10
-1.134055
 20
3.520465
  0
VERTEX
  8
PLAN_1
 62
     2
  6
CONTINUOUS
 10
-1.134953
 20
3.518228
  0
VERTEX
  8
PLAN_1
 62
     2
  6
CONTINUOUS
 10
-1.136295
 20
3.515988
  0
VERTEX
  8
PLAN_1
 62
     2
  6
CONTINUOUS
 10
-1.137638
 20
3.514197
  0
VERTEX
  8
PLAN_1
 62
     2
  6
CONTINUOUS
 10
-1.139429
 20
3.511961
  0
VERTEX
  8
PLAN_1
 62
     2
  6
CONTINUOUS
 10
-1.140772
 20
3.510618
  0
VERTEX
  8
PLAN_1
 62
     2
  6
CONTINUOUS
 10
-1.142563
 20
3.509276
  0
VERTEX
  8
PLAN_1
 62
     2
  6
CONTINUOUS
 10
-1.144350
 20
3.507933
  0
VERTEX
  8
PLAN_1
 62
     2
  6
CONTINUOUS
 10
-1.146142
 20
3.507035
  0
VERTEX
  8
PLAN_1
 62
     2
  6
CONTINUOUS
 10
-1.148382
 20
3.506142
  0
VERTEX
  8
PLAN_1
 62
     2
  6
CONTINUOUS
 10
-1.151067
 20
3.505244
  0
VERTEX
  8
PLAN_1
 62
     2
  6
CONTINUOUS
 10
-1.154201
 20
3.504799
  0
VERTEX
  8
PLAN_1
 62
     2
  6
CONTINUOUS
 10
-1.157780
 20
3.504799
  0
VERTEX
  8
PLAN_1
 62
     2
  6
CONTINUOUS
 10
-1.160020
 20
3.504799
  0
VERTEX
  8
PLAN_1
 62
     2
  6
CONTINUOUS
 10
-1.162256
 20
3.505244
  0
VERTEX
  8
PLAN_1
 62
     2
  6
CONTINUOUS
 10
-1.164945
 20
3.506142
  0
VERTEX
  8
PLAN_1
 62
     2
  6
CONTINUOUS
 10
-1.167630
 20
3.507035
  0
VERTEX
  8
PLAN_1
 62
     2
  6
CONTINUOUS
 10
-1.169866
 20
3.508378
  0
VERTEX
  8
PLAN_1
 62
     2
  6
CONTINUOUS
 10
-1.172551
 20
3.510618
  0
VERTEX
  8
PLAN_1
 62
     2
  6
CONTINUOUS
 10
-1.174791
 20
3.512854
  0
VERTEX
  8
PLAN_1
 62
     2
  6
CONTINUOUS
 10
-1.176583
 20
3.515539
  0
VERTEX
  8
PLAN_1
 62
     2
  6
CONTINUOUS
 10
-1.178374
 20
3.518228
  0
VERTEX
  8
PLAN_1
 62
     2
  6
CONTINUOUS
 10
-1.179268
 20
3.520913
  0
VERTEX
  8
PLAN_1
 62
     2
  6
CONTINUOUS
 10
-1.180161
 20
3.524047
  0
VERTEX
  8
PLAN_1
 62
     2
  6
CONTINUOUS
 10
-1.181059
 20
3.527181
  0
VERTEX
  8
PLAN_1
 62
     2
  6
CONTINUOUS
 10
-1.181504
 20
3.530315
  0
VERTEX
  8
PLAN_1
 62
     2
  6
CONTINUOUS
 10
-1.181953
 20
3.533894
  0
VERTEX
  8
PLAN_1
 62
     2
  6
CONTINUOUS
 10
-1.182402
 20
3.537476
  0
VERTEX
  8
PLAN_1
 62
     2
  6
CONTINUOUS
 10
-1.182402
 20
3.541055
  0
VERTEX
  8
PLAN_1
 62
     2
  6
CONTINUOUS
 10
-1.181953
 20
3.547323
  0
VERTEX
  8
PLAN_1
 62
     2
  6
CONTINUOUS
 10
-1.181059
 20
3.553591
  0
VERTEX
  8
PLAN_1
 62
     2
  6
CONTINUOUS
 10
-1.180610
 20
3.557169
  0
VERTEX
  8
PLAN_1
 62
     2
  6
CONTINUOUS
 10
-1.179717
 20
3.560303
  0
VERTEX
  8
PLAN_1
 62
     2
  6
CONTINUOUS
 10
-1.178374
 20
3.563437
  0
VERTEX
  8
PLAN_1
 62
     2
  6
CONTINUOUS
 10
-1.177028
 20
3.566571
  0
VERTEX
  8
PLAN_1
 62
     2
  6
CONTINUOUS
 10
-1.175240
 20
3.569256
  0
VERTEX
  8
PLAN_1
 62
     2
  6
CONTINUOUS
 10
-1.173449
 20
3.571941
  0
VERTEX
  8
PLAN_1
 62
     2
  6
CONTINUOUS
 10
-1.171209
 20
3.574181
  0
VERTEX
  8
PLAN_1
 62
     2
  6
CONTINUOUS
 10
-1.168524
 20
3.575972
  0
VERTEX
  8
PLAN_1
 62
     2
  6
CONTINUOUS
 10
-1.165839
 20
3.577764
  0
VERTEX
  8
PLAN_1
 62
     2
  6
CONTINUOUS
 10
-1.162705
 20
3.579106
  0
VERTEX
  8
PLAN_1
 62
     2
  6
CONTINUOUS
 10
-1.159126
 20
3.579551
  0
VERTEX
  8
PLAN_1
 62
     2
  6
CONTINUOUS
 10
-1.155094
 20
3.580000
  0
VERTEX
  8
PLAN_1
 62
     2
  6
CONTINUOUS
 10
-1.151961
 20
3.579551
  0
VERTEX
  8
PLAN_1
 62
     2
  6
CONTINUOUS
 10
-1.148382
 20
3.579106
  0
VERTEX
  8
PLAN_1
 62
     2
  6
CONTINUOUS
 10
-1.145248
 20
3.577764
  0
VERTEX
  8
PLAN_1
 62
     2
  6
CONTINUOUS
 10
-1.141665
 20
3.575972
  0
VERTEX
  8
PLAN_1
 62
     2
  6
CONTINUOUS
 10
-1.138980
 20
3.573287
  0
VERTEX
  8
PLAN_1
 62
     2
  6
CONTINUOUS
 10
-1.136295
 20
3.569705
  0
VERTEX
  8
PLAN_1
 62
     2
  6
CONTINUOUS
 10
-1.135402
 20
3.567913
  0
VERTEX
  8
PLAN_1
 62
     2
  6
CONTINUOUS
 10
-1.134953
 20
3.565677
  0
VERTEX
  8
PLAN_1
 62
     2
  6
CONTINUOUS
 10
-1.134055
 20
3.562988
  0
VERTEX
  8
PLAN_1
 62
     2
  6
CONTINUOUS
 10
-1.134055
 20
3.560752
  0
VERTEX
  8
PLAN_1
 62
     2
  6
CONTINUOUS
 10
-1.143008
 20
3.560752
  0
SEQEND
  8
0
  0
POLYLINE
  8
PLAN_1
 62
     2
  6
CONTINUOUS
 66
     1
 40
0.003000
 41
0.003000
  0
VERTEX
  8
PLAN_1
 62
     2
  6
CONTINUOUS
 10
-1.155992
 20
3.513303
  0
VERTEX
  8
PLAN_1
 62
     2
  6
CONTINUOUS
 10
-1.152858
 20
3.513303
  0
VERTEX
  8
PLAN_1
 62
     2
  6
CONTINUOUS
 10
-1.150173
 20
3.514197
  0
VERTEX
  8
PLAN_1
 62
     2
  6
CONTINUOUS
 10
-1.147933
 20
3.515988
  0
VERTEX
  8
PLAN_1
 62
     2
  6
CONTINUOUS
 10
-1.145697
 20
3.517780
  0
VERTEX
  8
PLAN_1
 62
     2
  6
CONTINUOUS
 10
-1.143906
 20
3.520016
  0
VERTEX
  8
PLAN_1
 62
     2
  6
CONTINUOUS
 10
-1.143008
 20
3.523150
  0
VERTEX
  8
PLAN_1
 62
     2
  6
CONTINUOUS
 10
-1.142114
 20
3.526283
  0
VERTEX
  8
PLAN_1
 62
     2
  6
CONTINUOUS
 10
-1.141665
 20
3.529866
  0
VERTEX
  8
PLAN_1
 62
     2
  6
CONTINUOUS
 10
-1.142114
 20
3.532551
  0
VERTEX
  8
PLAN_1
 62
     2
  6
CONTINUOUS
 10
-1.142563
 20
3.534787
  0
VERTEX
  8
PLAN_1
 62
     2
  6
CONTINUOUS
 10
-1.143457
 20
3.537476
  0
VERTEX
  8
PLAN_1
 62
     2
  6
CONTINUOUS
 10
-1.144799
 20
3.540161
  0
VERTEX
  8
PLAN_1
 62
     2
  6
CONTINUOUS
 10
-1.147039
 20
3.541953
  0
VERTEX
  8
PLAN_1
 62
     2
  6
CONTINUOUS
 10
-1.149724
 20
3.543740
  0
VERTEX
  8
PLAN_1
 62
     2
  6
CONTINUOUS
 10
-1.152858
 20
3.544638
  0
VERTEX
  8
PLAN_1
 62
     2
  6
CONTINUOUS
 10
-1.156437
 20
3.545087
  0
VERTEX
  8
PLAN_1
 62
     2
  6
CONTINUOUS
 10
-1.160020
 20
3.545087
  0
VERTEX
  8
PLAN_1
 62
     2
  6
CONTINUOUS
 10
-1.163154
 20
3.544189
  0
VERTEX
  8
PLAN_1
 62
     2
  6
CONTINUOUS
 10
-1.165839
 20
3.542398
  0
VERTEX
  8
PLAN_1
 62
     2
  6
CONTINUOUS
 10
-1.168075
 20
3.540610
  0
VERTEX
  8
PLAN_1
 62
     2
  6
CONTINUOUS
 10
-1.169421
 20
3.538370
  0
VERTEX
  8
PLAN_1
 62
     2
  6
CONTINUOUS
 10
-1.170764
 20
3.535685
  0
VERTEX
  8
PLAN_1
 62
     2
  6
CONTINUOUS
 10
-1.171209
 20
3.532551
  0
VERTEX
  8
PLAN_1
 62
     2
  6
CONTINUOUS
 10
-1.171657
 20
3.529417
  0
VERTEX
  8
PLAN_1
 62
     2
  6
CONTINUOUS
 10
-1.171209
 20
3.526283
  0
VERTEX
  8
PLAN_1
 62
     2
  6
CONTINUOUS
 10
-1.170764
 20
3.523598
  0
VERTEX
  8
PLAN_1
 62
     2
  6
CONTINUOUS
 10
-1.169421
 20
3.520913
  0
VERTEX
  8
PLAN_1
 62
     2
  6
CONTINUOUS
 10
-1.168075
 20
3.518228
  0
VERTEX
  8
PLAN_1
 62
     2
  6
CONTINUOUS
 10
-1.165839
 20
3.515988
  0
VERTEX
  8
PLAN_1
 62
     2
  6
CONTINUOUS
 10
-1.163154
 20
3.514646
  0
VERTEX
  8
PLAN_1
 62
     2
  6
CONTINUOUS
 10
-1.160020
 20
3.513303
  0
VERTEX
  8
PLAN_1
 62
     2
  6
CONTINUOUS
 10
-1.155992
 20
3.513303
  0
SEQEND
  8
0
  0
ENDSEC
  0
EOF
