  0
SECTION
  2
HEADER
  9
$ACADVER
  1
AC1006
  9
$EXTMIN
 10
-1.917382
 20
-3.388000
  9
$EXTMAX
 10
1.917783
 20
3.392000
  9
$LTSCALE
 40
0.000394
  9
$PDMODE
 70
    35
  9
$PDSIZE
 40
0.000315
  0
ENDSEC
  0
SECTION
  2
TABLES
  0
TABLE
  2
LTYPE
 70
     9
  0
LTYPE
  2
CONTINUOUS
 70
    64
  3
Solid line
 72
    65
 73
     0
 40
0.000000
  0
LTYPE
  2
DASHED
 70
    64
  3
__ __ __ __ __ __ __ __ __ __ __ __ __ __ __
 72
    65
 73
     2
 40
0.000003
 49
0.000002
 49
-0.000001
  0
LTYPE
  2
HIDDEN
 70
    64
  3
 _ _ _ _ _ _ _ _ _ _ _ _ _ _ _ _ _ _ _ _ _ _
 72
    65
 73
     2
 40
0.000001
 49
0.000001
 49
-0.000000
  0
LTYPE
  2
CENTER
 70
    64
  3
____ _ ____ _ ____ _ ____ _ ____ _ ____ _ ____
 72
    65
 73
     4
 40
0.000008
 49
0.000005
 49
-0.000001
 49
0.000001
 49
-0.000001
  0
LTYPE
  2
PHANTOM
 70
    64
  3
_____ _ _ _____ _ _ _____ _ _ _____ _ _ ____
 72
    65
 73
     6
 40
0.000010
 49
0.000005
 49
-0.000001
 49
0.000001
 49
-0.000001
 49
0.000001
 49
-0.000001
  0
LTYPE
  2
DOT
 70
    64
  3
...............................................
 72
    65
 73
     2
 40
0.000001
 49
0.000000
 49
-0.000001
  0
LTYPE
  2
DASHDOT
 70
    64
  3
__ . __ . __ . __ . __ . __ . __ . __ . __ . __
 72
    65
 73
     4
 40
0.000004
 49
0.000002
 49
-0.000001
 49
0.000000
 49
-0.000001
  0
LTYPE
  2
BORDER
 70
    64
  3
__ __ . __ __ . __ __ . __ __ . __ __ . __ __
 72
    65
 73
     6
 40
0.000007
 49
0.000002
 49
-0.000001
 49
0.000002
 49
-0.000001
 49
0.000000
 49
-0.000001
  0
LTYPE
  2
DIVIDE
 70
    64
  3
__ . . __ . . __ . . __ . . __ . . __ . . __
 72
    65
 73
     6
 40
0.000005
 49
0.000002
 49
-0.000001
 49
0.000000
 49
-0.000001
 49
0.000000
 49
-0.000001
  0
LTYPE
  2
DOTDOT
 70
    64
  3
 . .  . .  . .  . .  . .  . . 
 72
    65
 73
     5
 40
0.000002
 49
-0.000001
 49
0.000000
 49
-0.000001
 49
0.000000
 49
-0.000001
  0
ENDTAB
  0
TABLE
  2
STYLE
 70
     0
  0
ENDTAB
  0
TABLE
  2
LAYER
 70
     3
  0
LAYER
  2
FOREGROUND
 70
    64
 62
     7
  6
CONTINUOUS
  0
LAYER
  2
BACKGROUND
 70
    65
 62
    -7
  6
CONTINUOUS
  0
LAYER
  2
PLAN_1
 70
    64
 62
     7
  6
CONTINUOUS
  0
ENDTAB
  0
ENDSEC
  0
SECTION
  2
ENTITIES
  0
POLYLINE
  8
PLAN_1
  6
CONTINUOUS
 66
     1
 40
0.003000
 41
0.003000
  0
VERTEX
  8
PLAN_1
  6
CONTINUOUS
 10
0.129559
 20
-3.353252
  0
VERTEX
  8
PLAN_1
  6
CONTINUOUS
 10
-0.027228
 20
-3.353252
  0
VERTEX
  8
PLAN_1
  6
CONTINUOUS
 10
-0.027228
 20
-3.330795
  0
VERTEX
  8
PLAN_1
  6
CONTINUOUS
 10
0.094811
 20
-3.177819
  0
VERTEX
  8
PLAN_1
  6
CONTINUOUS
 10
-0.018331
 20
-3.177819
  0
VERTEX
  8
PLAN_1
  6
CONTINUOUS
 10
-0.018331
 20
-3.154091
  0
VERTEX
  8
PLAN_1
  6
CONTINUOUS
 10
0.129559
 20
-3.154091
  0
VERTEX
  8
PLAN_1
  6
CONTINUOUS
 10
0.129559
 20
-3.177398
  0
VERTEX
  8
PLAN_1
  6
CONTINUOUS
 10
0.006673
 20
-3.329524
  0
VERTEX
  8
PLAN_1
  6
CONTINUOUS
 10
0.129559
 20
-3.329524
  0
VERTEX
  8
PLAN_1
  6
CONTINUOUS
 10
0.129559
 20
-3.353252
  0
SEQEND
  8
0
  0
POLYLINE
  8
PLAN_1
  6
CONTINUOUS
 66
     1
 40
0.003000
 41
0.003000
  0
VERTEX
  8
PLAN_1
  6
CONTINUOUS
 10
0.296941
 20
-3.213839
  0
VERTEX
  8
PLAN_1
  6
CONTINUOUS
 10
0.295248
 20
-3.207906
  0
VERTEX
  8
PLAN_1
  6
CONTINUOUS
 10
0.293126
 20
-3.201972
  0
VERTEX
  8
PLAN_1
  6
CONTINUOUS
 10
0.290587
 20
-3.197311
  0
VERTEX
  8
PLAN_1
  6
CONTINUOUS
 10
0.287618
 20
-3.192650
  0
VERTEX
  8
PLAN_1
  6
CONTINUOUS
 10
0.284654
 20
-3.188839
  0
VERTEX
  8
PLAN_1
  6
CONTINUOUS
 10
0.280839
 20
-3.185449
  0
VERTEX
  8
PLAN_1
  6
CONTINUOUS
 10
0.277024
 20
-3.182480
  0
VERTEX
  8
PLAN_1
  6
CONTINUOUS
 10
0.273213
 20
-3.180362
  0
VERTEX
  8
PLAN_1
  6
CONTINUOUS
 10
0.269398
 20
-3.178244
  0
VERTEX
  8
PLAN_1
  6
CONTINUOUS
 10
0.265161
 20
-3.176547
  0
VERTEX
  8
PLAN_1
  6
CONTINUOUS
 10
0.260921
 20
-3.175276
  0
VERTEX
  8
PLAN_1
  6
CONTINUOUS
 10
0.256685
 20
-3.174008
  0
VERTEX
  8
PLAN_1
  6
CONTINUOUS
 10
0.248634
 20
-3.173157
  0
VERTEX
  8
PLAN_1
  6
CONTINUOUS
 10
0.241008
 20
-3.172736
  0
VERTEX
  8
PLAN_1
  6
CONTINUOUS
 10
0.234224
 20
-3.172736
  0
VERTEX
  8
PLAN_1
  6
CONTINUOUS
 10
0.227870
 20
-3.174008
  0
VERTEX
  8
PLAN_1
  6
CONTINUOUS
 10
0.221512
 20
-3.175276
  0
VERTEX
  8
PLAN_1
  6
CONTINUOUS
 10
0.215583
 20
-3.177398
  0
VERTEX
  8
PLAN_1
  6
CONTINUOUS
 10
0.210071
 20
-3.180362
  0
VERTEX
  8
PLAN_1
  6
CONTINUOUS
 10
0.204563
 20
-3.183752
  0
VERTEX
  8
PLAN_1
  6
CONTINUOUS
 10
0.199480
 20
-3.187988
  0
VERTEX
  8
PLAN_1
  6
CONTINUOUS
 10
0.194819
 20
-3.192650
  0
VERTEX
  8
PLAN_1
  6
CONTINUOUS
 10
0.190579
 20
-3.197736
  0
VERTEX
  8
PLAN_1
  6
CONTINUOUS
 10
0.186768
 20
-3.203669
  0
VERTEX
  8
PLAN_1
  6
CONTINUOUS
 10
0.183799
 20
-3.210024
  0
VERTEX
  8
PLAN_1
  6
CONTINUOUS
 10
0.180835
 20
-3.217228
  0
VERTEX
  8
PLAN_1
  6
CONTINUOUS
 10
0.178717
 20
-3.224854
  0
VERTEX
  8
PLAN_1
  6
CONTINUOUS
 10
0.177020
 20
-3.233331
  0
VERTEX
  8
PLAN_1
  6
CONTINUOUS
 10
0.176173
 20
-3.242228
  0
VERTEX
  8
PLAN_1
  6
CONTINUOUS
 10
0.175748
 20
-3.251551
  0
VERTEX
  8
PLAN_1
  6
CONTINUOUS
 10
0.176173
 20
-3.260453
  0
VERTEX
  8
PLAN_1
  6
CONTINUOUS
 10
0.176594
 20
-3.268925
  0
VERTEX
  8
PLAN_1
  6
CONTINUOUS
 10
0.177866
 20
-3.276976
  0
VERTEX
  8
PLAN_1
  6
CONTINUOUS
 10
0.179138
 20
-3.284606
  0
VERTEX
  8
PLAN_1
  6
CONTINUOUS
 10
0.181256
 20
-3.291807
  0
VERTEX
  8
PLAN_1
  6
CONTINUOUS
 10
0.183799
 20
-3.298591
  0
VERTEX
  8
PLAN_1
  6
CONTINUOUS
 10
0.186768
 20
-3.304945
  0
VERTEX
  8
PLAN_1
  6
CONTINUOUS
 10
0.190157
 20
-3.310878
  0
VERTEX
  8
PLAN_1
  6
CONTINUOUS
 10
0.192276
 20
-3.313421
  0
VERTEX
  8
PLAN_1
  6
CONTINUOUS
 10
0.194394
 20
-3.315961
  0
VERTEX
  8
PLAN_1
  6
CONTINUOUS
 10
0.196937
 20
-3.318504
  0
VERTEX
  8
PLAN_1
  6
CONTINUOUS
 10
0.199480
 20
-3.320622
  0
VERTEX
  8
PLAN_1
  6
CONTINUOUS
 10
0.202020
 20
-3.322744
  0
VERTEX
  8
PLAN_1
  6
CONTINUOUS
 10
0.204563
 20
-3.324862
  0
VERTEX
  8
PLAN_1
  6
CONTINUOUS
 10
0.207531
 20
-3.326555
  0
VERTEX
  8
PLAN_1
  6
CONTINUOUS
 10
0.210921
 20
-3.328252
  0
VERTEX
  8
PLAN_1
  6
CONTINUOUS
 10
0.213886
 20
-3.329945
  0
VERTEX
  8
PLAN_1
  6
CONTINUOUS
 10
0.217276
 20
-3.331217
  0
VERTEX
  8
PLAN_1
  6
CONTINUOUS
 10
0.221091
 20
-3.332067
  0
VERTEX
  8
PLAN_1
  6
CONTINUOUS
 10
0.224906
 20
-3.332913
  0
VERTEX
  8
PLAN_1
  6
CONTINUOUS
 10
0.228717
 20
-3.333760
  0
VERTEX
  8
PLAN_1
  6
CONTINUOUS
 10
0.232957
 20
-3.334185
  0
VERTEX
  8
PLAN_1
  6
CONTINUOUS
 10
0.237193
 20
-3.334606
  0
VERTEX
  8
PLAN_1
  6
CONTINUOUS
 10
0.241854
 20
-3.334606
  0
VERTEX
  8
PLAN_1
  6
CONTINUOUS
 10
0.245244
 20
-3.334606
  0
VERTEX
  8
PLAN_1
  6
CONTINUOUS
 10
0.249059
 20
-3.334185
  0
VERTEX
  8
PLAN_1
  6
CONTINUOUS
 10
0.252870
 20
-3.333760
  0
VERTEX
  8
PLAN_1
  6
CONTINUOUS
 10
0.256685
 20
-3.332488
  0
VERTEX
  8
PLAN_1
  6
CONTINUOUS
 10
0.260921
 20
-3.331217
  0
VERTEX
  8
PLAN_1
  6
CONTINUOUS
 10
0.265161
 20
-3.329524
  0
VERTEX
  8
PLAN_1
  6
CONTINUOUS
 10
0.269398
 20
-3.327406
  0
VERTEX
  8
PLAN_1
  6
CONTINUOUS
 10
0.273634
 20
-3.324862
  0
VERTEX
  8
PLAN_1
  6
CONTINUOUS
 10
0.277449
 20
-3.321472
  0
VERTEX
  8
PLAN_1
  6
CONTINUOUS
 10
0.281264
 20
-3.317657
  0
VERTEX
  8
PLAN_1
  6
CONTINUOUS
 10
0.285075
 20
-3.313421
  0
VERTEX
  8
PLAN_1
  6
CONTINUOUS
 10
0.288465
 20
-3.308335
  0
VERTEX
  8
PLAN_1
  6
CONTINUOUS
 10
0.291433
 20
-3.302402
  0
VERTEX
  8
PLAN_1
  6
CONTINUOUS
 10
0.294398
 20
-3.295622
  0
VERTEX
  8
PLAN_1
  6
CONTINUOUS
 10
0.296941
 20
-3.288417
  0
VERTEX
  8
PLAN_1
  6
CONTINUOUS
 10
0.298638
 20
-3.279945
  0
VERTEX
  8
PLAN_1
  6
CONTINUOUS
 10
0.324909
 20
-3.279945
  0
VERTEX
  8
PLAN_1
  6
CONTINUOUS
 10
0.323638
 20
-3.286724
  0
VERTEX
  8
PLAN_1
  6
CONTINUOUS
 10
0.322366
 20
-3.293504
  0
VERTEX
  8
PLAN_1
  6
CONTINUOUS
 10
0.320669
 20
-3.299437
  0
VERTEX
  8
PLAN_1
  6
CONTINUOUS
 10
0.318551
 20
-3.304945
  0
VERTEX
  8
PLAN_1
  6
CONTINUOUS
 10
0.316433
 20
-3.310453
  0
VERTEX
  8
PLAN_1
  6
CONTINUOUS
 10
0.313890
 20
-3.315114
  0
VERTEX
  8
PLAN_1
  6
CONTINUOUS
 10
0.311350
 20
-3.319776
  0
VERTEX
  8
PLAN_1
  6
CONTINUOUS
 10
0.308807
 20
-3.324012
  0
VERTEX
  8
PLAN_1
  6
CONTINUOUS
 10
0.305839
 20
-3.327827
  0
VERTEX
  8
PLAN_1
  6
CONTINUOUS
 10
0.302874
 20
-3.331642
  0
VERTEX
  8
PLAN_1
  6
CONTINUOUS
 10
0.299484
 20
-3.335031
  0
VERTEX
  8
PLAN_1
  6
CONTINUOUS
 10
0.296516
 20
-3.337996
  0
VERTEX
  8
PLAN_1
  6
CONTINUOUS
 10
0.293126
 20
-3.340539
  0
VERTEX
  8
PLAN_1
  6
CONTINUOUS
 10
0.289736
 20
-3.343083
  0
VERTEX
  8
PLAN_1
  6
CONTINUOUS
 10
0.286346
 20
-3.345626
  0
VERTEX
  8
PLAN_1
  6
CONTINUOUS
 10
0.282957
 20
-3.347319
  0
VERTEX
  8
PLAN_1
  6
CONTINUOUS
 10
0.275752
 20
-3.351134
  0
VERTEX
  8
PLAN_1
  6
CONTINUOUS
 10
0.268972
 20
-3.353677
  0
VERTEX
  8
PLAN_1
  6
CONTINUOUS
 10
0.262193
 20
-3.355370
  0
VERTEX
  8
PLAN_1
  6
CONTINUOUS
 10
0.256260
 20
-3.357067
  0
VERTEX
  8
PLAN_1
  6
CONTINUOUS
 10
0.245244
 20
-3.358339
  0
VERTEX
  8
PLAN_1
  6
CONTINUOUS
 10
0.237618
 20
-3.358760
  0
VERTEX
  8
PLAN_1
  6
CONTINUOUS
 10
0.229142
 20
-3.358339
  0
VERTEX
  8
PLAN_1
  6
CONTINUOUS
 10
0.221091
 20
-3.357067
  0
VERTEX
  8
PLAN_1
  6
CONTINUOUS
 10
0.212614
 20
-3.355370
  0
VERTEX
  8
PLAN_1
  6
CONTINUOUS
 10
0.204563
 20
-3.352827
  0
VERTEX
  8
PLAN_1
  6
CONTINUOUS
 10
0.200748
 20
-3.351134
  0
VERTEX
  8
PLAN_1
  6
CONTINUOUS
 10
0.196937
 20
-3.349437
  0
VERTEX
  8
PLAN_1
  6
CONTINUOUS
 10
0.193122
 20
-3.347319
  0
VERTEX
  8
PLAN_1
  6
CONTINUOUS
 10
0.189307
 20
-3.345201
  0
VERTEX
  8
PLAN_1
  6
CONTINUOUS
 10
0.185917
 20
-3.342657
  0
VERTEX
  8
PLAN_1
  6
CONTINUOUS
 10
0.182528
 20
-3.340118
  0
VERTEX
  8
PLAN_1
  6
CONTINUOUS
 10
0.179138
 20
-3.337575
  0
VERTEX
  8
PLAN_1
  6
CONTINUOUS
 10
0.175748
 20
-3.334185
  0
VERTEX
  8
PLAN_1
  6
CONTINUOUS
 10
0.172783
 20
-3.331217
  0
VERTEX
  8
PLAN_1
  6
CONTINUOUS
 10
0.169815
 20
-3.327406
  0
VERTEX
  8
PLAN_1
  6
CONTINUOUS
 10
0.167276
 20
-3.323591
  0
VERTEX
  8
PLAN_1
  6
CONTINUOUS
 10
0.164307
 20
-3.319776
  0
VERTEX
  8
PLAN_1
  6
CONTINUOUS
 10
0.162189
 20
-3.315539
  0
VERTEX
  8
PLAN_1
  6
CONTINUOUS
 10
0.159646
 20
-3.311303
  0
VERTEX
  8
PLAN_1
  6
CONTINUOUS
 10
0.157528
 20
-3.306217
  0
VERTEX
  8
PLAN_1
  6
CONTINUOUS
 10
0.155831
 20
-3.301555
  0
VERTEX
  8
PLAN_1
  6
CONTINUOUS
 10
0.154138
 20
-3.296047
  0
VERTEX
  8
PLAN_1
  6
CONTINUOUS
 10
0.152441
 20
-3.290961
  0
VERTEX
  8
PLAN_1
  6
CONTINUOUS
 10
0.151169
 20
-3.285028
  0
VERTEX
  8
PLAN_1
  6
CONTINUOUS
 10
0.149902
 20
-3.279094
  0
VERTEX
  8
PLAN_1
  6
CONTINUOUS
 10
0.149051
 20
-3.272740
  0
VERTEX
  8
PLAN_1
  6
CONTINUOUS
 10
0.148630
 20
-3.266382
  0
VERTEX
  8
PLAN_1
  6
CONTINUOUS
 10
0.148205
 20
-3.259602
  0
VERTEX
  8
PLAN_1
  6
CONTINUOUS
 10
0.148205
 20
-3.252402
  0
VERTEX
  8
PLAN_1
  6
CONTINUOUS
 10
0.148630
 20
-3.241382
  0
VERTEX
  8
PLAN_1
  6
CONTINUOUS
 10
0.149476
 20
-3.230366
  0
VERTEX
  8
PLAN_1
  6
CONTINUOUS
 10
0.150748
 20
-3.225280
  0
VERTEX
  8
PLAN_1
  6
CONTINUOUS
 10
0.151594
 20
-3.220197
  0
VERTEX
  8
PLAN_1
  6
CONTINUOUS
 10
0.152866
 20
-3.215110
  0
VERTEX
  8
PLAN_1
  6
CONTINUOUS
 10
0.154563
 20
-3.210449
  0
VERTEX
  8
PLAN_1
  6
CONTINUOUS
 10
0.156256
 20
-3.205787
  0
VERTEX
  8
PLAN_1
  6
CONTINUOUS
 10
0.157953
 20
-3.201126
  0
VERTEX
  8
PLAN_1
  6
CONTINUOUS
 10
0.160071
 20
-3.196890
  0
VERTEX
  8
PLAN_1
  6
CONTINUOUS
 10
0.162189
 20
-3.192650
  0
VERTEX
  8
PLAN_1
  6
CONTINUOUS
 10
0.164732
 20
-3.188839
  0
VERTEX
  8
PLAN_1
  6
CONTINUOUS
 10
0.167276
 20
-3.185024
  0
VERTEX
  8
PLAN_1
  6
CONTINUOUS
 10
0.169815
 20
-3.181209
  0
VERTEX
  8
PLAN_1
  6
CONTINUOUS
 10
0.172783
 20
-3.177819
  0
VERTEX
  8
PLAN_1
  6
CONTINUOUS
 10
0.175748
 20
-3.174429
  0
VERTEX
  8
PLAN_1
  6
CONTINUOUS
 10
0.179138
 20
-3.171039
  0
VERTEX
  8
PLAN_1
  6
CONTINUOUS
 10
0.182528
 20
-3.168075
  0
VERTEX
  8
PLAN_1
  6
CONTINUOUS
 10
0.186343
 20
-3.165531
  0
VERTEX
  8
PLAN_1
  6
CONTINUOUS
 10
0.189732
 20
-3.162988
  0
VERTEX
  8
PLAN_1
  6
CONTINUOUS
 10
0.193969
 20
-3.160445
  0
VERTEX
  8
PLAN_1
  6
CONTINUOUS
 10
0.197783
 20
-3.158327
  0
VERTEX
  8
PLAN_1
  6
CONTINUOUS
 10
0.202020
 20
-3.156209
  0
VERTEX
  8
PLAN_1
  6
CONTINUOUS
 10
0.206260
 20
-3.154512
  0
VERTEX
  8
PLAN_1
  6
CONTINUOUS
 10
0.210921
 20
-3.153244
  0
VERTEX
  8
PLAN_1
  6
CONTINUOUS
 10
0.215583
 20
-3.151547
  0
VERTEX
  8
PLAN_1
  6
CONTINUOUS
 10
0.220244
 20
-3.150701
  0
VERTEX
  8
PLAN_1
  6
CONTINUOUS
 10
0.225327
 20
-3.149854
  0
VERTEX
  8
PLAN_1
  6
CONTINUOUS
 10
0.230413
 20
-3.149429
  0
VERTEX
  8
PLAN_1
  6
CONTINUOUS
 10
0.235496
 20
-3.149004
  0
VERTEX
  8
PLAN_1
  6
CONTINUOUS
 10
0.241008
 20
-3.148583
  0
VERTEX
  8
PLAN_1
  6
CONTINUOUS
 10
0.250331
 20
-3.149004
  0
VERTEX
  8
PLAN_1
  6
CONTINUOUS
 10
0.259228
 20
-3.150276
  0
VERTEX
  8
PLAN_1
  6
CONTINUOUS
 10
0.267280
 20
-3.151972
  0
VERTEX
  8
PLAN_1
  6
CONTINUOUS
 10
0.274906
 20
-3.154091
  0
VERTEX
  8
PLAN_1
  6
CONTINUOUS
 10
0.282110
 20
-3.157055
  0
VERTEX
  8
PLAN_1
  6
CONTINUOUS
 10
0.288465
 20
-3.160445
  0
VERTEX
  8
PLAN_1
  6
CONTINUOUS
 10
0.294398
 20
-3.164685
  0
VERTEX
  8
PLAN_1
  6
CONTINUOUS
 10
0.299909
 20
-3.168921
  0
VERTEX
  8
PLAN_1
  6
CONTINUOUS
 10
0.304567
 20
-3.173583
  0
VERTEX
  8
PLAN_1
  6
CONTINUOUS
 10
0.308807
 20
-3.178669
  0
VERTEX
  8
PLAN_1
  6
CONTINUOUS
 10
0.312618
 20
-3.184177
  0
VERTEX
  8
PLAN_1
  6
CONTINUOUS
 10
0.315587
 20
-3.189685
  0
VERTEX
  8
PLAN_1
  6
CONTINUOUS
 10
0.318130
 20
-3.195618
  0
VERTEX
  8
PLAN_1
  6
CONTINUOUS
 10
0.320248
 20
-3.201551
  0
VERTEX
  8
PLAN_1
  6
CONTINUOUS
 10
0.321941
 20
-3.207906
  0
VERTEX
  8
PLAN_1
  6
CONTINUOUS
 10
0.322791
 20
-3.213839
  0
VERTEX
  8
PLAN_1
  6
CONTINUOUS
 10
0.296941
 20
-3.213839
  0
SEQEND
  8
0
  0
POLYLINE
  8
PLAN_1
  6
CONTINUOUS
 66
     1
 40
0.003000
 41
0.003000
  0
VERTEX
  8
PLAN_1
  6
CONTINUOUS
 10
0.384232
 20
-3.353252
  0
VERTEX
  8
PLAN_1
  6
CONTINUOUS
 10
0.357539
 20
-3.353252
  0
VERTEX
  8
PLAN_1
  6
CONTINUOUS
 10
0.357539
 20
-3.154091
  0
VERTEX
  8
PLAN_1
  6
CONTINUOUS
 10
0.384232
 20
-3.154091
  0
VERTEX
  8
PLAN_1
  6
CONTINUOUS
 10
0.384232
 20
-3.250705
  0
VERTEX
  8
PLAN_1
  6
CONTINUOUS
 10
0.480850
 20
-3.154091
  0
VERTEX
  8
PLAN_1
  6
CONTINUOUS
 10
0.518138
 20
-3.154091
  0
VERTEX
  8
PLAN_1
  6
CONTINUOUS
 10
0.435083
 20
-3.234602
  0
VERTEX
  8
PLAN_1
  6
CONTINUOUS
 10
0.520256
 20
-3.353252
  0
VERTEX
  8
PLAN_1
  6
CONTINUOUS
 10
0.485512
 20
-3.353252
  0
VERTEX
  8
PLAN_1
  6
CONTINUOUS
 10
0.415591
 20
-3.253248
  0
VERTEX
  8
PLAN_1
  6
CONTINUOUS
 10
0.384232
 20
-3.283335
  0
VERTEX
  8
PLAN_1
  6
CONTINUOUS
 10
0.384232
 20
-3.353252
  0
SEQEND
  8
0
  0
POLYLINE
  8
PLAN_1
  6
CONTINUOUS
 66
     1
 40
0.003000
 41
0.003000
  0
VERTEX
  8
PLAN_1
  6
CONTINUOUS
 10
0.627465
 20
-3.353252
  0
VERTEX
  8
PLAN_1
  6
CONTINUOUS
 10
0.600772
 20
-3.353252
  0
VERTEX
  8
PLAN_1
  6
CONTINUOUS
 10
0.600772
 20
-3.273165
  0
VERTEX
  8
PLAN_1
  6
CONTINUOUS
 10
0.525343
 20
-3.154091
  0
VERTEX
  8
PLAN_1
  6
CONTINUOUS
 10
0.556701
 20
-3.154091
  0
VERTEX
  8
PLAN_1
  6
CONTINUOUS
 10
0.613906
 20
-3.249858
  0
VERTEX
  8
PLAN_1
  6
CONTINUOUS
 10
0.671114
 20
-3.154091
  0
VERTEX
  8
PLAN_1
  6
CONTINUOUS
 10
0.702894
 20
-3.154091
  0
VERTEX
  8
PLAN_1
  6
CONTINUOUS
 10
0.627465
 20
-3.273165
  0
VERTEX
  8
PLAN_1
  6
CONTINUOUS
 10
0.627465
 20
-3.353252
  0
SEQEND
  8
0
  0
POLYLINE
  8
PLAN_1
  6
CONTINUOUS
 66
     1
 40
0.003000
 41
0.003000
  0
VERTEX
  8
PLAN_1
  6
CONTINUOUS
 10
0.747811
 20
-3.239689
  0
VERTEX
  8
PLAN_1
  6
CONTINUOUS
 10
0.750776
 20
-3.237567
  0
VERTEX
  8
PLAN_1
  6
CONTINUOUS
 10
0.754591
 20
-3.235028
  0
VERTEX
  8
PLAN_1
  6
CONTINUOUS
 10
0.758831
 20
-3.232909
  0
VERTEX
  8
PLAN_1
  6
CONTINUOUS
 10
0.763067
 20
-3.231213
  0
VERTEX
  8
PLAN_1
  6
CONTINUOUS
 10
0.768150
 20
-3.229941
  0
VERTEX
  8
PLAN_1
  6
CONTINUOUS
 10
0.773236
 20
-3.228669
  0
VERTEX
  8
PLAN_1
  6
CONTINUOUS
 10
0.779169
 20
-3.227823
  0
VERTEX
  8
PLAN_1
  6
CONTINUOUS
 10
0.785524
 20
-3.227398
  0
VERTEX
  8
PLAN_1
  6
CONTINUOUS
 10
0.791457
 20
-3.227823
  0
VERTEX
  8
PLAN_1
  6
CONTINUOUS
 10
0.797390
 20
-3.228669
  0
VERTEX
  8
PLAN_1
  6
CONTINUOUS
 10
0.802898
 20
-3.229941
  0
VERTEX
  8
PLAN_1
  6
CONTINUOUS
 10
0.808831
 20
-3.231638
  0
VERTEX
  8
PLAN_1
  6
CONTINUOUS
 10
0.814339
 20
-3.233756
  0
VERTEX
  8
PLAN_1
  6
CONTINUOUS
 10
0.819425
 20
-3.236720
  0
VERTEX
  8
PLAN_1
  6
CONTINUOUS
 10
0.824512
 20
-3.240110
  0
VERTEX
  8
PLAN_1
  6
CONTINUOUS
 10
0.829169
 20
-3.243500
  0
VERTEX
  8
PLAN_1
  6
CONTINUOUS
 10
0.833831
 20
-3.247740
  0
VERTEX
  8
PLAN_1
  6
CONTINUOUS
 10
0.837646
 20
-3.252402
  0
VERTEX
  8
PLAN_1
  6
CONTINUOUS
 10
0.841035
 20
-3.257909
  0
VERTEX
  8
PLAN_1
  6
CONTINUOUS
 10
0.844004
 20
-3.263417
  0
VERTEX
  8
PLAN_1
  6
CONTINUOUS
 10
0.846122
 20
-3.269350
  0
VERTEX
  8
PLAN_1
  6
CONTINUOUS
 10
0.848240
 20
-3.275705
  0
VERTEX
  8
PLAN_1
  6
CONTINUOUS
 10
0.849087
 20
-3.282488
  0
VERTEX
  8
PLAN_1
  6
CONTINUOUS
 10
0.849512
 20
-3.290114
  0
VERTEX
  8
PLAN_1
  6
CONTINUOUS
 10
0.849512
 20
-3.294350
  0
VERTEX
  8
PLAN_1
  6
CONTINUOUS
 10
0.849087
 20
-3.299012
  0
VERTEX
  8
PLAN_1
  6
CONTINUOUS
 10
0.848240
 20
-3.304520
  0
VERTEX
  8
PLAN_1
  6
CONTINUOUS
 10
0.846969
 20
-3.310031
  0
VERTEX
  8
PLAN_1
  6
CONTINUOUS
 10
0.845276
 20
-3.315539
  0
VERTEX
  8
PLAN_1
  6
CONTINUOUS
 10
0.843154
 20
-3.321047
  0
VERTEX
  8
PLAN_1
  6
CONTINUOUS
 10
0.840614
 20
-3.326980
  0
VERTEX
  8
PLAN_1
  6
CONTINUOUS
 10
0.837224
 20
-3.332488
  0
VERTEX
  8
PLAN_1
  6
CONTINUOUS
 10
0.832984
 20
-3.337575
  0
VERTEX
  8
PLAN_1
  6
CONTINUOUS
 10
0.827902
 20
-3.342657
  0
VERTEX
  8
PLAN_1
  6
CONTINUOUS
 10
0.825358
 20
-3.344776
  0
VERTEX
  8
PLAN_1
  6
CONTINUOUS
 10
0.822390
 20
-3.346898
  0
VERTEX
  8
PLAN_1
  6
CONTINUOUS
 10
0.819000
 20
-3.349016
  0
VERTEX
  8
PLAN_1
  6
CONTINUOUS
 10
0.815610
 20
-3.350709
  0
VERTEX
  8
PLAN_1
  6
CONTINUOUS
 10
0.811799
 20
-3.352406
  0
VERTEX
  8
PLAN_1
  6
CONTINUOUS
 10
0.807984
 20
-3.354098
  0
VERTEX
  8
PLAN_1
  6
CONTINUOUS
 10
0.803748
 20
-3.355370
  0
VERTEX
  8
PLAN_1
  6
CONTINUOUS
 10
0.799508
 20
-3.356642
  0
VERTEX
  8
PLAN_1
  6
CONTINUOUS
 10
0.794425
 20
-3.357488
  0
VERTEX
  8
PLAN_1
  6
CONTINUOUS
 10
0.789764
 20
-3.357913
  0
VERTEX
  8
PLAN_1
  6
CONTINUOUS
 10
0.784252
 20
-3.358339
  0
VERTEX
  8
PLAN_1
  6
CONTINUOUS
 10
0.778744
 20
-3.358760
  0
VERTEX
  8
PLAN_1
  6
CONTINUOUS
 10
0.773661
 20
-3.358339
  0
VERTEX
  8
PLAN_1
  6
CONTINUOUS
 10
0.769000
 20
-3.357913
  0
VERTEX
  8
PLAN_1
  6
CONTINUOUS
 10
0.763913
 20
-3.357488
  0
VERTEX
  8
PLAN_1
  6
CONTINUOUS
 10
0.758831
 20
-3.356220
  0
VERTEX
  8
PLAN_1
  6
CONTINUOUS
 10
0.753744
 20
-3.354949
  0
VERTEX
  8
PLAN_1
  6
CONTINUOUS
 10
0.748657
 20
-3.352827
  0
VERTEX
  8
PLAN_1
  6
CONTINUOUS
 10
0.743996
 20
-3.350709
  0
VERTEX
  8
PLAN_1
  6
CONTINUOUS
 10
0.739335
 20
-3.348169
  0
VERTEX
  8
PLAN_1
  6
CONTINUOUS
 10
0.735098
 20
-3.344776
  0
VERTEX
  8
PLAN_1
  6
CONTINUOUS
 10
0.730862
 20
-3.340965
  0
VERTEX
  8
PLAN_1
  6
CONTINUOUS
 10
0.727472
 20
-3.336724
  0
VERTEX
  8
PLAN_1
  6
CONTINUOUS
 10
0.724083
 20
-3.331642
  0
VERTEX
  8
PLAN_1
  6
CONTINUOUS
 10
0.721114
 20
-3.325709
  0
VERTEX
  8
PLAN_1
  6
CONTINUOUS
 10
0.718571
 20
-3.319354
  0
VERTEX
  8
PLAN_1
  6
CONTINUOUS
 10
0.716878
 20
-3.312571
  0
VERTEX
  8
PLAN_1
  6
CONTINUOUS
 10
0.715606
 20
-3.304520
  0
VERTEX
  8
PLAN_1
  6
CONTINUOUS
 10
0.741031
 20
-3.304520
  0
VERTEX
  8
PLAN_1
  6
CONTINUOUS
 10
0.741457
 20
-3.308760
  0
VERTEX
  8
PLAN_1
  6
CONTINUOUS
 10
0.742724
 20
-3.312571
  0
VERTEX
  8
PLAN_1
  6
CONTINUOUS
 10
0.743996
 20
-3.316386
  0
VERTEX
  8
PLAN_1
  6
CONTINUOUS
 10
0.745268
 20
-3.319354
  0
VERTEX
  8
PLAN_1
  6
CONTINUOUS
 10
0.747386
 20
-3.322319
  0
VERTEX
  8
PLAN_1
  6
CONTINUOUS
 10
0.749508
 20
-3.325283
  0
VERTEX
  8
PLAN_1
  6
CONTINUOUS
 10
0.751626
 20
-3.327406
  0
VERTEX
  8
PLAN_1
  6
CONTINUOUS
 10
0.754169
 20
-3.329524
  0
VERTEX
  8
PLAN_1
  6
CONTINUOUS
 10
0.757134
 20
-3.331642
  0
VERTEX
  8
PLAN_1
  6
CONTINUOUS
 10
0.760098
 20
-3.333335
  0
VERTEX
  8
PLAN_1
  6
CONTINUOUS
 10
0.763488
 20
-3.334606
  0
VERTEX
  8
PLAN_1
  6
CONTINUOUS
 10
0.766882
 20
-3.335457
  0
VERTEX
  8
PLAN_1
  6
CONTINUOUS
 10
0.770693
 20
-3.336303
  0
VERTEX
  8
PLAN_1
  6
CONTINUOUS
 10
0.774508
 20
-3.337150
  0
VERTEX
  8
PLAN_1
  6
CONTINUOUS
 10
0.778323
 20
-3.337575
  0
VERTEX
  8
PLAN_1
  6
CONTINUOUS
 10
0.782134
 20
-3.337575
  0
VERTEX
  8
PLAN_1
  6
CONTINUOUS
 10
0.786795
 20
-3.337150
  0
VERTEX
  8
PLAN_1
  6
CONTINUOUS
 10
0.791457
 20
-3.336724
  0
VERTEX
  8
PLAN_1
  6
CONTINUOUS
 10
0.795697
 20
-3.335457
  0
VERTEX
  8
PLAN_1
  6
CONTINUOUS
 10
0.799508
 20
-3.333760
  0
VERTEX
  8
PLAN_1
  6
CONTINUOUS
 10
0.802898
 20
-3.332067
  0
VERTEX
  8
PLAN_1
  6
CONTINUOUS
 10
0.806287
 20
-3.329945
  0
VERTEX
  8
PLAN_1
  6
CONTINUOUS
 10
0.809677
 20
-3.327406
  0
VERTEX
  8
PLAN_1
  6
CONTINUOUS
 10
0.812220
 20
-3.324437
  0
VERTEX
  8
PLAN_1
  6
CONTINUOUS
 10
0.814764
 20
-3.321047
  0
VERTEX
  8
PLAN_1
  6
CONTINUOUS
 10
0.816882
 20
-3.317657
  0
VERTEX
  8
PLAN_1
  6
CONTINUOUS
 10
0.819000
 20
-3.313843
  0
VERTEX
  8
PLAN_1
  6
CONTINUOUS
 10
0.820697
 20
-3.310031
  0
VERTEX
  8
PLAN_1
  6
CONTINUOUS
 10
0.821969
 20
-3.305791
  0
VERTEX
  8
PLAN_1
  6
CONTINUOUS
 10
0.822815
 20
-3.301555
  0
VERTEX
  8
PLAN_1
  6
CONTINUOUS
 10
0.823240
 20
-3.297319
  0
VERTEX
  8
PLAN_1
  6
CONTINUOUS
 10
0.823240
 20
-3.292657
  0
VERTEX
  8
PLAN_1
  6
CONTINUOUS
 10
0.823240
 20
-3.287571
  0
VERTEX
  8
PLAN_1
  6
CONTINUOUS
 10
0.822390
 20
-3.282909
  0
VERTEX
  8
PLAN_1
  6
CONTINUOUS
 10
0.821543
 20
-3.278248
  0
VERTEX
  8
PLAN_1
  6
CONTINUOUS
 10
0.819850
 20
-3.274012
  0
VERTEX
  8
PLAN_1
  6
CONTINUOUS
 10
0.818154
 20
-3.270197
  0
VERTEX
  8
PLAN_1
  6
CONTINUOUS
 10
0.816035
 20
-3.266807
  0
VERTEX
  8
PLAN_1
  6
CONTINUOUS
 10
0.813492
 20
-3.263417
  0
VERTEX
  8
PLAN_1
  6
CONTINUOUS
 10
0.810949
 20
-3.260453
  0
VERTEX
  8
PLAN_1
  6
CONTINUOUS
 10
0.807559
 20
-3.257909
  0
VERTEX
  8
PLAN_1
  6
CONTINUOUS
 10
0.804594
 20
-3.255791
  0
VERTEX
  8
PLAN_1
  6
CONTINUOUS
 10
0.800780
 20
-3.254094
  0
VERTEX
  8
PLAN_1
  6
CONTINUOUS
 10
0.796965
 20
-3.252402
  0
VERTEX
  8
PLAN_1
  6
CONTINUOUS
 10
0.793154
 20
-3.251130
  0
VERTEX
  8
PLAN_1
  6
CONTINUOUS
 10
0.788913
 20
-3.250280
  0
VERTEX
  8
PLAN_1
  6
CONTINUOUS
 10
0.784677
 20
-3.249858
  0
VERTEX
  8
PLAN_1
  6
CONTINUOUS
 10
0.780016
 20
-3.249433
  0
VERTEX
  8
PLAN_1
  6
CONTINUOUS
 10
0.774933
 20
-3.249858
  0
VERTEX
  8
PLAN_1
  6
CONTINUOUS
 10
0.769846
 20
-3.250705
  0
VERTEX
  8
PLAN_1
  6
CONTINUOUS
 10
0.764760
 20
-3.252402
  0
VERTEX
  8
PLAN_1
  6
CONTINUOUS
 10
0.760098
 20
-3.254520
  0
VERTEX
  8
PLAN_1
  6
CONTINUOUS
 10
0.755862
 20
-3.257063
  0
VERTEX
  8
PLAN_1
  6
CONTINUOUS
 10
0.751626
 20
-3.260028
  0
VERTEX
  8
PLAN_1
  6
CONTINUOUS
 10
0.747811
 20
-3.263843
  0
VERTEX
  8
PLAN_1
  6
CONTINUOUS
 10
0.743996
 20
-3.268079
  0
VERTEX
  8
PLAN_1
  6
CONTINUOUS
 10
0.722811
 20
-3.266807
  0
VERTEX
  8
PLAN_1
  6
CONTINUOUS
 10
0.737642
 20
-3.162142
  0
VERTEX
  8
PLAN_1
  6
CONTINUOUS
 10
0.838492
 20
-3.162142
  0
VERTEX
  8
PLAN_1
  6
CONTINUOUS
 10
0.838492
 20
-3.186295
  0
VERTEX
  8
PLAN_1
  6
CONTINUOUS
 10
0.755862
 20
-3.186295
  0
VERTEX
  8
PLAN_1
  6
CONTINUOUS
 10
0.747811
 20
-3.239689
  0
SEQEND
  8
0
  0
POLYLINE
  8
PLAN_1
  6
CONTINUOUS
 66
     1
 40
0.003000
 41
0.003000
  0
VERTEX
  8
PLAN_1
  6
CONTINUOUS
 10
0.923244
 20
-3.242228
  0
VERTEX
  8
PLAN_1
  6
CONTINUOUS
 10
0.924937
 20
-3.242228
  0
VERTEX
  8
PLAN_1
  6
CONTINUOUS
 10
0.926634
 20
-3.242654
  0
VERTEX
  8
PLAN_1
  6
CONTINUOUS
 10
0.928331
 20
-3.242654
  0
VERTEX
  8
PLAN_1
  6
CONTINUOUS
 10
0.929598
 20
-3.242654
  0
VERTEX
  8
PLAN_1
  6
CONTINUOUS
 10
0.931295
 20
-3.242654
  0
VERTEX
  8
PLAN_1
  6
CONTINUOUS
 10
0.932988
 20
-3.242654
  0
VERTEX
  8
PLAN_1
  6
CONTINUOUS
 10
0.934685
 20
-3.242654
  0
VERTEX
  8
PLAN_1
  6
CONTINUOUS
 10
0.936382
 20
-3.242654
  0
VERTEX
  8
PLAN_1
  6
CONTINUOUS
 10
0.943161
 20
-3.242654
  0
VERTEX
  8
PLAN_1
  6
CONTINUOUS
 10
0.949941
 20
-3.241382
  0
VERTEX
  8
PLAN_1
  6
CONTINUOUS
 10
0.953331
 20
-3.240535
  0
VERTEX
  8
PLAN_1
  6
CONTINUOUS
 10
0.956295
 20
-3.239264
  0
VERTEX
  8
PLAN_1
  6
CONTINUOUS
 10
0.959264
 20
-3.237567
  0
VERTEX
  8
PLAN_1
  6
CONTINUOUS
 10
0.961803
 20
-3.235874
  0
VERTEX
  8
PLAN_1
  6
CONTINUOUS
 10
0.964346
 20
-3.234177
  0
VERTEX
  8
PLAN_1
  6
CONTINUOUS
 10
0.966465
 20
-3.231638
  0
VERTEX
  8
PLAN_1
  6
CONTINUOUS
 10
0.968587
 20
-3.229094
  0
VERTEX
  8
PLAN_1
  6
CONTINUOUS
 10
0.970280
 20
-3.226126
  0
VERTEX
  8
PLAN_1
  6
CONTINUOUS
 10
0.971551
 20
-3.222736
  0
VERTEX
  8
PLAN_1
  6
CONTINUOUS
 10
0.972398
 20
-3.219346
  0
VERTEX
  8
PLAN_1
  6
CONTINUOUS
 10
0.973248
 20
-3.215110
  0
VERTEX
  8
PLAN_1
  6
CONTINUOUS
 10
0.973248
 20
-3.210874
  0
VERTEX
  8
PLAN_1
  6
CONTINUOUS
 10
0.972823
 20
-3.206213
  0
VERTEX
  8
PLAN_1
  6
CONTINUOUS
 10
0.971976
 20
-3.201126
  0
VERTEX
  8
PLAN_1
  6
CONTINUOUS
 10
0.970705
 20
-3.198583
  0
VERTEX
  8
PLAN_1
  6
CONTINUOUS
 10
0.969433
 20
-3.196039
  0
VERTEX
  8
PLAN_1
  6
CONTINUOUS
 10
0.968161
 20
-3.193500
  0
VERTEX
  8
PLAN_1
  6
CONTINUOUS
 10
0.966465
 20
-3.190957
  0
VERTEX
  8
PLAN_1
  6
CONTINUOUS
 10
0.963925
 20
-3.188839
  0
VERTEX
  8
PLAN_1
  6
CONTINUOUS
 10
0.961382
 20
-3.186720
  0
VERTEX
  8
PLAN_1
  6
CONTINUOUS
 10
0.958413
 20
-3.185024
  0
VERTEX
  8
PLAN_1
  6
CONTINUOUS
 10
0.955024
 20
-3.183327
  0
VERTEX
  8
PLAN_1
  6
CONTINUOUS
 10
0.951634
 20
-3.182059
  0
VERTEX
  8
PLAN_1
  6
CONTINUOUS
 10
0.947398
 20
-3.180787
  0
VERTEX
  8
PLAN_1
  6
CONTINUOUS
 10
0.942311
 20
-3.180362
  0
VERTEX
  8
PLAN_1
  6
CONTINUOUS
 10
0.937228
 20
-3.179937
  0
VERTEX
  8
PLAN_1
  6
CONTINUOUS
 10
0.931295
 20
-3.180362
  0
VERTEX
  8
PLAN_1
  6
CONTINUOUS
 10
0.925787
 20
-3.181209
  0
VERTEX
  8
PLAN_1
  6
CONTINUOUS
 10
0.921126
 20
-3.182906
  0
VERTEX
  8
PLAN_1
  6
CONTINUOUS
 10
0.916886
 20
-3.184598
  0
VERTEX
  8
PLAN_1
  6
CONTINUOUS
 10
0.913496
 20
-3.187142
  0
VERTEX
  8
PLAN_1
  6
CONTINUOUS
 10
0.910106
 20
-3.189685
  0
VERTEX
  8
PLAN_1
  6
CONTINUOUS
 10
0.907567
 20
-3.192650
  0
VERTEX
  8
PLAN_1
  6
CONTINUOUS
 10
0.905870
 20
-3.196039
  0
VERTEX
  8
PLAN_1
  6
CONTINUOUS
 10
0.904173
 20
-3.199433
  0
VERTEX
  8
PLAN_1
  6
CONTINUOUS
 10
0.902480
 20
-3.202823
  0
VERTEX
  8
PLAN_1
  6
CONTINUOUS
 10
0.901634
 20
-3.206213
  0
VERTEX
  8
PLAN_1
  6
CONTINUOUS
 10
0.900783
 20
-3.209602
  0
VERTEX
  8
PLAN_1
  6
CONTINUOUS
 10
0.899937
 20
-3.216382
  0
VERTEX
  8
PLAN_1
  6
CONTINUOUS
 10
0.899091
 20
-3.221890
  0
VERTEX
  8
PLAN_1
  6
CONTINUOUS
 10
0.875358
 20
-3.221890
  0
VERTEX
  8
PLAN_1
  6
CONTINUOUS
 10
0.875358
 20
-3.216382
  0
VERTEX
  8
PLAN_1
  6
CONTINUOUS
 10
0.876209
 20
-3.210874
  0
VERTEX
  8
PLAN_1
  6
CONTINUOUS
 10
0.876630
 20
-3.205362
  0
VERTEX
  8
PLAN_1
  6
CONTINUOUS
 10
0.877902
 20
-3.199854
  0
VERTEX
  8
PLAN_1
  6
CONTINUOUS
 10
0.879598
 20
-3.194346
  0
VERTEX
  8
PLAN_1
  6
CONTINUOUS
 10
0.881717
 20
-3.189260
  0
VERTEX
  8
PLAN_1
  6
CONTINUOUS
 10
0.884260
 20
-3.184177
  0
VERTEX
  8
PLAN_1
  6
CONTINUOUS
 10
0.887650
 20
-3.179516
  0
VERTEX
  8
PLAN_1
  6
CONTINUOUS
 10
0.891461
 20
-3.174854
  0
VERTEX
  8
PLAN_1
  6
CONTINUOUS
 10
0.895701
 20
-3.171039
  0
VERTEX
  8
PLAN_1
  6
CONTINUOUS
 10
0.901209
 20
-3.167224
  0
VERTEX
  8
PLAN_1
  6
CONTINUOUS
 10
0.906717
 20
-3.164260
  0
VERTEX
  8
PLAN_1
  6
CONTINUOUS
 10
0.910106
 20
-3.162988
  0
VERTEX
  8
PLAN_1
  6
CONTINUOUS
 10
0.913496
 20
-3.161717
  0
VERTEX
  8
PLAN_1
  6
CONTINUOUS
 10
0.917311
 20
-3.160445
  0
VERTEX
  8
PLAN_1
  6
CONTINUOUS
 10
0.921126
 20
-3.159598
  0
VERTEX
  8
PLAN_1
  6
CONTINUOUS
 10
0.929177
 20
-3.158752
  0
VERTEX
  8
PLAN_1
  6
CONTINUOUS
 10
0.938500
 20
-3.158327
  0
VERTEX
  8
PLAN_1
  6
CONTINUOUS
 10
0.945280
 20
-3.158327
  0
VERTEX
  8
PLAN_1
  6
CONTINUOUS
 10
0.951634
 20
-3.159173
  0
VERTEX
  8
PLAN_1
  6
CONTINUOUS
 10
0.957992
 20
-3.160445
  0
VERTEX
  8
PLAN_1
  6
CONTINUOUS
 10
0.963925
 20
-3.162142
  0
VERTEX
  8
PLAN_1
  6
CONTINUOUS
 10
0.969008
 20
-3.164260
  0
VERTEX
  8
PLAN_1
  6
CONTINUOUS
 10
0.974094
 20
-3.166378
  0
VERTEX
  8
PLAN_1
  6
CONTINUOUS
 10
0.978756
 20
-3.169346
  0
VERTEX
  8
PLAN_1
  6
CONTINUOUS
 10
0.982567
 20
-3.172736
  0
VERTEX
  8
PLAN_1
  6
CONTINUOUS
 10
0.986382
 20
-3.176126
  0
VERTEX
  8
PLAN_1
  6
CONTINUOUS
 10
0.989350
 20
-3.180362
  0
VERTEX
  8
PLAN_1
  6
CONTINUOUS
 10
0.992315
 20
-3.184598
  0
VERTEX
  8
PLAN_1
  6
CONTINUOUS
 10
0.994433
 20
-3.188839
  0
VERTEX
  8
PLAN_1
  6
CONTINUOUS
 10
0.996130
 20
-3.193921
  0
VERTEX
  8
PLAN_1
  6
CONTINUOUS
 10
0.997402
 20
-3.198583
  0
VERTEX
  8
PLAN_1
  6
CONTINUOUS
 10
0.998248
 20
-3.204091
  0
VERTEX
  8
PLAN_1
  6
CONTINUOUS
 10
0.998669
 20
-3.209602
  0
VERTEX
  8
PLAN_1
  6
CONTINUOUS
 10
0.998669
 20
-3.214264
  0
VERTEX
  8
PLAN_1
  6
CONTINUOUS
 10
0.997823
 20
-3.218075
  0
VERTEX
  8
PLAN_1
  6
CONTINUOUS
 10
0.997402
 20
-3.222315
  0
VERTEX
  8
PLAN_1
  6
CONTINUOUS
 10
0.996130
 20
-3.225705
  0
VERTEX
  8
PLAN_1
  6
CONTINUOUS
 10
0.994858
 20
-3.229094
  0
VERTEX
  8
PLAN_1
  6
CONTINUOUS
 10
0.993587
 20
-3.232484
  0
VERTEX
  8
PLAN_1
  6
CONTINUOUS
 10
0.991890
 20
-3.235028
  0
VERTEX
  8
PLAN_1
  6
CONTINUOUS
 10
0.990197
 20
-3.237567
  0
VERTEX
  8
PLAN_1
  6
CONTINUOUS
 10
0.988079
 20
-3.240110
  0
VERTEX
  8
PLAN_1
  6
CONTINUOUS
 10
0.986382
 20
-3.242228
  0
VERTEX
  8
PLAN_1
  6
CONTINUOUS
 10
0.984264
 20
-3.243925
  0
VERTEX
  8
PLAN_1
  6
CONTINUOUS
 10
0.982146
 20
-3.245618
  0
VERTEX
  8
PLAN_1
  6
CONTINUOUS
 10
0.977909
 20
-3.248161
  0
VERTEX
  8
PLAN_1
  6
CONTINUOUS
 10
0.973669
 20
-3.249858
  0
VERTEX
  8
PLAN_1
  6
CONTINUOUS
 10
0.973669
 20
-3.250280
  0
VERTEX
  8
PLAN_1
  6
CONTINUOUS
 10
0.977059
 20
-3.251551
  0
VERTEX
  8
PLAN_1
  6
CONTINUOUS
 10
0.980449
 20
-3.252823
  0
VERTEX
  8
PLAN_1
  6
CONTINUOUS
 10
0.983839
 20
-3.254520
  0
VERTEX
  8
PLAN_1
  6
CONTINUOUS
 10
0.986807
 20
-3.256213
  0
VERTEX
  8
PLAN_1
  6
CONTINUOUS
 10
0.989350
 20
-3.258331
  0
VERTEX
  8
PLAN_1
  6
CONTINUOUS
 10
0.992315
 20
-3.260453
  0
VERTEX
  8
PLAN_1
  6
CONTINUOUS
 10
0.994858
 20
-3.262992
  0
VERTEX
  8
PLAN_1
  6
CONTINUOUS
 10
0.996976
 20
-3.265535
  0
VERTEX
  8
PLAN_1
  6
CONTINUOUS
 10
0.999094
 20
-3.268504
  0
VERTEX
  8
PLAN_1
  6
CONTINUOUS
 10
1.000791
 20
-3.271469
  0
VERTEX
  8
PLAN_1
  6
CONTINUOUS
 10
1.002484
 20
-3.274858
  0
VERTEX
  8
PLAN_1
  6
CONTINUOUS
 10
1.003756
 20
-3.278673
  0
VERTEX
  8
PLAN_1
  6
CONTINUOUS
 10
1.004602
 20
-3.282488
  0
VERTEX
  8
PLAN_1
  6
CONTINUOUS
 10
1.005453
 20
-3.286724
  0
VERTEX
  8
PLAN_1
  6
CONTINUOUS
 10
1.005874
 20
-3.290961
  0
VERTEX
  8
PLAN_1
  6
CONTINUOUS
 10
1.006299
 20
-3.296047
  0
VERTEX
  8
PLAN_1
  6
CONTINUOUS
 10
1.005874
 20
-3.301980
  0
VERTEX
  8
PLAN_1
  6
CONTINUOUS
 10
1.005028
 20
-3.307909
  0
VERTEX
  8
PLAN_1
  6
CONTINUOUS
 10
1.003756
 20
-3.313421
  0
VERTEX
  8
PLAN_1
  6
CONTINUOUS
 10
1.002063
 20
-3.318929
  0
VERTEX
  8
PLAN_1
  6
CONTINUOUS
 10
0.999941
 20
-3.324437
  0
VERTEX
  8
PLAN_1
  6
CONTINUOUS
 10
0.996976
 20
-3.329524
  0
VERTEX
  8
PLAN_1
  6
CONTINUOUS
 10
0.993587
 20
-3.334606
  0
VERTEX
  8
PLAN_1
  6
CONTINUOUS
 10
0.989772
 20
-3.339268
  0
VERTEX
  8
PLAN_1
  6
CONTINUOUS
 10
0.985110
 20
-3.343508
  0
VERTEX
  8
PLAN_1
  6
CONTINUOUS
 10
0.980028
 20
-3.347319
  0
VERTEX
  8
PLAN_1
  6
CONTINUOUS
 10
0.974094
 20
-3.350287
  0
VERTEX
  8
PLAN_1
  6
CONTINUOUS
 10
0.967736
 20
-3.353252
  0
VERTEX
  8
PLAN_1
  6
CONTINUOUS
 10
0.960957
 20
-3.355370
  0
VERTEX
  8
PLAN_1
  6
CONTINUOUS
 10
0.953331
 20
-3.357067
  0
VERTEX
  8
PLAN_1
  6
CONTINUOUS
 10
0.944854
 20
-3.358339
  0
VERTEX
  8
PLAN_1
  6
CONTINUOUS
 10
0.935957
 20
-3.358760
  0
VERTEX
  8
PLAN_1
  6
CONTINUOUS
 10
0.930449
 20
-3.358339
  0
VERTEX
  8
PLAN_1
  6
CONTINUOUS
 10
0.925362
 20
-3.357913
  0
VERTEX
  8
PLAN_1
  6
CONTINUOUS
 10
0.920701
 20
-3.357067
  0
VERTEX
  8
PLAN_1
  6
CONTINUOUS
 10
0.916039
 20
-3.356220
  0
VERTEX
  8
PLAN_1
  6
CONTINUOUS
 10
0.911378
 20
-3.354949
  0
VERTEX
  8
PLAN_1
  6
CONTINUOUS
 10
0.907567
 20
-3.353252
  0
VERTEX
  8
PLAN_1
  6
CONTINUOUS
 10
0.903327
 20
-3.351980
  0
VERTEX
  8
PLAN_1
  6
CONTINUOUS
 10
0.899937
 20
-3.349862
  0
VERTEX
  8
PLAN_1
  6
CONTINUOUS
 10
0.896122
 20
-3.347744
  0
VERTEX
  8
PLAN_1
  6
CONTINUOUS
 10
0.892311
 20
-3.345201
  0
VERTEX
  8
PLAN_1
  6
CONTINUOUS
 10
0.889343
 20
-3.342657
  0
VERTEX
  8
PLAN_1
  6
CONTINUOUS
 10
0.886378
 20
-3.339693
  0
VERTEX
  8
PLAN_1
  6
CONTINUOUS
 10
0.883835
 20
-3.336303
  0
VERTEX
  8
PLAN_1
  6
CONTINUOUS
 10
0.881717
 20
-3.332913
  0
VERTEX
  8
PLAN_1
  6
CONTINUOUS
 10
0.879598
 20
-3.329524
  0
VERTEX
  8
PLAN_1
  6
CONTINUOUS
 10
0.877902
 20
-3.326134
  0
VERTEX
  8
PLAN_1
  6
CONTINUOUS
 10
0.876209
 20
-3.322319
  0
VERTEX
  8
PLAN_1
  6
CONTINUOUS
 10
0.874937
 20
-3.318504
  0
VERTEX
  8
PLAN_1
  6
CONTINUOUS
 10
0.873665
 20
-3.314268
  0
VERTEX
  8
PLAN_1
  6
CONTINUOUS
 10
0.872819
 20
-3.310453
  0
VERTEX
  8
PLAN_1
  6
CONTINUOUS
 10
0.871547
 20
-3.301980
  0
VERTEX
  8
PLAN_1
  6
CONTINUOUS
 10
0.870697
 20
-3.293504
  0
VERTEX
  8
PLAN_1
  6
CONTINUOUS
 10
0.896122
 20
-3.293504
  0
VERTEX
  8
PLAN_1
  6
CONTINUOUS
 10
0.896547
 20
-3.300709
  0
VERTEX
  8
PLAN_1
  6
CONTINUOUS
 10
0.897819
 20
-3.307909
  0
VERTEX
  8
PLAN_1
  6
CONTINUOUS
 10
0.898665
 20
-3.311724
  0
VERTEX
  8
PLAN_1
  6
CONTINUOUS
 10
0.899937
 20
-3.315114
  0
VERTEX
  8
PLAN_1
  6
CONTINUOUS
 10
0.901634
 20
-3.318929
  0
VERTEX
  8
PLAN_1
  6
CONTINUOUS
 10
0.903327
 20
-3.321894
  0
VERTEX
  8
PLAN_1
  6
CONTINUOUS
 10
0.905870
 20
-3.324862
  0
VERTEX
  8
PLAN_1
  6
CONTINUOUS
 10
0.908835
 20
-3.327827
  0
VERTEX
  8
PLAN_1
  6
CONTINUOUS
 10
0.911803
 20
-3.330370
  0
VERTEX
  8
PLAN_1
  6
CONTINUOUS
 10
0.916039
 20
-3.332488
  0
VERTEX
  8
PLAN_1
  6
CONTINUOUS
 10
0.920276
 20
-3.334185
  0
VERTEX
  8
PLAN_1
  6
CONTINUOUS
 10
0.925362
 20
-3.335457
  0
VERTEX
  8
PLAN_1
  6
CONTINUOUS
 10
0.931295
 20
-3.336303
  0
VERTEX
  8
PLAN_1
  6
CONTINUOUS
 10
0.937650
 20
-3.336724
  0
VERTEX
  8
PLAN_1
  6
CONTINUOUS
 10
0.942311
 20
-3.336303
  0
VERTEX
  8
PLAN_1
  6
CONTINUOUS
 10
0.946551
 20
-3.335878
  0
VERTEX
  8
PLAN_1
  6
CONTINUOUS
 10
0.950787
 20
-3.335031
  0
VERTEX
  8
PLAN_1
  6
CONTINUOUS
 10
0.954602
 20
-3.333760
  0
VERTEX
  8
PLAN_1
  6
CONTINUOUS
 10
0.958413
 20
-3.332488
  0
VERTEX
  8
PLAN_1
  6
CONTINUOUS
 10
0.961803
 20
-3.330795
  0
VERTEX
  8
PLAN_1
  6
CONTINUOUS
 10
0.965197
 20
-3.328673
  0
VERTEX
  8
PLAN_1
  6
CONTINUOUS
 10
0.968161
 20
-3.326134
  0
VERTEX
  8
PLAN_1
  6
CONTINUOUS
 10
0.970705
 20
-3.323591
  0
VERTEX
  8
PLAN_1
  6
CONTINUOUS
 10
0.973248
 20
-3.320622
  0
VERTEX
  8
PLAN_1
  6
CONTINUOUS
 10
0.975366
 20
-3.317657
  0
VERTEX
  8
PLAN_1
  6
CONTINUOUS
 10
0.977059
 20
-3.314268
  0
VERTEX
  8
PLAN_1
  6
CONTINUOUS
 10
0.978331
 20
-3.310878
  0
VERTEX
  8
PLAN_1
  6
CONTINUOUS
 10
0.979177
 20
-3.307063
  0
VERTEX
  8
PLAN_1
  6
CONTINUOUS
 10
0.980028
 20
-3.302827
  0
VERTEX
  8
PLAN_1
  6
CONTINUOUS
 10
0.980028
 20
-3.299012
  0
VERTEX
  8
PLAN_1
  6
CONTINUOUS
 10
0.979602
 20
-3.293079
  0
VERTEX
  8
PLAN_1
  6
CONTINUOUS
 10
0.978756
 20
-3.287996
  0
VERTEX
  8
PLAN_1
  6
CONTINUOUS
 10
0.977059
 20
-3.283335
  0
VERTEX
  8
PLAN_1
  6
CONTINUOUS
 10
0.975366
 20
-3.279520
  0
VERTEX
  8
PLAN_1
  6
CONTINUOUS
 10
0.972823
 20
-3.276130
  0
VERTEX
  8
PLAN_1
  6
CONTINUOUS
 10
0.969854
 20
-3.273165
  0
VERTEX
  8
PLAN_1
  6
CONTINUOUS
 10
0.966890
 20
-3.270622
  0
VERTEX
  8
PLAN_1
  6
CONTINUOUS
 10
0.963500
 20
-3.268504
  0
VERTEX
  8
PLAN_1
  6
CONTINUOUS
 10
0.960110
 20
-3.267232
  0
VERTEX
  8
PLAN_1
  6
CONTINUOUS
 10
0.956295
 20
-3.265961
  0
VERTEX
  8
PLAN_1
  6
CONTINUOUS
 10
0.952484
 20
-3.264689
  0
VERTEX
  8
PLAN_1
  6
CONTINUOUS
 10
0.948669
 20
-3.264264
  0
VERTEX
  8
PLAN_1
  6
CONTINUOUS
 10
0.941039
 20
-3.263417
  0
VERTEX
  8
PLAN_1
  6
CONTINUOUS
 10
0.934685
 20
-3.262992
  0
VERTEX
  8
PLAN_1
  6
CONTINUOUS
 10
0.932988
 20
-3.262992
  0
VERTEX
  8
PLAN_1
  6
CONTINUOUS
 10
0.931720
 20
-3.262992
  0
VERTEX
  8
PLAN_1
  6
CONTINUOUS
 10
0.930449
 20
-3.262992
  0
VERTEX
  8
PLAN_1
  6
CONTINUOUS
 10
0.928752
 20
-3.263417
  0
VERTEX
  8
PLAN_1
  6
CONTINUOUS
 10
0.927480
 20
-3.263417
  0
VERTEX
  8
PLAN_1
  6
CONTINUOUS
 10
0.926209
 20
-3.263417
  0
VERTEX
  8
PLAN_1
  6
CONTINUOUS
 10
0.924937
 20
-3.263417
  0
VERTEX
  8
PLAN_1
  6
CONTINUOUS
 10
0.923244
 20
-3.263417
  0
VERTEX
  8
PLAN_1
  6
CONTINUOUS
 10
0.923244
 20
-3.242228
  0
SEQEND
  8
0
  0
SOLID
  8
PLAN_1
 10
1.015622
 20
-3.388000
 11
1.015622
 21
-3.374016
 12
1.169866
 22
-3.388000
 13
1.169866
 23
-3.374016
  0
POLYLINE
  8
PLAN_1
  6
CONTINUOUS
 66
     1
 40
0.003000
 41
0.003000
  0
VERTEX
  8
PLAN_1
  6
CONTINUOUS
 10
1.015622
 20
-3.388000
  0
VERTEX
  8
PLAN_1
  6
CONTINUOUS
 10
1.015622
 20
-3.374016
  0
VERTEX
  8
PLAN_1
  6
CONTINUOUS
 10
1.169866
 20
-3.374016
  0
VERTEX
  8
PLAN_1
  6
CONTINUOUS
 10
1.169866
 20
-3.388000
  0
VERTEX
  8
PLAN_1
  6
CONTINUOUS
 10
1.015622
 20
-3.388000
  0
SEQEND
  8
0
  0
POLYLINE
  8
PLAN_1
  6
CONTINUOUS
 66
     1
 40
0.003000
 41
0.003000
  0
VERTEX
  8
PLAN_1
  6
CONTINUOUS
 10
1.220717
 20
-3.353252
  0
VERTEX
  8
PLAN_1
  6
CONTINUOUS
 10
1.194020
 20
-3.353252
  0
VERTEX
  8
PLAN_1
  6
CONTINUOUS
 10
1.194020
 20
-3.154091
  0
VERTEX
  8
PLAN_1
  6
CONTINUOUS
 10
1.331740
 20
-3.154091
  0
VERTEX
  8
PLAN_1
  6
CONTINUOUS
 10
1.331740
 20
-3.177819
  0
VERTEX
  8
PLAN_1
  6
CONTINUOUS
 10
1.220717
 20
-3.177819
  0
VERTEX
  8
PLAN_1
  6
CONTINUOUS
 10
1.220717
 20
-3.238839
  0
VERTEX
  8
PLAN_1
  6
CONTINUOUS
 10
1.318602
 20
-3.238839
  0
VERTEX
  8
PLAN_1
  6
CONTINUOUS
 10
1.318602
 20
-3.262992
  0
VERTEX
  8
PLAN_1
  6
CONTINUOUS
 10
1.220717
 20
-3.262992
  0
VERTEX
  8
PLAN_1
  6
CONTINUOUS
 10
1.220717
 20
-3.353252
  0
SEQEND
  8
0
  0
SOLID
  8
PLAN_1
 10
1.351232
 20
-3.353252
 11
1.321992
 21
-3.353252
 12
1.351232
 22
-3.324012
 13
1.321992
 23
-3.324012
  0
POLYLINE
  8
PLAN_1
  6
CONTINUOUS
 66
     1
 40
0.003000
 41
0.003000
  0
VERTEX
  8
PLAN_1
  6
CONTINUOUS
 10
1.351232
 20
-3.353252
  0
VERTEX
  8
PLAN_1
  6
CONTINUOUS
 10
1.321992
 20
-3.353252
  0
VERTEX
  8
PLAN_1
  6
CONTINUOUS
 10
1.321992
 20
-3.324012
  0
VERTEX
  8
PLAN_1
  6
CONTINUOUS
 10
1.351232
 20
-3.324012
  0
VERTEX
  8
PLAN_1
  6
CONTINUOUS
 10
1.351232
 20
-3.353252
  0
SEQEND
  8
0
  0
POLYLINE
  8
PLAN_1
  6
CONTINUOUS
 66
     1
 40
0.003000
 41
0.003000
  0
VERTEX
  8
PLAN_1
  6
CONTINUOUS
 10
1.546157
 20
-3.353252
  0
VERTEX
  8
PLAN_1
  6
CONTINUOUS
 10
1.399114
 20
-3.353252
  0
VERTEX
  8
PLAN_1
  6
CONTINUOUS
 10
1.399114
 20
-3.154091
  0
VERTEX
  8
PLAN_1
  6
CONTINUOUS
 10
1.544039
 20
-3.154091
  0
VERTEX
  8
PLAN_1
  6
CONTINUOUS
 10
1.544039
 20
-3.177819
  0
VERTEX
  8
PLAN_1
  6
CONTINUOUS
 10
1.425811
 20
-3.177819
  0
VERTEX
  8
PLAN_1
  6
CONTINUOUS
 10
1.425811
 20
-3.238839
  0
VERTEX
  8
PLAN_1
  6
CONTINUOUS
 10
1.535138
 20
-3.238839
  0
VERTEX
  8
PLAN_1
  6
CONTINUOUS
 10
1.535138
 20
-3.262992
  0
VERTEX
  8
PLAN_1
  6
CONTINUOUS
 10
1.425811
 20
-3.262992
  0
VERTEX
  8
PLAN_1
  6
CONTINUOUS
 10
1.425811
 20
-3.329524
  0
VERTEX
  8
PLAN_1
  6
CONTINUOUS
 10
1.546157
 20
-3.329524
  0
VERTEX
  8
PLAN_1
  6
CONTINUOUS
 10
1.546157
 20
-3.353252
  0
SEQEND
  8
0
  0
POLYLINE
  8
PLAN_1
  6
CONTINUOUS
 66
     1
 40
0.003000
 41
0.003000
  0
VERTEX
  8
PLAN_1
  6
CONTINUOUS
 10
1.611413
 20
-3.353252
  0
VERTEX
  8
PLAN_1
  6
CONTINUOUS
 10
1.584295
 20
-3.353252
  0
VERTEX
  8
PLAN_1
  6
CONTINUOUS
 10
1.584295
 20
-3.154091
  0
VERTEX
  8
PLAN_1
  6
CONTINUOUS
 10
1.674130
 20
-3.154091
  0
VERTEX
  8
PLAN_1
  6
CONTINUOUS
 10
1.680909
 20
-3.154091
  0
VERTEX
  8
PLAN_1
  6
CONTINUOUS
 10
1.687264
 20
-3.154937
  0
VERTEX
  8
PLAN_1
  6
CONTINUOUS
 10
1.693197
 20
-3.156634
  0
VERTEX
  8
PLAN_1
  6
CONTINUOUS
 10
1.698705
 20
-3.158327
  0
VERTEX
  8
PLAN_1
  6
CONTINUOUS
 10
1.704217
 20
-3.160445
  0
VERTEX
  8
PLAN_1
  6
CONTINUOUS
 10
1.708878
 20
-3.163413
  0
VERTEX
  8
PLAN_1
  6
CONTINUOUS
 10
1.713539
 20
-3.166378
  0
VERTEX
  8
PLAN_1
  6
CONTINUOUS
 10
1.717350
 20
-3.169768
  0
VERTEX
  8
PLAN_1
  6
CONTINUOUS
 10
1.721165
 20
-3.174008
  0
VERTEX
  8
PLAN_1
  6
CONTINUOUS
 10
1.724130
 20
-3.178244
  0
VERTEX
  8
PLAN_1
  6
CONTINUOUS
 10
1.726673
 20
-3.182906
  0
VERTEX
  8
PLAN_1
  6
CONTINUOUS
 10
1.729217
 20
-3.187567
  0
VERTEX
  8
PLAN_1
  6
CONTINUOUS
 10
1.730909
 20
-3.193075
  0
VERTEX
  8
PLAN_1
  6
CONTINUOUS
 10
1.732181
 20
-3.198583
  0
VERTEX
  8
PLAN_1
  6
CONTINUOUS
 10
1.733031
 20
-3.204091
  0
VERTEX
  8
PLAN_1
  6
CONTINUOUS
 10
1.733031
 20
-3.210024
  0
VERTEX
  8
PLAN_1
  6
CONTINUOUS
 10
1.733031
 20
-3.215110
  0
VERTEX
  8
PLAN_1
  6
CONTINUOUS
 10
1.732181
 20
-3.220618
  0
VERTEX
  8
PLAN_1
  6
CONTINUOUS
 10
1.731335
 20
-3.225705
  0
VERTEX
  8
PLAN_1
  6
CONTINUOUS
 10
1.730063
 20
-3.231213
  0
VERTEX
  8
PLAN_1
  6
CONTINUOUS
 10
1.727945
 20
-3.236299
  0
VERTEX
  8
PLAN_1
  6
CONTINUOUS
 10
1.725827
 20
-3.240961
  0
VERTEX
  8
PLAN_1
  6
CONTINUOUS
 10
1.722858
 20
-3.245618
  0
VERTEX
  8
PLAN_1
  6
CONTINUOUS
 10
1.719894
 20
-3.249858
  0
VERTEX
  8
PLAN_1
  6
CONTINUOUS
 10
1.716079
 20
-3.254094
  0
VERTEX
  8
PLAN_1
  6
CONTINUOUS
 10
1.711843
 20
-3.257909
  0
VERTEX
  8
PLAN_1
  6
CONTINUOUS
 10
1.706756
 20
-3.260874
  0
VERTEX
  8
PLAN_1
  6
CONTINUOUS
 10
1.701673
 20
-3.263843
  0
VERTEX
  8
PLAN_1
  6
CONTINUOUS
 10
1.695315
 20
-3.265961
  0
VERTEX
  8
PLAN_1
  6
CONTINUOUS
 10
1.688961
 20
-3.267654
  0
VERTEX
  8
PLAN_1
  6
CONTINUOUS
 10
1.681756
 20
-3.268925
  0
VERTEX
  8
PLAN_1
  6
CONTINUOUS
 10
1.674130
 20
-3.269350
  0
VERTEX
  8
PLAN_1
  6
CONTINUOUS
 10
1.611413
 20
-3.269350
  0
VERTEX
  8
PLAN_1
  6
CONTINUOUS
 10
1.611413
 20
-3.353252
  0
SEQEND
  8
0
  0
POLYLINE
  8
PLAN_1
  6
CONTINUOUS
 66
     1
 40
0.003000
 41
0.003000
  0
VERTEX
  8
PLAN_1
  6
CONTINUOUS
 10
1.611413
 20
-3.246043
  0
VERTEX
  8
PLAN_1
  6
CONTINUOUS
 10
1.664807
 20
-3.246043
  0
VERTEX
  8
PLAN_1
  6
CONTINUOUS
 10
1.669043
 20
-3.246043
  0
VERTEX
  8
PLAN_1
  6
CONTINUOUS
 10
1.673280
 20
-3.245618
  0
VERTEX
  8
PLAN_1
  6
CONTINUOUS
 10
1.677520
 20
-3.245197
  0
VERTEX
  8
PLAN_1
  6
CONTINUOUS
 10
1.681331
 20
-3.244350
  0
VERTEX
  8
PLAN_1
  6
CONTINUOUS
 10
1.684724
 20
-3.243079
  0
VERTEX
  8
PLAN_1
  6
CONTINUOUS
 10
1.688114
 20
-3.241807
  0
VERTEX
  8
PLAN_1
  6
CONTINUOUS
 10
1.691504
 20
-3.240110
  0
VERTEX
  8
PLAN_1
  6
CONTINUOUS
 10
1.694043
 20
-3.238417
  0
VERTEX
  8
PLAN_1
  6
CONTINUOUS
 10
1.696587
 20
-3.236299
  0
VERTEX
  8
PLAN_1
  6
CONTINUOUS
 10
1.698705
 20
-3.233331
  0
VERTEX
  8
PLAN_1
  6
CONTINUOUS
 10
1.700827
 20
-3.230787
  0
VERTEX
  8
PLAN_1
  6
CONTINUOUS
 10
1.702520
 20
-3.227398
  0
VERTEX
  8
PLAN_1
  6
CONTINUOUS
 10
1.703791
 20
-3.223587
  0
VERTEX
  8
PLAN_1
  6
CONTINUOUS
 10
1.704638
 20
-3.219772
  0
VERTEX
  8
PLAN_1
  6
CONTINUOUS
 10
1.705063
 20
-3.215110
  0
VERTEX
  8
PLAN_1
  6
CONTINUOUS
 10
1.705488
 20
-3.210449
  0
VERTEX
  8
PLAN_1
  6
CONTINUOUS
 10
1.705063
 20
-3.205787
  0
VERTEX
  8
PLAN_1
  6
CONTINUOUS
 10
1.704638
 20
-3.201551
  0
VERTEX
  8
PLAN_1
  6
CONTINUOUS
 10
1.703791
 20
-3.197736
  0
VERTEX
  8
PLAN_1
  6
CONTINUOUS
 10
1.702094
 20
-3.194346
  0
VERTEX
  8
PLAN_1
  6
CONTINUOUS
 10
1.700827
 20
-3.191382
  0
VERTEX
  8
PLAN_1
  6
CONTINUOUS
 10
1.698705
 20
-3.188839
  0
VERTEX
  8
PLAN_1
  6
CONTINUOUS
 10
1.696587
 20
-3.186295
  0
VERTEX
  8
PLAN_1
  6
CONTINUOUS
 10
1.694043
 20
-3.184177
  0
VERTEX
  8
PLAN_1
  6
CONTINUOUS
 10
1.691079
 20
-3.182480
  0
VERTEX
  8
PLAN_1
  6
CONTINUOUS
 10
1.688114
 20
-3.180787
  0
VERTEX
  8
PLAN_1
  6
CONTINUOUS
 10
1.684724
 20
-3.179516
  0
VERTEX
  8
PLAN_1
  6
CONTINUOUS
 10
1.681331
 20
-3.178669
  0
VERTEX
  8
PLAN_1
  6
CONTINUOUS
 10
1.677941
 20
-3.177819
  0
VERTEX
  8
PLAN_1
  6
CONTINUOUS
 10
1.674130
 20
-3.177398
  0
VERTEX
  8
PLAN_1
  6
CONTINUOUS
 10
1.669890
 20
-3.176972
  0
VERTEX
  8
PLAN_1
  6
CONTINUOUS
 10
1.666079
 20
-3.176972
  0
VERTEX
  8
PLAN_1
  6
CONTINUOUS
 10
1.611413
 20
-3.176972
  0
VERTEX
  8
PLAN_1
  6
CONTINUOUS
 10
1.611413
 20
-3.246043
  0
SEQEND
  8
0
  0
POLYLINE
  8
PLAN_1
  6
CONTINUOUS
 66
     1
 40
0.003000
 41
0.003000
  0
VERTEX
  8
PLAN_1
  6
CONTINUOUS
 10
1.886850
 20
-3.212146
  0
VERTEX
  8
PLAN_1
  6
CONTINUOUS
 10
1.886429
 20
-3.206634
  0
VERTEX
  8
PLAN_1
  6
CONTINUOUS
 10
1.885579
 20
-3.201551
  0
VERTEX
  8
PLAN_1
  6
CONTINUOUS
 10
1.883886
 20
-3.197311
  0
VERTEX
  8
PLAN_1
  6
CONTINUOUS
 10
1.881768
 20
-3.193075
  0
VERTEX
  8
PLAN_1
  6
CONTINUOUS
 10
1.879224
 20
-3.189260
  0
VERTEX
  8
PLAN_1
  6
CONTINUOUS
 10
1.876681
 20
-3.185870
  0
VERTEX
  8
PLAN_1
  6
CONTINUOUS
 10
1.873717
 20
-3.182906
  0
VERTEX
  8
PLAN_1
  6
CONTINUOUS
 10
1.870327
 20
-3.180362
  0
VERTEX
  8
PLAN_1
  6
CONTINUOUS
 10
1.866512
 20
-3.178244
  0
VERTEX
  8
PLAN_1
  6
CONTINUOUS
 10
1.862697
 20
-3.176547
  0
VERTEX
  8
PLAN_1
  6
CONTINUOUS
 10
1.858882
 20
-3.174854
  0
VERTEX
  8
PLAN_1
  6
CONTINUOUS
 10
1.854646
 20
-3.173583
  0
VERTEX
  8
PLAN_1
  6
CONTINUOUS
 10
1.850409
 20
-3.172736
  0
VERTEX
  8
PLAN_1
  6
CONTINUOUS
 10
1.846169
 20
-3.172311
  0
VERTEX
  8
PLAN_1
  6
CONTINUOUS
 10
1.841933
 20
-3.171886
  0
VERTEX
  8
PLAN_1
  6
CONTINUOUS
 10
1.837697
 20
-3.171886
  0
VERTEX
  8
PLAN_1
  6
CONTINUOUS
 10
1.830917
 20
-3.171886
  0
VERTEX
  8
PLAN_1
  6
CONTINUOUS
 10
1.823287
 20
-3.173157
  0
VERTEX
  8
PLAN_1
  6
CONTINUOUS
 10
1.819476
 20
-3.173583
  0
VERTEX
  8
PLAN_1
  6
CONTINUOUS
 10
1.815661
 20
-3.174854
  0
VERTEX
  8
PLAN_1
  6
CONTINUOUS
 10
1.811846
 20
-3.176126
  0
VERTEX
  8
PLAN_1
  6
CONTINUOUS
 10
1.808457
 20
-3.177819
  0
VERTEX
  8
PLAN_1
  6
CONTINUOUS
 10
1.805067
 20
-3.179937
  0
VERTEX
  8
PLAN_1
  6
CONTINUOUS
 10
1.802102
 20
-3.182480
  0
VERTEX
  8
PLAN_1
  6
CONTINUOUS
 10
1.799134
 20
-3.185024
  0
VERTEX
  8
PLAN_1
  6
CONTINUOUS
 10
1.796591
 20
-3.188413
  0
VERTEX
  8
PLAN_1
  6
CONTINUOUS
 10
1.794898
 20
-3.192228
  0
VERTEX
  8
PLAN_1
  6
CONTINUOUS
 10
1.793201
 20
-3.196465
  0
VERTEX
  8
PLAN_1
  6
CONTINUOUS
 10
1.792354
 20
-3.201551
  0
VERTEX
  8
PLAN_1
  6
CONTINUOUS
 10
1.791933
 20
-3.206634
  0
VERTEX
  8
PLAN_1
  6
CONTINUOUS
 10
1.792354
 20
-3.209602
  0
VERTEX
  8
PLAN_1
  6
CONTINUOUS
 10
1.792780
 20
-3.212567
  0
VERTEX
  8
PLAN_1
  6
CONTINUOUS
 10
1.793201
 20
-3.215110
  0
VERTEX
  8
PLAN_1
  6
CONTINUOUS
 10
1.794051
 20
-3.217654
  0
VERTEX
  8
PLAN_1
  6
CONTINUOUS
 10
1.795323
 20
-3.219346
  0
VERTEX
  8
PLAN_1
  6
CONTINUOUS
 10
1.796591
 20
-3.221465
  0
VERTEX
  8
PLAN_1
  6
CONTINUOUS
 10
1.797862
 20
-3.223161
  0
VERTEX
  8
PLAN_1
  6
CONTINUOUS
 10
1.799559
 20
-3.224854
  0
VERTEX
  8
PLAN_1
  6
CONTINUOUS
 10
1.802949
 20
-3.227398
  0
VERTEX
  8
PLAN_1
  6
CONTINUOUS
 10
1.807185
 20
-3.229094
  0
VERTEX
  8
PLAN_1
  6
CONTINUOUS
 10
1.811425
 20
-3.230787
  0
VERTEX
  8
PLAN_1
  6
CONTINUOUS
 10
1.815661
 20
-3.232059
  0
VERTEX
  8
PLAN_1
  6
CONTINUOUS
 10
1.872445
 20
-3.245197
  0
VERTEX
  8
PLAN_1
  6
CONTINUOUS
 10
1.877106
 20
-3.246469
  0
VERTEX
  8
PLAN_1
  6
CONTINUOUS
 10
1.881768
 20
-3.247740
  0
VERTEX
  8
PLAN_1
  6
CONTINUOUS
 10
1.886429
 20
-3.249433
  0
VERTEX
  8
PLAN_1
  6
CONTINUOUS
 10
1.890665
 20
-3.251551
  0
VERTEX
  8
PLAN_1
  6
CONTINUOUS
 10
1.894480
 20
-3.253669
  0
VERTEX
  8
PLAN_1
  6
CONTINUOUS
 10
1.898291
 20
-3.256213
  0
VERTEX
  8
PLAN_1
  6
CONTINUOUS
 10
1.901681
 20
-3.259181
  0
VERTEX
  8
PLAN_1
  6
CONTINUOUS
 10
1.904650
 20
-3.262146
  0
VERTEX
  8
PLAN_1
  6
CONTINUOUS
 10
1.907614
 20
-3.265535
  0
VERTEX
  8
PLAN_1
  6
CONTINUOUS
 10
1.910157
 20
-3.269350
  0
VERTEX
  8
PLAN_1
  6
CONTINUOUS
 10
1.912276
 20
-3.273165
  0
VERTEX
  8
PLAN_1
  6
CONTINUOUS
 10
1.914394
 20
-3.277402
  0
VERTEX
  8
PLAN_1
  6
CONTINUOUS
 10
1.915665
 20
-3.282063
  0
VERTEX
  8
PLAN_1
  6
CONTINUOUS
 10
1.916937
 20
-3.287146
  0
VERTEX
  8
PLAN_1
  6
CONTINUOUS
 10
1.917362
 20
-3.292657
  0
VERTEX
  8
PLAN_1
  6
CONTINUOUS
 10
1.917783
 20
-3.298165
  0
VERTEX
  8
PLAN_1
  6
CONTINUOUS
 10
1.917783
 20
-3.302827
  0
VERTEX
  8
PLAN_1
  6
CONTINUOUS
 10
1.917362
 20
-3.306642
  0
VERTEX
  8
PLAN_1
  6
CONTINUOUS
 10
1.916512
 20
-3.310878
  0
VERTEX
  8
PLAN_1
  6
CONTINUOUS
 10
1.915665
 20
-3.314693
  0
VERTEX
  8
PLAN_1
  6
CONTINUOUS
 10
1.914819
 20
-3.318083
  0
VERTEX
  8
PLAN_1
  6
CONTINUOUS
 10
1.913547
 20
-3.321472
  0
VERTEX
  8
PLAN_1
  6
CONTINUOUS
 10
1.911854
 20
-3.324437
  0
VERTEX
  8
PLAN_1
  6
CONTINUOUS
 10
1.910583
 20
-3.327827
  0
VERTEX
  8
PLAN_1
  6
CONTINUOUS
 10
1.908461
 20
-3.330370
  0
VERTEX
  8
PLAN_1
  6
CONTINUOUS
 10
1.906768
 20
-3.333335
  0
VERTEX
  8
PLAN_1
  6
CONTINUOUS
 10
1.904224
 20
-3.335878
  0
VERTEX
  8
PLAN_1
  6
CONTINUOUS
 10
1.902106
 20
-3.337996
  0
VERTEX
  8
PLAN_1
  6
CONTINUOUS
 10
1.897020
 20
-3.342657
  0
VERTEX
  8
PLAN_1
  6
CONTINUOUS
 10
1.891512
 20
-3.346047
  0
VERTEX
  8
PLAN_1
  6
CONTINUOUS
 10
1.885579
 20
-3.349437
  0
VERTEX
  8
PLAN_1
  6
CONTINUOUS
 10
1.879646
 20
-3.351980
  0
VERTEX
  8
PLAN_1
  6
CONTINUOUS
 10
1.872866
 20
-3.354098
  0
VERTEX
  8
PLAN_1
  6
CONTINUOUS
 10
1.866512
 20
-3.355795
  0
VERTEX
  8
PLAN_1
  6
CONTINUOUS
 10
1.859732
 20
-3.357067
  0
VERTEX
  8
PLAN_1
  6
CONTINUOUS
 10
1.852953
 20
-3.357913
  0
VERTEX
  8
PLAN_1
  6
CONTINUOUS
 10
1.846169
 20
-3.358339
  0
VERTEX
  8
PLAN_1
  6
CONTINUOUS
 10
1.839815
 20
-3.358760
  0
VERTEX
  8
PLAN_1
  6
CONTINUOUS
 10
1.833035
 20
-3.358339
  0
VERTEX
  8
PLAN_1
  6
CONTINUOUS
 10
1.827102
 20
-3.357913
  0
VERTEX
  8
PLAN_1
  6
CONTINUOUS
 10
1.821169
 20
-3.357488
  0
VERTEX
  8
PLAN_1
  6
CONTINUOUS
 10
1.816087
 20
-3.356642
  0
VERTEX
  8
PLAN_1
  6
CONTINUOUS
 10
1.811425
 20
-3.355795
  0
VERTEX
  8
PLAN_1
  6
CONTINUOUS
 10
1.806764
 20
-3.354524
  0
VERTEX
  8
PLAN_1
  6
CONTINUOUS
 10
1.802949
 20
-3.353252
  0
VERTEX
  8
PLAN_1
  6
CONTINUOUS
 10
1.799134
 20
-3.351980
  0
VERTEX
  8
PLAN_1
  6
CONTINUOUS
 10
1.792780
 20
-3.349016
  0
VERTEX
  8
PLAN_1
  6
CONTINUOUS
 10
1.787693
 20
-3.345626
  0
VERTEX
  8
PLAN_1
  6
CONTINUOUS
 10
1.783031
 20
-3.342657
  0
VERTEX
  8
PLAN_1
  6
CONTINUOUS
 10
1.779642
 20
-3.339268
  0
VERTEX
  8
PLAN_1
  6
CONTINUOUS
 10
1.776677
 20
-3.336724
  0
VERTEX
  8
PLAN_1
  6
CONTINUOUS
 10
1.773709
 20
-3.333760
  0
VERTEX
  8
PLAN_1
  6
CONTINUOUS
 10
1.771591
 20
-3.330795
  0
VERTEX
  8
PLAN_1
  6
CONTINUOUS
 10
1.769047
 20
-3.327827
  0
VERTEX
  8
PLAN_1
  6
CONTINUOUS
 10
1.767354
 20
-3.324862
  0
VERTEX
  8
PLAN_1
  6
CONTINUOUS
 10
1.765657
 20
-3.321472
  0
VERTEX
  8
PLAN_1
  6
CONTINUOUS
 10
1.764386
 20
-3.318504
  0
VERTEX
  8
PLAN_1
  6
CONTINUOUS
 10
1.763118
 20
-3.315539
  0
VERTEX
  8
PLAN_1
  6
CONTINUOUS
 10
1.761421
 20
-3.309181
  0
VERTEX
  8
PLAN_1
  6
CONTINUOUS
 10
1.760150
 20
-3.302402
  0
VERTEX
  8
PLAN_1
  6
CONTINUOUS
 10
1.759303
 20
-3.295622
  0
VERTEX
  8
PLAN_1
  6
CONTINUOUS
 10
1.759303
 20
-3.288843
  0
VERTEX
  8
PLAN_1
  6
CONTINUOUS
 10
1.784728
 20
-3.288843
  0
VERTEX
  8
PLAN_1
  6
CONTINUOUS
 10
1.784728
 20
-3.295197
  0
VERTEX
  8
PLAN_1
  6
CONTINUOUS
 10
1.786000
 20
-3.301130
  0
VERTEX
  8
PLAN_1
  6
CONTINUOUS
 10
1.787272
 20
-3.306642
  0
VERTEX
  8
PLAN_1
  6
CONTINUOUS
 10
1.789390
 20
-3.311303
  0
VERTEX
  8
PLAN_1
  6
CONTINUOUS
 10
1.792354
 20
-3.315539
  0
VERTEX
  8
PLAN_1
  6
CONTINUOUS
 10
1.795323
 20
-3.319354
  0
VERTEX
  8
PLAN_1
  6
CONTINUOUS
 10
1.798713
 20
-3.322744
  0
VERTEX
  8
PLAN_1
  6
CONTINUOUS
 10
1.802524
 20
-3.325709
  0
VERTEX
  8
PLAN_1
  6
CONTINUOUS
 10
1.806339
 20
-3.328252
  0
VERTEX
  8
PLAN_1
  6
CONTINUOUS
 10
1.811000
 20
-3.330370
  0
VERTEX
  8
PLAN_1
  6
CONTINUOUS
 10
1.815236
 20
-3.332067
  0
VERTEX
  8
PLAN_1
  6
CONTINUOUS
 10
1.820323
 20
-3.333335
  0
VERTEX
  8
PLAN_1
  6
CONTINUOUS
 10
1.824984
 20
-3.334185
  0
VERTEX
  8
PLAN_1
  6
CONTINUOUS
 10
1.829646
 20
-3.335031
  0
VERTEX
  8
PLAN_1
  6
CONTINUOUS
 10
1.834728
 20
-3.335457
  0
VERTEX
  8
PLAN_1
  6
CONTINUOUS
 10
1.839390
 20
-3.335457
  0
VERTEX
  8
PLAN_1
  6
CONTINUOUS
 10
1.847441
 20
-3.335457
  0
VERTEX
  8
PLAN_1
  6
CONTINUOUS
 10
1.855917
 20
-3.334185
  0
VERTEX
  8
PLAN_1
  6
CONTINUOUS
 10
1.860154
 20
-3.333335
  0
VERTEX
  8
PLAN_1
  6
CONTINUOUS
 10
1.864394
 20
-3.332488
  0
VERTEX
  8
PLAN_1
  6
CONTINUOUS
 10
1.868630
 20
-3.331217
  0
VERTEX
  8
PLAN_1
  6
CONTINUOUS
 10
1.872866
 20
-3.329524
  0
VERTEX
  8
PLAN_1
  6
CONTINUOUS
 10
1.876681
 20
-3.327406
  0
VERTEX
  8
PLAN_1
  6
CONTINUOUS
 10
1.880496
 20
-3.325283
  0
VERTEX
  8
PLAN_1
  6
CONTINUOUS
 10
1.883461
 20
-3.322319
  0
VERTEX
  8
PLAN_1
  6
CONTINUOUS
 10
1.886429
 20
-3.319354
  0
VERTEX
  8
PLAN_1
  6
CONTINUOUS
 10
1.888547
 20
-3.315539
  0
VERTEX
  8
PLAN_1
  6
CONTINUOUS
 10
1.890240
 20
-3.311724
  0
VERTEX
  8
PLAN_1
  6
CONTINUOUS
 10
1.891512
 20
-3.307063
  0
VERTEX
  8
PLAN_1
  6
CONTINUOUS
 10
1.891512
 20
-3.301980
  0
VERTEX
  8
PLAN_1
  6
CONTINUOUS
 10
1.891512
 20
-3.298165
  0
VERTEX
  8
PLAN_1
  6
CONTINUOUS
 10
1.891091
 20
-3.294776
  0
VERTEX
  8
PLAN_1
  6
CONTINUOUS
 10
1.890665
 20
-3.291807
  0
VERTEX
  8
PLAN_1
  6
CONTINUOUS
 10
1.889819
 20
-3.288843
  0
VERTEX
  8
PLAN_1
  6
CONTINUOUS
 10
1.888547
 20
-3.286299
  0
VERTEX
  8
PLAN_1
  6
CONTINUOUS
 10
1.886850
 20
-3.283756
  0
VERTEX
  8
PLAN_1
  6
CONTINUOUS
 10
1.885157
 20
-3.281638
  0
VERTEX
  8
PLAN_1
  6
CONTINUOUS
 10
1.882614
 20
-3.279520
  0
VERTEX
  8
PLAN_1
  6
CONTINUOUS
 10
1.880071
 20
-3.277402
  0
VERTEX
  8
PLAN_1
  6
CONTINUOUS
 10
1.877106
 20
-3.275705
  0
VERTEX
  8
PLAN_1
  6
CONTINUOUS
 10
1.873717
 20
-3.274012
  0
VERTEX
  8
PLAN_1
  6
CONTINUOUS
 10
1.869476
 20
-3.272740
  0
VERTEX
  8
PLAN_1
  6
CONTINUOUS
 10
1.860579
 20
-3.269776
  0
VERTEX
  8
PLAN_1
  6
CONTINUOUS
 10
1.849138
 20
-3.266807
  0
VERTEX
  8
PLAN_1
  6
CONTINUOUS
 10
1.808457
 20
-3.257063
  0
VERTEX
  8
PLAN_1
  6
CONTINUOUS
 10
1.802949
 20
-3.255791
  0
VERTEX
  8
PLAN_1
  6
CONTINUOUS
 10
1.796169
 20
-3.253669
  0
VERTEX
  8
PLAN_1
  6
CONTINUOUS
 10
1.792780
 20
-3.251976
  0
VERTEX
  8
PLAN_1
  6
CONTINUOUS
 10
1.789390
 20
-3.250280
  0
VERTEX
  8
PLAN_1
  6
CONTINUOUS
 10
1.785575
 20
-3.248161
  0
VERTEX
  8
PLAN_1
  6
CONTINUOUS
 10
1.782185
 20
-3.245618
  0
VERTEX
  8
PLAN_1
  6
CONTINUOUS
 10
1.778795
 20
-3.242654
  0
VERTEX
  8
PLAN_1
  6
CONTINUOUS
 10
1.775827
 20
-3.239689
  0
VERTEX
  8
PLAN_1
  6
CONTINUOUS
 10
1.773287
 20
-3.235874
  0
VERTEX
  8
PLAN_1
  6
CONTINUOUS
 10
1.770744
 20
-3.232059
  0
VERTEX
  8
PLAN_1
  6
CONTINUOUS
 10
1.768626
 20
-3.227398
  0
VERTEX
  8
PLAN_1
  6
CONTINUOUS
 10
1.767354
 20
-3.222315
  0
VERTEX
  8
PLAN_1
  6
CONTINUOUS
 10
1.766083
 20
-3.216382
  0
VERTEX
  8
PLAN_1
  6
CONTINUOUS
 10
1.766083
 20
-3.210449
  0
VERTEX
  8
PLAN_1
  6
CONTINUOUS
 10
1.766083
 20
-3.204516
  0
VERTEX
  8
PLAN_1
  6
CONTINUOUS
 10
1.766929
 20
-3.198583
  0
VERTEX
  8
PLAN_1
  6
CONTINUOUS
 10
1.768201
 20
-3.193075
  0
VERTEX
  8
PLAN_1
  6
CONTINUOUS
 10
1.769898
 20
-3.187567
  0
VERTEX
  8
PLAN_1
  6
CONTINUOUS
 10
1.772016
 20
-3.182480
  0
VERTEX
  8
PLAN_1
  6
CONTINUOUS
 10
1.774980
 20
-3.177398
  0
VERTEX
  8
PLAN_1
  6
CONTINUOUS
 10
1.778370
 20
-3.172311
  0
VERTEX
  8
PLAN_1
  6
CONTINUOUS
 10
1.782185
 20
-3.168075
  0
VERTEX
  8
PLAN_1
  6
CONTINUOUS
 10
1.786421
 20
-3.163835
  0
VERTEX
  8
PLAN_1
  6
CONTINUOUS
 10
1.791508
 20
-3.160024
  0
VERTEX
  8
PLAN_1
  6
CONTINUOUS
 10
1.797016
 20
-3.156634
  0
VERTEX
  8
PLAN_1
  6
CONTINUOUS
 10
1.803374
 20
-3.154091
  0
VERTEX
  8
PLAN_1
  6
CONTINUOUS
 10
1.810154
 20
-3.151547
  0
VERTEX
  8
PLAN_1
  6
CONTINUOUS
 10
1.817780
 20
-3.150276
  0
VERTEX
  8
PLAN_1
  6
CONTINUOUS
 10
1.825831
 20
-3.149004
  0
VERTEX
  8
PLAN_1
  6
CONTINUOUS
 10
1.834307
 20
-3.148583
  0
VERTEX
  8
PLAN_1
  6
CONTINUOUS
 10
1.840661
 20
-3.149004
  0
VERTEX
  8
PLAN_1
  6
CONTINUOUS
 10
1.847020
 20
-3.149004
  0
VERTEX
  8
PLAN_1
  6
CONTINUOUS
 10
1.852528
 20
-3.149854
  0
VERTEX
  8
PLAN_1
  6
CONTINUOUS
 10
1.857614
 20
-3.150701
  0
VERTEX
  8
PLAN_1
  6
CONTINUOUS
 10
1.862697
 20
-3.151547
  0
VERTEX
  8
PLAN_1
  6
CONTINUOUS
 10
1.867358
 20
-3.152819
  0
VERTEX
  8
PLAN_1
  6
CONTINUOUS
 10
1.872020
 20
-3.154091
  0
VERTEX
  8
PLAN_1
  6
CONTINUOUS
 10
1.875835
 20
-3.155783
  0
VERTEX
  8
PLAN_1
  6
CONTINUOUS
 10
1.879646
 20
-3.157055
  0
VERTEX
  8
PLAN_1
  6
CONTINUOUS
 10
1.883039
 20
-3.159173
  0
VERTEX
  8
PLAN_1
  6
CONTINUOUS
 10
1.886429
 20
-3.160870
  0
VERTEX
  8
PLAN_1
  6
CONTINUOUS
 10
1.889394
 20
-3.162988
  0
VERTEX
  8
PLAN_1
  6
CONTINUOUS
 10
1.892358
 20
-3.165106
  0
VERTEX
  8
PLAN_1
  6
CONTINUOUS
 10
1.894480
 20
-3.167650
  0
VERTEX
  8
PLAN_1
  6
CONTINUOUS
 10
1.897020
 20
-3.169768
  0
VERTEX
  8
PLAN_1
  6
CONTINUOUS
 10
1.899142
 20
-3.172311
  0
VERTEX
  8
PLAN_1
  6
CONTINUOUS
 10
1.902531
 20
-3.177398
  0
VERTEX
  8
PLAN_1
  6
CONTINUOUS
 10
1.905496
 20
-3.182480
  0
VERTEX
  8
PLAN_1
  6
CONTINUOUS
 10
1.907614
 20
-3.187988
  0
VERTEX
  8
PLAN_1
  6
CONTINUOUS
 10
1.909311
 20
-3.193075
  0
VERTEX
  8
PLAN_1
  6
CONTINUOUS
 10
1.910583
 20
-3.198161
  0
VERTEX
  8
PLAN_1
  6
CONTINUOUS
 10
1.911429
 20
-3.203244
  0
VERTEX
  8
PLAN_1
  6
CONTINUOUS
 10
1.911854
 20
-3.207906
  0
VERTEX
  8
PLAN_1
  6
CONTINUOUS
 10
1.912276
 20
-3.212146
  0
VERTEX
  8
PLAN_1
  6
CONTINUOUS
 10
1.886850
 20
-3.212146
  0
SEQEND
  8
0
  0
POLYLINE
  8
PLAN_1
 62
     5
  6
CONTINUOUS
 66
     1
 40
0.003000
 41
0.003000
  0
VERTEX
  8
PLAN_1
 62
     5
  6
CONTINUOUS
 10
-1.915882
 20
1.137650
  0
VERTEX
  8
PLAN_1
 62
     5
  6
CONTINUOUS
 10
-1.915882
 20
1.146126
  0
SEQEND
  8
0
  0
POLYLINE
  8
PLAN_1
 62
     5
  6
CONTINUOUS
 66
     1
 40
0.003000
 41
0.003000
  0
VERTEX
  8
PLAN_1
 62
     5
  6
CONTINUOUS
 10
-1.915882
 20
1.154177
  0
VERTEX
  8
PLAN_1
 62
     5
  6
CONTINUOUS
 10
-1.915882
 20
1.162650
  0
SEQEND
  8
0
  0
POLYLINE
  8
PLAN_1
 62
     5
  6
CONTINUOUS
 66
     1
 40
0.003000
 41
0.003000
  0
VERTEX
  8
PLAN_1
 62
     5
  6
CONTINUOUS
 10
-1.915882
 20
1.170701
  0
VERTEX
  8
PLAN_1
 62
     5
  6
CONTINUOUS
 10
-1.915882
 20
1.179177
  0
SEQEND
  8
0
  0
POLYLINE
  8
PLAN_1
 62
     5
  6
CONTINUOUS
 66
     1
 40
0.003000
 41
0.003000
  0
VERTEX
  8
PLAN_1
 62
     5
  6
CONTINUOUS
 10
-1.915882
 20
1.187654
  0
VERTEX
  8
PLAN_1
 62
     5
  6
CONTINUOUS
 10
-1.915882
 20
1.195705
  0
SEQEND
  8
0
  0
POLYLINE
  8
PLAN_1
 62
     5
  6
CONTINUOUS
 66
     1
 40
0.003000
 41
0.003000
  0
VERTEX
  8
PLAN_1
 62
     5
  6
CONTINUOUS
 10
-1.915882
 20
1.204177
  0
VERTEX
  8
PLAN_1
 62
     5
  6
CONTINUOUS
 10
-1.915882
 20
1.212654
  0
SEQEND
  8
0
  0
POLYLINE
  8
PLAN_1
 62
     5
  6
CONTINUOUS
 66
     1
 40
0.003000
 41
0.003000
  0
VERTEX
  8
PLAN_1
 62
     5
  6
CONTINUOUS
 10
-1.915882
 20
1.220705
  0
VERTEX
  8
PLAN_1
 62
     5
  6
CONTINUOUS
 10
-1.915882
 20
1.229181
  0
SEQEND
  8
0
  0
POLYLINE
  8
PLAN_1
 62
     5
  6
CONTINUOUS
 66
     1
 40
0.003000
 41
0.003000
  0
VERTEX
  8
PLAN_1
 62
     5
  6
CONTINUOUS
 10
-1.915882
 20
1.237654
  0
VERTEX
  8
PLAN_1
 62
     5
  6
CONTINUOUS
 10
-1.915882
 20
1.245705
  0
SEQEND
  8
0
  0
POLYLINE
  8
PLAN_1
 62
     5
  6
CONTINUOUS
 66
     1
 40
0.003000
 41
0.003000
  0
VERTEX
  8
PLAN_1
 62
     5
  6
CONTINUOUS
 10
-1.915882
 20
1.254181
  0
VERTEX
  8
PLAN_1
 62
     5
  6
CONTINUOUS
 10
-1.915882
 20
1.262657
  0
SEQEND
  8
0
  0
POLYLINE
  8
PLAN_1
 62
     5
  6
CONTINUOUS
 66
     1
 40
0.003000
 41
0.003000
  0
VERTEX
  8
PLAN_1
 62
     5
  6
CONTINUOUS
 10
-1.915882
 20
1.270709
  0
VERTEX
  8
PLAN_1
 62
     5
  6
CONTINUOUS
 10
-1.915882
 20
1.279181
  0
SEQEND
  8
0
  0
POLYLINE
  8
PLAN_1
 62
     5
  6
CONTINUOUS
 66
     1
 40
0.003000
 41
0.003000
  0
VERTEX
  8
PLAN_1
 62
     5
  6
CONTINUOUS
 10
-1.915882
 20
1.287657
  0
VERTEX
  8
PLAN_1
 62
     5
  6
CONTINUOUS
 10
-1.915882
 20
1.295709
  0
SEQEND
  8
0
  0
POLYLINE
  8
PLAN_1
 62
     5
  6
CONTINUOUS
 66
     1
 40
0.003000
 41
0.003000
  0
VERTEX
  8
PLAN_1
 62
     5
  6
CONTINUOUS
 10
-1.915882
 20
1.304185
  0
VERTEX
  8
PLAN_1
 62
     5
  6
CONTINUOUS
 10
-1.915882
 20
1.312657
  0
SEQEND
  8
0
  0
POLYLINE
  8
PLAN_1
 62
     5
  6
CONTINUOUS
 66
     1
 40
0.003000
 41
0.003000
  0
VERTEX
  8
PLAN_1
 62
     5
  6
CONTINUOUS
 10
-1.915882
 20
1.320709
  0
VERTEX
  8
PLAN_1
 62
     5
  6
CONTINUOUS
 10
-1.915882
 20
1.329185
  0
SEQEND
  8
0
  0
POLYLINE
  8
PLAN_1
 62
     5
  6
CONTINUOUS
 66
     1
 40
0.003000
 41
0.003000
  0
VERTEX
  8
PLAN_1
 62
     5
  6
CONTINUOUS
 10
-1.915882
 20
1.337661
  0
VERTEX
  8
PLAN_1
 62
     5
  6
CONTINUOUS
 10
-1.915882
 20
1.345713
  0
SEQEND
  8
0
  0
POLYLINE
  8
PLAN_1
 62
     5
  6
CONTINUOUS
 66
     1
 40
0.003000
 41
0.003000
  0
VERTEX
  8
PLAN_1
 62
     5
  6
CONTINUOUS
 10
-1.915882
 20
1.354185
  0
VERTEX
  8
PLAN_1
 62
     5
  6
CONTINUOUS
 10
-1.915882
 20
1.362661
  0
SEQEND
  8
0
  0
POLYLINE
  8
PLAN_1
 62
     5
  6
CONTINUOUS
 66
     1
 40
0.003000
 41
0.003000
  0
VERTEX
  8
PLAN_1
 62
     5
  6
CONTINUOUS
 10
-1.915882
 20
1.370713
  0
VERTEX
  8
PLAN_1
 62
     5
  6
CONTINUOUS
 10
-1.915882
 20
1.379189
  0
SEQEND
  8
0
  0
POLYLINE
  8
PLAN_1
 62
     5
  6
CONTINUOUS
 66
     1
 40
0.003000
 41
0.003000
  0
VERTEX
  8
PLAN_1
 62
     5
  6
CONTINUOUS
 10
-1.915882
 20
1.387661
  0
VERTEX
  8
PLAN_1
 62
     5
  6
CONTINUOUS
 10
-1.915882
 20
1.395713
  0
SEQEND
  8
0
  0
POLYLINE
  8
PLAN_1
 62
     5
  6
CONTINUOUS
 66
     1
 40
0.003000
 41
0.003000
  0
VERTEX
  8
PLAN_1
 62
     5
  6
CONTINUOUS
 10
-1.915882
 20
1.404189
  0
VERTEX
  8
PLAN_1
 62
     5
  6
CONTINUOUS
 10
-1.915882
 20
1.412665
  0
SEQEND
  8
0
  0
POLYLINE
  8
PLAN_1
 62
     5
  6
CONTINUOUS
 66
     1
 40
0.003000
 41
0.003000
  0
VERTEX
  8
PLAN_1
 62
     5
  6
CONTINUOUS
 10
-1.915882
 20
1.420717
  0
VERTEX
  8
PLAN_1
 62
     5
  6
CONTINUOUS
 10
-1.915882
 20
1.429189
  0
SEQEND
  8
0
  0
POLYLINE
  8
PLAN_1
 62
     5
  6
CONTINUOUS
 66
     1
 40
0.003000
 41
0.003000
  0
VERTEX
  8
PLAN_1
 62
     5
  6
CONTINUOUS
 10
-1.915882
 20
1.437240
  0
VERTEX
  8
PLAN_1
 62
     5
  6
CONTINUOUS
 10
-1.915882
 20
1.445717
  0
SEQEND
  8
0
  0
POLYLINE
  8
PLAN_1
 62
     5
  6
CONTINUOUS
 66
     1
 40
0.003000
 41
0.003000
  0
VERTEX
  8
PLAN_1
 62
     5
  6
CONTINUOUS
 10
-1.915882
 20
1.454193
  0
VERTEX
  8
PLAN_1
 62
     5
  6
CONTINUOUS
 10
-1.915882
 20
1.462244
  0
SEQEND
  8
0
  0
POLYLINE
  8
PLAN_1
 62
     5
  6
CONTINUOUS
 66
     1
 40
0.003000
 41
0.003000
  0
VERTEX
  8
PLAN_1
 62
     5
  6
CONTINUOUS
 10
-1.915882
 20
1.470717
  0
VERTEX
  8
PLAN_1
 62
     5
  6
CONTINUOUS
 10
-1.915882
 20
1.479193
  0
SEQEND
  8
0
  0
POLYLINE
  8
PLAN_1
 62
     5
  6
CONTINUOUS
 66
     1
 40
0.003000
 41
0.003000
  0
VERTEX
  8
PLAN_1
 62
     5
  6
CONTINUOUS
 10
-1.915882
 20
1.487244
  0
VERTEX
  8
PLAN_1
 62
     5
  6
CONTINUOUS
 10
-1.915882
 20
1.495720
  0
SEQEND
  8
0
  0
POLYLINE
  8
PLAN_1
 62
     5
  6
CONTINUOUS
 66
     1
 40
0.003000
 41
0.003000
  0
VERTEX
  8
PLAN_1
 62
     5
  6
CONTINUOUS
 10
-1.915882
 20
1.504193
  0
VERTEX
  8
PLAN_1
 62
     5
  6
CONTINUOUS
 10
-1.915882
 20
1.511398
  0
SEQEND
  8
0
  0
POLYLINE
  8
PLAN_1
 62
     5
  6
CONTINUOUS
 66
     1
 40
0.003000
 41
0.003000
  0
VERTEX
  8
PLAN_1
 62
     5
  6
CONTINUOUS
 10
-1.915882
 20
1.504193
  0
VERTEX
  8
PLAN_1
 62
     5
  6
CONTINUOUS
 10
-1.915882
 20
1.511398
  0
SEQEND
  8
0
  0
POLYLINE
  8
PLAN_1
 62
     5
  6
CONTINUOUS
 66
     1
 40
0.003000
 41
0.003000
  0
VERTEX
  8
PLAN_1
 62
     5
  6
CONTINUOUS
 10
-1.915882
 20
1.511398
  0
VERTEX
  8
PLAN_1
 62
     5
  6
CONTINUOUS
 10
-1.915882
 20
1.513516
  0
VERTEX
  8
PLAN_1
 62
     5
  6
CONTINUOUS
 10
-1.915882
 20
1.515213
  0
VERTEX
  8
PLAN_1
 62
     5
  6
CONTINUOUS
 10
-1.915457
 20
1.517331
  0
VERTEX
  8
PLAN_1
 62
     5
  6
CONTINUOUS
 10
-1.915035
 20
1.519024
  0
VERTEX
  8
PLAN_1
 62
     5
  6
CONTINUOUS
 10
-1.915035
 20
1.519449
  0
SEQEND
  8
0
  0
POLYLINE
  8
PLAN_1
 62
     5
  6
CONTINUOUS
 66
     1
 40
0.003000
 41
0.003000
  0
VERTEX
  8
PLAN_1
 62
     5
  6
CONTINUOUS
 10
-1.910374
 20
1.526228
  0
VERTEX
  8
PLAN_1
 62
     5
  6
CONTINUOUS
 10
-1.908252
 20
1.527925
  0
VERTEX
  8
PLAN_1
 62
     5
  6
CONTINUOUS
 10
-1.904862
 20
1.530043
  0
VERTEX
  8
PLAN_1
 62
     5
  6
CONTINUOUS
 10
-1.903169
 20
1.530465
  0
SEQEND
  8
0
  0
POLYLINE
  8
PLAN_1
 62
     5
  6
CONTINUOUS
 66
     1
 40
0.003000
 41
0.003000
  0
VERTEX
  8
PLAN_1
 62
     5
  6
CONTINUOUS
 10
-1.897236
 20
1.531315
  0
VERTEX
  8
PLAN_1
 62
     5
  6
CONTINUOUS
 10
-1.888760
 20
1.531315
  0
SEQEND
  8
0
  0
POLYLINE
  8
PLAN_1
 62
     5
  6
CONTINUOUS
 66
     1
 40
0.003000
 41
0.003000
  0
VERTEX
  8
PLAN_1
 62
     5
  6
CONTINUOUS
 10
-1.880709
 20
1.531315
  0
VERTEX
  8
PLAN_1
 62
     5
  6
CONTINUOUS
 10
-1.872236
 20
1.531315
  0
SEQEND
  8
0
  0
POLYLINE
  8
PLAN_1
 62
     5
  6
CONTINUOUS
 66
     1
 40
0.003000
 41
0.003000
  0
VERTEX
  8
PLAN_1
 62
     5
  6
CONTINUOUS
 10
-1.863760
 20
1.531315
  0
VERTEX
  8
PLAN_1
 62
     5
  6
CONTINUOUS
 10
-1.855709
 20
1.531315
  0
SEQEND
  8
0
  0
POLYLINE
  8
PLAN_1
 62
     5
  6
CONTINUOUS
 66
     1
 40
0.003000
 41
0.003000
  0
VERTEX
  8
PLAN_1
 62
     5
  6
CONTINUOUS
 10
-1.847232
 20
1.531315
  0
VERTEX
  8
PLAN_1
 62
     5
  6
CONTINUOUS
 10
-1.838760
 20
1.531315
  0
SEQEND
  8
0
  0
POLYLINE
  8
PLAN_1
 62
     5
  6
CONTINUOUS
 66
     1
 40
0.003000
 41
0.003000
  0
VERTEX
  8
PLAN_1
 62
     5
  6
CONTINUOUS
 10
-1.830709
 20
1.531315
  0
VERTEX
  8
PLAN_1
 62
     5
  6
CONTINUOUS
 10
-1.822232
 20
1.531315
  0
SEQEND
  8
0
  0
POLYLINE
  8
PLAN_1
 62
     5
  6
CONTINUOUS
 66
     1
 40
0.003000
 41
0.003000
  0
VERTEX
  8
PLAN_1
 62
     5
  6
CONTINUOUS
 10
-1.813756
 20
1.531315
  0
VERTEX
  8
PLAN_1
 62
     5
  6
CONTINUOUS
 10
-1.805705
 20
1.531315
  0
SEQEND
  8
0
  0
POLYLINE
  8
PLAN_1
 62
     5
  6
CONTINUOUS
 66
     1
 40
0.003000
 41
0.003000
  0
VERTEX
  8
PLAN_1
 62
     5
  6
CONTINUOUS
 10
-1.797232
 20
1.531315
  0
VERTEX
  8
PLAN_1
 62
     5
  6
CONTINUOUS
 10
-1.788756
 20
1.531315
  0
SEQEND
  8
0
  0
POLYLINE
  8
PLAN_1
 62
     5
  6
CONTINUOUS
 66
     1
 40
0.003000
 41
0.003000
  0
VERTEX
  8
PLAN_1
 62
     5
  6
CONTINUOUS
 10
-1.780705
 20
1.531315
  0
VERTEX
  8
PLAN_1
 62
     5
  6
CONTINUOUS
 10
-1.772228
 20
1.531315
  0
SEQEND
  8
0
  0
POLYLINE
  8
PLAN_1
 62
     5
  6
CONTINUOUS
 66
     1
 40
0.003000
 41
0.003000
  0
VERTEX
  8
PLAN_1
 62
     5
  6
CONTINUOUS
 10
-1.763756
 20
1.531315
  0
VERTEX
  8
PLAN_1
 62
     5
  6
CONTINUOUS
 10
-1.755705
 20
1.531315
  0
SEQEND
  8
0
  0
POLYLINE
  8
PLAN_1
 62
     5
  6
CONTINUOUS
 66
     1
 40
0.003000
 41
0.003000
  0
VERTEX
  8
PLAN_1
 62
     5
  6
CONTINUOUS
 10
-1.747228
 20
1.531315
  0
VERTEX
  8
PLAN_1
 62
     5
  6
CONTINUOUS
 10
-1.738752
 20
1.531315
  0
SEQEND
  8
0
  0
POLYLINE
  8
PLAN_1
 62
     5
  6
CONTINUOUS
 66
     1
 40
0.003000
 41
0.003000
  0
VERTEX
  8
PLAN_1
 62
     5
  6
CONTINUOUS
 10
-1.730701
 20
1.531315
  0
VERTEX
  8
PLAN_1
 62
     5
  6
CONTINUOUS
 10
-1.722228
 20
1.531315
  0
SEQEND
  8
0
  0
POLYLINE
  8
PLAN_1
 62
     5
  6
CONTINUOUS
 66
     1
 40
0.003000
 41
0.003000
  0
VERTEX
  8
PLAN_1
 62
     5
  6
CONTINUOUS
 10
-1.713752
 20
1.531315
  0
VERTEX
  8
PLAN_1
 62
     5
  6
CONTINUOUS
 10
-1.705701
 20
1.531315
  0
SEQEND
  8
0
  0
POLYLINE
  8
PLAN_1
 62
     5
  6
CONTINUOUS
 66
     1
 40
0.003000
 41
0.003000
  0
VERTEX
  8
PLAN_1
 62
     5
  6
CONTINUOUS
 10
-1.697224
 20
1.531315
  0
VERTEX
  8
PLAN_1
 62
     5
  6
CONTINUOUS
 10
-1.688752
 20
1.531315
  0
SEQEND
  8
0
  0
POLYLINE
  8
PLAN_1
 62
     5
  6
CONTINUOUS
 66
     1
 40
0.003000
 41
0.003000
  0
VERTEX
  8
PLAN_1
 62
     5
  6
CONTINUOUS
 10
-1.680701
 20
1.531315
  0
VERTEX
  8
PLAN_1
 62
     5
  6
CONTINUOUS
 10
-1.672224
 20
1.531315
  0
SEQEND
  8
0
  0
POLYLINE
  8
PLAN_1
 62
     5
  6
CONTINUOUS
 66
     1
 40
0.003000
 41
0.003000
  0
VERTEX
  8
PLAN_1
 62
     5
  6
CONTINUOUS
 10
-1.663752
 20
1.531315
  0
VERTEX
  8
PLAN_1
 62
     5
  6
CONTINUOUS
 10
-1.655697
 20
1.531315
  0
SEQEND
  8
0
  0
POLYLINE
  8
PLAN_1
 62
     5
  6
CONTINUOUS
 66
     1
 40
0.003000
 41
0.003000
  0
VERTEX
  8
PLAN_1
 62
     5
  6
CONTINUOUS
 10
-1.647224
 20
1.531315
  0
VERTEX
  8
PLAN_1
 62
     5
  6
CONTINUOUS
 10
-1.638748
 20
1.531315
  0
SEQEND
  8
0
  0
POLYLINE
  8
PLAN_1
 62
     5
  6
CONTINUOUS
 66
     1
 40
0.003000
 41
0.003000
  0
VERTEX
  8
PLAN_1
 62
     5
  6
CONTINUOUS
 10
-1.630697
 20
1.531315
  0
VERTEX
  8
PLAN_1
 62
     5
  6
CONTINUOUS
 10
-1.622224
 20
1.531315
  0
SEQEND
  8
0
  0
POLYLINE
  8
PLAN_1
 62
     5
  6
CONTINUOUS
 66
     1
 40
0.003000
 41
0.003000
  0
VERTEX
  8
PLAN_1
 62
     5
  6
CONTINUOUS
 10
-1.614169
 20
1.531315
  0
VERTEX
  8
PLAN_1
 62
     5
  6
CONTINUOUS
 10
-1.605697
 20
1.531315
  0
SEQEND
  8
0
  0
POLYLINE
  8
PLAN_1
 62
     5
  6
CONTINUOUS
 66
     1
 40
0.003000
 41
0.003000
  0
VERTEX
  8
PLAN_1
 62
     5
  6
CONTINUOUS
 10
-1.597220
 20
1.531315
  0
VERTEX
  8
PLAN_1
 62
     5
  6
CONTINUOUS
 10
-1.589169
 20
1.531315
  0
SEQEND
  8
0
  0
POLYLINE
  8
PLAN_1
 62
     5
  6
CONTINUOUS
 66
     1
 40
0.003000
 41
0.003000
  0
VERTEX
  8
PLAN_1
 62
     5
  6
CONTINUOUS
 10
-1.580697
 20
1.531315
  0
VERTEX
  8
PLAN_1
 62
     5
  6
CONTINUOUS
 10
-1.572220
 20
1.531315
  0
SEQEND
  8
0
  0
POLYLINE
  8
PLAN_1
 62
     5
  6
CONTINUOUS
 66
     1
 40
0.003000
 41
0.003000
  0
VERTEX
  8
PLAN_1
 62
     5
  6
CONTINUOUS
 10
-1.564169
 20
1.531315
  0
VERTEX
  8
PLAN_1
 62
     5
  6
CONTINUOUS
 10
-1.555693
 20
1.531315
  0
SEQEND
  8
0
  0
POLYLINE
  8
PLAN_1
 62
     5
  6
CONTINUOUS
 66
     1
 40
0.003000
 41
0.003000
  0
VERTEX
  8
PLAN_1
 62
     5
  6
CONTINUOUS
 10
-1.547220
 20
1.531315
  0
VERTEX
  8
PLAN_1
 62
     5
  6
CONTINUOUS
 10
-1.539169
 20
1.531315
  0
SEQEND
  8
0
  0
POLYLINE
  8
PLAN_1
 62
     5
  6
CONTINUOUS
 66
     1
 40
0.003000
 41
0.003000
  0
VERTEX
  8
PLAN_1
 62
     5
  6
CONTINUOUS
 10
-1.530693
 20
1.531315
  0
VERTEX
  8
PLAN_1
 62
     5
  6
CONTINUOUS
 10
-1.522217
 20
1.531315
  0
SEQEND
  8
0
  0
POLYLINE
  8
PLAN_1
 62
     5
  6
CONTINUOUS
 66
     1
 40
0.003000
 41
0.003000
  0
VERTEX
  8
PLAN_1
 62
     5
  6
CONTINUOUS
 10
-1.514165
 20
1.531315
  0
VERTEX
  8
PLAN_1
 62
     5
  6
CONTINUOUS
 10
-1.505693
 20
1.531315
  0
SEQEND
  8
0
  0
POLYLINE
  8
PLAN_1
 62
     5
  6
CONTINUOUS
 66
     1
 40
0.003000
 41
0.003000
  0
VERTEX
  8
PLAN_1
 62
     5
  6
CONTINUOUS
 10
-1.497217
 20
1.531315
  0
VERTEX
  8
PLAN_1
 62
     5
  6
CONTINUOUS
 10
-1.489165
 20
1.531315
  0
SEQEND
  8
0
  0
POLYLINE
  8
PLAN_1
 62
     5
  6
CONTINUOUS
 66
     1
 40
0.003000
 41
0.003000
  0
VERTEX
  8
PLAN_1
 62
     5
  6
CONTINUOUS
 10
-1.480689
 20
1.531315
  0
VERTEX
  8
PLAN_1
 62
     5
  6
CONTINUOUS
 10
-1.472217
 20
1.531315
  0
SEQEND
  8
0
  0
POLYLINE
  8
PLAN_1
 62
     5
  6
CONTINUOUS
 66
     1
 40
0.003000
 41
0.003000
  0
VERTEX
  8
PLAN_1
 62
     5
  6
CONTINUOUS
 10
-1.464165
 20
1.531315
  0
VERTEX
  8
PLAN_1
 62
     5
  6
CONTINUOUS
 10
-1.455689
 20
1.531315
  0
SEQEND
  8
0
  0
POLYLINE
  8
PLAN_1
 62
     5
  6
CONTINUOUS
 66
     1
 40
0.003000
 41
0.003000
  0
VERTEX
  8
PLAN_1
 62
     5
  6
CONTINUOUS
 10
-1.447213
 20
1.531315
  0
VERTEX
  8
PLAN_1
 62
     5
  6
CONTINUOUS
 10
-1.439161
 20
1.531315
  0
SEQEND
  8
0
  0
POLYLINE
  8
PLAN_1
 62
     5
  6
CONTINUOUS
 66
     1
 40
0.003000
 41
0.003000
  0
VERTEX
  8
PLAN_1
 62
     5
  6
CONTINUOUS
 10
-1.430689
 20
1.531315
  0
VERTEX
  8
PLAN_1
 62
     5
  6
CONTINUOUS
 10
-1.422213
 20
1.531315
  0
SEQEND
  8
0
  0
POLYLINE
  8
PLAN_1
 62
     5
  6
CONTINUOUS
 66
     1
 40
0.003000
 41
0.003000
  0
VERTEX
  8
PLAN_1
 62
     5
  6
CONTINUOUS
 10
-1.414161
 20
1.531315
  0
VERTEX
  8
PLAN_1
 62
     5
  6
CONTINUOUS
 10
-1.405685
 20
1.531315
  0
SEQEND
  8
0
  0
POLYLINE
  8
PLAN_1
 62
     5
  6
CONTINUOUS
 66
     1
 40
0.003000
 41
0.003000
  0
VERTEX
  8
PLAN_1
 62
     5
  6
CONTINUOUS
 10
-1.397213
 20
1.531315
  0
VERTEX
  8
PLAN_1
 62
     5
  6
CONTINUOUS
 10
-1.389161
 20
1.531315
  0
SEQEND
  8
0
  0
POLYLINE
  8
PLAN_1
 62
     5
  6
CONTINUOUS
 66
     1
 40
0.003000
 41
0.003000
  0
VERTEX
  8
PLAN_1
 62
     5
  6
CONTINUOUS
 10
-1.380685
 20
1.531315
  0
VERTEX
  8
PLAN_1
 62
     5
  6
CONTINUOUS
 10
-1.372209
 20
1.531315
  0
SEQEND
  8
0
  0
POLYLINE
  8
PLAN_1
 62
     5
  6
CONTINUOUS
 66
     1
 40
0.003000
 41
0.003000
  0
VERTEX
  8
PLAN_1
 62
     5
  6
CONTINUOUS
 10
-1.364157
 20
1.531315
  0
VERTEX
  8
PLAN_1
 62
     5
  6
CONTINUOUS
 10
-1.355685
 20
1.531315
  0
SEQEND
  8
0
  0
POLYLINE
  8
PLAN_1
 62
     5
  6
CONTINUOUS
 66
     1
 40
0.003000
 41
0.003000
  0
VERTEX
  8
PLAN_1
 62
     5
  6
CONTINUOUS
 10
-1.347634
 20
1.531315
  0
VERTEX
  8
PLAN_1
 62
     5
  6
CONTINUOUS
 10
-1.342122
 20
1.531315
  0
SEQEND
  8
0
  0
POLYLINE
  8
PLAN_1
 62
     5
  6
CONTINUOUS
 66
     1
 40
0.003000
 41
0.003000
  0
VERTEX
  8
PLAN_1
 62
     5
  6
CONTINUOUS
 10
-1.347634
 20
1.531315
  0
VERTEX
  8
PLAN_1
 62
     5
  6
CONTINUOUS
 10
-1.342122
 20
1.531315
  0
SEQEND
  8
0
  0
POLYLINE
  8
PLAN_1
 62
     5
  6
CONTINUOUS
 66
     1
 40
0.003000
 41
0.003000
  0
VERTEX
  8
PLAN_1
 62
     5
  6
CONTINUOUS
 10
-1.224323
 20
1.531315
  0
VERTEX
  8
PLAN_1
 62
     5
  6
CONTINUOUS
 10
-1.215846
 20
1.531315
  0
SEQEND
  8
0
  0
POLYLINE
  8
PLAN_1
 62
     5
  6
CONTINUOUS
 66
     1
 40
0.003000
 41
0.003000
  0
VERTEX
  8
PLAN_1
 62
     5
  6
CONTINUOUS
 10
-1.207795
 20
1.531315
  0
VERTEX
  8
PLAN_1
 62
     5
  6
CONTINUOUS
 10
-1.199319
 20
1.531315
  0
SEQEND
  8
0
  0
POLYLINE
  8
PLAN_1
 62
     5
  6
CONTINUOUS
 66
     1
 40
0.003000
 41
0.003000
  0
VERTEX
  8
PLAN_1
 62
     5
  6
CONTINUOUS
 10
-1.190846
 20
1.531315
  0
VERTEX
  8
PLAN_1
 62
     5
  6
CONTINUOUS
 10
-1.182795
 20
1.531315
  0
SEQEND
  8
0
  0
POLYLINE
  8
PLAN_1
 62
     5
  6
CONTINUOUS
 66
     1
 40
0.003000
 41
0.003000
  0
VERTEX
  8
PLAN_1
 62
     5
  6
CONTINUOUS
 10
-1.174319
 20
1.531315
  0
VERTEX
  8
PLAN_1
 62
     5
  6
CONTINUOUS
 10
-1.165843
 20
1.531315
  0
SEQEND
  8
0
  0
POLYLINE
  8
PLAN_1
 62
     5
  6
CONTINUOUS
 66
     1
 40
0.003000
 41
0.003000
  0
VERTEX
  8
PLAN_1
 62
     5
  6
CONTINUOUS
 10
-1.157791
 20
1.531315
  0
VERTEX
  8
PLAN_1
 62
     5
  6
CONTINUOUS
 10
-1.149319
 20
1.531315
  0
SEQEND
  8
0
  0
POLYLINE
  8
PLAN_1
 62
     5
  6
CONTINUOUS
 66
     1
 40
0.003000
 41
0.003000
  0
VERTEX
  8
PLAN_1
 62
     5
  6
CONTINUOUS
 10
-1.140843
 20
1.531315
  0
VERTEX
  8
PLAN_1
 62
     5
  6
CONTINUOUS
 10
-1.132791
 20
1.531315
  0
SEQEND
  8
0
  0
POLYLINE
  8
PLAN_1
 62
     5
  6
CONTINUOUS
 66
     1
 40
0.003000
 41
0.003000
  0
VERTEX
  8
PLAN_1
 62
     5
  6
CONTINUOUS
 10
-1.124315
 20
1.531315
  0
VERTEX
  8
PLAN_1
 62
     5
  6
CONTINUOUS
 10
-1.115843
 20
1.531315
  0
SEQEND
  8
0
  0
POLYLINE
  8
PLAN_1
 62
     5
  6
CONTINUOUS
 66
     1
 40
0.003000
 41
0.003000
  0
VERTEX
  8
PLAN_1
 62
     5
  6
CONTINUOUS
 10
-1.107791
 20
1.531315
  0
VERTEX
  8
PLAN_1
 62
     5
  6
CONTINUOUS
 10
-1.105248
 20
1.531315
  0
SEQEND
  8
0
  0
POLYLINE
  8
PLAN_1
 62
     5
  6
CONTINUOUS
 66
     1
 40
0.003000
 41
0.003000
  0
VERTEX
  8
PLAN_1
 62
     5
  6
CONTINUOUS
 10
-1.107791
 20
1.531315
  0
VERTEX
  8
PLAN_1
 62
     5
  6
CONTINUOUS
 10
-1.105248
 20
1.531315
  0
SEQEND
  8
0
  0
POLYLINE
  8
PLAN_1
 62
     5
  6
CONTINUOUS
 66
     1
 40
0.003000
 41
0.003000
  0
VERTEX
  8
PLAN_1
 62
     5
  6
CONTINUOUS
 10
-1.105248
 20
1.531315
  0
VERTEX
  8
PLAN_1
 62
     5
  6
CONTINUOUS
 10
-1.101012
 20
1.530890
  0
VERTEX
  8
PLAN_1
 62
     5
  6
CONTINUOUS
 10
-1.097197
 20
1.530043
  0
VERTEX
  8
PLAN_1
 62
     5
  6
CONTINUOUS
 10
-1.097197
 20
1.529618
  0
SEQEND
  8
0
  0
POLYLINE
  8
PLAN_1
 62
     5
  6
CONTINUOUS
 66
     1
 40
0.003000
 41
0.003000
  0
VERTEX
  8
PLAN_1
 62
     5
  6
CONTINUOUS
 10
-1.090417
 20
1.524957
  0
VERTEX
  8
PLAN_1
 62
     5
  6
CONTINUOUS
 10
-1.088299
 20
1.522413
  0
VERTEX
  8
PLAN_1
 62
     5
  6
CONTINUOUS
 10
-1.086177
 20
1.519024
  0
VERTEX
  8
PLAN_1
 62
     5
  6
CONTINUOUS
 10
-1.085756
 20
1.518177
  0
SEQEND
  8
0
  0
POLYLINE
  8
PLAN_1
 62
     5
  6
CONTINUOUS
 66
     1
 40
0.003000
 41
0.003000
  0
VERTEX
  8
PLAN_1
 62
     5
  6
CONTINUOUS
 10
-1.084059
 20
1.511398
  0
VERTEX
  8
PLAN_1
 62
     5
  6
CONTINUOUS
 10
-1.084059
 20
1.502921
  0
SEQEND
  8
0
  0
POLYLINE
  8
PLAN_1
 62
     5
  6
CONTINUOUS
 66
     1
 40
0.003000
 41
0.003000
  0
VERTEX
  8
PLAN_1
 62
     5
  6
CONTINUOUS
 10
-1.084059
 20
1.494870
  0
VERTEX
  8
PLAN_1
 62
     5
  6
CONTINUOUS
 10
-1.084059
 20
1.486398
  0
SEQEND
  8
0
  0
POLYLINE
  8
PLAN_1
 62
     5
  6
CONTINUOUS
 66
     1
 40
0.003000
 41
0.003000
  0
VERTEX
  8
PLAN_1
 62
     5
  6
CONTINUOUS
 10
-1.084059
 20
1.477921
  0
VERTEX
  8
PLAN_1
 62
     5
  6
CONTINUOUS
 10
-1.084059
 20
1.469870
  0
SEQEND
  8
0
  0
POLYLINE
  8
PLAN_1
 62
     5
  6
CONTINUOUS
 66
     1
 40
0.003000
 41
0.003000
  0
VERTEX
  8
PLAN_1
 62
     5
  6
CONTINUOUS
 10
-1.084059
 20
1.461394
  0
VERTEX
  8
PLAN_1
 62
     5
  6
CONTINUOUS
 10
-1.084059
 20
1.452921
  0
SEQEND
  8
0
  0
POLYLINE
  8
PLAN_1
 62
     5
  6
CONTINUOUS
 66
     1
 40
0.003000
 41
0.003000
  0
VERTEX
  8
PLAN_1
 62
     5
  6
CONTINUOUS
 10
-1.084059
 20
1.444870
  0
VERTEX
  8
PLAN_1
 62
     5
  6
CONTINUOUS
 10
-1.084059
 20
1.436394
  0
SEQEND
  8
0
  0
POLYLINE
  8
PLAN_1
 62
     5
  6
CONTINUOUS
 66
     1
 40
0.003000
 41
0.003000
  0
VERTEX
  8
PLAN_1
 62
     5
  6
CONTINUOUS
 10
-1.084059
 20
1.427917
  0
VERTEX
  8
PLAN_1
 62
     5
  6
CONTINUOUS
 10
-1.084059
 20
1.419866
  0
SEQEND
  8
0
  0
POLYLINE
  8
PLAN_1
 62
     5
  6
CONTINUOUS
 66
     1
 40
0.003000
 41
0.003000
  0
VERTEX
  8
PLAN_1
 62
     5
  6
CONTINUOUS
 10
-1.084059
 20
1.411394
  0
VERTEX
  8
PLAN_1
 62
     5
  6
CONTINUOUS
 10
-1.084059
 20
1.402917
  0
SEQEND
  8
0
  0
POLYLINE
  8
PLAN_1
 62
     5
  6
CONTINUOUS
 66
     1
 40
0.003000
 41
0.003000
  0
VERTEX
  8
PLAN_1
 62
     5
  6
CONTINUOUS
 10
-1.084059
 20
1.394866
  0
VERTEX
  8
PLAN_1
 62
     5
  6
CONTINUOUS
 10
-1.084059
 20
1.386390
  0
SEQEND
  8
0
  0
POLYLINE
  8
PLAN_1
 62
     5
  6
CONTINUOUS
 66
     1
 40
0.003000
 41
0.003000
  0
VERTEX
  8
PLAN_1
 62
     5
  6
CONTINUOUS
 10
-1.084059
 20
1.378339
  0
VERTEX
  8
PLAN_1
 62
     5
  6
CONTINUOUS
 10
-1.084059
 20
1.369866
  0
SEQEND
  8
0
  0
POLYLINE
  8
PLAN_1
 62
     5
  6
CONTINUOUS
 66
     1
 40
0.003000
 41
0.003000
  0
VERTEX
  8
PLAN_1
 62
     5
  6
CONTINUOUS
 10
-1.084059
 20
1.361390
  0
VERTEX
  8
PLAN_1
 62
     5
  6
CONTINUOUS
 10
-1.084059
 20
1.353339
  0
SEQEND
  8
0
  0
POLYLINE
  8
PLAN_1
 62
     5
  6
CONTINUOUS
 66
     1
 40
0.003000
 41
0.003000
  0
VERTEX
  8
PLAN_1
 62
     5
  6
CONTINUOUS
 10
-1.084059
 20
1.344862
  0
VERTEX
  8
PLAN_1
 62
     5
  6
CONTINUOUS
 10
-1.084059
 20
1.336390
  0
SEQEND
  8
0
  0
POLYLINE
  8
PLAN_1
 62
     5
  6
CONTINUOUS
 66
     1
 40
0.003000
 41
0.003000
  0
VERTEX
  8
PLAN_1
 62
     5
  6
CONTINUOUS
 10
-1.084059
 20
1.328339
  0
VERTEX
  8
PLAN_1
 62
     5
  6
CONTINUOUS
 10
-1.084059
 20
1.319862
  0
SEQEND
  8
0
  0
POLYLINE
  8
PLAN_1
 62
     5
  6
CONTINUOUS
 66
     1
 40
0.003000
 41
0.003000
  0
VERTEX
  8
PLAN_1
 62
     5
  6
CONTINUOUS
 10
-1.084059
 20
1.311386
  0
VERTEX
  8
PLAN_1
 62
     5
  6
CONTINUOUS
 10
-1.084059
 20
1.303335
  0
SEQEND
  8
0
  0
POLYLINE
  8
PLAN_1
 62
     5
  6
CONTINUOUS
 66
     1
 40
0.003000
 41
0.003000
  0
VERTEX
  8
PLAN_1
 62
     5
  6
CONTINUOUS
 10
-1.084059
 20
1.294862
  0
VERTEX
  8
PLAN_1
 62
     5
  6
CONTINUOUS
 10
-1.084059
 20
1.286386
  0
SEQEND
  8
0
  0
POLYLINE
  8
PLAN_1
 62
     5
  6
CONTINUOUS
 66
     1
 40
0.003000
 41
0.003000
  0
VERTEX
  8
PLAN_1
 62
     5
  6
CONTINUOUS
 10
-1.084059
 20
1.278335
  0
VERTEX
  8
PLAN_1
 62
     5
  6
CONTINUOUS
 10
-1.084059
 20
1.269858
  0
SEQEND
  8
0
  0
POLYLINE
  8
PLAN_1
 62
     5
  6
CONTINUOUS
 66
     1
 40
0.003000
 41
0.003000
  0
VERTEX
  8
PLAN_1
 62
     5
  6
CONTINUOUS
 10
-1.084059
 20
1.261386
  0
VERTEX
  8
PLAN_1
 62
     5
  6
CONTINUOUS
 10
-1.084059
 20
1.253335
  0
SEQEND
  8
0
  0
POLYLINE
  8
PLAN_1
 62
     5
  6
CONTINUOUS
 66
     1
 40
0.003000
 41
0.003000
  0
VERTEX
  8
PLAN_1
 62
     5
  6
CONTINUOUS
 10
-1.084059
 20
1.244858
  0
VERTEX
  8
PLAN_1
 62
     5
  6
CONTINUOUS
 10
-1.084059
 20
1.236382
  0
SEQEND
  8
0
  0
POLYLINE
  8
PLAN_1
 62
     5
  6
CONTINUOUS
 66
     1
 40
0.003000
 41
0.003000
  0
VERTEX
  8
PLAN_1
 62
     5
  6
CONTINUOUS
 10
-1.084059
 20
1.228331
  0
VERTEX
  8
PLAN_1
 62
     5
  6
CONTINUOUS
 10
-1.084059
 20
1.219858
  0
SEQEND
  8
0
  0
POLYLINE
  8
PLAN_1
 62
     5
  6
CONTINUOUS
 66
     1
 40
0.003000
 41
0.003000
  0
VERTEX
  8
PLAN_1
 62
     5
  6
CONTINUOUS
 10
-1.084059
 20
1.211382
  0
VERTEX
  8
PLAN_1
 62
     5
  6
CONTINUOUS
 10
-1.084059
 20
1.203331
  0
SEQEND
  8
0
  0
POLYLINE
  8
PLAN_1
 62
     5
  6
CONTINUOUS
 66
     1
 40
0.003000
 41
0.003000
  0
VERTEX
  8
PLAN_1
 62
     5
  6
CONTINUOUS
 10
-1.084059
 20
1.194854
  0
VERTEX
  8
PLAN_1
 62
     5
  6
CONTINUOUS
 10
-1.084059
 20
1.186382
  0
SEQEND
  8
0
  0
POLYLINE
  8
PLAN_1
 62
     5
  6
CONTINUOUS
 66
     1
 40
0.003000
 41
0.003000
  0
VERTEX
  8
PLAN_1
 62
     5
  6
CONTINUOUS
 10
-1.084059
 20
1.178331
  0
VERTEX
  8
PLAN_1
 62
     5
  6
CONTINUOUS
 10
-1.084059
 20
1.169854
  0
SEQEND
  8
0
  0
POLYLINE
  8
PLAN_1
 62
     5
  6
CONTINUOUS
 66
     1
 40
0.003000
 41
0.003000
  0
VERTEX
  8
PLAN_1
 62
     5
  6
CONTINUOUS
 10
-1.084059
 20
1.161382
  0
VERTEX
  8
PLAN_1
 62
     5
  6
CONTINUOUS
 10
-1.084059
 20
1.153331
  0
SEQEND
  8
0
  0
POLYLINE
  8
PLAN_1
 62
     5
  6
CONTINUOUS
 66
     1
 40
0.003000
 41
0.003000
  0
VERTEX
  8
PLAN_1
 62
     5
  6
CONTINUOUS
 10
-1.084059
 20
1.144854
  0
VERTEX
  8
PLAN_1
 62
     5
  6
CONTINUOUS
 10
-1.084059
 20
1.137650
  0
SEQEND
  8
0
  0
POLYLINE
  8
PLAN_1
 62
     5
  6
CONTINUOUS
 66
     1
 40
0.003000
 41
0.003000
  0
VERTEX
  8
PLAN_1
 62
     5
  6
CONTINUOUS
 10
-1.084059
 20
1.144854
  0
VERTEX
  8
PLAN_1
 62
     5
  6
CONTINUOUS
 10
-1.084059
 20
1.137650
  0
SEQEND
  8
0
  0
POLYLINE
  8
PLAN_1
 62
     5
  6
CONTINUOUS
 66
     1
 40
0.003000
 41
0.003000
  0
VERTEX
  8
PLAN_1
 62
     5
  6
CONTINUOUS
 10
-1.216272
 20
1.392748
  0
VERTEX
  8
PLAN_1
 62
     5
  6
CONTINUOUS
 10
-1.207795
 20
1.392748
  0
SEQEND
  8
0
  0
POLYLINE
  8
PLAN_1
 62
     5
  6
CONTINUOUS
 66
     1
 40
0.003000
 41
0.003000
  0
VERTEX
  8
PLAN_1
 62
     5
  6
CONTINUOUS
 10
-1.199744
 20
1.392748
  0
VERTEX
  8
PLAN_1
 62
     5
  6
CONTINUOUS
 10
-1.191268
 20
1.392748
  0
SEQEND
  8
0
  0
POLYLINE
  8
PLAN_1
 62
     5
  6
CONTINUOUS
 66
     1
 40
0.003000
 41
0.003000
  0
VERTEX
  8
PLAN_1
 62
     5
  6
CONTINUOUS
 10
-1.182795
 20
1.392748
  0
VERTEX
  8
PLAN_1
 62
     5
  6
CONTINUOUS
 10
-1.174744
 20
1.392748
  0
SEQEND
  8
0
  0
POLYLINE
  8
PLAN_1
 62
     5
  6
CONTINUOUS
 66
     1
 40
0.003000
 41
0.003000
  0
VERTEX
  8
PLAN_1
 62
     5
  6
CONTINUOUS
 10
-1.166268
 20
1.392748
  0
VERTEX
  8
PLAN_1
 62
     5
  6
CONTINUOUS
 10
-1.157791
 20
1.392748
  0
SEQEND
  8
0
  0
POLYLINE
  8
PLAN_1
 62
     5
  6
CONTINUOUS
 66
     1
 40
0.003000
 41
0.003000
  0
VERTEX
  8
PLAN_1
 62
     5
  6
CONTINUOUS
 10
-1.149740
 20
1.392748
  0
VERTEX
  8
PLAN_1
 62
     5
  6
CONTINUOUS
 10
-1.141268
 20
1.392748
  0
SEQEND
  8
0
  0
POLYLINE
  8
PLAN_1
 62
     5
  6
CONTINUOUS
 66
     1
 40
0.003000
 41
0.003000
  0
VERTEX
  8
PLAN_1
 62
     5
  6
CONTINUOUS
 10
-1.132791
 20
1.392748
  0
VERTEX
  8
PLAN_1
 62
     5
  6
CONTINUOUS
 10
-1.124740
 20
1.392748
  0
SEQEND
  8
0
  0
POLYLINE
  8
PLAN_1
 62
     5
  6
CONTINUOUS
 66
     1
 40
0.003000
 41
0.003000
  0
VERTEX
  8
PLAN_1
 62
     5
  6
CONTINUOUS
 10
-1.180252
 20
1.325795
  0
VERTEX
  8
PLAN_1
 62
     5
  6
CONTINUOUS
 10
-1.180252
 20
1.334272
  0
SEQEND
  8
0
  0
POLYLINE
  8
PLAN_1
 62
     5
  6
CONTINUOUS
 66
     1
 40
0.003000
 41
0.003000
  0
VERTEX
  8
PLAN_1
 62
     5
  6
CONTINUOUS
 10
-1.180252
 20
1.342744
  0
VERTEX
  8
PLAN_1
 62
     5
  6
CONTINUOUS
 10
-1.180252
 20
1.350795
  0
SEQEND
  8
0
  0
POLYLINE
  8
PLAN_1
 62
     5
  6
CONTINUOUS
 66
     1
 40
0.003000
 41
0.003000
  0
VERTEX
  8
PLAN_1
 62
     5
  6
CONTINUOUS
 10
-1.180252
 20
1.359272
  0
VERTEX
  8
PLAN_1
 62
     5
  6
CONTINUOUS
 10
-1.180252
 20
1.367748
  0
SEQEND
  8
0
  0
POLYLINE
  8
PLAN_1
 62
     5
  6
CONTINUOUS
 66
     1
 40
0.003000
 41
0.003000
  0
VERTEX
  8
PLAN_1
 62
     5
  6
CONTINUOUS
 10
-1.180252
 20
1.375799
  0
VERTEX
  8
PLAN_1
 62
     5
  6
CONTINUOUS
 10
-1.180252
 20
1.384272
  0
SEQEND
  8
0
  0
POLYLINE
  8
PLAN_1
 62
     5
  6
CONTINUOUS
 66
     1
 40
0.003000
 41
0.003000
  0
VERTEX
  8
PLAN_1
 62
     5
  6
CONTINUOUS
 10
-1.180252
 20
1.392323
  0
VERTEX
  8
PLAN_1
 62
     5
  6
CONTINUOUS
 10
-1.180252
 20
1.400799
  0
SEQEND
  8
0
  0
POLYLINE
  8
PLAN_1
 62
     5
  6
CONTINUOUS
 66
     1
 40
0.003000
 41
0.003000
  0
VERTEX
  8
PLAN_1
 62
     5
  6
CONTINUOUS
 10
-1.180252
 20
1.409276
  0
VERTEX
  8
PLAN_1
 62
     5
  6
CONTINUOUS
 10
-1.180252
 20
1.417327
  0
SEQEND
  8
0
  0
POLYLINE
  8
PLAN_1
 62
     5
  6
CONTINUOUS
 66
     1
 40
0.003000
 41
0.003000
  0
VERTEX
  8
PLAN_1
 62
     5
  6
CONTINUOUS
 10
-1.180252
 20
1.425799
  0
VERTEX
  8
PLAN_1
 62
     5
  6
CONTINUOUS
 10
-1.180252
 20
1.434276
  0
SEQEND
  8
0
  0
POLYLINE
  8
PLAN_1
 62
     5
  6
CONTINUOUS
 66
     1
 40
0.003000
 41
0.003000
  0
VERTEX
  8
PLAN_1
 62
     5
  6
CONTINUOUS
 10
-1.180252
 20
1.442327
  0
VERTEX
  8
PLAN_1
 62
     5
  6
CONTINUOUS
 10
-1.180252
 20
1.450803
  0
SEQEND
  8
0
  0
POLYLINE
  8
PLAN_1
 62
     5
  6
CONTINUOUS
 66
     1
 40
0.003000
 41
0.003000
  0
VERTEX
  8
PLAN_1
 62
     5
  6
CONTINUOUS
 10
-1.180252
 20
1.459276
  0
VERTEX
  8
PLAN_1
 62
     5
  6
CONTINUOUS
 10
-1.180252
 20
1.463091
  0
SEQEND
  8
0
  0
POLYLINE
  8
PLAN_1
 62
     5
  6
CONTINUOUS
 66
     1
 40
0.003000
 41
0.003000
  0
VERTEX
  8
PLAN_1
 62
     5
  6
CONTINUOUS
 10
-1.180252
 20
1.459276
  0
VERTEX
  8
PLAN_1
 62
     5
  6
CONTINUOUS
 10
-1.180252
 20
1.463091
  0
SEQEND
  8
0
  0
POLYLINE
  8
PLAN_1
 62
     5
  6
CONTINUOUS
 66
     1
 40
0.003000
 41
0.003000
  0
VERTEX
  8
PLAN_1
 62
     5
  6
CONTINUOUS
 10
-1.894272
 20
1.392748
  0
VERTEX
  8
PLAN_1
 62
     5
  6
CONTINUOUS
 10
-1.885795
 20
1.392748
  0
SEQEND
  8
0
  0
POLYLINE
  8
PLAN_1
 62
     5
  6
CONTINUOUS
 66
     1
 40
0.003000
 41
0.003000
  0
VERTEX
  8
PLAN_1
 62
     5
  6
CONTINUOUS
 10
-1.877319
 20
1.392748
  0
VERTEX
  8
PLAN_1
 62
     5
  6
CONTINUOUS
 10
-1.869268
 20
1.392748
  0
SEQEND
  8
0
  0
POLYLINE
  8
PLAN_1
 62
     5
  6
CONTINUOUS
 66
     1
 40
0.003000
 41
0.003000
  0
VERTEX
  8
PLAN_1
 62
     5
  6
CONTINUOUS
 10
-1.860795
 20
1.392748
  0
VERTEX
  8
PLAN_1
 62
     5
  6
CONTINUOUS
 10
-1.852319
 20
1.392748
  0
SEQEND
  8
0
  0
POLYLINE
  8
PLAN_1
 62
     5
  6
CONTINUOUS
 66
     1
 40
0.003000
 41
0.003000
  0
VERTEX
  8
PLAN_1
 62
     5
  6
CONTINUOUS
 10
-1.844268
 20
1.392748
  0
VERTEX
  8
PLAN_1
 62
     5
  6
CONTINUOUS
 10
-1.835791
 20
1.392748
  0
SEQEND
  8
0
  0
POLYLINE
  8
PLAN_1
 62
     5
  6
CONTINUOUS
 66
     1
 40
0.003000
 41
0.003000
  0
VERTEX
  8
PLAN_1
 62
     5
  6
CONTINUOUS
 10
-1.827319
 20
1.392748
  0
VERTEX
  8
PLAN_1
 62
     5
  6
CONTINUOUS
 10
-1.819268
 20
1.392748
  0
SEQEND
  8
0
  0
POLYLINE
  8
PLAN_1
 62
     5
  6
CONTINUOUS
 66
     1
 40
0.003000
 41
0.003000
  0
VERTEX
  8
PLAN_1
 62
     5
  6
CONTINUOUS
 10
-1.810791
 20
1.392748
  0
VERTEX
  8
PLAN_1
 62
     5
  6
CONTINUOUS
 10
-1.802315
 20
1.392748
  0
SEQEND
  8
0
  0
POLYLINE
  8
PLAN_1
 62
     5
  6
CONTINUOUS
 66
     1
 40
0.003000
 41
0.003000
  0
VERTEX
  8
PLAN_1
 62
     5
  6
CONTINUOUS
 10
-1.794264
 20
1.392748
  0
VERTEX
  8
PLAN_1
 62
     5
  6
CONTINUOUS
 10
-1.785791
 20
1.392748
  0
SEQEND
  8
0
  0
POLYLINE
  8
PLAN_1
 62
     5
  6
CONTINUOUS
 66
     1
 40
0.003000
 41
0.003000
  0
VERTEX
  8
PLAN_1
 62
     5
  6
CONTINUOUS
 10
-1.777315
 20
1.392748
  0
VERTEX
  8
PLAN_1
 62
     5
  6
CONTINUOUS
 10
-1.769264
 20
1.392748
  0
SEQEND
  8
0
  0
POLYLINE
  8
PLAN_1
 62
     5
  6
CONTINUOUS
 66
     1
 40
0.003000
 41
0.003000
  0
VERTEX
  8
PLAN_1
 62
     5
  6
CONTINUOUS
 10
-1.760787
 20
1.392748
  0
VERTEX
  8
PLAN_1
 62
     5
  6
CONTINUOUS
 10
-1.752315
 20
1.392748
  0
SEQEND
  8
0
  0
POLYLINE
  8
PLAN_1
 62
     5
  6
CONTINUOUS
 66
     1
 40
0.003000
 41
0.003000
  0
VERTEX
  8
PLAN_1
 62
     5
  6
CONTINUOUS
 10
-1.823929
 20
1.318169
  0
VERTEX
  8
PLAN_1
 62
     5
  6
CONTINUOUS
 10
-1.823929
 20
1.326642
  0
SEQEND
  8
0
  0
POLYLINE
  8
PLAN_1
 62
     5
  6
CONTINUOUS
 66
     1
 40
0.003000
 41
0.003000
  0
VERTEX
  8
PLAN_1
 62
     5
  6
CONTINUOUS
 10
-1.823929
 20
1.335118
  0
VERTEX
  8
PLAN_1
 62
     5
  6
CONTINUOUS
 10
-1.823929
 20
1.343169
  0
SEQEND
  8
0
  0
POLYLINE
  8
PLAN_1
 62
     5
  6
CONTINUOUS
 66
     1
 40
0.003000
 41
0.003000
  0
VERTEX
  8
PLAN_1
 62
     5
  6
CONTINUOUS
 10
-1.823929
 20
1.351646
  0
VERTEX
  8
PLAN_1
 62
     5
  6
CONTINUOUS
 10
-1.823929
 20
1.360118
  0
SEQEND
  8
0
  0
POLYLINE
  8
PLAN_1
 62
     5
  6
CONTINUOUS
 66
     1
 40
0.003000
 41
0.003000
  0
VERTEX
  8
PLAN_1
 62
     5
  6
CONTINUOUS
 10
-1.823929
 20
1.368169
  0
VERTEX
  8
PLAN_1
 62
     5
  6
CONTINUOUS
 10
-1.823929
 20
1.376646
  0
SEQEND
  8
0
  0
POLYLINE
  8
PLAN_1
 62
     5
  6
CONTINUOUS
 66
     1
 40
0.003000
 41
0.003000
  0
VERTEX
  8
PLAN_1
 62
     5
  6
CONTINUOUS
 10
-1.823929
 20
1.385118
  0
VERTEX
  8
PLAN_1
 62
     5
  6
CONTINUOUS
 10
-1.823929
 20
1.393169
  0
SEQEND
  8
0
  0
POLYLINE
  8
PLAN_1
 62
     5
  6
CONTINUOUS
 66
     1
 40
0.003000
 41
0.003000
  0
VERTEX
  8
PLAN_1
 62
     5
  6
CONTINUOUS
 10
-1.823929
 20
1.401646
  0
VERTEX
  8
PLAN_1
 62
     5
  6
CONTINUOUS
 10
-1.823929
 20
1.410122
  0
SEQEND
  8
0
  0
POLYLINE
  8
PLAN_1
 62
     5
  6
CONTINUOUS
 66
     1
 40
0.003000
 41
0.003000
  0
VERTEX
  8
PLAN_1
 62
     5
  6
CONTINUOUS
 10
-1.823929
 20
1.418173
  0
VERTEX
  8
PLAN_1
 62
     5
  6
CONTINUOUS
 10
-1.823929
 20
1.426646
  0
SEQEND
  8
0
  0
POLYLINE
  8
PLAN_1
 62
     5
  6
CONTINUOUS
 66
     1
 40
0.003000
 41
0.003000
  0
VERTEX
  8
PLAN_1
 62
     5
  6
CONTINUOUS
 10
-1.823929
 20
1.435122
  0
VERTEX
  8
PLAN_1
 62
     5
  6
CONTINUOUS
 10
-1.823929
 20
1.443173
  0
SEQEND
  8
0
  0
POLYLINE
  8
PLAN_1
 62
     5
  6
CONTINUOUS
 66
     1
 40
0.003000
 41
0.003000
  0
VERTEX
  8
PLAN_1
 62
     5
  6
CONTINUOUS
 10
-1.823929
 20
1.451650
  0
VERTEX
  8
PLAN_1
 62
     5
  6
CONTINUOUS
 10
-1.823929
 20
1.460122
  0
SEQEND
  8
0
  0
POLYLINE
  8
PLAN_1
 62
     5
  6
CONTINUOUS
 66
     1
 40
0.003000
 41
0.003000
  0
VERTEX
  8
PLAN_1
 62
     5
  6
CONTINUOUS
 10
-1.823929
 20
1.468173
  0
VERTEX
  8
PLAN_1
 62
     5
  6
CONTINUOUS
 10
-1.823929
 20
1.476650
  0
SEQEND
  8
0
  0
POLYLINE
  8
PLAN_1
  6
CONTINUOUS
 66
     1
 40
0.008472
 41
0.008472
  0
VERTEX
  8
PLAN_1
  6
CONTINUOUS
 10
-1.845961
 20
1.632165
  0
VERTEX
  8
PLAN_1
  6
CONTINUOUS
 10
-1.673921
 20
1.632165
  0
VERTEX
  8
PLAN_1
  6
CONTINUOUS
 10
-1.673921
 20
1.531315
  0
SEQEND
  8
0
  0
POLYLINE
  8
PLAN_1
  6
CONTINUOUS
 66
     1
 40
0.008472
 41
0.008472
  0
VERTEX
  8
PLAN_1
  6
CONTINUOUS
 10
-1.721382
 20
1.631744
  0
VERTEX
  8
PLAN_1
  6
CONTINUOUS
 10
-1.721382
 20
1.531315
  0
SEQEND
  8
0
  0
POLYLINE
  8
PLAN_1
  6
CONTINUOUS
 66
     1
 40
0.008472
 41
0.008472
  0
VERTEX
  8
PLAN_1
  6
CONTINUOUS
 10
-1.397213
 20
1.313508
  0
VERTEX
  8
PLAN_1
  6
CONTINUOUS
 10
-1.397213
 20
1.338083
  0
VERTEX
  8
PLAN_1
  6
CONTINUOUS
 10
-1.606969
 20
1.338083
  0
VERTEX
  8
PLAN_1
  6
CONTINUOUS
 10
-1.606969
 20
1.313508
  0
VERTEX
  8
PLAN_1
  6
CONTINUOUS
 10
-1.397213
 20
1.313508
  0
SEQEND
  8
0
  0
POLYLINE
  8
PLAN_1
  6
CONTINUOUS
 66
     1
 40
0.008472
 41
0.008472
  0
VERTEX
  8
PLAN_1
  6
CONTINUOUS
 10
-1.224323
 20
2.675437
  0
VERTEX
  8
PLAN_1
  6
CONTINUOUS
 10
-1.224323
 20
3.141988
  0
VERTEX
  8
PLAN_1
  6
CONTINUOUS
 10
-1.342122
 20
3.141988
  0
VERTEX
  8
PLAN_1
  6
CONTINUOUS
 10
-1.342122
 20
2.608063
  0
SEQEND
  8
0
  0
POLYLINE
  8
PLAN_1
  6
CONTINUOUS
 66
     1
 40
0.004236
 41
0.004236
  0
VERTEX
  8
PLAN_1
  6
CONTINUOUS
 10
-1.466283
 20
2.533906
  0
VERTEX
  8
PLAN_1
  6
CONTINUOUS
 10
-1.064992
 20
2.767815
  0
SEQEND
  8
0
  0
POLYLINE
  8
PLAN_1
  6
CONTINUOUS
 66
     1
 40
0.008472
 41
0.008472
  0
VERTEX
  8
PLAN_1
  6
CONTINUOUS
 10
-1.158642
 20
1.631744
  0
VERTEX
  8
PLAN_1
  6
CONTINUOUS
 10
-1.158642
 20
1.531315
  0
VERTEX
  8
PLAN_1
  6
CONTINUOUS
 10
-1.220508
 20
1.531315
  0
SEQEND
  8
0
  0
POLYLINE
  8
PLAN_1
  6
CONTINUOUS
 66
     1
 40
0.008472
 41
0.008472
  0
VERTEX
  8
PLAN_1
  6
CONTINUOUS
 10
-1.224323
 20
2.021169
  0
VERTEX
  8
PLAN_1
  6
CONTINUOUS
 10
-1.158642
 20
2.021169
  0
VERTEX
  8
PLAN_1
  6
CONTINUOUS
 10
-1.158642
 20
1.631744
  0
SEQEND
  8
0
  0
POLYLINE
  8
PLAN_1
  6
CONTINUOUS
 66
     1
 40
0.008472
 41
0.008472
  0
VERTEX
  8
PLAN_1
  6
CONTINUOUS
 10
-1.342122
 20
2.021169
  0
VERTEX
  8
PLAN_1
  6
CONTINUOUS
 10
-1.845961
 20
2.021169
  0
VERTEX
  8
PLAN_1
  6
CONTINUOUS
 10
-1.845961
 20
1.531315
  0
VERTEX
  8
PLAN_1
  6
CONTINUOUS
 10
-1.784094
 20
1.531315
  0
SEQEND
  8
0
  0
POLYLINE
  8
PLAN_1
  6
CONTINUOUS
 66
     1
 40
0.008472
 41
0.008472
  0
VERTEX
  8
PLAN_1
  6
CONTINUOUS
 10
-1.158642
 20
1.631744
  0
VERTEX
  8
PLAN_1
  6
CONTINUOUS
 10
-1.224323
 20
1.631744
  0
SEQEND
  8
0
  0
POLYLINE
  8
PLAN_1
  6
CONTINUOUS
 66
     1
 40
0.008472
 41
0.008472
  0
VERTEX
  8
PLAN_1
  6
CONTINUOUS
 10
-1.158217
 20
1.631744
  0
VERTEX
  8
PLAN_1
  6
CONTINUOUS
 10
-1.158642
 20
1.631744
  0
SEQEND
  8
0
  0
POLYLINE
  8
PLAN_1
  6
CONTINUOUS
 66
     1
 40
0.008472
 41
0.008472
  0
VERTEX
  8
PLAN_1
  6
CONTINUOUS
 10
-1.784094
 20
1.531315
  0
VERTEX
  8
PLAN_1
  6
CONTINUOUS
 10
-1.784094
 20
1.519449
  0
VERTEX
  8
PLAN_1
  6
CONTINUOUS
 10
-1.675193
 20
1.519449
  0
SEQEND
  8
0
  0
POLYLINE
  8
PLAN_1
  6
CONTINUOUS
 66
     1
 40
0.008472
 41
0.008472
  0
VERTEX
  8
PLAN_1
  6
CONTINUOUS
 10
-1.224323
 20
1.519449
  0
VERTEX
  8
PLAN_1
  6
CONTINUOUS
 10
-1.220508
 20
1.519449
  0
VERTEX
  8
PLAN_1
  6
CONTINUOUS
 10
-1.220508
 20
1.531315
  0
SEQEND
  8
0
  0
POLYLINE
  8
PLAN_1
  6
CONTINUOUS
 66
     1
 40
0.008472
 41
0.008472
  0
VERTEX
  8
PLAN_1
  6
CONTINUOUS
 10
-1.224323
 20
1.531315
  0
VERTEX
  8
PLAN_1
  6
CONTINUOUS
 10
-1.220508
 20
1.531315
  0
SEQEND
  8
0
  0
POLYLINE
  8
PLAN_1
  6
CONTINUOUS
 66
     1
 40
0.008472
 41
0.008472
  0
VERTEX
  8
PLAN_1
  6
CONTINUOUS
 10
-1.784094
 20
1.531315
  0
VERTEX
  8
PLAN_1
  6
CONTINUOUS
 10
-1.342122
 20
1.531315
  0
SEQEND
  8
0
  0
POLYLINE
  8
PLAN_1
  6
CONTINUOUS
 66
     1
 40
0.008472
 41
0.008472
  0
VERTEX
  8
PLAN_1
  6
CONTINUOUS
 10
-1.675193
 20
1.519449
  0
VERTEX
  8
PLAN_1
  6
CONTINUOUS
 10
-1.675193
 20
1.338083
  0
VERTEX
  8
PLAN_1
  6
CONTINUOUS
 10
-1.342122
 20
1.338083
  0
SEQEND
  8
0
  0
POLYLINE
  8
PLAN_1
  6
CONTINUOUS
 66
     1
 40
0.008472
 41
0.008472
  0
VERTEX
  8
PLAN_1
  6
CONTINUOUS
 10
-1.675193
 20
1.519449
  0
VERTEX
  8
PLAN_1
  6
CONTINUOUS
 10
-1.342122
 20
1.519449
  0
SEQEND
  8
0
  0
POLYLINE
  8
PLAN_1
  6
CONTINUOUS
 66
     1
 40
0.008472
 41
0.008472
  0
VERTEX
  8
PLAN_1
  6
CONTINUOUS
 10
-1.342122
 20
1.531315
  0
VERTEX
  8
PLAN_1
  6
CONTINUOUS
 10
-1.342122
 20
1.689795
  0
SEQEND
  8
0
  0
POLYLINE
  8
PLAN_1
  6
CONTINUOUS
 66
     1
 40
0.008472
 41
0.008472
  0
VERTEX
  8
PLAN_1
  6
CONTINUOUS
 10
-1.342122
 20
1.338083
  0
VERTEX
  8
PLAN_1
  6
CONTINUOUS
 10
-1.342122
 20
1.519449
  0
SEQEND
  8
0
  0
POLYLINE
  8
PLAN_1
  6
CONTINUOUS
 66
     1
 40
0.008472
 41
0.008472
  0
VERTEX
  8
PLAN_1
  6
CONTINUOUS
 10
-1.342122
 20
2.021169
  0
VERTEX
  8
PLAN_1
  6
CONTINUOUS
 10
-1.342122
 20
1.984724
  0
SEQEND
  8
0
  0
POLYLINE
  8
PLAN_1
  6
CONTINUOUS
 66
     1
 40
0.008472
 41
0.008472
  0
VERTEX
  8
PLAN_1
  6
CONTINUOUS
 10
-1.224323
 20
1.959724
  0
VERTEX
  8
PLAN_1
  6
CONTINUOUS
 10
-1.224323
 20
2.021169
  0
SEQEND
  8
0
  0
POLYLINE
  8
PLAN_1
  6
CONTINUOUS
 66
     1
 40
0.008472
 41
0.008472
  0
VERTEX
  8
PLAN_1
  6
CONTINUOUS
 10
-1.342122
 20
2.021169
  0
VERTEX
  8
PLAN_1
  6
CONTINUOUS
 10
-1.342122
 20
2.519921
  0
SEQEND
  8
0
  0
POLYLINE
  8
PLAN_1
  6
CONTINUOUS
 66
     1
 40
0.008472
 41
0.008472
  0
VERTEX
  8
PLAN_1
  6
CONTINUOUS
 10
-1.342122
 20
1.338083
  0
VERTEX
  8
PLAN_1
  6
CONTINUOUS
 10
-1.342122
 20
1.305031
  0
VERTEX
  8
PLAN_1
  6
CONTINUOUS
 10
-1.224323
 20
1.305031
  0
VERTEX
  8
PLAN_1
  6
CONTINUOUS
 10
-1.224323
 20
1.519449
  0
SEQEND
  8
0
  0
POLYLINE
  8
PLAN_1
  6
CONTINUOUS
 66
     1
 40
0.008472
 41
0.008472
  0
VERTEX
  8
PLAN_1
  6
CONTINUOUS
 10
-1.224323
 20
1.519449
  0
VERTEX
  8
PLAN_1
  6
CONTINUOUS
 10
-1.224323
 20
1.531315
  0
SEQEND
  8
0
  0
POLYLINE
  8
PLAN_1
  6
CONTINUOUS
 66
     1
 40
0.008472
 41
0.008472
  0
VERTEX
  8
PLAN_1
  6
CONTINUOUS
 10
-1.342122
 20
1.519449
  0
VERTEX
  8
PLAN_1
  6
CONTINUOUS
 10
-1.342122
 20
1.531315
  0
SEQEND
  8
0
  0
POLYLINE
  8
PLAN_1
  6
CONTINUOUS
 66
     1
 40
0.008472
 41
0.008472
  0
VERTEX
  8
PLAN_1
  6
CONTINUOUS
 10
-1.224323
 20
1.724969
  0
VERTEX
  8
PLAN_1
  6
CONTINUOUS
 10
-1.224323
 20
1.631744
  0
SEQEND
  8
0
  0
POLYLINE
  8
PLAN_1
  6
CONTINUOUS
 66
     1
 40
0.008472
 41
0.008472
  0
VERTEX
  8
PLAN_1
  6
CONTINUOUS
 10
-1.224323
 20
2.021169
  0
VERTEX
  8
PLAN_1
  6
CONTINUOUS
 10
-1.224323
 20
2.587299
  0
SEQEND
  8
0
  0
POLYLINE
  8
PLAN_1
  6
CONTINUOUS
 66
     1
 40
0.008472
 41
0.008472
  0
VERTEX
  8
PLAN_1
  6
CONTINUOUS
 10
-1.224323
 20
1.631744
  0
VERTEX
  8
PLAN_1
  6
CONTINUOUS
 10
-1.224323
 20
1.531315
  0
SEQEND
  8
0
  0
POLYLINE
  8
PLAN_1
  6
CONTINUOUS
 66
     1
 40
0.008472
 41
0.008472
  0
VERTEX
  8
PLAN_1
  6
CONTINUOUS
 10
-1.342122
 20
1.984724
  0
VERTEX
  8
PLAN_1
  6
CONTINUOUS
 10
-1.484079
 20
2.016933
  0
SEQEND
  8
0
  0
POLYLINE
  8
PLAN_1
  6
CONTINUOUS
 66
     1
 40
0.008472
 41
0.008472
  0
VERTEX
  8
PLAN_1
  6
CONTINUOUS
 10
-1.484079
 20
2.016933
  0
VERTEX
  8
PLAN_1
  6
CONTINUOUS
 10
-1.484504
 20
2.016933
  0
VERTEX
  8
PLAN_1
  6
CONTINUOUS
 10
-1.485776
 20
2.016933
  0
VERTEX
  8
PLAN_1
  6
CONTINUOUS
 10
-1.487894
 20
2.017354
  0
VERTEX
  8
PLAN_1
  6
CONTINUOUS
 10
-1.490858
 20
2.017354
  0
VERTEX
  8
PLAN_1
  6
CONTINUOUS
 10
-1.493827
 20
2.017354
  0
VERTEX
  8
PLAN_1
  6
CONTINUOUS
 10
-1.497217
 20
2.017780
  0
VERTEX
  8
PLAN_1
  6
CONTINUOUS
 10
-1.500181
 20
2.017780
  0
VERTEX
  8
PLAN_1
  6
CONTINUOUS
 10
-1.503571
 20
2.017780
  0
VERTEX
  8
PLAN_1
  6
CONTINUOUS
 10
-1.512894
 20
2.017780
  0
VERTEX
  8
PLAN_1
  6
CONTINUOUS
 10
-1.522642
 20
2.016933
  0
VERTEX
  8
PLAN_1
  6
CONTINUOUS
 10
-1.531965
 20
2.015661
  0
VERTEX
  8
PLAN_1
  6
CONTINUOUS
 10
-1.540862
 20
2.013965
  0
VERTEX
  8
PLAN_1
  6
CONTINUOUS
 10
-1.550185
 20
2.011846
  0
VERTEX
  8
PLAN_1
  6
CONTINUOUS
 10
-1.558661
 20
2.009303
  0
VERTEX
  8
PLAN_1
  6
CONTINUOUS
 10
-1.567559
 20
2.006760
  0
VERTEX
  8
PLAN_1
  6
CONTINUOUS
 10
-1.576035
 20
2.003370
  0
VERTEX
  8
PLAN_1
  6
CONTINUOUS
 10
-1.584087
 20
1.999559
  0
VERTEX
  8
PLAN_1
  6
CONTINUOUS
 10
-1.592138
 20
1.995319
  0
VERTEX
  8
PLAN_1
  6
CONTINUOUS
 10
-1.600189
 20
1.991083
  0
VERTEX
  8
PLAN_1
  6
CONTINUOUS
 10
-1.607815
 20
1.985996
  0
VERTEX
  8
PLAN_1
  6
CONTINUOUS
 10
-1.615020
 20
1.980913
  0
VERTEX
  8
PLAN_1
  6
CONTINUOUS
 10
-1.621799
 20
1.975406
  0
VERTEX
  8
PLAN_1
  6
CONTINUOUS
 10
-1.628579
 20
1.969472
  0
VERTEX
  8
PLAN_1
  6
CONTINUOUS
 10
-1.635358
 20
1.963114
  0
VERTEX
  8
PLAN_1
  6
CONTINUOUS
 10
-1.641291
 20
1.956760
  0
VERTEX
  8
PLAN_1
  6
CONTINUOUS
 10
-1.647224
 20
1.949980
  0
VERTEX
  8
PLAN_1
  6
CONTINUOUS
 10
-1.652732
 20
1.943197
  0
VERTEX
  8
PLAN_1
  6
CONTINUOUS
 10
-1.657819
 20
1.935571
  0
VERTEX
  8
PLAN_1
  6
CONTINUOUS
 10
-1.662902
 20
1.927945
  0
VERTEX
  8
PLAN_1
  6
CONTINUOUS
 10
-1.667142
 20
1.920315
  0
VERTEX
  8
PLAN_1
  6
CONTINUOUS
 10
-1.671378
 20
1.912264
  0
VERTEX
  8
PLAN_1
  6
CONTINUOUS
 10
-1.675193
 20
1.904213
  0
VERTEX
  8
PLAN_1
  6
CONTINUOUS
 10
-1.678583
 20
1.895740
  0
VERTEX
  8
PLAN_1
  6
CONTINUOUS
 10
-1.681547
 20
1.886839
  0
VERTEX
  8
PLAN_1
  6
CONTINUOUS
 10
-1.684091
 20
1.877941
  0
VERTEX
  8
PLAN_1
  6
CONTINUOUS
 10
-1.686209
 20
1.869043
  0
VERTEX
  8
PLAN_1
  6
CONTINUOUS
 10
-1.687480
 20
1.859720
  0
VERTEX
  8
PLAN_1
  6
CONTINUOUS
 10
-1.688752
 20
1.850398
  0
VERTEX
  8
PLAN_1
  6
CONTINUOUS
 10
-1.689598
 20
1.841075
  0
VERTEX
  8
PLAN_1
  6
CONTINUOUS
 10
-1.690024
 20
1.831331
  0
VERTEX
  8
PLAN_1
  6
CONTINUOUS
 10
-1.689598
 20
1.822008
  0
VERTEX
  8
PLAN_1
  6
CONTINUOUS
 10
-1.688752
 20
1.812260
  0
VERTEX
  8
PLAN_1
  6
CONTINUOUS
 10
-1.687480
 20
1.802937
  0
VERTEX
  8
PLAN_1
  6
CONTINUOUS
 10
-1.686209
 20
1.794039
  0
VERTEX
  8
PLAN_1
  6
CONTINUOUS
 10
-1.684091
 20
1.784717
  0
VERTEX
  8
PLAN_1
  6
CONTINUOUS
 10
-1.681547
 20
1.776240
  0
VERTEX
  8
PLAN_1
  6
CONTINUOUS
 10
-1.678583
 20
1.767343
  0
VERTEX
  8
PLAN_1
  6
CONTINUOUS
 10
-1.675193
 20
1.758866
  0
VERTEX
  8
PLAN_1
  6
CONTINUOUS
 10
-1.671378
 20
1.750815
  0
VERTEX
  8
PLAN_1
  6
CONTINUOUS
 10
-1.667142
 20
1.742764
  0
VERTEX
  8
PLAN_1
  6
CONTINUOUS
 10
-1.662902
 20
1.734713
  0
VERTEX
  8
PLAN_1
  6
CONTINUOUS
 10
-1.657819
 20
1.727087
  0
VERTEX
  8
PLAN_1
  6
CONTINUOUS
 10
-1.652732
 20
1.719882
  0
VERTEX
  8
PLAN_1
  6
CONTINUOUS
 10
-1.647224
 20
1.713102
  0
VERTEX
  8
PLAN_1
  6
CONTINUOUS
 10
-1.641291
 20
1.706323
  0
VERTEX
  8
PLAN_1
  6
CONTINUOUS
 10
-1.635358
 20
1.699543
  0
VERTEX
  8
PLAN_1
  6
CONTINUOUS
 10
-1.628579
 20
1.693610
  0
VERTEX
  8
PLAN_1
  6
CONTINUOUS
 10
-1.621799
 20
1.687677
  0
VERTEX
  8
PLAN_1
  6
CONTINUOUS
 10
-1.615020
 20
1.682169
  0
VERTEX
  8
PLAN_1
  6
CONTINUOUS
 10
-1.607815
 20
1.677083
  0
VERTEX
  8
PLAN_1
  6
CONTINUOUS
 10
-1.600189
 20
1.672000
  0
VERTEX
  8
PLAN_1
  6
CONTINUOUS
 10
-1.592138
 20
1.667760
  0
VERTEX
  8
PLAN_1
  6
CONTINUOUS
 10
-1.584087
 20
1.663524
  0
VERTEX
  8
PLAN_1
  6
CONTINUOUS
 10
-1.576035
 20
1.659709
  0
VERTEX
  8
PLAN_1
  6
CONTINUOUS
 10
-1.567559
 20
1.656319
  0
VERTEX
  8
PLAN_1
  6
CONTINUOUS
 10
-1.558661
 20
1.653354
  0
VERTEX
  8
PLAN_1
  6
CONTINUOUS
 10
-1.550185
 20
1.650811
  0
VERTEX
  8
PLAN_1
  6
CONTINUOUS
 10
-1.540862
 20
1.648693
  0
VERTEX
  8
PLAN_1
  6
CONTINUOUS
 10
-1.531965
 20
1.647421
  0
VERTEX
  8
PLAN_1
  6
CONTINUOUS
 10
-1.522642
 20
1.646150
  0
VERTEX
  8
PLAN_1
  6
CONTINUOUS
 10
-1.512894
 20
1.645303
  0
VERTEX
  8
PLAN_1
  6
CONTINUOUS
 10
-1.503571
 20
1.644878
  0
VERTEX
  8
PLAN_1
  6
CONTINUOUS
 10
-1.501453
 20
1.644878
  0
VERTEX
  8
PLAN_1
  6
CONTINUOUS
 10
-1.499335
 20
1.645303
  0
VERTEX
  8
PLAN_1
  6
CONTINUOUS
 10
-1.497217
 20
1.645303
  0
VERTEX
  8
PLAN_1
  6
CONTINUOUS
 10
-1.495098
 20
1.645303
  0
VERTEX
  8
PLAN_1
  6
CONTINUOUS
 10
-1.493402
 20
1.645303
  0
VERTEX
  8
PLAN_1
  6
CONTINUOUS
 10
-1.491283
 20
1.645303
  0
VERTEX
  8
PLAN_1
  6
CONTINUOUS
 10
-1.489165
 20
1.645724
  0
VERTEX
  8
PLAN_1
  6
CONTINUOUS
 10
-1.487047
 20
1.645724
  0
SEQEND
  8
0
  0
POLYLINE
  8
PLAN_1
  6
CONTINUOUS
 66
     1
 40
0.008472
 41
0.008472
  0
VERTEX
  8
PLAN_1
  6
CONTINUOUS
 10
-1.487047
 20
1.645724
  0
VERTEX
  8
PLAN_1
  6
CONTINUOUS
 10
-1.342122
 20
1.689795
  0
SEQEND
  8
0
  0
POLYLINE
  8
PLAN_1
  6
CONTINUOUS
 66
     1
 40
0.008472
 41
0.008472
  0
VERTEX
  8
PLAN_1
  6
CONTINUOUS
 10
-1.224323
 20
1.724969
  0
VERTEX
  8
PLAN_1
  6
CONTINUOUS
 10
-1.223051
 20
1.724969
  0
VERTEX
  8
PLAN_1
  6
CONTINUOUS
 10
-1.222201
 20
1.724969
  0
VERTEX
  8
PLAN_1
  6
CONTINUOUS
 10
-1.220933
 20
1.724969
  0
VERTEX
  8
PLAN_1
  6
CONTINUOUS
 10
-1.219661
 20
1.724969
  0
VERTEX
  8
PLAN_1
  6
CONTINUOUS
 10
-1.218811
 20
1.725390
  0
VERTEX
  8
PLAN_1
  6
CONTINUOUS
 10
-1.217539
 20
1.725390
  0
VERTEX
  8
PLAN_1
  6
CONTINUOUS
 10
-1.216272
 20
1.725390
  0
VERTEX
  8
PLAN_1
  6
CONTINUOUS
 10
-1.215421
 20
1.725390
  0
SEQEND
  8
0
  0
POLYLINE
  8
PLAN_1
  6
CONTINUOUS
 66
     1
 40
0.008472
 41
0.008472
  0
VERTEX
  8
PLAN_1
  6
CONTINUOUS
 10
-1.215421
 20
1.725390
  0
VERTEX
  8
PLAN_1
  6
CONTINUOUS
 10
-1.215421
 20
1.959724
  0
VERTEX
  8
PLAN_1
  6
CONTINUOUS
 10
-1.224323
 20
1.959724
  0
SEQEND
  8
0
  0
POLYLINE
  8
PLAN_1
  6
CONTINUOUS
 66
     1
 40
0.008472
 41
0.008472
  0
VERTEX
  8
PLAN_1
  6
CONTINUOUS
 10
-1.224323
 20
1.724969
  0
VERTEX
  8
PLAN_1
  6
CONTINUOUS
 10
-1.224744
 20
1.724969
  0
VERTEX
  8
PLAN_1
  6
CONTINUOUS
 10
-1.225169
 20
1.724969
  0
VERTEX
  8
PLAN_1
  6
CONTINUOUS
 10
-1.225591
 20
1.724969
  0
VERTEX
  8
PLAN_1
  6
CONTINUOUS
 10
-1.226016
 20
1.724969
  0
VERTEX
  8
PLAN_1
  6
CONTINUOUS
 10
-1.226441
 20
1.724969
  0
VERTEX
  8
PLAN_1
  6
CONTINUOUS
 10
-1.226862
 20
1.724969
  0
VERTEX
  8
PLAN_1
  6
CONTINUOUS
 10
-1.227287
 20
1.724969
  0
VERTEX
  8
PLAN_1
  6
CONTINUOUS
 10
-1.227713
 20
1.724969
  0
SEQEND
  8
0
  0
POLYLINE
  8
PLAN_1
  6
CONTINUOUS
 66
     1
 40
0.008472
 41
0.008472
  0
VERTEX
  8
PLAN_1
  6
CONTINUOUS
 10
-1.227713
 20
1.724969
  0
VERTEX
  8
PLAN_1
  6
CONTINUOUS
 10
-1.342122
 20
1.689795
  0
SEQEND
  8
0
  0
POLYLINE
  8
PLAN_1
  6
CONTINUOUS
 66
     1
 40
0.008472
 41
0.008472
  0
VERTEX
  8
PLAN_1
  6
CONTINUOUS
 10
-1.342122
 20
1.984724
  0
VERTEX
  8
PLAN_1
  6
CONTINUOUS
 10
-1.229406
 20
1.959724
  0
VERTEX
  8
PLAN_1
  6
CONTINUOUS
 10
-1.224323
 20
1.959724
  0
SEQEND
  8
0
  0
POLYLINE
  8
PLAN_1
  6
CONTINUOUS
 66
     1
 40
0.008472
 41
0.008472
  0
VERTEX
  8
PLAN_1
  6
CONTINUOUS
 10
-1.232374
 20
1.959303
  0
VERTEX
  8
PLAN_1
  6
CONTINUOUS
 10
-1.232374
 20
1.727087
  0
SEQEND
  8
0
  0
POLYLINE
  8
PLAN_1
  6
CONTINUOUS
 66
     1
 40
0.008472
 41
0.008472
  0
VERTEX
  8
PLAN_1
  6
CONTINUOUS
 10
-1.598492
 20
1.954642
  0
VERTEX
  8
PLAN_1
  6
CONTINUOUS
 10
-1.626882
 20
1.925827
  0
VERTEX
  8
PLAN_1
  6
CONTINUOUS
 10
-1.623071
 20
1.880909
  0
VERTEX
  8
PLAN_1
  6
CONTINUOUS
 10
-1.656547
 20
1.851244
  0
VERTEX
  8
PLAN_1
  6
CONTINUOUS
 10
-1.656547
 20
1.810567
  0
VERTEX
  8
PLAN_1
  6
CONTINUOUS
 10
-1.622224
 20
1.781327
  0
VERTEX
  8
PLAN_1
  6
CONTINUOUS
 10
-1.624764
 20
1.737256
  0
VERTEX
  8
PLAN_1
  6
CONTINUOUS
 10
-1.595949
 20
1.708441
  0
VERTEX
  8
PLAN_1
  6
CONTINUOUS
 10
-1.551457
 20
1.712256
  0
VERTEX
  8
PLAN_1
  6
CONTINUOUS
 10
-1.521795
 20
1.678780
  0
VERTEX
  8
PLAN_1
  6
CONTINUOUS
 10
-1.481114
 20
1.678780
  0
VERTEX
  8
PLAN_1
  6
CONTINUOUS
 10
-1.452724
 20
1.713528
  0
VERTEX
  8
PLAN_1
  6
CONTINUOUS
 10
-1.408228
 20
1.710984
  0
VERTEX
  8
PLAN_1
  6
CONTINUOUS
 10
-1.379413
 20
1.739799
  0
VERTEX
  8
PLAN_1
  6
CONTINUOUS
 10
-1.383228
 20
1.784291
  0
VERTEX
  8
PLAN_1
  6
CONTINUOUS
 10
-1.350173
 20
1.813957
  0
VERTEX
  8
PLAN_1
  6
CONTINUOUS
 10
-1.350173
 20
1.854634
  0
VERTEX
  8
PLAN_1
  6
CONTINUOUS
 10
-1.384500
 20
1.883028
  0
VERTEX
  8
PLAN_1
  6
CONTINUOUS
 10
-1.381957
 20
1.927520
  0
VERTEX
  8
PLAN_1
  6
CONTINUOUS
 10
-1.410772
 20
1.956335
  0
VERTEX
  8
PLAN_1
  6
CONTINUOUS
 10
-1.454417
 20
1.952945
  0
VERTEX
  8
PLAN_1
  6
CONTINUOUS
 10
-1.484079
 20
1.985996
  0
VERTEX
  8
PLAN_1
  6
CONTINUOUS
 10
-1.524760
 20
1.985996
  0
VERTEX
  8
PLAN_1
  6
CONTINUOUS
 10
-1.554421
 20
1.953370
  0
VERTEX
  8
PLAN_1
  6
CONTINUOUS
 10
-1.598492
 20
1.954642
  0
SEQEND
  8
0
  0
POLYLINE
  8
PLAN_1
  6
CONTINUOUS
 66
     1
 40
0.008472
 41
0.008472
  0
VERTEX
  8
PLAN_1
  6
CONTINUOUS
 10
-1.505268
 20
1.949555
  0
VERTEX
  8
PLAN_1
  6
CONTINUOUS
 10
-1.401874
 20
1.894043
  0
VERTEX
  8
PLAN_1
  6
CONTINUOUS
 10
-1.401874
 20
1.771157
  0
VERTEX
  8
PLAN_1
  6
CONTINUOUS
 10
-1.505268
 20
1.713949
  0
VERTEX
  8
PLAN_1
  6
CONTINUOUS
 10
-1.604000
 20
1.771157
  0
VERTEX
  8
PLAN_1
  6
CONTINUOUS
 10
-1.604000
 20
1.894043
  0
VERTEX
  8
PLAN_1
  6
CONTINUOUS
 10
-1.505268
 20
1.949555
  0
SEQEND
  8
0
  0
POLYLINE
  8
PLAN_1
  6
CONTINUOUS
 66
     1
 40
0.008472
 41
0.008472
  0
VERTEX
  8
PLAN_1
  6
CONTINUOUS
 10
-1.503571
 20
1.767343
  0
VERTEX
  8
PLAN_1
  6
CONTINUOUS
 10
-1.496791
 20
1.767343
  0
VERTEX
  8
PLAN_1
  6
CONTINUOUS
 10
-1.490437
 20
1.768614
  0
VERTEX
  8
PLAN_1
  6
CONTINUOUS
 10
-1.484079
 20
1.769886
  0
VERTEX
  8
PLAN_1
  6
CONTINUOUS
 10
-1.478146
 20
1.772429
  0
VERTEX
  8
PLAN_1
  6
CONTINUOUS
 10
-1.472217
 20
1.774969
  0
VERTEX
  8
PLAN_1
  6
CONTINUOUS
 10
-1.467130
 20
1.778358
  0
VERTEX
  8
PLAN_1
  6
CONTINUOUS
 10
-1.462043
 20
1.782173
  0
VERTEX
  8
PLAN_1
  6
CONTINUOUS
 10
-1.457382
 20
1.786409
  0
VERTEX
  8
PLAN_1
  6
CONTINUOUS
 10
-1.453146
 20
1.790650
  0
VERTEX
  8
PLAN_1
  6
CONTINUOUS
 10
-1.449331
 20
1.795732
  0
VERTEX
  8
PLAN_1
  6
CONTINUOUS
 10
-1.445941
 20
1.801244
  0
VERTEX
  8
PLAN_1
  6
CONTINUOUS
 10
-1.443402
 20
1.806752
  0
VERTEX
  8
PLAN_1
  6
CONTINUOUS
 10
-1.441280
 20
1.813106
  0
VERTEX
  8
PLAN_1
  6
CONTINUOUS
 10
-1.439587
 20
1.819039
  0
VERTEX
  8
PLAN_1
  6
CONTINUOUS
 10
-1.438315
 20
1.825819
  0
VERTEX
  8
PLAN_1
  6
CONTINUOUS
 10
-1.438315
 20
1.832177
  0
VERTEX
  8
PLAN_1
  6
CONTINUOUS
 10
-1.438315
 20
1.838957
  0
VERTEX
  8
PLAN_1
  6
CONTINUOUS
 10
-1.439587
 20
1.845311
  0
VERTEX
  8
PLAN_1
  6
CONTINUOUS
 10
-1.441280
 20
1.851669
  0
VERTEX
  8
PLAN_1
  6
CONTINUOUS
 10
-1.443402
 20
1.857602
  0
VERTEX
  8
PLAN_1
  6
CONTINUOUS
 10
-1.445941
 20
1.863535
  0
VERTEX
  8
PLAN_1
  6
CONTINUOUS
 10
-1.449331
 20
1.868618
  0
VERTEX
  8
PLAN_1
  6
CONTINUOUS
 10
-1.453146
 20
1.873705
  0
VERTEX
  8
PLAN_1
  6
CONTINUOUS
 10
-1.457382
 20
1.878366
  0
VERTEX
  8
PLAN_1
  6
CONTINUOUS
 10
-1.462043
 20
1.882602
  0
VERTEX
  8
PLAN_1
  6
CONTINUOUS
 10
-1.467130
 20
1.886417
  0
VERTEX
  8
PLAN_1
  6
CONTINUOUS
 10
-1.472217
 20
1.889807
  0
VERTEX
  8
PLAN_1
  6
CONTINUOUS
 10
-1.478146
 20
1.892350
  0
VERTEX
  8
PLAN_1
  6
CONTINUOUS
 10
-1.484079
 20
1.894469
  0
VERTEX
  8
PLAN_1
  6
CONTINUOUS
 10
-1.490437
 20
1.896161
  0
VERTEX
  8
PLAN_1
  6
CONTINUOUS
 10
-1.496791
 20
1.897433
  0
VERTEX
  8
PLAN_1
  6
CONTINUOUS
 10
-1.503571
 20
1.897433
  0
VERTEX
  8
PLAN_1
  6
CONTINUOUS
 10
-1.509929
 20
1.897433
  0
VERTEX
  8
PLAN_1
  6
CONTINUOUS
 10
-1.516709
 20
1.896161
  0
VERTEX
  8
PLAN_1
  6
CONTINUOUS
 10
-1.522642
 20
1.894469
  0
VERTEX
  8
PLAN_1
  6
CONTINUOUS
 10
-1.528575
 20
1.892350
  0
VERTEX
  8
PLAN_1
  6
CONTINUOUS
 10
-1.534508
 20
1.889807
  0
VERTEX
  8
PLAN_1
  6
CONTINUOUS
 10
-1.540016
 20
1.886417
  0
VERTEX
  8
PLAN_1
  6
CONTINUOUS
 10
-1.544677
 20
1.882602
  0
VERTEX
  8
PLAN_1
  6
CONTINUOUS
 10
-1.549339
 20
1.878366
  0
VERTEX
  8
PLAN_1
  6
CONTINUOUS
 10
-1.553575
 20
1.873705
  0
VERTEX
  8
PLAN_1
  6
CONTINUOUS
 10
-1.557390
 20
1.868618
  0
VERTEX
  8
PLAN_1
  6
CONTINUOUS
 10
-1.560780
 20
1.863535
  0
VERTEX
  8
PLAN_1
  6
CONTINUOUS
 10
-1.563323
 20
1.857602
  0
VERTEX
  8
PLAN_1
  6
CONTINUOUS
 10
-1.565862
 20
1.851669
  0
VERTEX
  8
PLAN_1
  6
CONTINUOUS
 10
-1.567134
 20
1.845311
  0
VERTEX
  8
PLAN_1
  6
CONTINUOUS
 10
-1.568406
 20
1.838957
  0
VERTEX
  8
PLAN_1
  6
CONTINUOUS
 10
-1.568406
 20
1.832177
  0
VERTEX
  8
PLAN_1
  6
CONTINUOUS
 10
-1.568406
 20
1.825819
  0
VERTEX
  8
PLAN_1
  6
CONTINUOUS
 10
-1.567134
 20
1.819039
  0
VERTEX
  8
PLAN_1
  6
CONTINUOUS
 10
-1.565862
 20
1.813106
  0
VERTEX
  8
PLAN_1
  6
CONTINUOUS
 10
-1.563323
 20
1.806752
  0
VERTEX
  8
PLAN_1
  6
CONTINUOUS
 10
-1.560780
 20
1.801244
  0
VERTEX
  8
PLAN_1
  6
CONTINUOUS
 10
-1.557390
 20
1.795732
  0
VERTEX
  8
PLAN_1
  6
CONTINUOUS
 10
-1.553575
 20
1.790650
  0
VERTEX
  8
PLAN_1
  6
CONTINUOUS
 10
-1.549339
 20
1.786409
  0
VERTEX
  8
PLAN_1
  6
CONTINUOUS
 10
-1.544677
 20
1.782173
  0
VERTEX
  8
PLAN_1
  6
CONTINUOUS
 10
-1.540016
 20
1.778358
  0
VERTEX
  8
PLAN_1
  6
CONTINUOUS
 10
-1.534508
 20
1.774969
  0
VERTEX
  8
PLAN_1
  6
CONTINUOUS
 10
-1.528575
 20
1.772429
  0
VERTEX
  8
PLAN_1
  6
CONTINUOUS
 10
-1.522642
 20
1.769886
  0
VERTEX
  8
PLAN_1
  6
CONTINUOUS
 10
-1.516709
 20
1.768614
  0
VERTEX
  8
PLAN_1
  6
CONTINUOUS
 10
-1.509929
 20
1.767343
  0
VERTEX
  8
PLAN_1
  6
CONTINUOUS
 10
-1.503571
 20
1.767343
  0
SEQEND
  8
0
  0
POLYLINE
  8
PLAN_1
  6
CONTINUOUS
 66
     1
 40
0.008472
 41
0.008472
  0
VERTEX
  8
PLAN_1
  6
CONTINUOUS
 10
-1.503571
 20
1.777091
  0
VERTEX
  8
PLAN_1
  6
CONTINUOUS
 10
-1.497642
 20
1.777512
  0
VERTEX
  8
PLAN_1
  6
CONTINUOUS
 10
-1.492130
 20
1.778358
  0
VERTEX
  8
PLAN_1
  6
CONTINUOUS
 10
-1.487047
 20
1.779630
  0
VERTEX
  8
PLAN_1
  6
CONTINUOUS
 10
-1.481961
 20
1.781327
  0
VERTEX
  8
PLAN_1
  6
CONTINUOUS
 10
-1.477299
 20
1.783870
  0
VERTEX
  8
PLAN_1
  6
CONTINUOUS
 10
-1.472638
 20
1.786409
  0
VERTEX
  8
PLAN_1
  6
CONTINUOUS
 10
-1.468402
 20
1.789803
  0
VERTEX
  8
PLAN_1
  6
CONTINUOUS
 10
-1.464587
 20
1.793193
  0
VERTEX
  8
PLAN_1
  6
CONTINUOUS
 10
-1.460776
 20
1.797004
  0
VERTEX
  8
PLAN_1
  6
CONTINUOUS
 10
-1.457807
 20
1.801244
  0
VERTEX
  8
PLAN_1
  6
CONTINUOUS
 10
-1.454843
 20
1.805906
  0
VERTEX
  8
PLAN_1
  6
CONTINUOUS
 10
-1.452724
 20
1.810988
  0
VERTEX
  8
PLAN_1
  6
CONTINUOUS
 10
-1.450602
 20
1.816075
  0
VERTEX
  8
PLAN_1
  6
CONTINUOUS
 10
-1.449331
 20
1.821157
  0
VERTEX
  8
PLAN_1
  6
CONTINUOUS
 10
-1.448484
 20
1.826669
  0
VERTEX
  8
PLAN_1
  6
CONTINUOUS
 10
-1.448063
 20
1.832177
  0
VERTEX
  8
PLAN_1
  6
CONTINUOUS
 10
-1.448484
 20
1.838110
  0
VERTEX
  8
PLAN_1
  6
CONTINUOUS
 10
-1.449331
 20
1.843193
  0
VERTEX
  8
PLAN_1
  6
CONTINUOUS
 10
-1.450602
 20
1.848701
  0
VERTEX
  8
PLAN_1
  6
CONTINUOUS
 10
-1.452724
 20
1.853787
  0
VERTEX
  8
PLAN_1
  6
CONTINUOUS
 10
-1.454843
 20
1.858449
  0
VERTEX
  8
PLAN_1
  6
CONTINUOUS
 10
-1.457807
 20
1.863110
  0
VERTEX
  8
PLAN_1
  6
CONTINUOUS
 10
-1.460776
 20
1.867346
  0
VERTEX
  8
PLAN_1
  6
CONTINUOUS
 10
-1.464587
 20
1.871161
  0
VERTEX
  8
PLAN_1
  6
CONTINUOUS
 10
-1.468402
 20
1.874976
  0
VERTEX
  8
PLAN_1
  6
CONTINUOUS
 10
-1.472638
 20
1.877941
  0
VERTEX
  8
PLAN_1
  6
CONTINUOUS
 10
-1.477299
 20
1.880909
  0
VERTEX
  8
PLAN_1
  6
CONTINUOUS
 10
-1.481961
 20
1.883028
  0
VERTEX
  8
PLAN_1
  6
CONTINUOUS
 10
-1.487047
 20
1.885146
  0
VERTEX
  8
PLAN_1
  6
CONTINUOUS
 10
-1.492130
 20
1.886417
  0
VERTEX
  8
PLAN_1
  6
CONTINUOUS
 10
-1.497642
 20
1.887264
  0
VERTEX
  8
PLAN_1
  6
CONTINUOUS
 10
-1.503571
 20
1.887264
  0
VERTEX
  8
PLAN_1
  6
CONTINUOUS
 10
-1.509083
 20
1.887264
  0
VERTEX
  8
PLAN_1
  6
CONTINUOUS
 10
-1.514591
 20
1.886417
  0
VERTEX
  8
PLAN_1
  6
CONTINUOUS
 10
-1.519673
 20
1.885146
  0
VERTEX
  8
PLAN_1
  6
CONTINUOUS
 10
-1.524760
 20
1.883028
  0
VERTEX
  8
PLAN_1
  6
CONTINUOUS
 10
-1.529846
 20
1.880909
  0
VERTEX
  8
PLAN_1
  6
CONTINUOUS
 10
-1.534083
 20
1.877941
  0
VERTEX
  8
PLAN_1
  6
CONTINUOUS
 10
-1.538319
 20
1.874976
  0
VERTEX
  8
PLAN_1
  6
CONTINUOUS
 10
-1.542559
 20
1.871161
  0
VERTEX
  8
PLAN_1
  6
CONTINUOUS
 10
-1.545949
 20
1.867346
  0
VERTEX
  8
PLAN_1
  6
CONTINUOUS
 10
-1.549339
 20
1.863110
  0
VERTEX
  8
PLAN_1
  6
CONTINUOUS
 10
-1.551882
 20
1.858449
  0
VERTEX
  8
PLAN_1
  6
CONTINUOUS
 10
-1.554421
 20
1.853787
  0
VERTEX
  8
PLAN_1
  6
CONTINUOUS
 10
-1.556118
 20
1.848701
  0
VERTEX
  8
PLAN_1
  6
CONTINUOUS
 10
-1.557390
 20
1.843193
  0
VERTEX
  8
PLAN_1
  6
CONTINUOUS
 10
-1.558236
 20
1.838110
  0
VERTEX
  8
PLAN_1
  6
CONTINUOUS
 10
-1.558661
 20
1.832177
  0
VERTEX
  8
PLAN_1
  6
CONTINUOUS
 10
-1.558236
 20
1.826669
  0
VERTEX
  8
PLAN_1
  6
CONTINUOUS
 10
-1.557390
 20
1.821157
  0
VERTEX
  8
PLAN_1
  6
CONTINUOUS
 10
-1.556118
 20
1.816075
  0
VERTEX
  8
PLAN_1
  6
CONTINUOUS
 10
-1.554421
 20
1.810988
  0
VERTEX
  8
PLAN_1
  6
CONTINUOUS
 10
-1.551882
 20
1.805906
  0
VERTEX
  8
PLAN_1
  6
CONTINUOUS
 10
-1.549339
 20
1.801244
  0
VERTEX
  8
PLAN_1
  6
CONTINUOUS
 10
-1.545949
 20
1.797004
  0
VERTEX
  8
PLAN_1
  6
CONTINUOUS
 10
-1.542559
 20
1.793193
  0
VERTEX
  8
PLAN_1
  6
CONTINUOUS
 10
-1.538319
 20
1.789803
  0
VERTEX
  8
PLAN_1
  6
CONTINUOUS
 10
-1.534083
 20
1.786409
  0
VERTEX
  8
PLAN_1
  6
CONTINUOUS
 10
-1.529846
 20
1.783870
  0
VERTEX
  8
PLAN_1
  6
CONTINUOUS
 10
-1.524760
 20
1.781327
  0
VERTEX
  8
PLAN_1
  6
CONTINUOUS
 10
-1.519673
 20
1.779630
  0
VERTEX
  8
PLAN_1
  6
CONTINUOUS
 10
-1.514591
 20
1.778358
  0
VERTEX
  8
PLAN_1
  6
CONTINUOUS
 10
-1.509083
 20
1.777512
  0
VERTEX
  8
PLAN_1
  6
CONTINUOUS
 10
-1.503571
 20
1.777091
  0
SEQEND
  8
0
  0
POLYLINE
  8
PLAN_1
 62
     5
  6
CONTINUOUS
 66
     1
 40
0.003000
 41
0.003000
  0
VERTEX
  8
PLAN_1
 62
     5
  6
CONTINUOUS
 10
-1.573913
 20
1.830480
  0
VERTEX
  8
PLAN_1
 62
     5
  6
CONTINUOUS
 10
-1.565441
 20
1.830480
  0
SEQEND
  8
0
  0
POLYLINE
  8
PLAN_1
 62
     5
  6
CONTINUOUS
 66
     1
 40
0.003000
 41
0.003000
  0
VERTEX
  8
PLAN_1
 62
     5
  6
CONTINUOUS
 10
-1.556965
 20
1.830480
  0
VERTEX
  8
PLAN_1
 62
     5
  6
CONTINUOUS
 10
-1.548913
 20
1.830480
  0
SEQEND
  8
0
  0
POLYLINE
  8
PLAN_1
 62
     5
  6
CONTINUOUS
 66
     1
 40
0.003000
 41
0.003000
  0
VERTEX
  8
PLAN_1
 62
     5
  6
CONTINUOUS
 10
-1.540437
 20
1.830480
  0
VERTEX
  8
PLAN_1
 62
     5
  6
CONTINUOUS
 10
-1.531965
 20
1.830480
  0
SEQEND
  8
0
  0
POLYLINE
  8
PLAN_1
 62
     5
  6
CONTINUOUS
 66
     1
 40
0.003000
 41
0.003000
  0
VERTEX
  8
PLAN_1
 62
     5
  6
CONTINUOUS
 10
-1.523913
 20
1.830480
  0
VERTEX
  8
PLAN_1
 62
     5
  6
CONTINUOUS
 10
-1.515437
 20
1.830480
  0
SEQEND
  8
0
  0
POLYLINE
  8
PLAN_1
 62
     5
  6
CONTINUOUS
 66
     1
 40
0.003000
 41
0.003000
  0
VERTEX
  8
PLAN_1
 62
     5
  6
CONTINUOUS
 10
-1.506961
 20
1.830480
  0
VERTEX
  8
PLAN_1
 62
     5
  6
CONTINUOUS
 10
-1.498909
 20
1.830480
  0
SEQEND
  8
0
  0
POLYLINE
  8
PLAN_1
 62
     5
  6
CONTINUOUS
 66
     1
 40
0.003000
 41
0.003000
  0
VERTEX
  8
PLAN_1
 62
     5
  6
CONTINUOUS
 10
-1.490437
 20
1.830480
  0
VERTEX
  8
PLAN_1
 62
     5
  6
CONTINUOUS
 10
-1.481961
 20
1.830480
  0
SEQEND
  8
0
  0
POLYLINE
  8
PLAN_1
 62
     5
  6
CONTINUOUS
 66
     1
 40
0.003000
 41
0.003000
  0
VERTEX
  8
PLAN_1
 62
     5
  6
CONTINUOUS
 10
-1.473909
 20
1.830480
  0
VERTEX
  8
PLAN_1
 62
     5
  6
CONTINUOUS
 10
-1.465433
 20
1.830480
  0
SEQEND
  8
0
  0
POLYLINE
  8
PLAN_1
 62
     5
  6
CONTINUOUS
 66
     1
 40
0.003000
 41
0.003000
  0
VERTEX
  8
PLAN_1
 62
     5
  6
CONTINUOUS
 10
-1.456961
 20
1.830480
  0
VERTEX
  8
PLAN_1
 62
     5
  6
CONTINUOUS
 10
-1.448909
 20
1.830480
  0
SEQEND
  8
0
  0
POLYLINE
  8
PLAN_1
 62
     5
  6
CONTINUOUS
 66
     1
 40
0.003000
 41
0.003000
  0
VERTEX
  8
PLAN_1
 62
     5
  6
CONTINUOUS
 10
-1.440433
 20
1.830480
  0
VERTEX
  8
PLAN_1
 62
     5
  6
CONTINUOUS
 10
-1.431961
 20
1.830480
  0
SEQEND
  8
0
  0
POLYLINE
  8
PLAN_1
 62
     5
  6
CONTINUOUS
 66
     1
 40
0.003000
 41
0.003000
  0
VERTEX
  8
PLAN_1
 62
     5
  6
CONTINUOUS
 10
-1.423909
 20
1.830480
  0
VERTEX
  8
PLAN_1
 62
     5
  6
CONTINUOUS
 10
-1.415433
 20
1.830480
  0
SEQEND
  8
0
  0
POLYLINE
  8
PLAN_1
 62
     5
  6
CONTINUOUS
 66
     1
 40
0.003000
 41
0.003000
  0
VERTEX
  8
PLAN_1
 62
     5
  6
CONTINUOUS
 10
-1.406957
 20
1.830480
  0
VERTEX
  8
PLAN_1
 62
     5
  6
CONTINUOUS
 10
-1.398906
 20
1.830480
  0
SEQEND
  8
0
  0
POLYLINE
  8
PLAN_1
 62
     5
  6
CONTINUOUS
 66
     1
 40
0.003000
 41
0.003000
  0
VERTEX
  8
PLAN_1
 62
     5
  6
CONTINUOUS
 10
-1.390433
 20
1.830480
  0
VERTEX
  8
PLAN_1
 62
     5
  6
CONTINUOUS
 10
-1.381957
 20
1.830480
  0
SEQEND
  8
0
  0
POLYLINE
  8
PLAN_1
 62
     5
  6
CONTINUOUS
 66
     1
 40
0.003000
 41
0.003000
  0
VERTEX
  8
PLAN_1
 62
     5
  6
CONTINUOUS
 10
-1.373906
 20
1.830480
  0
VERTEX
  8
PLAN_1
 62
     5
  6
CONTINUOUS
 10
-1.365429
 20
1.830480
  0
SEQEND
  8
0
  0
POLYLINE
  8
PLAN_1
 62
     5
  6
CONTINUOUS
 66
     1
 40
0.003000
 41
0.003000
  0
VERTEX
  8
PLAN_1
 62
     5
  6
CONTINUOUS
 10
-1.356957
 20
1.830480
  0
VERTEX
  8
PLAN_1
 62
     5
  6
CONTINUOUS
 10
-1.348906
 20
1.830480
  0
SEQEND
  8
0
  0
POLYLINE
  8
PLAN_1
 62
     5
  6
CONTINUOUS
 66
     1
 40
0.003000
 41
0.003000
  0
VERTEX
  8
PLAN_1
 62
     5
  6
CONTINUOUS
 10
-1.340429
 20
1.830480
  0
VERTEX
  8
PLAN_1
 62
     5
  6
CONTINUOUS
 10
-1.332378
 20
1.830480
  0
SEQEND
  8
0
  0
POLYLINE
  8
PLAN_1
 62
     5
  6
CONTINUOUS
 66
     1
 40
0.003000
 41
0.003000
  0
VERTEX
  8
PLAN_1
 62
     5
  6
CONTINUOUS
 10
-1.323902
 20
1.830480
  0
VERTEX
  8
PLAN_1
 62
     5
  6
CONTINUOUS
 10
-1.315429
 20
1.830480
  0
SEQEND
  8
0
  0
POLYLINE
  8
PLAN_1
 62
     5
  6
CONTINUOUS
 66
     1
 40
0.003000
 41
0.003000
  0
VERTEX
  8
PLAN_1
 62
     5
  6
CONTINUOUS
 10
-1.307378
 20
1.830480
  0
VERTEX
  8
PLAN_1
 62
     5
  6
CONTINUOUS
 10
-1.298902
 20
1.830480
  0
SEQEND
  8
0
  0
POLYLINE
  8
PLAN_1
 62
     5
  6
CONTINUOUS
 66
     1
 40
0.003000
 41
0.003000
  0
VERTEX
  8
PLAN_1
 62
     5
  6
CONTINUOUS
 10
-1.290425
 20
1.830480
  0
VERTEX
  8
PLAN_1
 62
     5
  6
CONTINUOUS
 10
-1.282374
 20
1.830480
  0
SEQEND
  8
0
  0
POLYLINE
  8
PLAN_1
 62
     5
  6
CONTINUOUS
 66
     1
 40
0.003000
 41
0.003000
  0
VERTEX
  8
PLAN_1
 62
     5
  6
CONTINUOUS
 10
-1.273902
 20
1.830480
  0
VERTEX
  8
PLAN_1
 62
     5
  6
CONTINUOUS
 10
-1.265425
 20
1.830480
  0
SEQEND
  8
0
  0
POLYLINE
  8
PLAN_1
 62
     5
  6
CONTINUOUS
 66
     1
 40
0.003000
 41
0.003000
  0
VERTEX
  8
PLAN_1
 62
     5
  6
CONTINUOUS
 10
-1.257374
 20
1.830480
  0
VERTEX
  8
PLAN_1
 62
     5
  6
CONTINUOUS
 10
-1.248898
 20
1.830480
  0
SEQEND
  8
0
  0
POLYLINE
  8
PLAN_1
 62
     5
  6
CONTINUOUS
 66
     1
 40
0.003000
 41
0.003000
  0
VERTEX
  8
PLAN_1
 62
     5
  6
CONTINUOUS
 10
-1.240425
 20
1.830480
  0
VERTEX
  8
PLAN_1
 62
     5
  6
CONTINUOUS
 10
-1.232374
 20
1.830480
  0
SEQEND
  8
0
  0
POLYLINE
  8
PLAN_1
 62
     5
  6
CONTINUOUS
 66
     1
 40
0.003000
 41
0.003000
  0
VERTEX
  8
PLAN_1
 62
     5
  6
CONTINUOUS
 10
-1.223898
 20
1.830480
  0
VERTEX
  8
PLAN_1
 62
     5
  6
CONTINUOUS
 10
-1.215421
 20
1.830480
  0
SEQEND
  8
0
  0
POLYLINE
  8
PLAN_1
 62
     5
  6
CONTINUOUS
 66
     1
 40
0.003000
 41
0.003000
  0
VERTEX
  8
PLAN_1
 62
     5
  6
CONTINUOUS
 10
-1.207370
 20
1.830480
  0
VERTEX
  8
PLAN_1
 62
     5
  6
CONTINUOUS
 10
-1.198898
 20
1.830480
  0
SEQEND
  8
0
  0
POLYLINE
  8
PLAN_1
 62
     5
  6
CONTINUOUS
 66
     1
 40
0.003000
 41
0.003000
  0
VERTEX
  8
PLAN_1
 62
     5
  6
CONTINUOUS
 10
-1.190421
 20
1.830480
  0
VERTEX
  8
PLAN_1
 62
     5
  6
CONTINUOUS
 10
-1.182370
 20
1.830480
  0
SEQEND
  8
0
  0
POLYLINE
  8
PLAN_1
 62
     5
  6
CONTINUOUS
 66
     1
 40
0.003000
 41
0.003000
  0
VERTEX
  8
PLAN_1
 62
     5
  6
CONTINUOUS
 10
-1.503571
 20
1.763528
  0
VERTEX
  8
PLAN_1
 62
     5
  6
CONTINUOUS
 10
-1.503571
 20
1.772004
  0
SEQEND
  8
0
  0
POLYLINE
  8
PLAN_1
 62
     5
  6
CONTINUOUS
 66
     1
 40
0.003000
 41
0.003000
  0
VERTEX
  8
PLAN_1
 62
     5
  6
CONTINUOUS
 10
-1.503571
 20
1.780055
  0
VERTEX
  8
PLAN_1
 62
     5
  6
CONTINUOUS
 10
-1.503571
 20
1.788531
  0
SEQEND
  8
0
  0
POLYLINE
  8
PLAN_1
 62
     5
  6
CONTINUOUS
 66
     1
 40
0.003000
 41
0.003000
  0
VERTEX
  8
PLAN_1
 62
     5
  6
CONTINUOUS
 10
-1.503571
 20
1.797004
  0
VERTEX
  8
PLAN_1
 62
     5
  6
CONTINUOUS
 10
-1.503571
 20
1.805055
  0
SEQEND
  8
0
  0
POLYLINE
  8
PLAN_1
 62
     5
  6
CONTINUOUS
 66
     1
 40
0.003000
 41
0.003000
  0
VERTEX
  8
PLAN_1
 62
     5
  6
CONTINUOUS
 10
-1.503571
 20
1.813531
  0
VERTEX
  8
PLAN_1
 62
     5
  6
CONTINUOUS
 10
-1.503571
 20
1.822008
  0
SEQEND
  8
0
  0
POLYLINE
  8
PLAN_1
 62
     5
  6
CONTINUOUS
 66
     1
 40
0.003000
 41
0.003000
  0
VERTEX
  8
PLAN_1
 62
     5
  6
CONTINUOUS
 10
-1.503571
 20
1.830059
  0
VERTEX
  8
PLAN_1
 62
     5
  6
CONTINUOUS
 10
-1.503571
 20
1.838531
  0
SEQEND
  8
0
  0
POLYLINE
  8
PLAN_1
 62
     5
  6
CONTINUOUS
 66
     1
 40
0.003000
 41
0.003000
  0
VERTEX
  8
PLAN_1
 62
     5
  6
CONTINUOUS
 10
-1.503571
 20
1.846583
  0
VERTEX
  8
PLAN_1
 62
     5
  6
CONTINUOUS
 10
-1.503571
 20
1.855059
  0
SEQEND
  8
0
  0
POLYLINE
  8
PLAN_1
 62
     5
  6
CONTINUOUS
 66
     1
 40
0.003000
 41
0.003000
  0
VERTEX
  8
PLAN_1
 62
     5
  6
CONTINUOUS
 10
-1.503571
 20
1.863535
  0
VERTEX
  8
PLAN_1
 62
     5
  6
CONTINUOUS
 10
-1.503571
 20
1.871587
  0
SEQEND
  8
0
  0
POLYLINE
  8
PLAN_1
 62
     5
  6
CONTINUOUS
 66
     1
 40
0.003000
 41
0.003000
  0
VERTEX
  8
PLAN_1
 62
     5
  6
CONTINUOUS
 10
-1.503571
 20
1.880059
  0
VERTEX
  8
PLAN_1
 62
     5
  6
CONTINUOUS
 10
-1.503571
 20
1.888535
  0
SEQEND
  8
0
  0
POLYLINE
  8
PLAN_1
 62
     5
  6
CONTINUOUS
 66
     1
 40
0.003000
 41
0.003000
  0
VERTEX
  8
PLAN_1
 62
     5
  6
CONTINUOUS
 10
-1.503571
 20
1.896587
  0
VERTEX
  8
PLAN_1
 62
     5
  6
CONTINUOUS
 10
-1.503571
 20
1.900402
  0
SEQEND
  8
0
  0
POLYLINE
  8
PLAN_1
 62
     5
  6
CONTINUOUS
 66
     1
 40
0.003000
 41
0.003000
  0
VERTEX
  8
PLAN_1
 62
     5
  6
CONTINUOUS
 10
-1.503571
 20
1.896587
  0
VERTEX
  8
PLAN_1
 62
     5
  6
CONTINUOUS
 10
-1.503571
 20
1.900402
  0
SEQEND
  8
0
  0
POLYLINE
  8
PLAN_1
  6
CONTINUOUS
 66
     1
 40
0.004236
 41
0.004236
  0
VERTEX
  8
PLAN_1
  6
CONTINUOUS
 10
-1.466283
 20
2.449157
  0
VERTEX
  8
PLAN_1
  6
CONTINUOUS
 10
-1.064992
 20
2.683067
  0
SEQEND
  8
0
  0
POLYLINE
  8
PLAN_1
 62
     2
  6
CONTINUOUS
 66
     1
 40
0.004236
 41
0.004236
  0
VERTEX
  8
PLAN_1
 62
     2
  6
CONTINUOUS
 10
-0.768791
 20
1.337236
  0
VERTEX
  8
PLAN_1
 62
     2
  6
CONTINUOUS
 10
-0.768791
 20
3.112327
  0
SEQEND
  8
0
  0
SOLID
  8
PLAN_1
 62
     2
 10
-0.768791
 20
3.141988
 11
-0.784469
 21
3.082661
 12
-0.768791
 22
3.141988
 13
-0.753110
 23
3.082661
  0
POLYLINE
  8
PLAN_1
 62
     2
  6
CONTINUOUS
 66
     1
 40
0.003000
 41
0.003000
  0
VERTEX
  8
PLAN_1
 62
     2
  6
CONTINUOUS
 10
-0.768791
 20
3.141988
  0
VERTEX
  8
PLAN_1
 62
     2
  6
CONTINUOUS
 10
-0.784469
 20
3.082661
  0
VERTEX
  8
PLAN_1
 62
     2
  6
CONTINUOUS
 10
-0.753110
 20
3.082661
  0
VERTEX
  8
PLAN_1
 62
     2
  6
CONTINUOUS
 10
-0.768791
 20
3.141988
  0
SEQEND
  8
0
  0
SOLID
  8
PLAN_1
 62
     2
 10
-0.768791
 20
1.307575
 11
-0.784469
 21
1.366476
 12
-0.768791
 22
1.307575
 13
-0.753110
 23
1.366476
  0
POLYLINE
  8
PLAN_1
 62
     2
  6
CONTINUOUS
 66
     1
 40
0.003000
 41
0.003000
  0
VERTEX
  8
PLAN_1
 62
     2
  6
CONTINUOUS
 10
-0.768791
 20
1.307575
  0
VERTEX
  8
PLAN_1
 62
     2
  6
CONTINUOUS
 10
-0.784469
 20
1.366476
  0
VERTEX
  8
PLAN_1
 62
     2
  6
CONTINUOUS
 10
-0.753110
 20
1.366476
  0
VERTEX
  8
PLAN_1
 62
     2
  6
CONTINUOUS
 10
-0.768791
 20
1.307575
  0
SEQEND
  8
0
  0
POLYLINE
  8
PLAN_1
 62
     2
  6
CONTINUOUS
 66
     1
 40
0.003000
 41
0.003000
  0
VERTEX
  8
PLAN_1
 62
     2
  6
CONTINUOUS
 10
-0.792520
 20
2.174988
  0
VERTEX
  8
PLAN_1
 62
     2
  6
CONTINUOUS
 10
-0.792520
 20
2.165244
  0
VERTEX
  8
PLAN_1
 62
     2
  6
CONTINUOUS
 10
-0.844217
 20
2.165244
  0
VERTEX
  8
PLAN_1
 62
     2
  6
CONTINUOUS
 10
-0.844217
 20
2.148295
  0
VERTEX
  8
PLAN_1
 62
     2
  6
CONTINUOUS
 10
-0.851421
 20
2.148295
  0
VERTEX
  8
PLAN_1
 62
     2
  6
CONTINUOUS
 10
-0.851846
 20
2.152531
  0
VERTEX
  8
PLAN_1
 62
     2
  6
CONTINUOUS
 10
-0.852268
 20
2.155921
  0
VERTEX
  8
PLAN_1
 62
     2
  6
CONTINUOUS
 10
-0.853118
 20
2.158886
  0
VERTEX
  8
PLAN_1
 62
     2
  6
CONTINUOUS
 10
-0.854386
 20
2.161429
  0
VERTEX
  8
PLAN_1
 62
     2
  6
CONTINUOUS
 10
-0.856083
 20
2.163547
  0
VERTEX
  8
PLAN_1
 62
     2
  6
CONTINUOUS
 10
-0.858201
 20
2.165244
  0
VERTEX
  8
PLAN_1
 62
     2
  6
CONTINUOUS
 10
-0.861591
 20
2.166937
  0
VERTEX
  8
PLAN_1
 62
     2
  6
CONTINUOUS
 10
-0.865406
 20
2.167787
  0
VERTEX
  8
PLAN_1
 62
     2
  6
CONTINUOUS
 10
-0.865406
 20
2.174988
  0
VERTEX
  8
PLAN_1
 62
     2
  6
CONTINUOUS
 10
-0.792520
 20
2.174988
  0
SEQEND
  8
0
  0
POLYLINE
  8
PLAN_1
 62
     2
  6
CONTINUOUS
 66
     1
 40
0.003000
 41
0.003000
  0
VERTEX
  8
PLAN_1
 62
     2
  6
CONTINUOUS
 10
-0.839134
 20
2.200413
  0
VERTEX
  8
PLAN_1
 62
     2
  6
CONTINUOUS
 10
-0.843370
 20
2.200413
  0
VERTEX
  8
PLAN_1
 62
     2
  6
CONTINUOUS
 10
-0.847185
 20
2.200839
  0
VERTEX
  8
PLAN_1
 62
     2
  6
CONTINUOUS
 10
-0.850575
 20
2.202110
  0
VERTEX
  8
PLAN_1
 62
     2
  6
CONTINUOUS
 10
-0.853539
 20
2.202957
  0
VERTEX
  8
PLAN_1
 62
     2
  6
CONTINUOUS
 10
-0.856083
 20
2.204654
  0
VERTEX
  8
PLAN_1
 62
     2
  6
CONTINUOUS
 10
-0.858201
 20
2.206346
  0
VERTEX
  8
PLAN_1
 62
     2
  6
CONTINUOUS
 10
-0.859898
 20
2.208043
  0
VERTEX
  8
PLAN_1
 62
     2
  6
CONTINUOUS
 10
-0.861169
 20
2.210161
  0
VERTEX
  8
PLAN_1
 62
     2
  6
CONTINUOUS
 10
-0.863287
 20
2.213976
  0
VERTEX
  8
PLAN_1
 62
     2
  6
CONTINUOUS
 10
-0.864559
 20
2.218213
  0
VERTEX
  8
PLAN_1
 62
     2
  6
CONTINUOUS
 10
-0.865406
 20
2.222028
  0
VERTEX
  8
PLAN_1
 62
     2
  6
CONTINUOUS
 10
-0.865406
 20
2.225417
  0
VERTEX
  8
PLAN_1
 62
     2
  6
CONTINUOUS
 10
-0.864980
 20
2.230079
  0
VERTEX
  8
PLAN_1
 62
     2
  6
CONTINUOUS
 10
-0.864134
 20
2.234315
  0
VERTEX
  8
PLAN_1
 62
     2
  6
CONTINUOUS
 10
-0.862016
 20
2.238551
  0
VERTEX
  8
PLAN_1
 62
     2
  6
CONTINUOUS
 10
-0.859472
 20
2.241941
  0
VERTEX
  8
PLAN_1
 62
     2
  6
CONTINUOUS
 10
-0.858201
 20
2.243213
  0
VERTEX
  8
PLAN_1
 62
     2
  6
CONTINUOUS
 10
-0.856508
 20
2.244484
  0
VERTEX
  8
PLAN_1
 62
     2
  6
CONTINUOUS
 10
-0.854811
 20
2.245756
  0
VERTEX
  8
PLAN_1
 62
     2
  6
CONTINUOUS
 10
-0.852693
 20
2.246602
  0
VERTEX
  8
PLAN_1
 62
     2
  6
CONTINUOUS
 10
-0.850575
 20
2.247453
  0
VERTEX
  8
PLAN_1
 62
     2
  6
CONTINUOUS
 10
-0.848457
 20
2.247874
  0
VERTEX
  8
PLAN_1
 62
     2
  6
CONTINUOUS
 10
-0.846335
 20
2.248299
  0
VERTEX
  8
PLAN_1
 62
     2
  6
CONTINUOUS
 10
-0.843795
 20
2.248299
  0
VERTEX
  8
PLAN_1
 62
     2
  6
CONTINUOUS
 10
-0.839134
 20
2.247874
  0
VERTEX
  8
PLAN_1
 62
     2
  6
CONTINUOUS
 10
-0.835319
 20
2.247028
  0
VERTEX
  8
PLAN_1
 62
     2
  6
CONTINUOUS
 10
-0.831504
 20
2.245331
  0
VERTEX
  8
PLAN_1
 62
     2
  6
CONTINUOUS
 10
-0.828539
 20
2.242791
  0
VERTEX
  8
PLAN_1
 62
     2
  6
CONTINUOUS
 10
-0.825996
 20
2.239823
  0
VERTEX
  8
PLAN_1
 62
     2
  6
CONTINUOUS
 10
-0.823453
 20
2.236433
  0
VERTEX
  8
PLAN_1
 62
     2
  6
CONTINUOUS
 10
-0.821335
 20
2.233043
  0
VERTEX
  8
PLAN_1
 62
     2
  6
CONTINUOUS
 10
-0.819217
 20
2.228807
  0
VERTEX
  8
PLAN_1
 62
     2
  6
CONTINUOUS
 10
-0.814980
 20
2.221177
  0
VERTEX
  8
PLAN_1
 62
     2
  6
CONTINUOUS
 10
-0.812858
 20
2.217787
  0
VERTEX
  8
PLAN_1
 62
     2
  6
CONTINUOUS
 10
-0.810740
 20
2.215248
  0
VERTEX
  8
PLAN_1
 62
     2
  6
CONTINUOUS
 10
-0.809047
 20
2.213126
  0
VERTEX
  8
PLAN_1
 62
     2
  6
CONTINUOUS
 10
-0.806929
 20
2.211433
  0
VERTEX
  8
PLAN_1
 62
     2
  6
CONTINUOUS
 10
-0.805232
 20
2.210161
  0
VERTEX
  8
PLAN_1
 62
     2
  6
CONTINUOUS
 10
-0.803539
 20
2.209315
  0
VERTEX
  8
PLAN_1
 62
     2
  6
CONTINUOUS
 10
-0.802268
 20
2.208890
  0
VERTEX
  8
PLAN_1
 62
     2
  6
CONTINUOUS
 10
-0.800996
 20
2.208890
  0
VERTEX
  8
PLAN_1
 62
     2
  6
CONTINUOUS
 10
-0.800996
 20
2.248299
  0
VERTEX
  8
PLAN_1
 62
     2
  6
CONTINUOUS
 10
-0.792520
 20
2.248299
  0
VERTEX
  8
PLAN_1
 62
     2
  6
CONTINUOUS
 10
-0.792520
 20
2.198295
  0
VERTEX
  8
PLAN_1
 62
     2
  6
CONTINUOUS
 10
-0.797606
 20
2.198720
  0
VERTEX
  8
PLAN_1
 62
     2
  6
CONTINUOUS
 10
-0.802689
 20
2.199992
  0
VERTEX
  8
PLAN_1
 62
     2
  6
CONTINUOUS
 10
-0.806504
 20
2.201685
  0
VERTEX
  8
PLAN_1
 62
     2
  6
CONTINUOUS
 10
-0.810319
 20
2.203382
  0
VERTEX
  8
PLAN_1
 62
     2
  6
CONTINUOUS
 10
-0.813709
 20
2.205925
  0
VERTEX
  8
PLAN_1
 62
     2
  6
CONTINUOUS
 10
-0.816673
 20
2.208890
  0
VERTEX
  8
PLAN_1
 62
     2
  6
CONTINUOUS
 10
-0.819217
 20
2.211854
  0
VERTEX
  8
PLAN_1
 62
     2
  6
CONTINUOUS
 10
-0.821335
 20
2.215669
  0
VERTEX
  8
PLAN_1
 62
     2
  6
CONTINUOUS
 10
-0.826843
 20
2.225417
  0
VERTEX
  8
PLAN_1
 62
     2
  6
CONTINUOUS
 10
-0.828539
 20
2.227961
  0
VERTEX
  8
PLAN_1
 62
     2
  6
CONTINUOUS
 10
-0.830232
 20
2.230500
  0
VERTEX
  8
PLAN_1
 62
     2
  6
CONTINUOUS
 10
-0.831929
 20
2.233043
  0
VERTEX
  8
PLAN_1
 62
     2
  6
CONTINUOUS
 10
-0.833622
 20
2.234740
  0
VERTEX
  8
PLAN_1
 62
     2
  6
CONTINUOUS
 10
-0.835744
 20
2.236433
  0
VERTEX
  8
PLAN_1
 62
     2
  6
CONTINUOUS
 10
-0.837862
 20
2.237705
  0
VERTEX
  8
PLAN_1
 62
     2
  6
CONTINUOUS
 10
-0.840827
 20
2.238551
  0
VERTEX
  8
PLAN_1
 62
     2
  6
CONTINUOUS
 10
-0.844217
 20
2.238551
  0
VERTEX
  8
PLAN_1
 62
     2
  6
CONTINUOUS
 10
-0.846335
 20
2.238551
  0
VERTEX
  8
PLAN_1
 62
     2
  6
CONTINUOUS
 10
-0.848457
 20
2.238130
  0
VERTEX
  8
PLAN_1
 62
     2
  6
CONTINUOUS
 10
-0.850996
 20
2.236858
  0
VERTEX
  8
PLAN_1
 62
     2
  6
CONTINUOUS
 10
-0.852693
 20
2.235587
  0
VERTEX
  8
PLAN_1
 62
     2
  6
CONTINUOUS
 10
-0.854811
 20
2.233469
  0
VERTEX
  8
PLAN_1
 62
     2
  6
CONTINUOUS
 10
-0.856083
 20
2.230925
  0
VERTEX
  8
PLAN_1
 62
     2
  6
CONTINUOUS
 10
-0.856929
 20
2.227961
  0
VERTEX
  8
PLAN_1
 62
     2
  6
CONTINUOUS
 10
-0.857354
 20
2.224146
  0
VERTEX
  8
PLAN_1
 62
     2
  6
CONTINUOUS
 10
-0.856929
 20
2.221602
  0
VERTEX
  8
PLAN_1
 62
     2
  6
CONTINUOUS
 10
-0.856508
 20
2.219484
  0
VERTEX
  8
PLAN_1
 62
     2
  6
CONTINUOUS
 10
-0.856083
 20
2.217787
  0
VERTEX
  8
PLAN_1
 62
     2
  6
CONTINUOUS
 10
-0.855236
 20
2.216094
  0
VERTEX
  8
PLAN_1
 62
     2
  6
CONTINUOUS
 10
-0.853965
 20
2.214823
  0
VERTEX
  8
PLAN_1
 62
     2
  6
CONTINUOUS
 10
-0.853118
 20
2.213551
  0
VERTEX
  8
PLAN_1
 62
     2
  6
CONTINUOUS
 10
-0.851421
 20
2.212705
  0
VERTEX
  8
PLAN_1
 62
     2
  6
CONTINUOUS
 10
-0.850150
 20
2.211854
  0
VERTEX
  8
PLAN_1
 62
     2
  6
CONTINUOUS
 10
-0.847185
 20
2.210587
  0
VERTEX
  8
PLAN_1
 62
     2
  6
CONTINUOUS
 10
-0.844217
 20
2.209736
  0
VERTEX
  8
PLAN_1
 62
     2
  6
CONTINUOUS
 10
-0.841673
 20
2.209736
  0
VERTEX
  8
PLAN_1
 62
     2
  6
CONTINUOUS
 10
-0.839134
 20
2.209315
  0
VERTEX
  8
PLAN_1
 62
     2
  6
CONTINUOUS
 10
-0.839134
 20
2.200413
  0
SEQEND
  8
0
  0
POLYLINE
  8
PLAN_1
 62
     2
  6
CONTINUOUS
 66
     1
 40
0.003000
 41
0.003000
  0
VERTEX
  8
PLAN_1
 62
     2
  6
CONTINUOUS
 10
-0.834894
 20
2.269063
  0
VERTEX
  8
PLAN_1
 62
     2
  6
CONTINUOUS
 10
-0.835744
 20
2.270335
  0
VERTEX
  8
PLAN_1
 62
     2
  6
CONTINUOUS
 10
-0.836591
 20
2.271606
  0
VERTEX
  8
PLAN_1
 62
     2
  6
CONTINUOUS
 10
-0.837437
 20
2.272878
  0
VERTEX
  8
PLAN_1
 62
     2
  6
CONTINUOUS
 10
-0.838283
 20
2.274571
  0
VERTEX
  8
PLAN_1
 62
     2
  6
CONTINUOUS
 10
-0.838709
 20
2.276689
  0
VERTEX
  8
PLAN_1
 62
     2
  6
CONTINUOUS
 10
-0.839134
 20
2.278386
  0
VERTEX
  8
PLAN_1
 62
     2
  6
CONTINUOUS
 10
-0.839555
 20
2.280504
  0
VERTEX
  8
PLAN_1
 62
     2
  6
CONTINUOUS
 10
-0.839555
 20
2.283047
  0
VERTEX
  8
PLAN_1
 62
     2
  6
CONTINUOUS
 10
-0.839134
 20
2.287283
  0
VERTEX
  8
PLAN_1
 62
     2
  6
CONTINUOUS
 10
-0.837862
 20
2.291945
  0
VERTEX
  8
PLAN_1
 62
     2
  6
CONTINUOUS
 10
-0.836165
 20
2.295760
  0
VERTEX
  8
PLAN_1
 62
     2
  6
CONTINUOUS
 10
-0.833622
 20
2.299571
  0
VERTEX
  8
PLAN_1
 62
     2
  6
CONTINUOUS
 10
-0.831929
 20
2.301268
  0
VERTEX
  8
PLAN_1
 62
     2
  6
CONTINUOUS
 10
-0.830232
 20
2.302539
  0
VERTEX
  8
PLAN_1
 62
     2
  6
CONTINUOUS
 10
-0.828114
 20
2.303811
  0
VERTEX
  8
PLAN_1
 62
     2
  6
CONTINUOUS
 10
-0.825996
 20
2.305083
  0
VERTEX
  8
PLAN_1
 62
     2
  6
CONTINUOUS
 10
-0.823878
 20
2.305929
  0
VERTEX
  8
PLAN_1
 62
     2
  6
CONTINUOUS
 10
-0.821335
 20
2.306354
  0
VERTEX
  8
PLAN_1
 62
     2
  6
CONTINUOUS
 10
-0.818791
 20
2.306776
  0
VERTEX
  8
PLAN_1
 62
     2
  6
CONTINUOUS
 10
-0.816252
 20
2.307201
  0
VERTEX
  8
PLAN_1
 62
     2
  6
CONTINUOUS
 10
-0.812437
 20
2.306776
  0
VERTEX
  8
PLAN_1
 62
     2
  6
CONTINUOUS
 10
-0.808622
 20
2.306354
  0
VERTEX
  8
PLAN_1
 62
     2
  6
CONTINUOUS
 10
-0.804386
 20
2.304657
  0
VERTEX
  8
PLAN_1
 62
     2
  6
CONTINUOUS
 10
-0.800146
 20
2.302539
  0
VERTEX
  8
PLAN_1
 62
     2
  6
CONTINUOUS
 10
-0.798028
 20
2.300843
  0
VERTEX
  8
PLAN_1
 62
     2
  6
CONTINUOUS
 10
-0.796335
 20
2.299150
  0
VERTEX
  8
PLAN_1
 62
     2
  6
CONTINUOUS
 10
-0.794638
 20
2.297031
  0
VERTEX
  8
PLAN_1
 62
     2
  6
CONTINUOUS
 10
-0.793366
 20
2.294488
  0
VERTEX
  8
PLAN_1
 62
     2
  6
CONTINUOUS
 10
-0.792094
 20
2.291520
  0
VERTEX
  8
PLAN_1
 62
     2
  6
CONTINUOUS
 10
-0.791248
 20
2.288130
  0
VERTEX
  8
PLAN_1
 62
     2
  6
CONTINUOUS
 10
-0.790402
 20
2.284740
  0
VERTEX
  8
PLAN_1
 62
     2
  6
CONTINUOUS
 10
-0.790402
 20
2.280504
  0
VERTEX
  8
PLAN_1
 62
     2
  6
CONTINUOUS
 10
-0.790402
 20
2.276689
  0
VERTEX
  8
PLAN_1
 62
     2
  6
CONTINUOUS
 10
-0.791248
 20
2.272878
  0
VERTEX
  8
PLAN_1
 62
     2
  6
CONTINUOUS
 10
-0.792520
 20
2.269488
  0
VERTEX
  8
PLAN_1
 62
     2
  6
CONTINUOUS
 10
-0.794217
 20
2.265673
  0
VERTEX
  8
PLAN_1
 62
     2
  6
CONTINUOUS
 10
-0.795488
 20
2.263976
  0
VERTEX
  8
PLAN_1
 62
     2
  6
CONTINUOUS
 10
-0.797181
 20
2.262705
  0
VERTEX
  8
PLAN_1
 62
     2
  6
CONTINUOUS
 10
-0.798453
 20
2.261433
  0
VERTEX
  8
PLAN_1
 62
     2
  6
CONTINUOUS
 10
-0.800571
 20
2.260165
  0
VERTEX
  8
PLAN_1
 62
     2
  6
CONTINUOUS
 10
-0.802689
 20
2.258894
  0
VERTEX
  8
PLAN_1
 62
     2
  6
CONTINUOUS
 10
-0.804807
 20
2.258043
  0
VERTEX
  8
PLAN_1
 62
     2
  6
CONTINUOUS
 10
-0.807776
 20
2.257197
  0
VERTEX
  8
PLAN_1
 62
     2
  6
CONTINUOUS
 10
-0.810740
 20
2.256776
  0
VERTEX
  8
PLAN_1
 62
     2
  6
CONTINUOUS
 10
-0.810740
 20
2.266520
  0
VERTEX
  8
PLAN_1
 62
     2
  6
CONTINUOUS
 10
-0.807776
 20
2.266945
  0
VERTEX
  8
PLAN_1
 62
     2
  6
CONTINUOUS
 10
-0.805232
 20
2.268217
  0
VERTEX
  8
PLAN_1
 62
     2
  6
CONTINUOUS
 10
-0.803114
 20
2.269488
  0
VERTEX
  8
PLAN_1
 62
     2
  6
CONTINUOUS
 10
-0.801417
 20
2.271606
  0
VERTEX
  8
PLAN_1
 62
     2
  6
CONTINUOUS
 10
-0.799724
 20
2.273724
  0
VERTEX
  8
PLAN_1
 62
     2
  6
CONTINUOUS
 10
-0.798878
 20
2.276268
  0
VERTEX
  8
PLAN_1
 62
     2
  6
CONTINUOUS
 10
-0.798453
 20
2.278807
  0
VERTEX
  8
PLAN_1
 62
     2
  6
CONTINUOUS
 10
-0.798453
 20
2.281776
  0
VERTEX
  8
PLAN_1
 62
     2
  6
CONTINUOUS
 10
-0.798453
 20
2.285165
  0
VERTEX
  8
PLAN_1
 62
     2
  6
CONTINUOUS
 10
-0.799724
 20
2.288130
  0
VERTEX
  8
PLAN_1
 62
     2
  6
CONTINUOUS
 10
-0.800996
 20
2.291098
  0
VERTEX
  8
PLAN_1
 62
     2
  6
CONTINUOUS
 10
-0.803114
 20
2.293217
  0
VERTEX
  8
PLAN_1
 62
     2
  6
CONTINUOUS
 10
-0.805657
 20
2.294909
  0
VERTEX
  8
PLAN_1
 62
     2
  6
CONTINUOUS
 10
-0.808622
 20
2.296181
  0
VERTEX
  8
PLAN_1
 62
     2
  6
CONTINUOUS
 10
-0.811591
 20
2.297031
  0
VERTEX
  8
PLAN_1
 62
     2
  6
CONTINUOUS
 10
-0.814980
 20
2.297453
  0
VERTEX
  8
PLAN_1
 62
     2
  6
CONTINUOUS
 10
-0.818791
 20
2.297031
  0
VERTEX
  8
PLAN_1
 62
     2
  6
CONTINUOUS
 10
-0.822181
 20
2.296181
  0
VERTEX
  8
PLAN_1
 62
     2
  6
CONTINUOUS
 10
-0.824724
 20
2.294488
  0
VERTEX
  8
PLAN_1
 62
     2
  6
CONTINUOUS
 10
-0.827268
 20
2.292370
  0
VERTEX
  8
PLAN_1
 62
     2
  6
CONTINUOUS
 10
-0.828961
 20
2.290252
  0
VERTEX
  8
PLAN_1
 62
     2
  6
CONTINUOUS
 10
-0.830232
 20
2.287283
  0
VERTEX
  8
PLAN_1
 62
     2
  6
CONTINUOUS
 10
-0.831083
 20
2.284319
  0
VERTEX
  8
PLAN_1
 62
     2
  6
CONTINUOUS
 10
-0.831083
 20
2.280929
  0
VERTEX
  8
PLAN_1
 62
     2
  6
CONTINUOUS
 10
-0.831083
 20
2.279232
  0
VERTEX
  8
PLAN_1
 62
     2
  6
CONTINUOUS
 10
-0.830657
 20
2.277114
  0
VERTEX
  8
PLAN_1
 62
     2
  6
CONTINUOUS
 10
-0.830232
 20
2.275417
  0
VERTEX
  8
PLAN_1
 62
     2
  6
CONTINUOUS
 10
-0.829386
 20
2.273724
  0
VERTEX
  8
PLAN_1
 62
     2
  6
CONTINUOUS
 10
-0.828539
 20
2.272028
  0
VERTEX
  8
PLAN_1
 62
     2
  6
CONTINUOUS
 10
-0.827268
 20
2.270335
  0
VERTEX
  8
PLAN_1
 62
     2
  6
CONTINUOUS
 10
-0.825996
 20
2.269063
  0
VERTEX
  8
PLAN_1
 62
     2
  6
CONTINUOUS
 10
-0.824303
 20
2.267366
  0
VERTEX
  8
PLAN_1
 62
     2
  6
CONTINUOUS
 10
-0.824724
 20
2.259740
  0
VERTEX
  8
PLAN_1
 62
     2
  6
CONTINUOUS
 10
-0.863709
 20
2.265248
  0
VERTEX
  8
PLAN_1
 62
     2
  6
CONTINUOUS
 10
-0.863709
 20
2.302961
  0
VERTEX
  8
PLAN_1
 62
     2
  6
CONTINUOUS
 10
-0.854811
 20
2.302961
  0
VERTEX
  8
PLAN_1
 62
     2
  6
CONTINUOUS
 10
-0.854811
 20
2.272028
  0
VERTEX
  8
PLAN_1
 62
     2
  6
CONTINUOUS
 10
-0.834894
 20
2.269063
  0
SEQEND
  8
0
  0
POLYLINE
  8
PLAN_1
 62
     2
  6
CONTINUOUS
 66
     1
 40
0.004236
 41
0.004236
  0
VERTEX
  8
PLAN_1
 62
     2
  6
CONTINUOUS
 10
-0.926000
 20
1.422409
  0
VERTEX
  8
PLAN_1
 62
     2
  6
CONTINUOUS
 10
-0.926000
 20
3.112327
  0
SEQEND
  8
0
  0
SOLID
  8
PLAN_1
 62
     2
 10
-0.926000
 20
3.141988
 11
-0.942102
 21
3.082661
 12
-0.926000
 22
3.141988
 13
-0.910323
 23
3.082661
  0
POLYLINE
  8
PLAN_1
 62
     2
  6
CONTINUOUS
 66
     1
 40
0.003000
 41
0.003000
  0
VERTEX
  8
PLAN_1
 62
     2
  6
CONTINUOUS
 10
-0.926000
 20
3.141988
  0
VERTEX
  8
PLAN_1
 62
     2
  6
CONTINUOUS
 10
-0.942102
 20
3.082661
  0
VERTEX
  8
PLAN_1
 62
     2
  6
CONTINUOUS
 10
-0.910323
 20
3.082661
  0
VERTEX
  8
PLAN_1
 62
     2
  6
CONTINUOUS
 10
-0.926000
 20
3.141988
  0
SEQEND
  8
0
  0
SOLID
  8
PLAN_1
 62
     2
 10
-0.926000
 20
1.392748
 11
-0.942102
 21
1.452071
 12
-0.926000
 22
1.392748
 13
-0.910323
 23
1.452071
  0
POLYLINE
  8
PLAN_1
 62
     2
  6
CONTINUOUS
 66
     1
 40
0.003000
 41
0.003000
  0
VERTEX
  8
PLAN_1
 62
     2
  6
CONTINUOUS
 10
-0.926000
 20
1.392748
  0
VERTEX
  8
PLAN_1
 62
     2
  6
CONTINUOUS
 10
-0.942102
 20
1.452071
  0
VERTEX
  8
PLAN_1
 62
     2
  6
CONTINUOUS
 10
-0.910323
 20
1.452071
  0
VERTEX
  8
PLAN_1
 62
     2
  6
CONTINUOUS
 10
-0.926000
 20
1.392748
  0
SEQEND
  8
0
  0
POLYLINE
  8
PLAN_1
 62
     2
  6
CONTINUOUS
 66
     1
 40
0.003000
 41
0.003000
  0
VERTEX
  8
PLAN_1
 62
     2
  6
CONTINUOUS
 10
-0.949732
 20
2.093630
  0
VERTEX
  8
PLAN_1
 62
     2
  6
CONTINUOUS
 10
-0.949732
 20
2.083882
  0
VERTEX
  8
PLAN_1
 62
     2
  6
CONTINUOUS
 10
-1.001854
 20
2.083882
  0
VERTEX
  8
PLAN_1
 62
     2
  6
CONTINUOUS
 10
-1.001854
 20
2.066512
  0
VERTEX
  8
PLAN_1
 62
     2
  6
CONTINUOUS
 10
-1.009055
 20
2.066512
  0
VERTEX
  8
PLAN_1
 62
     2
  6
CONTINUOUS
 10
-1.009480
 20
2.070748
  0
VERTEX
  8
PLAN_1
 62
     2
  6
CONTINUOUS
 10
-1.009906
 20
2.074138
  0
VERTEX
  8
PLAN_1
 62
     2
  6
CONTINUOUS
 10
-1.010752
 20
2.077102
  0
VERTEX
  8
PLAN_1
 62
     2
  6
CONTINUOUS
 10
-1.011598
 20
2.079646
  0
VERTEX
  8
PLAN_1
 62
     2
  6
CONTINUOUS
 10
-1.013295
 20
2.081764
  0
VERTEX
  8
PLAN_1
 62
     2
  6
CONTINUOUS
 10
-1.015835
 20
2.083461
  0
VERTEX
  8
PLAN_1
 62
     2
  6
CONTINUOUS
 10
-1.018803
 20
2.085154
  0
VERTEX
  8
PLAN_1
 62
     2
  6
CONTINUOUS
 10
-1.023039
 20
2.086425
  0
VERTEX
  8
PLAN_1
 62
     2
  6
CONTINUOUS
 10
-1.023039
 20
2.093630
  0
VERTEX
  8
PLAN_1
 62
     2
  6
CONTINUOUS
 10
-0.949732
 20
2.093630
  0
SEQEND
  8
0
  0
POLYLINE
  8
PLAN_1
 62
     2
  6
CONTINUOUS
 66
     1
 40
0.003000
 41
0.003000
  0
VERTEX
  8
PLAN_1
 62
     2
  6
CONTINUOUS
 10
-0.991260
 20
2.137276
  0
VERTEX
  8
PLAN_1
 62
     2
  6
CONTINUOUS
 10
-0.991260
 20
2.137701
  0
VERTEX
  8
PLAN_1
 62
     2
  6
CONTINUOUS
 10
-0.991260
 20
2.138547
  0
VERTEX
  8
PLAN_1
 62
     2
  6
CONTINUOUS
 10
-0.991260
 20
2.138972
  0
VERTEX
  8
PLAN_1
 62
     2
  6
CONTINUOUS
 10
-0.991260
 20
2.139819
  0
VERTEX
  8
PLAN_1
 62
     2
  6
CONTINUOUS
 10
-0.991260
 20
2.140244
  0
VERTEX
  8
PLAN_1
 62
     2
  6
CONTINUOUS
 10
-0.991260
 20
2.141091
  0
VERTEX
  8
PLAN_1
 62
     2
  6
CONTINUOUS
 10
-0.991260
 20
2.141512
  0
VERTEX
  8
PLAN_1
 62
     2
  6
CONTINUOUS
 10
-0.991260
 20
2.141937
  0
VERTEX
  8
PLAN_1
 62
     2
  6
CONTINUOUS
 10
-0.991260
 20
2.144906
  0
VERTEX
  8
PLAN_1
 62
     2
  6
CONTINUOUS
 10
-0.991681
 20
2.147445
  0
VERTEX
  8
PLAN_1
 62
     2
  6
CONTINUOUS
 10
-0.992531
 20
2.149567
  0
VERTEX
  8
PLAN_1
 62
     2
  6
CONTINUOUS
 10
-0.993803
 20
2.151685
  0
VERTEX
  8
PLAN_1
 62
     2
  6
CONTINUOUS
 10
-0.995496
 20
2.153378
  0
VERTEX
  8
PLAN_1
 62
     2
  6
CONTINUOUS
 10
-0.997614
 20
2.154650
  0
VERTEX
  8
PLAN_1
 62
     2
  6
CONTINUOUS
 10
-1.000157
 20
2.155921
  0
VERTEX
  8
PLAN_1
 62
     2
  6
CONTINUOUS
 10
-1.003122
 20
2.155921
  0
VERTEX
  8
PLAN_1
 62
     2
  6
CONTINUOUS
 10
-1.004819
 20
2.155921
  0
VERTEX
  8
PLAN_1
 62
     2
  6
CONTINUOUS
 10
-1.006937
 20
2.155496
  0
VERTEX
  8
PLAN_1
 62
     2
  6
CONTINUOUS
 10
-1.008634
 20
2.154650
  0
VERTEX
  8
PLAN_1
 62
     2
  6
CONTINUOUS
 10
-1.010752
 20
2.153378
  0
VERTEX
  8
PLAN_1
 62
     2
  6
CONTINUOUS
 10
-1.012024
 20
2.151685
  0
VERTEX
  8
PLAN_1
 62
     2
  6
CONTINUOUS
 10
-1.013717
 20
2.149142
  0
VERTEX
  8
PLAN_1
 62
     2
  6
CONTINUOUS
 10
-1.014567
 20
2.146173
  0
VERTEX
  8
PLAN_1
 62
     2
  6
CONTINUOUS
 10
-1.014567
 20
2.142362
  0
VERTEX
  8
PLAN_1
 62
     2
  6
CONTINUOUS
 10
-1.014567
 20
2.140244
  0
VERTEX
  8
PLAN_1
 62
     2
  6
CONTINUOUS
 10
-1.014142
 20
2.138122
  0
VERTEX
  8
PLAN_1
 62
     2
  6
CONTINUOUS
 10
-1.013717
 20
2.136429
  0
VERTEX
  8
PLAN_1
 62
     2
  6
CONTINUOUS
 10
-1.012870
 20
2.134732
  0
VERTEX
  8
PLAN_1
 62
     2
  6
CONTINUOUS
 10
-1.011173
 20
2.132193
  0
VERTEX
  8
PLAN_1
 62
     2
  6
CONTINUOUS
 10
-1.008634
 20
2.130496
  0
VERTEX
  8
PLAN_1
 62
     2
  6
CONTINUOUS
 10
-1.006091
 20
2.129650
  0
VERTEX
  8
PLAN_1
 62
     2
  6
CONTINUOUS
 10
-1.003547
 20
2.128803
  0
VERTEX
  8
PLAN_1
 62
     2
  6
CONTINUOUS
 10
-1.001004
 20
2.128378
  0
VERTEX
  8
PLAN_1
 62
     2
  6
CONTINUOUS
 10
-0.998886
 20
2.128378
  0
VERTEX
  8
PLAN_1
 62
     2
  6
CONTINUOUS
 10
-0.998886
 20
2.119480
  0
VERTEX
  8
PLAN_1
 62
     2
  6
CONTINUOUS
 10
-1.003122
 20
2.119480
  0
VERTEX
  8
PLAN_1
 62
     2
  6
CONTINUOUS
 10
-1.007362
 20
2.120327
  0
VERTEX
  8
PLAN_1
 62
     2
  6
CONTINUOUS
 10
-1.011173
 20
2.121598
  0
VERTEX
  8
PLAN_1
 62
     2
  6
CONTINUOUS
 10
-1.014988
 20
2.123717
  0
VERTEX
  8
PLAN_1
 62
     2
  6
CONTINUOUS
 10
-1.016685
 20
2.125409
  0
VERTEX
  8
PLAN_1
 62
     2
  6
CONTINUOUS
 10
-1.018378
 20
2.127106
  0
VERTEX
  8
PLAN_1
 62
     2
  6
CONTINUOUS
 10
-1.019650
 20
2.128803
  0
VERTEX
  8
PLAN_1
 62
     2
  6
CONTINUOUS
 10
-1.020921
 20
2.130921
  0
VERTEX
  8
PLAN_1
 62
     2
  6
CONTINUOUS
 10
-1.021768
 20
2.133461
  0
VERTEX
  8
PLAN_1
 62
     2
  6
CONTINUOUS
 10
-1.022193
 20
2.136429
  0
VERTEX
  8
PLAN_1
 62
     2
  6
CONTINUOUS
 10
-1.022618
 20
2.139394
  0
VERTEX
  8
PLAN_1
 62
     2
  6
CONTINUOUS
 10
-1.023039
 20
2.142783
  0
VERTEX
  8
PLAN_1
 62
     2
  6
CONTINUOUS
 10
-1.022618
 20
2.147870
  0
VERTEX
  8
PLAN_1
 62
     2
  6
CONTINUOUS
 10
-1.021346
 20
2.152531
  0
VERTEX
  8
PLAN_1
 62
     2
  6
CONTINUOUS
 10
-1.019650
 20
2.156346
  0
VERTEX
  8
PLAN_1
 62
     2
  6
CONTINUOUS
 10
-1.017531
 20
2.159311
  0
VERTEX
  8
PLAN_1
 62
     2
  6
CONTINUOUS
 10
-1.014567
 20
2.162276
  0
VERTEX
  8
PLAN_1
 62
     2
  6
CONTINUOUS
 10
-1.011598
 20
2.163972
  0
VERTEX
  8
PLAN_1
 62
     2
  6
CONTINUOUS
 10
-1.007783
 20
2.165244
  0
VERTEX
  8
PLAN_1
 62
     2
  6
CONTINUOUS
 10
-1.003547
 20
2.165669
  0
VERTEX
  8
PLAN_1
 62
     2
  6
CONTINUOUS
 10
-1.000583
 20
2.165244
  0
VERTEX
  8
PLAN_1
 62
     2
  6
CONTINUOUS
 10
-0.997614
 20
2.164398
  0
VERTEX
  8
PLAN_1
 62
     2
  6
CONTINUOUS
 10
-0.995071
 20
2.163547
  0
VERTEX
  8
PLAN_1
 62
     2
  6
CONTINUOUS
 10
-0.992953
 20
2.162276
  0
VERTEX
  8
PLAN_1
 62
     2
  6
CONTINUOUS
 10
-0.991260
 20
2.161008
  0
VERTEX
  8
PLAN_1
 62
     2
  6
CONTINUOUS
 10
-0.989988
 20
2.159311
  0
VERTEX
  8
PLAN_1
 62
     2
  6
CONTINUOUS
 10
-0.989142
 20
2.157618
  0
VERTEX
  8
PLAN_1
 62
     2
  6
CONTINUOUS
 10
-0.988717
 20
2.155921
  0
VERTEX
  8
PLAN_1
 62
     2
  6
CONTINUOUS
 10
-0.988291
 20
2.155921
  0
VERTEX
  8
PLAN_1
 62
     2
  6
CONTINUOUS
 10
-0.987445
 20
2.158886
  0
VERTEX
  8
PLAN_1
 62
     2
  6
CONTINUOUS
 10
-0.986173
 20
2.161008
  0
VERTEX
  8
PLAN_1
 62
     2
  6
CONTINUOUS
 10
-0.984480
 20
2.163126
  0
VERTEX
  8
PLAN_1
 62
     2
  6
CONTINUOUS
 10
-0.982783
 20
2.164819
  0
VERTEX
  8
PLAN_1
 62
     2
  6
CONTINUOUS
 10
-0.980240
 20
2.166516
  0
VERTEX
  8
PLAN_1
 62
     2
  6
CONTINUOUS
 10
-0.977697
 20
2.167362
  0
VERTEX
  8
PLAN_1
 62
     2
  6
CONTINUOUS
 10
-0.974732
 20
2.168209
  0
VERTEX
  8
PLAN_1
 62
     2
  6
CONTINUOUS
 10
-0.971343
 20
2.168209
  0
VERTEX
  8
PLAN_1
 62
     2
  6
CONTINUOUS
 10
-0.966681
 20
2.167787
  0
VERTEX
  8
PLAN_1
 62
     2
  6
CONTINUOUS
 10
-0.962445
 20
2.166937
  0
VERTEX
  8
PLAN_1
 62
     2
  6
CONTINUOUS
 10
-0.960748
 20
2.166091
  0
VERTEX
  8
PLAN_1
 62
     2
  6
CONTINUOUS
 10
-0.958630
 20
2.164819
  0
VERTEX
  8
PLAN_1
 62
     2
  6
CONTINUOUS
 10
-0.956933
 20
2.163547
  0
VERTEX
  8
PLAN_1
 62
     2
  6
CONTINUOUS
 10
-0.955240
 20
2.162276
  0
VERTEX
  8
PLAN_1
 62
     2
  6
CONTINUOUS
 10
-0.953543
 20
2.160583
  0
VERTEX
  8
PLAN_1
 62
     2
  6
CONTINUOUS
 10
-0.952276
 20
2.158465
  0
VERTEX
  8
PLAN_1
 62
     2
  6
CONTINUOUS
 10
-0.951004
 20
2.156346
  0
VERTEX
  8
PLAN_1
 62
     2
  6
CONTINUOUS
 10
-0.949732
 20
2.153803
  0
VERTEX
  8
PLAN_1
 62
     2
  6
CONTINUOUS
 10
-0.948882
 20
2.151260
  0
VERTEX
  8
PLAN_1
 62
     2
  6
CONTINUOUS
 10
-0.948461
 20
2.148295
  0
VERTEX
  8
PLAN_1
 62
     2
  6
CONTINUOUS
 10
-0.948035
 20
2.145327
  0
VERTEX
  8
PLAN_1
 62
     2
  6
CONTINUOUS
 10
-0.947614
 20
2.141937
  0
VERTEX
  8
PLAN_1
 62
     2
  6
CONTINUOUS
 10
-0.948035
 20
2.139819
  0
VERTEX
  8
PLAN_1
 62
     2
  6
CONTINUOUS
 10
-0.948035
 20
2.138122
  0
VERTEX
  8
PLAN_1
 62
     2
  6
CONTINUOUS
 10
-0.948461
 20
2.136429
  0
VERTEX
  8
PLAN_1
 62
     2
  6
CONTINUOUS
 10
-0.948882
 20
2.134732
  0
VERTEX
  8
PLAN_1
 62
     2
  6
CONTINUOUS
 10
-0.949307
 20
2.133039
  0
VERTEX
  8
PLAN_1
 62
     2
  6
CONTINUOUS
 10
-0.949732
 20
2.131343
  0
VERTEX
  8
PLAN_1
 62
     2
  6
CONTINUOUS
 10
-0.950579
 20
2.129650
  0
VERTEX
  8
PLAN_1
 62
     2
  6
CONTINUOUS
 10
-0.951004
 20
2.128378
  0
VERTEX
  8
PLAN_1
 62
     2
  6
CONTINUOUS
 10
-0.952697
 20
2.125835
  0
VERTEX
  8
PLAN_1
 62
     2
  6
CONTINUOUS
 10
-0.954815
 20
2.123291
  0
VERTEX
  8
PLAN_1
 62
     2
  6
CONTINUOUS
 10
-0.957358
 20
2.121598
  0
VERTEX
  8
PLAN_1
 62
     2
  6
CONTINUOUS
 10
-0.959902
 20
2.120327
  0
VERTEX
  8
PLAN_1
 62
     2
  6
CONTINUOUS
 10
-0.962866
 20
2.119055
  0
VERTEX
  8
PLAN_1
 62
     2
  6
CONTINUOUS
 10
-0.965835
 20
2.118209
  0
VERTEX
  8
PLAN_1
 62
     2
  6
CONTINUOUS
 10
-0.969224
 20
2.117783
  0
VERTEX
  8
PLAN_1
 62
     2
  6
CONTINUOUS
 10
-0.972189
 20
2.117358
  0
VERTEX
  8
PLAN_1
 62
     2
  6
CONTINUOUS
 10
-0.972189
 20
2.127106
  0
VERTEX
  8
PLAN_1
 62
     2
  6
CONTINUOUS
 10
-0.969646
 20
2.127106
  0
VERTEX
  8
PLAN_1
 62
     2
  6
CONTINUOUS
 10
-0.966681
 20
2.127531
  0
VERTEX
  8
PLAN_1
 62
     2
  6
CONTINUOUS
 10
-0.964138
 20
2.128378
  0
VERTEX
  8
PLAN_1
 62
     2
  6
CONTINUOUS
 10
-0.961594
 20
2.129650
  0
VERTEX
  8
PLAN_1
 62
     2
  6
CONTINUOUS
 10
-0.959476
 20
2.131768
  0
VERTEX
  8
PLAN_1
 62
     2
  6
CONTINUOUS
 10
-0.957783
 20
2.134311
  0
VERTEX
  8
PLAN_1
 62
     2
  6
CONTINUOUS
 10
-0.956933
 20
2.136004
  0
VERTEX
  8
PLAN_1
 62
     2
  6
CONTINUOUS
 10
-0.956512
 20
2.138122
  0
VERTEX
  8
PLAN_1
 62
     2
  6
CONTINUOUS
 10
-0.956087
 20
2.140244
  0
VERTEX
  8
PLAN_1
 62
     2
  6
CONTINUOUS
 10
-0.956087
 20
2.142783
  0
VERTEX
  8
PLAN_1
 62
     2
  6
CONTINUOUS
 10
-0.956512
 20
2.146173
  0
VERTEX
  8
PLAN_1
 62
     2
  6
CONTINUOUS
 10
-0.956933
 20
2.149142
  0
VERTEX
  8
PLAN_1
 62
     2
  6
CONTINUOUS
 10
-0.958205
 20
2.151685
  0
VERTEX
  8
PLAN_1
 62
     2
  6
CONTINUOUS
 10
-0.959902
 20
2.154224
  0
VERTEX
  8
PLAN_1
 62
     2
  6
CONTINUOUS
 10
-0.962020
 20
2.155921
  0
VERTEX
  8
PLAN_1
 62
     2
  6
CONTINUOUS
 10
-0.964563
 20
2.157193
  0
VERTEX
  8
PLAN_1
 62
     2
  6
CONTINUOUS
 10
-0.967106
 20
2.158039
  0
VERTEX
  8
PLAN_1
 62
     2
  6
CONTINUOUS
 10
-0.970071
 20
2.158465
  0
VERTEX
  8
PLAN_1
 62
     2
  6
CONTINUOUS
 10
-0.972189
 20
2.158465
  0
VERTEX
  8
PLAN_1
 62
     2
  6
CONTINUOUS
 10
-0.974307
 20
2.158039
  0
VERTEX
  8
PLAN_1
 62
     2
  6
CONTINUOUS
 10
-0.976004
 20
2.157618
  0
VERTEX
  8
PLAN_1
 62
     2
  6
CONTINUOUS
 10
-0.977276
 20
2.156768
  0
VERTEX
  8
PLAN_1
 62
     2
  6
CONTINUOUS
 10
-0.979819
 20
2.154650
  0
VERTEX
  8
PLAN_1
 62
     2
  6
CONTINUOUS
 10
-0.981512
 20
2.152531
  0
VERTEX
  8
PLAN_1
 62
     2
  6
CONTINUOUS
 10
-0.982783
 20
2.149567
  0
VERTEX
  8
PLAN_1
 62
     2
  6
CONTINUOUS
 10
-0.983209
 20
2.146598
  0
VERTEX
  8
PLAN_1
 62
     2
  6
CONTINUOUS
 10
-0.983630
 20
2.144055
  0
VERTEX
  8
PLAN_1
 62
     2
  6
CONTINUOUS
 10
-0.983630
 20
2.141512
  0
VERTEX
  8
PLAN_1
 62
     2
  6
CONTINUOUS
 10
-0.983630
 20
2.141091
  0
VERTEX
  8
PLAN_1
 62
     2
  6
CONTINUOUS
 10
-0.983630
 20
2.140244
  0
VERTEX
  8
PLAN_1
 62
     2
  6
CONTINUOUS
 10
-0.983630
 20
2.139819
  0
VERTEX
  8
PLAN_1
 62
     2
  6
CONTINUOUS
 10
-0.983630
 20
2.139394
  0
VERTEX
  8
PLAN_1
 62
     2
  6
CONTINUOUS
 10
-0.983630
 20
2.138972
  0
VERTEX
  8
PLAN_1
 62
     2
  6
CONTINUOUS
 10
-0.983630
 20
2.138122
  0
VERTEX
  8
PLAN_1
 62
     2
  6
CONTINUOUS
 10
-0.983630
 20
2.137701
  0
VERTEX
  8
PLAN_1
 62
     2
  6
CONTINUOUS
 10
-0.983630
 20
2.137276
  0
VERTEX
  8
PLAN_1
 62
     2
  6
CONTINUOUS
 10
-0.991260
 20
2.137276
  0
SEQEND
  8
0
  0
POLYLINE
  8
PLAN_1
 62
     2
  6
CONTINUOUS
 66
     1
 40
0.003000
 41
0.003000
  0
VERTEX
  8
PLAN_1
 62
     2
  6
CONTINUOUS
 10
-1.021346
 20
2.175839
  0
VERTEX
  8
PLAN_1
 62
     2
  6
CONTINUOUS
 10
-1.021346
 20
2.226264
  0
VERTEX
  8
PLAN_1
 62
     2
  6
CONTINUOUS
 10
-1.013295
 20
2.226264
  0
VERTEX
  8
PLAN_1
 62
     2
  6
CONTINUOUS
 10
-1.009906
 20
2.223299
  0
VERTEX
  8
PLAN_1
 62
     2
  6
CONTINUOUS
 10
-1.004819
 20
2.219484
  0
VERTEX
  8
PLAN_1
 62
     2
  6
CONTINUOUS
 10
-0.998461
 20
2.214823
  0
VERTEX
  8
PLAN_1
 62
     2
  6
CONTINUOUS
 10
-0.990835
 20
2.210587
  0
VERTEX
  8
PLAN_1
 62
     2
  6
CONTINUOUS
 10
-0.982358
 20
2.206346
  0
VERTEX
  8
PLAN_1
 62
     2
  6
CONTINUOUS
 10
-0.972614
 20
2.202110
  0
VERTEX
  8
PLAN_1
 62
     2
  6
CONTINUOUS
 10
-0.967106
 20
2.200413
  0
VERTEX
  8
PLAN_1
 62
     2
  6
CONTINUOUS
 10
-0.961594
 20
2.198720
  0
VERTEX
  8
PLAN_1
 62
     2
  6
CONTINUOUS
 10
-0.955665
 20
2.197449
  0
VERTEX
  8
PLAN_1
 62
     2
  6
CONTINUOUS
 10
-0.949732
 20
2.196177
  0
VERTEX
  8
PLAN_1
 62
     2
  6
CONTINUOUS
 10
-0.949732
 20
2.186008
  0
VERTEX
  8
PLAN_1
 62
     2
  6
CONTINUOUS
 10
-0.957783
 20
2.187701
  0
VERTEX
  8
PLAN_1
 62
     2
  6
CONTINUOUS
 10
-0.965835
 20
2.189823
  0
VERTEX
  8
PLAN_1
 62
     2
  6
CONTINUOUS
 10
-0.974307
 20
2.192787
  0
VERTEX
  8
PLAN_1
 62
     2
  6
CONTINUOUS
 10
-0.982358
 20
2.196602
  0
VERTEX
  8
PLAN_1
 62
     2
  6
CONTINUOUS
 10
-0.990835
 20
2.200839
  0
VERTEX
  8
PLAN_1
 62
     2
  6
CONTINUOUS
 10
-0.998461
 20
2.205925
  0
VERTEX
  8
PLAN_1
 62
     2
  6
CONTINUOUS
 10
-1.005665
 20
2.210587
  0
VERTEX
  8
PLAN_1
 62
     2
  6
CONTINUOUS
 10
-1.012445
 20
2.216094
  0
VERTEX
  8
PLAN_1
 62
     2
  6
CONTINUOUS
 10
-1.012445
 20
2.175839
  0
VERTEX
  8
PLAN_1
 62
     2
  6
CONTINUOUS
 10
-1.021346
 20
2.175839
  0
SEQEND
  8
0
  0
POLYLINE
  8
PLAN_1
 62
     2
  6
CONTINUOUS
 66
     1
 40
0.003000
 41
0.003000
  0
VERTEX
  8
PLAN_1
 62
     2
  6
CONTINUOUS
 10
-1.004394
 20
2.265673
  0
VERTEX
  8
PLAN_1
 62
     2
  6
CONTINUOUS
 10
-1.004394
 20
2.274146
  0
VERTEX
  8
PLAN_1
 62
     2
  6
CONTINUOUS
 10
-0.996343
 20
2.274146
  0
VERTEX
  8
PLAN_1
 62
     2
  6
CONTINUOUS
 10
-0.997614
 20
2.274996
  0
VERTEX
  8
PLAN_1
 62
     2
  6
CONTINUOUS
 10
-0.999311
 20
2.276268
  0
VERTEX
  8
PLAN_1
 62
     2
  6
CONTINUOUS
 10
-1.000583
 20
2.277961
  0
VERTEX
  8
PLAN_1
 62
     2
  6
CONTINUOUS
 10
-1.002276
 20
2.279657
  0
VERTEX
  8
PLAN_1
 62
     2
  6
CONTINUOUS
 10
-1.003547
 20
2.281776
  0
VERTEX
  8
PLAN_1
 62
     2
  6
CONTINUOUS
 10
-1.004819
 20
2.284319
  0
VERTEX
  8
PLAN_1
 62
     2
  6
CONTINUOUS
 10
-1.005665
 20
2.287283
  0
VERTEX
  8
PLAN_1
 62
     2
  6
CONTINUOUS
 10
-1.005665
 20
2.290673
  0
VERTEX
  8
PLAN_1
 62
     2
  6
CONTINUOUS
 10
-1.005665
 20
2.294063
  0
VERTEX
  8
PLAN_1
 62
     2
  6
CONTINUOUS
 10
-1.004819
 20
2.297031
  0
VERTEX
  8
PLAN_1
 62
     2
  6
CONTINUOUS
 10
-1.003547
 20
2.299150
  0
VERTEX
  8
PLAN_1
 62
     2
  6
CONTINUOUS
 10
-1.002276
 20
2.301268
  0
VERTEX
  8
PLAN_1
 62
     2
  6
CONTINUOUS
 10
-1.001004
 20
2.302539
  0
VERTEX
  8
PLAN_1
 62
     2
  6
CONTINUOUS
 10
-0.999732
 20
2.303811
  0
VERTEX
  8
PLAN_1
 62
     2
  6
CONTINUOUS
 10
-0.998039
 20
2.304657
  0
VERTEX
  8
PLAN_1
 62
     2
  6
CONTINUOUS
 10
-0.996768
 20
2.305083
  0
VERTEX
  8
PLAN_1
 62
     2
  6
CONTINUOUS
 10
-0.998886
 20
2.306776
  0
VERTEX
  8
PLAN_1
 62
     2
  6
CONTINUOUS
 10
-1.000583
 20
2.308472
  0
VERTEX
  8
PLAN_1
 62
     2
  6
CONTINUOUS
 10
-1.001854
 20
2.310165
  0
VERTEX
  8
PLAN_1
 62
     2
  6
CONTINUOUS
 10
-1.003122
 20
2.312283
  0
VERTEX
  8
PLAN_1
 62
     2
  6
CONTINUOUS
 10
-1.004394
 20
2.313980
  0
VERTEX
  8
PLAN_1
 62
     2
  6
CONTINUOUS
 10
-1.005244
 20
2.316524
  0
VERTEX
  8
PLAN_1
 62
     2
  6
CONTINUOUS
 10
-1.005665
 20
2.319067
  0
VERTEX
  8
PLAN_1
 62
     2
  6
CONTINUOUS
 10
-1.005665
 20
2.322031
  0
VERTEX
  8
PLAN_1
 62
     2
  6
CONTINUOUS
 10
-1.005665
 20
2.324150
  0
VERTEX
  8
PLAN_1
 62
     2
  6
CONTINUOUS
 10
-1.005244
 20
2.327118
  0
VERTEX
  8
PLAN_1
 62
     2
  6
CONTINUOUS
 10
-1.003972
 20
2.329657
  0
VERTEX
  8
PLAN_1
 62
     2
  6
CONTINUOUS
 10
-1.002276
 20
2.332626
  0
VERTEX
  8
PLAN_1
 62
     2
  6
CONTINUOUS
 10
-1.001429
 20
2.333898
  0
VERTEX
  8
PLAN_1
 62
     2
  6
CONTINUOUS
 10
-1.000157
 20
2.334744
  0
VERTEX
  8
PLAN_1
 62
     2
  6
CONTINUOUS
 10
-0.998461
 20
2.336016
  0
VERTEX
  8
PLAN_1
 62
     2
  6
CONTINUOUS
 10
-0.996768
 20
2.336862
  0
VERTEX
  8
PLAN_1
 62
     2
  6
CONTINUOUS
 10
-0.994650
 20
2.337709
  0
VERTEX
  8
PLAN_1
 62
     2
  6
CONTINUOUS
 10
-0.992531
 20
2.338134
  0
VERTEX
  8
PLAN_1
 62
     2
  6
CONTINUOUS
 10
-0.989988
 20
2.338559
  0
VERTEX
  8
PLAN_1
 62
     2
  6
CONTINUOUS
 10
-0.987445
 20
2.338559
  0
VERTEX
  8
PLAN_1
 62
     2
  6
CONTINUOUS
 10
-0.949732
 20
2.338559
  0
VERTEX
  8
PLAN_1
 62
     2
  6
CONTINUOUS
 10
-0.949732
 20
2.329657
  0
VERTEX
  8
PLAN_1
 62
     2
  6
CONTINUOUS
 10
-0.984902
 20
2.329657
  0
VERTEX
  8
PLAN_1
 62
     2
  6
CONTINUOUS
 10
-0.987870
 20
2.329657
  0
VERTEX
  8
PLAN_1
 62
     2
  6
CONTINUOUS
 10
-0.989988
 20
2.329236
  0
VERTEX
  8
PLAN_1
 62
     2
  6
CONTINUOUS
 10
-0.992106
 20
2.328386
  0
VERTEX
  8
PLAN_1
 62
     2
  6
CONTINUOUS
 10
-0.994224
 20
2.327539
  0
VERTEX
  8
PLAN_1
 62
     2
  6
CONTINUOUS
 10
-0.995496
 20
2.326268
  0
VERTEX
  8
PLAN_1
 62
     2
  6
CONTINUOUS
 10
-0.996768
 20
2.324150
  0
VERTEX
  8
PLAN_1
 62
     2
  6
CONTINUOUS
 10
-0.997193
 20
2.322031
  0
VERTEX
  8
PLAN_1
 62
     2
  6
CONTINUOUS
 10
-0.997614
 20
2.319488
  0
VERTEX
  8
PLAN_1
 62
     2
  6
CONTINUOUS
 10
-0.997193
 20
2.316524
  0
VERTEX
  8
PLAN_1
 62
     2
  6
CONTINUOUS
 10
-0.996343
 20
2.314406
  0
VERTEX
  8
PLAN_1
 62
     2
  6
CONTINUOUS
 10
-0.995071
 20
2.311862
  0
VERTEX
  8
PLAN_1
 62
     2
  6
CONTINUOUS
 10
-0.992953
 20
2.310165
  0
VERTEX
  8
PLAN_1
 62
     2
  6
CONTINUOUS
 10
-0.990835
 20
2.308894
  0
VERTEX
  8
PLAN_1
 62
     2
  6
CONTINUOUS
 10
-0.988291
 20
2.307622
  0
VERTEX
  8
PLAN_1
 62
     2
  6
CONTINUOUS
 10
-0.985752
 20
2.306776
  0
VERTEX
  8
PLAN_1
 62
     2
  6
CONTINUOUS
 10
-0.982783
 20
2.306776
  0
VERTEX
  8
PLAN_1
 62
     2
  6
CONTINUOUS
 10
-0.949732
 20
2.306776
  0
VERTEX
  8
PLAN_1
 62
     2
  6
CONTINUOUS
 10
-0.949732
 20
2.297453
  0
VERTEX
  8
PLAN_1
 62
     2
  6
CONTINUOUS
 10
-0.987445
 20
2.297453
  0
VERTEX
  8
PLAN_1
 62
     2
  6
CONTINUOUS
 10
-0.989142
 20
2.297453
  0
VERTEX
  8
PLAN_1
 62
     2
  6
CONTINUOUS
 10
-0.990835
 20
2.297031
  0
VERTEX
  8
PLAN_1
 62
     2
  6
CONTINUOUS
 10
-0.992531
 20
2.296606
  0
VERTEX
  8
PLAN_1
 62
     2
  6
CONTINUOUS
 10
-0.994224
 20
2.295760
  0
VERTEX
  8
PLAN_1
 62
     2
  6
CONTINUOUS
 10
-0.995496
 20
2.294488
  0
VERTEX
  8
PLAN_1
 62
     2
  6
CONTINUOUS
 10
-0.996768
 20
2.293217
  0
VERTEX
  8
PLAN_1
 62
     2
  6
CONTINUOUS
 10
-0.997193
 20
2.291098
  0
VERTEX
  8
PLAN_1
 62
     2
  6
CONTINUOUS
 10
-0.997614
 20
2.288980
  0
VERTEX
  8
PLAN_1
 62
     2
  6
CONTINUOUS
 10
-0.997193
 20
2.286858
  0
VERTEX
  8
PLAN_1
 62
     2
  6
CONTINUOUS
 10
-0.996768
 20
2.284740
  0
VERTEX
  8
PLAN_1
 62
     2
  6
CONTINUOUS
 10
-0.995921
 20
2.282197
  0
VERTEX
  8
PLAN_1
 62
     2
  6
CONTINUOUS
 10
-0.994224
 20
2.280079
  0
VERTEX
  8
PLAN_1
 62
     2
  6
CONTINUOUS
 10
-0.991681
 20
2.277961
  0
VERTEX
  8
PLAN_1
 62
     2
  6
CONTINUOUS
 10
-0.988717
 20
2.276268
  0
VERTEX
  8
PLAN_1
 62
     2
  6
CONTINUOUS
 10
-0.986598
 20
2.275417
  0
VERTEX
  8
PLAN_1
 62
     2
  6
CONTINUOUS
 10
-0.984480
 20
2.274996
  0
VERTEX
  8
PLAN_1
 62
     2
  6
CONTINUOUS
 10
-0.981937
 20
2.274571
  0
VERTEX
  8
PLAN_1
 62
     2
  6
CONTINUOUS
 10
-0.979394
 20
2.274571
  0
VERTEX
  8
PLAN_1
 62
     2
  6
CONTINUOUS
 10
-0.949732
 20
2.274571
  0
VERTEX
  8
PLAN_1
 62
     2
  6
CONTINUOUS
 10
-0.949732
 20
2.265673
  0
VERTEX
  8
PLAN_1
 62
     2
  6
CONTINUOUS
 10
-1.004394
 20
2.265673
  0
SEQEND
  8
0
  0
POLYLINE
  8
PLAN_1
 62
     2
  6
CONTINUOUS
 66
     1
 40
0.003000
 41
0.003000
  0
VERTEX
  8
PLAN_1
 62
     2
  6
CONTINUOUS
 10
-0.987870
 20
2.352118
  0
VERTEX
  8
PLAN_1
 62
     2
  6
CONTINUOUS
 10
-0.989988
 20
2.352118
  0
VERTEX
  8
PLAN_1
 62
     2
  6
CONTINUOUS
 10
-0.992106
 20
2.352539
  0
VERTEX
  8
PLAN_1
 62
     2
  6
CONTINUOUS
 10
-0.994224
 20
2.352965
  0
VERTEX
  8
PLAN_1
 62
     2
  6
CONTINUOUS
 10
-0.995921
 20
2.353811
  0
VERTEX
  8
PLAN_1
 62
     2
  6
CONTINUOUS
 10
-0.997614
 20
2.354661
  0
VERTEX
  8
PLAN_1
 62
     2
  6
CONTINUOUS
 10
-0.999311
 20
2.355508
  0
VERTEX
  8
PLAN_1
 62
     2
  6
CONTINUOUS
 10
-1.000583
 20
2.356780
  0
VERTEX
  8
PLAN_1
 62
     2
  6
CONTINUOUS
 10
-1.001429
 20
2.358472
  0
VERTEX
  8
PLAN_1
 62
     2
  6
CONTINUOUS
 10
-1.003547
 20
2.361441
  0
VERTEX
  8
PLAN_1
 62
     2
  6
CONTINUOUS
 10
-1.004819
 20
2.365252
  0
VERTEX
  8
PLAN_1
 62
     2
  6
CONTINUOUS
 10
-1.005665
 20
2.369492
  0
VERTEX
  8
PLAN_1
 62
     2
  6
CONTINUOUS
 10
-1.005665
 20
2.374575
  0
VERTEX
  8
PLAN_1
 62
     2
  6
CONTINUOUS
 10
-1.005665
 20
2.376697
  0
VERTEX
  8
PLAN_1
 62
     2
  6
CONTINUOUS
 10
-1.005244
 20
2.379236
  0
VERTEX
  8
PLAN_1
 62
     2
  6
CONTINUOUS
 10
-1.004819
 20
2.382626
  0
VERTEX
  8
PLAN_1
 62
     2
  6
CONTINUOUS
 10
-1.003547
 20
2.386016
  0
VERTEX
  8
PLAN_1
 62
     2
  6
CONTINUOUS
 10
-1.002701
 20
2.387713
  0
VERTEX
  8
PLAN_1
 62
     2
  6
CONTINUOUS
 10
-1.001429
 20
2.389409
  0
VERTEX
  8
PLAN_1
 62
     2
  6
CONTINUOUS
 10
-1.000157
 20
2.390677
  0
VERTEX
  8
PLAN_1
 62
     2
  6
CONTINUOUS
 10
-0.998886
 20
2.391949
  0
VERTEX
  8
PLAN_1
 62
     2
  6
CONTINUOUS
 10
-0.997193
 20
2.393220
  0
VERTEX
  8
PLAN_1
 62
     2
  6
CONTINUOUS
 10
-0.995071
 20
2.394067
  0
VERTEX
  8
PLAN_1
 62
     2
  6
CONTINUOUS
 10
-0.992953
 20
2.394492
  0
VERTEX
  8
PLAN_1
 62
     2
  6
CONTINUOUS
 10
-0.990409
 20
2.394492
  0
VERTEX
  8
PLAN_1
 62
     2
  6
CONTINUOUS
 10
-0.959476
 20
2.394492
  0
VERTEX
  8
PLAN_1
 62
     2
  6
CONTINUOUS
 10
-0.958630
 20
2.394492
  0
VERTEX
  8
PLAN_1
 62
     2
  6
CONTINUOUS
 10
-0.957783
 20
2.394917
  0
VERTEX
  8
PLAN_1
 62
     2
  6
CONTINUOUS
 10
-0.957358
 20
2.394917
  0
VERTEX
  8
PLAN_1
 62
     2
  6
CONTINUOUS
 10
-0.956933
 20
2.395339
  0
VERTEX
  8
PLAN_1
 62
     2
  6
CONTINUOUS
 10
-0.956512
 20
2.395764
  0
VERTEX
  8
PLAN_1
 62
     2
  6
CONTINUOUS
 10
-0.956087
 20
2.396189
  0
VERTEX
  8
PLAN_1
 62
     2
  6
CONTINUOUS
 10
-0.956087
 20
2.397035
  0
VERTEX
  8
PLAN_1
 62
     2
  6
CONTINUOUS
 10
-0.956087
 20
2.397461
  0
VERTEX
  8
PLAN_1
 62
     2
  6
CONTINUOUS
 10
-0.956087
 20
2.397882
  0
VERTEX
  8
PLAN_1
 62
     2
  6
CONTINUOUS
 10
-0.956087
 20
2.398307
  0
VERTEX
  8
PLAN_1
 62
     2
  6
CONTINUOUS
 10
-0.956087
 20
2.398728
  0
VERTEX
  8
PLAN_1
 62
     2
  6
CONTINUOUS
 10
-0.956087
 20
2.399154
  0
VERTEX
  8
PLAN_1
 62
     2
  6
CONTINUOUS
 10
-0.956087
 20
2.399579
  0
VERTEX
  8
PLAN_1
 62
     2
  6
CONTINUOUS
 10
-0.956512
 20
2.400000
  0
VERTEX
  8
PLAN_1
 62
     2
  6
CONTINUOUS
 10
-0.956512
 20
2.400425
  0
VERTEX
  8
PLAN_1
 62
     2
  6
CONTINUOUS
 10
-0.949732
 20
2.400425
  0
VERTEX
  8
PLAN_1
 62
     2
  6
CONTINUOUS
 10
-0.949732
 20
2.400000
  0
VERTEX
  8
PLAN_1
 62
     2
  6
CONTINUOUS
 10
-0.949307
 20
2.399579
  0
VERTEX
  8
PLAN_1
 62
     2
  6
CONTINUOUS
 10
-0.949307
 20
2.398728
  0
VERTEX
  8
PLAN_1
 62
     2
  6
CONTINUOUS
 10
-0.949307
 20
2.398307
  0
VERTEX
  8
PLAN_1
 62
     2
  6
CONTINUOUS
 10
-0.948882
 20
2.397882
  0
VERTEX
  8
PLAN_1
 62
     2
  6
CONTINUOUS
 10
-0.948882
 20
2.397035
  0
VERTEX
  8
PLAN_1
 62
     2
  6
CONTINUOUS
 10
-0.948882
 20
2.396189
  0
VERTEX
  8
PLAN_1
 62
     2
  6
CONTINUOUS
 10
-0.948882
 20
2.395764
  0
VERTEX
  8
PLAN_1
 62
     2
  6
CONTINUOUS
 10
-0.948882
 20
2.392799
  0
VERTEX
  8
PLAN_1
 62
     2
  6
CONTINUOUS
 10
-0.949307
 20
2.390677
  0
VERTEX
  8
PLAN_1
 62
     2
  6
CONTINUOUS
 10
-0.950154
 20
2.388984
  0
VERTEX
  8
PLAN_1
 62
     2
  6
CONTINUOUS
 10
-0.951425
 20
2.387713
  0
VERTEX
  8
PLAN_1
 62
     2
  6
CONTINUOUS
 10
-0.952697
 20
2.386866
  0
VERTEX
  8
PLAN_1
 62
     2
  6
CONTINUOUS
 10
-0.953969
 20
2.386441
  0
VERTEX
  8
PLAN_1
 62
     2
  6
CONTINUOUS
 10
-0.955665
 20
2.386016
  0
VERTEX
  8
PLAN_1
 62
     2
  6
CONTINUOUS
 10
-0.956933
 20
2.386016
  0
VERTEX
  8
PLAN_1
 62
     2
  6
CONTINUOUS
 10
-0.955665
 20
2.384323
  0
VERTEX
  8
PLAN_1
 62
     2
  6
CONTINUOUS
 10
-0.953969
 20
2.383051
  0
VERTEX
  8
PLAN_1
 62
     2
  6
CONTINUOUS
 10
-0.952697
 20
2.380933
  0
VERTEX
  8
PLAN_1
 62
     2
  6
CONTINUOUS
 10
-0.951425
 20
2.378815
  0
VERTEX
  8
PLAN_1
 62
     2
  6
CONTINUOUS
 10
-0.950154
 20
2.376272
  0
VERTEX
  8
PLAN_1
 62
     2
  6
CONTINUOUS
 10
-0.948882
 20
2.373303
  0
VERTEX
  8
PLAN_1
 62
     2
  6
CONTINUOUS
 10
-0.948461
 20
2.369913
  0
VERTEX
  8
PLAN_1
 62
     2
  6
CONTINUOUS
 10
-0.948035
 20
2.366102
  0
VERTEX
  8
PLAN_1
 62
     2
  6
CONTINUOUS
 10
-0.948461
 20
2.362713
  0
VERTEX
  8
PLAN_1
 62
     2
  6
CONTINUOUS
 10
-0.949307
 20
2.359323
  0
VERTEX
  8
PLAN_1
 62
     2
  6
CONTINUOUS
 10
-0.950579
 20
2.356354
  0
VERTEX
  8
PLAN_1
 62
     2
  6
CONTINUOUS
 10
-0.952697
 20
2.353811
  0
VERTEX
  8
PLAN_1
 62
     2
  6
CONTINUOUS
 10
-0.954815
 20
2.352118
  0
VERTEX
  8
PLAN_1
 62
     2
  6
CONTINUOUS
 10
-0.957358
 20
2.350421
  0
VERTEX
  8
PLAN_1
 62
     2
  6
CONTINUOUS
 10
-0.960748
 20
2.349575
  0
VERTEX
  8
PLAN_1
 62
     2
  6
CONTINUOUS
 10
-0.964138
 20
2.349150
  0
VERTEX
  8
PLAN_1
 62
     2
  6
CONTINUOUS
 10
-0.965835
 20
2.349150
  0
VERTEX
  8
PLAN_1
 62
     2
  6
CONTINUOUS
 10
-0.968378
 20
2.349575
  0
VERTEX
  8
PLAN_1
 62
     2
  6
CONTINUOUS
 10
-0.970917
 20
2.350421
  0
VERTEX
  8
PLAN_1
 62
     2
  6
CONTINUOUS
 10
-0.973461
 20
2.351693
  0
VERTEX
  8
PLAN_1
 62
     2
  6
CONTINUOUS
 10
-0.976004
 20
2.353811
  0
VERTEX
  8
PLAN_1
 62
     2
  6
CONTINUOUS
 10
-0.978122
 20
2.356780
  0
VERTEX
  8
PLAN_1
 62
     2
  6
CONTINUOUS
 10
-0.978969
 20
2.358472
  0
VERTEX
  8
PLAN_1
 62
     2
  6
CONTINUOUS
 10
-0.979819
 20
2.360591
  0
VERTEX
  8
PLAN_1
 62
     2
  6
CONTINUOUS
 10
-0.980665
 20
2.363134
  0
VERTEX
  8
PLAN_1
 62
     2
  6
CONTINUOUS
 10
-0.981091
 20
2.365677
  0
VERTEX
  8
PLAN_1
 62
     2
  6
CONTINUOUS
 10
-0.982783
 20
2.380933
  0
VERTEX
  8
PLAN_1
 62
     2
  6
CONTINUOUS
 10
-0.983209
 20
2.381780
  0
VERTEX
  8
PLAN_1
 62
     2
  6
CONTINUOUS
 10
-0.983209
 20
2.382626
  0
VERTEX
  8
PLAN_1
 62
     2
  6
CONTINUOUS
 10
-0.983630
 20
2.383476
  0
VERTEX
  8
PLAN_1
 62
     2
  6
CONTINUOUS
 10
-0.984055
 20
2.383898
  0
VERTEX
  8
PLAN_1
 62
     2
  6
CONTINUOUS
 10
-0.984902
 20
2.384748
  0
VERTEX
  8
PLAN_1
 62
     2
  6
CONTINUOUS
 10
-0.986173
 20
2.385169
  0
VERTEX
  8
PLAN_1
 62
     2
  6
CONTINUOUS
 10
-0.987445
 20
2.385594
  0
VERTEX
  8
PLAN_1
 62
     2
  6
CONTINUOUS
 10
-0.989142
 20
2.385594
  0
VERTEX
  8
PLAN_1
 62
     2
  6
CONTINUOUS
 10
-0.991260
 20
2.385594
  0
VERTEX
  8
PLAN_1
 62
     2
  6
CONTINUOUS
 10
-0.992953
 20
2.384748
  0
VERTEX
  8
PLAN_1
 62
     2
  6
CONTINUOUS
 10
-0.994650
 20
2.383898
  0
VERTEX
  8
PLAN_1
 62
     2
  6
CONTINUOUS
 10
-0.995921
 20
2.382626
  0
VERTEX
  8
PLAN_1
 62
     2
  6
CONTINUOUS
 10
-0.996768
 20
2.380508
  0
VERTEX
  8
PLAN_1
 62
     2
  6
CONTINUOUS
 10
-0.997614
 20
2.378390
  0
VERTEX
  8
PLAN_1
 62
     2
  6
CONTINUOUS
 10
-0.998039
 20
2.375846
  0
VERTEX
  8
PLAN_1
 62
     2
  6
CONTINUOUS
 10
-0.998039
 20
2.372882
  0
VERTEX
  8
PLAN_1
 62
     2
  6
CONTINUOUS
 10
-0.998039
 20
2.369492
  0
VERTEX
  8
PLAN_1
 62
     2
  6
CONTINUOUS
 10
-0.997193
 20
2.366524
  0
VERTEX
  8
PLAN_1
 62
     2
  6
CONTINUOUS
 10
-0.995921
 20
2.364406
  0
VERTEX
  8
PLAN_1
 62
     2
  6
CONTINUOUS
 10
-0.994650
 20
2.362713
  0
VERTEX
  8
PLAN_1
 62
     2
  6
CONTINUOUS
 10
-0.992953
 20
2.361862
  0
VERTEX
  8
PLAN_1
 62
     2
  6
CONTINUOUS
 10
-0.991260
 20
2.361016
  0
VERTEX
  8
PLAN_1
 62
     2
  6
CONTINUOUS
 10
-0.989142
 20
2.360591
  0
VERTEX
  8
PLAN_1
 62
     2
  6
CONTINUOUS
 10
-0.987870
 20
2.360169
  0
VERTEX
  8
PLAN_1
 62
     2
  6
CONTINUOUS
 10
-0.987870
 20
2.352118
  0
SEQEND
  8
0
  0
POLYLINE
  8
PLAN_1
 62
     2
  6
CONTINUOUS
 66
     1
 40
0.003000
 41
0.003000
  0
VERTEX
  8
PLAN_1
 62
     2
  6
CONTINUOUS
 10
-0.977697
 20
2.385594
  0
VERTEX
  8
PLAN_1
 62
     2
  6
CONTINUOUS
 10
-0.977276
 20
2.384748
  0
VERTEX
  8
PLAN_1
 62
     2
  6
CONTINUOUS
 10
-0.976850
 20
2.383898
  0
VERTEX
  8
PLAN_1
 62
     2
  6
CONTINUOUS
 10
-0.976429
 20
2.383051
  0
VERTEX
  8
PLAN_1
 62
     2
  6
CONTINUOUS
 10
-0.976004
 20
2.381780
  0
VERTEX
  8
PLAN_1
 62
     2
  6
CONTINUOUS
 10
-0.975579
 20
2.379661
  0
VERTEX
  8
PLAN_1
 62
     2
  6
CONTINUOUS
 10
-0.975157
 20
2.377118
  0
VERTEX
  8
PLAN_1
 62
     2
  6
CONTINUOUS
 10
-0.974732
 20
2.374154
  0
VERTEX
  8
PLAN_1
 62
     2
  6
CONTINUOUS
 10
-0.974307
 20
2.370339
  0
VERTEX
  8
PLAN_1
 62
     2
  6
CONTINUOUS
 10
-0.973886
 20
2.368646
  0
VERTEX
  8
PLAN_1
 62
     2
  6
CONTINUOUS
 10
-0.973461
 20
2.366524
  0
VERTEX
  8
PLAN_1
 62
     2
  6
CONTINUOUS
 10
-0.973039
 20
2.364831
  0
VERTEX
  8
PLAN_1
 62
     2
  6
CONTINUOUS
 10
-0.972189
 20
2.362713
  0
VERTEX
  8
PLAN_1
 62
     2
  6
CONTINUOUS
 10
-0.970917
 20
2.361016
  0
VERTEX
  8
PLAN_1
 62
     2
  6
CONTINUOUS
 10
-0.969646
 20
2.359744
  0
VERTEX
  8
PLAN_1
 62
     2
  6
CONTINUOUS
 10
-0.967528
 20
2.358898
  0
VERTEX
  8
PLAN_1
 62
     2
  6
CONTINUOUS
 10
-0.965409
 20
2.358472
  0
VERTEX
  8
PLAN_1
 62
     2
  6
CONTINUOUS
 10
-0.963291
 20
2.358898
  0
VERTEX
  8
PLAN_1
 62
     2
  6
CONTINUOUS
 10
-0.961173
 20
2.359323
  0
VERTEX
  8
PLAN_1
 62
     2
  6
CONTINUOUS
 10
-0.959902
 20
2.360169
  0
VERTEX
  8
PLAN_1
 62
     2
  6
CONTINUOUS
 10
-0.958205
 20
2.361016
  0
VERTEX
  8
PLAN_1
 62
     2
  6
CONTINUOUS
 10
-0.957358
 20
2.362287
  0
VERTEX
  8
PLAN_1
 62
     2
  6
CONTINUOUS
 10
-0.956512
 20
2.363984
  0
VERTEX
  8
PLAN_1
 62
     2
  6
CONTINUOUS
 10
-0.956087
 20
2.366102
  0
VERTEX
  8
PLAN_1
 62
     2
  6
CONTINUOUS
 10
-0.955665
 20
2.368646
  0
VERTEX
  8
PLAN_1
 62
     2
  6
CONTINUOUS
 10
-0.956087
 20
2.371610
  0
VERTEX
  8
PLAN_1
 62
     2
  6
CONTINUOUS
 10
-0.956933
 20
2.375000
  0
VERTEX
  8
PLAN_1
 62
     2
  6
CONTINUOUS
 10
-0.957783
 20
2.377543
  0
VERTEX
  8
PLAN_1
 62
     2
  6
CONTINUOUS
 10
-0.959476
 20
2.380087
  0
VERTEX
  8
PLAN_1
 62
     2
  6
CONTINUOUS
 10
-0.961594
 20
2.382205
  0
VERTEX
  8
PLAN_1
 62
     2
  6
CONTINUOUS
 10
-0.963717
 20
2.383898
  0
VERTEX
  8
PLAN_1
 62
     2
  6
CONTINUOUS
 10
-0.965835
 20
2.385169
  0
VERTEX
  8
PLAN_1
 62
     2
  6
CONTINUOUS
 10
-0.968799
 20
2.385594
  0
VERTEX
  8
PLAN_1
 62
     2
  6
CONTINUOUS
 10
-0.977697
 20
2.385594
  0
SEQEND
  8
0
  0
POLYLINE
  8
PLAN_1
 62
     2
  6
CONTINUOUS
 66
     1
 40
0.003000
 41
0.003000
  0
VERTEX
  8
PLAN_1
 62
     2
  6
CONTINUOUS
 10
-0.949732
 20
2.454240
  0
VERTEX
  8
PLAN_1
 62
     2
  6
CONTINUOUS
 10
-0.949732
 20
2.442799
  0
VERTEX
  8
PLAN_1
 62
     2
  6
CONTINUOUS
 10
-0.970496
 20
2.429240
  0
VERTEX
  8
PLAN_1
 62
     2
  6
CONTINUOUS
 10
-0.949732
 20
2.416102
  0
VERTEX
  8
PLAN_1
 62
     2
  6
CONTINUOUS
 10
-0.949732
 20
2.404661
  0
VERTEX
  8
PLAN_1
 62
     2
  6
CONTINUOUS
 10
-0.977697
 20
2.423732
  0
VERTEX
  8
PLAN_1
 62
     2
  6
CONTINUOUS
 10
-1.004394
 20
2.405512
  0
VERTEX
  8
PLAN_1
 62
     2
  6
CONTINUOUS
 10
-1.004394
 20
2.417374
  0
VERTEX
  8
PLAN_1
 62
     2
  6
CONTINUOUS
 10
-0.984902
 20
2.429665
  0
VERTEX
  8
PLAN_1
 62
     2
  6
CONTINUOUS
 10
-1.004394
 20
2.442378
  0
VERTEX
  8
PLAN_1
 62
     2
  6
CONTINUOUS
 10
-1.004394
 20
2.453819
  0
VERTEX
  8
PLAN_1
 62
     2
  6
CONTINUOUS
 10
-0.977697
 20
2.435173
  0
VERTEX
  8
PLAN_1
 62
     2
  6
CONTINUOUS
 10
-0.949732
 20
2.454240
  0
SEQEND
  8
0
  0
SOLID
  8
PLAN_1
 62
     2
 10
-0.949732
 20
2.471614
 11
-0.949732
 21
2.462291
 12
-1.004394
 22
2.471614
 13
-1.004394
 23
2.462291
  0
POLYLINE
  8
PLAN_1
 62
     2
  6
CONTINUOUS
 66
     1
 40
0.003000
 41
0.003000
  0
VERTEX
  8
PLAN_1
 62
     2
  6
CONTINUOUS
 10
-0.949732
 20
2.471614
  0
VERTEX
  8
PLAN_1
 62
     2
  6
CONTINUOUS
 10
-0.949732
 20
2.462291
  0
VERTEX
  8
PLAN_1
 62
     2
  6
CONTINUOUS
 10
-1.004394
 20
2.462291
  0
VERTEX
  8
PLAN_1
 62
     2
  6
CONTINUOUS
 10
-1.004394
 20
2.471614
  0
VERTEX
  8
PLAN_1
 62
     2
  6
CONTINUOUS
 10
-0.949732
 20
2.471614
  0
SEQEND
  8
0
  0
SOLID
  8
PLAN_1
 62
     2
 10
-1.014142
 20
2.462291
 11
-1.024311
 21
2.462291
 12
-1.014142
 22
2.471614
 13
-1.024311
 23
2.471614
  0
POLYLINE
  8
PLAN_1
 62
     2
  6
CONTINUOUS
 66
     1
 40
0.003000
 41
0.003000
  0
VERTEX
  8
PLAN_1
 62
     2
  6
CONTINUOUS
 10
-1.014142
 20
2.462291
  0
VERTEX
  8
PLAN_1
 62
     2
  6
CONTINUOUS
 10
-1.024311
 20
2.462291
  0
VERTEX
  8
PLAN_1
 62
     2
  6
CONTINUOUS
 10
-1.024311
 20
2.471614
  0
VERTEX
  8
PLAN_1
 62
     2
  6
CONTINUOUS
 10
-1.014142
 20
2.471614
  0
VERTEX
  8
PLAN_1
 62
     2
  6
CONTINUOUS
 10
-1.014142
 20
2.462291
  0
SEQEND
  8
0
  0
POLYLINE
  8
PLAN_1
 62
     2
  6
CONTINUOUS
 66
     1
 40
0.004236
 41
0.004236
  0
VERTEX
  8
PLAN_1
 62
     2
  6
CONTINUOUS
 10
-1.200591
 20
3.141988
  0
VERTEX
  8
PLAN_1
 62
     2
  6
CONTINUOUS
 10
-0.745059
 20
3.141988
  0
SEQEND
  8
0
  0
POLYLINE
  8
PLAN_1
 62
     2
  6
CONTINUOUS
 66
     1
 40
0.004236
 41
0.004236
  0
VERTEX
  8
PLAN_1
 62
     2
  6
CONTINUOUS
 10
-1.200591
 20
1.307575
  0
VERTEX
  8
PLAN_1
 62
     2
  6
CONTINUOUS
 10
-0.745059
 20
1.307575
  0
SEQEND
  8
0
  0
POLYLINE
  8
PLAN_1
 62
     2
  6
CONTINUOUS
 66
     1
 40
0.004236
 41
0.004236
  0
VERTEX
  8
PLAN_1
 62
     2
  6
CONTINUOUS
 10
-1.063720
 20
1.392748
  0
VERTEX
  8
PLAN_1
 62
     2
  6
CONTINUOUS
 10
-0.902697
 20
1.392748
  0
SEQEND
  8
0
  0
POLYLINE
  8
PLAN_1
 62
     2
  6
CONTINUOUS
 66
     1
 40
0.004236
 41
0.004236
  0
VERTEX
  8
PLAN_1
 62
     2
  6
CONTINUOUS
 10
-1.845961
 20
3.314453
  0
VERTEX
  8
PLAN_1
 62
     2
  6
CONTINUOUS
 10
-1.845961
 20
2.044898
  0
SEQEND
  8
0
  0
POLYLINE
  8
PLAN_1
 62
     2
  6
CONTINUOUS
 66
     1
 40
0.004236
 41
0.004236
  0
VERTEX
  8
PLAN_1
 62
     2
  6
CONTINUOUS
 10
-1.342122
 20
3.318693
  0
VERTEX
  8
PLAN_1
 62
     2
  6
CONTINUOUS
 10
-1.342122
 20
3.165295
  0
SEQEND
  8
0
  0
POLYLINE
  8
PLAN_1
 62
     2
  6
CONTINUOUS
 66
     1
 40
0.004236
 41
0.004236
  0
VERTEX
  8
PLAN_1
 62
     2
  6
CONTINUOUS
 10
-1.816724
 20
3.295386
  0
VERTEX
  8
PLAN_1
 62
     2
  6
CONTINUOUS
 10
-1.371787
 20
3.295386
  0
SEQEND
  8
0
  0
SOLID
  8
PLAN_1
 62
     2
 10
-1.342122
 20
3.295386
 11
-1.401024
 21
3.311063
 12
-1.342122
 22
3.295386
 13
-1.401024
 23
3.279705
  0
POLYLINE
  8
PLAN_1
 62
     2
  6
CONTINUOUS
 66
     1
 40
0.003000
 41
0.003000
  0
VERTEX
  8
PLAN_1
 62
     2
  6
CONTINUOUS
 10
-1.342122
 20
3.295386
  0
VERTEX
  8
PLAN_1
 62
     2
  6
CONTINUOUS
 10
-1.401024
 20
3.311063
  0
VERTEX
  8
PLAN_1
 62
     2
  6
CONTINUOUS
 10
-1.401024
 20
3.279705
  0
VERTEX
  8
PLAN_1
 62
     2
  6
CONTINUOUS
 10
-1.342122
 20
3.295386
  0
SEQEND
  8
0
  0
SOLID
  8
PLAN_1
 62
     2
 10
-1.845961
 20
3.295386
 11
-1.787063
 21
3.311063
 12
-1.845961
 22
3.295386
 13
-1.787063
 23
3.279705
  0
POLYLINE
  8
PLAN_1
 62
     2
  6
CONTINUOUS
 66
     1
 40
0.003000
 41
0.003000
  0
VERTEX
  8
PLAN_1
 62
     2
  6
CONTINUOUS
 10
-1.845961
 20
3.295386
  0
VERTEX
  8
PLAN_1
 62
     2
  6
CONTINUOUS
 10
-1.787063
 20
3.311063
  0
VERTEX
  8
PLAN_1
 62
     2
  6
CONTINUOUS
 10
-1.787063
 20
3.279705
  0
VERTEX
  8
PLAN_1
 62
     2
  6
CONTINUOUS
 10
-1.845961
 20
3.295386
  0
SEQEND
  8
0
  0
POLYLINE
  8
PLAN_1
 62
     2
  6
CONTINUOUS
 66
     1
 40
0.003000
 41
0.003000
  0
VERTEX
  8
PLAN_1
 62
     2
  6
CONTINUOUS
 10
-1.647224
 20
3.365728
  0
VERTEX
  8
PLAN_1
 62
     2
  6
CONTINUOUS
 10
-1.647224
 20
3.369965
  0
VERTEX
  8
PLAN_1
 62
     2
  6
CONTINUOUS
 10
-1.646799
 20
3.373780
  0
VERTEX
  8
PLAN_1
 62
     2
  6
CONTINUOUS
 10
-1.645528
 20
3.377169
  0
VERTEX
  8
PLAN_1
 62
     2
  6
CONTINUOUS
 10
-1.644681
 20
3.380134
  0
VERTEX
  8
PLAN_1
 62
     2
  6
CONTINUOUS
 10
-1.642988
 20
3.382252
  0
VERTEX
  8
PLAN_1
 62
     2
  6
CONTINUOUS
 10
-1.641291
 20
3.384374
  0
VERTEX
  8
PLAN_1
 62
     2
  6
CONTINUOUS
 10
-1.639594
 20
3.386492
  0
VERTEX
  8
PLAN_1
 62
     2
  6
CONTINUOUS
 10
-1.637902
 20
3.387764
  0
VERTEX
  8
PLAN_1
 62
     2
  6
CONTINUOUS
 10
-1.633665
 20
3.389882
  0
VERTEX
  8
PLAN_1
 62
     2
  6
CONTINUOUS
 10
-1.629425
 20
3.391154
  0
VERTEX
  8
PLAN_1
 62
     2
  6
CONTINUOUS
 10
-1.625614
 20
3.392000
  0
VERTEX
  8
PLAN_1
 62
     2
  6
CONTINUOUS
 10
-1.622224
 20
3.392000
  0
VERTEX
  8
PLAN_1
 62
     2
  6
CONTINUOUS
 10
-1.617563
 20
3.391575
  0
VERTEX
  8
PLAN_1
 62
     2
  6
CONTINUOUS
 10
-1.613323
 20
3.390303
  0
VERTEX
  8
PLAN_1
 62
     2
  6
CONTINUOUS
 10
-1.609087
 20
3.388610
  0
VERTEX
  8
PLAN_1
 62
     2
  6
CONTINUOUS
 10
-1.605697
 20
3.386067
  0
VERTEX
  8
PLAN_1
 62
     2
  6
CONTINUOUS
 10
-1.604425
 20
3.384795
  0
VERTEX
  8
PLAN_1
 62
     2
  6
CONTINUOUS
 10
-1.603154
 20
3.383102
  0
VERTEX
  8
PLAN_1
 62
     2
  6
CONTINUOUS
 10
-1.601882
 20
3.381406
  0
VERTEX
  8
PLAN_1
 62
     2
  6
CONTINUOUS
 10
-1.601035
 20
3.379287
  0
VERTEX
  8
PLAN_1
 62
     2
  6
CONTINUOUS
 10
-1.600189
 20
3.377169
  0
VERTEX
  8
PLAN_1
 62
     2
  6
CONTINUOUS
 10
-1.599764
 20
3.375051
  0
VERTEX
  8
PLAN_1
 62
     2
  6
CONTINUOUS
 10
-1.599339
 20
3.372508
  0
VERTEX
  8
PLAN_1
 62
     2
  6
CONTINUOUS
 10
-1.599339
 20
3.369965
  0
VERTEX
  8
PLAN_1
 62
     2
  6
CONTINUOUS
 10
-1.599764
 20
3.365728
  0
VERTEX
  8
PLAN_1
 62
     2
  6
CONTINUOUS
 10
-1.600610
 20
3.361488
  0
VERTEX
  8
PLAN_1
 62
     2
  6
CONTINUOUS
 10
-1.602307
 20
3.358098
  0
VERTEX
  8
PLAN_1
 62
     2
  6
CONTINUOUS
 10
-1.604850
 20
3.355134
  0
VERTEX
  8
PLAN_1
 62
     2
  6
CONTINUOUS
 10
-1.607815
 20
3.352591
  0
VERTEX
  8
PLAN_1
 62
     2
  6
CONTINUOUS
 10
-1.611205
 20
3.350047
  0
VERTEX
  8
PLAN_1
 62
     2
  6
CONTINUOUS
 10
-1.614594
 20
3.347929
  0
VERTEX
  8
PLAN_1
 62
     2
  6
CONTINUOUS
 10
-1.618831
 20
3.345811
  0
VERTEX
  8
PLAN_1
 62
     2
  6
CONTINUOUS
 10
-1.626461
 20
3.341575
  0
VERTEX
  8
PLAN_1
 62
     2
  6
CONTINUOUS
 10
-1.629850
 20
3.339457
  0
VERTEX
  8
PLAN_1
 62
     2
  6
CONTINUOUS
 10
-1.632394
 20
3.337335
  0
VERTEX
  8
PLAN_1
 62
     2
  6
CONTINUOUS
 10
-1.634512
 20
3.335217
  0
VERTEX
  8
PLAN_1
 62
     2
  6
CONTINUOUS
 10
-1.636205
 20
3.333524
  0
VERTEX
  8
PLAN_1
 62
     2
  6
CONTINUOUS
 10
-1.637476
 20
3.331827
  0
VERTEX
  8
PLAN_1
 62
     2
  6
CONTINUOUS
 10
-1.638327
 20
3.330134
  0
VERTEX
  8
PLAN_1
 62
     2
  6
CONTINUOUS
 10
-1.638748
 20
3.328862
  0
VERTEX
  8
PLAN_1
 62
     2
  6
CONTINUOUS
 10
-1.638748
 20
3.327591
  0
VERTEX
  8
PLAN_1
 62
     2
  6
CONTINUOUS
 10
-1.599339
 20
3.327591
  0
VERTEX
  8
PLAN_1
 62
     2
  6
CONTINUOUS
 10
-1.599339
 20
3.318693
  0
VERTEX
  8
PLAN_1
 62
     2
  6
CONTINUOUS
 10
-1.649343
 20
3.318693
  0
VERTEX
  8
PLAN_1
 62
     2
  6
CONTINUOUS
 10
-1.648917
 20
3.324201
  0
VERTEX
  8
PLAN_1
 62
     2
  6
CONTINUOUS
 10
-1.647646
 20
3.328862
  0
VERTEX
  8
PLAN_1
 62
     2
  6
CONTINUOUS
 10
-1.646378
 20
3.333098
  0
VERTEX
  8
PLAN_1
 62
     2
  6
CONTINUOUS
 10
-1.644256
 20
3.336913
  0
VERTEX
  8
PLAN_1
 62
     2
  6
CONTINUOUS
 10
-1.641717
 20
3.340303
  0
VERTEX
  8
PLAN_1
 62
     2
  6
CONTINUOUS
 10
-1.638748
 20
3.343268
  0
VERTEX
  8
PLAN_1
 62
     2
  6
CONTINUOUS
 10
-1.635783
 20
3.345811
  0
VERTEX
  8
PLAN_1
 62
     2
  6
CONTINUOUS
 10
-1.631969
 20
3.347929
  0
VERTEX
  8
PLAN_1
 62
     2
  6
CONTINUOUS
 10
-1.622224
 20
3.353437
  0
VERTEX
  8
PLAN_1
 62
     2
  6
CONTINUOUS
 10
-1.619681
 20
3.355134
  0
VERTEX
  8
PLAN_1
 62
     2
  6
CONTINUOUS
 10
-1.617138
 20
3.356831
  0
VERTEX
  8
PLAN_1
 62
     2
  6
CONTINUOUS
 10
-1.614594
 20
3.358524
  0
VERTEX
  8
PLAN_1
 62
     2
  6
CONTINUOUS
 10
-1.612902
 20
3.360220
  0
VERTEX
  8
PLAN_1
 62
     2
  6
CONTINUOUS
 10
-1.611205
 20
3.362339
  0
VERTEX
  8
PLAN_1
 62
     2
  6
CONTINUOUS
 10
-1.609933
 20
3.364457
  0
VERTEX
  8
PLAN_1
 62
     2
  6
CONTINUOUS
 10
-1.609087
 20
3.367421
  0
VERTEX
  8
PLAN_1
 62
     2
  6
CONTINUOUS
 10
-1.609087
 20
3.370390
  0
VERTEX
  8
PLAN_1
 62
     2
  6
CONTINUOUS
 10
-1.609087
 20
3.372933
  0
VERTEX
  8
PLAN_1
 62
     2
  6
CONTINUOUS
 10
-1.609933
 20
3.375051
  0
VERTEX
  8
PLAN_1
 62
     2
  6
CONTINUOUS
 10
-1.610780
 20
3.377169
  0
VERTEX
  8
PLAN_1
 62
     2
  6
CONTINUOUS
 10
-1.612051
 20
3.379287
  0
VERTEX
  8
PLAN_1
 62
     2
  6
CONTINUOUS
 10
-1.614169
 20
3.380984
  0
VERTEX
  8
PLAN_1
 62
     2
  6
CONTINUOUS
 10
-1.616713
 20
3.382677
  0
VERTEX
  8
PLAN_1
 62
     2
  6
CONTINUOUS
 10
-1.619681
 20
3.383524
  0
VERTEX
  8
PLAN_1
 62
     2
  6
CONTINUOUS
 10
-1.623492
 20
3.383949
  0
VERTEX
  8
PLAN_1
 62
     2
  6
CONTINUOUS
 10
-1.626035
 20
3.383524
  0
VERTEX
  8
PLAN_1
 62
     2
  6
CONTINUOUS
 10
-1.628154
 20
3.383102
  0
VERTEX
  8
PLAN_1
 62
     2
  6
CONTINUOUS
 10
-1.629850
 20
3.382677
  0
VERTEX
  8
PLAN_1
 62
     2
  6
CONTINUOUS
 10
-1.631543
 20
3.381831
  0
VERTEX
  8
PLAN_1
 62
     2
  6
CONTINUOUS
 10
-1.632815
 20
3.380559
  0
VERTEX
  8
PLAN_1
 62
     2
  6
CONTINUOUS
 10
-1.634087
 20
3.379287
  0
VERTEX
  8
PLAN_1
 62
     2
  6
CONTINUOUS
 10
-1.634933
 20
3.378016
  0
VERTEX
  8
PLAN_1
 62
     2
  6
CONTINUOUS
 10
-1.635783
 20
3.376744
  0
VERTEX
  8
PLAN_1
 62
     2
  6
CONTINUOUS
 10
-1.637055
 20
3.373780
  0
VERTEX
  8
PLAN_1
 62
     2
  6
CONTINUOUS
 10
-1.637902
 20
3.370811
  0
VERTEX
  8
PLAN_1
 62
     2
  6
CONTINUOUS
 10
-1.637902
 20
3.367846
  0
VERTEX
  8
PLAN_1
 62
     2
  6
CONTINUOUS
 10
-1.638327
 20
3.365728
  0
VERTEX
  8
PLAN_1
 62
     2
  6
CONTINUOUS
 10
-1.647224
 20
3.365728
  0
SEQEND
  8
0
  0
POLYLINE
  8
PLAN_1
 62
     2
  6
CONTINUOUS
 66
     1
 40
0.003000
 41
0.003000
  0
VERTEX
  8
PLAN_1
 62
     2
  6
CONTINUOUS
 10
-1.565016
 20
3.316996
  0
VERTEX
  8
PLAN_1
 62
     2
  6
CONTINUOUS
 10
-1.568831
 20
3.316996
  0
VERTEX
  8
PLAN_1
 62
     2
  6
CONTINUOUS
 10
-1.572220
 20
3.317843
  0
VERTEX
  8
PLAN_1
 62
     2
  6
CONTINUOUS
 10
-1.575185
 20
3.319114
  0
VERTEX
  8
PLAN_1
 62
     2
  6
CONTINUOUS
 10
-1.577728
 20
3.320811
  0
VERTEX
  8
PLAN_1
 62
     2
  6
CONTINUOUS
 10
-1.580272
 20
3.322504
  0
VERTEX
  8
PLAN_1
 62
     2
  6
CONTINUOUS
 10
-1.582390
 20
3.324622
  0
VERTEX
  8
PLAN_1
 62
     2
  6
CONTINUOUS
 10
-1.584087
 20
3.327165
  0
VERTEX
  8
PLAN_1
 62
     2
  6
CONTINUOUS
 10
-1.585354
 20
3.330134
  0
VERTEX
  8
PLAN_1
 62
     2
  6
CONTINUOUS
 10
-1.586626
 20
3.332673
  0
VERTEX
  8
PLAN_1
 62
     2
  6
CONTINUOUS
 10
-1.587898
 20
3.336067
  0
VERTEX
  8
PLAN_1
 62
     2
  6
CONTINUOUS
 10
-1.588748
 20
3.339031
  0
VERTEX
  8
PLAN_1
 62
     2
  6
CONTINUOUS
 10
-1.589169
 20
3.341996
  0
VERTEX
  8
PLAN_1
 62
     2
  6
CONTINUOUS
 10
-1.590016
 20
3.348354
  0
VERTEX
  8
PLAN_1
 62
     2
  6
CONTINUOUS
 10
-1.590016
 20
3.354287
  0
VERTEX
  8
PLAN_1
 62
     2
  6
CONTINUOUS
 10
-1.590016
 20
3.360220
  0
VERTEX
  8
PLAN_1
 62
     2
  6
CONTINUOUS
 10
-1.589169
 20
3.366575
  0
VERTEX
  8
PLAN_1
 62
     2
  6
CONTINUOUS
 10
-1.588748
 20
3.369965
  0
VERTEX
  8
PLAN_1
 62
     2
  6
CONTINUOUS
 10
-1.587898
 20
3.372933
  0
VERTEX
  8
PLAN_1
 62
     2
  6
CONTINUOUS
 10
-1.586626
 20
3.375898
  0
VERTEX
  8
PLAN_1
 62
     2
  6
CONTINUOUS
 10
-1.585354
 20
3.378862
  0
VERTEX
  8
PLAN_1
 62
     2
  6
CONTINUOUS
 10
-1.584087
 20
3.381831
  0
VERTEX
  8
PLAN_1
 62
     2
  6
CONTINUOUS
 10
-1.582390
 20
3.383949
  0
VERTEX
  8
PLAN_1
 62
     2
  6
CONTINUOUS
 10
-1.580272
 20
3.386492
  0
VERTEX
  8
PLAN_1
 62
     2
  6
CONTINUOUS
 10
-1.577728
 20
3.388185
  0
VERTEX
  8
PLAN_1
 62
     2
  6
CONTINUOUS
 10
-1.575185
 20
3.389882
  0
VERTEX
  8
PLAN_1
 62
     2
  6
CONTINUOUS
 10
-1.572220
 20
3.391154
  0
VERTEX
  8
PLAN_1
 62
     2
  6
CONTINUOUS
 10
-1.568831
 20
3.391575
  0
VERTEX
  8
PLAN_1
 62
     2
  6
CONTINUOUS
 10
-1.565016
 20
3.392000
  0
VERTEX
  8
PLAN_1
 62
     2
  6
CONTINUOUS
 10
-1.561201
 20
3.391575
  0
VERTEX
  8
PLAN_1
 62
     2
  6
CONTINUOUS
 10
-1.557811
 20
3.391154
  0
VERTEX
  8
PLAN_1
 62
     2
  6
CONTINUOUS
 10
-1.554846
 20
3.389882
  0
VERTEX
  8
PLAN_1
 62
     2
  6
CONTINUOUS
 10
-1.552303
 20
3.388185
  0
VERTEX
  8
PLAN_1
 62
     2
  6
CONTINUOUS
 10
-1.550185
 20
3.386492
  0
VERTEX
  8
PLAN_1
 62
     2
  6
CONTINUOUS
 10
-1.548067
 20
3.383949
  0
VERTEX
  8
PLAN_1
 62
     2
  6
CONTINUOUS
 10
-1.546370
 20
3.381831
  0
VERTEX
  8
PLAN_1
 62
     2
  6
CONTINUOUS
 10
-1.544677
 20
3.378862
  0
VERTEX
  8
PLAN_1
 62
     2
  6
CONTINUOUS
 10
-1.543406
 20
3.375898
  0
VERTEX
  8
PLAN_1
 62
     2
  6
CONTINUOUS
 10
-1.542559
 20
3.372933
  0
VERTEX
  8
PLAN_1
 62
     2
  6
CONTINUOUS
 10
-1.541709
 20
3.369965
  0
VERTEX
  8
PLAN_1
 62
     2
  6
CONTINUOUS
 10
-1.540862
 20
3.366575
  0
VERTEX
  8
PLAN_1
 62
     2
  6
CONTINUOUS
 10
-1.540437
 20
3.360220
  0
VERTEX
  8
PLAN_1
 62
     2
  6
CONTINUOUS
 10
-1.540016
 20
3.354287
  0
VERTEX
  8
PLAN_1
 62
     2
  6
CONTINUOUS
 10
-1.540437
 20
3.348354
  0
VERTEX
  8
PLAN_1
 62
     2
  6
CONTINUOUS
 10
-1.540862
 20
3.341996
  0
VERTEX
  8
PLAN_1
 62
     2
  6
CONTINUOUS
 10
-1.541709
 20
3.339031
  0
VERTEX
  8
PLAN_1
 62
     2
  6
CONTINUOUS
 10
-1.542559
 20
3.336067
  0
VERTEX
  8
PLAN_1
 62
     2
  6
CONTINUOUS
 10
-1.543406
 20
3.332673
  0
VERTEX
  8
PLAN_1
 62
     2
  6
CONTINUOUS
 10
-1.544677
 20
3.330134
  0
VERTEX
  8
PLAN_1
 62
     2
  6
CONTINUOUS
 10
-1.546370
 20
3.327165
  0
VERTEX
  8
PLAN_1
 62
     2
  6
CONTINUOUS
 10
-1.548067
 20
3.324622
  0
VERTEX
  8
PLAN_1
 62
     2
  6
CONTINUOUS
 10
-1.550185
 20
3.322504
  0
VERTEX
  8
PLAN_1
 62
     2
  6
CONTINUOUS
 10
-1.552303
 20
3.320811
  0
VERTEX
  8
PLAN_1
 62
     2
  6
CONTINUOUS
 10
-1.554846
 20
3.319114
  0
VERTEX
  8
PLAN_1
 62
     2
  6
CONTINUOUS
 10
-1.557811
 20
3.317843
  0
VERTEX
  8
PLAN_1
 62
     2
  6
CONTINUOUS
 10
-1.561201
 20
3.316996
  0
VERTEX
  8
PLAN_1
 62
     2
  6
CONTINUOUS
 10
-1.565016
 20
3.316996
  0
SEQEND
  8
0
  0
POLYLINE
  8
PLAN_1
 62
     2
  6
CONTINUOUS
 66
     1
 40
0.003000
 41
0.003000
  0
VERTEX
  8
PLAN_1
 62
     2
  6
CONTINUOUS
 10
-1.565016
 20
3.383949
  0
VERTEX
  8
PLAN_1
 62
     2
  6
CONTINUOUS
 10
-1.567134
 20
3.383524
  0
VERTEX
  8
PLAN_1
 62
     2
  6
CONTINUOUS
 10
-1.568831
 20
3.383102
  0
VERTEX
  8
PLAN_1
 62
     2
  6
CONTINUOUS
 10
-1.570524
 20
3.382677
  0
VERTEX
  8
PLAN_1
 62
     2
  6
CONTINUOUS
 10
-1.571795
 20
3.381831
  0
VERTEX
  8
PLAN_1
 62
     2
  6
CONTINUOUS
 10
-1.573492
 20
3.380559
  0
VERTEX
  8
PLAN_1
 62
     2
  6
CONTINUOUS
 10
-1.574764
 20
3.379287
  0
VERTEX
  8
PLAN_1
 62
     2
  6
CONTINUOUS
 10
-1.575610
 20
3.377591
  0
VERTEX
  8
PLAN_1
 62
     2
  6
CONTINUOUS
 10
-1.576882
 20
3.375898
  0
VERTEX
  8
PLAN_1
 62
     2
  6
CONTINUOUS
 10
-1.578154
 20
3.371661
  0
VERTEX
  8
PLAN_1
 62
     2
  6
CONTINUOUS
 10
-1.579425
 20
3.366575
  0
VERTEX
  8
PLAN_1
 62
     2
  6
CONTINUOUS
 10
-1.580272
 20
3.361067
  0
VERTEX
  8
PLAN_1
 62
     2
  6
CONTINUOUS
 10
-1.580272
 20
3.354287
  0
VERTEX
  8
PLAN_1
 62
     2
  6
CONTINUOUS
 10
-1.580272
 20
3.347929
  0
VERTEX
  8
PLAN_1
 62
     2
  6
CONTINUOUS
 10
-1.579425
 20
3.341996
  0
VERTEX
  8
PLAN_1
 62
     2
  6
CONTINUOUS
 10
-1.578154
 20
3.336913
  0
VERTEX
  8
PLAN_1
 62
     2
  6
CONTINUOUS
 10
-1.576882
 20
3.333098
  0
VERTEX
  8
PLAN_1
 62
     2
  6
CONTINUOUS
 10
-1.575610
 20
3.330980
  0
VERTEX
  8
PLAN_1
 62
     2
  6
CONTINUOUS
 10
-1.574764
 20
3.329709
  0
VERTEX
  8
PLAN_1
 62
     2
  6
CONTINUOUS
 10
-1.573492
 20
3.328012
  0
VERTEX
  8
PLAN_1
 62
     2
  6
CONTINUOUS
 10
-1.571795
 20
3.327165
  0
VERTEX
  8
PLAN_1
 62
     2
  6
CONTINUOUS
 10
-1.570524
 20
3.326319
  0
VERTEX
  8
PLAN_1
 62
     2
  6
CONTINUOUS
 10
-1.568831
 20
3.325472
  0
VERTEX
  8
PLAN_1
 62
     2
  6
CONTINUOUS
 10
-1.567134
 20
3.325047
  0
VERTEX
  8
PLAN_1
 62
     2
  6
CONTINUOUS
 10
-1.565016
 20
3.325047
  0
VERTEX
  8
PLAN_1
 62
     2
  6
CONTINUOUS
 10
-1.563323
 20
3.325047
  0
VERTEX
  8
PLAN_1
 62
     2
  6
CONTINUOUS
 10
-1.561626
 20
3.325472
  0
VERTEX
  8
PLAN_1
 62
     2
  6
CONTINUOUS
 10
-1.559933
 20
3.326319
  0
VERTEX
  8
PLAN_1
 62
     2
  6
CONTINUOUS
 10
-1.558236
 20
3.327165
  0
VERTEX
  8
PLAN_1
 62
     2
  6
CONTINUOUS
 10
-1.556965
 20
3.328012
  0
VERTEX
  8
PLAN_1
 62
     2
  6
CONTINUOUS
 10
-1.555693
 20
3.329709
  0
VERTEX
  8
PLAN_1
 62
     2
  6
CONTINUOUS
 10
-1.554421
 20
3.330980
  0
VERTEX
  8
PLAN_1
 62
     2
  6
CONTINUOUS
 10
-1.553575
 20
3.333098
  0
VERTEX
  8
PLAN_1
 62
     2
  6
CONTINUOUS
 10
-1.551882
 20
3.336913
  0
VERTEX
  8
PLAN_1
 62
     2
  6
CONTINUOUS
 10
-1.550610
 20
3.341996
  0
VERTEX
  8
PLAN_1
 62
     2
  6
CONTINUOUS
 10
-1.550185
 20
3.347929
  0
VERTEX
  8
PLAN_1
 62
     2
  6
CONTINUOUS
 10
-1.549760
 20
3.354287
  0
VERTEX
  8
PLAN_1
 62
     2
  6
CONTINUOUS
 10
-1.550185
 20
3.361067
  0
VERTEX
  8
PLAN_1
 62
     2
  6
CONTINUOUS
 10
-1.550610
 20
3.366575
  0
VERTEX
  8
PLAN_1
 62
     2
  6
CONTINUOUS
 10
-1.551882
 20
3.371661
  0
VERTEX
  8
PLAN_1
 62
     2
  6
CONTINUOUS
 10
-1.553575
 20
3.375898
  0
VERTEX
  8
PLAN_1
 62
     2
  6
CONTINUOUS
 10
-1.554421
 20
3.377591
  0
VERTEX
  8
PLAN_1
 62
     2
  6
CONTINUOUS
 10
-1.555693
 20
3.379287
  0
VERTEX
  8
PLAN_1
 62
     2
  6
CONTINUOUS
 10
-1.556965
 20
3.380559
  0
VERTEX
  8
PLAN_1
 62
     2
  6
CONTINUOUS
 10
-1.558236
 20
3.381831
  0
VERTEX
  8
PLAN_1
 62
     2
  6
CONTINUOUS
 10
-1.559933
 20
3.382677
  0
VERTEX
  8
PLAN_1
 62
     2
  6
CONTINUOUS
 10
-1.561626
 20
3.383102
  0
VERTEX
  8
PLAN_1
 62
     2
  6
CONTINUOUS
 10
-1.563323
 20
3.383524
  0
VERTEX
  8
PLAN_1
 62
     2
  6
CONTINUOUS
 10
-1.565016
 20
3.383949
  0
SEQEND
  8
0
  0
ENDSEC
  0
EOF
