  0
SECTION
  2
HEADER
  9
$ACADVER
  1
AC1006
  9
$EXTMIN
 10
-2.505000
 20
-3.864213
  9
$EXTMAX
 10
2.504000
 20
3.862240
  9
$LTSCALE
 40
0.000394
  9
$PDMODE
 70
    35
  9
$PDSIZE
 40
0.000315
  0
ENDSEC
  0
SECTION
  2
TABLES
  0
TABLE
  2
LTYPE
 70
     9
  0
LTYPE
  2
CONTINUOUS
 70
    64
  3
Solid line
 72
    65
 73
     0
 40
0.000000
  0
LTYPE
  2
DASHED
 70
    64
  3
__ __ __ __ __ __ __ __ __ __ __ __ __ __ __
 72
    65
 73
     2
 40
0.000003
 49
0.000002
 49
-0.000001
  0
LTYPE
  2
HIDDEN
 70
    64
  3
 _ _ _ _ _ _ _ _ _ _ _ _ _ _ _ _ _ _ _ _ _ _
 72
    65
 73
     2
 40
0.000001
 49
0.000001
 49
-0.000000
  0
LTYPE
  2
CENTER
 70
    64
  3
____ _ ____ _ ____ _ ____ _ ____ _ ____ _ ____
 72
    65
 73
     4
 40
0.000008
 49
0.000005
 49
-0.000001
 49
0.000001
 49
-0.000001
  0
LTYPE
  2
PHANTOM
 70
    64
  3
_____ _ _ _____ _ _ _____ _ _ _____ _ _ ____
 72
    65
 73
     6
 40
0.000010
 49
0.000005
 49
-0.000001
 49
0.000001
 49
-0.000001
 49
0.000001
 49
-0.000001
  0
LTYPE
  2
DOT
 70
    64
  3
...............................................
 72
    65
 73
     2
 40
0.000001
 49
0.000000
 49
-0.000001
  0
LTYPE
  2
DASHDOT
 70
    64
  3
__ . __ . __ . __ . __ . __ . __ . __ . __ . __
 72
    65
 73
     4
 40
0.000004
 49
0.000002
 49
-0.000001
 49
0.000000
 49
-0.000001
  0
LTYPE
  2
BORDER
 70
    64
  3
__ __ . __ __ . __ __ . __ __ . __ __ . __ __
 72
    65
 73
     6
 40
0.000007
 49
0.000002
 49
-0.000001
 49
0.000002
 49
-0.000001
 49
0.000000
 49
-0.000001
  0
LTYPE
  2
DIVIDE
 70
    64
  3
__ . . __ . . __ . . __ . . __ . . __ . . __
 72
    65
 73
     6
 40
0.000005
 49
0.000002
 49
-0.000001
 49
0.000000
 49
-0.000001
 49
0.000000
 49
-0.000001
  0
LTYPE
  2
DOTDOT
 70
    64
  3
 . .  . .  . .  . .  . .  . . 
 72
    65
 73
     5
 40
0.000002
 49
-0.000001
 49
0.000000
 49
-0.000001
 49
0.000000
 49
-0.000001
  0
ENDTAB
  0
TABLE
  2
STYLE
 70
     0
  0
ENDTAB
  0
TABLE
  2
LAYER
 70
     3
  0
LAYER
  2
FOREGROUND
 70
    64
 62
     7
  6
CONTINUOUS
  0
LAYER
  2
BACKGROUND
 70
    65
 62
    -7
  6
CONTINUOUS
  0
LAYER
  2
PLAN_1
 70
    64
 62
     7
  6
CONTINUOUS
  0
ENDTAB
  0
ENDSEC
  0
SECTION
  2
ENTITIES
  0
POLYLINE
  8
PLAN_1
  6
CONTINUOUS
 66
     1
 40
0.003000
 41
0.003000
  0
VERTEX
  8
PLAN_1
  6
CONTINUOUS
 10
0.643433
 20
-3.858902
  0
VERTEX
  8
PLAN_1
  6
CONTINUOUS
 10
0.486492
 20
-3.858902
  0
VERTEX
  8
PLAN_1
  6
CONTINUOUS
 10
0.486492
 20
-3.836689
  0
VERTEX
  8
PLAN_1
  6
CONTINUOUS
 10
0.608665
 20
-3.683610
  0
VERTEX
  8
PLAN_1
  6
CONTINUOUS
 10
0.495669
 20
-3.683610
  0
VERTEX
  8
PLAN_1
  6
CONTINUOUS
 10
0.495669
 20
-3.659469
  0
VERTEX
  8
PLAN_1
  6
CONTINUOUS
 10
0.643433
 20
-3.659469
  0
VERTEX
  8
PLAN_1
  6
CONTINUOUS
 10
0.643433
 20
-3.683130
  0
VERTEX
  8
PLAN_1
  6
CONTINUOUS
 10
0.520780
 20
-3.835240
  0
VERTEX
  8
PLAN_1
  6
CONTINUOUS
 10
0.643433
 20
-3.835240
  0
VERTEX
  8
PLAN_1
  6
CONTINUOUS
 10
0.643433
 20
-3.858902
  0
SEQEND
  8
0
  0
POLYLINE
  8
PLAN_1
  6
CONTINUOUS
 66
     1
 40
0.003000
 41
0.003000
  0
VERTEX
  8
PLAN_1
  6
CONTINUOUS
 10
0.810992
 20
-3.719827
  0
VERTEX
  8
PLAN_1
  6
CONTINUOUS
 10
0.809063
 20
-3.713551
  0
VERTEX
  8
PLAN_1
  6
CONTINUOUS
 10
0.807130
 20
-3.707756
  0
VERTEX
  8
PLAN_1
  6
CONTINUOUS
 10
0.804232
 20
-3.702929
  0
VERTEX
  8
PLAN_1
  6
CONTINUOUS
 10
0.801819
 20
-3.698583
  0
VERTEX
  8
PLAN_1
  6
CONTINUOUS
 10
0.798437
 20
-3.694717
  0
VERTEX
  8
PLAN_1
  6
CONTINUOUS
 10
0.795059
 20
-3.691339
  0
VERTEX
  8
PLAN_1
  6
CONTINUOUS
 10
0.791197
 20
-3.688441
  0
VERTEX
  8
PLAN_1
  6
CONTINUOUS
 10
0.787331
 20
-3.686028
  0
VERTEX
  8
PLAN_1
  6
CONTINUOUS
 10
0.782984
 20
-3.683610
  0
VERTEX
  8
PLAN_1
  6
CONTINUOUS
 10
0.779122
 20
-3.682165
  0
VERTEX
  8
PLAN_1
  6
CONTINUOUS
 10
0.774776
 20
-3.680717
  0
VERTEX
  8
PLAN_1
  6
CONTINUOUS
 10
0.770913
 20
-3.679748
  0
VERTEX
  8
PLAN_1
  6
CONTINUOUS
 10
0.762705
 20
-3.678783
  0
VERTEX
  8
PLAN_1
  6
CONTINUOUS
 10
0.754980
 20
-3.678299
  0
VERTEX
  8
PLAN_1
  6
CONTINUOUS
 10
0.748217
 20
-3.678783
  0
VERTEX
  8
PLAN_1
  6
CONTINUOUS
 10
0.741941
 20
-3.679748
  0
VERTEX
  8
PLAN_1
  6
CONTINUOUS
 10
0.735661
 20
-3.681197
  0
VERTEX
  8
PLAN_1
  6
CONTINUOUS
 10
0.729386
 20
-3.683130
  0
VERTEX
  8
PLAN_1
  6
CONTINUOUS
 10
0.724075
 20
-3.686028
  0
VERTEX
  8
PLAN_1
  6
CONTINUOUS
 10
0.718280
 20
-3.689406
  0
VERTEX
  8
PLAN_1
  6
CONTINUOUS
 10
0.713449
 20
-3.693272
  0
VERTEX
  8
PLAN_1
  6
CONTINUOUS
 10
0.708622
 20
-3.698098
  0
VERTEX
  8
PLAN_1
  6
CONTINUOUS
 10
0.704760
 20
-3.703409
  0
VERTEX
  8
PLAN_1
  6
CONTINUOUS
 10
0.700894
 20
-3.709205
  0
VERTEX
  8
PLAN_1
  6
CONTINUOUS
 10
0.697516
 20
-3.715965
  0
VERTEX
  8
PLAN_1
  6
CONTINUOUS
 10
0.695102
 20
-3.722724
  0
VERTEX
  8
PLAN_1
  6
CONTINUOUS
 10
0.692685
 20
-3.730453
  0
VERTEX
  8
PLAN_1
  6
CONTINUOUS
 10
0.691236
 20
-3.739146
  0
VERTEX
  8
PLAN_1
  6
CONTINUOUS
 10
0.690272
 20
-3.747835
  0
VERTEX
  8
PLAN_1
  6
CONTINUOUS
 10
0.689787
 20
-3.757492
  0
VERTEX
  8
PLAN_1
  6
CONTINUOUS
 10
0.689787
 20
-3.766185
  0
VERTEX
  8
PLAN_1
  6
CONTINUOUS
 10
0.690756
 20
-3.774394
  0
VERTEX
  8
PLAN_1
  6
CONTINUOUS
 10
0.691720
 20
-3.782602
  0
VERTEX
  8
PLAN_1
  6
CONTINUOUS
 10
0.693169
 20
-3.790331
  0
VERTEX
  8
PLAN_1
  6
CONTINUOUS
 10
0.695102
 20
-3.797575
  0
VERTEX
  8
PLAN_1
  6
CONTINUOUS
 10
0.697516
 20
-3.804335
  0
VERTEX
  8
PLAN_1
  6
CONTINUOUS
 10
0.700894
 20
-3.810610
  0
VERTEX
  8
PLAN_1
  6
CONTINUOUS
 10
0.704276
 20
-3.816406
  0
VERTEX
  8
PLAN_1
  6
CONTINUOUS
 10
0.708622
 20
-3.821717
  0
VERTEX
  8
PLAN_1
  6
CONTINUOUS
 10
0.712969
 20
-3.826547
  0
VERTEX
  8
PLAN_1
  6
CONTINUOUS
 10
0.718764
 20
-3.830409
  0
VERTEX
  8
PLAN_1
  6
CONTINUOUS
 10
0.724555
 20
-3.833791
  0
VERTEX
  8
PLAN_1
  6
CONTINUOUS
 10
0.731319
 20
-3.836689
  0
VERTEX
  8
PLAN_1
  6
CONTINUOUS
 10
0.738559
 20
-3.838618
  0
VERTEX
  8
PLAN_1
  6
CONTINUOUS
 10
0.746768
 20
-3.840067
  0
VERTEX
  8
PLAN_1
  6
CONTINUOUS
 10
0.755945
 20
-3.840551
  0
VERTEX
  8
PLAN_1
  6
CONTINUOUS
 10
0.759323
 20
-3.840067
  0
VERTEX
  8
PLAN_1
  6
CONTINUOUS
 10
0.762705
 20
-3.840067
  0
VERTEX
  8
PLAN_1
  6
CONTINUOUS
 10
0.766567
 20
-3.839102
  0
VERTEX
  8
PLAN_1
  6
CONTINUOUS
 10
0.770913
 20
-3.838138
  0
VERTEX
  8
PLAN_1
  6
CONTINUOUS
 10
0.774776
 20
-3.837169
  0
VERTEX
  8
PLAN_1
  6
CONTINUOUS
 10
0.779122
 20
-3.835240
  0
VERTEX
  8
PLAN_1
  6
CONTINUOUS
 10
0.783469
 20
-3.833307
  0
VERTEX
  8
PLAN_1
  6
CONTINUOUS
 10
0.787331
 20
-3.830409
  0
VERTEX
  8
PLAN_1
  6
CONTINUOUS
 10
0.791197
 20
-3.827031
  0
VERTEX
  8
PLAN_1
  6
CONTINUOUS
 10
0.795059
 20
-3.823165
  0
VERTEX
  8
PLAN_1
  6
CONTINUOUS
 10
0.798921
 20
-3.818819
  0
VERTEX
  8
PLAN_1
  6
CONTINUOUS
 10
0.802303
 20
-3.813992
  0
VERTEX
  8
PLAN_1
  6
CONTINUOUS
 10
0.805681
 20
-3.807713
  0
VERTEX
  8
PLAN_1
  6
CONTINUOUS
 10
0.808579
 20
-3.801437
  0
VERTEX
  8
PLAN_1
  6
CONTINUOUS
 10
0.810512
 20
-3.793709
  0
VERTEX
  8
PLAN_1
  6
CONTINUOUS
 10
0.812925
 20
-3.785500
  0
VERTEX
  8
PLAN_1
  6
CONTINUOUS
 10
0.839000
 20
-3.785500
  0
VERTEX
  8
PLAN_1
  6
CONTINUOUS
 10
0.837551
 20
-3.792744
  0
VERTEX
  8
PLAN_1
  6
CONTINUOUS
 10
0.836102
 20
-3.799024
  0
VERTEX
  8
PLAN_1
  6
CONTINUOUS
 10
0.834654
 20
-3.804819
  0
VERTEX
  8
PLAN_1
  6
CONTINUOUS
 10
0.832240
 20
-3.810610
  0
VERTEX
  8
PLAN_1
  6
CONTINUOUS
 10
0.830311
 20
-3.815925
  0
VERTEX
  8
PLAN_1
  6
CONTINUOUS
 10
0.827894
 20
-3.820752
  0
VERTEX
  8
PLAN_1
  6
CONTINUOUS
 10
0.825480
 20
-3.825583
  0
VERTEX
  8
PLAN_1
  6
CONTINUOUS
 10
0.822583
 20
-3.829445
  0
VERTEX
  8
PLAN_1
  6
CONTINUOUS
 10
0.819685
 20
-3.833791
  0
VERTEX
  8
PLAN_1
  6
CONTINUOUS
 10
0.816787
 20
-3.837169
  0
VERTEX
  8
PLAN_1
  6
CONTINUOUS
 10
0.813409
 20
-3.840551
  0
VERTEX
  8
PLAN_1
  6
CONTINUOUS
 10
0.810512
 20
-3.843449
  0
VERTEX
  8
PLAN_1
  6
CONTINUOUS
 10
0.803752
 20
-3.848760
  0
VERTEX
  8
PLAN_1
  6
CONTINUOUS
 10
0.796508
 20
-3.853106
  0
VERTEX
  8
PLAN_1
  6
CONTINUOUS
 10
0.789748
 20
-3.856484
  0
VERTEX
  8
PLAN_1
  6
CONTINUOUS
 10
0.782984
 20
-3.859382
  0
VERTEX
  8
PLAN_1
  6
CONTINUOUS
 10
0.776224
 20
-3.861315
  0
VERTEX
  8
PLAN_1
  6
CONTINUOUS
 10
0.769949
 20
-3.862280
  0
VERTEX
  8
PLAN_1
  6
CONTINUOUS
 10
0.759323
 20
-3.863728
  0
VERTEX
  8
PLAN_1
  6
CONTINUOUS
 10
0.751598
 20
-3.864213
  0
VERTEX
  8
PLAN_1
  6
CONTINUOUS
 10
0.743390
 20
-3.863728
  0
VERTEX
  8
PLAN_1
  6
CONTINUOUS
 10
0.734697
 20
-3.862764
  0
VERTEX
  8
PLAN_1
  6
CONTINUOUS
 10
0.726488
 20
-3.860831
  0
VERTEX
  8
PLAN_1
  6
CONTINUOUS
 10
0.718764
 20
-3.858417
  0
VERTEX
  8
PLAN_1
  6
CONTINUOUS
 10
0.711035
 20
-3.855039
  0
VERTEX
  8
PLAN_1
  6
CONTINUOUS
 10
0.703311
 20
-3.850693
  0
VERTEX
  8
PLAN_1
  6
CONTINUOUS
 10
0.699929
 20
-3.848276
  0
VERTEX
  8
PLAN_1
  6
CONTINUOUS
 10
0.696551
 20
-3.845862
  0
VERTEX
  8
PLAN_1
  6
CONTINUOUS
 10
0.693169
 20
-3.842965
  0
VERTEX
  8
PLAN_1
  6
CONTINUOUS
 10
0.689787
 20
-3.840067
  0
VERTEX
  8
PLAN_1
  6
CONTINUOUS
 10
0.686890
 20
-3.836689
  0
VERTEX
  8
PLAN_1
  6
CONTINUOUS
 10
0.683996
 20
-3.833307
  0
VERTEX
  8
PLAN_1
  6
CONTINUOUS
 10
0.681098
 20
-3.829445
  0
VERTEX
  8
PLAN_1
  6
CONTINUOUS
 10
0.678201
 20
-3.825583
  0
VERTEX
  8
PLAN_1
  6
CONTINUOUS
 10
0.675783
 20
-3.821236
  0
VERTEX
  8
PLAN_1
  6
CONTINUOUS
 10
0.673854
 20
-3.816890
  0
VERTEX
  8
PLAN_1
  6
CONTINUOUS
 10
0.671441
 20
-3.812059
  0
VERTEX
  8
PLAN_1
  6
CONTINUOUS
 10
0.669508
 20
-3.807232
  0
VERTEX
  8
PLAN_1
  6
CONTINUOUS
 10
0.668059
 20
-3.801921
  0
VERTEX
  8
PLAN_1
  6
CONTINUOUS
 10
0.666610
 20
-3.796606
  0
VERTEX
  8
PLAN_1
  6
CONTINUOUS
 10
0.665161
 20
-3.790815
  0
VERTEX
  8
PLAN_1
  6
CONTINUOUS
 10
0.664197
 20
-3.784535
  0
VERTEX
  8
PLAN_1
  6
CONTINUOUS
 10
0.663228
 20
-3.778740
  0
VERTEX
  8
PLAN_1
  6
CONTINUOUS
 10
0.662748
 20
-3.771980
  0
VERTEX
  8
PLAN_1
  6
CONTINUOUS
 10
0.662264
 20
-3.765220
  0
VERTEX
  8
PLAN_1
  6
CONTINUOUS
 10
0.661780
 20
-3.757976
  0
VERTEX
  8
PLAN_1
  6
CONTINUOUS
 10
0.662264
 20
-3.746870
  0
VERTEX
  8
PLAN_1
  6
CONTINUOUS
 10
0.663713
 20
-3.736248
  0
VERTEX
  8
PLAN_1
  6
CONTINUOUS
 10
0.665646
 20
-3.725622
  0
VERTEX
  8
PLAN_1
  6
CONTINUOUS
 10
0.668543
 20
-3.715965
  0
VERTEX
  8
PLAN_1
  6
CONTINUOUS
 10
0.671921
 20
-3.706791
  0
VERTEX
  8
PLAN_1
  6
CONTINUOUS
 10
0.676268
 20
-3.698583
  0
VERTEX
  8
PLAN_1
  6
CONTINUOUS
 10
0.681098
 20
-3.690374
  0
VERTEX
  8
PLAN_1
  6
CONTINUOUS
 10
0.686890
 20
-3.683130
  0
VERTEX
  8
PLAN_1
  6
CONTINUOUS
 10
0.689787
 20
-3.679748
  0
VERTEX
  8
PLAN_1
  6
CONTINUOUS
 10
0.693169
 20
-3.676850
  0
VERTEX
  8
PLAN_1
  6
CONTINUOUS
 10
0.696551
 20
-3.673953
  0
VERTEX
  8
PLAN_1
  6
CONTINUOUS
 10
0.699929
 20
-3.671055
  0
VERTEX
  8
PLAN_1
  6
CONTINUOUS
 10
0.703791
 20
-3.668642
  0
VERTEX
  8
PLAN_1
  6
CONTINUOUS
 10
0.707657
 20
-3.666228
  0
VERTEX
  8
PLAN_1
  6
CONTINUOUS
 10
0.712000
 20
-3.663815
  0
VERTEX
  8
PLAN_1
  6
CONTINUOUS
 10
0.715866
 20
-3.661882
  0
VERTEX
  8
PLAN_1
  6
CONTINUOUS
 10
0.720213
 20
-3.660433
  0
VERTEX
  8
PLAN_1
  6
CONTINUOUS
 10
0.725039
 20
-3.658500
  0
VERTEX
  8
PLAN_1
  6
CONTINUOUS
 10
0.729386
 20
-3.657535
  0
VERTEX
  8
PLAN_1
  6
CONTINUOUS
 10
0.734213
 20
-3.656571
  0
VERTEX
  8
PLAN_1
  6
CONTINUOUS
 10
0.739043
 20
-3.655606
  0
VERTEX
  8
PLAN_1
  6
CONTINUOUS
 10
0.744354
 20
-3.655122
  0
VERTEX
  8
PLAN_1
  6
CONTINUOUS
 10
0.749665
 20
-3.654638
  0
VERTEX
  8
PLAN_1
  6
CONTINUOUS
 10
0.754980
 20
-3.654157
  0
VERTEX
  8
PLAN_1
  6
CONTINUOUS
 10
0.764154
 20
-3.654638
  0
VERTEX
  8
PLAN_1
  6
CONTINUOUS
 10
0.772846
 20
-3.655606
  0
VERTEX
  8
PLAN_1
  6
CONTINUOUS
 10
0.781055
 20
-3.657535
  0
VERTEX
  8
PLAN_1
  6
CONTINUOUS
 10
0.788780
 20
-3.659949
  0
VERTEX
  8
PLAN_1
  6
CONTINUOUS
 10
0.796024
 20
-3.662846
  0
VERTEX
  8
PLAN_1
  6
CONTINUOUS
 10
0.802303
 20
-3.666228
  0
VERTEX
  8
PLAN_1
  6
CONTINUOUS
 10
0.808579
 20
-3.670091
  0
VERTEX
  8
PLAN_1
  6
CONTINUOUS
 10
0.813890
 20
-3.674437
  0
VERTEX
  8
PLAN_1
  6
CONTINUOUS
 10
0.818720
 20
-3.679268
  0
VERTEX
  8
PLAN_1
  6
CONTINUOUS
 10
0.822583
 20
-3.684579
  0
VERTEX
  8
PLAN_1
  6
CONTINUOUS
 10
0.826445
 20
-3.689890
  0
VERTEX
  8
PLAN_1
  6
CONTINUOUS
 10
0.829827
 20
-3.695201
  0
VERTEX
  8
PLAN_1
  6
CONTINUOUS
 10
0.832240
 20
-3.700996
  0
VERTEX
  8
PLAN_1
  6
CONTINUOUS
 10
0.834173
 20
-3.707272
  0
VERTEX
  8
PLAN_1
  6
CONTINUOUS
 10
0.836102
 20
-3.713551
  0
VERTEX
  8
PLAN_1
  6
CONTINUOUS
 10
0.837071
 20
-3.719827
  0
VERTEX
  8
PLAN_1
  6
CONTINUOUS
 10
0.810992
 20
-3.719827
  0
SEQEND
  8
0
  0
POLYLINE
  8
PLAN_1
  6
CONTINUOUS
 66
     1
 40
0.003000
 41
0.003000
  0
VERTEX
  8
PLAN_1
  6
CONTINUOUS
 10
0.898398
 20
-3.858902
  0
VERTEX
  8
PLAN_1
  6
CONTINUOUS
 10
0.871354
 20
-3.858902
  0
VERTEX
  8
PLAN_1
  6
CONTINUOUS
 10
0.871354
 20
-3.659469
  0
VERTEX
  8
PLAN_1
  6
CONTINUOUS
 10
0.898398
 20
-3.659469
  0
VERTEX
  8
PLAN_1
  6
CONTINUOUS
 10
0.898398
 20
-3.756047
  0
VERTEX
  8
PLAN_1
  6
CONTINUOUS
 10
0.994972
 20
-3.659469
  0
VERTEX
  8
PLAN_1
  6
CONTINUOUS
 10
1.032157
 20
-3.659469
  0
VERTEX
  8
PLAN_1
  6
CONTINUOUS
 10
0.949098
 20
-3.740110
  0
VERTEX
  8
PLAN_1
  6
CONTINUOUS
 10
1.034087
 20
-3.858902
  0
VERTEX
  8
PLAN_1
  6
CONTINUOUS
 10
0.999319
 20
-3.858902
  0
VERTEX
  8
PLAN_1
  6
CONTINUOUS
 10
0.929783
 20
-3.758941
  0
VERTEX
  8
PLAN_1
  6
CONTINUOUS
 10
0.898398
 20
-3.788882
  0
VERTEX
  8
PLAN_1
  6
CONTINUOUS
 10
0.898398
 20
-3.858902
  0
SEQEND
  8
0
  0
POLYLINE
  8
PLAN_1
  6
CONTINUOUS
 66
     1
 40
0.003000
 41
0.003000
  0
VERTEX
  8
PLAN_1
  6
CONTINUOUS
 10
1.176539
 20
-3.717898
  0
VERTEX
  8
PLAN_1
  6
CONTINUOUS
 10
1.176059
 20
-3.712587
  0
VERTEX
  8
PLAN_1
  6
CONTINUOUS
 10
1.175091
 20
-3.707272
  0
VERTEX
  8
PLAN_1
  6
CONTINUOUS
 10
1.173642
 20
-3.702929
  0
VERTEX
  8
PLAN_1
  6
CONTINUOUS
 10
1.171713
 20
-3.698583
  0
VERTEX
  8
PLAN_1
  6
CONTINUOUS
 10
1.169295
 20
-3.694717
  0
VERTEX
  8
PLAN_1
  6
CONTINUOUS
 10
1.166398
 20
-3.691823
  0
VERTEX
  8
PLAN_1
  6
CONTINUOUS
 10
1.163504
 20
-3.688925
  0
VERTEX
  8
PLAN_1
  6
CONTINUOUS
 10
1.160122
 20
-3.686028
  0
VERTEX
  8
PLAN_1
  6
CONTINUOUS
 10
1.156260
 20
-3.684094
  0
VERTEX
  8
PLAN_1
  6
CONTINUOUS
 10
1.152398
 20
-3.682165
  0
VERTEX
  8
PLAN_1
  6
CONTINUOUS
 10
1.148531
 20
-3.680717
  0
VERTEX
  8
PLAN_1
  6
CONTINUOUS
 10
1.144185
 20
-3.679268
  0
VERTEX
  8
PLAN_1
  6
CONTINUOUS
 10
1.140323
 20
-3.678299
  0
VERTEX
  8
PLAN_1
  6
CONTINUOUS
 10
1.135976
 20
-3.677819
  0
VERTEX
  8
PLAN_1
  6
CONTINUOUS
 10
1.131630
 20
-3.677335
  0
VERTEX
  8
PLAN_1
  6
CONTINUOUS
 10
1.127287
 20
-3.677335
  0
VERTEX
  8
PLAN_1
  6
CONTINUOUS
 10
1.120524
 20
-3.677819
  0
VERTEX
  8
PLAN_1
  6
CONTINUOUS
 10
1.113283
 20
-3.678783
  0
VERTEX
  8
PLAN_1
  6
CONTINUOUS
 10
1.109417
 20
-3.679268
  0
VERTEX
  8
PLAN_1
  6
CONTINUOUS
 10
1.105555
 20
-3.680717
  0
VERTEX
  8
PLAN_1
  6
CONTINUOUS
 10
1.101693
 20
-3.681681
  0
VERTEX
  8
PLAN_1
  6
CONTINUOUS
 10
1.098311
 20
-3.683610
  0
VERTEX
  8
PLAN_1
  6
CONTINUOUS
 10
1.094933
 20
-3.685543
  0
VERTEX
  8
PLAN_1
  6
CONTINUOUS
 10
1.091551
 20
-3.687957
  0
VERTEX
  8
PLAN_1
  6
CONTINUOUS
 10
1.089138
 20
-3.690854
  0
VERTEX
  8
PLAN_1
  6
CONTINUOUS
 10
1.086724
 20
-3.694236
  0
VERTEX
  8
PLAN_1
  6
CONTINUOUS
 10
1.084791
 20
-3.698098
  0
VERTEX
  8
PLAN_1
  6
CONTINUOUS
 10
1.083343
 20
-3.702445
  0
VERTEX
  8
PLAN_1
  6
CONTINUOUS
 10
1.082378
 20
-3.706791
  0
VERTEX
  8
PLAN_1
  6
CONTINUOUS
 10
1.081894
 20
-3.712587
  0
VERTEX
  8
PLAN_1
  6
CONTINUOUS
 10
1.081894
 20
-3.715484
  0
VERTEX
  8
PLAN_1
  6
CONTINUOUS
 10
1.082378
 20
-3.718382
  0
VERTEX
  8
PLAN_1
  6
CONTINUOUS
 10
1.082858
 20
-3.720795
  0
VERTEX
  8
PLAN_1
  6
CONTINUOUS
 10
1.083827
 20
-3.723209
  0
VERTEX
  8
PLAN_1
  6
CONTINUOUS
 10
1.084791
 20
-3.725142
  0
VERTEX
  8
PLAN_1
  6
CONTINUOUS
 10
1.086240
 20
-3.727071
  0
VERTEX
  8
PLAN_1
  6
CONTINUOUS
 10
1.087689
 20
-3.729004
  0
VERTEX
  8
PLAN_1
  6
CONTINUOUS
 10
1.089138
 20
-3.730453
  0
VERTEX
  8
PLAN_1
  6
CONTINUOUS
 10
1.093000
 20
-3.732866
  0
VERTEX
  8
PLAN_1
  6
CONTINUOUS
 10
1.096862
 20
-3.734799
  0
VERTEX
  8
PLAN_1
  6
CONTINUOUS
 10
1.101209
 20
-3.736248
  0
VERTEX
  8
PLAN_1
  6
CONTINUOUS
 10
1.105555
 20
-3.737697
  0
VERTEX
  8
PLAN_1
  6
CONTINUOUS
 10
1.162535
 20
-3.750732
  0
VERTEX
  8
PLAN_1
  6
CONTINUOUS
 10
1.166882
 20
-3.752181
  0
VERTEX
  8
PLAN_1
  6
CONTINUOUS
 10
1.171713
 20
-3.753630
  0
VERTEX
  8
PLAN_1
  6
CONTINUOUS
 10
1.176059
 20
-3.755079
  0
VERTEX
  8
PLAN_1
  6
CONTINUOUS
 10
1.180402
 20
-3.757012
  0
VERTEX
  8
PLAN_1
  6
CONTINUOUS
 10
1.184268
 20
-3.759425
  0
VERTEX
  8
PLAN_1
  6
CONTINUOUS
 10
1.188130
 20
-3.761839
  0
VERTEX
  8
PLAN_1
  6
CONTINUOUS
 10
1.191508
 20
-3.764736
  0
VERTEX
  8
PLAN_1
  6
CONTINUOUS
 10
1.194406
 20
-3.767634
  0
VERTEX
  8
PLAN_1
  6
CONTINUOUS
 10
1.197303
 20
-3.771016
  0
VERTEX
  8
PLAN_1
  6
CONTINUOUS
 10
1.200201
 20
-3.774878
  0
VERTEX
  8
PLAN_1
  6
CONTINUOUS
 10
1.202134
 20
-3.778740
  0
VERTEX
  8
PLAN_1
  6
CONTINUOUS
 10
1.204063
 20
-3.783087
  0
VERTEX
  8
PLAN_1
  6
CONTINUOUS
 10
1.205512
 20
-3.787917
  0
VERTEX
  8
PLAN_1
  6
CONTINUOUS
 10
1.206480
 20
-3.792744
  0
VERTEX
  8
PLAN_1
  6
CONTINUOUS
 10
1.207445
 20
-3.798055
  0
VERTEX
  8
PLAN_1
  6
CONTINUOUS
 10
1.207445
 20
-3.803850
  0
VERTEX
  8
PLAN_1
  6
CONTINUOUS
 10
1.207445
 20
-3.808197
  0
VERTEX
  8
PLAN_1
  6
CONTINUOUS
 10
1.206961
 20
-3.812543
  0
VERTEX
  8
PLAN_1
  6
CONTINUOUS
 10
1.206480
 20
-3.816406
  0
VERTEX
  8
PLAN_1
  6
CONTINUOUS
 10
1.205512
 20
-3.820268
  0
VERTEX
  8
PLAN_1
  6
CONTINUOUS
 10
1.204547
 20
-3.823650
  0
VERTEX
  8
PLAN_1
  6
CONTINUOUS
 10
1.203098
 20
-3.827031
  0
VERTEX
  8
PLAN_1
  6
CONTINUOUS
 10
1.201650
 20
-3.830409
  0
VERTEX
  8
PLAN_1
  6
CONTINUOUS
 10
1.200201
 20
-3.833307
  0
VERTEX
  8
PLAN_1
  6
CONTINUOUS
 10
1.196339
 20
-3.839102
  0
VERTEX
  8
PLAN_1
  6
CONTINUOUS
 10
1.191992
 20
-3.843929
  0
VERTEX
  8
PLAN_1
  6
CONTINUOUS
 10
1.186681
 20
-3.848276
  0
VERTEX
  8
PLAN_1
  6
CONTINUOUS
 10
1.181370
 20
-3.851657
  0
VERTEX
  8
PLAN_1
  6
CONTINUOUS
 10
1.175575
 20
-3.855039
  0
VERTEX
  8
PLAN_1
  6
CONTINUOUS
 10
1.169295
 20
-3.857453
  0
VERTEX
  8
PLAN_1
  6
CONTINUOUS
 10
1.163020
 20
-3.859866
  0
VERTEX
  8
PLAN_1
  6
CONTINUOUS
 10
1.156260
 20
-3.861315
  0
VERTEX
  8
PLAN_1
  6
CONTINUOUS
 10
1.149500
 20
-3.862764
  0
VERTEX
  8
PLAN_1
  6
CONTINUOUS
 10
1.142736
 20
-3.863728
  0
VERTEX
  8
PLAN_1
  6
CONTINUOUS
 10
1.135976
 20
-3.864213
  0
VERTEX
  8
PLAN_1
  6
CONTINUOUS
 10
1.129701
 20
-3.864213
  0
VERTEX
  8
PLAN_1
  6
CONTINUOUS
 10
1.122941
 20
-3.864213
  0
VERTEX
  8
PLAN_1
  6
CONTINUOUS
 10
1.116661
 20
-3.863728
  0
VERTEX
  8
PLAN_1
  6
CONTINUOUS
 10
1.110866
 20
-3.863248
  0
VERTEX
  8
PLAN_1
  6
CONTINUOUS
 10
1.106039
 20
-3.862280
  0
VERTEX
  8
PLAN_1
  6
CONTINUOUS
 10
1.096862
 20
-3.860350
  0
VERTEX
  8
PLAN_1
  6
CONTINUOUS
 10
1.089138
 20
-3.857453
  0
VERTEX
  8
PLAN_1
  6
CONTINUOUS
 10
1.082378
 20
-3.854555
  0
VERTEX
  8
PLAN_1
  6
CONTINUOUS
 10
1.077547
 20
-3.851657
  0
VERTEX
  8
PLAN_1
  6
CONTINUOUS
 10
1.073201
 20
-3.848276
  0
VERTEX
  8
PLAN_1
  6
CONTINUOUS
 10
1.069339
 20
-3.844898
  0
VERTEX
  8
PLAN_1
  6
CONTINUOUS
 10
1.063543
 20
-3.839102
  0
VERTEX
  8
PLAN_1
  6
CONTINUOUS
 10
1.059197
 20
-3.833307
  0
VERTEX
  8
PLAN_1
  6
CONTINUOUS
 10
1.055335
 20
-3.827512
  0
VERTEX
  8
PLAN_1
  6
CONTINUOUS
 10
1.052921
 20
-3.821236
  0
VERTEX
  8
PLAN_1
  6
CONTINUOUS
 10
1.050988
 20
-3.814476
  0
VERTEX
  8
PLAN_1
  6
CONTINUOUS
 10
1.050024
 20
-3.808197
  0
VERTEX
  8
PLAN_1
  6
CONTINUOUS
 10
1.049059
 20
-3.801437
  0
VERTEX
  8
PLAN_1
  6
CONTINUOUS
 10
1.049059
 20
-3.794677
  0
VERTEX
  8
PLAN_1
  6
CONTINUOUS
 10
1.074169
 20
-3.794677
  0
VERTEX
  8
PLAN_1
  6
CONTINUOUS
 10
1.074650
 20
-3.800953
  0
VERTEX
  8
PLAN_1
  6
CONTINUOUS
 10
1.075618
 20
-3.806748
  0
VERTEX
  8
PLAN_1
  6
CONTINUOUS
 10
1.077067
 20
-3.812059
  0
VERTEX
  8
PLAN_1
  6
CONTINUOUS
 10
1.079480
 20
-3.816890
  0
VERTEX
  8
PLAN_1
  6
CONTINUOUS
 10
1.081894
 20
-3.821236
  0
VERTEX
  8
PLAN_1
  6
CONTINUOUS
 10
1.084791
 20
-3.825098
  0
VERTEX
  8
PLAN_1
  6
CONTINUOUS
 10
1.088654
 20
-3.828480
  0
VERTEX
  8
PLAN_1
  6
CONTINUOUS
 10
1.092035
 20
-3.831374
  0
VERTEX
  8
PLAN_1
  6
CONTINUOUS
 10
1.096382
 20
-3.833791
  0
VERTEX
  8
PLAN_1
  6
CONTINUOUS
 10
1.100728
 20
-3.835720
  0
VERTEX
  8
PLAN_1
  6
CONTINUOUS
 10
1.105071
 20
-3.837654
  0
VERTEX
  8
PLAN_1
  6
CONTINUOUS
 10
1.109902
 20
-3.839102
  0
VERTEX
  8
PLAN_1
  6
CONTINUOUS
 10
1.114732
 20
-3.840067
  0
VERTEX
  8
PLAN_1
  6
CONTINUOUS
 10
1.119559
 20
-3.840551
  0
VERTEX
  8
PLAN_1
  6
CONTINUOUS
 10
1.124390
 20
-3.841035
  0
VERTEX
  8
PLAN_1
  6
CONTINUOUS
 10
1.129217
 20
-3.841035
  0
VERTEX
  8
PLAN_1
  6
CONTINUOUS
 10
1.136945
 20
-3.841035
  0
VERTEX
  8
PLAN_1
  6
CONTINUOUS
 10
1.145634
 20
-3.840067
  0
VERTEX
  8
PLAN_1
  6
CONTINUOUS
 10
1.149980
 20
-3.839102
  0
VERTEX
  8
PLAN_1
  6
CONTINUOUS
 10
1.154327
 20
-3.838138
  0
VERTEX
  8
PLAN_1
  6
CONTINUOUS
 10
1.158673
 20
-3.836689
  0
VERTEX
  8
PLAN_1
  6
CONTINUOUS
 10
1.162535
 20
-3.835240
  0
VERTEX
  8
PLAN_1
  6
CONTINUOUS
 10
1.166398
 20
-3.833307
  0
VERTEX
  8
PLAN_1
  6
CONTINUOUS
 10
1.170264
 20
-3.830894
  0
VERTEX
  8
PLAN_1
  6
CONTINUOUS
 10
1.173161
 20
-3.827996
  0
VERTEX
  8
PLAN_1
  6
CONTINUOUS
 10
1.176059
 20
-3.825098
  0
VERTEX
  8
PLAN_1
  6
CONTINUOUS
 10
1.178472
 20
-3.821236
  0
VERTEX
  8
PLAN_1
  6
CONTINUOUS
 10
1.179921
 20
-3.817374
  0
VERTEX
  8
PLAN_1
  6
CONTINUOUS
 10
1.180886
 20
-3.812543
  0
VERTEX
  8
PLAN_1
  6
CONTINUOUS
 10
1.181370
 20
-3.807713
  0
VERTEX
  8
PLAN_1
  6
CONTINUOUS
 10
1.181370
 20
-3.803850
  0
VERTEX
  8
PLAN_1
  6
CONTINUOUS
 10
1.180886
 20
-3.800472
  0
VERTEX
  8
PLAN_1
  6
CONTINUOUS
 10
1.180402
 20
-3.797091
  0
VERTEX
  8
PLAN_1
  6
CONTINUOUS
 10
1.179437
 20
-3.794193
  0
VERTEX
  8
PLAN_1
  6
CONTINUOUS
 10
1.177988
 20
-3.791780
  0
VERTEX
  8
PLAN_1
  6
CONTINUOUS
 10
1.176539
 20
-3.789366
  0
VERTEX
  8
PLAN_1
  6
CONTINUOUS
 10
1.174610
 20
-3.786949
  0
VERTEX
  8
PLAN_1
  6
CONTINUOUS
 10
1.172677
 20
-3.785020
  0
VERTEX
  8
PLAN_1
  6
CONTINUOUS
 10
1.169780
 20
-3.783087
  0
VERTEX
  8
PLAN_1
  6
CONTINUOUS
 10
1.166882
 20
-3.781638
  0
VERTEX
  8
PLAN_1
  6
CONTINUOUS
 10
1.163504
 20
-3.779709
  0
VERTEX
  8
PLAN_1
  6
CONTINUOUS
 10
1.159638
 20
-3.778260
  0
VERTEX
  8
PLAN_1
  6
CONTINUOUS
 10
1.150465
 20
-3.775362
  0
VERTEX
  8
PLAN_1
  6
CONTINUOUS
 10
1.138874
 20
-3.772465
  0
VERTEX
  8
PLAN_1
  6
CONTINUOUS
 10
1.098311
 20
-3.762807
  0
VERTEX
  8
PLAN_1
  6
CONTINUOUS
 10
1.092516
 20
-3.761358
  0
VERTEX
  8
PLAN_1
  6
CONTINUOUS
 10
1.086240
 20
-3.758941
  0
VERTEX
  8
PLAN_1
  6
CONTINUOUS
 10
1.082378
 20
-3.757492
  0
VERTEX
  8
PLAN_1
  6
CONTINUOUS
 10
1.078996
 20
-3.756047
  0
VERTEX
  8
PLAN_1
  6
CONTINUOUS
 10
1.075618
 20
-3.753630
  0
VERTEX
  8
PLAN_1
  6
CONTINUOUS
 10
1.072236
 20
-3.751217
  0
VERTEX
  8
PLAN_1
  6
CONTINUOUS
 10
1.068854
 20
-3.748319
  0
VERTEX
  8
PLAN_1
  6
CONTINUOUS
 10
1.065961
 20
-3.745421
  0
VERTEX
  8
PLAN_1
  6
CONTINUOUS
 10
1.063063
 20
-3.741559
  0
VERTEX
  8
PLAN_1
  6
CONTINUOUS
 10
1.060646
 20
-3.737697
  0
VERTEX
  8
PLAN_1
  6
CONTINUOUS
 10
1.058717
 20
-3.732866
  0
VERTEX
  8
PLAN_1
  6
CONTINUOUS
 10
1.057268
 20
-3.728039
  0
VERTEX
  8
PLAN_1
  6
CONTINUOUS
 10
1.056299
 20
-3.722244
  0
VERTEX
  8
PLAN_1
  6
CONTINUOUS
 10
1.055819
 20
-3.715965
  0
VERTEX
  8
PLAN_1
  6
CONTINUOUS
 10
1.055819
 20
-3.710169
  0
VERTEX
  8
PLAN_1
  6
CONTINUOUS
 10
1.056783
 20
-3.704378
  0
VERTEX
  8
PLAN_1
  6
CONTINUOUS
 10
1.057748
 20
-3.698583
  0
VERTEX
  8
PLAN_1
  6
CONTINUOUS
 10
1.059681
 20
-3.693272
  0
VERTEX
  8
PLAN_1
  6
CONTINUOUS
 10
1.062094
 20
-3.687957
  0
VERTEX
  8
PLAN_1
  6
CONTINUOUS
 10
1.064512
 20
-3.682646
  0
VERTEX
  8
PLAN_1
  6
CONTINUOUS
 10
1.067890
 20
-3.677819
  0
VERTEX
  8
PLAN_1
  6
CONTINUOUS
 10
1.071752
 20
-3.673472
  0
VERTEX
  8
PLAN_1
  6
CONTINUOUS
 10
1.076583
 20
-3.669610
  0
VERTEX
  8
PLAN_1
  6
CONTINUOUS
 10
1.081409
 20
-3.665744
  0
VERTEX
  8
PLAN_1
  6
CONTINUOUS
 10
1.087205
 20
-3.662366
  0
VERTEX
  8
PLAN_1
  6
CONTINUOUS
 10
1.093000
 20
-3.659469
  0
VERTEX
  8
PLAN_1
  6
CONTINUOUS
 10
1.100244
 20
-3.657535
  0
VERTEX
  8
PLAN_1
  6
CONTINUOUS
 10
1.107488
 20
-3.655606
  0
VERTEX
  8
PLAN_1
  6
CONTINUOUS
 10
1.115697
 20
-3.654638
  0
VERTEX
  8
PLAN_1
  6
CONTINUOUS
 10
1.124390
 20
-3.654157
  0
VERTEX
  8
PLAN_1
  6
CONTINUOUS
 10
1.130665
 20
-3.654638
  0
VERTEX
  8
PLAN_1
  6
CONTINUOUS
 10
1.136461
 20
-3.654638
  0
VERTEX
  8
PLAN_1
  6
CONTINUOUS
 10
1.142256
 20
-3.655606
  0
VERTEX
  8
PLAN_1
  6
CONTINUOUS
 10
1.147567
 20
-3.656087
  0
VERTEX
  8
PLAN_1
  6
CONTINUOUS
 10
1.152398
 20
-3.657055
  0
VERTEX
  8
PLAN_1
  6
CONTINUOUS
 10
1.157224
 20
-3.658500
  0
VERTEX
  8
PLAN_1
  6
CONTINUOUS
 10
1.161571
 20
-3.659949
  0
VERTEX
  8
PLAN_1
  6
CONTINUOUS
 10
1.165917
 20
-3.661398
  0
VERTEX
  8
PLAN_1
  6
CONTINUOUS
 10
1.173161
 20
-3.664780
  0
VERTEX
  8
PLAN_1
  6
CONTINUOUS
 10
1.179437
 20
-3.668642
  0
VERTEX
  8
PLAN_1
  6
CONTINUOUS
 10
1.184268
 20
-3.672988
  0
VERTEX
  8
PLAN_1
  6
CONTINUOUS
 10
1.189094
 20
-3.677819
  0
VERTEX
  8
PLAN_1
  6
CONTINUOUS
 10
1.192476
 20
-3.683130
  0
VERTEX
  8
PLAN_1
  6
CONTINUOUS
 10
1.195374
 20
-3.688441
  0
VERTEX
  8
PLAN_1
  6
CONTINUOUS
 10
1.197303
 20
-3.693272
  0
VERTEX
  8
PLAN_1
  6
CONTINUOUS
 10
1.199236
 20
-3.698583
  0
VERTEX
  8
PLAN_1
  6
CONTINUOUS
 10
1.200201
 20
-3.703894
  0
VERTEX
  8
PLAN_1
  6
CONTINUOUS
 10
1.201169
 20
-3.708720
  0
VERTEX
  8
PLAN_1
  6
CONTINUOUS
 10
1.201650
 20
-3.713551
  0
VERTEX
  8
PLAN_1
  6
CONTINUOUS
 10
1.202134
 20
-3.717898
  0
VERTEX
  8
PLAN_1
  6
CONTINUOUS
 10
1.176539
 20
-3.717898
  0
SEQEND
  8
0
  0
POLYLINE
  8
PLAN_1
  6
CONTINUOUS
 66
     1
 40
0.003000
 41
0.003000
  0
VERTEX
  8
PLAN_1
  6
CONTINUOUS
 10
1.337343
 20
-3.811579
  0
VERTEX
  8
PLAN_1
  6
CONTINUOUS
 10
1.337343
 20
-3.858902
  0
VERTEX
  8
PLAN_1
  6
CONTINUOUS
 10
1.312717
 20
-3.858902
  0
VERTEX
  8
PLAN_1
  6
CONTINUOUS
 10
1.312717
 20
-3.811579
  0
VERTEX
  8
PLAN_1
  6
CONTINUOUS
 10
1.227724
 20
-3.811579
  0
VERTEX
  8
PLAN_1
  6
CONTINUOUS
 10
1.227724
 20
-3.787433
  0
VERTEX
  8
PLAN_1
  6
CONTINUOUS
 10
1.317059
 20
-3.663815
  0
VERTEX
  8
PLAN_1
  6
CONTINUOUS
 10
1.337343
 20
-3.663815
  0
VERTEX
  8
PLAN_1
  6
CONTINUOUS
 10
1.337343
 20
-3.790331
  0
VERTEX
  8
PLAN_1
  6
CONTINUOUS
 10
1.365831
 20
-3.790331
  0
VERTEX
  8
PLAN_1
  6
CONTINUOUS
 10
1.365831
 20
-3.811579
  0
VERTEX
  8
PLAN_1
  6
CONTINUOUS
 10
1.337343
 20
-3.811579
  0
SEQEND
  8
0
  0
SOLID
  8
PLAN_1
 10
1.249941
 20
-3.790331
 11
1.312717
 21
-3.790331
 12
1.312232
 22
-3.701961
 13
1.312717
 23
-3.701961
  0
POLYLINE
  8
PLAN_1
  6
CONTINUOUS
 66
     1
 40
0.003000
 41
0.003000
  0
VERTEX
  8
PLAN_1
  6
CONTINUOUS
 10
1.249941
 20
-3.790331
  0
VERTEX
  8
PLAN_1
  6
CONTINUOUS
 10
1.312717
 20
-3.790331
  0
VERTEX
  8
PLAN_1
  6
CONTINUOUS
 10
1.312717
 20
-3.701961
  0
VERTEX
  8
PLAN_1
  6
CONTINUOUS
 10
1.312232
 20
-3.701961
  0
VERTEX
  8
PLAN_1
  6
CONTINUOUS
 10
1.249941
 20
-3.790331
  0
SEQEND
  8
0
  0
POLYLINE
  8
PLAN_1
  6
CONTINUOUS
 66
     1
 40
0.003000
 41
0.003000
  0
VERTEX
  8
PLAN_1
  6
CONTINUOUS
 10
1.452268
 20
-3.864213
  0
VERTEX
  8
PLAN_1
  6
CONTINUOUS
 10
1.446957
 20
-3.864213
  0
VERTEX
  8
PLAN_1
  6
CONTINUOUS
 10
1.442130
 20
-3.863728
  0
VERTEX
  8
PLAN_1
  6
CONTINUOUS
 10
1.437783
 20
-3.862764
  0
VERTEX
  8
PLAN_1
  6
CONTINUOUS
 10
1.433437
 20
-3.861799
  0
VERTEX
  8
PLAN_1
  6
CONTINUOUS
 10
1.429091
 20
-3.860350
  0
VERTEX
  8
PLAN_1
  6
CONTINUOUS
 10
1.425228
 20
-3.858417
  0
VERTEX
  8
PLAN_1
  6
CONTINUOUS
 10
1.421366
 20
-3.856484
  0
VERTEX
  8
PLAN_1
  6
CONTINUOUS
 10
1.417984
 20
-3.854071
  0
VERTEX
  8
PLAN_1
  6
CONTINUOUS
 10
1.415087
 20
-3.851657
  0
VERTEX
  8
PLAN_1
  6
CONTINUOUS
 10
1.411709
 20
-3.849244
  0
VERTEX
  8
PLAN_1
  6
CONTINUOUS
 10
1.409291
 20
-3.846346
  0
VERTEX
  8
PLAN_1
  6
CONTINUOUS
 10
1.406394
 20
-3.842965
  0
VERTEX
  8
PLAN_1
  6
CONTINUOUS
 10
1.401567
 20
-3.836689
  0
VERTEX
  8
PLAN_1
  6
CONTINUOUS
 10
1.397705
 20
-3.829445
  0
VERTEX
  8
PLAN_1
  6
CONTINUOUS
 10
1.394323
 20
-3.821717
  0
VERTEX
  8
PLAN_1
  6
CONTINUOUS
 10
1.391909
 20
-3.813508
  0
VERTEX
  8
PLAN_1
  6
CONTINUOUS
 10
1.389492
 20
-3.805299
  0
VERTEX
  8
PLAN_1
  6
CONTINUOUS
 10
1.388043
 20
-3.796606
  0
VERTEX
  8
PLAN_1
  6
CONTINUOUS
 10
1.386598
 20
-3.788398
  0
VERTEX
  8
PLAN_1
  6
CONTINUOUS
 10
1.386114
 20
-3.780189
  0
VERTEX
  8
PLAN_1
  6
CONTINUOUS
 10
1.385630
 20
-3.771980
  0
VERTEX
  8
PLAN_1
  6
CONTINUOUS
 10
1.385150
 20
-3.764256
  0
VERTEX
  8
PLAN_1
  6
CONTINUOUS
 10
1.385630
 20
-3.756047
  0
VERTEX
  8
PLAN_1
  6
CONTINUOUS
 10
1.386114
 20
-3.748319
  0
VERTEX
  8
PLAN_1
  6
CONTINUOUS
 10
1.386598
 20
-3.739626
  0
VERTEX
  8
PLAN_1
  6
CONTINUOUS
 10
1.388043
 20
-3.731417
  0
VERTEX
  8
PLAN_1
  6
CONTINUOUS
 10
1.389492
 20
-3.722724
  0
VERTEX
  8
PLAN_1
  6
CONTINUOUS
 10
1.391909
 20
-3.714516
  0
VERTEX
  8
PLAN_1
  6
CONTINUOUS
 10
1.394323
 20
-3.706307
  0
VERTEX
  8
PLAN_1
  6
CONTINUOUS
 10
1.397705
 20
-3.698583
  0
VERTEX
  8
PLAN_1
  6
CONTINUOUS
 10
1.401567
 20
-3.691339
  0
VERTEX
  8
PLAN_1
  6
CONTINUOUS
 10
1.406394
 20
-3.685059
  0
VERTEX
  8
PLAN_1
  6
CONTINUOUS
 10
1.409291
 20
-3.681681
  0
VERTEX
  8
PLAN_1
  6
CONTINUOUS
 10
1.411709
 20
-3.678783
  0
VERTEX
  8
PLAN_1
  6
CONTINUOUS
 10
1.415087
 20
-3.676370
  0
VERTEX
  8
PLAN_1
  6
CONTINUOUS
 10
1.417984
 20
-3.673953
  0
VERTEX
  8
PLAN_1
  6
CONTINUOUS
 10
1.421366
 20
-3.671539
  0
VERTEX
  8
PLAN_1
  6
CONTINUOUS
 10
1.425228
 20
-3.669610
  0
VERTEX
  8
PLAN_1
  6
CONTINUOUS
 10
1.429091
 20
-3.667677
  0
VERTEX
  8
PLAN_1
  6
CONTINUOUS
 10
1.433437
 20
-3.666713
  0
VERTEX
  8
PLAN_1
  6
CONTINUOUS
 10
1.437783
 20
-3.665264
  0
VERTEX
  8
PLAN_1
  6
CONTINUOUS
 10
1.442130
 20
-3.664295
  0
VERTEX
  8
PLAN_1
  6
CONTINUOUS
 10
1.446957
 20
-3.663815
  0
VERTEX
  8
PLAN_1
  6
CONTINUOUS
 10
1.452268
 20
-3.663815
  0
VERTEX
  8
PLAN_1
  6
CONTINUOUS
 10
1.457583
 20
-3.663815
  0
VERTEX
  8
PLAN_1
  6
CONTINUOUS
 10
1.462409
 20
-3.664295
  0
VERTEX
  8
PLAN_1
  6
CONTINUOUS
 10
1.466756
 20
-3.665264
  0
VERTEX
  8
PLAN_1
  6
CONTINUOUS
 10
1.471102
 20
-3.666713
  0
VERTEX
  8
PLAN_1
  6
CONTINUOUS
 10
1.475449
 20
-3.667677
  0
VERTEX
  8
PLAN_1
  6
CONTINUOUS
 10
1.479311
 20
-3.669610
  0
VERTEX
  8
PLAN_1
  6
CONTINUOUS
 10
1.482693
 20
-3.671539
  0
VERTEX
  8
PLAN_1
  6
CONTINUOUS
 10
1.486555
 20
-3.673953
  0
VERTEX
  8
PLAN_1
  6
CONTINUOUS
 10
1.489453
 20
-3.676370
  0
VERTEX
  8
PLAN_1
  6
CONTINUOUS
 10
1.492831
 20
-3.678783
  0
VERTEX
  8
PLAN_1
  6
CONTINUOUS
 10
1.495248
 20
-3.681681
  0
VERTEX
  8
PLAN_1
  6
CONTINUOUS
 10
1.498146
 20
-3.685059
  0
VERTEX
  8
PLAN_1
  6
CONTINUOUS
 10
1.502488
 20
-3.691339
  0
VERTEX
  8
PLAN_1
  6
CONTINUOUS
 10
1.506835
 20
-3.698583
  0
VERTEX
  8
PLAN_1
  6
CONTINUOUS
 10
1.510217
 20
-3.706307
  0
VERTEX
  8
PLAN_1
  6
CONTINUOUS
 10
1.512630
 20
-3.714516
  0
VERTEX
  8
PLAN_1
  6
CONTINUOUS
 10
1.515043
 20
-3.722724
  0
VERTEX
  8
PLAN_1
  6
CONTINUOUS
 10
1.516492
 20
-3.731417
  0
VERTEX
  8
PLAN_1
  6
CONTINUOUS
 10
1.517941
 20
-3.739626
  0
VERTEX
  8
PLAN_1
  6
CONTINUOUS
 10
1.518425
 20
-3.748319
  0
VERTEX
  8
PLAN_1
  6
CONTINUOUS
 10
1.518909
 20
-3.756047
  0
VERTEX
  8
PLAN_1
  6
CONTINUOUS
 10
1.518909
 20
-3.764256
  0
VERTEX
  8
PLAN_1
  6
CONTINUOUS
 10
1.518909
 20
-3.771980
  0
VERTEX
  8
PLAN_1
  6
CONTINUOUS
 10
1.518425
 20
-3.780189
  0
VERTEX
  8
PLAN_1
  6
CONTINUOUS
 10
1.517941
 20
-3.788398
  0
VERTEX
  8
PLAN_1
  6
CONTINUOUS
 10
1.516492
 20
-3.796606
  0
VERTEX
  8
PLAN_1
  6
CONTINUOUS
 10
1.515043
 20
-3.805299
  0
VERTEX
  8
PLAN_1
  6
CONTINUOUS
 10
1.512630
 20
-3.813508
  0
VERTEX
  8
PLAN_1
  6
CONTINUOUS
 10
1.510217
 20
-3.821717
  0
VERTEX
  8
PLAN_1
  6
CONTINUOUS
 10
1.506835
 20
-3.829445
  0
VERTEX
  8
PLAN_1
  6
CONTINUOUS
 10
1.502488
 20
-3.836689
  0
VERTEX
  8
PLAN_1
  6
CONTINUOUS
 10
1.498146
 20
-3.842965
  0
VERTEX
  8
PLAN_1
  6
CONTINUOUS
 10
1.495248
 20
-3.846346
  0
VERTEX
  8
PLAN_1
  6
CONTINUOUS
 10
1.492831
 20
-3.849244
  0
VERTEX
  8
PLAN_1
  6
CONTINUOUS
 10
1.489453
 20
-3.851657
  0
VERTEX
  8
PLAN_1
  6
CONTINUOUS
 10
1.486555
 20
-3.854071
  0
VERTEX
  8
PLAN_1
  6
CONTINUOUS
 10
1.482693
 20
-3.856484
  0
VERTEX
  8
PLAN_1
  6
CONTINUOUS
 10
1.479311
 20
-3.858417
  0
VERTEX
  8
PLAN_1
  6
CONTINUOUS
 10
1.475449
 20
-3.860350
  0
VERTEX
  8
PLAN_1
  6
CONTINUOUS
 10
1.471102
 20
-3.861799
  0
VERTEX
  8
PLAN_1
  6
CONTINUOUS
 10
1.466756
 20
-3.862764
  0
VERTEX
  8
PLAN_1
  6
CONTINUOUS
 10
1.462409
 20
-3.863728
  0
VERTEX
  8
PLAN_1
  6
CONTINUOUS
 10
1.457583
 20
-3.864213
  0
VERTEX
  8
PLAN_1
  6
CONTINUOUS
 10
1.452268
 20
-3.864213
  0
SEQEND
  8
0
  0
POLYLINE
  8
PLAN_1
  6
CONTINUOUS
 66
     1
 40
0.003000
 41
0.003000
  0
VERTEX
  8
PLAN_1
  6
CONTINUOUS
 10
1.452268
 20
-3.685543
  0
VERTEX
  8
PLAN_1
  6
CONTINUOUS
 10
1.446957
 20
-3.686028
  0
VERTEX
  8
PLAN_1
  6
CONTINUOUS
 10
1.442610
 20
-3.686992
  0
VERTEX
  8
PLAN_1
  6
CONTINUOUS
 10
1.438264
 20
-3.688925
  0
VERTEX
  8
PLAN_1
  6
CONTINUOUS
 10
1.433921
 20
-3.691339
  0
VERTEX
  8
PLAN_1
  6
CONTINUOUS
 10
1.430539
 20
-3.694236
  0
VERTEX
  8
PLAN_1
  6
CONTINUOUS
 10
1.427157
 20
-3.697614
  0
VERTEX
  8
PLAN_1
  6
CONTINUOUS
 10
1.423780
 20
-3.701961
  0
VERTEX
  8
PLAN_1
  6
CONTINUOUS
 10
1.421366
 20
-3.706791
  0
VERTEX
  8
PLAN_1
  6
CONTINUOUS
 10
1.418949
 20
-3.712102
  0
VERTEX
  8
PLAN_1
  6
CONTINUOUS
 10
1.417020
 20
-3.717898
  0
VERTEX
  8
PLAN_1
  6
CONTINUOUS
 10
1.415087
 20
-3.724173
  0
VERTEX
  8
PLAN_1
  6
CONTINUOUS
 10
1.414122
 20
-3.731417
  0
VERTEX
  8
PLAN_1
  6
CONTINUOUS
 10
1.412673
 20
-3.738661
  0
VERTEX
  8
PLAN_1
  6
CONTINUOUS
 10
1.412189
 20
-3.746870
  0
VERTEX
  8
PLAN_1
  6
CONTINUOUS
 10
1.411709
 20
-3.755079
  0
VERTEX
  8
PLAN_1
  6
CONTINUOUS
 10
1.411224
 20
-3.764256
  0
VERTEX
  8
PLAN_1
  6
CONTINUOUS
 10
1.411709
 20
-3.772945
  0
VERTEX
  8
PLAN_1
  6
CONTINUOUS
 10
1.412189
 20
-3.781638
  0
VERTEX
  8
PLAN_1
  6
CONTINUOUS
 10
1.412673
 20
-3.789366
  0
VERTEX
  8
PLAN_1
  6
CONTINUOUS
 10
1.414122
 20
-3.797091
  0
VERTEX
  8
PLAN_1
  6
CONTINUOUS
 10
1.415087
 20
-3.803850
  0
VERTEX
  8
PLAN_1
  6
CONTINUOUS
 10
1.417020
 20
-3.810130
  0
VERTEX
  8
PLAN_1
  6
CONTINUOUS
 10
1.418949
 20
-3.815925
  0
VERTEX
  8
PLAN_1
  6
CONTINUOUS
 10
1.421366
 20
-3.821236
  0
VERTEX
  8
PLAN_1
  6
CONTINUOUS
 10
1.423780
 20
-3.826063
  0
VERTEX
  8
PLAN_1
  6
CONTINUOUS
 10
1.427157
 20
-3.830409
  0
VERTEX
  8
PLAN_1
  6
CONTINUOUS
 10
1.430539
 20
-3.833791
  0
VERTEX
  8
PLAN_1
  6
CONTINUOUS
 10
1.433921
 20
-3.837169
  0
VERTEX
  8
PLAN_1
  6
CONTINUOUS
 10
1.438264
 20
-3.839102
  0
VERTEX
  8
PLAN_1
  6
CONTINUOUS
 10
1.442610
 20
-3.841035
  0
VERTEX
  8
PLAN_1
  6
CONTINUOUS
 10
1.446957
 20
-3.842000
  0
VERTEX
  8
PLAN_1
  6
CONTINUOUS
 10
1.452268
 20
-3.842484
  0
VERTEX
  8
PLAN_1
  6
CONTINUOUS
 10
1.457098
 20
-3.842000
  0
VERTEX
  8
PLAN_1
  6
CONTINUOUS
 10
1.461925
 20
-3.841035
  0
VERTEX
  8
PLAN_1
  6
CONTINUOUS
 10
1.466272
 20
-3.839102
  0
VERTEX
  8
PLAN_1
  6
CONTINUOUS
 10
1.470618
 20
-3.837169
  0
VERTEX
  8
PLAN_1
  6
CONTINUOUS
 10
1.474000
 20
-3.833791
  0
VERTEX
  8
PLAN_1
  6
CONTINUOUS
 10
1.477378
 20
-3.830409
  0
VERTEX
  8
PLAN_1
  6
CONTINUOUS
 10
1.480276
 20
-3.826063
  0
VERTEX
  8
PLAN_1
  6
CONTINUOUS
 10
1.483173
 20
-3.821236
  0
VERTEX
  8
PLAN_1
  6
CONTINUOUS
 10
1.485591
 20
-3.815925
  0
VERTEX
  8
PLAN_1
  6
CONTINUOUS
 10
1.487520
 20
-3.810130
  0
VERTEX
  8
PLAN_1
  6
CONTINUOUS
 10
1.489453
 20
-3.803850
  0
VERTEX
  8
PLAN_1
  6
CONTINUOUS
 10
1.490417
 20
-3.797091
  0
VERTEX
  8
PLAN_1
  6
CONTINUOUS
 10
1.491866
 20
-3.789366
  0
VERTEX
  8
PLAN_1
  6
CONTINUOUS
 10
1.492350
 20
-3.781638
  0
VERTEX
  8
PLAN_1
  6
CONTINUOUS
 10
1.492831
 20
-3.772945
  0
VERTEX
  8
PLAN_1
  6
CONTINUOUS
 10
1.492831
 20
-3.764256
  0
VERTEX
  8
PLAN_1
  6
CONTINUOUS
 10
1.492831
 20
-3.755079
  0
VERTEX
  8
PLAN_1
  6
CONTINUOUS
 10
1.492350
 20
-3.746870
  0
VERTEX
  8
PLAN_1
  6
CONTINUOUS
 10
1.491866
 20
-3.738661
  0
VERTEX
  8
PLAN_1
  6
CONTINUOUS
 10
1.490417
 20
-3.731417
  0
VERTEX
  8
PLAN_1
  6
CONTINUOUS
 10
1.489453
 20
-3.724173
  0
VERTEX
  8
PLAN_1
  6
CONTINUOUS
 10
1.487520
 20
-3.717898
  0
VERTEX
  8
PLAN_1
  6
CONTINUOUS
 10
1.485591
 20
-3.712102
  0
VERTEX
  8
PLAN_1
  6
CONTINUOUS
 10
1.483173
 20
-3.706791
  0
VERTEX
  8
PLAN_1
  6
CONTINUOUS
 10
1.480276
 20
-3.701961
  0
VERTEX
  8
PLAN_1
  6
CONTINUOUS
 10
1.477378
 20
-3.697614
  0
VERTEX
  8
PLAN_1
  6
CONTINUOUS
 10
1.474000
 20
-3.694236
  0
VERTEX
  8
PLAN_1
  6
CONTINUOUS
 10
1.470618
 20
-3.691339
  0
VERTEX
  8
PLAN_1
  6
CONTINUOUS
 10
1.466272
 20
-3.688925
  0
VERTEX
  8
PLAN_1
  6
CONTINUOUS
 10
1.461925
 20
-3.686992
  0
VERTEX
  8
PLAN_1
  6
CONTINUOUS
 10
1.457098
 20
-3.686028
  0
VERTEX
  8
PLAN_1
  6
CONTINUOUS
 10
1.452268
 20
-3.685543
  0
SEQEND
  8
0
  0
POLYLINE
  8
PLAN_1
  6
CONTINUOUS
 66
     1
 40
0.003000
 41
0.003000
  0
VERTEX
  8
PLAN_1
  6
CONTINUOUS
 10
1.645909
 20
-3.811579
  0
VERTEX
  8
PLAN_1
  6
CONTINUOUS
 10
1.645909
 20
-3.858902
  0
VERTEX
  8
PLAN_1
  6
CONTINUOUS
 10
1.621764
 20
-3.858902
  0
VERTEX
  8
PLAN_1
  6
CONTINUOUS
 10
1.621764
 20
-3.811579
  0
VERTEX
  8
PLAN_1
  6
CONTINUOUS
 10
1.536291
 20
-3.811579
  0
VERTEX
  8
PLAN_1
  6
CONTINUOUS
 10
1.536291
 20
-3.787433
  0
VERTEX
  8
PLAN_1
  6
CONTINUOUS
 10
1.625626
 20
-3.663815
  0
VERTEX
  8
PLAN_1
  6
CONTINUOUS
 10
1.645909
 20
-3.663815
  0
VERTEX
  8
PLAN_1
  6
CONTINUOUS
 10
1.645909
 20
-3.790331
  0
VERTEX
  8
PLAN_1
  6
CONTINUOUS
 10
1.674398
 20
-3.790331
  0
VERTEX
  8
PLAN_1
  6
CONTINUOUS
 10
1.674398
 20
-3.811579
  0
VERTEX
  8
PLAN_1
  6
CONTINUOUS
 10
1.645909
 20
-3.811579
  0
SEQEND
  8
0
  0
SOLID
  8
PLAN_1
 10
1.558988
 20
-3.790331
 11
1.621764
 21
-3.790331
 12
1.621280
 22
-3.701961
 13
1.621764
 23
-3.701961
  0
POLYLINE
  8
PLAN_1
  6
CONTINUOUS
 66
     1
 40
0.003000
 41
0.003000
  0
VERTEX
  8
PLAN_1
  6
CONTINUOUS
 10
1.558988
 20
-3.790331
  0
VERTEX
  8
PLAN_1
  6
CONTINUOUS
 10
1.621764
 20
-3.790331
  0
VERTEX
  8
PLAN_1
  6
CONTINUOUS
 10
1.621764
 20
-3.701961
  0
VERTEX
  8
PLAN_1
  6
CONTINUOUS
 10
1.621280
 20
-3.701961
  0
VERTEX
  8
PLAN_1
  6
CONTINUOUS
 10
1.558988
 20
-3.790331
  0
SEQEND
  8
0
  0
POLYLINE
  8
PLAN_1
  6
CONTINUOUS
 66
     1
 40
0.003000
 41
0.003000
  0
VERTEX
  8
PLAN_1
  6
CONTINUOUS
 10
1.735240
 20
-3.858902
  0
VERTEX
  8
PLAN_1
  6
CONTINUOUS
 10
1.708201
 20
-3.858902
  0
VERTEX
  8
PLAN_1
  6
CONTINUOUS
 10
1.708201
 20
-3.659469
  0
VERTEX
  8
PLAN_1
  6
CONTINUOUS
 10
1.800433
 20
-3.659469
  0
VERTEX
  8
PLAN_1
  6
CONTINUOUS
 10
1.806709
 20
-3.659949
  0
VERTEX
  8
PLAN_1
  6
CONTINUOUS
 10
1.812504
 20
-3.660433
  0
VERTEX
  8
PLAN_1
  6
CONTINUOUS
 10
1.818783
 20
-3.660917
  0
VERTEX
  8
PLAN_1
  6
CONTINUOUS
 10
1.824575
 20
-3.661882
  0
VERTEX
  8
PLAN_1
  6
CONTINUOUS
 10
1.829890
 20
-3.663815
  0
VERTEX
  8
PLAN_1
  6
CONTINUOUS
 10
1.835681
 20
-3.665264
  0
VERTEX
  8
PLAN_1
  6
CONTINUOUS
 10
1.840512
 20
-3.667677
  0
VERTEX
  8
PLAN_1
  6
CONTINUOUS
 10
1.845339
 20
-3.670575
  0
VERTEX
  8
PLAN_1
  6
CONTINUOUS
 10
1.849685
 20
-3.673953
  0
VERTEX
  8
PLAN_1
  6
CONTINUOUS
 10
1.854031
 20
-3.677819
  0
VERTEX
  8
PLAN_1
  6
CONTINUOUS
 10
1.857413
 20
-3.682165
  0
VERTEX
  8
PLAN_1
  6
CONTINUOUS
 10
1.860311
 20
-3.686992
  0
VERTEX
  8
PLAN_1
  6
CONTINUOUS
 10
1.862724
 20
-3.692787
  0
VERTEX
  8
PLAN_1
  6
CONTINUOUS
 10
1.864657
 20
-3.698583
  0
VERTEX
  8
PLAN_1
  6
CONTINUOUS
 10
1.865622
 20
-3.705827
  0
VERTEX
  8
PLAN_1
  6
CONTINUOUS
 10
1.866106
 20
-3.713067
  0
VERTEX
  8
PLAN_1
  6
CONTINUOUS
 10
1.865622
 20
-3.718382
  0
VERTEX
  8
PLAN_1
  6
CONTINUOUS
 10
1.865138
 20
-3.723209
  0
VERTEX
  8
PLAN_1
  6
CONTINUOUS
 10
1.864657
 20
-3.728039
  0
VERTEX
  8
PLAN_1
  6
CONTINUOUS
 10
1.863209
 20
-3.731902
  0
VERTEX
  8
PLAN_1
  6
CONTINUOUS
 10
1.862240
 20
-3.735764
  0
VERTEX
  8
PLAN_1
  6
CONTINUOUS
 10
1.860311
 20
-3.739146
  0
VERTEX
  8
PLAN_1
  6
CONTINUOUS
 10
1.858862
 20
-3.742524
  0
VERTEX
  8
PLAN_1
  6
CONTINUOUS
 10
1.856929
 20
-3.745421
  0
VERTEX
  8
PLAN_1
  6
CONTINUOUS
 10
1.852583
 20
-3.750252
  0
VERTEX
  8
PLAN_1
  6
CONTINUOUS
 10
1.847756
 20
-3.754598
  0
VERTEX
  8
PLAN_1
  6
CONTINUOUS
 10
1.842925
 20
-3.757976
  0
VERTEX
  8
PLAN_1
  6
CONTINUOUS
 10
1.838098
 20
-3.760874
  0
VERTEX
  8
PLAN_1
  6
CONTINUOUS
 10
1.842445
 20
-3.762807
  0
VERTEX
  8
PLAN_1
  6
CONTINUOUS
 10
1.846307
 20
-3.764736
  0
VERTEX
  8
PLAN_1
  6
CONTINUOUS
 10
1.850169
 20
-3.767634
  0
VERTEX
  8
PLAN_1
  6
CONTINUOUS
 10
1.854031
 20
-3.771016
  0
VERTEX
  8
PLAN_1
  6
CONTINUOUS
 10
1.855480
 20
-3.773429
  0
VERTEX
  8
PLAN_1
  6
CONTINUOUS
 10
1.856929
 20
-3.775843
  0
VERTEX
  8
PLAN_1
  6
CONTINUOUS
 10
1.858378
 20
-3.778260
  0
VERTEX
  8
PLAN_1
  6
CONTINUOUS
 10
1.859343
 20
-3.781638
  0
VERTEX
  8
PLAN_1
  6
CONTINUOUS
 10
1.860311
 20
-3.785020
  0
VERTEX
  8
PLAN_1
  6
CONTINUOUS
 10
1.861276
 20
-3.788882
  0
VERTEX
  8
PLAN_1
  6
CONTINUOUS
 10
1.861760
 20
-3.793709
  0
VERTEX
  8
PLAN_1
  6
CONTINUOUS
 10
1.862240
 20
-3.798539
  0
VERTEX
  8
PLAN_1
  6
CONTINUOUS
 10
1.863689
 20
-3.834756
  0
VERTEX
  8
PLAN_1
  6
CONTINUOUS
 10
1.863689
 20
-3.838138
  0
VERTEX
  8
PLAN_1
  6
CONTINUOUS
 10
1.864173
 20
-3.841516
  0
VERTEX
  8
PLAN_1
  6
CONTINUOUS
 10
1.864657
 20
-3.844413
  0
VERTEX
  8
PLAN_1
  6
CONTINUOUS
 10
1.865622
 20
-3.846827
  0
VERTEX
  8
PLAN_1
  6
CONTINUOUS
 10
1.867071
 20
-3.849244
  0
VERTEX
  8
PLAN_1
  6
CONTINUOUS
 10
1.868520
 20
-3.851173
  0
VERTEX
  8
PLAN_1
  6
CONTINUOUS
 10
1.870933
 20
-3.852622
  0
VERTEX
  8
PLAN_1
  6
CONTINUOUS
 10
1.873831
 20
-3.854555
  0
VERTEX
  8
PLAN_1
  6
CONTINUOUS
 10
1.873831
 20
-3.858902
  0
VERTEX
  8
PLAN_1
  6
CONTINUOUS
 10
1.840512
 20
-3.858902
  0
VERTEX
  8
PLAN_1
  6
CONTINUOUS
 10
1.839547
 20
-3.853591
  0
VERTEX
  8
PLAN_1
  6
CONTINUOUS
 10
1.838098
 20
-3.846827
  0
VERTEX
  8
PLAN_1
  6
CONTINUOUS
 10
1.837614
 20
-3.839587
  0
VERTEX
  8
PLAN_1
  6
CONTINUOUS
 10
1.836650
 20
-3.832343
  0
VERTEX
  8
PLAN_1
  6
CONTINUOUS
 10
1.836165
 20
-3.825098
  0
VERTEX
  8
PLAN_1
  6
CONTINUOUS
 10
1.836165
 20
-3.818339
  0
VERTEX
  8
PLAN_1
  6
CONTINUOUS
 10
1.836165
 20
-3.812543
  0
VERTEX
  8
PLAN_1
  6
CONTINUOUS
 10
1.836165
 20
-3.809161
  0
VERTEX
  8
PLAN_1
  6
CONTINUOUS
 10
1.835681
 20
-3.802886
  0
VERTEX
  8
PLAN_1
  6
CONTINUOUS
 10
1.834717
 20
-3.796606
  0
VERTEX
  8
PLAN_1
  6
CONTINUOUS
 10
1.834232
 20
-3.793709
  0
VERTEX
  8
PLAN_1
  6
CONTINUOUS
 10
1.833268
 20
-3.790331
  0
VERTEX
  8
PLAN_1
  6
CONTINUOUS
 10
1.831819
 20
-3.787917
  0
VERTEX
  8
PLAN_1
  6
CONTINUOUS
 10
1.830370
 20
-3.785020
  0
VERTEX
  8
PLAN_1
  6
CONTINUOUS
 10
1.828441
 20
-3.782602
  0
VERTEX
  8
PLAN_1
  6
CONTINUOUS
 10
1.826024
 20
-3.780189
  0
VERTEX
  8
PLAN_1
  6
CONTINUOUS
 10
1.823126
 20
-3.778260
  0
VERTEX
  8
PLAN_1
  6
CONTINUOUS
 10
1.819748
 20
-3.776811
  0
VERTEX
  8
PLAN_1
  6
CONTINUOUS
 10
1.815402
 20
-3.775362
  0
VERTEX
  8
PLAN_1
  6
CONTINUOUS
 10
1.811055
 20
-3.774394
  0
VERTEX
  8
PLAN_1
  6
CONTINUOUS
 10
1.806228
 20
-3.773913
  0
VERTEX
  8
PLAN_1
  6
CONTINUOUS
 10
1.800433
 20
-3.773429
  0
VERTEX
  8
PLAN_1
  6
CONTINUOUS
 10
1.735240
 20
-3.773429
  0
VERTEX
  8
PLAN_1
  6
CONTINUOUS
 10
1.735240
 20
-3.858902
  0
SEQEND
  8
0
  0
POLYLINE
  8
PLAN_1
  6
CONTINUOUS
 66
     1
 40
0.003000
 41
0.003000
  0
VERTEX
  8
PLAN_1
  6
CONTINUOUS
 10
1.735240
 20
-3.750252
  0
VERTEX
  8
PLAN_1
  6
CONTINUOUS
 10
1.797535
 20
-3.750252
  0
VERTEX
  8
PLAN_1
  6
CONTINUOUS
 10
1.805260
 20
-3.750252
  0
VERTEX
  8
PLAN_1
  6
CONTINUOUS
 10
1.812504
 20
-3.749283
  0
VERTEX
  8
PLAN_1
  6
CONTINUOUS
 10
1.815886
 20
-3.748319
  0
VERTEX
  8
PLAN_1
  6
CONTINUOUS
 10
1.819264
 20
-3.747354
  0
VERTEX
  8
PLAN_1
  6
CONTINUOUS
 10
1.822161
 20
-3.745906
  0
VERTEX
  8
PLAN_1
  6
CONTINUOUS
 10
1.825059
 20
-3.744457
  0
VERTEX
  8
PLAN_1
  6
CONTINUOUS
 10
1.827957
 20
-3.742043
  0
VERTEX
  8
PLAN_1
  6
CONTINUOUS
 10
1.830370
 20
-3.739626
  0
VERTEX
  8
PLAN_1
  6
CONTINUOUS
 10
1.832783
 20
-3.737213
  0
VERTEX
  8
PLAN_1
  6
CONTINUOUS
 10
1.834717
 20
-3.733831
  0
VERTEX
  8
PLAN_1
  6
CONTINUOUS
 10
1.836165
 20
-3.729969
  0
VERTEX
  8
PLAN_1
  6
CONTINUOUS
 10
1.837130
 20
-3.726106
  0
VERTEX
  8
PLAN_1
  6
CONTINUOUS
 10
1.838098
 20
-3.721276
  0
VERTEX
  8
PLAN_1
  6
CONTINUOUS
 10
1.838098
 20
-3.715965
  0
VERTEX
  8
PLAN_1
  6
CONTINUOUS
 10
1.838098
 20
-3.710654
  0
VERTEX
  8
PLAN_1
  6
CONTINUOUS
 10
1.837130
 20
-3.705827
  0
VERTEX
  8
PLAN_1
  6
CONTINUOUS
 10
1.836165
 20
-3.701480
  0
VERTEX
  8
PLAN_1
  6
CONTINUOUS
 10
1.834232
 20
-3.697614
  0
VERTEX
  8
PLAN_1
  6
CONTINUOUS
 10
1.832303
 20
-3.694717
  0
VERTEX
  8
PLAN_1
  6
CONTINUOUS
 10
1.830370
 20
-3.691823
  0
VERTEX
  8
PLAN_1
  6
CONTINUOUS
 10
1.827957
 20
-3.689890
  0
VERTEX
  8
PLAN_1
  6
CONTINUOUS
 10
1.825059
 20
-3.687957
  0
VERTEX
  8
PLAN_1
  6
CONTINUOUS
 10
1.822646
 20
-3.686508
  0
VERTEX
  8
PLAN_1
  6
CONTINUOUS
 10
1.819748
 20
-3.685059
  0
VERTEX
  8
PLAN_1
  6
CONTINUOUS
 10
1.816366
 20
-3.684094
  0
VERTEX
  8
PLAN_1
  6
CONTINUOUS
 10
1.813469
 20
-3.683610
  0
VERTEX
  8
PLAN_1
  6
CONTINUOUS
 10
1.807673
 20
-3.682646
  0
VERTEX
  8
PLAN_1
  6
CONTINUOUS
 10
1.802362
 20
-3.682646
  0
VERTEX
  8
PLAN_1
  6
CONTINUOUS
 10
1.735240
 20
-3.682646
  0
VERTEX
  8
PLAN_1
  6
CONTINUOUS
 10
1.735240
 20
-3.750252
  0
SEQEND
  8
0
  0
SOLID
  8
PLAN_1
 10
1.937571
 20
-3.858902
 11
1.908598
 21
-3.858902
 12
1.937571
 22
-3.829445
 13
1.908598
 23
-3.829445
  0
POLYLINE
  8
PLAN_1
  6
CONTINUOUS
 66
     1
 40
0.003000
 41
0.003000
  0
VERTEX
  8
PLAN_1
  6
CONTINUOUS
 10
1.937571
 20
-3.858902
  0
VERTEX
  8
PLAN_1
  6
CONTINUOUS
 10
1.908598
 20
-3.858902
  0
VERTEX
  8
PLAN_1
  6
CONTINUOUS
 10
1.908598
 20
-3.829445
  0
VERTEX
  8
PLAN_1
  6
CONTINUOUS
 10
1.937571
 20
-3.829445
  0
VERTEX
  8
PLAN_1
  6
CONTINUOUS
 10
1.937571
 20
-3.858902
  0
SEQEND
  8
0
  0
POLYLINE
  8
PLAN_1
  6
CONTINUOUS
 66
     1
 40
0.003000
 41
0.003000
  0
VERTEX
  8
PLAN_1
  6
CONTINUOUS
 10
2.132657
 20
-3.858902
  0
VERTEX
  8
PLAN_1
  6
CONTINUOUS
 10
1.985378
 20
-3.858902
  0
VERTEX
  8
PLAN_1
  6
CONTINUOUS
 10
1.985378
 20
-3.659469
  0
VERTEX
  8
PLAN_1
  6
CONTINUOUS
 10
2.130728
 20
-3.659469
  0
VERTEX
  8
PLAN_1
  6
CONTINUOUS
 10
2.130728
 20
-3.683610
  0
VERTEX
  8
PLAN_1
  6
CONTINUOUS
 10
2.012421
 20
-3.683610
  0
VERTEX
  8
PLAN_1
  6
CONTINUOUS
 10
2.012421
 20
-3.744457
  0
VERTEX
  8
PLAN_1
  6
CONTINUOUS
 10
2.121551
 20
-3.744457
  0
VERTEX
  8
PLAN_1
  6
CONTINUOUS
 10
2.121551
 20
-3.768602
  0
VERTEX
  8
PLAN_1
  6
CONTINUOUS
 10
2.012421
 20
-3.768602
  0
VERTEX
  8
PLAN_1
  6
CONTINUOUS
 10
2.012421
 20
-3.835240
  0
VERTEX
  8
PLAN_1
  6
CONTINUOUS
 10
2.132657
 20
-3.835240
  0
VERTEX
  8
PLAN_1
  6
CONTINUOUS
 10
2.132657
 20
-3.858902
  0
SEQEND
  8
0
  0
POLYLINE
  8
PLAN_1
  6
CONTINUOUS
 66
     1
 40
0.003000
 41
0.003000
  0
VERTEX
  8
PLAN_1
  6
CONTINUOUS
 10
2.197366
 20
-3.858902
  0
VERTEX
  8
PLAN_1
  6
CONTINUOUS
 10
2.170807
 20
-3.858902
  0
VERTEX
  8
PLAN_1
  6
CONTINUOUS
 10
2.170807
 20
-3.659469
  0
VERTEX
  8
PLAN_1
  6
CONTINUOUS
 10
2.260142
 20
-3.659469
  0
VERTEX
  8
PLAN_1
  6
CONTINUOUS
 10
2.266902
 20
-3.659949
  0
VERTEX
  8
PLAN_1
  6
CONTINUOUS
 10
2.273181
 20
-3.660917
  0
VERTEX
  8
PLAN_1
  6
CONTINUOUS
 10
2.279457
 20
-3.661882
  0
VERTEX
  8
PLAN_1
  6
CONTINUOUS
 10
2.285252
 20
-3.663815
  0
VERTEX
  8
PLAN_1
  6
CONTINUOUS
 10
2.290079
 20
-3.666228
  0
VERTEX
  8
PLAN_1
  6
CONTINUOUS
 10
2.294909
 20
-3.669126
  0
VERTEX
  8
PLAN_1
  6
CONTINUOUS
 10
2.299740
 20
-3.672024
  0
VERTEX
  8
PLAN_1
  6
CONTINUOUS
 10
2.303602
 20
-3.675402
  0
VERTEX
  8
PLAN_1
  6
CONTINUOUS
 10
2.306980
 20
-3.679748
  0
VERTEX
  8
PLAN_1
  6
CONTINUOUS
 10
2.310362
 20
-3.683610
  0
VERTEX
  8
PLAN_1
  6
CONTINUOUS
 10
2.313260
 20
-3.688441
  0
VERTEX
  8
PLAN_1
  6
CONTINUOUS
 10
2.315189
 20
-3.693272
  0
VERTEX
  8
PLAN_1
  6
CONTINUOUS
 10
2.317122
 20
-3.698583
  0
VERTEX
  8
PLAN_1
  6
CONTINUOUS
 10
2.318087
 20
-3.703894
  0
VERTEX
  8
PLAN_1
  6
CONTINUOUS
 10
2.319055
 20
-3.709689
  0
VERTEX
  8
PLAN_1
  6
CONTINUOUS
 10
2.319535
 20
-3.715484
  0
VERTEX
  8
PLAN_1
  6
CONTINUOUS
 10
2.319055
 20
-3.720795
  0
VERTEX
  8
PLAN_1
  6
CONTINUOUS
 10
2.318571
 20
-3.726106
  0
VERTEX
  8
PLAN_1
  6
CONTINUOUS
 10
2.317606
 20
-3.731417
  0
VERTEX
  8
PLAN_1
  6
CONTINUOUS
 10
2.316157
 20
-3.736728
  0
VERTEX
  8
PLAN_1
  6
CONTINUOUS
 10
2.314224
 20
-3.741559
  0
VERTEX
  8
PLAN_1
  6
CONTINUOUS
 10
2.311811
 20
-3.746870
  0
VERTEX
  8
PLAN_1
  6
CONTINUOUS
 10
2.309398
 20
-3.751217
  0
VERTEX
  8
PLAN_1
  6
CONTINUOUS
 10
2.306016
 20
-3.755563
  0
VERTEX
  8
PLAN_1
  6
CONTINUOUS
 10
2.302154
 20
-3.759909
  0
VERTEX
  8
PLAN_1
  6
CONTINUOUS
 10
2.297807
 20
-3.763287
  0
VERTEX
  8
PLAN_1
  6
CONTINUOUS
 10
2.292976
 20
-3.766669
  0
VERTEX
  8
PLAN_1
  6
CONTINUOUS
 10
2.287665
 20
-3.769567
  0
VERTEX
  8
PLAN_1
  6
CONTINUOUS
 10
2.281870
 20
-3.771980
  0
VERTEX
  8
PLAN_1
  6
CONTINUOUS
 10
2.275110
 20
-3.773429
  0
VERTEX
  8
PLAN_1
  6
CONTINUOUS
 10
2.267866
 20
-3.774394
  0
VERTEX
  8
PLAN_1
  6
CONTINUOUS
 10
2.260142
 20
-3.774878
  0
VERTEX
  8
PLAN_1
  6
CONTINUOUS
 10
2.197366
 20
-3.774878
  0
VERTEX
  8
PLAN_1
  6
CONTINUOUS
 10
2.197366
 20
-3.858902
  0
SEQEND
  8
0
  0
POLYLINE
  8
PLAN_1
  6
CONTINUOUS
 66
     1
 40
0.003000
 41
0.003000
  0
VERTEX
  8
PLAN_1
  6
CONTINUOUS
 10
2.197366
 20
-3.751701
  0
VERTEX
  8
PLAN_1
  6
CONTINUOUS
 10
2.250969
 20
-3.751701
  0
VERTEX
  8
PLAN_1
  6
CONTINUOUS
 10
2.255311
 20
-3.751701
  0
VERTEX
  8
PLAN_1
  6
CONTINUOUS
 10
2.259657
 20
-3.751217
  0
VERTEX
  8
PLAN_1
  6
CONTINUOUS
 10
2.263520
 20
-3.750732
  0
VERTEX
  8
PLAN_1
  6
CONTINUOUS
 10
2.267386
 20
-3.749768
  0
VERTEX
  8
PLAN_1
  6
CONTINUOUS
 10
2.271248
 20
-3.748803
  0
VERTEX
  8
PLAN_1
  6
CONTINUOUS
 10
2.274630
 20
-3.747354
  0
VERTEX
  8
PLAN_1
  6
CONTINUOUS
 10
2.277524
 20
-3.745906
  0
VERTEX
  8
PLAN_1
  6
CONTINUOUS
 10
2.280421
 20
-3.743972
  0
VERTEX
  8
PLAN_1
  6
CONTINUOUS
 10
2.282839
 20
-3.741559
  0
VERTEX
  8
PLAN_1
  6
CONTINUOUS
 10
2.285252
 20
-3.739146
  0
VERTEX
  8
PLAN_1
  6
CONTINUOUS
 10
2.287185
 20
-3.736248
  0
VERTEX
  8
PLAN_1
  6
CONTINUOUS
 10
2.288630
 20
-3.732866
  0
VERTEX
  8
PLAN_1
  6
CONTINUOUS
 10
2.290079
 20
-3.729488
  0
VERTEX
  8
PLAN_1
  6
CONTINUOUS
 10
2.291047
 20
-3.725142
  0
VERTEX
  8
PLAN_1
  6
CONTINUOUS
 10
2.291528
 20
-3.720795
  0
VERTEX
  8
PLAN_1
  6
CONTINUOUS
 10
2.291528
 20
-3.715965
  0
VERTEX
  8
PLAN_1
  6
CONTINUOUS
 10
2.291528
 20
-3.711618
  0
VERTEX
  8
PLAN_1
  6
CONTINUOUS
 10
2.290563
 20
-3.707272
  0
VERTEX
  8
PLAN_1
  6
CONTINUOUS
 10
2.289598
 20
-3.703409
  0
VERTEX
  8
PLAN_1
  6
CONTINUOUS
 10
2.288630
 20
-3.700031
  0
VERTEX
  8
PLAN_1
  6
CONTINUOUS
 10
2.286701
 20
-3.697134
  0
VERTEX
  8
PLAN_1
  6
CONTINUOUS
 10
2.284768
 20
-3.694236
  0
VERTEX
  8
PLAN_1
  6
CONTINUOUS
 10
2.282839
 20
-3.691823
  0
VERTEX
  8
PLAN_1
  6
CONTINUOUS
 10
2.280421
 20
-3.689890
  0
VERTEX
  8
PLAN_1
  6
CONTINUOUS
 10
2.277524
 20
-3.687957
  0
VERTEX
  8
PLAN_1
  6
CONTINUOUS
 10
2.274146
 20
-3.686508
  0
VERTEX
  8
PLAN_1
  6
CONTINUOUS
 10
2.271248
 20
-3.685543
  0
VERTEX
  8
PLAN_1
  6
CONTINUOUS
 10
2.267866
 20
-3.684579
  0
VERTEX
  8
PLAN_1
  6
CONTINUOUS
 10
2.260142
 20
-3.683130
  0
VERTEX
  8
PLAN_1
  6
CONTINUOUS
 10
2.251933
 20
-3.682646
  0
VERTEX
  8
PLAN_1
  6
CONTINUOUS
 10
2.197366
 20
-3.682646
  0
VERTEX
  8
PLAN_1
  6
CONTINUOUS
 10
2.197366
 20
-3.751701
  0
SEQEND
  8
0
  0
POLYLINE
  8
PLAN_1
  6
CONTINUOUS
 66
     1
 40
0.003000
 41
0.003000
  0
VERTEX
  8
PLAN_1
  6
CONTINUOUS
 10
2.473094
 20
-3.717898
  0
VERTEX
  8
PLAN_1
  6
CONTINUOUS
 10
2.472614
 20
-3.712587
  0
VERTEX
  8
PLAN_1
  6
CONTINUOUS
 10
2.471646
 20
-3.707272
  0
VERTEX
  8
PLAN_1
  6
CONTINUOUS
 10
2.470197
 20
-3.702929
  0
VERTEX
  8
PLAN_1
  6
CONTINUOUS
 10
2.468268
 20
-3.698583
  0
VERTEX
  8
PLAN_1
  6
CONTINUOUS
 10
2.465850
 20
-3.694717
  0
VERTEX
  8
PLAN_1
  6
CONTINUOUS
 10
2.462953
 20
-3.691823
  0
VERTEX
  8
PLAN_1
  6
CONTINUOUS
 10
2.459575
 20
-3.688925
  0
VERTEX
  8
PLAN_1
  6
CONTINUOUS
 10
2.456193
 20
-3.686028
  0
VERTEX
  8
PLAN_1
  6
CONTINUOUS
 10
2.452815
 20
-3.684094
  0
VERTEX
  8
PLAN_1
  6
CONTINUOUS
 10
2.448949
 20
-3.682165
  0
VERTEX
  8
PLAN_1
  6
CONTINUOUS
 10
2.445087
 20
-3.680717
  0
VERTEX
  8
PLAN_1
  6
CONTINUOUS
 10
2.440740
 20
-3.679268
  0
VERTEX
  8
PLAN_1
  6
CONTINUOUS
 10
2.436394
 20
-3.678299
  0
VERTEX
  8
PLAN_1
  6
CONTINUOUS
 10
2.432531
 20
-3.677819
  0
VERTEX
  8
PLAN_1
  6
CONTINUOUS
 10
2.428185
 20
-3.677335
  0
VERTEX
  8
PLAN_1
  6
CONTINUOUS
 10
2.423839
 20
-3.677335
  0
VERTEX
  8
PLAN_1
  6
CONTINUOUS
 10
2.417079
 20
-3.677819
  0
VERTEX
  8
PLAN_1
  6
CONTINUOUS
 10
2.409354
 20
-3.678783
  0
VERTEX
  8
PLAN_1
  6
CONTINUOUS
 10
2.405492
 20
-3.679268
  0
VERTEX
  8
PLAN_1
  6
CONTINUOUS
 10
2.402110
 20
-3.680717
  0
VERTEX
  8
PLAN_1
  6
CONTINUOUS
 10
2.398248
 20
-3.681681
  0
VERTEX
  8
PLAN_1
  6
CONTINUOUS
 10
2.394866
 20
-3.683610
  0
VERTEX
  8
PLAN_1
  6
CONTINUOUS
 10
2.391488
 20
-3.685543
  0
VERTEX
  8
PLAN_1
  6
CONTINUOUS
 10
2.388106
 20
-3.687957
  0
VERTEX
  8
PLAN_1
  6
CONTINUOUS
 10
2.385209
 20
-3.690854
  0
VERTEX
  8
PLAN_1
  6
CONTINUOUS
 10
2.382795
 20
-3.694236
  0
VERTEX
  8
PLAN_1
  6
CONTINUOUS
 10
2.380862
 20
-3.698098
  0
VERTEX
  8
PLAN_1
  6
CONTINUOUS
 10
2.379413
 20
-3.702445
  0
VERTEX
  8
PLAN_1
  6
CONTINUOUS
 10
2.378449
 20
-3.706791
  0
VERTEX
  8
PLAN_1
  6
CONTINUOUS
 10
2.378449
 20
-3.712587
  0
VERTEX
  8
PLAN_1
  6
CONTINUOUS
 10
2.378449
 20
-3.715484
  0
VERTEX
  8
PLAN_1
  6
CONTINUOUS
 10
2.378933
 20
-3.718382
  0
VERTEX
  8
PLAN_1
  6
CONTINUOUS
 10
2.379413
 20
-3.720795
  0
VERTEX
  8
PLAN_1
  6
CONTINUOUS
 10
2.380382
 20
-3.723209
  0
VERTEX
  8
PLAN_1
  6
CONTINUOUS
 10
2.381346
 20
-3.725142
  0
VERTEX
  8
PLAN_1
  6
CONTINUOUS
 10
2.382795
 20
-3.727071
  0
VERTEX
  8
PLAN_1
  6
CONTINUOUS
 10
2.384244
 20
-3.729004
  0
VERTEX
  8
PLAN_1
  6
CONTINUOUS
 10
2.385693
 20
-3.730453
  0
VERTEX
  8
PLAN_1
  6
CONTINUOUS
 10
2.389071
 20
-3.732866
  0
VERTEX
  8
PLAN_1
  6
CONTINUOUS
 10
2.393417
 20
-3.734799
  0
VERTEX
  8
PLAN_1
  6
CONTINUOUS
 10
2.397283
 20
-3.736248
  0
VERTEX
  8
PLAN_1
  6
CONTINUOUS
 10
2.401626
 20
-3.737697
  0
VERTEX
  8
PLAN_1
  6
CONTINUOUS
 10
2.458610
 20
-3.750732
  0
VERTEX
  8
PLAN_1
  6
CONTINUOUS
 10
2.463437
 20
-3.752181
  0
VERTEX
  8
PLAN_1
  6
CONTINUOUS
 10
2.468268
 20
-3.753630
  0
VERTEX
  8
PLAN_1
  6
CONTINUOUS
 10
2.472614
 20
-3.755079
  0
VERTEX
  8
PLAN_1
  6
CONTINUOUS
 10
2.476476
 20
-3.757012
  0
VERTEX
  8
PLAN_1
  6
CONTINUOUS
 10
2.480823
 20
-3.759425
  0
VERTEX
  8
PLAN_1
  6
CONTINUOUS
 10
2.484201
 20
-3.761839
  0
VERTEX
  8
PLAN_1
  6
CONTINUOUS
 10
2.488063
 20
-3.764736
  0
VERTEX
  8
PLAN_1
  6
CONTINUOUS
 10
2.490961
 20
-3.767634
  0
VERTEX
  8
PLAN_1
  6
CONTINUOUS
 10
2.493858
 20
-3.771016
  0
VERTEX
  8
PLAN_1
  6
CONTINUOUS
 10
2.496276
 20
-3.774878
  0
VERTEX
  8
PLAN_1
  6
CONTINUOUS
 10
2.498689
 20
-3.778740
  0
VERTEX
  8
PLAN_1
  6
CONTINUOUS
 10
2.500618
 20
-3.783087
  0
VERTEX
  8
PLAN_1
  6
CONTINUOUS
 10
2.502067
 20
-3.787917
  0
VERTEX
  8
PLAN_1
  6
CONTINUOUS
 10
2.503035
 20
-3.792744
  0
VERTEX
  8
PLAN_1
  6
CONTINUOUS
 10
2.504000
 20
-3.798055
  0
VERTEX
  8
PLAN_1
  6
CONTINUOUS
 10
2.504000
 20
-3.803850
  0
VERTEX
  8
PLAN_1
  6
CONTINUOUS
 10
2.504000
 20
-3.808197
  0
VERTEX
  8
PLAN_1
  6
CONTINUOUS
 10
2.503516
 20
-3.812543
  0
VERTEX
  8
PLAN_1
  6
CONTINUOUS
 10
2.503035
 20
-3.816406
  0
VERTEX
  8
PLAN_1
  6
CONTINUOUS
 10
2.502067
 20
-3.820268
  0
VERTEX
  8
PLAN_1
  6
CONTINUOUS
 10
2.501102
 20
-3.823650
  0
VERTEX
  8
PLAN_1
  6
CONTINUOUS
 10
2.499654
 20
-3.827031
  0
VERTEX
  8
PLAN_1
  6
CONTINUOUS
 10
2.498205
 20
-3.830409
  0
VERTEX
  8
PLAN_1
  6
CONTINUOUS
 10
2.496756
 20
-3.833307
  0
VERTEX
  8
PLAN_1
  6
CONTINUOUS
 10
2.492894
 20
-3.839102
  0
VERTEX
  8
PLAN_1
  6
CONTINUOUS
 10
2.488547
 20
-3.843929
  0
VERTEX
  8
PLAN_1
  6
CONTINUOUS
 10
2.483236
 20
-3.848276
  0
VERTEX
  8
PLAN_1
  6
CONTINUOUS
 10
2.477925
 20
-3.851657
  0
VERTEX
  8
PLAN_1
  6
CONTINUOUS
 10
2.472130
 20
-3.855039
  0
VERTEX
  8
PLAN_1
  6
CONTINUOUS
 10
2.465850
 20
-3.857453
  0
VERTEX
  8
PLAN_1
  6
CONTINUOUS
 10
2.459091
 20
-3.859866
  0
VERTEX
  8
PLAN_1
  6
CONTINUOUS
 10
2.452815
 20
-3.861315
  0
VERTEX
  8
PLAN_1
  6
CONTINUOUS
 10
2.446055
 20
-3.862764
  0
VERTEX
  8
PLAN_1
  6
CONTINUOUS
 10
2.439291
 20
-3.863728
  0
VERTEX
  8
PLAN_1
  6
CONTINUOUS
 10
2.432531
 20
-3.864213
  0
VERTEX
  8
PLAN_1
  6
CONTINUOUS
 10
2.425772
 20
-3.864213
  0
VERTEX
  8
PLAN_1
  6
CONTINUOUS
 10
2.419496
 20
-3.864213
  0
VERTEX
  8
PLAN_1
  6
CONTINUOUS
 10
2.413217
 20
-3.863728
  0
VERTEX
  8
PLAN_1
  6
CONTINUOUS
 10
2.407421
 20
-3.863248
  0
VERTEX
  8
PLAN_1
  6
CONTINUOUS
 10
2.402110
 20
-3.862280
  0
VERTEX
  8
PLAN_1
  6
CONTINUOUS
 10
2.392937
 20
-3.860350
  0
VERTEX
  8
PLAN_1
  6
CONTINUOUS
 10
2.385209
 20
-3.857453
  0
VERTEX
  8
PLAN_1
  6
CONTINUOUS
 10
2.378933
 20
-3.854555
  0
VERTEX
  8
PLAN_1
  6
CONTINUOUS
 10
2.373622
 20
-3.851657
  0
VERTEX
  8
PLAN_1
  6
CONTINUOUS
 10
2.369276
 20
-3.848276
  0
VERTEX
  8
PLAN_1
  6
CONTINUOUS
 10
2.365894
 20
-3.844898
  0
VERTEX
  8
PLAN_1
  6
CONTINUOUS
 10
2.360098
 20
-3.839102
  0
VERTEX
  8
PLAN_1
  6
CONTINUOUS
 10
2.355272
 20
-3.833307
  0
VERTEX
  8
PLAN_1
  6
CONTINUOUS
 10
2.351890
 20
-3.827512
  0
VERTEX
  8
PLAN_1
  6
CONTINUOUS
 10
2.349476
 20
-3.821236
  0
VERTEX
  8
PLAN_1
  6
CONTINUOUS
 10
2.347543
 20
-3.814476
  0
VERTEX
  8
PLAN_1
  6
CONTINUOUS
 10
2.346094
 20
-3.808197
  0
VERTEX
  8
PLAN_1
  6
CONTINUOUS
 10
2.345614
 20
-3.801437
  0
VERTEX
  8
PLAN_1
  6
CONTINUOUS
 10
2.345614
 20
-3.794677
  0
VERTEX
  8
PLAN_1
  6
CONTINUOUS
 10
2.370724
 20
-3.794677
  0
VERTEX
  8
PLAN_1
  6
CONTINUOUS
 10
2.371205
 20
-3.800953
  0
VERTEX
  8
PLAN_1
  6
CONTINUOUS
 10
2.372173
 20
-3.806748
  0
VERTEX
  8
PLAN_1
  6
CONTINUOUS
 10
2.373622
 20
-3.812059
  0
VERTEX
  8
PLAN_1
  6
CONTINUOUS
 10
2.375551
 20
-3.816890
  0
VERTEX
  8
PLAN_1
  6
CONTINUOUS
 10
2.378449
 20
-3.821236
  0
VERTEX
  8
PLAN_1
  6
CONTINUOUS
 10
2.381346
 20
-3.825098
  0
VERTEX
  8
PLAN_1
  6
CONTINUOUS
 10
2.384728
 20
-3.828480
  0
VERTEX
  8
PLAN_1
  6
CONTINUOUS
 10
2.388591
 20
-3.831374
  0
VERTEX
  8
PLAN_1
  6
CONTINUOUS
 10
2.392937
 20
-3.833791
  0
VERTEX
  8
PLAN_1
  6
CONTINUOUS
 10
2.397283
 20
-3.835720
  0
VERTEX
  8
PLAN_1
  6
CONTINUOUS
 10
2.401626
 20
-3.837654
  0
VERTEX
  8
PLAN_1
  6
CONTINUOUS
 10
2.406457
 20
-3.839102
  0
VERTEX
  8
PLAN_1
  6
CONTINUOUS
 10
2.411287
 20
-3.840067
  0
VERTEX
  8
PLAN_1
  6
CONTINUOUS
 10
2.416114
 20
-3.840551
  0
VERTEX
  8
PLAN_1
  6
CONTINUOUS
 10
2.420945
 20
-3.841035
  0
VERTEX
  8
PLAN_1
  6
CONTINUOUS
 10
2.425772
 20
-3.841035
  0
VERTEX
  8
PLAN_1
  6
CONTINUOUS
 10
2.433500
 20
-3.841035
  0
VERTEX
  8
PLAN_1
  6
CONTINUOUS
 10
2.442189
 20
-3.840067
  0
VERTEX
  8
PLAN_1
  6
CONTINUOUS
 10
2.446535
 20
-3.839102
  0
VERTEX
  8
PLAN_1
  6
CONTINUOUS
 10
2.450882
 20
-3.838138
  0
VERTEX
  8
PLAN_1
  6
CONTINUOUS
 10
2.455228
 20
-3.836689
  0
VERTEX
  8
PLAN_1
  6
CONTINUOUS
 10
2.459091
 20
-3.835240
  0
VERTEX
  8
PLAN_1
  6
CONTINUOUS
 10
2.462953
 20
-3.833307
  0
VERTEX
  8
PLAN_1
  6
CONTINUOUS
 10
2.466335
 20
-3.830894
  0
VERTEX
  8
PLAN_1
  6
CONTINUOUS
 10
2.469717
 20
-3.827996
  0
VERTEX
  8
PLAN_1
  6
CONTINUOUS
 10
2.472614
 20
-3.825098
  0
VERTEX
  8
PLAN_1
  6
CONTINUOUS
 10
2.474543
 20
-3.821236
  0
VERTEX
  8
PLAN_1
  6
CONTINUOUS
 10
2.476476
 20
-3.817374
  0
VERTEX
  8
PLAN_1
  6
CONTINUOUS
 10
2.477441
 20
-3.812543
  0
VERTEX
  8
PLAN_1
  6
CONTINUOUS
 10
2.477925
 20
-3.807713
  0
VERTEX
  8
PLAN_1
  6
CONTINUOUS
 10
2.477925
 20
-3.803850
  0
VERTEX
  8
PLAN_1
  6
CONTINUOUS
 10
2.477441
 20
-3.800472
  0
VERTEX
  8
PLAN_1
  6
CONTINUOUS
 10
2.476957
 20
-3.797091
  0
VERTEX
  8
PLAN_1
  6
CONTINUOUS
 10
2.475992
 20
-3.794193
  0
VERTEX
  8
PLAN_1
  6
CONTINUOUS
 10
2.474543
 20
-3.791780
  0
VERTEX
  8
PLAN_1
  6
CONTINUOUS
 10
2.473094
 20
-3.789366
  0
VERTEX
  8
PLAN_1
  6
CONTINUOUS
 10
2.471165
 20
-3.786949
  0
VERTEX
  8
PLAN_1
  6
CONTINUOUS
 10
2.468748
 20
-3.785020
  0
VERTEX
  8
PLAN_1
  6
CONTINUOUS
 10
2.466335
 20
-3.783087
  0
VERTEX
  8
PLAN_1
  6
CONTINUOUS
 10
2.463437
 20
-3.781638
  0
VERTEX
  8
PLAN_1
  6
CONTINUOUS
 10
2.459575
 20
-3.779709
  0
VERTEX
  8
PLAN_1
  6
CONTINUOUS
 10
2.455713
 20
-3.778260
  0
VERTEX
  8
PLAN_1
  6
CONTINUOUS
 10
2.446535
 20
-3.775362
  0
VERTEX
  8
PLAN_1
  6
CONTINUOUS
 10
2.435429
 20
-3.772465
  0
VERTEX
  8
PLAN_1
  6
CONTINUOUS
 10
2.394866
 20
-3.762807
  0
VERTEX
  8
PLAN_1
  6
CONTINUOUS
 10
2.389071
 20
-3.761358
  0
VERTEX
  8
PLAN_1
  6
CONTINUOUS
 10
2.382311
 20
-3.758941
  0
VERTEX
  8
PLAN_1
  6
CONTINUOUS
 10
2.378933
 20
-3.757492
  0
VERTEX
  8
PLAN_1
  6
CONTINUOUS
 10
2.375551
 20
-3.756047
  0
VERTEX
  8
PLAN_1
  6
CONTINUOUS
 10
2.372173
 20
-3.753630
  0
VERTEX
  8
PLAN_1
  6
CONTINUOUS
 10
2.368307
 20
-3.751217
  0
VERTEX
  8
PLAN_1
  6
CONTINUOUS
 10
2.365409
 20
-3.748319
  0
VERTEX
  8
PLAN_1
  6
CONTINUOUS
 10
2.362031
 20
-3.745421
  0
VERTEX
  8
PLAN_1
  6
CONTINUOUS
 10
2.359618
 20
-3.741559
  0
VERTEX
  8
PLAN_1
  6
CONTINUOUS
 10
2.357201
 20
-3.737697
  0
VERTEX
  8
PLAN_1
  6
CONTINUOUS
 10
2.354787
 20
-3.732866
  0
VERTEX
  8
PLAN_1
  6
CONTINUOUS
 10
2.353339
 20
-3.728039
  0
VERTEX
  8
PLAN_1
  6
CONTINUOUS
 10
2.352374
 20
-3.722244
  0
VERTEX
  8
PLAN_1
  6
CONTINUOUS
 10
2.352374
 20
-3.715965
  0
VERTEX
  8
PLAN_1
  6
CONTINUOUS
 10
2.352374
 20
-3.710169
  0
VERTEX
  8
PLAN_1
  6
CONTINUOUS
 10
2.353339
 20
-3.704378
  0
VERTEX
  8
PLAN_1
  6
CONTINUOUS
 10
2.354303
 20
-3.698583
  0
VERTEX
  8
PLAN_1
  6
CONTINUOUS
 10
2.356236
 20
-3.693272
  0
VERTEX
  8
PLAN_1
  6
CONTINUOUS
 10
2.358169
 20
-3.687957
  0
VERTEX
  8
PLAN_1
  6
CONTINUOUS
 10
2.361067
 20
-3.682646
  0
VERTEX
  8
PLAN_1
  6
CONTINUOUS
 10
2.364445
 20
-3.677819
  0
VERTEX
  8
PLAN_1
  6
CONTINUOUS
 10
2.368307
 20
-3.673472
  0
VERTEX
  8
PLAN_1
  6
CONTINUOUS
 10
2.372654
 20
-3.669610
  0
VERTEX
  8
PLAN_1
  6
CONTINUOUS
 10
2.377965
 20
-3.665744
  0
VERTEX
  8
PLAN_1
  6
CONTINUOUS
 10
2.383280
 20
-3.662366
  0
VERTEX
  8
PLAN_1
  6
CONTINUOUS
 10
2.389555
 20
-3.659469
  0
VERTEX
  8
PLAN_1
  6
CONTINUOUS
 10
2.396315
 20
-3.657535
  0
VERTEX
  8
PLAN_1
  6
CONTINUOUS
 10
2.404043
 20
-3.655606
  0
VERTEX
  8
PLAN_1
  6
CONTINUOUS
 10
2.411768
 20
-3.654638
  0
VERTEX
  8
PLAN_1
  6
CONTINUOUS
 10
2.420945
 20
-3.654157
  0
VERTEX
  8
PLAN_1
  6
CONTINUOUS
 10
2.427220
 20
-3.654638
  0
VERTEX
  8
PLAN_1
  6
CONTINUOUS
 10
2.433016
 20
-3.654638
  0
VERTEX
  8
PLAN_1
  6
CONTINUOUS
 10
2.438811
 20
-3.655606
  0
VERTEX
  8
PLAN_1
  6
CONTINUOUS
 10
2.444122
 20
-3.656087
  0
VERTEX
  8
PLAN_1
  6
CONTINUOUS
 10
2.448949
 20
-3.657055
  0
VERTEX
  8
PLAN_1
  6
CONTINUOUS
 10
2.453780
 20
-3.658500
  0
VERTEX
  8
PLAN_1
  6
CONTINUOUS
 10
2.458126
 20
-3.659949
  0
VERTEX
  8
PLAN_1
  6
CONTINUOUS
 10
2.461988
 20
-3.661398
  0
VERTEX
  8
PLAN_1
  6
CONTINUOUS
 10
2.469232
 20
-3.664780
  0
VERTEX
  8
PLAN_1
  6
CONTINUOUS
 10
2.475508
 20
-3.668642
  0
VERTEX
  8
PLAN_1
  6
CONTINUOUS
 10
2.480823
 20
-3.672988
  0
VERTEX
  8
PLAN_1
  6
CONTINUOUS
 10
2.485169
 20
-3.677819
  0
VERTEX
  8
PLAN_1
  6
CONTINUOUS
 10
2.489031
 20
-3.683130
  0
VERTEX
  8
PLAN_1
  6
CONTINUOUS
 10
2.491929
 20
-3.688441
  0
VERTEX
  8
PLAN_1
  6
CONTINUOUS
 10
2.493858
 20
-3.693272
  0
VERTEX
  8
PLAN_1
  6
CONTINUOUS
 10
2.495791
 20
-3.698583
  0
VERTEX
  8
PLAN_1
  6
CONTINUOUS
 10
2.496756
 20
-3.703894
  0
VERTEX
  8
PLAN_1
  6
CONTINUOUS
 10
2.497724
 20
-3.708720
  0
VERTEX
  8
PLAN_1
  6
CONTINUOUS
 10
2.498205
 20
-3.713551
  0
VERTEX
  8
PLAN_1
  6
CONTINUOUS
 10
2.498689
 20
-3.717898
  0
VERTEX
  8
PLAN_1
  6
CONTINUOUS
 10
2.473094
 20
-3.717898
  0
SEQEND
  8
0
  0
POLYLINE
  8
PLAN_1
  6
CONTINUOUS
 66
     1
 40
0.008209
 41
0.008209
  0
VERTEX
  8
PLAN_1
  6
CONTINUOUS
 10
-1.572543
 20
2.987008
  0
VERTEX
  8
PLAN_1
  6
CONTINUOUS
 10
-1.572543
 20
3.723409
  0
VERTEX
  8
PLAN_1
  6
CONTINUOUS
 10
-1.324823
 20
3.764941
  0
VERTEX
  8
PLAN_1
  6
CONTINUOUS
 10
-1.324823
 20
2.958516
  0
VERTEX
  8
PLAN_1
  6
CONTINUOUS
 10
-1.572543
 20
2.987008
  0
SEQEND
  8
0
  0
POLYLINE
  8
PLAN_1
  6
CONTINUOUS
 66
     1
 40
0.008209
 41
0.008209
  0
VERTEX
  8
PLAN_1
  6
CONTINUOUS
 10
-1.893665
 20
3.129457
  0
VERTEX
  8
PLAN_1
  6
CONTINUOUS
 10
-1.893665
 20
3.566957
  0
VERTEX
  8
PLAN_1
  6
CONTINUOUS
 10
-1.997000
 20
3.566957
  0
VERTEX
  8
PLAN_1
  6
CONTINUOUS
 10
-1.997000
 20
3.129457
  0
VERTEX
  8
PLAN_1
  6
CONTINUOUS
 10
-1.893665
 20
3.129457
  0
SEQEND
  8
0
  0
POLYLINE
  8
PLAN_1
  6
CONTINUOUS
 66
     1
 40
0.005791
 41
0.005791
  0
VERTEX
  8
PLAN_1
  6
CONTINUOUS
 10
-1.972858
 20
3.454925
  0
VERTEX
  8
PLAN_1
  6
CONTINUOUS
 10
-1.897043
 20
3.454925
  0
SEQEND
  8
0
  0
POLYLINE
  8
PLAN_1
  6
CONTINUOUS
 66
     1
 40
0.005791
 41
0.005791
  0
VERTEX
  8
PLAN_1
  6
CONTINUOUS
 10
-1.973339
 20
3.241004
  0
VERTEX
  8
PLAN_1
  6
CONTINUOUS
 10
-1.897043
 20
3.241004
  0
SEQEND
  8
0
  0
POLYLINE
  8
PLAN_1
  6
CONTINUOUS
 66
     1
 40
0.005791
 41
0.005791
  0
VERTEX
  8
PLAN_1
  6
CONTINUOUS
 10
-1.974787
 20
3.566472
  0
VERTEX
  8
PLAN_1
  6
CONTINUOUS
 10
-1.975756
 20
3.564059
  0
VERTEX
  8
PLAN_1
  6
CONTINUOUS
 10
-1.978654
 20
3.556815
  0
VERTEX
  8
PLAN_1
  6
CONTINUOUS
 10
-1.980583
 20
3.551504
  0
VERTEX
  8
PLAN_1
  6
CONTINUOUS
 10
-1.982516
 20
3.545709
  0
VERTEX
  8
PLAN_1
  6
CONTINUOUS
 10
-1.983965
 20
3.538949
  0
VERTEX
  8
PLAN_1
  6
CONTINUOUS
 10
-1.985413
 20
3.531220
  0
VERTEX
  8
PLAN_1
  6
CONTINUOUS
 10
-1.986378
 20
3.523012
  0
VERTEX
  8
PLAN_1
  6
CONTINUOUS
 10
-1.986862
 20
3.514319
  0
VERTEX
  8
PLAN_1
  6
CONTINUOUS
 10
-1.986862
 20
3.505146
  0
VERTEX
  8
PLAN_1
  6
CONTINUOUS
 10
-1.985894
 20
3.495488
  0
VERTEX
  8
PLAN_1
  6
CONTINUOUS
 10
-1.985413
 20
3.490657
  0
VERTEX
  8
PLAN_1
  6
CONTINUOUS
 10
-1.984445
 20
3.485346
  0
VERTEX
  8
PLAN_1
  6
CONTINUOUS
 10
-1.982996
 20
3.480520
  0
VERTEX
  8
PLAN_1
  6
CONTINUOUS
 10
-1.981547
 20
3.475205
  0
VERTEX
  8
PLAN_1
  6
CONTINUOUS
 10
-1.979618
 20
3.470378
  0
VERTEX
  8
PLAN_1
  6
CONTINUOUS
 10
-1.977685
 20
3.465067
  0
VERTEX
  8
PLAN_1
  6
CONTINUOUS
 10
-1.975272
 20
3.460236
  0
VERTEX
  8
PLAN_1
  6
CONTINUOUS
 10
-1.972374
 20
3.454925
  0
VERTEX
  8
PLAN_1
  6
CONTINUOUS
 10
-1.973823
 20
3.451063
  0
VERTEX
  8
PLAN_1
  6
CONTINUOUS
 10
-1.976720
 20
3.439472
  0
VERTEX
  8
PLAN_1
  6
CONTINUOUS
 10
-1.978654
 20
3.430780
  0
VERTEX
  8
PLAN_1
  6
CONTINUOUS
 10
-1.980583
 20
3.420642
  0
VERTEX
  8
PLAN_1
  6
CONTINUOUS
 10
-1.982516
 20
3.409051
  0
VERTEX
  8
PLAN_1
  6
CONTINUOUS
 10
-1.984445
 20
3.396012
  0
VERTEX
  8
PLAN_1
  6
CONTINUOUS
 10
-1.985894
 20
3.381043
  0
VERTEX
  8
PLAN_1
  6
CONTINUOUS
 10
-1.986862
 20
3.364626
  0
VERTEX
  8
PLAN_1
  6
CONTINUOUS
 10
-1.987343
 20
3.347240
  0
VERTEX
  8
PLAN_1
  6
CONTINUOUS
 10
-1.986862
 20
3.328409
  0
VERTEX
  8
PLAN_1
  6
CONTINUOUS
 10
-1.985413
 20
3.308126
  0
VERTEX
  8
PLAN_1
  6
CONTINUOUS
 10
-1.982996
 20
3.286882
  0
VERTEX
  8
PLAN_1
  6
CONTINUOUS
 10
-1.981547
 20
3.275776
  0
VERTEX
  8
PLAN_1
  6
CONTINUOUS
 10
-1.979618
 20
3.264185
  0
VERTEX
  8
PLAN_1
  6
CONTINUOUS
 10
-1.977685
 20
3.252594
  0
VERTEX
  8
PLAN_1
  6
CONTINUOUS
 10
-1.974787
 20
3.241004
  0
VERTEX
  8
PLAN_1
  6
CONTINUOUS
 10
-1.976236
 20
3.238110
  0
VERTEX
  8
PLAN_1
  6
CONTINUOUS
 10
-1.979134
 20
3.231346
  0
VERTEX
  8
PLAN_1
  6
CONTINUOUS
 10
-1.981067
 20
3.226520
  0
VERTEX
  8
PLAN_1
  6
CONTINUOUS
 10
-1.982516
 20
3.220724
  0
VERTEX
  8
PLAN_1
  6
CONTINUOUS
 10
-1.984445
 20
3.213965
  0
VERTEX
  8
PLAN_1
  6
CONTINUOUS
 10
-1.985894
 20
3.206236
  0
VERTEX
  8
PLAN_1
  6
CONTINUOUS
 10
-1.986862
 20
3.198512
  0
VERTEX
  8
PLAN_1
  6
CONTINUOUS
 10
-1.987343
 20
3.189819
  0
VERTEX
  8
PLAN_1
  6
CONTINUOUS
 10
-1.987343
 20
3.180646
  0
VERTEX
  8
PLAN_1
  6
CONTINUOUS
 10
-1.986378
 20
3.170988
  0
VERTEX
  8
PLAN_1
  6
CONTINUOUS
 10
-1.984929
 20
3.161331
  0
VERTEX
  8
PLAN_1
  6
CONTINUOUS
 10
-1.982031
 20
3.151189
  0
VERTEX
  8
PLAN_1
  6
CONTINUOUS
 10
-1.980102
 20
3.146358
  0
VERTEX
  8
PLAN_1
  6
CONTINUOUS
 10
-1.978169
 20
3.141047
  0
VERTEX
  8
PLAN_1
  6
CONTINUOUS
 10
-1.975272
 20
3.135736
  0
VERTEX
  8
PLAN_1
  6
CONTINUOUS
 10
-1.972858
 20
3.130906
  0
SEQEND
  8
0
  0
POLYLINE
  8
PLAN_1
  6
CONTINUOUS
 66
     1
 40
0.008209
 41
0.008209
  0
VERTEX
  8
PLAN_1
  6
CONTINUOUS
 10
-2.104201
 20
3.217827
  0
VERTEX
  8
PLAN_1
  6
CONTINUOUS
 10
-2.117724
 20
3.231346
  0
VERTEX
  8
PLAN_1
  6
CONTINUOUS
 10
-2.117724
 20
3.461685
  0
VERTEX
  8
PLAN_1
  6
CONTINUOUS
 10
-2.106134
 20
3.481000
  0
VERTEX
  8
PLAN_1
  6
CONTINUOUS
 10
-1.997000
 20
3.481000
  0
VERTEX
  8
PLAN_1
  6
CONTINUOUS
 10
-1.997000
 20
3.217827
  0
VERTEX
  8
PLAN_1
  6
CONTINUOUS
 10
-2.104201
 20
3.217827
  0
SEQEND
  8
0
  0
POLYLINE
  8
PLAN_1
  6
CONTINUOUS
 66
     1
 40
0.008209
 41
0.008209
  0
VERTEX
  8
PLAN_1
  6
CONTINUOUS
 10
-1.679744
 20
3.375732
  0
VERTEX
  8
PLAN_1
  6
CONTINUOUS
 10
-1.679744
 20
3.683815
  0
VERTEX
  8
PLAN_1
  6
CONTINUOUS
 10
-1.573028
 20
3.683815
  0
VERTEX
  8
PLAN_1
  6
CONTINUOUS
 10
-1.573028
 20
3.008252
  0
VERTEX
  8
PLAN_1
  6
CONTINUOUS
 10
-1.679744
 20
3.008252
  0
VERTEX
  8
PLAN_1
  6
CONTINUOUS
 10
-1.679744
 20
3.315370
  0
SEQEND
  8
0
  0
POLYLINE
  8
PLAN_1
  6
CONTINUOUS
 66
     1
 40
0.008209
 41
0.008209
  0
VERTEX
  8
PLAN_1
  6
CONTINUOUS
 10
-1.892697
 20
2.995217
  0
VERTEX
  8
PLAN_1
  6
CONTINUOUS
 10
-1.892697
 20
3.698299
  0
VERTEX
  8
PLAN_1
  6
CONTINUOUS
 10
-1.816886
 20
3.698299
  0
VERTEX
  8
PLAN_1
  6
CONTINUOUS
 10
-1.816886
 20
2.995217
  0
VERTEX
  8
PLAN_1
  6
CONTINUOUS
 10
-1.892697
 20
2.995217
  0
SEQEND
  8
0
  0
POLYLINE
  8
PLAN_1
  6
CONTINUOUS
 66
     1
 40
0.008209
 41
0.008209
  0
VERTEX
  8
PLAN_1
  6
CONTINUOUS
 10
-1.816402
 20
3.751902
  0
VERTEX
  8
PLAN_1
  6
CONTINUOUS
 10
-1.816402
 20
2.896224
  0
VERTEX
  8
PLAN_1
  6
CONTINUOUS
 10
-1.747831
 20
2.896224
  0
VERTEX
  8
PLAN_1
  6
CONTINUOUS
 10
-1.747831
 20
3.751902
  0
VERTEX
  8
PLAN_1
  6
CONTINUOUS
 10
-1.816402
 20
3.751902
  0
SEQEND
  8
0
  0
POLYLINE
  8
PLAN_1
  6
CONTINUOUS
 66
     1
 40
0.005791
 41
0.005791
  0
VERTEX
  8
PLAN_1
  6
CONTINUOUS
 10
-2.117240
 20
3.244386
  0
VERTEX
  8
PLAN_1
  6
CONTINUOUS
 10
-1.997484
 20
3.244386
  0
SEQEND
  8
0
  0
POLYLINE
  8
PLAN_1
  6
CONTINUOUS
 66
     1
 40
0.005791
 41
0.005791
  0
VERTEX
  8
PLAN_1
  6
CONTINUOUS
 10
-2.115311
 20
3.452992
  0
VERTEX
  8
PLAN_1
  6
CONTINUOUS
 10
-1.995551
 20
3.452992
  0
SEQEND
  8
0
  0
POLYLINE
  8
PLAN_1
  6
CONTINUOUS
 66
     1
 40
0.008209
 41
0.008209
  0
VERTEX
  8
PLAN_1
  6
CONTINUOUS
 10
-1.572543
 20
2.445689
  0
VERTEX
  8
PLAN_1
  6
CONTINUOUS
 10
-1.572543
 20
0.288146
  0
VERTEX
  8
PLAN_1
  6
CONTINUOUS
 10
-1.324823
 20
0.288146
  0
VERTEX
  8
PLAN_1
  6
CONTINUOUS
 10
-1.324823
 20
2.445689
  0
VERTEX
  8
PLAN_1
  6
CONTINUOUS
 10
-1.572543
 20
2.445689
  0
SEQEND
  8
0
  0
POLYLINE
  8
PLAN_1
  6
CONTINUOUS
 66
     1
 40
0.008209
 41
0.008209
  0
VERTEX
  8
PLAN_1
  6
CONTINUOUS
 10
-1.324823
 20
2.101390
  0
VERTEX
  8
PLAN_1
  6
CONTINUOUS
 10
-1.572543
 20
2.101390
  0
SEQEND
  8
0
  0
POLYLINE
  8
PLAN_1
  6
CONTINUOUS
 66
     1
 40
0.008209
 41
0.008209
  0
VERTEX
  8
PLAN_1
  6
CONTINUOUS
 10
-1.572543
 20
0.694736
  0
VERTEX
  8
PLAN_1
  6
CONTINUOUS
 10
-1.324823
 20
0.694736
  0
SEQEND
  8
0
  0
POLYLINE
  8
PLAN_1
  6
CONTINUOUS
 66
     1
 40
0.008209
 41
0.008209
  0
VERTEX
  8
PLAN_1
  6
CONTINUOUS
 10
-1.324823
 20
-0.004969
  0
VERTEX
  8
PLAN_1
  6
CONTINUOUS
 10
-0.165890
 20
-0.004969
  0
VERTEX
  8
PLAN_1
  6
CONTINUOUS
 10
-0.165890
 20
2.829587
  0
VERTEX
  8
PLAN_1
  6
CONTINUOUS
 10
-1.324823
 20
2.829587
  0
VERTEX
  8
PLAN_1
  6
CONTINUOUS
 10
-1.324823
 20
-0.004969
  0
SEQEND
  8
0
  0
POLYLINE
  8
PLAN_1
  6
CONTINUOUS
 66
     1
 40
0.004343
 41
0.004343
  0
VERTEX
  8
PLAN_1
  6
CONTINUOUS
 10
-1.192508
 20
0.183839
  0
VERTEX
  8
PLAN_1
  6
CONTINUOUS
 10
-1.441681
 20
0.183839
  0
SEQEND
  8
0
  0
POLYLINE
  8
PLAN_1
  6
CONTINUOUS
 66
     1
 40
0.004343
 41
0.004343
  0
VERTEX
  8
PLAN_1
  6
CONTINUOUS
 10
-0.041787
 20
0.183839
  0
VERTEX
  8
PLAN_1
  6
CONTINUOUS
 10
-0.290957
 20
0.183839
  0
SEQEND
  8
0
  0
POLYLINE
  8
PLAN_1
  6
CONTINUOUS
 66
     1
 40
0.004343
 41
0.004343
  0
VERTEX
  8
PLAN_1
  6
CONTINUOUS
 10
-1.192508
 20
2.592004
  0
VERTEX
  8
PLAN_1
  6
CONTINUOUS
 10
-1.441681
 20
2.592004
  0
SEQEND
  8
0
  0
POLYLINE
  8
PLAN_1
  6
CONTINUOUS
 66
     1
 40
0.004343
 41
0.004343
  0
VERTEX
  8
PLAN_1
  6
CONTINUOUS
 10
-0.041787
 20
2.592004
  0
VERTEX
  8
PLAN_1
  6
CONTINUOUS
 10
-0.290957
 20
2.592004
  0
SEQEND
  8
0
  0
POLYLINE
  8
PLAN_1
  6
CONTINUOUS
 66
     1
 40
0.004343
 41
0.004343
  0
VERTEX
  8
PLAN_1
  6
CONTINUOUS
 10
-0.875252
 20
0.128791
  0
VERTEX
  8
PLAN_1
  6
CONTINUOUS
 10
-0.875252
 20
-0.120862
  0
SEQEND
  8
0
  0
POLYLINE
  8
PLAN_1
  6
CONTINUOUS
 66
     1
 40
0.008209
 41
0.008209
  0
VERTEX
  8
PLAN_1
  6
CONTINUOUS
 10
-1.324823
 20
2.829587
  0
VERTEX
  8
PLAN_1
  6
CONTINUOUS
 10
-0.271642
 20
2.829587
  0
VERTEX
  8
PLAN_1
  6
CONTINUOUS
 10
-0.271642
 20
3.857654
  0
VERTEX
  8
PLAN_1
  6
CONTINUOUS
 10
-1.324823
 20
3.857654
  0
VERTEX
  8
PLAN_1
  6
CONTINUOUS
 10
-1.324823
 20
2.829587
  0
SEQEND
  8
0
  0
POLYLINE
  8
PLAN_1
  6
CONTINUOUS
 66
     1
 40
0.008209
 41
0.008209
  0
VERTEX
  8
PLAN_1
  6
CONTINUOUS
 10
-0.271642
 20
3.739831
  0
VERTEX
  8
PLAN_1
  6
CONTINUOUS
 10
-0.562823
 20
3.739831
  0
VERTEX
  8
PLAN_1
  6
CONTINUOUS
 10
-0.562823
 20
3.855240
  0
SEQEND
  8
0
  0
POLYLINE
  8
PLAN_1
  6
CONTINUOUS
 66
     1
 40
0.008209
 41
0.008209
  0
VERTEX
  8
PLAN_1
  6
CONTINUOUS
 10
-1.031709
 20
3.855240
  0
VERTEX
  8
PLAN_1
  6
CONTINUOUS
 10
-1.031709
 20
3.739831
  0
VERTEX
  8
PLAN_1
  6
CONTINUOUS
 10
-1.324823
 20
3.739831
  0
SEQEND
  8
0
  0
POLYLINE
  8
PLAN_1
  6
CONTINUOUS
 66
     1
 40
0.008209
 41
0.008209
  0
VERTEX
  8
PLAN_1
  6
CONTINUOUS
 10
-1.627110
 20
3.008252
  0
VERTEX
  8
PLAN_1
  6
CONTINUOUS
 10
-1.679744
 20
3.008252
  0
VERTEX
  8
PLAN_1
  6
CONTINUOUS
 10
-1.679744
 20
3.315370
  0
VERTEX
  8
PLAN_1
  6
CONTINUOUS
 10
-1.626626
 20
3.315370
  0
VERTEX
  8
PLAN_1
  6
CONTINUOUS
 10
-1.626626
 20
3.375732
  0
VERTEX
  8
PLAN_1
  6
CONTINUOUS
 10
-1.679744
 20
3.375732
  0
VERTEX
  8
PLAN_1
  6
CONTINUOUS
 10
-1.679744
 20
3.684295
  0
SEQEND
  8
0
  0
POLYLINE
  8
PLAN_1
  6
CONTINUOUS
 66
     1
 40
0.008209
 41
0.008209
  0
VERTEX
  8
PLAN_1
  6
CONTINUOUS
 10
-1.679744
 20
3.684295
  0
VERTEX
  8
PLAN_1
  6
CONTINUOUS
 10
-1.677811
 20
3.684295
  0
VERTEX
  8
PLAN_1
  6
CONTINUOUS
 10
-1.672020
 20
3.684295
  0
VERTEX
  8
PLAN_1
  6
CONTINUOUS
 10
-1.664291
 20
3.684295
  0
VERTEX
  8
PLAN_1
  6
CONTINUOUS
 10
-1.655118
 20
3.683815
  0
VERTEX
  8
PLAN_1
  6
CONTINUOUS
 10
-1.646425
 20
3.683815
  0
VERTEX
  8
PLAN_1
  6
CONTINUOUS
 10
-1.638217
 20
3.683815
  0
VERTEX
  8
PLAN_1
  6
CONTINUOUS
 10
-1.632906
 20
3.684295
  0
VERTEX
  8
PLAN_1
  6
CONTINUOUS
 10
-1.630488
 20
3.684295
  0
SEQEND
  8
0
  0
POLYLINE
  8
PLAN_1
  6
CONTINUOUS
 66
     1
 40
0.008209
 41
0.008209
  0
VERTEX
  8
PLAN_1
  6
CONTINUOUS
 10
-1.630488
 20
3.684295
  0
VERTEX
  8
PLAN_1
  6
CONTINUOUS
 10
-1.630488
 20
3.731622
  0
VERTEX
  8
PLAN_1
  6
CONTINUOUS
 10
-1.679744
 20
3.731622
  0
VERTEX
  8
PLAN_1
  6
CONTINUOUS
 10
-1.679744
 20
3.777496
  0
SEQEND
  8
0
  0
POLYLINE
  8
PLAN_1
  6
CONTINUOUS
 66
     1
 40
0.008209
 41
0.008209
  0
VERTEX
  8
PLAN_1
  6
CONTINUOUS
 10
-1.679744
 20
3.777496
  0
VERTEX
  8
PLAN_1
  6
CONTINUOUS
 10
-1.684571
 20
3.777976
  0
VERTEX
  8
PLAN_1
  6
CONTINUOUS
 10
-1.693264
 20
3.777976
  0
VERTEX
  8
PLAN_1
  6
CONTINUOUS
 10
-1.703890
 20
3.777976
  0
VERTEX
  8
PLAN_1
  6
CONTINUOUS
 10
-1.715961
 20
3.777976
  0
VERTEX
  8
PLAN_1
  6
CONTINUOUS
 10
-1.728031
 20
3.777976
  0
VERTEX
  8
PLAN_1
  6
CONTINUOUS
 10
-1.738173
 20
3.777976
  0
VERTEX
  8
PLAN_1
  6
CONTINUOUS
 10
-1.744933
 20
3.777496
  0
VERTEX
  8
PLAN_1
  6
CONTINUOUS
 10
-1.747831
 20
3.777496
  0
SEQEND
  8
0
  0
POLYLINE
  8
PLAN_1
  6
CONTINUOUS
 66
     1
 40
0.008209
 41
0.008209
  0
VERTEX
  8
PLAN_1
  6
CONTINUOUS
 10
-1.747831
 20
3.777496
  0
VERTEX
  8
PLAN_1
  6
CONTINUOUS
 10
-1.747831
 20
2.955138
  0
VERTEX
  8
PLAN_1
  6
CONTINUOUS
 10
-1.627110
 20
2.955138
  0
VERTEX
  8
PLAN_1
  6
CONTINUOUS
 10
-1.627110
 20
3.008252
  0
SEQEND
  8
0
  0
POLYLINE
  8
PLAN_1
  6
CONTINUOUS
 66
     1
 40
0.008209
 41
0.008209
  0
VERTEX
  8
PLAN_1
  6
CONTINUOUS
 10
-1.060681
 20
3.797776
  0
VERTEX
  8
PLAN_1
  6
CONTINUOUS
 10
-1.060681
 20
3.739831
  0
VERTEX
  8
PLAN_1
  6
CONTINUOUS
 10
-1.324823
 20
3.739831
  0
VERTEX
  8
PLAN_1
  6
CONTINUOUS
 10
-1.324823
 20
3.797776
  0
VERTEX
  8
PLAN_1
  6
CONTINUOUS
 10
-1.217618
 20
3.797776
  0
VERTEX
  8
PLAN_1
  6
CONTINUOUS
 10
-1.217618
 20
3.775079
  0
VERTEX
  8
PLAN_1
  6
CONTINUOUS
 10
-1.171264
 20
3.775079
  0
VERTEX
  8
PLAN_1
  6
CONTINUOUS
 10
-1.171264
 20
3.797776
  0
VERTEX
  8
PLAN_1
  6
CONTINUOUS
 10
-1.060681
 20
3.797776
  0
SEQEND
  8
0
  0
POLYLINE
  8
PLAN_1
  6
CONTINUOUS
 66
     1
 40
0.008209
 41
0.008209
  0
VERTEX
  8
PLAN_1
  6
CONTINUOUS
 10
-0.271642
 20
3.799224
  0
VERTEX
  8
PLAN_1
  6
CONTINUOUS
 10
-0.271642
 20
3.739831
  0
VERTEX
  8
PLAN_1
  6
CONTINUOUS
 10
-0.532886
 20
3.739831
  0
VERTEX
  8
PLAN_1
  6
CONTINUOUS
 10
-0.532886
 20
3.799224
  0
VERTEX
  8
PLAN_1
  6
CONTINUOUS
 10
-0.428579
 20
3.799224
  0
VERTEX
  8
PLAN_1
  6
CONTINUOUS
 10
-0.428579
 20
3.776528
  0
VERTEX
  8
PLAN_1
  6
CONTINUOUS
 10
-0.382224
 20
3.776528
  0
VERTEX
  8
PLAN_1
  6
CONTINUOUS
 10
-0.382224
 20
3.799224
  0
VERTEX
  8
PLAN_1
  6
CONTINUOUS
 10
-0.271642
 20
3.799224
  0
SEQEND
  8
0
  0
POLYLINE
  8
PLAN_1
  6
CONTINUOUS
 66
     1
 40
0.005791
 41
0.005791
  0
VERTEX
  8
PLAN_1
  6
CONTINUOUS
 10
-2.088752
 20
3.217827
  0
VERTEX
  8
PLAN_1
  6
CONTINUOUS
 10
-2.088752
 20
3.475689
  0
SEQEND
  8
0
  0
POLYLINE
  8
PLAN_1
 62
     2
  6
CONTINUOUS
 66
     1
 40
0.004343
 41
0.004343
  0
VERTEX
  8
PLAN_1
 62
     2
  6
CONTINUOUS
 10
-0.165890
 20
-0.028630
  0
VERTEX
  8
PLAN_1
 62
     2
  6
CONTINUOUS
 10
-0.165890
 20
-0.169150
  0
SEQEND
  8
0
  0
POLYLINE
  8
PLAN_1
 62
     2
  6
CONTINUOUS
 66
     1
 40
0.004343
 41
0.004343
  0
VERTEX
  8
PLAN_1
 62
     2
  6
CONTINUOUS
 10
-0.165890
 20
-0.217441
  0
VERTEX
  8
PLAN_1
 62
     2
  6
CONTINUOUS
 10
-0.165890
 20
-0.456469
  0
SEQEND
  8
0
  0
POLYLINE
  8
PLAN_1
 62
     2
  6
CONTINUOUS
 66
     1
 40
0.004343
 41
0.004343
  0
VERTEX
  8
PLAN_1
 62
     2
  6
CONTINUOUS
 10
-1.324823
 20
-0.028630
  0
VERTEX
  8
PLAN_1
 62
     2
  6
CONTINUOUS
 10
-1.324823
 20
-0.299047
  0
SEQEND
  8
0
  0
POLYLINE
  8
PLAN_1
 62
     2
  6
CONTINUOUS
 66
     1
 40
0.004343
 41
0.004343
  0
VERTEX
  8
PLAN_1
 62
     2
  6
CONTINUOUS
 10
-1.295366
 20
-0.275386
  0
VERTEX
  8
PLAN_1
 62
     2
  6
CONTINUOUS
 10
-0.196795
 20
-0.275386
  0
SEQEND
  8
0
  0
SOLID
  8
PLAN_1
 62
     2
 10
-0.167339
 20
-0.275386
 11
-0.226252
 21
-0.259453
 12
-0.167339
 22
-0.275386
 13
-0.226252
 23
-0.291323
  0
POLYLINE
  8
PLAN_1
 62
     2
  6
CONTINUOUS
 66
     1
 40
0.003000
 41
0.003000
  0
VERTEX
  8
PLAN_1
 62
     2
  6
CONTINUOUS
 10
-0.167339
 20
-0.275386
  0
VERTEX
  8
PLAN_1
 62
     2
  6
CONTINUOUS
 10
-0.226252
 20
-0.259453
  0
VERTEX
  8
PLAN_1
 62
     2
  6
CONTINUOUS
 10
-0.226252
 20
-0.291323
  0
VERTEX
  8
PLAN_1
 62
     2
  6
CONTINUOUS
 10
-0.167339
 20
-0.275386
  0
SEQEND
  8
0
  0
SOLID
  8
PLAN_1
 62
     2
 10
-1.324823
 20
-0.275386
 11
-1.265909
 21
-0.259453
 12
-1.324823
 22
-0.275386
 13
-1.265909
 23
-0.291323
  0
POLYLINE
  8
PLAN_1
 62
     2
  6
CONTINUOUS
 66
     1
 40
0.003000
 41
0.003000
  0
VERTEX
  8
PLAN_1
 62
     2
  6
CONTINUOUS
 10
-1.324823
 20
-0.275386
  0
VERTEX
  8
PLAN_1
 62
     2
  6
CONTINUOUS
 10
-1.265909
 20
-0.259453
  0
VERTEX
  8
PLAN_1
 62
     2
  6
CONTINUOUS
 10
-1.265909
 20
-0.291323
  0
VERTEX
  8
PLAN_1
 62
     2
  6
CONTINUOUS
 10
-1.324823
 20
-0.275386
  0
SEQEND
  8
0
  0
POLYLINE
  8
PLAN_1
 62
     2
  6
CONTINUOUS
 66
     1
 40
0.003000
 41
0.003000
  0
VERTEX
  8
PLAN_1
 62
     2
  6
CONTINUOUS
 10
-0.840484
 20
-0.204886
  0
VERTEX
  8
PLAN_1
 62
     2
  6
CONTINUOUS
 10
-0.840484
 20
-0.200539
  0
VERTEX
  8
PLAN_1
 62
     2
  6
CONTINUOUS
 10
-0.839520
 20
-0.197157
  0
VERTEX
  8
PLAN_1
 62
     2
  6
CONTINUOUS
 10
-0.839035
 20
-0.193780
  0
VERTEX
  8
PLAN_1
 62
     2
  6
CONTINUOUS
 10
-0.837587
 20
-0.190882
  0
VERTEX
  8
PLAN_1
 62
     2
  6
CONTINUOUS
 10
-0.836138
 20
-0.188469
  0
VERTEX
  8
PLAN_1
 62
     2
  6
CONTINUOUS
 10
-0.834689
 20
-0.186051
  0
VERTEX
  8
PLAN_1
 62
     2
  6
CONTINUOUS
 10
-0.832760
 20
-0.184122
  0
VERTEX
  8
PLAN_1
 62
     2
  6
CONTINUOUS
 10
-0.830827
 20
-0.182673
  0
VERTEX
  8
PLAN_1
 62
     2
  6
CONTINUOUS
 10
-0.826480
 20
-0.180740
  0
VERTEX
  8
PLAN_1
 62
     2
  6
CONTINUOUS
 10
-0.822618
 20
-0.179291
  0
VERTEX
  8
PLAN_1
 62
     2
  6
CONTINUOUS
 10
-0.818756
 20
-0.178807
  0
VERTEX
  8
PLAN_1
 62
     2
  6
CONTINUOUS
 10
-0.815374
 20
-0.178807
  0
VERTEX
  8
PLAN_1
 62
     2
  6
CONTINUOUS
 10
-0.810543
 20
-0.179291
  0
VERTEX
  8
PLAN_1
 62
     2
  6
CONTINUOUS
 10
-0.806201
 20
-0.180256
  0
VERTEX
  8
PLAN_1
 62
     2
  6
CONTINUOUS
 10
-0.802335
 20
-0.182189
  0
VERTEX
  8
PLAN_1
 62
     2
  6
CONTINUOUS
 10
-0.798957
 20
-0.184602
  0
VERTEX
  8
PLAN_1
 62
     2
  6
CONTINUOUS
 10
-0.796059
 20
-0.187500
  0
VERTEX
  8
PLAN_1
 62
     2
  6
CONTINUOUS
 10
-0.794126
 20
-0.191362
  0
VERTEX
  8
PLAN_1
 62
     2
  6
CONTINUOUS
 10
-0.792677
 20
-0.195709
  0
VERTEX
  8
PLAN_1
 62
     2
  6
CONTINUOUS
 10
-0.792197
 20
-0.200539
  0
VERTEX
  8
PLAN_1
 62
     2
  6
CONTINUOUS
 10
-0.792677
 20
-0.204886
  0
VERTEX
  8
PLAN_1
 62
     2
  6
CONTINUOUS
 10
-0.793646
 20
-0.209232
  0
VERTEX
  8
PLAN_1
 62
     2
  6
CONTINUOUS
 10
-0.795575
 20
-0.212610
  0
VERTEX
  8
PLAN_1
 62
     2
  6
CONTINUOUS
 10
-0.797988
 20
-0.215508
  0
VERTEX
  8
PLAN_1
 62
     2
  6
CONTINUOUS
 10
-0.800886
 20
-0.217921
  0
VERTEX
  8
PLAN_1
 62
     2
  6
CONTINUOUS
 10
-0.804268
 20
-0.220339
  0
VERTEX
  8
PLAN_1
 62
     2
  6
CONTINUOUS
 10
-0.808130
 20
-0.222752
  0
VERTEX
  8
PLAN_1
 62
     2
  6
CONTINUOUS
 10
-0.811992
 20
-0.225165
  0
VERTEX
  8
PLAN_1
 62
     2
  6
CONTINUOUS
 10
-0.819236
 20
-0.229028
  0
VERTEX
  8
PLAN_1
 62
     2
  6
CONTINUOUS
 10
-0.823098
 20
-0.230961
  0
VERTEX
  8
PLAN_1
 62
     2
  6
CONTINUOUS
 10
-0.825516
 20
-0.233374
  0
VERTEX
  8
PLAN_1
 62
     2
  6
CONTINUOUS
 10
-0.827929
 20
-0.235307
  0
VERTEX
  8
PLAN_1
 62
     2
  6
CONTINUOUS
 10
-0.829378
 20
-0.237240
  0
VERTEX
  8
PLAN_1
 62
     2
  6
CONTINUOUS
 10
-0.830343
 20
-0.239169
  0
VERTEX
  8
PLAN_1
 62
     2
  6
CONTINUOUS
 10
-0.831311
 20
-0.240618
  0
VERTEX
  8
PLAN_1
 62
     2
  6
CONTINUOUS
 10
-0.831791
 20
-0.242067
  0
VERTEX
  8
PLAN_1
 62
     2
  6
CONTINUOUS
 10
-0.832276
 20
-0.243031
  0
VERTEX
  8
PLAN_1
 62
     2
  6
CONTINUOUS
 10
-0.792197
 20
-0.243031
  0
VERTEX
  8
PLAN_1
 62
     2
  6
CONTINUOUS
 10
-0.792197
 20
-0.251724
  0
VERTEX
  8
PLAN_1
 62
     2
  6
CONTINUOUS
 10
-0.842417
 20
-0.251724
  0
VERTEX
  8
PLAN_1
 62
     2
  6
CONTINUOUS
 10
-0.841933
 20
-0.246413
  0
VERTEX
  8
PLAN_1
 62
     2
  6
CONTINUOUS
 10
-0.840969
 20
-0.241583
  0
VERTEX
  8
PLAN_1
 62
     2
  6
CONTINUOUS
 10
-0.839520
 20
-0.237240
  0
VERTEX
  8
PLAN_1
 62
     2
  6
CONTINUOUS
 10
-0.837102
 20
-0.233858
  0
VERTEX
  8
PLAN_1
 62
     2
  6
CONTINUOUS
 10
-0.834689
 20
-0.230476
  0
VERTEX
  8
PLAN_1
 62
     2
  6
CONTINUOUS
 10
-0.831791
 20
-0.227583
  0
VERTEX
  8
PLAN_1
 62
     2
  6
CONTINUOUS
 10
-0.828894
 20
-0.225165
  0
VERTEX
  8
PLAN_1
 62
     2
  6
CONTINUOUS
 10
-0.825031
 20
-0.222752
  0
VERTEX
  8
PLAN_1
 62
     2
  6
CONTINUOUS
 10
-0.815374
 20
-0.216957
  0
VERTEX
  8
PLAN_1
 62
     2
  6
CONTINUOUS
 10
-0.812476
 20
-0.215508
  0
VERTEX
  8
PLAN_1
 62
     2
  6
CONTINUOUS
 10
-0.810063
 20
-0.214059
  0
VERTEX
  8
PLAN_1
 62
     2
  6
CONTINUOUS
 10
-0.807650
 20
-0.212130
  0
VERTEX
  8
PLAN_1
 62
     2
  6
CONTINUOUS
 10
-0.805717
 20
-0.210681
  0
VERTEX
  8
PLAN_1
 62
     2
  6
CONTINUOUS
 10
-0.804268
 20
-0.208748
  0
VERTEX
  8
PLAN_1
 62
     2
  6
CONTINUOUS
 10
-0.803303
 20
-0.206335
  0
VERTEX
  8
PLAN_1
 62
     2
  6
CONTINUOUS
 10
-0.802335
 20
-0.203437
  0
VERTEX
  8
PLAN_1
 62
     2
  6
CONTINUOUS
 10
-0.801854
 20
-0.200055
  0
VERTEX
  8
PLAN_1
 62
     2
  6
CONTINUOUS
 10
-0.802335
 20
-0.197642
  0
VERTEX
  8
PLAN_1
 62
     2
  6
CONTINUOUS
 10
-0.802819
 20
-0.195709
  0
VERTEX
  8
PLAN_1
 62
     2
  6
CONTINUOUS
 10
-0.803783
 20
-0.193295
  0
VERTEX
  8
PLAN_1
 62
     2
  6
CONTINUOUS
 10
-0.805232
 20
-0.191362
  0
VERTEX
  8
PLAN_1
 62
     2
  6
CONTINUOUS
 10
-0.807165
 20
-0.189433
  0
VERTEX
  8
PLAN_1
 62
     2
  6
CONTINUOUS
 10
-0.809579
 20
-0.187984
  0
VERTEX
  8
PLAN_1
 62
     2
  6
CONTINUOUS
 10
-0.812961
 20
-0.187020
  0
VERTEX
  8
PLAN_1
 62
     2
  6
CONTINUOUS
 10
-0.816339
 20
-0.187020
  0
VERTEX
  8
PLAN_1
 62
     2
  6
CONTINUOUS
 10
-0.819236
 20
-0.187020
  0
VERTEX
  8
PLAN_1
 62
     2
  6
CONTINUOUS
 10
-0.821169
 20
-0.187500
  0
VERTEX
  8
PLAN_1
 62
     2
  6
CONTINUOUS
 10
-0.823098
 20
-0.187984
  0
VERTEX
  8
PLAN_1
 62
     2
  6
CONTINUOUS
 10
-0.824547
 20
-0.188949
  0
VERTEX
  8
PLAN_1
 62
     2
  6
CONTINUOUS
 10
-0.827445
 20
-0.191362
  0
VERTEX
  8
PLAN_1
 62
     2
  6
CONTINUOUS
 10
-0.828894
 20
-0.193780
  0
VERTEX
  8
PLAN_1
 62
     2
  6
CONTINUOUS
 10
-0.830343
 20
-0.197157
  0
VERTEX
  8
PLAN_1
 62
     2
  6
CONTINUOUS
 10
-0.830827
 20
-0.200055
  0
VERTEX
  8
PLAN_1
 62
     2
  6
CONTINUOUS
 10
-0.831311
 20
-0.202472
  0
VERTEX
  8
PLAN_1
 62
     2
  6
CONTINUOUS
 10
-0.831311
 20
-0.204886
  0
VERTEX
  8
PLAN_1
 62
     2
  6
CONTINUOUS
 10
-0.840484
 20
-0.204886
  0
SEQEND
  8
0
  0
POLYLINE
  8
PLAN_1
 62
     2
  6
CONTINUOUS
 66
     1
 40
0.003000
 41
0.003000
  0
VERTEX
  8
PLAN_1
 62
     2
  6
CONTINUOUS
 10
-0.783020
 20
-0.203917
  0
VERTEX
  8
PLAN_1
 62
     2
  6
CONTINUOUS
 10
-0.782539
 20
-0.198606
  0
VERTEX
  8
PLAN_1
 62
     2
  6
CONTINUOUS
 10
-0.781091
 20
-0.194260
  0
VERTEX
  8
PLAN_1
 62
     2
  6
CONTINUOUS
 10
-0.779642
 20
-0.189917
  0
VERTEX
  8
PLAN_1
 62
     2
  6
CONTINUOUS
 10
-0.776744
 20
-0.186051
  0
VERTEX
  8
PLAN_1
 62
     2
  6
CONTINUOUS
 10
-0.775295
 20
-0.184602
  0
VERTEX
  8
PLAN_1
 62
     2
  6
CONTINUOUS
 10
-0.773362
 20
-0.183154
  0
VERTEX
  8
PLAN_1
 62
     2
  6
CONTINUOUS
 10
-0.771433
 20
-0.181705
  0
VERTEX
  8
PLAN_1
 62
     2
  6
CONTINUOUS
 10
-0.769500
 20
-0.180740
  0
VERTEX
  8
PLAN_1
 62
     2
  6
CONTINUOUS
 10
-0.767087
 20
-0.179776
  0
VERTEX
  8
PLAN_1
 62
     2
  6
CONTINUOUS
 10
-0.764669
 20
-0.179291
  0
VERTEX
  8
PLAN_1
 62
     2
  6
CONTINUOUS
 10
-0.762256
 20
-0.178807
  0
VERTEX
  8
PLAN_1
 62
     2
  6
CONTINUOUS
 10
-0.759358
 20
-0.178807
  0
VERTEX
  8
PLAN_1
 62
     2
  6
CONTINUOUS
 10
-0.755012
 20
-0.178807
  0
VERTEX
  8
PLAN_1
 62
     2
  6
CONTINUOUS
 10
-0.751634
 20
-0.179776
  0
VERTEX
  8
PLAN_1
 62
     2
  6
CONTINUOUS
 10
-0.748252
 20
-0.180740
  0
VERTEX
  8
PLAN_1
 62
     2
  6
CONTINUOUS
 10
-0.745354
 20
-0.182189
  0
VERTEX
  8
PLAN_1
 62
     2
  6
CONTINUOUS
 10
-0.742941
 20
-0.184122
  0
VERTEX
  8
PLAN_1
 62
     2
  6
CONTINUOUS
 10
-0.741008
 20
-0.186051
  0
VERTEX
  8
PLAN_1
 62
     2
  6
CONTINUOUS
 10
-0.739079
 20
-0.188469
  0
VERTEX
  8
PLAN_1
 62
     2
  6
CONTINUOUS
 10
-0.737630
 20
-0.191362
  0
VERTEX
  8
PLAN_1
 62
     2
  6
CONTINUOUS
 10
-0.735697
 20
-0.196677
  0
VERTEX
  8
PLAN_1
 62
     2
  6
CONTINUOUS
 10
-0.734248
 20
-0.202472
  0
VERTEX
  8
PLAN_1
 62
     2
  6
CONTINUOUS
 10
-0.733768
 20
-0.207783
  0
VERTEX
  8
PLAN_1
 62
     2
  6
CONTINUOUS
 10
-0.733768
 20
-0.212610
  0
VERTEX
  8
PLAN_1
 62
     2
  6
CONTINUOUS
 10
-0.733768
 20
-0.216472
  0
VERTEX
  8
PLAN_1
 62
     2
  6
CONTINUOUS
 10
-0.734248
 20
-0.222268
  0
VERTEX
  8
PLAN_1
 62
     2
  6
CONTINUOUS
 10
-0.735697
 20
-0.229028
  0
VERTEX
  8
PLAN_1
 62
     2
  6
CONTINUOUS
 10
-0.737630
 20
-0.236272
  0
VERTEX
  8
PLAN_1
 62
     2
  6
CONTINUOUS
 10
-0.739079
 20
-0.239654
  0
VERTEX
  8
PLAN_1
 62
     2
  6
CONTINUOUS
 10
-0.741008
 20
-0.243031
  0
VERTEX
  8
PLAN_1
 62
     2
  6
CONTINUOUS
 10
-0.742941
 20
-0.245929
  0
VERTEX
  8
PLAN_1
 62
     2
  6
CONTINUOUS
 10
-0.745354
 20
-0.248346
  0
VERTEX
  8
PLAN_1
 62
     2
  6
CONTINUOUS
 10
-0.748252
 20
-0.250760
  0
VERTEX
  8
PLAN_1
 62
     2
  6
CONTINUOUS
 10
-0.751634
 20
-0.252209
  0
VERTEX
  8
PLAN_1
 62
     2
  6
CONTINUOUS
 10
-0.755980
 20
-0.253173
  0
VERTEX
  8
PLAN_1
 62
     2
  6
CONTINUOUS
 10
-0.760323
 20
-0.253657
  0
VERTEX
  8
PLAN_1
 62
     2
  6
CONTINUOUS
 10
-0.763220
 20
-0.253657
  0
VERTEX
  8
PLAN_1
 62
     2
  6
CONTINUOUS
 10
-0.766118
 20
-0.253173
  0
VERTEX
  8
PLAN_1
 62
     2
  6
CONTINUOUS
 10
-0.768535
 20
-0.252689
  0
VERTEX
  8
PLAN_1
 62
     2
  6
CONTINUOUS
 10
-0.770949
 20
-0.251724
  0
VERTEX
  8
PLAN_1
 62
     2
  6
CONTINUOUS
 10
-0.772878
 20
-0.250760
  0
VERTEX
  8
PLAN_1
 62
     2
  6
CONTINUOUS
 10
-0.774811
 20
-0.249311
  0
VERTEX
  8
PLAN_1
 62
     2
  6
CONTINUOUS
 10
-0.776260
 20
-0.248346
  0
VERTEX
  8
PLAN_1
 62
     2
  6
CONTINUOUS
 10
-0.777709
 20
-0.246413
  0
VERTEX
  8
PLAN_1
 62
     2
  6
CONTINUOUS
 10
-0.779642
 20
-0.243516
  0
VERTEX
  8
PLAN_1
 62
     2
  6
CONTINUOUS
 10
-0.781091
 20
-0.240138
  0
VERTEX
  8
PLAN_1
 62
     2
  6
CONTINUOUS
 10
-0.781571
 20
-0.237240
  0
VERTEX
  8
PLAN_1
 62
     2
  6
CONTINUOUS
 10
-0.782055
 20
-0.234343
  0
VERTEX
  8
PLAN_1
 62
     2
  6
CONTINUOUS
 10
-0.772878
 20
-0.234343
  0
VERTEX
  8
PLAN_1
 62
     2
  6
CONTINUOUS
 10
-0.772398
 20
-0.236756
  0
VERTEX
  8
PLAN_1
 62
     2
  6
CONTINUOUS
 10
-0.771913
 20
-0.239169
  0
VERTEX
  8
PLAN_1
 62
     2
  6
CONTINUOUS
 10
-0.770465
 20
-0.241102
  0
VERTEX
  8
PLAN_1
 62
     2
  6
CONTINUOUS
 10
-0.769016
 20
-0.243031
  0
VERTEX
  8
PLAN_1
 62
     2
  6
CONTINUOUS
 10
-0.767567
 20
-0.244480
  0
VERTEX
  8
PLAN_1
 62
     2
  6
CONTINUOUS
 10
-0.765638
 20
-0.245449
  0
VERTEX
  8
PLAN_1
 62
     2
  6
CONTINUOUS
 10
-0.763220
 20
-0.245929
  0
VERTEX
  8
PLAN_1
 62
     2
  6
CONTINUOUS
 10
-0.760323
 20
-0.246413
  0
VERTEX
  8
PLAN_1
 62
     2
  6
CONTINUOUS
 10
-0.756945
 20
-0.245929
  0
VERTEX
  8
PLAN_1
 62
     2
  6
CONTINUOUS
 10
-0.753563
 20
-0.244480
  0
VERTEX
  8
PLAN_1
 62
     2
  6
CONTINUOUS
 10
-0.751150
 20
-0.242551
  0
VERTEX
  8
PLAN_1
 62
     2
  6
CONTINUOUS
 10
-0.748736
 20
-0.239654
  0
VERTEX
  8
PLAN_1
 62
     2
  6
CONTINUOUS
 10
-0.746803
 20
-0.235791
  0
VERTEX
  8
PLAN_1
 62
     2
  6
CONTINUOUS
 10
-0.745354
 20
-0.230961
  0
VERTEX
  8
PLAN_1
 62
     2
  6
CONTINUOUS
 10
-0.743906
 20
-0.225650
  0
VERTEX
  8
PLAN_1
 62
     2
  6
CONTINUOUS
 10
-0.742941
 20
-0.218890
  0
VERTEX
  8
PLAN_1
 62
     2
  6
CONTINUOUS
 10
-0.742941
 20
-0.218406
  0
VERTEX
  8
PLAN_1
 62
     2
  6
CONTINUOUS
 10
-0.744390
 20
-0.220819
  0
VERTEX
  8
PLAN_1
 62
     2
  6
CONTINUOUS
 10
-0.745839
 20
-0.222268
  0
VERTEX
  8
PLAN_1
 62
     2
  6
CONTINUOUS
 10
-0.747768
 20
-0.223717
  0
VERTEX
  8
PLAN_1
 62
     2
  6
CONTINUOUS
 10
-0.749701
 20
-0.225165
  0
VERTEX
  8
PLAN_1
 62
     2
  6
CONTINUOUS
 10
-0.752114
 20
-0.226134
  0
VERTEX
  8
PLAN_1
 62
     2
  6
CONTINUOUS
 10
-0.754531
 20
-0.226614
  0
VERTEX
  8
PLAN_1
 62
     2
  6
CONTINUOUS
 10
-0.757429
 20
-0.227098
  0
VERTEX
  8
PLAN_1
 62
     2
  6
CONTINUOUS
 10
-0.759843
 20
-0.227583
  0
VERTEX
  8
PLAN_1
 62
     2
  6
CONTINUOUS
 10
-0.764669
 20
-0.227098
  0
VERTEX
  8
PLAN_1
 62
     2
  6
CONTINUOUS
 10
-0.769016
 20
-0.225650
  0
VERTEX
  8
PLAN_1
 62
     2
  6
CONTINUOUS
 10
-0.772878
 20
-0.223717
  0
VERTEX
  8
PLAN_1
 62
     2
  6
CONTINUOUS
 10
-0.776260
 20
-0.220819
  0
VERTEX
  8
PLAN_1
 62
     2
  6
CONTINUOUS
 10
-0.779157
 20
-0.217441
  0
VERTEX
  8
PLAN_1
 62
     2
  6
CONTINUOUS
 10
-0.781091
 20
-0.213579
  0
VERTEX
  8
PLAN_1
 62
     2
  6
CONTINUOUS
 10
-0.782539
 20
-0.208748
  0
VERTEX
  8
PLAN_1
 62
     2
  6
CONTINUOUS
 10
-0.783020
 20
-0.203917
  0
SEQEND
  8
0
  0
POLYLINE
  8
PLAN_1
 62
     2
  6
CONTINUOUS
 66
     1
 40
0.003000
 41
0.003000
  0
VERTEX
  8
PLAN_1
 62
     2
  6
CONTINUOUS
 10
-0.744390
 20
-0.202472
  0
VERTEX
  8
PLAN_1
 62
     2
  6
CONTINUOUS
 10
-0.744390
 20
-0.199575
  0
VERTEX
  8
PLAN_1
 62
     2
  6
CONTINUOUS
 10
-0.745354
 20
-0.196677
  0
VERTEX
  8
PLAN_1
 62
     2
  6
CONTINUOUS
 10
-0.746323
 20
-0.193780
  0
VERTEX
  8
PLAN_1
 62
     2
  6
CONTINUOUS
 10
-0.747768
 20
-0.191362
  0
VERTEX
  8
PLAN_1
 62
     2
  6
CONTINUOUS
 10
-0.749701
 20
-0.189433
  0
VERTEX
  8
PLAN_1
 62
     2
  6
CONTINUOUS
 10
-0.752598
 20
-0.187984
  0
VERTEX
  8
PLAN_1
 62
     2
  6
CONTINUOUS
 10
-0.755496
 20
-0.187020
  0
VERTEX
  8
PLAN_1
 62
     2
  6
CONTINUOUS
 10
-0.759358
 20
-0.187020
  0
VERTEX
  8
PLAN_1
 62
     2
  6
CONTINUOUS
 10
-0.762256
 20
-0.187020
  0
VERTEX
  8
PLAN_1
 62
     2
  6
CONTINUOUS
 10
-0.765154
 20
-0.187984
  0
VERTEX
  8
PLAN_1
 62
     2
  6
CONTINUOUS
 10
-0.767567
 20
-0.189433
  0
VERTEX
  8
PLAN_1
 62
     2
  6
CONTINUOUS
 10
-0.769500
 20
-0.191362
  0
VERTEX
  8
PLAN_1
 62
     2
  6
CONTINUOUS
 10
-0.770949
 20
-0.193780
  0
VERTEX
  8
PLAN_1
 62
     2
  6
CONTINUOUS
 10
-0.772398
 20
-0.196677
  0
VERTEX
  8
PLAN_1
 62
     2
  6
CONTINUOUS
 10
-0.772878
 20
-0.199575
  0
VERTEX
  8
PLAN_1
 62
     2
  6
CONTINUOUS
 10
-0.773362
 20
-0.203437
  0
VERTEX
  8
PLAN_1
 62
     2
  6
CONTINUOUS
 10
-0.772878
 20
-0.208264
  0
VERTEX
  8
PLAN_1
 62
     2
  6
CONTINUOUS
 10
-0.771913
 20
-0.211646
  0
VERTEX
  8
PLAN_1
 62
     2
  6
CONTINUOUS
 10
-0.770465
 20
-0.214543
  0
VERTEX
  8
PLAN_1
 62
     2
  6
CONTINUOUS
 10
-0.768051
 20
-0.216472
  0
VERTEX
  8
PLAN_1
 62
     2
  6
CONTINUOUS
 10
-0.765638
 20
-0.217921
  0
VERTEX
  8
PLAN_1
 62
     2
  6
CONTINUOUS
 10
-0.763220
 20
-0.218406
  0
VERTEX
  8
PLAN_1
 62
     2
  6
CONTINUOUS
 10
-0.760807
 20
-0.218890
  0
VERTEX
  8
PLAN_1
 62
     2
  6
CONTINUOUS
 10
-0.758394
 20
-0.218890
  0
VERTEX
  8
PLAN_1
 62
     2
  6
CONTINUOUS
 10
-0.756461
 20
-0.218890
  0
VERTEX
  8
PLAN_1
 62
     2
  6
CONTINUOUS
 10
-0.754047
 20
-0.218406
  0
VERTEX
  8
PLAN_1
 62
     2
  6
CONTINUOUS
 10
-0.752114
 20
-0.217921
  0
VERTEX
  8
PLAN_1
 62
     2
  6
CONTINUOUS
 10
-0.749701
 20
-0.216472
  0
VERTEX
  8
PLAN_1
 62
     2
  6
CONTINUOUS
 10
-0.747768
 20
-0.214059
  0
VERTEX
  8
PLAN_1
 62
     2
  6
CONTINUOUS
 10
-0.745839
 20
-0.211161
  0
VERTEX
  8
PLAN_1
 62
     2
  6
CONTINUOUS
 10
-0.744874
 20
-0.207299
  0
VERTEX
  8
PLAN_1
 62
     2
  6
CONTINUOUS
 10
-0.744390
 20
-0.202472
  0
SEQEND
  8
0
  0
POLYLINE
  8
PLAN_1
 62
     2
  6
CONTINUOUS
 66
     1
 40
0.003000
 41
0.003000
  0
VERTEX
  8
PLAN_1
 62
     2
  6
CONTINUOUS
 10
-0.720244
 20
-0.251724
  0
VERTEX
  8
PLAN_1
 62
     2
  6
CONTINUOUS
 10
-0.714933
 20
-0.251724
  0
VERTEX
  8
PLAN_1
 62
     2
  6
CONTINUOUS
 10
-0.714933
 20
-0.253657
  0
VERTEX
  8
PLAN_1
 62
     2
  6
CONTINUOUS
 10
-0.714933
 20
-0.255587
  0
VERTEX
  8
PLAN_1
 62
     2
  6
CONTINUOUS
 10
-0.715417
 20
-0.257035
  0
VERTEX
  8
PLAN_1
 62
     2
  6
CONTINUOUS
 10
-0.715898
 20
-0.258969
  0
VERTEX
  8
PLAN_1
 62
     2
  6
CONTINUOUS
 10
-0.716382
 20
-0.259933
  0
VERTEX
  8
PLAN_1
 62
     2
  6
CONTINUOUS
 10
-0.717346
 20
-0.261382
  0
VERTEX
  8
PLAN_1
 62
     2
  6
CONTINUOUS
 10
-0.718795
 20
-0.261866
  0
VERTEX
  8
PLAN_1
 62
     2
  6
CONTINUOUS
 10
-0.720244
 20
-0.262350
  0
VERTEX
  8
PLAN_1
 62
     2
  6
CONTINUOUS
 10
-0.720244
 20
-0.267177
  0
VERTEX
  8
PLAN_1
 62
     2
  6
CONTINUOUS
 10
-0.719280
 20
-0.266693
  0
VERTEX
  8
PLAN_1
 62
     2
  6
CONTINUOUS
 10
-0.717831
 20
-0.266213
  0
VERTEX
  8
PLAN_1
 62
     2
  6
CONTINUOUS
 10
-0.715898
 20
-0.265728
  0
VERTEX
  8
PLAN_1
 62
     2
  6
CONTINUOUS
 10
-0.713969
 20
-0.264280
  0
VERTEX
  8
PLAN_1
 62
     2
  6
CONTINUOUS
 10
-0.712520
 20
-0.262350
  0
VERTEX
  8
PLAN_1
 62
     2
  6
CONTINUOUS
 10
-0.710587
 20
-0.259453
  0
VERTEX
  8
PLAN_1
 62
     2
  6
CONTINUOUS
 10
-0.709622
 20
-0.255587
  0
VERTEX
  8
PLAN_1
 62
     2
  6
CONTINUOUS
 10
-0.709622
 20
-0.250760
  0
VERTEX
  8
PLAN_1
 62
     2
  6
CONTINUOUS
 10
-0.709622
 20
-0.240618
  0
VERTEX
  8
PLAN_1
 62
     2
  6
CONTINUOUS
 10
-0.720244
 20
-0.240618
  0
VERTEX
  8
PLAN_1
 62
     2
  6
CONTINUOUS
 10
-0.720244
 20
-0.251724
  0
SEQEND
  8
0
  0
POLYLINE
  8
PLAN_1
 62
     2
  6
CONTINUOUS
 66
     1
 40
0.003000
 41
0.003000
  0
VERTEX
  8
PLAN_1
 62
     2
  6
CONTINUOUS
 10
-0.684996
 20
-0.209232
  0
VERTEX
  8
PLAN_1
 62
     2
  6
CONTINUOUS
 10
-0.684028
 20
-0.208264
  0
VERTEX
  8
PLAN_1
 62
     2
  6
CONTINUOUS
 10
-0.682579
 20
-0.207299
  0
VERTEX
  8
PLAN_1
 62
     2
  6
CONTINUOUS
 10
-0.681130
 20
-0.206815
  0
VERTEX
  8
PLAN_1
 62
     2
  6
CONTINUOUS
 10
-0.679201
 20
-0.205850
  0
VERTEX
  8
PLAN_1
 62
     2
  6
CONTINUOUS
 10
-0.677268
 20
-0.205366
  0
VERTEX
  8
PLAN_1
 62
     2
  6
CONTINUOUS
 10
-0.675335
 20
-0.204886
  0
VERTEX
  8
PLAN_1
 62
     2
  6
CONTINUOUS
 10
-0.673406
 20
-0.204886
  0
VERTEX
  8
PLAN_1
 62
     2
  6
CONTINUOUS
 10
-0.670992
 20
-0.204886
  0
VERTEX
  8
PLAN_1
 62
     2
  6
CONTINUOUS
 10
-0.666646
 20
-0.204886
  0
VERTEX
  8
PLAN_1
 62
     2
  6
CONTINUOUS
 10
-0.662299
 20
-0.206335
  0
VERTEX
  8
PLAN_1
 62
     2
  6
CONTINUOUS
 10
-0.657953
 20
-0.208264
  0
VERTEX
  8
PLAN_1
 62
     2
  6
CONTINUOUS
 10
-0.654571
 20
-0.210681
  0
VERTEX
  8
PLAN_1
 62
     2
  6
CONTINUOUS
 10
-0.652642
 20
-0.212130
  0
VERTEX
  8
PLAN_1
 62
     2
  6
CONTINUOUS
 10
-0.651193
 20
-0.214059
  0
VERTEX
  8
PLAN_1
 62
     2
  6
CONTINUOUS
 10
-0.650224
 20
-0.215992
  0
VERTEX
  8
PLAN_1
 62
     2
  6
CONTINUOUS
 10
-0.648776
 20
-0.217921
  0
VERTEX
  8
PLAN_1
 62
     2
  6
CONTINUOUS
 10
-0.648295
 20
-0.220339
  0
VERTEX
  8
PLAN_1
 62
     2
  6
CONTINUOUS
 10
-0.647331
 20
-0.222752
  0
VERTEX
  8
PLAN_1
 62
     2
  6
CONTINUOUS
 10
-0.646846
 20
-0.225165
  0
VERTEX
  8
PLAN_1
 62
     2
  6
CONTINUOUS
 10
-0.646846
 20
-0.228063
  0
VERTEX
  8
PLAN_1
 62
     2
  6
CONTINUOUS
 10
-0.646846
 20
-0.231445
  0
VERTEX
  8
PLAN_1
 62
     2
  6
CONTINUOUS
 10
-0.647811
 20
-0.235307
  0
VERTEX
  8
PLAN_1
 62
     2
  6
CONTINUOUS
 10
-0.649260
 20
-0.239654
  0
VERTEX
  8
PLAN_1
 62
     2
  6
CONTINUOUS
 10
-0.651673
 20
-0.244000
  0
VERTEX
  8
PLAN_1
 62
     2
  6
CONTINUOUS
 10
-0.653122
 20
-0.245929
  0
VERTEX
  8
PLAN_1
 62
     2
  6
CONTINUOUS
 10
-0.655055
 20
-0.247862
  0
VERTEX
  8
PLAN_1
 62
     2
  6
CONTINUOUS
 10
-0.656988
 20
-0.249311
  0
VERTEX
  8
PLAN_1
 62
     2
  6
CONTINUOUS
 10
-0.659402
 20
-0.250760
  0
VERTEX
  8
PLAN_1
 62
     2
  6
CONTINUOUS
 10
-0.662299
 20
-0.252209
  0
VERTEX
  8
PLAN_1
 62
     2
  6
CONTINUOUS
 10
-0.665677
 20
-0.253173
  0
VERTEX
  8
PLAN_1
 62
     2
  6
CONTINUOUS
 10
-0.669543
 20
-0.253657
  0
VERTEX
  8
PLAN_1
 62
     2
  6
CONTINUOUS
 10
-0.673406
 20
-0.253657
  0
VERTEX
  8
PLAN_1
 62
     2
  6
CONTINUOUS
 10
-0.677268
 20
-0.253657
  0
VERTEX
  8
PLAN_1
 62
     2
  6
CONTINUOUS
 10
-0.680650
 20
-0.252689
  0
VERTEX
  8
PLAN_1
 62
     2
  6
CONTINUOUS
 10
-0.684512
 20
-0.251724
  0
VERTEX
  8
PLAN_1
 62
     2
  6
CONTINUOUS
 10
-0.688374
 20
-0.249795
  0
VERTEX
  8
PLAN_1
 62
     2
  6
CONTINUOUS
 10
-0.689823
 20
-0.248827
  0
VERTEX
  8
PLAN_1
 62
     2
  6
CONTINUOUS
 10
-0.691272
 20
-0.247378
  0
VERTEX
  8
PLAN_1
 62
     2
  6
CONTINUOUS
 10
-0.692720
 20
-0.245449
  0
VERTEX
  8
PLAN_1
 62
     2
  6
CONTINUOUS
 10
-0.693685
 20
-0.243516
  0
VERTEX
  8
PLAN_1
 62
     2
  6
CONTINUOUS
 10
-0.695134
 20
-0.241583
  0
VERTEX
  8
PLAN_1
 62
     2
  6
CONTINUOUS
 10
-0.696102
 20
-0.239169
  0
VERTEX
  8
PLAN_1
 62
     2
  6
CONTINUOUS
 10
-0.696583
 20
-0.236756
  0
VERTEX
  8
PLAN_1
 62
     2
  6
CONTINUOUS
 10
-0.697067
 20
-0.233374
  0
VERTEX
  8
PLAN_1
 62
     2
  6
CONTINUOUS
 10
-0.687409
 20
-0.233374
  0
VERTEX
  8
PLAN_1
 62
     2
  6
CONTINUOUS
 10
-0.686925
 20
-0.236756
  0
VERTEX
  8
PLAN_1
 62
     2
  6
CONTINUOUS
 10
-0.685961
 20
-0.239169
  0
VERTEX
  8
PLAN_1
 62
     2
  6
CONTINUOUS
 10
-0.684512
 20
-0.241102
  0
VERTEX
  8
PLAN_1
 62
     2
  6
CONTINUOUS
 10
-0.682579
 20
-0.243031
  0
VERTEX
  8
PLAN_1
 62
     2
  6
CONTINUOUS
 10
-0.680165
 20
-0.244000
  0
VERTEX
  8
PLAN_1
 62
     2
  6
CONTINUOUS
 10
-0.677752
 20
-0.244965
  0
VERTEX
  8
PLAN_1
 62
     2
  6
CONTINUOUS
 10
-0.674854
 20
-0.245929
  0
VERTEX
  8
PLAN_1
 62
     2
  6
CONTINUOUS
 10
-0.671957
 20
-0.245929
  0
VERTEX
  8
PLAN_1
 62
     2
  6
CONTINUOUS
 10
-0.668575
 20
-0.245449
  0
VERTEX
  8
PLAN_1
 62
     2
  6
CONTINUOUS
 10
-0.665677
 20
-0.244480
  0
VERTEX
  8
PLAN_1
 62
     2
  6
CONTINUOUS
 10
-0.663264
 20
-0.243031
  0
VERTEX
  8
PLAN_1
 62
     2
  6
CONTINUOUS
 10
-0.660850
 20
-0.241102
  0
VERTEX
  8
PLAN_1
 62
     2
  6
CONTINUOUS
 10
-0.658917
 20
-0.238689
  0
VERTEX
  8
PLAN_1
 62
     2
  6
CONTINUOUS
 10
-0.657953
 20
-0.235791
  0
VERTEX
  8
PLAN_1
 62
     2
  6
CONTINUOUS
 10
-0.656988
 20
-0.232409
  0
VERTEX
  8
PLAN_1
 62
     2
  6
CONTINUOUS
 10
-0.656504
 20
-0.229028
  0
VERTEX
  8
PLAN_1
 62
     2
  6
CONTINUOUS
 10
-0.656988
 20
-0.225650
  0
VERTEX
  8
PLAN_1
 62
     2
  6
CONTINUOUS
 10
-0.657953
 20
-0.222268
  0
VERTEX
  8
PLAN_1
 62
     2
  6
CONTINUOUS
 10
-0.659402
 20
-0.219370
  0
VERTEX
  8
PLAN_1
 62
     2
  6
CONTINUOUS
 10
-0.661331
 20
-0.216957
  0
VERTEX
  8
PLAN_1
 62
     2
  6
CONTINUOUS
 10
-0.663748
 20
-0.215028
  0
VERTEX
  8
PLAN_1
 62
     2
  6
CONTINUOUS
 10
-0.666646
 20
-0.214059
  0
VERTEX
  8
PLAN_1
 62
     2
  6
CONTINUOUS
 10
-0.669543
 20
-0.213094
  0
VERTEX
  8
PLAN_1
 62
     2
  6
CONTINUOUS
 10
-0.672921
 20
-0.213094
  0
VERTEX
  8
PLAN_1
 62
     2
  6
CONTINUOUS
 10
-0.674854
 20
-0.213094
  0
VERTEX
  8
PLAN_1
 62
     2
  6
CONTINUOUS
 10
-0.676783
 20
-0.213579
  0
VERTEX
  8
PLAN_1
 62
     2
  6
CONTINUOUS
 10
-0.678717
 20
-0.214059
  0
VERTEX
  8
PLAN_1
 62
     2
  6
CONTINUOUS
 10
-0.680165
 20
-0.214543
  0
VERTEX
  8
PLAN_1
 62
     2
  6
CONTINUOUS
 10
-0.682098
 20
-0.215508
  0
VERTEX
  8
PLAN_1
 62
     2
  6
CONTINUOUS
 10
-0.683547
 20
-0.216957
  0
VERTEX
  8
PLAN_1
 62
     2
  6
CONTINUOUS
 10
-0.684996
 20
-0.218406
  0
VERTEX
  8
PLAN_1
 62
     2
  6
CONTINUOUS
 10
-0.686441
 20
-0.219854
  0
VERTEX
  8
PLAN_1
 62
     2
  6
CONTINUOUS
 10
-0.694169
 20
-0.219370
  0
VERTEX
  8
PLAN_1
 62
     2
  6
CONTINUOUS
 10
-0.688858
 20
-0.180256
  0
VERTEX
  8
PLAN_1
 62
     2
  6
CONTINUOUS
 10
-0.650709
 20
-0.180256
  0
VERTEX
  8
PLAN_1
 62
     2
  6
CONTINUOUS
 10
-0.650709
 20
-0.188949
  0
VERTEX
  8
PLAN_1
 62
     2
  6
CONTINUOUS
 10
-0.682098
 20
-0.188949
  0
VERTEX
  8
PLAN_1
 62
     2
  6
CONTINUOUS
 10
-0.684996
 20
-0.209232
  0
SEQEND
  8
0
  0
POLYLINE
  8
PLAN_1
 62
     2
  6
CONTINUOUS
 66
     1
 40
0.004343
 41
0.004343
  0
VERTEX
  8
PLAN_1
 62
     2
  6
CONTINUOUS
 10
-2.086819
 20
-0.432807
  0
VERTEX
  8
PLAN_1
 62
     2
  6
CONTINUOUS
 10
-0.196795
 20
-0.432807
  0
SEQEND
  8
0
  0
SOLID
  8
PLAN_1
 62
     2
 10
-0.167339
 20
-0.432807
 11
-0.226252
 21
-0.416874
 12
-0.167339
 22
-0.432807
 13
-0.226252
 23
-0.448744
  0
POLYLINE
  8
PLAN_1
 62
     2
  6
CONTINUOUS
 66
     1
 40
0.003000
 41
0.003000
  0
VERTEX
  8
PLAN_1
 62
     2
  6
CONTINUOUS
 10
-0.167339
 20
-0.432807
  0
VERTEX
  8
PLAN_1
 62
     2
  6
CONTINUOUS
 10
-0.226252
 20
-0.416874
  0
VERTEX
  8
PLAN_1
 62
     2
  6
CONTINUOUS
 10
-0.226252
 20
-0.448744
  0
VERTEX
  8
PLAN_1
 62
     2
  6
CONTINUOUS
 10
-0.167339
 20
-0.432807
  0
SEQEND
  8
0
  0
SOLID
  8
PLAN_1
 62
     2
 10
-2.116276
 20
-0.432807
 11
-2.057362
 21
-0.416874
 12
-2.116276
 22
-0.432807
 13
-2.057362
 23
-0.448744
  0
POLYLINE
  8
PLAN_1
 62
     2
  6
CONTINUOUS
 66
     1
 40
0.003000
 41
0.003000
  0
VERTEX
  8
PLAN_1
 62
     2
  6
CONTINUOUS
 10
-2.116276
 20
-0.432807
  0
VERTEX
  8
PLAN_1
 62
     2
  6
CONTINUOUS
 10
-2.057362
 20
-0.416874
  0
VERTEX
  8
PLAN_1
 62
     2
  6
CONTINUOUS
 10
-2.057362
 20
-0.448744
  0
VERTEX
  8
PLAN_1
 62
     2
  6
CONTINUOUS
 10
-2.116276
 20
-0.432807
  0
SEQEND
  8
0
  0
POLYLINE
  8
PLAN_1
 62
     2
  6
CONTINUOUS
 66
     1
 40
0.003000
 41
0.003000
  0
VERTEX
  8
PLAN_1
 62
     2
  6
CONTINUOUS
 10
-1.184299
 20
-0.366654
  0
VERTEX
  8
PLAN_1
 62
     2
  6
CONTINUOUS
 10
-1.182850
 20
-0.365685
  0
VERTEX
  8
PLAN_1
 62
     2
  6
CONTINUOUS
 10
-1.181886
 20
-0.364720
  0
VERTEX
  8
PLAN_1
 62
     2
  6
CONTINUOUS
 10
-1.179953
 20
-0.364236
  0
VERTEX
  8
PLAN_1
 62
     2
  6
CONTINUOUS
 10
-1.178508
 20
-0.363272
  0
VERTEX
  8
PLAN_1
 62
     2
  6
CONTINUOUS
 10
-1.176575
 20
-0.362791
  0
VERTEX
  8
PLAN_1
 62
     2
  6
CONTINUOUS
 10
-1.174642
 20
-0.362307
  0
VERTEX
  8
PLAN_1
 62
     2
  6
CONTINUOUS
 10
-1.172713
 20
-0.362307
  0
VERTEX
  8
PLAN_1
 62
     2
  6
CONTINUOUS
 10
-1.170295
 20
-0.362307
  0
VERTEX
  8
PLAN_1
 62
     2
  6
CONTINUOUS
 10
-1.165469
 20
-0.362307
  0
VERTEX
  8
PLAN_1
 62
     2
  6
CONTINUOUS
 10
-1.161606
 20
-0.363756
  0
VERTEX
  8
PLAN_1
 62
     2
  6
CONTINUOUS
 10
-1.157260
 20
-0.365685
  0
VERTEX
  8
PLAN_1
 62
     2
  6
CONTINUOUS
 10
-1.153878
 20
-0.368102
  0
VERTEX
  8
PLAN_1
 62
     2
  6
CONTINUOUS
 10
-1.151949
 20
-0.369551
  0
VERTEX
  8
PLAN_1
 62
     2
  6
CONTINUOUS
 10
-1.150500
 20
-0.371480
  0
VERTEX
  8
PLAN_1
 62
     2
  6
CONTINUOUS
 10
-1.149051
 20
-0.373413
  0
VERTEX
  8
PLAN_1
 62
     2
  6
CONTINUOUS
 10
-1.148083
 20
-0.375346
  0
VERTEX
  8
PLAN_1
 62
     2
  6
CONTINUOUS
 10
-1.147118
 20
-0.377760
  0
VERTEX
  8
PLAN_1
 62
     2
  6
CONTINUOUS
 10
-1.146634
 20
-0.380173
  0
VERTEX
  8
PLAN_1
 62
     2
  6
CONTINUOUS
 10
-1.146154
 20
-0.382587
  0
VERTEX
  8
PLAN_1
 62
     2
  6
CONTINUOUS
 10
-1.146154
 20
-0.385484
  0
VERTEX
  8
PLAN_1
 62
     2
  6
CONTINUOUS
 10
-1.146154
 20
-0.388866
  0
VERTEX
  8
PLAN_1
 62
     2
  6
CONTINUOUS
 10
-1.147118
 20
-0.392728
  0
VERTEX
  8
PLAN_1
 62
     2
  6
CONTINUOUS
 10
-1.148567
 20
-0.397075
  0
VERTEX
  8
PLAN_1
 62
     2
  6
CONTINUOUS
 10
-1.150980
 20
-0.401421
  0
VERTEX
  8
PLAN_1
 62
     2
  6
CONTINUOUS
 10
-1.152429
 20
-0.403350
  0
VERTEX
  8
PLAN_1
 62
     2
  6
CONTINUOUS
 10
-1.154362
 20
-0.405283
  0
VERTEX
  8
PLAN_1
 62
     2
  6
CONTINUOUS
 10
-1.156291
 20
-0.406732
  0
VERTEX
  8
PLAN_1
 62
     2
  6
CONTINUOUS
 10
-1.158709
 20
-0.408181
  0
VERTEX
  8
PLAN_1
 62
     2
  6
CONTINUOUS
 10
-1.161606
 20
-0.409630
  0
VERTEX
  8
PLAN_1
 62
     2
  6
CONTINUOUS
 10
-1.164984
 20
-0.410594
  0
VERTEX
  8
PLAN_1
 62
     2
  6
CONTINUOUS
 10
-1.168366
 20
-0.411079
  0
VERTEX
  8
PLAN_1
 62
     2
  6
CONTINUOUS
 10
-1.172713
 20
-0.411079
  0
VERTEX
  8
PLAN_1
 62
     2
  6
CONTINUOUS
 10
-1.176091
 20
-0.411079
  0
VERTEX
  8
PLAN_1
 62
     2
  6
CONTINUOUS
 10
-1.179953
 20
-0.410114
  0
VERTEX
  8
PLAN_1
 62
     2
  6
CONTINUOUS
 10
-1.183819
 20
-0.409146
  0
VERTEX
  8
PLAN_1
 62
     2
  6
CONTINUOUS
 10
-1.187197
 20
-0.407217
  0
VERTEX
  8
PLAN_1
 62
     2
  6
CONTINUOUS
 10
-1.189130
 20
-0.406248
  0
VERTEX
  8
PLAN_1
 62
     2
  6
CONTINUOUS
 10
-1.190579
 20
-0.404799
  0
VERTEX
  8
PLAN_1
 62
     2
  6
CONTINUOUS
 10
-1.192028
 20
-0.402870
  0
VERTEX
  8
PLAN_1
 62
     2
  6
CONTINUOUS
 10
-1.192992
 20
-0.400937
  0
VERTEX
  8
PLAN_1
 62
     2
  6
CONTINUOUS
 10
-1.194441
 20
-0.399008
  0
VERTEX
  8
PLAN_1
 62
     2
  6
CONTINUOUS
 10
-1.194925
 20
-0.396591
  0
VERTEX
  8
PLAN_1
 62
     2
  6
CONTINUOUS
 10
-1.195890
 20
-0.394177
  0
VERTEX
  8
PLAN_1
 62
     2
  6
CONTINUOUS
 10
-1.196374
 20
-0.390795
  0
VERTEX
  8
PLAN_1
 62
     2
  6
CONTINUOUS
 10
-1.186717
 20
-0.390795
  0
VERTEX
  8
PLAN_1
 62
     2
  6
CONTINUOUS
 10
-1.186232
 20
-0.394177
  0
VERTEX
  8
PLAN_1
 62
     2
  6
CONTINUOUS
 10
-1.185268
 20
-0.396591
  0
VERTEX
  8
PLAN_1
 62
     2
  6
CONTINUOUS
 10
-1.183819
 20
-0.398524
  0
VERTEX
  8
PLAN_1
 62
     2
  6
CONTINUOUS
 10
-1.181886
 20
-0.400457
  0
VERTEX
  8
PLAN_1
 62
     2
  6
CONTINUOUS
 10
-1.179472
 20
-0.401902
  0
VERTEX
  8
PLAN_1
 62
     2
  6
CONTINUOUS
 10
-1.177059
 20
-0.402386
  0
VERTEX
  8
PLAN_1
 62
     2
  6
CONTINUOUS
 10
-1.174161
 20
-0.403350
  0
VERTEX
  8
PLAN_1
 62
     2
  6
CONTINUOUS
 10
-1.171264
 20
-0.403350
  0
VERTEX
  8
PLAN_1
 62
     2
  6
CONTINUOUS
 10
-1.167882
 20
-0.402870
  0
VERTEX
  8
PLAN_1
 62
     2
  6
CONTINUOUS
 10
-1.164984
 20
-0.401902
  0
VERTEX
  8
PLAN_1
 62
     2
  6
CONTINUOUS
 10
-1.162087
 20
-0.400457
  0
VERTEX
  8
PLAN_1
 62
     2
  6
CONTINUOUS
 10
-1.160157
 20
-0.398524
  0
VERTEX
  8
PLAN_1
 62
     2
  6
CONTINUOUS
 10
-1.158224
 20
-0.396110
  0
VERTEX
  8
PLAN_1
 62
     2
  6
CONTINUOUS
 10
-1.156776
 20
-0.393213
  0
VERTEX
  8
PLAN_1
 62
     2
  6
CONTINUOUS
 10
-1.156291
 20
-0.389831
  0
VERTEX
  8
PLAN_1
 62
     2
  6
CONTINUOUS
 10
-1.155811
 20
-0.386453
  0
VERTEX
  8
PLAN_1
 62
     2
  6
CONTINUOUS
 10
-1.156291
 20
-0.383071
  0
VERTEX
  8
PLAN_1
 62
     2
  6
CONTINUOUS
 10
-1.157260
 20
-0.379689
  0
VERTEX
  8
PLAN_1
 62
     2
  6
CONTINUOUS
 10
-1.158709
 20
-0.376791
  0
VERTEX
  8
PLAN_1
 62
     2
  6
CONTINUOUS
 10
-1.160638
 20
-0.374378
  0
VERTEX
  8
PLAN_1
 62
     2
  6
CONTINUOUS
 10
-1.163055
 20
-0.372929
  0
VERTEX
  8
PLAN_1
 62
     2
  6
CONTINUOUS
 10
-1.165953
 20
-0.371480
  0
VERTEX
  8
PLAN_1
 62
     2
  6
CONTINUOUS
 10
-1.168846
 20
-0.370516
  0
VERTEX
  8
PLAN_1
 62
     2
  6
CONTINUOUS
 10
-1.172228
 20
-0.370516
  0
VERTEX
  8
PLAN_1
 62
     2
  6
CONTINUOUS
 10
-1.174161
 20
-0.370516
  0
VERTEX
  8
PLAN_1
 62
     2
  6
CONTINUOUS
 10
-1.176091
 20
-0.371000
  0
VERTEX
  8
PLAN_1
 62
     2
  6
CONTINUOUS
 10
-1.178024
 20
-0.371480
  0
VERTEX
  8
PLAN_1
 62
     2
  6
CONTINUOUS
 10
-1.179472
 20
-0.371965
  0
VERTEX
  8
PLAN_1
 62
     2
  6
CONTINUOUS
 10
-1.181402
 20
-0.372929
  0
VERTEX
  8
PLAN_1
 62
     2
  6
CONTINUOUS
 10
-1.182850
 20
-0.374378
  0
VERTEX
  8
PLAN_1
 62
     2
  6
CONTINUOUS
 10
-1.184299
 20
-0.375827
  0
VERTEX
  8
PLAN_1
 62
     2
  6
CONTINUOUS
 10
-1.185748
 20
-0.377276
  0
VERTEX
  8
PLAN_1
 62
     2
  6
CONTINUOUS
 10
-1.193476
 20
-0.376791
  0
VERTEX
  8
PLAN_1
 62
     2
  6
CONTINUOUS
 10
-1.188165
 20
-0.337681
  0
VERTEX
  8
PLAN_1
 62
     2
  6
CONTINUOUS
 10
-1.150016
 20
-0.337681
  0
VERTEX
  8
PLAN_1
 62
     2
  6
CONTINUOUS
 10
-1.150016
 20
-0.346370
  0
VERTEX
  8
PLAN_1
 62
     2
  6
CONTINUOUS
 10
-1.180921
 20
-0.346370
  0
VERTEX
  8
PLAN_1
 62
     2
  6
CONTINUOUS
 10
-1.184299
 20
-0.366654
  0
SEQEND
  8
0
  0
POLYLINE
  8
PLAN_1
 62
     2
  6
CONTINUOUS
 66
     1
 40
0.003000
 41
0.003000
  0
VERTEX
  8
PLAN_1
 62
     2
  6
CONTINUOUS
 10
-1.137945
 20
-0.337681
  0
VERTEX
  8
PLAN_1
 62
     2
  6
CONTINUOUS
 10
-1.087240
 20
-0.337681
  0
VERTEX
  8
PLAN_1
 62
     2
  6
CONTINUOUS
 10
-1.087240
 20
-0.345890
  0
VERTEX
  8
PLAN_1
 62
     2
  6
CONTINUOUS
 10
-1.090622
 20
-0.349268
  0
VERTEX
  8
PLAN_1
 62
     2
  6
CONTINUOUS
 10
-1.094484
 20
-0.354098
  0
VERTEX
  8
PLAN_1
 62
     2
  6
CONTINUOUS
 10
-1.098831
 20
-0.360374
  0
VERTEX
  8
PLAN_1
 62
     2
  6
CONTINUOUS
 10
-1.103177
 20
-0.368102
  0
VERTEX
  8
PLAN_1
 62
     2
  6
CONTINUOUS
 10
-1.107520
 20
-0.376791
  0
VERTEX
  8
PLAN_1
 62
     2
  6
CONTINUOUS
 10
-1.111386
 20
-0.386453
  0
VERTEX
  8
PLAN_1
 62
     2
  6
CONTINUOUS
 10
-1.113315
 20
-0.391764
  0
VERTEX
  8
PLAN_1
 62
     2
  6
CONTINUOUS
 10
-1.114764
 20
-0.397559
  0
VERTEX
  8
PLAN_1
 62
     2
  6
CONTINUOUS
 10
-1.116213
 20
-0.403350
  0
VERTEX
  8
PLAN_1
 62
     2
  6
CONTINUOUS
 10
-1.117177
 20
-0.409146
  0
VERTEX
  8
PLAN_1
 62
     2
  6
CONTINUOUS
 10
-1.127319
 20
-0.409146
  0
VERTEX
  8
PLAN_1
 62
     2
  6
CONTINUOUS
 10
-1.125870
 20
-0.401421
  0
VERTEX
  8
PLAN_1
 62
     2
  6
CONTINUOUS
 10
-1.123457
 20
-0.393213
  0
VERTEX
  8
PLAN_1
 62
     2
  6
CONTINUOUS
 10
-1.120559
 20
-0.385004
  0
VERTEX
  8
PLAN_1
 62
     2
  6
CONTINUOUS
 10
-1.116697
 20
-0.376311
  0
VERTEX
  8
PLAN_1
 62
     2
  6
CONTINUOUS
 10
-1.112350
 20
-0.368102
  0
VERTEX
  8
PLAN_1
 62
     2
  6
CONTINUOUS
 10
-1.108004
 20
-0.360374
  0
VERTEX
  8
PLAN_1
 62
     2
  6
CONTINUOUS
 10
-1.102693
 20
-0.353130
  0
VERTEX
  8
PLAN_1
 62
     2
  6
CONTINUOUS
 10
-1.097382
 20
-0.346370
  0
VERTEX
  8
PLAN_1
 62
     2
  6
CONTINUOUS
 10
-1.137945
 20
-0.346370
  0
VERTEX
  8
PLAN_1
 62
     2
  6
CONTINUOUS
 10
-1.137945
 20
-0.337681
  0
SEQEND
  8
0
  0
POLYLINE
  8
PLAN_1
 62
     2
  6
CONTINUOUS
 66
     1
 40
0.003000
 41
0.003000
  0
VERTEX
  8
PLAN_1
 62
     2
  6
CONTINUOUS
 10
0.002157
 20
-0.189433
  0
VERTEX
  8
PLAN_1
 62
     2
  6
CONTINUOUS
 10
-0.007500
 20
-0.189433
  0
VERTEX
  8
PLAN_1
 62
     2
  6
CONTINUOUS
 10
-0.007500
 20
-0.137764
  0
VERTEX
  8
PLAN_1
 62
     2
  6
CONTINUOUS
 10
-0.024886
 20
-0.137764
  0
VERTEX
  8
PLAN_1
 62
     2
  6
CONTINUOUS
 10
-0.024886
 20
-0.130520
  0
VERTEX
  8
PLAN_1
 62
     2
  6
CONTINUOUS
 10
-0.020539
 20
-0.130035
  0
VERTEX
  8
PLAN_1
 62
     2
  6
CONTINUOUS
 10
-0.017161
 20
-0.129555
  0
VERTEX
  8
PLAN_1
 62
     2
  6
CONTINUOUS
 10
-0.014264
 20
-0.128591
  0
VERTEX
  8
PLAN_1
 62
     2
  6
CONTINUOUS
 10
-0.011366
 20
-0.127622
  0
VERTEX
  8
PLAN_1
 62
     2
  6
CONTINUOUS
 10
-0.009433
 20
-0.125693
  0
VERTEX
  8
PLAN_1
 62
     2
  6
CONTINUOUS
 10
-0.007500
 20
-0.123276
  0
VERTEX
  8
PLAN_1
 62
     2
  6
CONTINUOUS
 10
-0.006055
 20
-0.120378
  0
VERTEX
  8
PLAN_1
 62
     2
  6
CONTINUOUS
 10
-0.005087
 20
-0.116516
  0
VERTEX
  8
PLAN_1
 62
     2
  6
CONTINUOUS
 10
0.002157
 20
-0.116516
  0
VERTEX
  8
PLAN_1
 62
     2
  6
CONTINUOUS
 10
0.002157
 20
-0.189433
  0
SEQEND
  8
0
  0
POLYLINE
  8
PLAN_1
 62
     2
  6
CONTINUOUS
 66
     1
 40
0.003000
 41
0.003000
  0
VERTEX
  8
PLAN_1
 62
     2
  6
CONTINUOUS
 10
0.069760
 20
-0.142591
  0
VERTEX
  8
PLAN_1
 62
     2
  6
CONTINUOUS
 10
0.069760
 20
-0.177843
  0
VERTEX
  8
PLAN_1
 62
     2
  6
CONTINUOUS
 10
0.069760
 20
-0.179291
  0
VERTEX
  8
PLAN_1
 62
     2
  6
CONTINUOUS
 10
0.070244
 20
-0.180740
  0
VERTEX
  8
PLAN_1
 62
     2
  6
CONTINUOUS
 10
0.070724
 20
-0.181224
  0
VERTEX
  8
PLAN_1
 62
     2
  6
CONTINUOUS
 10
0.071693
 20
-0.181705
  0
VERTEX
  8
PLAN_1
 62
     2
  6
CONTINUOUS
 10
0.072657
 20
-0.182189
  0
VERTEX
  8
PLAN_1
 62
     2
  6
CONTINUOUS
 10
0.073622
 20
-0.182189
  0
VERTEX
  8
PLAN_1
 62
     2
  6
CONTINUOUS
 10
0.074106
 20
-0.182189
  0
VERTEX
  8
PLAN_1
 62
     2
  6
CONTINUOUS
 10
0.075071
 20
-0.182189
  0
VERTEX
  8
PLAN_1
 62
     2
  6
CONTINUOUS
 10
0.078453
 20
-0.182189
  0
VERTEX
  8
PLAN_1
 62
     2
  6
CONTINUOUS
 10
0.078453
 20
-0.189433
  0
VERTEX
  8
PLAN_1
 62
     2
  6
CONTINUOUS
 10
0.077004
 20
-0.189433
  0
VERTEX
  8
PLAN_1
 62
     2
  6
CONTINUOUS
 10
0.076039
 20
-0.189917
  0
VERTEX
  8
PLAN_1
 62
     2
  6
CONTINUOUS
 10
0.075071
 20
-0.189917
  0
VERTEX
  8
PLAN_1
 62
     2
  6
CONTINUOUS
 10
0.074106
 20
-0.189917
  0
VERTEX
  8
PLAN_1
 62
     2
  6
CONTINUOUS
 10
0.073142
 20
-0.189917
  0
VERTEX
  8
PLAN_1
 62
     2
  6
CONTINUOUS
 10
0.072657
 20
-0.190398
  0
VERTEX
  8
PLAN_1
 62
     2
  6
CONTINUOUS
 10
0.071693
 20
-0.190398
  0
VERTEX
  8
PLAN_1
 62
     2
  6
CONTINUOUS
 10
0.068311
 20
-0.189917
  0
VERTEX
  8
PLAN_1
 62
     2
  6
CONTINUOUS
 10
0.065898
 20
-0.189433
  0
VERTEX
  8
PLAN_1
 62
     2
  6
CONTINUOUS
 10
0.063965
 20
-0.188469
  0
VERTEX
  8
PLAN_1
 62
     2
  6
CONTINUOUS
 10
0.062516
 20
-0.187020
  0
VERTEX
  8
PLAN_1
 62
     2
  6
CONTINUOUS
 10
0.061551
 20
-0.185087
  0
VERTEX
  8
PLAN_1
 62
     2
  6
CONTINUOUS
 10
0.061067
 20
-0.183154
  0
VERTEX
  8
PLAN_1
 62
     2
  6
CONTINUOUS
 10
0.060587
 20
-0.180740
  0
VERTEX
  8
PLAN_1
 62
     2
  6
CONTINUOUS
 10
0.060587
 20
-0.178807
  0
VERTEX
  8
PLAN_1
 62
     2
  6
CONTINUOUS
 10
0.060587
 20
-0.142591
  0
VERTEX
  8
PLAN_1
 62
     2
  6
CONTINUOUS
 10
0.052858
 20
-0.142591
  0
VERTEX
  8
PLAN_1
 62
     2
  6
CONTINUOUS
 10
0.052858
 20
-0.134866
  0
VERTEX
  8
PLAN_1
 62
     2
  6
CONTINUOUS
 10
0.060587
 20
-0.134866
  0
VERTEX
  8
PLAN_1
 62
     2
  6
CONTINUOUS
 10
0.060587
 20
-0.119898
  0
VERTEX
  8
PLAN_1
 62
     2
  6
CONTINUOUS
 10
0.069760
 20
-0.119898
  0
VERTEX
  8
PLAN_1
 62
     2
  6
CONTINUOUS
 10
0.069760
 20
-0.134866
  0
VERTEX
  8
PLAN_1
 62
     2
  6
CONTINUOUS
 10
0.078453
 20
-0.134866
  0
VERTEX
  8
PLAN_1
 62
     2
  6
CONTINUOUS
 10
0.078453
 20
-0.142591
  0
VERTEX
  8
PLAN_1
 62
     2
  6
CONTINUOUS
 10
0.069760
 20
-0.142591
  0
SEQEND
  8
0
  0
POLYLINE
  8
PLAN_1
 62
     2
  6
CONTINUOUS
 66
     1
 40
0.003000
 41
0.003000
  0
VERTEX
  8
PLAN_1
 62
     2
  6
CONTINUOUS
 10
0.097768
 20
-0.189433
  0
VERTEX
  8
PLAN_1
 62
     2
  6
CONTINUOUS
 10
0.088594
 20
-0.189433
  0
VERTEX
  8
PLAN_1
 62
     2
  6
CONTINUOUS
 10
0.088594
 20
-0.134866
  0
VERTEX
  8
PLAN_1
 62
     2
  6
CONTINUOUS
 10
0.097283
 20
-0.134866
  0
VERTEX
  8
PLAN_1
 62
     2
  6
CONTINUOUS
 10
0.097283
 20
-0.144039
  0
VERTEX
  8
PLAN_1
 62
     2
  6
CONTINUOUS
 10
0.098732
 20
-0.142110
  0
VERTEX
  8
PLAN_1
 62
     2
  6
CONTINUOUS
 10
0.100181
 20
-0.139697
  0
VERTEX
  8
PLAN_1
 62
     2
  6
CONTINUOUS
 10
0.102114
 20
-0.138248
  0
VERTEX
  8
PLAN_1
 62
     2
  6
CONTINUOUS
 10
0.104047
 20
-0.136315
  0
VERTEX
  8
PLAN_1
 62
     2
  6
CONTINUOUS
 10
0.105976
 20
-0.135350
  0
VERTEX
  8
PLAN_1
 62
     2
  6
CONTINUOUS
 10
0.107909
 20
-0.134382
  0
VERTEX
  8
PLAN_1
 62
     2
  6
CONTINUOUS
 10
0.110323
 20
-0.133902
  0
VERTEX
  8
PLAN_1
 62
     2
  6
CONTINUOUS
 10
0.112736
 20
-0.133417
  0
VERTEX
  8
PLAN_1
 62
     2
  6
CONTINUOUS
 10
0.113220
 20
-0.133417
  0
VERTEX
  8
PLAN_1
 62
     2
  6
CONTINUOUS
 10
0.113705
 20
-0.133417
  0
VERTEX
  8
PLAN_1
 62
     2
  6
CONTINUOUS
 10
0.114185
 20
-0.133417
  0
VERTEX
  8
PLAN_1
 62
     2
  6
CONTINUOUS
 10
0.114185
 20
-0.133902
  0
VERTEX
  8
PLAN_1
 62
     2
  6
CONTINUOUS
 10
0.114669
 20
-0.133902
  0
VERTEX
  8
PLAN_1
 62
     2
  6
CONTINUOUS
 10
0.115154
 20
-0.133902
  0
VERTEX
  8
PLAN_1
 62
     2
  6
CONTINUOUS
 10
0.115154
 20
-0.143075
  0
VERTEX
  8
PLAN_1
 62
     2
  6
CONTINUOUS
 10
0.111772
 20
-0.143075
  0
VERTEX
  8
PLAN_1
 62
     2
  6
CONTINUOUS
 10
0.108390
 20
-0.143559
  0
VERTEX
  8
PLAN_1
 62
     2
  6
CONTINUOUS
 10
0.105976
 20
-0.144524
  0
VERTEX
  8
PLAN_1
 62
     2
  6
CONTINUOUS
 10
0.103563
 20
-0.145972
  0
VERTEX
  8
PLAN_1
 62
     2
  6
CONTINUOUS
 10
0.101630
 20
-0.147421
  0
VERTEX
  8
PLAN_1
 62
     2
  6
CONTINUOUS
 10
0.099701
 20
-0.149835
  0
VERTEX
  8
PLAN_1
 62
     2
  6
CONTINUOUS
 10
0.098732
 20
-0.152252
  0
VERTEX
  8
PLAN_1
 62
     2
  6
CONTINUOUS
 10
0.097768
 20
-0.155146
  0
VERTEX
  8
PLAN_1
 62
     2
  6
CONTINUOUS
 10
0.097768
 20
-0.158043
  0
VERTEX
  8
PLAN_1
 62
     2
  6
CONTINUOUS
 10
0.097768
 20
-0.189433
  0
SEQEND
  8
0
  0
POLYLINE
  8
PLAN_1
 62
     2
  6
CONTINUOUS
 66
     1
 40
0.003000
 41
0.003000
  0
VERTEX
  8
PLAN_1
 62
     2
  6
CONTINUOUS
 10
0.144126
 20
-0.133417
  0
VERTEX
  8
PLAN_1
 62
     2
  6
CONTINUOUS
 10
0.147024
 20
-0.133902
  0
VERTEX
  8
PLAN_1
 62
     2
  6
CONTINUOUS
 10
0.150402
 20
-0.134382
  0
VERTEX
  8
PLAN_1
 62
     2
  6
CONTINUOUS
 10
0.152819
 20
-0.134866
  0
VERTEX
  8
PLAN_1
 62
     2
  6
CONTINUOUS
 10
0.155232
 20
-0.135831
  0
VERTEX
  8
PLAN_1
 62
     2
  6
CONTINUOUS
 10
0.157646
 20
-0.137280
  0
VERTEX
  8
PLAN_1
 62
     2
  6
CONTINUOUS
 10
0.159579
 20
-0.138728
  0
VERTEX
  8
PLAN_1
 62
     2
  6
CONTINUOUS
 10
0.161508
 20
-0.140661
  0
VERTEX
  8
PLAN_1
 62
     2
  6
CONTINUOUS
 10
0.163441
 20
-0.142591
  0
VERTEX
  8
PLAN_1
 62
     2
  6
CONTINUOUS
 10
0.165854
 20
-0.146937
  0
VERTEX
  8
PLAN_1
 62
     2
  6
CONTINUOUS
 10
0.167787
 20
-0.151768
  0
VERTEX
  8
PLAN_1
 62
     2
  6
CONTINUOUS
 10
0.169236
 20
-0.157079
  0
VERTEX
  8
PLAN_1
 62
     2
  6
CONTINUOUS
 10
0.169236
 20
-0.162390
  0
VERTEX
  8
PLAN_1
 62
     2
  6
CONTINUOUS
 10
0.169236
 20
-0.167701
  0
VERTEX
  8
PLAN_1
 62
     2
  6
CONTINUOUS
 10
0.167787
 20
-0.172531
  0
VERTEX
  8
PLAN_1
 62
     2
  6
CONTINUOUS
 10
0.165854
 20
-0.177362
  0
VERTEX
  8
PLAN_1
 62
     2
  6
CONTINUOUS
 10
0.163441
 20
-0.181705
  0
VERTEX
  8
PLAN_1
 62
     2
  6
CONTINUOUS
 10
0.161508
 20
-0.183638
  0
VERTEX
  8
PLAN_1
 62
     2
  6
CONTINUOUS
 10
0.159579
 20
-0.185571
  0
VERTEX
  8
PLAN_1
 62
     2
  6
CONTINUOUS
 10
0.157646
 20
-0.187020
  0
VERTEX
  8
PLAN_1
 62
     2
  6
CONTINUOUS
 10
0.155232
 20
-0.188469
  0
VERTEX
  8
PLAN_1
 62
     2
  6
CONTINUOUS
 10
0.152819
 20
-0.189433
  0
VERTEX
  8
PLAN_1
 62
     2
  6
CONTINUOUS
 10
0.150402
 20
-0.190398
  0
VERTEX
  8
PLAN_1
 62
     2
  6
CONTINUOUS
 10
0.147024
 20
-0.190882
  0
VERTEX
  8
PLAN_1
 62
     2
  6
CONTINUOUS
 10
0.144126
 20
-0.190882
  0
VERTEX
  8
PLAN_1
 62
     2
  6
CONTINUOUS
 10
0.140744
 20
-0.190882
  0
VERTEX
  8
PLAN_1
 62
     2
  6
CONTINUOUS
 10
0.137846
 20
-0.190398
  0
VERTEX
  8
PLAN_1
 62
     2
  6
CONTINUOUS
 10
0.135433
 20
-0.189433
  0
VERTEX
  8
PLAN_1
 62
     2
  6
CONTINUOUS
 10
0.133020
 20
-0.188469
  0
VERTEX
  8
PLAN_1
 62
     2
  6
CONTINUOUS
 10
0.130602
 20
-0.187020
  0
VERTEX
  8
PLAN_1
 62
     2
  6
CONTINUOUS
 10
0.128673
 20
-0.185571
  0
VERTEX
  8
PLAN_1
 62
     2
  6
CONTINUOUS
 10
0.126740
 20
-0.183638
  0
VERTEX
  8
PLAN_1
 62
     2
  6
CONTINUOUS
 10
0.124811
 20
-0.181705
  0
VERTEX
  8
PLAN_1
 62
     2
  6
CONTINUOUS
 10
0.122394
 20
-0.177362
  0
VERTEX
  8
PLAN_1
 62
     2
  6
CONTINUOUS
 10
0.120465
 20
-0.172531
  0
VERTEX
  8
PLAN_1
 62
     2
  6
CONTINUOUS
 10
0.119016
 20
-0.167701
  0
VERTEX
  8
PLAN_1
 62
     2
  6
CONTINUOUS
 10
0.119016
 20
-0.162390
  0
VERTEX
  8
PLAN_1
 62
     2
  6
CONTINUOUS
 10
0.119016
 20
-0.157079
  0
VERTEX
  8
PLAN_1
 62
     2
  6
CONTINUOUS
 10
0.120465
 20
-0.151768
  0
VERTEX
  8
PLAN_1
 62
     2
  6
CONTINUOUS
 10
0.122394
 20
-0.146937
  0
VERTEX
  8
PLAN_1
 62
     2
  6
CONTINUOUS
 10
0.124811
 20
-0.142591
  0
VERTEX
  8
PLAN_1
 62
     2
  6
CONTINUOUS
 10
0.126740
 20
-0.140661
  0
VERTEX
  8
PLAN_1
 62
     2
  6
CONTINUOUS
 10
0.128673
 20
-0.138728
  0
VERTEX
  8
PLAN_1
 62
     2
  6
CONTINUOUS
 10
0.130602
 20
-0.137280
  0
VERTEX
  8
PLAN_1
 62
     2
  6
CONTINUOUS
 10
0.133020
 20
-0.135831
  0
VERTEX
  8
PLAN_1
 62
     2
  6
CONTINUOUS
 10
0.135433
 20
-0.134866
  0
VERTEX
  8
PLAN_1
 62
     2
  6
CONTINUOUS
 10
0.137846
 20
-0.134382
  0
VERTEX
  8
PLAN_1
 62
     2
  6
CONTINUOUS
 10
0.140744
 20
-0.133902
  0
VERTEX
  8
PLAN_1
 62
     2
  6
CONTINUOUS
 10
0.144126
 20
-0.133417
  0
SEQEND
  8
0
  0
POLYLINE
  8
PLAN_1
 62
     2
  6
CONTINUOUS
 66
     1
 40
0.003000
 41
0.003000
  0
VERTEX
  8
PLAN_1
 62
     2
  6
CONTINUOUS
 10
0.144126
 20
-0.183154
  0
VERTEX
  8
PLAN_1
 62
     2
  6
CONTINUOUS
 10
0.146539
 20
-0.182673
  0
VERTEX
  8
PLAN_1
 62
     2
  6
CONTINUOUS
 10
0.148472
 20
-0.182673
  0
VERTEX
  8
PLAN_1
 62
     2
  6
CONTINUOUS
 10
0.150402
 20
-0.181705
  0
VERTEX
  8
PLAN_1
 62
     2
  6
CONTINUOUS
 10
0.152335
 20
-0.180740
  0
VERTEX
  8
PLAN_1
 62
     2
  6
CONTINUOUS
 10
0.154748
 20
-0.178327
  0
VERTEX
  8
PLAN_1
 62
     2
  6
CONTINUOUS
 10
0.156681
 20
-0.175429
  0
VERTEX
  8
PLAN_1
 62
     2
  6
CONTINUOUS
 10
0.158130
 20
-0.172047
  0
VERTEX
  8
PLAN_1
 62
     2
  6
CONTINUOUS
 10
0.159094
 20
-0.168669
  0
VERTEX
  8
PLAN_1
 62
     2
  6
CONTINUOUS
 10
0.159579
 20
-0.165287
  0
VERTEX
  8
PLAN_1
 62
     2
  6
CONTINUOUS
 10
0.160059
 20
-0.162390
  0
VERTEX
  8
PLAN_1
 62
     2
  6
CONTINUOUS
 10
0.159579
 20
-0.159492
  0
VERTEX
  8
PLAN_1
 62
     2
  6
CONTINUOUS
 10
0.159094
 20
-0.156114
  0
VERTEX
  8
PLAN_1
 62
     2
  6
CONTINUOUS
 10
0.158130
 20
-0.152252
  0
VERTEX
  8
PLAN_1
 62
     2
  6
CONTINUOUS
 10
0.156681
 20
-0.149354
  0
VERTEX
  8
PLAN_1
 62
     2
  6
CONTINUOUS
 10
0.154748
 20
-0.145972
  0
VERTEX
  8
PLAN_1
 62
     2
  6
CONTINUOUS
 10
0.152335
 20
-0.143559
  0
VERTEX
  8
PLAN_1
 62
     2
  6
CONTINUOUS
 10
0.150402
 20
-0.142591
  0
VERTEX
  8
PLAN_1
 62
     2
  6
CONTINUOUS
 10
0.148472
 20
-0.142110
  0
VERTEX
  8
PLAN_1
 62
     2
  6
CONTINUOUS
 10
0.146539
 20
-0.141626
  0
VERTEX
  8
PLAN_1
 62
     2
  6
CONTINUOUS
 10
0.144126
 20
-0.141626
  0
VERTEX
  8
PLAN_1
 62
     2
  6
CONTINUOUS
 10
0.141709
 20
-0.141626
  0
VERTEX
  8
PLAN_1
 62
     2
  6
CONTINUOUS
 10
0.139780
 20
-0.142110
  0
VERTEX
  8
PLAN_1
 62
     2
  6
CONTINUOUS
 10
0.137846
 20
-0.142591
  0
VERTEX
  8
PLAN_1
 62
     2
  6
CONTINUOUS
 10
0.135917
 20
-0.143559
  0
VERTEX
  8
PLAN_1
 62
     2
  6
CONTINUOUS
 10
0.133500
 20
-0.145972
  0
VERTEX
  8
PLAN_1
 62
     2
  6
CONTINUOUS
 10
0.131087
 20
-0.149354
  0
VERTEX
  8
PLAN_1
 62
     2
  6
CONTINUOUS
 10
0.129638
 20
-0.152252
  0
VERTEX
  8
PLAN_1
 62
     2
  6
CONTINUOUS
 10
0.128673
 20
-0.156114
  0
VERTEX
  8
PLAN_1
 62
     2
  6
CONTINUOUS
 10
0.128189
 20
-0.159492
  0
VERTEX
  8
PLAN_1
 62
     2
  6
CONTINUOUS
 10
0.128189
 20
-0.162390
  0
VERTEX
  8
PLAN_1
 62
     2
  6
CONTINUOUS
 10
0.128189
 20
-0.165287
  0
VERTEX
  8
PLAN_1
 62
     2
  6
CONTINUOUS
 10
0.128673
 20
-0.168669
  0
VERTEX
  8
PLAN_1
 62
     2
  6
CONTINUOUS
 10
0.129638
 20
-0.172047
  0
VERTEX
  8
PLAN_1
 62
     2
  6
CONTINUOUS
 10
0.131087
 20
-0.175429
  0
VERTEX
  8
PLAN_1
 62
     2
  6
CONTINUOUS
 10
0.133500
 20
-0.178327
  0
VERTEX
  8
PLAN_1
 62
     2
  6
CONTINUOUS
 10
0.135917
 20
-0.180740
  0
VERTEX
  8
PLAN_1
 62
     2
  6
CONTINUOUS
 10
0.137846
 20
-0.181705
  0
VERTEX
  8
PLAN_1
 62
     2
  6
CONTINUOUS
 10
0.139780
 20
-0.182673
  0
VERTEX
  8
PLAN_1
 62
     2
  6
CONTINUOUS
 10
0.141709
 20
-0.182673
  0
VERTEX
  8
PLAN_1
 62
     2
  6
CONTINUOUS
 10
0.144126
 20
-0.183154
  0
SEQEND
  8
0
  0
POLYLINE
  8
PLAN_1
 62
     2
  6
CONTINUOUS
 66
     1
 40
0.003000
 41
0.003000
  0
VERTEX
  8
PLAN_1
 62
     2
  6
CONTINUOUS
 10
0.215110
 20
-0.189433
  0
VERTEX
  8
PLAN_1
 62
     2
  6
CONTINUOUS
 10
0.215110
 20
-0.181705
  0
VERTEX
  8
PLAN_1
 62
     2
  6
CONTINUOUS
 10
0.215110
 20
-0.181224
  0
VERTEX
  8
PLAN_1
 62
     2
  6
CONTINUOUS
 10
0.213661
 20
-0.183638
  0
VERTEX
  8
PLAN_1
 62
     2
  6
CONTINUOUS
 10
0.212213
 20
-0.185571
  0
VERTEX
  8
PLAN_1
 62
     2
  6
CONTINUOUS
 10
0.210280
 20
-0.187020
  0
VERTEX
  8
PLAN_1
 62
     2
  6
CONTINUOUS
 10
0.208350
 20
-0.188469
  0
VERTEX
  8
PLAN_1
 62
     2
  6
CONTINUOUS
 10
0.205933
 20
-0.189917
  0
VERTEX
  8
PLAN_1
 62
     2
  6
CONTINUOUS
 10
0.203520
 20
-0.190398
  0
VERTEX
  8
PLAN_1
 62
     2
  6
CONTINUOUS
 10
0.201106
 20
-0.190882
  0
VERTEX
  8
PLAN_1
 62
     2
  6
CONTINUOUS
 10
0.197724
 20
-0.190882
  0
VERTEX
  8
PLAN_1
 62
     2
  6
CONTINUOUS
 10
0.194827
 20
-0.190882
  0
VERTEX
  8
PLAN_1
 62
     2
  6
CONTINUOUS
 10
0.191449
 20
-0.190398
  0
VERTEX
  8
PLAN_1
 62
     2
  6
CONTINUOUS
 10
0.188551
 20
-0.188949
  0
VERTEX
  8
PLAN_1
 62
     2
  6
CONTINUOUS
 10
0.186138
 20
-0.187500
  0
VERTEX
  8
PLAN_1
 62
     2
  6
CONTINUOUS
 10
0.183720
 20
-0.185087
  0
VERTEX
  8
PLAN_1
 62
     2
  6
CONTINUOUS
 10
0.181791
 20
-0.182189
  0
VERTEX
  8
PLAN_1
 62
     2
  6
CONTINUOUS
 10
0.180343
 20
-0.178807
  0
VERTEX
  8
PLAN_1
 62
     2
  6
CONTINUOUS
 10
0.180343
 20
-0.173980
  0
VERTEX
  8
PLAN_1
 62
     2
  6
CONTINUOUS
 10
0.180343
 20
-0.134866
  0
VERTEX
  8
PLAN_1
 62
     2
  6
CONTINUOUS
 10
0.189516
 20
-0.134866
  0
VERTEX
  8
PLAN_1
 62
     2
  6
CONTINUOUS
 10
0.189516
 20
-0.171083
  0
VERTEX
  8
PLAN_1
 62
     2
  6
CONTINUOUS
 10
0.189516
 20
-0.174465
  0
VERTEX
  8
PLAN_1
 62
     2
  6
CONTINUOUS
 10
0.190000
 20
-0.176878
  0
VERTEX
  8
PLAN_1
 62
     2
  6
CONTINUOUS
 10
0.190965
 20
-0.178807
  0
VERTEX
  8
PLAN_1
 62
     2
  6
CONTINUOUS
 10
0.192413
 20
-0.180740
  0
VERTEX
  8
PLAN_1
 62
     2
  6
CONTINUOUS
 10
0.193862
 20
-0.181705
  0
VERTEX
  8
PLAN_1
 62
     2
  6
CONTINUOUS
 10
0.195795
 20
-0.182673
  0
VERTEX
  8
PLAN_1
 62
     2
  6
CONTINUOUS
 10
0.197724
 20
-0.183154
  0
VERTEX
  8
PLAN_1
 62
     2
  6
CONTINUOUS
 10
0.199657
 20
-0.183154
  0
VERTEX
  8
PLAN_1
 62
     2
  6
CONTINUOUS
 10
0.203520
 20
-0.182673
  0
VERTEX
  8
PLAN_1
 62
     2
  6
CONTINUOUS
 10
0.206902
 20
-0.181224
  0
VERTEX
  8
PLAN_1
 62
     2
  6
CONTINUOUS
 10
0.209799
 20
-0.179291
  0
VERTEX
  8
PLAN_1
 62
     2
  6
CONTINUOUS
 10
0.211728
 20
-0.176878
  0
VERTEX
  8
PLAN_1
 62
     2
  6
CONTINUOUS
 10
0.213177
 20
-0.174465
  0
VERTEX
  8
PLAN_1
 62
     2
  6
CONTINUOUS
 10
0.214146
 20
-0.171083
  0
VERTEX
  8
PLAN_1
 62
     2
  6
CONTINUOUS
 10
0.214626
 20
-0.168185
  0
VERTEX
  8
PLAN_1
 62
     2
  6
CONTINUOUS
 10
0.214626
 20
-0.165287
  0
VERTEX
  8
PLAN_1
 62
     2
  6
CONTINUOUS
 10
0.214626
 20
-0.134866
  0
VERTEX
  8
PLAN_1
 62
     2
  6
CONTINUOUS
 10
0.223803
 20
-0.134866
  0
VERTEX
  8
PLAN_1
 62
     2
  6
CONTINUOUS
 10
0.223803
 20
-0.189433
  0
VERTEX
  8
PLAN_1
 62
     2
  6
CONTINUOUS
 10
0.215110
 20
-0.189433
  0
SEQEND
  8
0
  0
POLYLINE
  8
PLAN_1
 62
     2
  6
CONTINUOUS
 66
     1
 40
0.003000
 41
0.003000
  0
VERTEX
  8
PLAN_1
 62
     2
  6
CONTINUOUS
 10
0.277886
 20
-0.142591
  0
VERTEX
  8
PLAN_1
 62
     2
  6
CONTINUOUS
 10
0.277886
 20
-0.177843
  0
VERTEX
  8
PLAN_1
 62
     2
  6
CONTINUOUS
 10
0.277886
 20
-0.179291
  0
VERTEX
  8
PLAN_1
 62
     2
  6
CONTINUOUS
 10
0.278366
 20
-0.180740
  0
VERTEX
  8
PLAN_1
 62
     2
  6
CONTINUOUS
 10
0.279335
 20
-0.181224
  0
VERTEX
  8
PLAN_1
 62
     2
  6
CONTINUOUS
 10
0.279815
 20
-0.181705
  0
VERTEX
  8
PLAN_1
 62
     2
  6
CONTINUOUS
 10
0.280783
 20
-0.182189
  0
VERTEX
  8
PLAN_1
 62
     2
  6
CONTINUOUS
 10
0.281748
 20
-0.182189
  0
VERTEX
  8
PLAN_1
 62
     2
  6
CONTINUOUS
 10
0.282713
 20
-0.182189
  0
VERTEX
  8
PLAN_1
 62
     2
  6
CONTINUOUS
 10
0.283197
 20
-0.182189
  0
VERTEX
  8
PLAN_1
 62
     2
  6
CONTINUOUS
 10
0.286579
 20
-0.182189
  0
VERTEX
  8
PLAN_1
 62
     2
  6
CONTINUOUS
 10
0.286579
 20
-0.189433
  0
VERTEX
  8
PLAN_1
 62
     2
  6
CONTINUOUS
 10
0.285610
 20
-0.189433
  0
VERTEX
  8
PLAN_1
 62
     2
  6
CONTINUOUS
 10
0.284161
 20
-0.189917
  0
VERTEX
  8
PLAN_1
 62
     2
  6
CONTINUOUS
 10
0.283197
 20
-0.189917
  0
VERTEX
  8
PLAN_1
 62
     2
  6
CONTINUOUS
 10
0.282232
 20
-0.189917
  0
VERTEX
  8
PLAN_1
 62
     2
  6
CONTINUOUS
 10
0.281264
 20
-0.189917
  0
VERTEX
  8
PLAN_1
 62
     2
  6
CONTINUOUS
 10
0.280783
 20
-0.190398
  0
VERTEX
  8
PLAN_1
 62
     2
  6
CONTINUOUS
 10
0.280299
 20
-0.190398
  0
VERTEX
  8
PLAN_1
 62
     2
  6
CONTINUOUS
 10
0.279815
 20
-0.190398
  0
VERTEX
  8
PLAN_1
 62
     2
  6
CONTINUOUS
 10
0.276921
 20
-0.189917
  0
VERTEX
  8
PLAN_1
 62
     2
  6
CONTINUOUS
 10
0.274024
 20
-0.189433
  0
VERTEX
  8
PLAN_1
 62
     2
  6
CONTINUOUS
 10
0.272091
 20
-0.188469
  0
VERTEX
  8
PLAN_1
 62
     2
  6
CONTINUOUS
 10
0.270642
 20
-0.187020
  0
VERTEX
  8
PLAN_1
 62
     2
  6
CONTINUOUS
 10
0.269677
 20
-0.185087
  0
VERTEX
  8
PLAN_1
 62
     2
  6
CONTINUOUS
 10
0.269193
 20
-0.183154
  0
VERTEX
  8
PLAN_1
 62
     2
  6
CONTINUOUS
 10
0.268709
 20
-0.180740
  0
VERTEX
  8
PLAN_1
 62
     2
  6
CONTINUOUS
 10
0.268709
 20
-0.178807
  0
VERTEX
  8
PLAN_1
 62
     2
  6
CONTINUOUS
 10
0.268709
 20
-0.142591
  0
VERTEX
  8
PLAN_1
 62
     2
  6
CONTINUOUS
 10
0.261469
 20
-0.142591
  0
VERTEX
  8
PLAN_1
 62
     2
  6
CONTINUOUS
 10
0.261469
 20
-0.134866
  0
VERTEX
  8
PLAN_1
 62
     2
  6
CONTINUOUS
 10
0.268709
 20
-0.134866
  0
VERTEX
  8
PLAN_1
 62
     2
  6
CONTINUOUS
 10
0.268709
 20
-0.119898
  0
VERTEX
  8
PLAN_1
 62
     2
  6
CONTINUOUS
 10
0.277886
 20
-0.119898
  0
VERTEX
  8
PLAN_1
 62
     2
  6
CONTINUOUS
 10
0.277886
 20
-0.134866
  0
VERTEX
  8
PLAN_1
 62
     2
  6
CONTINUOUS
 10
0.286579
 20
-0.134866
  0
VERTEX
  8
PLAN_1
 62
     2
  6
CONTINUOUS
 10
0.286579
 20
-0.142591
  0
VERTEX
  8
PLAN_1
 62
     2
  6
CONTINUOUS
 10
0.277886
 20
-0.142591
  0
SEQEND
  8
0
  0
POLYLINE
  8
PLAN_1
 62
     2
  6
CONTINUOUS
 66
     1
 40
0.003000
 41
0.003000
  0
VERTEX
  8
PLAN_1
 62
     2
  6
CONTINUOUS
 10
0.295268
 20
-0.151768
  0
VERTEX
  8
PLAN_1
 62
     2
  6
CONTINUOUS
 10
0.295752
 20
-0.146937
  0
VERTEX
  8
PLAN_1
 62
     2
  6
CONTINUOUS
 10
0.297201
 20
-0.143559
  0
VERTEX
  8
PLAN_1
 62
     2
  6
CONTINUOUS
 10
0.299134
 20
-0.140177
  0
VERTEX
  8
PLAN_1
 62
     2
  6
CONTINUOUS
 10
0.301547
 20
-0.137764
  0
VERTEX
  8
PLAN_1
 62
     2
  6
CONTINUOUS
 10
0.304925
 20
-0.135831
  0
VERTEX
  8
PLAN_1
 62
     2
  6
CONTINUOUS
 10
0.308791
 20
-0.134382
  0
VERTEX
  8
PLAN_1
 62
     2
  6
CONTINUOUS
 10
0.313138
 20
-0.133902
  0
VERTEX
  8
PLAN_1
 62
     2
  6
CONTINUOUS
 10
0.317965
 20
-0.133417
  0
VERTEX
  8
PLAN_1
 62
     2
  6
CONTINUOUS
 10
0.319898
 20
-0.133417
  0
VERTEX
  8
PLAN_1
 62
     2
  6
CONTINUOUS
 10
0.322795
 20
-0.133902
  0
VERTEX
  8
PLAN_1
 62
     2
  6
CONTINUOUS
 10
0.326173
 20
-0.134866
  0
VERTEX
  8
PLAN_1
 62
     2
  6
CONTINUOUS
 10
0.329555
 20
-0.135831
  0
VERTEX
  8
PLAN_1
 62
     2
  6
CONTINUOUS
 10
0.332453
 20
-0.137764
  0
VERTEX
  8
PLAN_1
 62
     2
  6
CONTINUOUS
 10
0.335350
 20
-0.140661
  0
VERTEX
  8
PLAN_1
 62
     2
  6
CONTINUOUS
 10
0.336315
 20
-0.142110
  0
VERTEX
  8
PLAN_1
 62
     2
  6
CONTINUOUS
 10
0.337280
 20
-0.144039
  0
VERTEX
  8
PLAN_1
 62
     2
  6
CONTINUOUS
 10
0.337764
 20
-0.146457
  0
VERTEX
  8
PLAN_1
 62
     2
  6
CONTINUOUS
 10
0.337764
 20
-0.148870
  0
VERTEX
  8
PLAN_1
 62
     2
  6
CONTINUOUS
 10
0.337764
 20
-0.180256
  0
VERTEX
  8
PLAN_1
 62
     2
  6
CONTINUOUS
 10
0.337764
 20
-0.180740
  0
VERTEX
  8
PLAN_1
 62
     2
  6
CONTINUOUS
 10
0.338248
 20
-0.181705
  0
VERTEX
  8
PLAN_1
 62
     2
  6
CONTINUOUS
 10
0.338248
 20
-0.182189
  0
VERTEX
  8
PLAN_1
 62
     2
  6
CONTINUOUS
 10
0.338728
 20
-0.182673
  0
VERTEX
  8
PLAN_1
 62
     2
  6
CONTINUOUS
 10
0.339213
 20
-0.182673
  0
VERTEX
  8
PLAN_1
 62
     2
  6
CONTINUOUS
 10
0.339693
 20
-0.183154
  0
VERTEX
  8
PLAN_1
 62
     2
  6
CONTINUOUS
 10
0.340177
 20
-0.183154
  0
VERTEX
  8
PLAN_1
 62
     2
  6
CONTINUOUS
 10
0.341142
 20
-0.183154
  0
VERTEX
  8
PLAN_1
 62
     2
  6
CONTINUOUS
 10
0.341626
 20
-0.183154
  0
VERTEX
  8
PLAN_1
 62
     2
  6
CONTINUOUS
 10
0.342110
 20
-0.183154
  0
VERTEX
  8
PLAN_1
 62
     2
  6
CONTINUOUS
 10
0.342591
 20
-0.183154
  0
VERTEX
  8
PLAN_1
 62
     2
  6
CONTINUOUS
 10
0.343075
 20
-0.183154
  0
VERTEX
  8
PLAN_1
 62
     2
  6
CONTINUOUS
 10
0.343559
 20
-0.183154
  0
VERTEX
  8
PLAN_1
 62
     2
  6
CONTINUOUS
 10
0.344039
 20
-0.182673
  0
VERTEX
  8
PLAN_1
 62
     2
  6
CONTINUOUS
 10
0.344039
 20
-0.189433
  0
VERTEX
  8
PLAN_1
 62
     2
  6
CONTINUOUS
 10
0.343559
 20
-0.189433
  0
VERTEX
  8
PLAN_1
 62
     2
  6
CONTINUOUS
 10
0.342591
 20
-0.189917
  0
VERTEX
  8
PLAN_1
 62
     2
  6
CONTINUOUS
 10
0.342110
 20
-0.189917
  0
VERTEX
  8
PLAN_1
 62
     2
  6
CONTINUOUS
 10
0.341626
 20
-0.190398
  0
VERTEX
  8
PLAN_1
 62
     2
  6
CONTINUOUS
 10
0.341142
 20
-0.190398
  0
VERTEX
  8
PLAN_1
 62
     2
  6
CONTINUOUS
 10
0.340177
 20
-0.190398
  0
VERTEX
  8
PLAN_1
 62
     2
  6
CONTINUOUS
 10
0.339693
 20
-0.190398
  0
VERTEX
  8
PLAN_1
 62
     2
  6
CONTINUOUS
 10
0.338728
 20
-0.190398
  0
VERTEX
  8
PLAN_1
 62
     2
  6
CONTINUOUS
 10
0.336315
 20
-0.190398
  0
VERTEX
  8
PLAN_1
 62
     2
  6
CONTINUOUS
 10
0.333902
 20
-0.189917
  0
VERTEX
  8
PLAN_1
 62
     2
  6
CONTINUOUS
 10
0.332453
 20
-0.188949
  0
VERTEX
  8
PLAN_1
 62
     2
  6
CONTINUOUS
 10
0.331004
 20
-0.187984
  0
VERTEX
  8
PLAN_1
 62
     2
  6
CONTINUOUS
 10
0.330520
 20
-0.186535
  0
VERTEX
  8
PLAN_1
 62
     2
  6
CONTINUOUS
 10
0.329555
 20
-0.185087
  0
VERTEX
  8
PLAN_1
 62
     2
  6
CONTINUOUS
 10
0.329555
 20
-0.183638
  0
VERTEX
  8
PLAN_1
 62
     2
  6
CONTINUOUS
 10
0.329071
 20
-0.182189
  0
VERTEX
  8
PLAN_1
 62
     2
  6
CONTINUOUS
 10
0.327622
 20
-0.183638
  0
VERTEX
  8
PLAN_1
 62
     2
  6
CONTINUOUS
 10
0.326173
 20
-0.185087
  0
VERTEX
  8
PLAN_1
 62
     2
  6
CONTINUOUS
 10
0.324244
 20
-0.186535
  0
VERTEX
  8
PLAN_1
 62
     2
  6
CONTINUOUS
 10
0.322311
 20
-0.187984
  0
VERTEX
  8
PLAN_1
 62
     2
  6
CONTINUOUS
 10
0.319413
 20
-0.189433
  0
VERTEX
  8
PLAN_1
 62
     2
  6
CONTINUOUS
 10
0.316516
 20
-0.190398
  0
VERTEX
  8
PLAN_1
 62
     2
  6
CONTINUOUS
 10
0.313138
 20
-0.190882
  0
VERTEX
  8
PLAN_1
 62
     2
  6
CONTINUOUS
 10
0.309756
 20
-0.190882
  0
VERTEX
  8
PLAN_1
 62
     2
  6
CONTINUOUS
 10
0.305894
 20
-0.190882
  0
VERTEX
  8
PLAN_1
 62
     2
  6
CONTINUOUS
 10
0.302512
 20
-0.189917
  0
VERTEX
  8
PLAN_1
 62
     2
  6
CONTINUOUS
 10
0.299614
 20
-0.188469
  0
VERTEX
  8
PLAN_1
 62
     2
  6
CONTINUOUS
 10
0.297201
 20
-0.186535
  0
VERTEX
  8
PLAN_1
 62
     2
  6
CONTINUOUS
 10
0.295268
 20
-0.184602
  0
VERTEX
  8
PLAN_1
 62
     2
  6
CONTINUOUS
 10
0.293819
 20
-0.181705
  0
VERTEX
  8
PLAN_1
 62
     2
  6
CONTINUOUS
 10
0.292854
 20
-0.178807
  0
VERTEX
  8
PLAN_1
 62
     2
  6
CONTINUOUS
 10
0.292370
 20
-0.175429
  0
VERTEX
  8
PLAN_1
 62
     2
  6
CONTINUOUS
 10
0.292854
 20
-0.173496
  0
VERTEX
  8
PLAN_1
 62
     2
  6
CONTINUOUS
 10
0.292854
 20
-0.171083
  0
VERTEX
  8
PLAN_1
 62
     2
  6
CONTINUOUS
 10
0.293819
 20
-0.168669
  0
VERTEX
  8
PLAN_1
 62
     2
  6
CONTINUOUS
 10
0.295268
 20
-0.165772
  0
VERTEX
  8
PLAN_1
 62
     2
  6
CONTINUOUS
 10
0.297201
 20
-0.163358
  0
VERTEX
  8
PLAN_1
 62
     2
  6
CONTINUOUS
 10
0.300098
 20
-0.160941
  0
VERTEX
  8
PLAN_1
 62
     2
  6
CONTINUOUS
 10
0.303961
 20
-0.159492
  0
VERTEX
  8
PLAN_1
 62
     2
  6
CONTINUOUS
 10
0.309272
 20
-0.158528
  0
VERTEX
  8
PLAN_1
 62
     2
  6
CONTINUOUS
 10
0.324244
 20
-0.156594
  0
VERTEX
  8
PLAN_1
 62
     2
  6
CONTINUOUS
 10
0.325209
 20
-0.156114
  0
VERTEX
  8
PLAN_1
 62
     2
  6
CONTINUOUS
 10
0.325693
 20
-0.156114
  0
VERTEX
  8
PLAN_1
 62
     2
  6
CONTINUOUS
 10
0.326657
 20
-0.155630
  0
VERTEX
  8
PLAN_1
 62
     2
  6
CONTINUOUS
 10
0.327622
 20
-0.155146
  0
VERTEX
  8
PLAN_1
 62
     2
  6
CONTINUOUS
 10
0.328106
 20
-0.154181
  0
VERTEX
  8
PLAN_1
 62
     2
  6
CONTINUOUS
 10
0.328587
 20
-0.153217
  0
VERTEX
  8
PLAN_1
 62
     2
  6
CONTINUOUS
 10
0.329071
 20
-0.151768
  0
VERTEX
  8
PLAN_1
 62
     2
  6
CONTINUOUS
 10
0.329071
 20
-0.149835
  0
VERTEX
  8
PLAN_1
 62
     2
  6
CONTINUOUS
 10
0.328587
 20
-0.147906
  0
VERTEX
  8
PLAN_1
 62
     2
  6
CONTINUOUS
 10
0.328106
 20
-0.145972
  0
VERTEX
  8
PLAN_1
 62
     2
  6
CONTINUOUS
 10
0.327138
 20
-0.144524
  0
VERTEX
  8
PLAN_1
 62
     2
  6
CONTINUOUS
 10
0.325693
 20
-0.143559
  0
VERTEX
  8
PLAN_1
 62
     2
  6
CONTINUOUS
 10
0.324244
 20
-0.142591
  0
VERTEX
  8
PLAN_1
 62
     2
  6
CONTINUOUS
 10
0.321827
 20
-0.141626
  0
VERTEX
  8
PLAN_1
 62
     2
  6
CONTINUOUS
 10
0.319413
 20
-0.141146
  0
VERTEX
  8
PLAN_1
 62
     2
  6
CONTINUOUS
 10
0.316031
 20
-0.141146
  0
VERTEX
  8
PLAN_1
 62
     2
  6
CONTINUOUS
 10
0.312654
 20
-0.141626
  0
VERTEX
  8
PLAN_1
 62
     2
  6
CONTINUOUS
 10
0.309756
 20
-0.142110
  0
VERTEX
  8
PLAN_1
 62
     2
  6
CONTINUOUS
 10
0.307823
 20
-0.143559
  0
VERTEX
  8
PLAN_1
 62
     2
  6
CONTINUOUS
 10
0.306374
 20
-0.145008
  0
VERTEX
  8
PLAN_1
 62
     2
  6
CONTINUOUS
 10
0.305409
 20
-0.146457
  0
VERTEX
  8
PLAN_1
 62
     2
  6
CONTINUOUS
 10
0.304445
 20
-0.148386
  0
VERTEX
  8
PLAN_1
 62
     2
  6
CONTINUOUS
 10
0.303961
 20
-0.149835
  0
VERTEX
  8
PLAN_1
 62
     2
  6
CONTINUOUS
 10
0.303476
 20
-0.151768
  0
VERTEX
  8
PLAN_1
 62
     2
  6
CONTINUOUS
 10
0.295268
 20
-0.151768
  0
SEQEND
  8
0
  0
POLYLINE
  8
PLAN_1
 62
     2
  6
CONTINUOUS
 66
     1
 40
0.003000
 41
0.003000
  0
VERTEX
  8
PLAN_1
 62
     2
  6
CONTINUOUS
 10
0.328587
 20
-0.161909
  0
VERTEX
  8
PLAN_1
 62
     2
  6
CONTINUOUS
 10
0.328106
 20
-0.162390
  0
VERTEX
  8
PLAN_1
 62
     2
  6
CONTINUOUS
 10
0.327622
 20
-0.162390
  0
VERTEX
  8
PLAN_1
 62
     2
  6
CONTINUOUS
 10
0.326173
 20
-0.162874
  0
VERTEX
  8
PLAN_1
 62
     2
  6
CONTINUOUS
 10
0.324724
 20
-0.163358
  0
VERTEX
  8
PLAN_1
 62
     2
  6
CONTINUOUS
 10
0.323276
 20
-0.163839
  0
VERTEX
  8
PLAN_1
 62
     2
  6
CONTINUOUS
 10
0.320378
 20
-0.164323
  0
VERTEX
  8
PLAN_1
 62
     2
  6
CONTINUOUS
 10
0.317480
 20
-0.164807
  0
VERTEX
  8
PLAN_1
 62
     2
  6
CONTINUOUS
 10
0.313618
 20
-0.165287
  0
VERTEX
  8
PLAN_1
 62
     2
  6
CONTINUOUS
 10
0.311689
 20
-0.165287
  0
VERTEX
  8
PLAN_1
 62
     2
  6
CONTINUOUS
 10
0.309756
 20
-0.165772
  0
VERTEX
  8
PLAN_1
 62
     2
  6
CONTINUOUS
 10
0.307823
 20
-0.166252
  0
VERTEX
  8
PLAN_1
 62
     2
  6
CONTINUOUS
 10
0.306374
 20
-0.167220
  0
VERTEX
  8
PLAN_1
 62
     2
  6
CONTINUOUS
 10
0.304445
 20
-0.168185
  0
VERTEX
  8
PLAN_1
 62
     2
  6
CONTINUOUS
 10
0.302996
 20
-0.169634
  0
VERTEX
  8
PLAN_1
 62
     2
  6
CONTINUOUS
 10
0.302512
 20
-0.171567
  0
VERTEX
  8
PLAN_1
 62
     2
  6
CONTINUOUS
 10
0.302028
 20
-0.173980
  0
VERTEX
  8
PLAN_1
 62
     2
  6
CONTINUOUS
 10
0.302028
 20
-0.175913
  0
VERTEX
  8
PLAN_1
 62
     2
  6
CONTINUOUS
 10
0.302512
 20
-0.177843
  0
VERTEX
  8
PLAN_1
 62
     2
  6
CONTINUOUS
 10
0.303476
 20
-0.179776
  0
VERTEX
  8
PLAN_1
 62
     2
  6
CONTINUOUS
 10
0.304445
 20
-0.180740
  0
VERTEX
  8
PLAN_1
 62
     2
  6
CONTINUOUS
 10
0.305894
 20
-0.182189
  0
VERTEX
  8
PLAN_1
 62
     2
  6
CONTINUOUS
 10
0.307343
 20
-0.182673
  0
VERTEX
  8
PLAN_1
 62
     2
  6
CONTINUOUS
 10
0.309756
 20
-0.183154
  0
VERTEX
  8
PLAN_1
 62
     2
  6
CONTINUOUS
 10
0.311689
 20
-0.183638
  0
VERTEX
  8
PLAN_1
 62
     2
  6
CONTINUOUS
 10
0.315067
 20
-0.183154
  0
VERTEX
  8
PLAN_1
 62
     2
  6
CONTINUOUS
 10
0.317965
 20
-0.182673
  0
VERTEX
  8
PLAN_1
 62
     2
  6
CONTINUOUS
 10
0.320862
 20
-0.181224
  0
VERTEX
  8
PLAN_1
 62
     2
  6
CONTINUOUS
 10
0.323760
 20
-0.179776
  0
VERTEX
  8
PLAN_1
 62
     2
  6
CONTINUOUS
 10
0.325693
 20
-0.177843
  0
VERTEX
  8
PLAN_1
 62
     2
  6
CONTINUOUS
 10
0.327138
 20
-0.175913
  0
VERTEX
  8
PLAN_1
 62
     2
  6
CONTINUOUS
 10
0.328587
 20
-0.173496
  0
VERTEX
  8
PLAN_1
 62
     2
  6
CONTINUOUS
 10
0.328587
 20
-0.170598
  0
VERTEX
  8
PLAN_1
 62
     2
  6
CONTINUOUS
 10
0.328587
 20
-0.161909
  0
SEQEND
  8
0
  0
POLYLINE
  8
PLAN_1
 62
     2
  6
CONTINUOUS
 66
     1
 40
0.003000
 41
0.003000
  0
VERTEX
  8
PLAN_1
 62
     2
  6
CONTINUOUS
 10
0.363839
 20
-0.189433
  0
VERTEX
  8
PLAN_1
 62
     2
  6
CONTINUOUS
 10
0.354665
 20
-0.189433
  0
VERTEX
  8
PLAN_1
 62
     2
  6
CONTINUOUS
 10
0.354665
 20
-0.134866
  0
VERTEX
  8
PLAN_1
 62
     2
  6
CONTINUOUS
 10
0.363358
 20
-0.134866
  0
VERTEX
  8
PLAN_1
 62
     2
  6
CONTINUOUS
 10
0.363358
 20
-0.144039
  0
VERTEX
  8
PLAN_1
 62
     2
  6
CONTINUOUS
 10
0.364803
 20
-0.142110
  0
VERTEX
  8
PLAN_1
 62
     2
  6
CONTINUOUS
 10
0.366736
 20
-0.139697
  0
VERTEX
  8
PLAN_1
 62
     2
  6
CONTINUOUS
 10
0.368185
 20
-0.138248
  0
VERTEX
  8
PLAN_1
 62
     2
  6
CONTINUOUS
 10
0.370118
 20
-0.136315
  0
VERTEX
  8
PLAN_1
 62
     2
  6
CONTINUOUS
 10
0.372047
 20
-0.135350
  0
VERTEX
  8
PLAN_1
 62
     2
  6
CONTINUOUS
 10
0.373980
 20
-0.134382
  0
VERTEX
  8
PLAN_1
 62
     2
  6
CONTINUOUS
 10
0.376394
 20
-0.133902
  0
VERTEX
  8
PLAN_1
 62
     2
  6
CONTINUOUS
 10
0.378807
 20
-0.133417
  0
VERTEX
  8
PLAN_1
 62
     2
  6
CONTINUOUS
 10
0.379291
 20
-0.133417
  0
VERTEX
  8
PLAN_1
 62
     2
  6
CONTINUOUS
 10
0.379776
 20
-0.133417
  0
VERTEX
  8
PLAN_1
 62
     2
  6
CONTINUOUS
 10
0.380256
 20
-0.133417
  0
VERTEX
  8
PLAN_1
 62
     2
  6
CONTINUOUS
 10
0.380256
 20
-0.133902
  0
VERTEX
  8
PLAN_1
 62
     2
  6
CONTINUOUS
 10
0.380740
 20
-0.133902
  0
VERTEX
  8
PLAN_1
 62
     2
  6
CONTINUOUS
 10
0.381224
 20
-0.133902
  0
VERTEX
  8
PLAN_1
 62
     2
  6
CONTINUOUS
 10
0.381224
 20
-0.143075
  0
VERTEX
  8
PLAN_1
 62
     2
  6
CONTINUOUS
 10
0.377843
 20
-0.143075
  0
VERTEX
  8
PLAN_1
 62
     2
  6
CONTINUOUS
 10
0.374945
 20
-0.143559
  0
VERTEX
  8
PLAN_1
 62
     2
  6
CONTINUOUS
 10
0.372047
 20
-0.144524
  0
VERTEX
  8
PLAN_1
 62
     2
  6
CONTINUOUS
 10
0.369634
 20
-0.145972
  0
VERTEX
  8
PLAN_1
 62
     2
  6
CONTINUOUS
 10
0.367701
 20
-0.147421
  0
VERTEX
  8
PLAN_1
 62
     2
  6
CONTINUOUS
 10
0.366252
 20
-0.149835
  0
VERTEX
  8
PLAN_1
 62
     2
  6
CONTINUOUS
 10
0.364803
 20
-0.152252
  0
VERTEX
  8
PLAN_1
 62
     2
  6
CONTINUOUS
 10
0.364323
 20
-0.155146
  0
VERTEX
  8
PLAN_1
 62
     2
  6
CONTINUOUS
 10
0.363839
 20
-0.158043
  0
VERTEX
  8
PLAN_1
 62
     2
  6
CONTINUOUS
 10
0.363839
 20
-0.189433
  0
SEQEND
  8
0
  0
POLYLINE
  8
PLAN_1
 62
     2
  6
CONTINUOUS
 66
     1
 40
0.003000
 41
0.003000
  0
VERTEX
  8
PLAN_1
 62
     2
  6
CONTINUOUS
 10
0.387020
 20
-0.151768
  0
VERTEX
  8
PLAN_1
 62
     2
  6
CONTINUOUS
 10
0.387500
 20
-0.146937
  0
VERTEX
  8
PLAN_1
 62
     2
  6
CONTINUOUS
 10
0.388465
 20
-0.143559
  0
VERTEX
  8
PLAN_1
 62
     2
  6
CONTINUOUS
 10
0.390398
 20
-0.140177
  0
VERTEX
  8
PLAN_1
 62
     2
  6
CONTINUOUS
 10
0.393295
 20
-0.137764
  0
VERTEX
  8
PLAN_1
 62
     2
  6
CONTINUOUS
 10
0.396193
 20
-0.135831
  0
VERTEX
  8
PLAN_1
 62
     2
  6
CONTINUOUS
 10
0.400055
 20
-0.134382
  0
VERTEX
  8
PLAN_1
 62
     2
  6
CONTINUOUS
 10
0.404402
 20
-0.133902
  0
VERTEX
  8
PLAN_1
 62
     2
  6
CONTINUOUS
 10
0.409232
 20
-0.133417
  0
VERTEX
  8
PLAN_1
 62
     2
  6
CONTINUOUS
 10
0.411161
 20
-0.133417
  0
VERTEX
  8
PLAN_1
 62
     2
  6
CONTINUOUS
 10
0.414059
 20
-0.133902
  0
VERTEX
  8
PLAN_1
 62
     2
  6
CONTINUOUS
 10
0.417441
 20
-0.134866
  0
VERTEX
  8
PLAN_1
 62
     2
  6
CONTINUOUS
 10
0.420819
 20
-0.135831
  0
VERTEX
  8
PLAN_1
 62
     2
  6
CONTINUOUS
 10
0.424201
 20
-0.137764
  0
VERTEX
  8
PLAN_1
 62
     2
  6
CONTINUOUS
 10
0.427098
 20
-0.140661
  0
VERTEX
  8
PLAN_1
 62
     2
  6
CONTINUOUS
 10
0.428063
 20
-0.142110
  0
VERTEX
  8
PLAN_1
 62
     2
  6
CONTINUOUS
 10
0.428547
 20
-0.144039
  0
VERTEX
  8
PLAN_1
 62
     2
  6
CONTINUOUS
 10
0.429512
 20
-0.146457
  0
VERTEX
  8
PLAN_1
 62
     2
  6
CONTINUOUS
 10
0.429512
 20
-0.148870
  0
VERTEX
  8
PLAN_1
 62
     2
  6
CONTINUOUS
 10
0.429512
 20
-0.180256
  0
VERTEX
  8
PLAN_1
 62
     2
  6
CONTINUOUS
 10
0.429512
 20
-0.180740
  0
VERTEX
  8
PLAN_1
 62
     2
  6
CONTINUOUS
 10
0.429512
 20
-0.181705
  0
VERTEX
  8
PLAN_1
 62
     2
  6
CONTINUOUS
 10
0.429996
 20
-0.182189
  0
VERTEX
  8
PLAN_1
 62
     2
  6
CONTINUOUS
 10
0.430476
 20
-0.182673
  0
VERTEX
  8
PLAN_1
 62
     2
  6
CONTINUOUS
 10
0.431445
 20
-0.183154
  0
VERTEX
  8
PLAN_1
 62
     2
  6
CONTINUOUS
 10
0.431925
 20
-0.183154
  0
VERTEX
  8
PLAN_1
 62
     2
  6
CONTINUOUS
 10
0.432409
 20
-0.183154
  0
VERTEX
  8
PLAN_1
 62
     2
  6
CONTINUOUS
 10
0.432894
 20
-0.183154
  0
VERTEX
  8
PLAN_1
 62
     2
  6
CONTINUOUS
 10
0.433374
 20
-0.183154
  0
VERTEX
  8
PLAN_1
 62
     2
  6
CONTINUOUS
 10
0.433858
 20
-0.183154
  0
VERTEX
  8
PLAN_1
 62
     2
  6
CONTINUOUS
 10
0.434343
 20
-0.183154
  0
VERTEX
  8
PLAN_1
 62
     2
  6
CONTINUOUS
 10
0.434823
 20
-0.183154
  0
VERTEX
  8
PLAN_1
 62
     2
  6
CONTINUOUS
 10
0.435307
 20
-0.183154
  0
VERTEX
  8
PLAN_1
 62
     2
  6
CONTINUOUS
 10
0.435307
 20
-0.182673
  0
VERTEX
  8
PLAN_1
 62
     2
  6
CONTINUOUS
 10
0.435307
 20
-0.189433
  0
VERTEX
  8
PLAN_1
 62
     2
  6
CONTINUOUS
 10
0.434823
 20
-0.189433
  0
VERTEX
  8
PLAN_1
 62
     2
  6
CONTINUOUS
 10
0.434343
 20
-0.189917
  0
VERTEX
  8
PLAN_1
 62
     2
  6
CONTINUOUS
 10
0.433858
 20
-0.189917
  0
VERTEX
  8
PLAN_1
 62
     2
  6
CONTINUOUS
 10
0.433374
 20
-0.190398
  0
VERTEX
  8
PLAN_1
 62
     2
  6
CONTINUOUS
 10
0.432409
 20
-0.190398
  0
VERTEX
  8
PLAN_1
 62
     2
  6
CONTINUOUS
 10
0.431925
 20
-0.190398
  0
VERTEX
  8
PLAN_1
 62
     2
  6
CONTINUOUS
 10
0.431445
 20
-0.190398
  0
VERTEX
  8
PLAN_1
 62
     2
  6
CONTINUOUS
 10
0.430476
 20
-0.190398
  0
VERTEX
  8
PLAN_1
 62
     2
  6
CONTINUOUS
 10
0.427579
 20
-0.190398
  0
VERTEX
  8
PLAN_1
 62
     2
  6
CONTINUOUS
 10
0.425650
 20
-0.189917
  0
VERTEX
  8
PLAN_1
 62
     2
  6
CONTINUOUS
 10
0.423717
 20
-0.188949
  0
VERTEX
  8
PLAN_1
 62
     2
  6
CONTINUOUS
 10
0.422752
 20
-0.187984
  0
VERTEX
  8
PLAN_1
 62
     2
  6
CONTINUOUS
 10
0.421787
 20
-0.186535
  0
VERTEX
  8
PLAN_1
 62
     2
  6
CONTINUOUS
 10
0.421303
 20
-0.185087
  0
VERTEX
  8
PLAN_1
 62
     2
  6
CONTINUOUS
 10
0.420819
 20
-0.183638
  0
VERTEX
  8
PLAN_1
 62
     2
  6
CONTINUOUS
 10
0.420819
 20
-0.182189
  0
VERTEX
  8
PLAN_1
 62
     2
  6
CONTINUOUS
 10
0.419370
 20
-0.183638
  0
VERTEX
  8
PLAN_1
 62
     2
  6
CONTINUOUS
 10
0.417921
 20
-0.185087
  0
VERTEX
  8
PLAN_1
 62
     2
  6
CONTINUOUS
 10
0.415992
 20
-0.186535
  0
VERTEX
  8
PLAN_1
 62
     2
  6
CONTINUOUS
 10
0.413575
 20
-0.187984
  0
VERTEX
  8
PLAN_1
 62
     2
  6
CONTINUOUS
 10
0.411161
 20
-0.189433
  0
VERTEX
  8
PLAN_1
 62
     2
  6
CONTINUOUS
 10
0.408264
 20
-0.190398
  0
VERTEX
  8
PLAN_1
 62
     2
  6
CONTINUOUS
 10
0.404886
 20
-0.190882
  0
VERTEX
  8
PLAN_1
 62
     2
  6
CONTINUOUS
 10
0.401020
 20
-0.190882
  0
VERTEX
  8
PLAN_1
 62
     2
  6
CONTINUOUS
 10
0.397642
 20
-0.190882
  0
VERTEX
  8
PLAN_1
 62
     2
  6
CONTINUOUS
 10
0.394260
 20
-0.189917
  0
VERTEX
  8
PLAN_1
 62
     2
  6
CONTINUOUS
 10
0.391362
 20
-0.188469
  0
VERTEX
  8
PLAN_1
 62
     2
  6
CONTINUOUS
 10
0.388949
 20
-0.186535
  0
VERTEX
  8
PLAN_1
 62
     2
  6
CONTINUOUS
 10
0.387020
 20
-0.184602
  0
VERTEX
  8
PLAN_1
 62
     2
  6
CONTINUOUS
 10
0.385571
 20
-0.181705
  0
VERTEX
  8
PLAN_1
 62
     2
  6
CONTINUOUS
 10
0.384602
 20
-0.178807
  0
VERTEX
  8
PLAN_1
 62
     2
  6
CONTINUOUS
 10
0.384122
 20
-0.175429
  0
VERTEX
  8
PLAN_1
 62
     2
  6
CONTINUOUS
 10
0.384122
 20
-0.173496
  0
VERTEX
  8
PLAN_1
 62
     2
  6
CONTINUOUS
 10
0.384602
 20
-0.171083
  0
VERTEX
  8
PLAN_1
 62
     2
  6
CONTINUOUS
 10
0.385087
 20
-0.168669
  0
VERTEX
  8
PLAN_1
 62
     2
  6
CONTINUOUS
 10
0.386535
 20
-0.165772
  0
VERTEX
  8
PLAN_1
 62
     2
  6
CONTINUOUS
 10
0.388949
 20
-0.163358
  0
VERTEX
  8
PLAN_1
 62
     2
  6
CONTINUOUS
 10
0.391846
 20
-0.160941
  0
VERTEX
  8
PLAN_1
 62
     2
  6
CONTINUOUS
 10
0.395709
 20
-0.159492
  0
VERTEX
  8
PLAN_1
 62
     2
  6
CONTINUOUS
 10
0.400539
 20
-0.158528
  0
VERTEX
  8
PLAN_1
 62
     2
  6
CONTINUOUS
 10
0.415508
 20
-0.156594
  0
VERTEX
  8
PLAN_1
 62
     2
  6
CONTINUOUS
 10
0.416472
 20
-0.156114
  0
VERTEX
  8
PLAN_1
 62
     2
  6
CONTINUOUS
 10
0.417441
 20
-0.156114
  0
VERTEX
  8
PLAN_1
 62
     2
  6
CONTINUOUS
 10
0.418406
 20
-0.155630
  0
VERTEX
  8
PLAN_1
 62
     2
  6
CONTINUOUS
 10
0.418890
 20
-0.155146
  0
VERTEX
  8
PLAN_1
 62
     2
  6
CONTINUOUS
 10
0.419370
 20
-0.154181
  0
VERTEX
  8
PLAN_1
 62
     2
  6
CONTINUOUS
 10
0.419854
 20
-0.153217
  0
VERTEX
  8
PLAN_1
 62
     2
  6
CONTINUOUS
 10
0.420339
 20
-0.151768
  0
VERTEX
  8
PLAN_1
 62
     2
  6
CONTINUOUS
 10
0.420339
 20
-0.149835
  0
VERTEX
  8
PLAN_1
 62
     2
  6
CONTINUOUS
 10
0.420339
 20
-0.147906
  0
VERTEX
  8
PLAN_1
 62
     2
  6
CONTINUOUS
 10
0.419854
 20
-0.145972
  0
VERTEX
  8
PLAN_1
 62
     2
  6
CONTINUOUS
 10
0.418890
 20
-0.144524
  0
VERTEX
  8
PLAN_1
 62
     2
  6
CONTINUOUS
 10
0.417441
 20
-0.143559
  0
VERTEX
  8
PLAN_1
 62
     2
  6
CONTINUOUS
 10
0.415508
 20
-0.142591
  0
VERTEX
  8
PLAN_1
 62
     2
  6
CONTINUOUS
 10
0.413575
 20
-0.141626
  0
VERTEX
  8
PLAN_1
 62
     2
  6
CONTINUOUS
 10
0.410681
 20
-0.141146
  0
VERTEX
  8
PLAN_1
 62
     2
  6
CONTINUOUS
 10
0.407783
 20
-0.141146
  0
VERTEX
  8
PLAN_1
 62
     2
  6
CONTINUOUS
 10
0.404402
 20
-0.141626
  0
VERTEX
  8
PLAN_1
 62
     2
  6
CONTINUOUS
 10
0.401504
 20
-0.142110
  0
VERTEX
  8
PLAN_1
 62
     2
  6
CONTINUOUS
 10
0.399575
 20
-0.143559
  0
VERTEX
  8
PLAN_1
 62
     2
  6
CONTINUOUS
 10
0.397642
 20
-0.145008
  0
VERTEX
  8
PLAN_1
 62
     2
  6
CONTINUOUS
 10
0.396677
 20
-0.146457
  0
VERTEX
  8
PLAN_1
 62
     2
  6
CONTINUOUS
 10
0.396193
 20
-0.148386
  0
VERTEX
  8
PLAN_1
 62
     2
  6
CONTINUOUS
 10
0.395709
 20
-0.149835
  0
VERTEX
  8
PLAN_1
 62
     2
  6
CONTINUOUS
 10
0.395228
 20
-0.151768
  0
VERTEX
  8
PLAN_1
 62
     2
  6
CONTINUOUS
 10
0.387020
 20
-0.151768
  0
SEQEND
  8
0
  0
POLYLINE
  8
PLAN_1
 62
     2
  6
CONTINUOUS
 66
     1
 40
0.003000
 41
0.003000
  0
VERTEX
  8
PLAN_1
 62
     2
  6
CONTINUOUS
 10
0.420339
 20
-0.161909
  0
VERTEX
  8
PLAN_1
 62
     2
  6
CONTINUOUS
 10
0.419854
 20
-0.162390
  0
VERTEX
  8
PLAN_1
 62
     2
  6
CONTINUOUS
 10
0.418890
 20
-0.162390
  0
VERTEX
  8
PLAN_1
 62
     2
  6
CONTINUOUS
 10
0.417921
 20
-0.162874
  0
VERTEX
  8
PLAN_1
 62
     2
  6
CONTINUOUS
 10
0.416472
 20
-0.163358
  0
VERTEX
  8
PLAN_1
 62
     2
  6
CONTINUOUS
 10
0.414543
 20
-0.163839
  0
VERTEX
  8
PLAN_1
 62
     2
  6
CONTINUOUS
 10
0.412130
 20
-0.164323
  0
VERTEX
  8
PLAN_1
 62
     2
  6
CONTINUOUS
 10
0.409232
 20
-0.164807
  0
VERTEX
  8
PLAN_1
 62
     2
  6
CONTINUOUS
 10
0.405366
 20
-0.165287
  0
VERTEX
  8
PLAN_1
 62
     2
  6
CONTINUOUS
 10
0.403437
 20
-0.165287
  0
VERTEX
  8
PLAN_1
 62
     2
  6
CONTINUOUS
 10
0.401504
 20
-0.165772
  0
VERTEX
  8
PLAN_1
 62
     2
  6
CONTINUOUS
 10
0.399575
 20
-0.166252
  0
VERTEX
  8
PLAN_1
 62
     2
  6
CONTINUOUS
 10
0.397642
 20
-0.167220
  0
VERTEX
  8
PLAN_1
 62
     2
  6
CONTINUOUS
 10
0.396193
 20
-0.168185
  0
VERTEX
  8
PLAN_1
 62
     2
  6
CONTINUOUS
 10
0.394744
 20
-0.169634
  0
VERTEX
  8
PLAN_1
 62
     2
  6
CONTINUOUS
 10
0.393780
 20
-0.171567
  0
VERTEX
  8
PLAN_1
 62
     2
  6
CONTINUOUS
 10
0.393780
 20
-0.173980
  0
VERTEX
  8
PLAN_1
 62
     2
  6
CONTINUOUS
 10
0.393780
 20
-0.175913
  0
VERTEX
  8
PLAN_1
 62
     2
  6
CONTINUOUS
 10
0.394260
 20
-0.177843
  0
VERTEX
  8
PLAN_1
 62
     2
  6
CONTINUOUS
 10
0.394744
 20
-0.179776
  0
VERTEX
  8
PLAN_1
 62
     2
  6
CONTINUOUS
 10
0.395709
 20
-0.180740
  0
VERTEX
  8
PLAN_1
 62
     2
  6
CONTINUOUS
 10
0.397157
 20
-0.182189
  0
VERTEX
  8
PLAN_1
 62
     2
  6
CONTINUOUS
 10
0.399091
 20
-0.182673
  0
VERTEX
  8
PLAN_1
 62
     2
  6
CONTINUOUS
 10
0.401020
 20
-0.183154
  0
VERTEX
  8
PLAN_1
 62
     2
  6
CONTINUOUS
 10
0.403437
 20
-0.183638
  0
VERTEX
  8
PLAN_1
 62
     2
  6
CONTINUOUS
 10
0.406815
 20
-0.183154
  0
VERTEX
  8
PLAN_1
 62
     2
  6
CONTINUOUS
 10
0.409713
 20
-0.182673
  0
VERTEX
  8
PLAN_1
 62
     2
  6
CONTINUOUS
 10
0.412610
 20
-0.181224
  0
VERTEX
  8
PLAN_1
 62
     2
  6
CONTINUOUS
 10
0.415024
 20
-0.179776
  0
VERTEX
  8
PLAN_1
 62
     2
  6
CONTINUOUS
 10
0.417441
 20
-0.177843
  0
VERTEX
  8
PLAN_1
 62
     2
  6
CONTINUOUS
 10
0.418890
 20
-0.175913
  0
VERTEX
  8
PLAN_1
 62
     2
  6
CONTINUOUS
 10
0.419854
 20
-0.173496
  0
VERTEX
  8
PLAN_1
 62
     2
  6
CONTINUOUS
 10
0.420339
 20
-0.170598
  0
VERTEX
  8
PLAN_1
 62
     2
  6
CONTINUOUS
 10
0.420339
 20
-0.161909
  0
SEQEND
  8
0
  0
POLYLINE
  8
PLAN_1
 62
     2
  6
CONTINUOUS
 66
     1
 40
0.003000
 41
0.003000
  0
VERTEX
  8
PLAN_1
 62
     2
  6
CONTINUOUS
 10
0.480697
 20
-0.189433
  0
VERTEX
  8
PLAN_1
 62
     2
  6
CONTINUOUS
 10
0.480697
 20
-0.181705
  0
VERTEX
  8
PLAN_1
 62
     2
  6
CONTINUOUS
 10
0.480217
 20
-0.181224
  0
VERTEX
  8
PLAN_1
 62
     2
  6
CONTINUOUS
 10
0.478768
 20
-0.183638
  0
VERTEX
  8
PLAN_1
 62
     2
  6
CONTINUOUS
 10
0.477319
 20
-0.185571
  0
VERTEX
  8
PLAN_1
 62
     2
  6
CONTINUOUS
 10
0.475386
 20
-0.187020
  0
VERTEX
  8
PLAN_1
 62
     2
  6
CONTINUOUS
 10
0.473457
 20
-0.188469
  0
VERTEX
  8
PLAN_1
 62
     2
  6
CONTINUOUS
 10
0.471039
 20
-0.189917
  0
VERTEX
  8
PLAN_1
 62
     2
  6
CONTINUOUS
 10
0.468626
 20
-0.190398
  0
VERTEX
  8
PLAN_1
 62
     2
  6
CONTINUOUS
 10
0.466213
 20
-0.190882
  0
VERTEX
  8
PLAN_1
 62
     2
  6
CONTINUOUS
 10
0.462831
 20
-0.190882
  0
VERTEX
  8
PLAN_1
 62
     2
  6
CONTINUOUS
 10
0.459933
 20
-0.190882
  0
VERTEX
  8
PLAN_1
 62
     2
  6
CONTINUOUS
 10
0.457035
 20
-0.190398
  0
VERTEX
  8
PLAN_1
 62
     2
  6
CONTINUOUS
 10
0.453657
 20
-0.188949
  0
VERTEX
  8
PLAN_1
 62
     2
  6
CONTINUOUS
 10
0.451240
 20
-0.187500
  0
VERTEX
  8
PLAN_1
 62
     2
  6
CONTINUOUS
 10
0.448827
 20
-0.185087
  0
VERTEX
  8
PLAN_1
 62
     2
  6
CONTINUOUS
 10
0.446898
 20
-0.182189
  0
VERTEX
  8
PLAN_1
 62
     2
  6
CONTINUOUS
 10
0.445929
 20
-0.178807
  0
VERTEX
  8
PLAN_1
 62
     2
  6
CONTINUOUS
 10
0.445449
 20
-0.173980
  0
VERTEX
  8
PLAN_1
 62
     2
  6
CONTINUOUS
 10
0.445449
 20
-0.134866
  0
VERTEX
  8
PLAN_1
 62
     2
  6
CONTINUOUS
 10
0.454622
 20
-0.134866
  0
VERTEX
  8
PLAN_1
 62
     2
  6
CONTINUOUS
 10
0.454622
 20
-0.171083
  0
VERTEX
  8
PLAN_1
 62
     2
  6
CONTINUOUS
 10
0.454622
 20
-0.174465
  0
VERTEX
  8
PLAN_1
 62
     2
  6
CONTINUOUS
 10
0.455106
 20
-0.176878
  0
VERTEX
  8
PLAN_1
 62
     2
  6
CONTINUOUS
 10
0.456071
 20
-0.178807
  0
VERTEX
  8
PLAN_1
 62
     2
  6
CONTINUOUS
 10
0.457520
 20
-0.180740
  0
VERTEX
  8
PLAN_1
 62
     2
  6
CONTINUOUS
 10
0.458969
 20
-0.181705
  0
VERTEX
  8
PLAN_1
 62
     2
  6
CONTINUOUS
 10
0.460902
 20
-0.182673
  0
VERTEX
  8
PLAN_1
 62
     2
  6
CONTINUOUS
 10
0.462831
 20
-0.183154
  0
VERTEX
  8
PLAN_1
 62
     2
  6
CONTINUOUS
 10
0.464764
 20
-0.183154
  0
VERTEX
  8
PLAN_1
 62
     2
  6
CONTINUOUS
 10
0.469110
 20
-0.182673
  0
VERTEX
  8
PLAN_1
 62
     2
  6
CONTINUOUS
 10
0.472008
 20
-0.181224
  0
VERTEX
  8
PLAN_1
 62
     2
  6
CONTINUOUS
 10
0.474902
 20
-0.179291
  0
VERTEX
  8
PLAN_1
 62
     2
  6
CONTINUOUS
 10
0.476835
 20
-0.176878
  0
VERTEX
  8
PLAN_1
 62
     2
  6
CONTINUOUS
 10
0.478283
 20
-0.174465
  0
VERTEX
  8
PLAN_1
 62
     2
  6
CONTINUOUS
 10
0.479248
 20
-0.171083
  0
VERTEX
  8
PLAN_1
 62
     2
  6
CONTINUOUS
 10
0.479732
 20
-0.168185
  0
VERTEX
  8
PLAN_1
 62
     2
  6
CONTINUOUS
 10
0.479732
 20
-0.165287
  0
VERTEX
  8
PLAN_1
 62
     2
  6
CONTINUOUS
 10
0.479732
 20
-0.134866
  0
VERTEX
  8
PLAN_1
 62
     2
  6
CONTINUOUS
 10
0.488906
 20
-0.134866
  0
VERTEX
  8
PLAN_1
 62
     2
  6
CONTINUOUS
 10
0.488906
 20
-0.189433
  0
VERTEX
  8
PLAN_1
 62
     2
  6
CONTINUOUS
 10
0.480697
 20
-0.189433
  0
SEQEND
  8
0
  0
POLYLINE
  8
PLAN_1
 62
     2
  6
CONTINUOUS
 66
     1
 40
0.003000
 41
0.003000
  0
VERTEX
  8
PLAN_1
 62
     2
  6
CONTINUOUS
 10
0.547819
 20
-0.189433
  0
VERTEX
  8
PLAN_1
 62
     2
  6
CONTINUOUS
 10
0.539610
 20
-0.189433
  0
VERTEX
  8
PLAN_1
 62
     2
  6
CONTINUOUS
 10
0.539610
 20
-0.182189
  0
VERTEX
  8
PLAN_1
 62
     2
  6
CONTINUOUS
 10
0.539126
 20
-0.182189
  0
VERTEX
  8
PLAN_1
 62
     2
  6
CONTINUOUS
 10
0.537677
 20
-0.184602
  0
VERTEX
  8
PLAN_1
 62
     2
  6
CONTINUOUS
 10
0.535748
 20
-0.186535
  0
VERTEX
  8
PLAN_1
 62
     2
  6
CONTINUOUS
 10
0.533815
 20
-0.187984
  0
VERTEX
  8
PLAN_1
 62
     2
  6
CONTINUOUS
 10
0.531886
 20
-0.189433
  0
VERTEX
  8
PLAN_1
 62
     2
  6
CONTINUOUS
 10
0.529953
 20
-0.189917
  0
VERTEX
  8
PLAN_1
 62
     2
  6
CONTINUOUS
 10
0.528020
 20
-0.190882
  0
VERTEX
  8
PLAN_1
 62
     2
  6
CONTINUOUS
 10
0.525606
 20
-0.190882
  0
VERTEX
  8
PLAN_1
 62
     2
  6
CONTINUOUS
 10
0.523677
 20
-0.190882
  0
VERTEX
  8
PLAN_1
 62
     2
  6
CONTINUOUS
 10
0.520295
 20
-0.190882
  0
VERTEX
  8
PLAN_1
 62
     2
  6
CONTINUOUS
 10
0.517398
 20
-0.190398
  0
VERTEX
  8
PLAN_1
 62
     2
  6
CONTINUOUS
 10
0.514500
 20
-0.189433
  0
VERTEX
  8
PLAN_1
 62
     2
  6
CONTINUOUS
 10
0.512087
 20
-0.187984
  0
VERTEX
  8
PLAN_1
 62
     2
  6
CONTINUOUS
 10
0.510154
 20
-0.186535
  0
VERTEX
  8
PLAN_1
 62
     2
  6
CONTINUOUS
 10
0.508224
 20
-0.185087
  0
VERTEX
  8
PLAN_1
 62
     2
  6
CONTINUOUS
 10
0.506291
 20
-0.182673
  0
VERTEX
  8
PLAN_1
 62
     2
  6
CONTINUOUS
 10
0.504843
 20
-0.180740
  0
VERTEX
  8
PLAN_1
 62
     2
  6
CONTINUOUS
 10
0.502429
 20
-0.175913
  0
VERTEX
  8
PLAN_1
 62
     2
  6
CONTINUOUS
 10
0.500980
 20
-0.171083
  0
VERTEX
  8
PLAN_1
 62
     2
  6
CONTINUOUS
 10
0.500012
 20
-0.165772
  0
VERTEX
  8
PLAN_1
 62
     2
  6
CONTINUOUS
 10
0.500012
 20
-0.160461
  0
VERTEX
  8
PLAN_1
 62
     2
  6
CONTINUOUS
 10
0.500012
 20
-0.155146
  0
VERTEX
  8
PLAN_1
 62
     2
  6
CONTINUOUS
 10
0.501461
 20
-0.149835
  0
VERTEX
  8
PLAN_1
 62
     2
  6
CONTINUOUS
 10
0.502909
 20
-0.145488
  0
VERTEX
  8
PLAN_1
 62
     2
  6
CONTINUOUS
 10
0.505807
 20
-0.141146
  0
VERTEX
  8
PLAN_1
 62
     2
  6
CONTINUOUS
 10
0.507256
 20
-0.139697
  0
VERTEX
  8
PLAN_1
 62
     2
  6
CONTINUOUS
 10
0.508705
 20
-0.138248
  0
VERTEX
  8
PLAN_1
 62
     2
  6
CONTINUOUS
 10
0.510638
 20
-0.136799
  0
VERTEX
  8
PLAN_1
 62
     2
  6
CONTINUOUS
 10
0.512567
 20
-0.135831
  0
VERTEX
  8
PLAN_1
 62
     2
  6
CONTINUOUS
 10
0.514984
 20
-0.134866
  0
VERTEX
  8
PLAN_1
 62
     2
  6
CONTINUOUS
 10
0.517398
 20
-0.133902
  0
VERTEX
  8
PLAN_1
 62
     2
  6
CONTINUOUS
 10
0.519811
 20
-0.133902
  0
VERTEX
  8
PLAN_1
 62
     2
  6
CONTINUOUS
 10
0.522228
 20
-0.133417
  0
VERTEX
  8
PLAN_1
 62
     2
  6
CONTINUOUS
 10
0.526091
 20
-0.133902
  0
VERTEX
  8
PLAN_1
 62
     2
  6
CONTINUOUS
 10
0.528988
 20
-0.134382
  0
VERTEX
  8
PLAN_1
 62
     2
  6
CONTINUOUS
 10
0.531402
 20
-0.135831
  0
VERTEX
  8
PLAN_1
 62
     2
  6
CONTINUOUS
 10
0.533335
 20
-0.136799
  0
VERTEX
  8
PLAN_1
 62
     2
  6
CONTINUOUS
 10
0.535264
 20
-0.138728
  0
VERTEX
  8
PLAN_1
 62
     2
  6
CONTINUOUS
 10
0.536713
 20
-0.140177
  0
VERTEX
  8
PLAN_1
 62
     2
  6
CONTINUOUS
 10
0.537677
 20
-0.141626
  0
VERTEX
  8
PLAN_1
 62
     2
  6
CONTINUOUS
 10
0.538646
 20
-0.142591
  0
VERTEX
  8
PLAN_1
 62
     2
  6
CONTINUOUS
 10
0.538646
 20
-0.142110
  0
VERTEX
  8
PLAN_1
 62
     2
  6
CONTINUOUS
 10
0.538646
 20
-0.114587
  0
VERTEX
  8
PLAN_1
 62
     2
  6
CONTINUOUS
 10
0.547819
 20
-0.114587
  0
VERTEX
  8
PLAN_1
 62
     2
  6
CONTINUOUS
 10
0.547819
 20
-0.189433
  0
SEQEND
  8
0
  0
POLYLINE
  8
PLAN_1
 62
     2
  6
CONTINUOUS
 66
     1
 40
0.003000
 41
0.003000
  0
VERTEX
  8
PLAN_1
 62
     2
  6
CONTINUOUS
 10
0.523677
 20
-0.183154
  0
VERTEX
  8
PLAN_1
 62
     2
  6
CONTINUOUS
 10
0.526091
 20
-0.183154
  0
VERTEX
  8
PLAN_1
 62
     2
  6
CONTINUOUS
 10
0.528504
 20
-0.182189
  0
VERTEX
  8
PLAN_1
 62
     2
  6
CONTINUOUS
 10
0.531402
 20
-0.181224
  0
VERTEX
  8
PLAN_1
 62
     2
  6
CONTINUOUS
 10
0.533335
 20
-0.179291
  0
VERTEX
  8
PLAN_1
 62
     2
  6
CONTINUOUS
 10
0.535748
 20
-0.176878
  0
VERTEX
  8
PLAN_1
 62
     2
  6
CONTINUOUS
 10
0.537197
 20
-0.173980
  0
VERTEX
  8
PLAN_1
 62
     2
  6
CONTINUOUS
 10
0.538161
 20
-0.169634
  0
VERTEX
  8
PLAN_1
 62
     2
  6
CONTINUOUS
 10
0.538646
 20
-0.164807
  0
VERTEX
  8
PLAN_1
 62
     2
  6
CONTINUOUS
 10
0.538646
 20
-0.161425
  0
VERTEX
  8
PLAN_1
 62
     2
  6
CONTINUOUS
 10
0.538161
 20
-0.157563
  0
VERTEX
  8
PLAN_1
 62
     2
  6
CONTINUOUS
 10
0.537677
 20
-0.153701
  0
VERTEX
  8
PLAN_1
 62
     2
  6
CONTINUOUS
 10
0.536228
 20
-0.149835
  0
VERTEX
  8
PLAN_1
 62
     2
  6
CONTINUOUS
 10
0.535748
 20
-0.148386
  0
VERTEX
  8
PLAN_1
 62
     2
  6
CONTINUOUS
 10
0.534783
 20
-0.146937
  0
VERTEX
  8
PLAN_1
 62
     2
  6
CONTINUOUS
 10
0.533335
 20
-0.145488
  0
VERTEX
  8
PLAN_1
 62
     2
  6
CONTINUOUS
 10
0.531886
 20
-0.144039
  0
VERTEX
  8
PLAN_1
 62
     2
  6
CONTINUOUS
 10
0.530437
 20
-0.143075
  0
VERTEX
  8
PLAN_1
 62
     2
  6
CONTINUOUS
 10
0.528504
 20
-0.142591
  0
VERTEX
  8
PLAN_1
 62
     2
  6
CONTINUOUS
 10
0.526571
 20
-0.142110
  0
VERTEX
  8
PLAN_1
 62
     2
  6
CONTINUOUS
 10
0.524157
 20
-0.141626
  0
VERTEX
  8
PLAN_1
 62
     2
  6
CONTINUOUS
 10
0.521744
 20
-0.142110
  0
VERTEX
  8
PLAN_1
 62
     2
  6
CONTINUOUS
 10
0.519331
 20
-0.142591
  0
VERTEX
  8
PLAN_1
 62
     2
  6
CONTINUOUS
 10
0.517398
 20
-0.143075
  0
VERTEX
  8
PLAN_1
 62
     2
  6
CONTINUOUS
 10
0.515949
 20
-0.144039
  0
VERTEX
  8
PLAN_1
 62
     2
  6
CONTINUOUS
 10
0.514500
 20
-0.145008
  0
VERTEX
  8
PLAN_1
 62
     2
  6
CONTINUOUS
 10
0.513051
 20
-0.146457
  0
VERTEX
  8
PLAN_1
 62
     2
  6
CONTINUOUS
 10
0.512087
 20
-0.147906
  0
VERTEX
  8
PLAN_1
 62
     2
  6
CONTINUOUS
 10
0.511602
 20
-0.149354
  0
VERTEX
  8
PLAN_1
 62
     2
  6
CONTINUOUS
 10
0.510154
 20
-0.152732
  0
VERTEX
  8
PLAN_1
 62
     2
  6
CONTINUOUS
 10
0.509673
 20
-0.156114
  0
VERTEX
  8
PLAN_1
 62
     2
  6
CONTINUOUS
 10
0.509189
 20
-0.159492
  0
VERTEX
  8
PLAN_1
 62
     2
  6
CONTINUOUS
 10
0.509189
 20
-0.161909
  0
VERTEX
  8
PLAN_1
 62
     2
  6
CONTINUOUS
 10
0.509673
 20
-0.166252
  0
VERTEX
  8
PLAN_1
 62
     2
  6
CONTINUOUS
 10
0.510154
 20
-0.170598
  0
VERTEX
  8
PLAN_1
 62
     2
  6
CONTINUOUS
 10
0.511122
 20
-0.173980
  0
VERTEX
  8
PLAN_1
 62
     2
  6
CONTINUOUS
 10
0.513051
 20
-0.177362
  0
VERTEX
  8
PLAN_1
 62
     2
  6
CONTINUOUS
 10
0.514984
 20
-0.179776
  0
VERTEX
  8
PLAN_1
 62
     2
  6
CONTINUOUS
 10
0.517398
 20
-0.181705
  0
VERTEX
  8
PLAN_1
 62
     2
  6
CONTINUOUS
 10
0.520295
 20
-0.182673
  0
VERTEX
  8
PLAN_1
 62
     2
  6
CONTINUOUS
 10
0.523677
 20
-0.183154
  0
SEQEND
  8
0
  0
SOLID
  8
PLAN_1
 62
     2
 10
0.585484
 20
-0.127622
 11
0.578240
 21
-0.127622
 12
0.599004
 22
-0.113138
 13
0.587417
 23
-0.113138
  0
POLYLINE
  8
PLAN_1
 62
     2
  6
CONTINUOUS
 66
     1
 40
0.003000
 41
0.003000
  0
VERTEX
  8
PLAN_1
 62
     2
  6
CONTINUOUS
 10
0.585484
 20
-0.127622
  0
VERTEX
  8
PLAN_1
 62
     2
  6
CONTINUOUS
 10
0.578240
 20
-0.127622
  0
VERTEX
  8
PLAN_1
 62
     2
  6
CONTINUOUS
 10
0.587417
 20
-0.113138
  0
VERTEX
  8
PLAN_1
 62
     2
  6
CONTINUOUS
 10
0.599004
 20
-0.113138
  0
VERTEX
  8
PLAN_1
 62
     2
  6
CONTINUOUS
 10
0.585484
 20
-0.127622
  0
SEQEND
  8
0
  0
POLYLINE
  8
PLAN_1
 62
     2
  6
CONTINUOUS
 66
     1
 40
0.003000
 41
0.003000
  0
VERTEX
  8
PLAN_1
 62
     2
  6
CONTINUOUS
 10
0.607217
 20
-0.172531
  0
VERTEX
  8
PLAN_1
 62
     2
  6
CONTINUOUS
 10
0.606732
 20
-0.173496
  0
VERTEX
  8
PLAN_1
 62
     2
  6
CONTINUOUS
 10
0.606248
 20
-0.175429
  0
VERTEX
  8
PLAN_1
 62
     2
  6
CONTINUOUS
 10
0.605768
 20
-0.176878
  0
VERTEX
  8
PLAN_1
 62
     2
  6
CONTINUOUS
 10
0.604799
 20
-0.179291
  0
VERTEX
  8
PLAN_1
 62
     2
  6
CONTINUOUS
 10
0.603350
 20
-0.181224
  0
VERTEX
  8
PLAN_1
 62
     2
  6
CONTINUOUS
 10
0.601421
 20
-0.183638
  0
VERTEX
  8
PLAN_1
 62
     2
  6
CONTINUOUS
 10
0.599488
 20
-0.185571
  0
VERTEX
  8
PLAN_1
 62
     2
  6
CONTINUOUS
 10
0.597075
 20
-0.187500
  0
VERTEX
  8
PLAN_1
 62
     2
  6
CONTINUOUS
 10
0.596110
 20
-0.187984
  0
VERTEX
  8
PLAN_1
 62
     2
  6
CONTINUOUS
 10
0.595142
 20
-0.188469
  0
VERTEX
  8
PLAN_1
 62
     2
  6
CONTINUOUS
 10
0.593693
 20
-0.189433
  0
VERTEX
  8
PLAN_1
 62
     2
  6
CONTINUOUS
 10
0.592244
 20
-0.189917
  0
VERTEX
  8
PLAN_1
 62
     2
  6
CONTINUOUS
 10
0.590315
 20
-0.190398
  0
VERTEX
  8
PLAN_1
 62
     2
  6
CONTINUOUS
 10
0.588382
 20
-0.190882
  0
VERTEX
  8
PLAN_1
 62
     2
  6
CONTINUOUS
 10
0.585484
 20
-0.190882
  0
VERTEX
  8
PLAN_1
 62
     2
  6
CONTINUOUS
 10
0.582587
 20
-0.190882
  0
VERTEX
  8
PLAN_1
 62
     2
  6
CONTINUOUS
 10
0.579689
 20
-0.190882
  0
VERTEX
  8
PLAN_1
 62
     2
  6
CONTINUOUS
 10
0.577276
 20
-0.190398
  0
VERTEX
  8
PLAN_1
 62
     2
  6
CONTINUOUS
 10
0.574378
 20
-0.189917
  0
VERTEX
  8
PLAN_1
 62
     2
  6
CONTINUOUS
 10
0.572449
 20
-0.188949
  0
VERTEX
  8
PLAN_1
 62
     2
  6
CONTINUOUS
 10
0.570031
 20
-0.187984
  0
VERTEX
  8
PLAN_1
 62
     2
  6
CONTINUOUS
 10
0.568102
 20
-0.186535
  0
VERTEX
  8
PLAN_1
 62
     2
  6
CONTINUOUS
 10
0.566169
 20
-0.185087
  0
VERTEX
  8
PLAN_1
 62
     2
  6
CONTINUOUS
 10
0.564720
 20
-0.183154
  0
VERTEX
  8
PLAN_1
 62
     2
  6
CONTINUOUS
 10
0.563272
 20
-0.181224
  0
VERTEX
  8
PLAN_1
 62
     2
  6
CONTINUOUS
 10
0.561823
 20
-0.179291
  0
VERTEX
  8
PLAN_1
 62
     2
  6
CONTINUOUS
 10
0.560858
 20
-0.176878
  0
VERTEX
  8
PLAN_1
 62
     2
  6
CONTINUOUS
 10
0.559894
 20
-0.174465
  0
VERTEX
  8
PLAN_1
 62
     2
  6
CONTINUOUS
 10
0.558445
 20
-0.169634
  0
VERTEX
  8
PLAN_1
 62
     2
  6
CONTINUOUS
 10
0.557961
 20
-0.163839
  0
VERTEX
  8
PLAN_1
 62
     2
  6
CONTINUOUS
 10
0.558445
 20
-0.157563
  0
VERTEX
  8
PLAN_1
 62
     2
  6
CONTINUOUS
 10
0.559894
 20
-0.151768
  0
VERTEX
  8
PLAN_1
 62
     2
  6
CONTINUOUS
 10
0.560374
 20
-0.149354
  0
VERTEX
  8
PLAN_1
 62
     2
  6
CONTINUOUS
 10
0.561823
 20
-0.146937
  0
VERTEX
  8
PLAN_1
 62
     2
  6
CONTINUOUS
 10
0.562787
 20
-0.144524
  0
VERTEX
  8
PLAN_1
 62
     2
  6
CONTINUOUS
 10
0.564720
 20
-0.142591
  0
VERTEX
  8
PLAN_1
 62
     2
  6
CONTINUOUS
 10
0.566169
 20
-0.140177
  0
VERTEX
  8
PLAN_1
 62
     2
  6
CONTINUOUS
 10
0.568102
 20
-0.138728
  0
VERTEX
  8
PLAN_1
 62
     2
  6
CONTINUOUS
 10
0.570031
 20
-0.137280
  0
VERTEX
  8
PLAN_1
 62
     2
  6
CONTINUOUS
 10
0.572449
 20
-0.135831
  0
VERTEX
  8
PLAN_1
 62
     2
  6
CONTINUOUS
 10
0.575343
 20
-0.134866
  0
VERTEX
  8
PLAN_1
 62
     2
  6
CONTINUOUS
 10
0.577760
 20
-0.134382
  0
VERTEX
  8
PLAN_1
 62
     2
  6
CONTINUOUS
 10
0.581138
 20
-0.133902
  0
VERTEX
  8
PLAN_1
 62
     2
  6
CONTINUOUS
 10
0.584520
 20
-0.133417
  0
VERTEX
  8
PLAN_1
 62
     2
  6
CONTINUOUS
 10
0.586933
 20
-0.133902
  0
VERTEX
  8
PLAN_1
 62
     2
  6
CONTINUOUS
 10
0.589831
 20
-0.133902
  0
VERTEX
  8
PLAN_1
 62
     2
  6
CONTINUOUS
 10
0.592244
 20
-0.134866
  0
VERTEX
  8
PLAN_1
 62
     2
  6
CONTINUOUS
 10
0.594661
 20
-0.135831
  0
VERTEX
  8
PLAN_1
 62
     2
  6
CONTINUOUS
 10
0.596591
 20
-0.136799
  0
VERTEX
  8
PLAN_1
 62
     2
  6
CONTINUOUS
 10
0.598524
 20
-0.138728
  0
VERTEX
  8
PLAN_1
 62
     2
  6
CONTINUOUS
 10
0.600453
 20
-0.140177
  0
VERTEX
  8
PLAN_1
 62
     2
  6
CONTINUOUS
 10
0.601902
 20
-0.142110
  0
VERTEX
  8
PLAN_1
 62
     2
  6
CONTINUOUS
 10
0.603350
 20
-0.144524
  0
VERTEX
  8
PLAN_1
 62
     2
  6
CONTINUOUS
 10
0.604319
 20
-0.146937
  0
VERTEX
  8
PLAN_1
 62
     2
  6
CONTINUOUS
 10
0.605283
 20
-0.149354
  0
VERTEX
  8
PLAN_1
 62
     2
  6
CONTINUOUS
 10
0.606248
 20
-0.152252
  0
VERTEX
  8
PLAN_1
 62
     2
  6
CONTINUOUS
 10
0.607217
 20
-0.158528
  0
VERTEX
  8
PLAN_1
 62
     2
  6
CONTINUOUS
 10
0.607697
 20
-0.165287
  0
VERTEX
  8
PLAN_1
 62
     2
  6
CONTINUOUS
 10
0.568102
 20
-0.165287
  0
VERTEX
  8
PLAN_1
 62
     2
  6
CONTINUOUS
 10
0.568102
 20
-0.169150
  0
VERTEX
  8
PLAN_1
 62
     2
  6
CONTINUOUS
 10
0.569067
 20
-0.173016
  0
VERTEX
  8
PLAN_1
 62
     2
  6
CONTINUOUS
 10
0.570031
 20
-0.175913
  0
VERTEX
  8
PLAN_1
 62
     2
  6
CONTINUOUS
 10
0.571965
 20
-0.178327
  0
VERTEX
  8
PLAN_1
 62
     2
  6
CONTINUOUS
 10
0.574378
 20
-0.180256
  0
VERTEX
  8
PLAN_1
 62
     2
  6
CONTINUOUS
 10
0.576791
 20
-0.182189
  0
VERTEX
  8
PLAN_1
 62
     2
  6
CONTINUOUS
 10
0.580173
 20
-0.182673
  0
VERTEX
  8
PLAN_1
 62
     2
  6
CONTINUOUS
 10
0.583555
 20
-0.183154
  0
VERTEX
  8
PLAN_1
 62
     2
  6
CONTINUOUS
 10
0.586933
 20
-0.182673
  0
VERTEX
  8
PLAN_1
 62
     2
  6
CONTINUOUS
 10
0.589346
 20
-0.182189
  0
VERTEX
  8
PLAN_1
 62
     2
  6
CONTINUOUS
 10
0.591764
 20
-0.180740
  0
VERTEX
  8
PLAN_1
 62
     2
  6
CONTINUOUS
 10
0.593693
 20
-0.179291
  0
VERTEX
  8
PLAN_1
 62
     2
  6
CONTINUOUS
 10
0.595626
 20
-0.177843
  0
VERTEX
  8
PLAN_1
 62
     2
  6
CONTINUOUS
 10
0.596591
 20
-0.175913
  0
VERTEX
  8
PLAN_1
 62
     2
  6
CONTINUOUS
 10
0.597559
 20
-0.173980
  0
VERTEX
  8
PLAN_1
 62
     2
  6
CONTINUOUS
 10
0.598039
 20
-0.172531
  0
VERTEX
  8
PLAN_1
 62
     2
  6
CONTINUOUS
 10
0.607217
 20
-0.172531
  0
SEQEND
  8
0
  0
POLYLINE
  8
PLAN_1
 62
     2
  6
CONTINUOUS
 66
     1
 40
0.003000
 41
0.003000
  0
VERTEX
  8
PLAN_1
 62
     2
  6
CONTINUOUS
 10
0.598039
 20
-0.158043
  0
VERTEX
  8
PLAN_1
 62
     2
  6
CONTINUOUS
 10
0.598039
 20
-0.154665
  0
VERTEX
  8
PLAN_1
 62
     2
  6
CONTINUOUS
 10
0.597075
 20
-0.151768
  0
VERTEX
  8
PLAN_1
 62
     2
  6
CONTINUOUS
 10
0.596110
 20
-0.149354
  0
VERTEX
  8
PLAN_1
 62
     2
  6
CONTINUOUS
 10
0.594661
 20
-0.146937
  0
VERTEX
  8
PLAN_1
 62
     2
  6
CONTINUOUS
 10
0.592728
 20
-0.144524
  0
VERTEX
  8
PLAN_1
 62
     2
  6
CONTINUOUS
 10
0.589831
 20
-0.143075
  0
VERTEX
  8
PLAN_1
 62
     2
  6
CONTINUOUS
 10
0.586933
 20
-0.142110
  0
VERTEX
  8
PLAN_1
 62
     2
  6
CONTINUOUS
 10
0.583071
 20
-0.141626
  0
VERTEX
  8
PLAN_1
 62
     2
  6
CONTINUOUS
 10
0.580173
 20
-0.142110
  0
VERTEX
  8
PLAN_1
 62
     2
  6
CONTINUOUS
 10
0.577276
 20
-0.143075
  0
VERTEX
  8
PLAN_1
 62
     2
  6
CONTINUOUS
 10
0.574378
 20
-0.144524
  0
VERTEX
  8
PLAN_1
 62
     2
  6
CONTINUOUS
 10
0.572449
 20
-0.146937
  0
VERTEX
  8
PLAN_1
 62
     2
  6
CONTINUOUS
 10
0.570516
 20
-0.149354
  0
VERTEX
  8
PLAN_1
 62
     2
  6
CONTINUOUS
 10
0.569067
 20
-0.151768
  0
VERTEX
  8
PLAN_1
 62
     2
  6
CONTINUOUS
 10
0.568102
 20
-0.154665
  0
VERTEX
  8
PLAN_1
 62
     2
  6
CONTINUOUS
 10
0.568102
 20
-0.158043
  0
VERTEX
  8
PLAN_1
 62
     2
  6
CONTINUOUS
 10
0.598039
 20
-0.158043
  0
SEQEND
  8
0
  0
POLYLINE
  8
PLAN_1
 62
     2
  6
CONTINUOUS
 66
     1
 40
0.003000
 41
0.003000
  0
VERTEX
  8
PLAN_1
 62
     2
  6
CONTINUOUS
 10
0.646811
 20
-0.134866
  0
VERTEX
  8
PLAN_1
 62
     2
  6
CONTINUOUS
 10
0.655504
 20
-0.134866
  0
VERTEX
  8
PLAN_1
 62
     2
  6
CONTINUOUS
 10
0.655504
 20
-0.142591
  0
VERTEX
  8
PLAN_1
 62
     2
  6
CONTINUOUS
 10
0.656469
 20
-0.141626
  0
VERTEX
  8
PLAN_1
 62
     2
  6
CONTINUOUS
 10
0.657917
 20
-0.140177
  0
VERTEX
  8
PLAN_1
 62
     2
  6
CONTINUOUS
 10
0.659366
 20
-0.138728
  0
VERTEX
  8
PLAN_1
 62
     2
  6
CONTINUOUS
 10
0.660815
 20
-0.136799
  0
VERTEX
  8
PLAN_1
 62
     2
  6
CONTINUOUS
 10
0.663228
 20
-0.135831
  0
VERTEX
  8
PLAN_1
 62
     2
  6
CONTINUOUS
 10
0.665646
 20
-0.134382
  0
VERTEX
  8
PLAN_1
 62
     2
  6
CONTINUOUS
 10
0.668543
 20
-0.133902
  0
VERTEX
  8
PLAN_1
 62
     2
  6
CONTINUOUS
 10
0.671921
 20
-0.133417
  0
VERTEX
  8
PLAN_1
 62
     2
  6
CONTINUOUS
 10
0.674819
 20
-0.133902
  0
VERTEX
  8
PLAN_1
 62
     2
  6
CONTINUOUS
 10
0.677232
 20
-0.133902
  0
VERTEX
  8
PLAN_1
 62
     2
  6
CONTINUOUS
 10
0.679650
 20
-0.134866
  0
VERTEX
  8
PLAN_1
 62
     2
  6
CONTINUOUS
 10
0.681579
 20
-0.135831
  0
VERTEX
  8
PLAN_1
 62
     2
  6
CONTINUOUS
 10
0.683512
 20
-0.136799
  0
VERTEX
  8
PLAN_1
 62
     2
  6
CONTINUOUS
 10
0.685441
 20
-0.138248
  0
VERTEX
  8
PLAN_1
 62
     2
  6
CONTINUOUS
 10
0.687374
 20
-0.139697
  0
VERTEX
  8
PLAN_1
 62
     2
  6
CONTINUOUS
 10
0.688823
 20
-0.141146
  0
VERTEX
  8
PLAN_1
 62
     2
  6
CONTINUOUS
 10
0.691236
 20
-0.145488
  0
VERTEX
  8
PLAN_1
 62
     2
  6
CONTINUOUS
 10
0.693169
 20
-0.149835
  0
VERTEX
  8
PLAN_1
 62
     2
  6
CONTINUOUS
 10
0.694134
 20
-0.155146
  0
VERTEX
  8
PLAN_1
 62
     2
  6
CONTINUOUS
 10
0.694618
 20
-0.160461
  0
VERTEX
  8
PLAN_1
 62
     2
  6
CONTINUOUS
 10
0.694134
 20
-0.165772
  0
VERTEX
  8
PLAN_1
 62
     2
  6
CONTINUOUS
 10
0.693654
 20
-0.171083
  0
VERTEX
  8
PLAN_1
 62
     2
  6
CONTINUOUS
 10
0.691720
 20
-0.175913
  0
VERTEX
  8
PLAN_1
 62
     2
  6
CONTINUOUS
 10
0.689787
 20
-0.180740
  0
VERTEX
  8
PLAN_1
 62
     2
  6
CONTINUOUS
 10
0.688339
 20
-0.182673
  0
VERTEX
  8
PLAN_1
 62
     2
  6
CONTINUOUS
 10
0.686409
 20
-0.185087
  0
VERTEX
  8
PLAN_1
 62
     2
  6
CONTINUOUS
 10
0.684476
 20
-0.186535
  0
VERTEX
  8
PLAN_1
 62
     2
  6
CONTINUOUS
 10
0.682063
 20
-0.187984
  0
VERTEX
  8
PLAN_1
 62
     2
  6
CONTINUOUS
 10
0.679650
 20
-0.189433
  0
VERTEX
  8
PLAN_1
 62
     2
  6
CONTINUOUS
 10
0.677232
 20
-0.190398
  0
VERTEX
  8
PLAN_1
 62
     2
  6
CONTINUOUS
 10
0.673854
 20
-0.190882
  0
VERTEX
  8
PLAN_1
 62
     2
  6
CONTINUOUS
 10
0.670472
 20
-0.190882
  0
VERTEX
  8
PLAN_1
 62
     2
  6
CONTINUOUS
 10
0.668059
 20
-0.190882
  0
VERTEX
  8
PLAN_1
 62
     2
  6
CONTINUOUS
 10
0.665646
 20
-0.190398
  0
VERTEX
  8
PLAN_1
 62
     2
  6
CONTINUOUS
 10
0.663713
 20
-0.189917
  0
VERTEX
  8
PLAN_1
 62
     2
  6
CONTINUOUS
 10
0.661780
 20
-0.188949
  0
VERTEX
  8
PLAN_1
 62
     2
  6
CONTINUOUS
 10
0.659850
 20
-0.187984
  0
VERTEX
  8
PLAN_1
 62
     2
  6
CONTINUOUS
 10
0.658402
 20
-0.186535
  0
VERTEX
  8
PLAN_1
 62
     2
  6
CONTINUOUS
 10
0.657437
 20
-0.185087
  0
VERTEX
  8
PLAN_1
 62
     2
  6
CONTINUOUS
 10
0.656469
 20
-0.183638
  0
VERTEX
  8
PLAN_1
 62
     2
  6
CONTINUOUS
 10
0.655988
 20
-0.183638
  0
VERTEX
  8
PLAN_1
 62
     2
  6
CONTINUOUS
 10
0.655988
 20
-0.211161
  0
VERTEX
  8
PLAN_1
 62
     2
  6
CONTINUOUS
 10
0.646811
 20
-0.211161
  0
VERTEX
  8
PLAN_1
 62
     2
  6
CONTINUOUS
 10
0.646811
 20
-0.134866
  0
SEQEND
  8
0
  0
POLYLINE
  8
PLAN_1
 62
     2
  6
CONTINUOUS
 66
     1
 40
0.003000
 41
0.003000
  0
VERTEX
  8
PLAN_1
 62
     2
  6
CONTINUOUS
 10
0.670472
 20
-0.183154
  0
VERTEX
  8
PLAN_1
 62
     2
  6
CONTINUOUS
 10
0.673854
 20
-0.182673
  0
VERTEX
  8
PLAN_1
 62
     2
  6
CONTINUOUS
 10
0.677232
 20
-0.181705
  0
VERTEX
  8
PLAN_1
 62
     2
  6
CONTINUOUS
 10
0.679650
 20
-0.179776
  0
VERTEX
  8
PLAN_1
 62
     2
  6
CONTINUOUS
 10
0.681579
 20
-0.177362
  0
VERTEX
  8
PLAN_1
 62
     2
  6
CONTINUOUS
 10
0.683028
 20
-0.173980
  0
VERTEX
  8
PLAN_1
 62
     2
  6
CONTINUOUS
 10
0.684476
 20
-0.170598
  0
VERTEX
  8
PLAN_1
 62
     2
  6
CONTINUOUS
 10
0.684961
 20
-0.166252
  0
VERTEX
  8
PLAN_1
 62
     2
  6
CONTINUOUS
 10
0.684961
 20
-0.161909
  0
VERTEX
  8
PLAN_1
 62
     2
  6
CONTINUOUS
 10
0.684961
 20
-0.159492
  0
VERTEX
  8
PLAN_1
 62
     2
  6
CONTINUOUS
 10
0.684961
 20
-0.156114
  0
VERTEX
  8
PLAN_1
 62
     2
  6
CONTINUOUS
 10
0.683996
 20
-0.152732
  0
VERTEX
  8
PLAN_1
 62
     2
  6
CONTINUOUS
 10
0.683028
 20
-0.149354
  0
VERTEX
  8
PLAN_1
 62
     2
  6
CONTINUOUS
 10
0.682063
 20
-0.147906
  0
VERTEX
  8
PLAN_1
 62
     2
  6
CONTINUOUS
 10
0.681098
 20
-0.146457
  0
VERTEX
  8
PLAN_1
 62
     2
  6
CONTINUOUS
 10
0.680130
 20
-0.145008
  0
VERTEX
  8
PLAN_1
 62
     2
  6
CONTINUOUS
 10
0.678681
 20
-0.144039
  0
VERTEX
  8
PLAN_1
 62
     2
  6
CONTINUOUS
 10
0.676752
 20
-0.143075
  0
VERTEX
  8
PLAN_1
 62
     2
  6
CONTINUOUS
 10
0.674819
 20
-0.142591
  0
VERTEX
  8
PLAN_1
 62
     2
  6
CONTINUOUS
 10
0.672886
 20
-0.142110
  0
VERTEX
  8
PLAN_1
 62
     2
  6
CONTINUOUS
 10
0.670472
 20
-0.141626
  0
VERTEX
  8
PLAN_1
 62
     2
  6
CONTINUOUS
 10
0.668059
 20
-0.142110
  0
VERTEX
  8
PLAN_1
 62
     2
  6
CONTINUOUS
 10
0.665646
 20
-0.142591
  0
VERTEX
  8
PLAN_1
 62
     2
  6
CONTINUOUS
 10
0.664197
 20
-0.143075
  0
VERTEX
  8
PLAN_1
 62
     2
  6
CONTINUOUS
 10
0.662264
 20
-0.144039
  0
VERTEX
  8
PLAN_1
 62
     2
  6
CONTINUOUS
 10
0.660815
 20
-0.145488
  0
VERTEX
  8
PLAN_1
 62
     2
  6
CONTINUOUS
 10
0.659850
 20
-0.146937
  0
VERTEX
  8
PLAN_1
 62
     2
  6
CONTINUOUS
 10
0.658886
 20
-0.148386
  0
VERTEX
  8
PLAN_1
 62
     2
  6
CONTINUOUS
 10
0.657917
 20
-0.149835
  0
VERTEX
  8
PLAN_1
 62
     2
  6
CONTINUOUS
 10
0.656953
 20
-0.153701
  0
VERTEX
  8
PLAN_1
 62
     2
  6
CONTINUOUS
 10
0.655988
 20
-0.157563
  0
VERTEX
  8
PLAN_1
 62
     2
  6
CONTINUOUS
 10
0.655504
 20
-0.161425
  0
VERTEX
  8
PLAN_1
 62
     2
  6
CONTINUOUS
 10
0.655504
 20
-0.164807
  0
VERTEX
  8
PLAN_1
 62
     2
  6
CONTINUOUS
 10
0.655988
 20
-0.169634
  0
VERTEX
  8
PLAN_1
 62
     2
  6
CONTINUOUS
 10
0.656953
 20
-0.173980
  0
VERTEX
  8
PLAN_1
 62
     2
  6
CONTINUOUS
 10
0.658886
 20
-0.176878
  0
VERTEX
  8
PLAN_1
 62
     2
  6
CONTINUOUS
 10
0.660815
 20
-0.179291
  0
VERTEX
  8
PLAN_1
 62
     2
  6
CONTINUOUS
 10
0.663228
 20
-0.181224
  0
VERTEX
  8
PLAN_1
 62
     2
  6
CONTINUOUS
 10
0.665646
 20
-0.182189
  0
VERTEX
  8
PLAN_1
 62
     2
  6
CONTINUOUS
 10
0.668059
 20
-0.183154
  0
VERTEX
  8
PLAN_1
 62
     2
  6
CONTINUOUS
 10
0.670472
 20
-0.183154
  0
SEQEND
  8
0
  0
POLYLINE
  8
PLAN_1
 62
     2
  6
CONTINUOUS
 66
     1
 40
0.003000
 41
0.003000
  0
VERTEX
  8
PLAN_1
 62
     2
  6
CONTINUOUS
 10
0.727453
 20
-0.133417
  0
VERTEX
  8
PLAN_1
 62
     2
  6
CONTINUOUS
 10
0.730835
 20
-0.133902
  0
VERTEX
  8
PLAN_1
 62
     2
  6
CONTINUOUS
 10
0.733732
 20
-0.134382
  0
VERTEX
  8
PLAN_1
 62
     2
  6
CONTINUOUS
 10
0.736630
 20
-0.134866
  0
VERTEX
  8
PLAN_1
 62
     2
  6
CONTINUOUS
 10
0.739043
 20
-0.135831
  0
VERTEX
  8
PLAN_1
 62
     2
  6
CONTINUOUS
 10
0.740976
 20
-0.137280
  0
VERTEX
  8
PLAN_1
 62
     2
  6
CONTINUOUS
 10
0.743390
 20
-0.138728
  0
VERTEX
  8
PLAN_1
 62
     2
  6
CONTINUOUS
 10
0.745323
 20
-0.140661
  0
VERTEX
  8
PLAN_1
 62
     2
  6
CONTINUOUS
 10
0.746768
 20
-0.142591
  0
VERTEX
  8
PLAN_1
 62
     2
  6
CONTINUOUS
 10
0.749665
 20
-0.146937
  0
VERTEX
  8
PLAN_1
 62
     2
  6
CONTINUOUS
 10
0.751598
 20
-0.151768
  0
VERTEX
  8
PLAN_1
 62
     2
  6
CONTINUOUS
 10
0.752563
 20
-0.157079
  0
VERTEX
  8
PLAN_1
 62
     2
  6
CONTINUOUS
 10
0.753047
 20
-0.162390
  0
VERTEX
  8
PLAN_1
 62
     2
  6
CONTINUOUS
 10
0.752563
 20
-0.167701
  0
VERTEX
  8
PLAN_1
 62
     2
  6
CONTINUOUS
 10
0.751598
 20
-0.172531
  0
VERTEX
  8
PLAN_1
 62
     2
  6
CONTINUOUS
 10
0.749665
 20
-0.177362
  0
VERTEX
  8
PLAN_1
 62
     2
  6
CONTINUOUS
 10
0.746768
 20
-0.181705
  0
VERTEX
  8
PLAN_1
 62
     2
  6
CONTINUOUS
 10
0.745323
 20
-0.183638
  0
VERTEX
  8
PLAN_1
 62
     2
  6
CONTINUOUS
 10
0.743390
 20
-0.185571
  0
VERTEX
  8
PLAN_1
 62
     2
  6
CONTINUOUS
 10
0.740976
 20
-0.187020
  0
VERTEX
  8
PLAN_1
 62
     2
  6
CONTINUOUS
 10
0.739043
 20
-0.188469
  0
VERTEX
  8
PLAN_1
 62
     2
  6
CONTINUOUS
 10
0.736630
 20
-0.189433
  0
VERTEX
  8
PLAN_1
 62
     2
  6
CONTINUOUS
 10
0.733732
 20
-0.190398
  0
VERTEX
  8
PLAN_1
 62
     2
  6
CONTINUOUS
 10
0.730835
 20
-0.190882
  0
VERTEX
  8
PLAN_1
 62
     2
  6
CONTINUOUS
 10
0.727453
 20
-0.190882
  0
VERTEX
  8
PLAN_1
 62
     2
  6
CONTINUOUS
 10
0.724555
 20
-0.190882
  0
VERTEX
  8
PLAN_1
 62
     2
  6
CONTINUOUS
 10
0.721657
 20
-0.190398
  0
VERTEX
  8
PLAN_1
 62
     2
  6
CONTINUOUS
 10
0.718764
 20
-0.189433
  0
VERTEX
  8
PLAN_1
 62
     2
  6
CONTINUOUS
 10
0.716346
 20
-0.188469
  0
VERTEX
  8
PLAN_1
 62
     2
  6
CONTINUOUS
 10
0.713933
 20
-0.187020
  0
VERTEX
  8
PLAN_1
 62
     2
  6
CONTINUOUS
 10
0.712000
 20
-0.185571
  0
VERTEX
  8
PLAN_1
 62
     2
  6
CONTINUOUS
 10
0.710071
 20
-0.183638
  0
VERTEX
  8
PLAN_1
 62
     2
  6
CONTINUOUS
 10
0.708622
 20
-0.181705
  0
VERTEX
  8
PLAN_1
 62
     2
  6
CONTINUOUS
 10
0.705724
 20
-0.177362
  0
VERTEX
  8
PLAN_1
 62
     2
  6
CONTINUOUS
 10
0.703791
 20
-0.172531
  0
VERTEX
  8
PLAN_1
 62
     2
  6
CONTINUOUS
 10
0.702827
 20
-0.167701
  0
VERTEX
  8
PLAN_1
 62
     2
  6
CONTINUOUS
 10
0.702343
 20
-0.162390
  0
VERTEX
  8
PLAN_1
 62
     2
  6
CONTINUOUS
 10
0.702827
 20
-0.157079
  0
VERTEX
  8
PLAN_1
 62
     2
  6
CONTINUOUS
 10
0.703791
 20
-0.151768
  0
VERTEX
  8
PLAN_1
 62
     2
  6
CONTINUOUS
 10
0.705724
 20
-0.146937
  0
VERTEX
  8
PLAN_1
 62
     2
  6
CONTINUOUS
 10
0.708622
 20
-0.142591
  0
VERTEX
  8
PLAN_1
 62
     2
  6
CONTINUOUS
 10
0.710071
 20
-0.140661
  0
VERTEX
  8
PLAN_1
 62
     2
  6
CONTINUOUS
 10
0.712000
 20
-0.138728
  0
VERTEX
  8
PLAN_1
 62
     2
  6
CONTINUOUS
 10
0.713933
 20
-0.137280
  0
VERTEX
  8
PLAN_1
 62
     2
  6
CONTINUOUS
 10
0.716346
 20
-0.135831
  0
VERTEX
  8
PLAN_1
 62
     2
  6
CONTINUOUS
 10
0.718764
 20
-0.134866
  0
VERTEX
  8
PLAN_1
 62
     2
  6
CONTINUOUS
 10
0.721657
 20
-0.134382
  0
VERTEX
  8
PLAN_1
 62
     2
  6
CONTINUOUS
 10
0.724555
 20
-0.133902
  0
VERTEX
  8
PLAN_1
 62
     2
  6
CONTINUOUS
 10
0.727453
 20
-0.133417
  0
SEQEND
  8
0
  0
POLYLINE
  8
PLAN_1
 62
     2
  6
CONTINUOUS
 66
     1
 40
0.003000
 41
0.003000
  0
VERTEX
  8
PLAN_1
 62
     2
  6
CONTINUOUS
 10
0.727453
 20
-0.183154
  0
VERTEX
  8
PLAN_1
 62
     2
  6
CONTINUOUS
 10
0.729870
 20
-0.182673
  0
VERTEX
  8
PLAN_1
 62
     2
  6
CONTINUOUS
 10
0.732283
 20
-0.182673
  0
VERTEX
  8
PLAN_1
 62
     2
  6
CONTINUOUS
 10
0.734213
 20
-0.181705
  0
VERTEX
  8
PLAN_1
 62
     2
  6
CONTINUOUS
 10
0.735661
 20
-0.180740
  0
VERTEX
  8
PLAN_1
 62
     2
  6
CONTINUOUS
 10
0.738559
 20
-0.178327
  0
VERTEX
  8
PLAN_1
 62
     2
  6
CONTINUOUS
 10
0.740492
 20
-0.175429
  0
VERTEX
  8
PLAN_1
 62
     2
  6
CONTINUOUS
 10
0.741941
 20
-0.172047
  0
VERTEX
  8
PLAN_1
 62
     2
  6
CONTINUOUS
 10
0.742906
 20
-0.168669
  0
VERTEX
  8
PLAN_1
 62
     2
  6
CONTINUOUS
 10
0.743390
 20
-0.165287
  0
VERTEX
  8
PLAN_1
 62
     2
  6
CONTINUOUS
 10
0.743390
 20
-0.162390
  0
VERTEX
  8
PLAN_1
 62
     2
  6
CONTINUOUS
 10
0.743390
 20
-0.159492
  0
VERTEX
  8
PLAN_1
 62
     2
  6
CONTINUOUS
 10
0.742906
 20
-0.156114
  0
VERTEX
  8
PLAN_1
 62
     2
  6
CONTINUOUS
 10
0.741941
 20
-0.152252
  0
VERTEX
  8
PLAN_1
 62
     2
  6
CONTINUOUS
 10
0.740492
 20
-0.149354
  0
VERTEX
  8
PLAN_1
 62
     2
  6
CONTINUOUS
 10
0.738559
 20
-0.145972
  0
VERTEX
  8
PLAN_1
 62
     2
  6
CONTINUOUS
 10
0.735661
 20
-0.143559
  0
VERTEX
  8
PLAN_1
 62
     2
  6
CONTINUOUS
 10
0.734213
 20
-0.142591
  0
VERTEX
  8
PLAN_1
 62
     2
  6
CONTINUOUS
 10
0.732283
 20
-0.142110
  0
VERTEX
  8
PLAN_1
 62
     2
  6
CONTINUOUS
 10
0.729870
 20
-0.141626
  0
VERTEX
  8
PLAN_1
 62
     2
  6
CONTINUOUS
 10
0.727453
 20
-0.141626
  0
VERTEX
  8
PLAN_1
 62
     2
  6
CONTINUOUS
 10
0.725524
 20
-0.141626
  0
VERTEX
  8
PLAN_1
 62
     2
  6
CONTINUOUS
 10
0.723106
 20
-0.142110
  0
VERTEX
  8
PLAN_1
 62
     2
  6
CONTINUOUS
 10
0.721177
 20
-0.142591
  0
VERTEX
  8
PLAN_1
 62
     2
  6
CONTINUOUS
 10
0.719728
 20
-0.143559
  0
VERTEX
  8
PLAN_1
 62
     2
  6
CONTINUOUS
 10
0.716831
 20
-0.145972
  0
VERTEX
  8
PLAN_1
 62
     2
  6
CONTINUOUS
 10
0.714898
 20
-0.149354
  0
VERTEX
  8
PLAN_1
 62
     2
  6
CONTINUOUS
 10
0.713449
 20
-0.152252
  0
VERTEX
  8
PLAN_1
 62
     2
  6
CONTINUOUS
 10
0.712484
 20
-0.156114
  0
VERTEX
  8
PLAN_1
 62
     2
  6
CONTINUOUS
 10
0.712000
 20
-0.159492
  0
VERTEX
  8
PLAN_1
 62
     2
  6
CONTINUOUS
 10
0.712000
 20
-0.162390
  0
VERTEX
  8
PLAN_1
 62
     2
  6
CONTINUOUS
 10
0.712000
 20
-0.165287
  0
VERTEX
  8
PLAN_1
 62
     2
  6
CONTINUOUS
 10
0.712484
 20
-0.168669
  0
VERTEX
  8
PLAN_1
 62
     2
  6
CONTINUOUS
 10
0.713449
 20
-0.172047
  0
VERTEX
  8
PLAN_1
 62
     2
  6
CONTINUOUS
 10
0.714898
 20
-0.175429
  0
VERTEX
  8
PLAN_1
 62
     2
  6
CONTINUOUS
 10
0.716831
 20
-0.178327
  0
VERTEX
  8
PLAN_1
 62
     2
  6
CONTINUOUS
 10
0.719728
 20
-0.180740
  0
VERTEX
  8
PLAN_1
 62
     2
  6
CONTINUOUS
 10
0.721177
 20
-0.181705
  0
VERTEX
  8
PLAN_1
 62
     2
  6
CONTINUOUS
 10
0.723106
 20
-0.182673
  0
VERTEX
  8
PLAN_1
 62
     2
  6
CONTINUOUS
 10
0.725524
 20
-0.182673
  0
VERTEX
  8
PLAN_1
 62
     2
  6
CONTINUOUS
 10
0.727453
 20
-0.183154
  0
SEQEND
  8
0
  0
POLYLINE
  8
PLAN_1
 62
     2
  6
CONTINUOUS
 66
     1
 40
0.003000
 41
0.003000
  0
VERTEX
  8
PLAN_1
 62
     2
  6
CONTINUOUS
 10
0.798921
 20
-0.189433
  0
VERTEX
  8
PLAN_1
 62
     2
  6
CONTINUOUS
 10
0.798921
 20
-0.181705
  0
VERTEX
  8
PLAN_1
 62
     2
  6
CONTINUOUS
 10
0.798437
 20
-0.181224
  0
VERTEX
  8
PLAN_1
 62
     2
  6
CONTINUOUS
 10
0.796988
 20
-0.183638
  0
VERTEX
  8
PLAN_1
 62
     2
  6
CONTINUOUS
 10
0.795539
 20
-0.185571
  0
VERTEX
  8
PLAN_1
 62
     2
  6
CONTINUOUS
 10
0.793610
 20
-0.187020
  0
VERTEX
  8
PLAN_1
 62
     2
  6
CONTINUOUS
 10
0.791677
 20
-0.188469
  0
VERTEX
  8
PLAN_1
 62
     2
  6
CONTINUOUS
 10
0.789748
 20
-0.189917
  0
VERTEX
  8
PLAN_1
 62
     2
  6
CONTINUOUS
 10
0.787331
 20
-0.190398
  0
VERTEX
  8
PLAN_1
 62
     2
  6
CONTINUOUS
 10
0.784433
 20
-0.190882
  0
VERTEX
  8
PLAN_1
 62
     2
  6
CONTINUOUS
 10
0.781539
 20
-0.190882
  0
VERTEX
  8
PLAN_1
 62
     2
  6
CONTINUOUS
 10
0.778157
 20
-0.190882
  0
VERTEX
  8
PLAN_1
 62
     2
  6
CONTINUOUS
 10
0.775260
 20
-0.190398
  0
VERTEX
  8
PLAN_1
 62
     2
  6
CONTINUOUS
 10
0.772362
 20
-0.188949
  0
VERTEX
  8
PLAN_1
 62
     2
  6
CONTINUOUS
 10
0.769465
 20
-0.187500
  0
VERTEX
  8
PLAN_1
 62
     2
  6
CONTINUOUS
 10
0.767051
 20
-0.185087
  0
VERTEX
  8
PLAN_1
 62
     2
  6
CONTINUOUS
 10
0.765118
 20
-0.182189
  0
VERTEX
  8
PLAN_1
 62
     2
  6
CONTINUOUS
 10
0.764154
 20
-0.178807
  0
VERTEX
  8
PLAN_1
 62
     2
  6
CONTINUOUS
 10
0.763669
 20
-0.173980
  0
VERTEX
  8
PLAN_1
 62
     2
  6
CONTINUOUS
 10
0.763669
 20
-0.134866
  0
VERTEX
  8
PLAN_1
 62
     2
  6
CONTINUOUS
 10
0.772846
 20
-0.134866
  0
VERTEX
  8
PLAN_1
 62
     2
  6
CONTINUOUS
 10
0.772846
 20
-0.171083
  0
VERTEX
  8
PLAN_1
 62
     2
  6
CONTINUOUS
 10
0.772846
 20
-0.174465
  0
VERTEX
  8
PLAN_1
 62
     2
  6
CONTINUOUS
 10
0.773811
 20
-0.176878
  0
VERTEX
  8
PLAN_1
 62
     2
  6
CONTINUOUS
 10
0.774776
 20
-0.178807
  0
VERTEX
  8
PLAN_1
 62
     2
  6
CONTINUOUS
 10
0.775744
 20
-0.180740
  0
VERTEX
  8
PLAN_1
 62
     2
  6
CONTINUOUS
 10
0.777193
 20
-0.181705
  0
VERTEX
  8
PLAN_1
 62
     2
  6
CONTINUOUS
 10
0.779122
 20
-0.182673
  0
VERTEX
  8
PLAN_1
 62
     2
  6
CONTINUOUS
 10
0.781055
 20
-0.183154
  0
VERTEX
  8
PLAN_1
 62
     2
  6
CONTINUOUS
 10
0.783469
 20
-0.183154
  0
VERTEX
  8
PLAN_1
 62
     2
  6
CONTINUOUS
 10
0.787331
 20
-0.182673
  0
VERTEX
  8
PLAN_1
 62
     2
  6
CONTINUOUS
 10
0.790713
 20
-0.181224
  0
VERTEX
  8
PLAN_1
 62
     2
  6
CONTINUOUS
 10
0.793126
 20
-0.179291
  0
VERTEX
  8
PLAN_1
 62
     2
  6
CONTINUOUS
 10
0.795059
 20
-0.176878
  0
VERTEX
  8
PLAN_1
 62
     2
  6
CONTINUOUS
 10
0.796508
 20
-0.174465
  0
VERTEX
  8
PLAN_1
 62
     2
  6
CONTINUOUS
 10
0.797472
 20
-0.171083
  0
VERTEX
  8
PLAN_1
 62
     2
  6
CONTINUOUS
 10
0.797957
 20
-0.168185
  0
VERTEX
  8
PLAN_1
 62
     2
  6
CONTINUOUS
 10
0.798437
 20
-0.165287
  0
VERTEX
  8
PLAN_1
 62
     2
  6
CONTINUOUS
 10
0.798437
 20
-0.134866
  0
VERTEX
  8
PLAN_1
 62
     2
  6
CONTINUOUS
 10
0.807614
 20
-0.134866
  0
VERTEX
  8
PLAN_1
 62
     2
  6
CONTINUOUS
 10
0.807614
 20
-0.189433
  0
VERTEX
  8
PLAN_1
 62
     2
  6
CONTINUOUS
 10
0.798921
 20
-0.189433
  0
SEQEND
  8
0
  0
POLYLINE
  8
PLAN_1
 62
     2
  6
CONTINUOUS
 66
     1
 40
0.003000
 41
0.003000
  0
VERTEX
  8
PLAN_1
 62
     2
  6
CONTINUOUS
 10
0.831760
 20
-0.189433
  0
VERTEX
  8
PLAN_1
 62
     2
  6
CONTINUOUS
 10
0.822583
 20
-0.189433
  0
VERTEX
  8
PLAN_1
 62
     2
  6
CONTINUOUS
 10
0.822583
 20
-0.134866
  0
VERTEX
  8
PLAN_1
 62
     2
  6
CONTINUOUS
 10
0.831276
 20
-0.134866
  0
VERTEX
  8
PLAN_1
 62
     2
  6
CONTINUOUS
 10
0.831276
 20
-0.144039
  0
VERTEX
  8
PLAN_1
 62
     2
  6
CONTINUOUS
 10
0.832724
 20
-0.142110
  0
VERTEX
  8
PLAN_1
 62
     2
  6
CONTINUOUS
 10
0.834173
 20
-0.139697
  0
VERTEX
  8
PLAN_1
 62
     2
  6
CONTINUOUS
 10
0.836102
 20
-0.138248
  0
VERTEX
  8
PLAN_1
 62
     2
  6
CONTINUOUS
 10
0.838035
 20
-0.136315
  0
VERTEX
  8
PLAN_1
 62
     2
  6
CONTINUOUS
 10
0.839969
 20
-0.135350
  0
VERTEX
  8
PLAN_1
 62
     2
  6
CONTINUOUS
 10
0.841898
 20
-0.134382
  0
VERTEX
  8
PLAN_1
 62
     2
  6
CONTINUOUS
 10
0.844315
 20
-0.133902
  0
VERTEX
  8
PLAN_1
 62
     2
  6
CONTINUOUS
 10
0.846728
 20
-0.133417
  0
VERTEX
  8
PLAN_1
 62
     2
  6
CONTINUOUS
 10
0.847209
 20
-0.133417
  0
VERTEX
  8
PLAN_1
 62
     2
  6
CONTINUOUS
 10
0.847693
 20
-0.133417
  0
VERTEX
  8
PLAN_1
 62
     2
  6
CONTINUOUS
 10
0.848177
 20
-0.133417
  0
VERTEX
  8
PLAN_1
 62
     2
  6
CONTINUOUS
 10
0.848177
 20
-0.133902
  0
VERTEX
  8
PLAN_1
 62
     2
  6
CONTINUOUS
 10
0.848657
 20
-0.133902
  0
VERTEX
  8
PLAN_1
 62
     2
  6
CONTINUOUS
 10
0.849142
 20
-0.133902
  0
VERTEX
  8
PLAN_1
 62
     2
  6
CONTINUOUS
 10
0.849142
 20
-0.143075
  0
VERTEX
  8
PLAN_1
 62
     2
  6
CONTINUOUS
 10
0.845760
 20
-0.143075
  0
VERTEX
  8
PLAN_1
 62
     2
  6
CONTINUOUS
 10
0.842382
 20
-0.143559
  0
VERTEX
  8
PLAN_1
 62
     2
  6
CONTINUOUS
 10
0.839969
 20
-0.144524
  0
VERTEX
  8
PLAN_1
 62
     2
  6
CONTINUOUS
 10
0.837551
 20
-0.145972
  0
VERTEX
  8
PLAN_1
 62
     2
  6
CONTINUOUS
 10
0.835622
 20
-0.147421
  0
VERTEX
  8
PLAN_1
 62
     2
  6
CONTINUOUS
 10
0.833689
 20
-0.149835
  0
VERTEX
  8
PLAN_1
 62
     2
  6
CONTINUOUS
 10
0.832724
 20
-0.152252
  0
VERTEX
  8
PLAN_1
 62
     2
  6
CONTINUOUS
 10
0.831760
 20
-0.155146
  0
VERTEX
  8
PLAN_1
 62
     2
  6
CONTINUOUS
 10
0.831760
 20
-0.158043
  0
VERTEX
  8
PLAN_1
 62
     2
  6
CONTINUOUS
 10
0.831760
 20
-0.189433
  0
SEQEND
  8
0
  0
POLYLINE
  8
PLAN_1
 62
     2
  6
CONTINUOUS
 66
     1
 40
0.003000
 41
0.003000
  0
VERTEX
  8
PLAN_1
 62
     2
  6
CONTINUOUS
 10
-0.029232
 20
-0.259933
  0
VERTEX
  8
PLAN_1
 62
     2
  6
CONTINUOUS
 10
-0.020539
 20
-0.259933
  0
VERTEX
  8
PLAN_1
 62
     2
  6
CONTINUOUS
 10
-0.020539
 20
-0.267661
  0
VERTEX
  8
PLAN_1
 62
     2
  6
CONTINUOUS
 10
-0.019575
 20
-0.266693
  0
VERTEX
  8
PLAN_1
 62
     2
  6
CONTINUOUS
 10
-0.018126
 20
-0.264764
  0
VERTEX
  8
PLAN_1
 62
     2
  6
CONTINUOUS
 10
-0.016677
 20
-0.263315
  0
VERTEX
  8
PLAN_1
 62
     2
  6
CONTINUOUS
 10
-0.015228
 20
-0.261866
  0
VERTEX
  8
PLAN_1
 62
     2
  6
CONTINUOUS
 10
-0.012815
 20
-0.260417
  0
VERTEX
  8
PLAN_1
 62
     2
  6
CONTINUOUS
 10
-0.010398
 20
-0.259453
  0
VERTEX
  8
PLAN_1
 62
     2
  6
CONTINUOUS
 10
-0.007500
 20
-0.258969
  0
VERTEX
  8
PLAN_1
 62
     2
  6
CONTINUOUS
 10
-0.004122
 20
-0.258484
  0
VERTEX
  8
PLAN_1
 62
     2
  6
CONTINUOUS
 10
-0.001709
 20
-0.258484
  0
VERTEX
  8
PLAN_1
 62
     2
  6
CONTINUOUS
 10
0.001189
 20
-0.258969
  0
VERTEX
  8
PLAN_1
 62
     2
  6
CONTINUOUS
 10
0.003122
 20
-0.259453
  0
VERTEX
  8
PLAN_1
 62
     2
  6
CONTINUOUS
 10
0.005535
 20
-0.260417
  0
VERTEX
  8
PLAN_1
 62
     2
  6
CONTINUOUS
 10
0.007469
 20
-0.261866
  0
VERTEX
  8
PLAN_1
 62
     2
  6
CONTINUOUS
 10
0.009398
 20
-0.262831
  0
VERTEX
  8
PLAN_1
 62
     2
  6
CONTINUOUS
 10
0.011331
 20
-0.264764
  0
VERTEX
  8
PLAN_1
 62
     2
  6
CONTINUOUS
 10
0.012780
 20
-0.266213
  0
VERTEX
  8
PLAN_1
 62
     2
  6
CONTINUOUS
 10
0.015193
 20
-0.270559
  0
VERTEX
  8
PLAN_1
 62
     2
  6
CONTINUOUS
 10
0.017126
 20
-0.274906
  0
VERTEX
  8
PLAN_1
 62
     2
  6
CONTINUOUS
 10
0.018091
 20
-0.280217
  0
VERTEX
  8
PLAN_1
 62
     2
  6
CONTINUOUS
 10
0.018575
 20
-0.285528
  0
VERTEX
  8
PLAN_1
 62
     2
  6
CONTINUOUS
 10
0.018091
 20
-0.290839
  0
VERTEX
  8
PLAN_1
 62
     2
  6
CONTINUOUS
 10
0.017610
 20
-0.295669
  0
VERTEX
  8
PLAN_1
 62
     2
  6
CONTINUOUS
 10
0.015677
 20
-0.300980
  0
VERTEX
  8
PLAN_1
 62
     2
  6
CONTINUOUS
 10
0.013744
 20
-0.305807
  0
VERTEX
  8
PLAN_1
 62
     2
  6
CONTINUOUS
 10
0.011815
 20
-0.307740
  0
VERTEX
  8
PLAN_1
 62
     2
  6
CONTINUOUS
 10
0.010366
 20
-0.309673
  0
VERTEX
  8
PLAN_1
 62
     2
  6
CONTINUOUS
 10
0.008433
 20
-0.311602
  0
VERTEX
  8
PLAN_1
 62
     2
  6
CONTINUOUS
 10
0.006020
 20
-0.313051
  0
VERTEX
  8
PLAN_1
 62
     2
  6
CONTINUOUS
 10
0.003606
 20
-0.314500
  0
VERTEX
  8
PLAN_1
 62
     2
  6
CONTINUOUS
 10
0.001189
 20
-0.315465
  0
VERTEX
  8
PLAN_1
 62
     2
  6
CONTINUOUS
 10
-0.002189
 20
-0.315949
  0
VERTEX
  8
PLAN_1
 62
     2
  6
CONTINUOUS
 10
-0.005571
 20
-0.315949
  0
VERTEX
  8
PLAN_1
 62
     2
  6
CONTINUOUS
 10
-0.007984
 20
-0.315949
  0
VERTEX
  8
PLAN_1
 62
     2
  6
CONTINUOUS
 10
-0.010398
 20
-0.315465
  0
VERTEX
  8
PLAN_1
 62
     2
  6
CONTINUOUS
 10
-0.012331
 20
-0.314500
  0
VERTEX
  8
PLAN_1
 62
     2
  6
CONTINUOUS
 10
-0.014264
 20
-0.314020
  0
VERTEX
  8
PLAN_1
 62
     2
  6
CONTINUOUS
 10
-0.016193
 20
-0.312571
  0
VERTEX
  8
PLAN_1
 62
     2
  6
CONTINUOUS
 10
-0.017642
 20
-0.311602
  0
VERTEX
  8
PLAN_1
 62
     2
  6
CONTINUOUS
 10
-0.018610
 20
-0.310154
  0
VERTEX
  8
PLAN_1
 62
     2
  6
CONTINUOUS
 10
-0.020055
 20
-0.308705
  0
VERTEX
  8
PLAN_1
 62
     2
  6
CONTINUOUS
 10
-0.020055
 20
-0.336232
  0
VERTEX
  8
PLAN_1
 62
     2
  6
CONTINUOUS
 10
-0.029232
 20
-0.336232
  0
VERTEX
  8
PLAN_1
 62
     2
  6
CONTINUOUS
 10
-0.029232
 20
-0.259933
  0
SEQEND
  8
0
  0
POLYLINE
  8
PLAN_1
 62
     2
  6
CONTINUOUS
 66
     1
 40
0.003000
 41
0.003000
  0
VERTEX
  8
PLAN_1
 62
     2
  6
CONTINUOUS
 10
-0.005571
 20
-0.308224
  0
VERTEX
  8
PLAN_1
 62
     2
  6
CONTINUOUS
 10
-0.002189
 20
-0.307740
  0
VERTEX
  8
PLAN_1
 62
     2
  6
CONTINUOUS
 10
0.000709
 20
-0.306291
  0
VERTEX
  8
PLAN_1
 62
     2
  6
CONTINUOUS
 10
0.003606
 20
-0.304843
  0
VERTEX
  8
PLAN_1
 62
     2
  6
CONTINUOUS
 10
0.005535
 20
-0.301945
  0
VERTEX
  8
PLAN_1
 62
     2
  6
CONTINUOUS
 10
0.006984
 20
-0.299047
  0
VERTEX
  8
PLAN_1
 62
     2
  6
CONTINUOUS
 10
0.008433
 20
-0.295669
  0
VERTEX
  8
PLAN_1
 62
     2
  6
CONTINUOUS
 10
0.008917
 20
-0.291323
  0
VERTEX
  8
PLAN_1
 62
     2
  6
CONTINUOUS
 10
0.008917
 20
-0.286976
  0
VERTEX
  8
PLAN_1
 62
     2
  6
CONTINUOUS
 10
0.008917
 20
-0.284079
  0
VERTEX
  8
PLAN_1
 62
     2
  6
CONTINUOUS
 10
0.008917
 20
-0.281181
  0
VERTEX
  8
PLAN_1
 62
     2
  6
CONTINUOUS
 10
0.007949
 20
-0.277799
  0
VERTEX
  8
PLAN_1
 62
     2
  6
CONTINUOUS
 10
0.006984
 20
-0.274421
  0
VERTEX
  8
PLAN_1
 62
     2
  6
CONTINUOUS
 10
0.006020
 20
-0.272972
  0
VERTEX
  8
PLAN_1
 62
     2
  6
CONTINUOUS
 10
0.005055
 20
-0.271524
  0
VERTEX
  8
PLAN_1
 62
     2
  6
CONTINUOUS
 10
0.004087
 20
-0.270075
  0
VERTEX
  8
PLAN_1
 62
     2
  6
CONTINUOUS
 10
0.002638
 20
-0.269110
  0
VERTEX
  8
PLAN_1
 62
     2
  6
CONTINUOUS
 10
0.000709
 20
-0.268142
  0
VERTEX
  8
PLAN_1
 62
     2
  6
CONTINUOUS
 10
-0.001224
 20
-0.267177
  0
VERTEX
  8
PLAN_1
 62
     2
  6
CONTINUOUS
 10
-0.003157
 20
-0.266693
  0
VERTEX
  8
PLAN_1
 62
     2
  6
CONTINUOUS
 10
-0.005571
 20
-0.266693
  0
VERTEX
  8
PLAN_1
 62
     2
  6
CONTINUOUS
 10
-0.007984
 20
-0.266693
  0
VERTEX
  8
PLAN_1
 62
     2
  6
CONTINUOUS
 10
-0.010398
 20
-0.267177
  0
VERTEX
  8
PLAN_1
 62
     2
  6
CONTINUOUS
 10
-0.011846
 20
-0.268142
  0
VERTEX
  8
PLAN_1
 62
     2
  6
CONTINUOUS
 10
-0.013780
 20
-0.269110
  0
VERTEX
  8
PLAN_1
 62
     2
  6
CONTINUOUS
 10
-0.015228
 20
-0.270075
  0
VERTEX
  8
PLAN_1
 62
     2
  6
CONTINUOUS
 10
-0.016193
 20
-0.271524
  0
VERTEX
  8
PLAN_1
 62
     2
  6
CONTINUOUS
 10
-0.017161
 20
-0.273457
  0
VERTEX
  8
PLAN_1
 62
     2
  6
CONTINUOUS
 10
-0.018126
 20
-0.274906
  0
VERTEX
  8
PLAN_1
 62
     2
  6
CONTINUOUS
 10
-0.019091
 20
-0.278768
  0
VERTEX
  8
PLAN_1
 62
     2
  6
CONTINUOUS
 10
-0.020055
 20
-0.282630
  0
VERTEX
  8
PLAN_1
 62
     2
  6
CONTINUOUS
 10
-0.020539
 20
-0.286492
  0
VERTEX
  8
PLAN_1
 62
     2
  6
CONTINUOUS
 10
-0.020539
 20
-0.289874
  0
VERTEX
  8
PLAN_1
 62
     2
  6
CONTINUOUS
 10
-0.020055
 20
-0.294701
  0
VERTEX
  8
PLAN_1
 62
     2
  6
CONTINUOUS
 10
-0.019091
 20
-0.298567
  0
VERTEX
  8
PLAN_1
 62
     2
  6
CONTINUOUS
 10
-0.017161
 20
-0.301945
  0
VERTEX
  8
PLAN_1
 62
     2
  6
CONTINUOUS
 10
-0.015228
 20
-0.304358
  0
VERTEX
  8
PLAN_1
 62
     2
  6
CONTINUOUS
 10
-0.012815
 20
-0.306291
  0
VERTEX
  8
PLAN_1
 62
     2
  6
CONTINUOUS
 10
-0.010398
 20
-0.307256
  0
VERTEX
  8
PLAN_1
 62
     2
  6
CONTINUOUS
 10
-0.007984
 20
-0.307740
  0
VERTEX
  8
PLAN_1
 62
     2
  6
CONTINUOUS
 10
-0.005571
 20
-0.308224
  0
SEQEND
  8
0
  0
POLYLINE
  8
PLAN_1
 62
     2
  6
CONTINUOUS
 66
     1
 40
0.003000
 41
0.003000
  0
VERTEX
  8
PLAN_1
 62
     2
  6
CONTINUOUS
 10
0.039823
 20
-0.314500
  0
VERTEX
  8
PLAN_1
 62
     2
  6
CONTINUOUS
 10
0.030646
 20
-0.314500
  0
VERTEX
  8
PLAN_1
 62
     2
  6
CONTINUOUS
 10
0.030646
 20
-0.259933
  0
VERTEX
  8
PLAN_1
 62
     2
  6
CONTINUOUS
 10
0.039339
 20
-0.259933
  0
VERTEX
  8
PLAN_1
 62
     2
  6
CONTINUOUS
 10
0.039339
 20
-0.269110
  0
VERTEX
  8
PLAN_1
 62
     2
  6
CONTINUOUS
 10
0.040787
 20
-0.266693
  0
VERTEX
  8
PLAN_1
 62
     2
  6
CONTINUOUS
 10
0.042236
 20
-0.264764
  0
VERTEX
  8
PLAN_1
 62
     2
  6
CONTINUOUS
 10
0.044165
 20
-0.262831
  0
VERTEX
  8
PLAN_1
 62
     2
  6
CONTINUOUS
 10
0.046098
 20
-0.261382
  0
VERTEX
  8
PLAN_1
 62
     2
  6
CONTINUOUS
 10
0.048031
 20
-0.260417
  0
VERTEX
  8
PLAN_1
 62
     2
  6
CONTINUOUS
 10
0.049961
 20
-0.259453
  0
VERTEX
  8
PLAN_1
 62
     2
  6
CONTINUOUS
 10
0.052378
 20
-0.258484
  0
VERTEX
  8
PLAN_1
 62
     2
  6
CONTINUOUS
 10
0.054791
 20
-0.258484
  0
VERTEX
  8
PLAN_1
 62
     2
  6
CONTINUOUS
 10
0.055272
 20
-0.258484
  0
VERTEX
  8
PLAN_1
 62
     2
  6
CONTINUOUS
 10
0.055756
 20
-0.258484
  0
VERTEX
  8
PLAN_1
 62
     2
  6
CONTINUOUS
 10
0.056240
 20
-0.258484
  0
VERTEX
  8
PLAN_1
 62
     2
  6
CONTINUOUS
 10
0.056720
 20
-0.258484
  0
VERTEX
  8
PLAN_1
 62
     2
  6
CONTINUOUS
 10
0.056720
 20
-0.258969
  0
VERTEX
  8
PLAN_1
 62
     2
  6
CONTINUOUS
 10
0.057205
 20
-0.258969
  0
VERTEX
  8
PLAN_1
 62
     2
  6
CONTINUOUS
 10
0.057205
 20
-0.268142
  0
VERTEX
  8
PLAN_1
 62
     2
  6
CONTINUOUS
 10
0.053827
 20
-0.268142
  0
VERTEX
  8
PLAN_1
 62
     2
  6
CONTINUOUS
 10
0.050929
 20
-0.268626
  0
VERTEX
  8
PLAN_1
 62
     2
  6
CONTINUOUS
 10
0.048031
 20
-0.269591
  0
VERTEX
  8
PLAN_1
 62
     2
  6
CONTINUOUS
 10
0.045614
 20
-0.271039
  0
VERTEX
  8
PLAN_1
 62
     2
  6
CONTINUOUS
 10
0.043685
 20
-0.272488
  0
VERTEX
  8
PLAN_1
 62
     2
  6
CONTINUOUS
 10
0.041752
 20
-0.274906
  0
VERTEX
  8
PLAN_1
 62
     2
  6
CONTINUOUS
 10
0.040787
 20
-0.277319
  0
VERTEX
  8
PLAN_1
 62
     2
  6
CONTINUOUS
 10
0.040303
 20
-0.279732
  0
VERTEX
  8
PLAN_1
 62
     2
  6
CONTINUOUS
 10
0.039823
 20
-0.282630
  0
VERTEX
  8
PLAN_1
 62
     2
  6
CONTINUOUS
 10
0.039823
 20
-0.314500
  0
SEQEND
  8
0
  0
POLYLINE
  8
PLAN_1
 62
     2
  6
CONTINUOUS
 66
     1
 40
0.003000
 41
0.003000
  0
VERTEX
  8
PLAN_1
 62
     2
  6
CONTINUOUS
 10
0.110323
 20
-0.297598
  0
VERTEX
  8
PLAN_1
 62
     2
  6
CONTINUOUS
 10
0.109839
 20
-0.298567
  0
VERTEX
  8
PLAN_1
 62
     2
  6
CONTINUOUS
 10
0.109358
 20
-0.300016
  0
VERTEX
  8
PLAN_1
 62
     2
  6
CONTINUOUS
 10
0.108874
 20
-0.301945
  0
VERTEX
  8
PLAN_1
 62
     2
  6
CONTINUOUS
 10
0.107909
 20
-0.303878
  0
VERTEX
  8
PLAN_1
 62
     2
  6
CONTINUOUS
 10
0.106461
 20
-0.306291
  0
VERTEX
  8
PLAN_1
 62
     2
  6
CONTINUOUS
 10
0.105012
 20
-0.308224
  0
VERTEX
  8
PLAN_1
 62
     2
  6
CONTINUOUS
 10
0.103079
 20
-0.310638
  0
VERTEX
  8
PLAN_1
 62
     2
  6
CONTINUOUS
 10
0.100665
 20
-0.312087
  0
VERTEX
  8
PLAN_1
 62
     2
  6
CONTINUOUS
 10
0.099701
 20
-0.313051
  0
VERTEX
  8
PLAN_1
 62
     2
  6
CONTINUOUS
 10
0.098252
 20
-0.313535
  0
VERTEX
  8
PLAN_1
 62
     2
  6
CONTINUOUS
 10
0.097283
 20
-0.314020
  0
VERTEX
  8
PLAN_1
 62
     2
  6
CONTINUOUS
 10
0.095354
 20
-0.314984
  0
VERTEX
  8
PLAN_1
 62
     2
  6
CONTINUOUS
 10
0.093906
 20
-0.315465
  0
VERTEX
  8
PLAN_1
 62
     2
  6
CONTINUOUS
 10
0.091492
 20
-0.315465
  0
VERTEX
  8
PLAN_1
 62
     2
  6
CONTINUOUS
 10
0.089075
 20
-0.315949
  0
VERTEX
  8
PLAN_1
 62
     2
  6
CONTINUOUS
 10
0.085697
 20
-0.315949
  0
VERTEX
  8
PLAN_1
 62
     2
  6
CONTINUOUS
 10
0.082799
 20
-0.315949
  0
VERTEX
  8
PLAN_1
 62
     2
  6
CONTINUOUS
 10
0.080382
 20
-0.315465
  0
VERTEX
  8
PLAN_1
 62
     2
  6
CONTINUOUS
 10
0.077969
 20
-0.314984
  0
VERTEX
  8
PLAN_1
 62
     2
  6
CONTINUOUS
 10
0.075555
 20
-0.314020
  0
VERTEX
  8
PLAN_1
 62
     2
  6
CONTINUOUS
 10
0.073622
 20
-0.313051
  0
VERTEX
  8
PLAN_1
 62
     2
  6
CONTINUOUS
 10
0.071209
 20
-0.311602
  0
VERTEX
  8
PLAN_1
 62
     2
  6
CONTINUOUS
 10
0.069760
 20
-0.310154
  0
VERTEX
  8
PLAN_1
 62
     2
  6
CONTINUOUS
 10
0.067827
 20
-0.308224
  0
VERTEX
  8
PLAN_1
 62
     2
  6
CONTINUOUS
 10
0.066382
 20
-0.306291
  0
VERTEX
  8
PLAN_1
 62
     2
  6
CONTINUOUS
 10
0.064933
 20
-0.304358
  0
VERTEX
  8
PLAN_1
 62
     2
  6
CONTINUOUS
 10
0.063965
 20
-0.301945
  0
VERTEX
  8
PLAN_1
 62
     2
  6
CONTINUOUS
 10
0.063000
 20
-0.299531
  0
VERTEX
  8
PLAN_1
 62
     2
  6
CONTINUOUS
 10
0.062035
 20
-0.294220
  0
VERTEX
  8
PLAN_1
 62
     2
  6
CONTINUOUS
 10
0.061551
 20
-0.288909
  0
VERTEX
  8
PLAN_1
 62
     2
  6
CONTINUOUS
 10
0.062035
 20
-0.282630
  0
VERTEX
  8
PLAN_1
 62
     2
  6
CONTINUOUS
 10
0.063000
 20
-0.276835
  0
VERTEX
  8
PLAN_1
 62
     2
  6
CONTINUOUS
 10
0.063965
 20
-0.274421
  0
VERTEX
  8
PLAN_1
 62
     2
  6
CONTINUOUS
 10
0.064933
 20
-0.272008
  0
VERTEX
  8
PLAN_1
 62
     2
  6
CONTINUOUS
 10
0.066382
 20
-0.269591
  0
VERTEX
  8
PLAN_1
 62
     2
  6
CONTINUOUS
 10
0.067827
 20
-0.267177
  0
VERTEX
  8
PLAN_1
 62
     2
  6
CONTINUOUS
 10
0.069276
 20
-0.265244
  0
VERTEX
  8
PLAN_1
 62
     2
  6
CONTINUOUS
 10
0.071209
 20
-0.263799
  0
VERTEX
  8
PLAN_1
 62
     2
  6
CONTINUOUS
 10
0.073622
 20
-0.262350
  0
VERTEX
  8
PLAN_1
 62
     2
  6
CONTINUOUS
 10
0.076039
 20
-0.260902
  0
VERTEX
  8
PLAN_1
 62
     2
  6
CONTINUOUS
 10
0.078453
 20
-0.259933
  0
VERTEX
  8
PLAN_1
 62
     2
  6
CONTINUOUS
 10
0.081350
 20
-0.258969
  0
VERTEX
  8
PLAN_1
 62
     2
  6
CONTINUOUS
 10
0.084248
 20
-0.258484
  0
VERTEX
  8
PLAN_1
 62
     2
  6
CONTINUOUS
 10
0.087626
 20
-0.258484
  0
VERTEX
  8
PLAN_1
 62
     2
  6
CONTINUOUS
 10
0.090524
 20
-0.258484
  0
VERTEX
  8
PLAN_1
 62
     2
  6
CONTINUOUS
 10
0.092937
 20
-0.258969
  0
VERTEX
  8
PLAN_1
 62
     2
  6
CONTINUOUS
 10
0.095354
 20
-0.259933
  0
VERTEX
  8
PLAN_1
 62
     2
  6
CONTINUOUS
 10
0.097768
 20
-0.260902
  0
VERTEX
  8
PLAN_1
 62
     2
  6
CONTINUOUS
 10
0.100181
 20
-0.261866
  0
VERTEX
  8
PLAN_1
 62
     2
  6
CONTINUOUS
 10
0.102114
 20
-0.263315
  0
VERTEX
  8
PLAN_1
 62
     2
  6
CONTINUOUS
 10
0.103563
 20
-0.265244
  0
VERTEX
  8
PLAN_1
 62
     2
  6
CONTINUOUS
 10
0.105012
 20
-0.267177
  0
VERTEX
  8
PLAN_1
 62
     2
  6
CONTINUOUS
 10
0.106461
 20
-0.269110
  0
VERTEX
  8
PLAN_1
 62
     2
  6
CONTINUOUS
 10
0.107909
 20
-0.271524
  0
VERTEX
  8
PLAN_1
 62
     2
  6
CONTINUOUS
 10
0.108874
 20
-0.274421
  0
VERTEX
  8
PLAN_1
 62
     2
  6
CONTINUOUS
 10
0.109358
 20
-0.277319
  0
VERTEX
  8
PLAN_1
 62
     2
  6
CONTINUOUS
 10
0.110807
 20
-0.283114
  0
VERTEX
  8
PLAN_1
 62
     2
  6
CONTINUOUS
 10
0.110807
 20
-0.290354
  0
VERTEX
  8
PLAN_1
 62
     2
  6
CONTINUOUS
 10
0.071209
 20
-0.290354
  0
VERTEX
  8
PLAN_1
 62
     2
  6
CONTINUOUS
 10
0.071693
 20
-0.294220
  0
VERTEX
  8
PLAN_1
 62
     2
  6
CONTINUOUS
 10
0.072173
 20
-0.297598
  0
VERTEX
  8
PLAN_1
 62
     2
  6
CONTINUOUS
 10
0.073622
 20
-0.300980
  0
VERTEX
  8
PLAN_1
 62
     2
  6
CONTINUOUS
 10
0.075071
 20
-0.303394
  0
VERTEX
  8
PLAN_1
 62
     2
  6
CONTINUOUS
 10
0.077488
 20
-0.305327
  0
VERTEX
  8
PLAN_1
 62
     2
  6
CONTINUOUS
 10
0.080382
 20
-0.306776
  0
VERTEX
  8
PLAN_1
 62
     2
  6
CONTINUOUS
 10
0.083280
 20
-0.307740
  0
VERTEX
  8
PLAN_1
 62
     2
  6
CONTINUOUS
 10
0.087146
 20
-0.308224
  0
VERTEX
  8
PLAN_1
 62
     2
  6
CONTINUOUS
 10
0.090043
 20
-0.307740
  0
VERTEX
  8
PLAN_1
 62
     2
  6
CONTINUOUS
 10
0.092937
 20
-0.306776
  0
VERTEX
  8
PLAN_1
 62
     2
  6
CONTINUOUS
 10
0.095354
 20
-0.305807
  0
VERTEX
  8
PLAN_1
 62
     2
  6
CONTINUOUS
 10
0.097283
 20
-0.304358
  0
VERTEX
  8
PLAN_1
 62
     2
  6
CONTINUOUS
 10
0.098732
 20
-0.302429
  0
VERTEX
  8
PLAN_1
 62
     2
  6
CONTINUOUS
 10
0.100181
 20
-0.300980
  0
VERTEX
  8
PLAN_1
 62
     2
  6
CONTINUOUS
 10
0.100665
 20
-0.299047
  0
VERTEX
  8
PLAN_1
 62
     2
  6
CONTINUOUS
 10
0.101150
 20
-0.297598
  0
VERTEX
  8
PLAN_1
 62
     2
  6
CONTINUOUS
 10
0.110323
 20
-0.297598
  0
SEQEND
  8
0
  0
POLYLINE
  8
PLAN_1
 62
     2
  6
CONTINUOUS
 66
     1
 40
0.003000
 41
0.003000
  0
VERTEX
  8
PLAN_1
 62
     2
  6
CONTINUOUS
 10
0.101630
 20
-0.283114
  0
VERTEX
  8
PLAN_1
 62
     2
  6
CONTINUOUS
 10
0.101150
 20
-0.279732
  0
VERTEX
  8
PLAN_1
 62
     2
  6
CONTINUOUS
 10
0.100665
 20
-0.276835
  0
VERTEX
  8
PLAN_1
 62
     2
  6
CONTINUOUS
 10
0.099217
 20
-0.273937
  0
VERTEX
  8
PLAN_1
 62
     2
  6
CONTINUOUS
 10
0.097768
 20
-0.271524
  0
VERTEX
  8
PLAN_1
 62
     2
  6
CONTINUOUS
 10
0.095835
 20
-0.269591
  0
VERTEX
  8
PLAN_1
 62
     2
  6
CONTINUOUS
 10
0.093421
 20
-0.268142
  0
VERTEX
  8
PLAN_1
 62
     2
  6
CONTINUOUS
 10
0.090043
 20
-0.267177
  0
VERTEX
  8
PLAN_1
 62
     2
  6
CONTINUOUS
 10
0.086177
 20
-0.266693
  0
VERTEX
  8
PLAN_1
 62
     2
  6
CONTINUOUS
 10
0.083280
 20
-0.267177
  0
VERTEX
  8
PLAN_1
 62
     2
  6
CONTINUOUS
 10
0.080382
 20
-0.268142
  0
VERTEX
  8
PLAN_1
 62
     2
  6
CONTINUOUS
 10
0.077969
 20
-0.269591
  0
VERTEX
  8
PLAN_1
 62
     2
  6
CONTINUOUS
 10
0.075555
 20
-0.271524
  0
VERTEX
  8
PLAN_1
 62
     2
  6
CONTINUOUS
 10
0.073622
 20
-0.273937
  0
VERTEX
  8
PLAN_1
 62
     2
  6
CONTINUOUS
 10
0.072657
 20
-0.276835
  0
VERTEX
  8
PLAN_1
 62
     2
  6
CONTINUOUS
 10
0.071693
 20
-0.279732
  0
VERTEX
  8
PLAN_1
 62
     2
  6
CONTINUOUS
 10
0.071209
 20
-0.283114
  0
VERTEX
  8
PLAN_1
 62
     2
  6
CONTINUOUS
 10
0.101630
 20
-0.283114
  0
SEQEND
  8
0
  0
POLYLINE
  8
PLAN_1
 62
     2
  6
CONTINUOUS
 66
     1
 40
0.003000
 41
0.003000
  0
VERTEX
  8
PLAN_1
 62
     2
  6
CONTINUOUS
 10
0.152819
 20
-0.275386
  0
VERTEX
  8
PLAN_1
 62
     2
  6
CONTINUOUS
 10
0.152819
 20
-0.274421
  0
VERTEX
  8
PLAN_1
 62
     2
  6
CONTINUOUS
 10
0.152335
 20
-0.272488
  0
VERTEX
  8
PLAN_1
 62
     2
  6
CONTINUOUS
 10
0.151850
 20
-0.271039
  0
VERTEX
  8
PLAN_1
 62
     2
  6
CONTINUOUS
 10
0.150886
 20
-0.269591
  0
VERTEX
  8
PLAN_1
 62
     2
  6
CONTINUOUS
 10
0.148953
 20
-0.268626
  0
VERTEX
  8
PLAN_1
 62
     2
  6
CONTINUOUS
 10
0.147024
 20
-0.267177
  0
VERTEX
  8
PLAN_1
 62
     2
  6
CONTINUOUS
 10
0.143642
 20
-0.266693
  0
VERTEX
  8
PLAN_1
 62
     2
  6
CONTINUOUS
 10
0.139780
 20
-0.266213
  0
VERTEX
  8
PLAN_1
 62
     2
  6
CONTINUOUS
 10
0.138815
 20
-0.266693
  0
VERTEX
  8
PLAN_1
 62
     2
  6
CONTINUOUS
 10
0.136882
 20
-0.266693
  0
VERTEX
  8
PLAN_1
 62
     2
  6
CONTINUOUS
 10
0.135433
 20
-0.267177
  0
VERTEX
  8
PLAN_1
 62
     2
  6
CONTINUOUS
 10
0.133500
 20
-0.267661
  0
VERTEX
  8
PLAN_1
 62
     2
  6
CONTINUOUS
 10
0.132051
 20
-0.268626
  0
VERTEX
  8
PLAN_1
 62
     2
  6
CONTINUOUS
 10
0.130602
 20
-0.270075
  0
VERTEX
  8
PLAN_1
 62
     2
  6
CONTINUOUS
 10
0.129638
 20
-0.272008
  0
VERTEX
  8
PLAN_1
 62
     2
  6
CONTINUOUS
 10
0.129154
 20
-0.273937
  0
VERTEX
  8
PLAN_1
 62
     2
  6
CONTINUOUS
 10
0.129154
 20
-0.275870
  0
VERTEX
  8
PLAN_1
 62
     2
  6
CONTINUOUS
 10
0.129638
 20
-0.276835
  0
VERTEX
  8
PLAN_1
 62
     2
  6
CONTINUOUS
 10
0.130602
 20
-0.277799
  0
VERTEX
  8
PLAN_1
 62
     2
  6
CONTINUOUS
 10
0.131571
 20
-0.278768
  0
VERTEX
  8
PLAN_1
 62
     2
  6
CONTINUOUS
 10
0.133020
 20
-0.279248
  0
VERTEX
  8
PLAN_1
 62
     2
  6
CONTINUOUS
 10
0.134469
 20
-0.280217
  0
VERTEX
  8
PLAN_1
 62
     2
  6
CONTINUOUS
 10
0.136398
 20
-0.280697
  0
VERTEX
  8
PLAN_1
 62
     2
  6
CONTINUOUS
 10
0.138815
 20
-0.281181
  0
VERTEX
  8
PLAN_1
 62
     2
  6
CONTINUOUS
 10
0.147988
 20
-0.283594
  0
VERTEX
  8
PLAN_1
 62
     2
  6
CONTINUOUS
 10
0.151850
 20
-0.284563
  0
VERTEX
  8
PLAN_1
 62
     2
  6
CONTINUOUS
 10
0.155232
 20
-0.286012
  0
VERTEX
  8
PLAN_1
 62
     2
  6
CONTINUOUS
 10
0.158130
 20
-0.287461
  0
VERTEX
  8
PLAN_1
 62
     2
  6
CONTINUOUS
 10
0.160059
 20
-0.288909
  0
VERTEX
  8
PLAN_1
 62
     2
  6
CONTINUOUS
 10
0.161508
 20
-0.290839
  0
VERTEX
  8
PLAN_1
 62
     2
  6
CONTINUOUS
 10
0.162476
 20
-0.293252
  0
VERTEX
  8
PLAN_1
 62
     2
  6
CONTINUOUS
 10
0.163441
 20
-0.295185
  0
VERTEX
  8
PLAN_1
 62
     2
  6
CONTINUOUS
 10
0.163441
 20
-0.298083
  0
VERTEX
  8
PLAN_1
 62
     2
  6
CONTINUOUS
 10
0.162957
 20
-0.301945
  0
VERTEX
  8
PLAN_1
 62
     2
  6
CONTINUOUS
 10
0.161992
 20
-0.305807
  0
VERTEX
  8
PLAN_1
 62
     2
  6
CONTINUOUS
 10
0.160059
 20
-0.308705
  0
VERTEX
  8
PLAN_1
 62
     2
  6
CONTINUOUS
 10
0.157161
 20
-0.311122
  0
VERTEX
  8
PLAN_1
 62
     2
  6
CONTINUOUS
 10
0.154264
 20
-0.313051
  0
VERTEX
  8
PLAN_1
 62
     2
  6
CONTINUOUS
 10
0.150402
 20
-0.314984
  0
VERTEX
  8
PLAN_1
 62
     2
  6
CONTINUOUS
 10
0.146539
 20
-0.315949
  0
VERTEX
  8
PLAN_1
 62
     2
  6
CONTINUOUS
 10
0.141709
 20
-0.315949
  0
VERTEX
  8
PLAN_1
 62
     2
  6
CONTINUOUS
 10
0.138331
 20
-0.315949
  0
VERTEX
  8
PLAN_1
 62
     2
  6
CONTINUOUS
 10
0.134949
 20
-0.315465
  0
VERTEX
  8
PLAN_1
 62
     2
  6
CONTINUOUS
 10
0.131571
 20
-0.314984
  0
VERTEX
  8
PLAN_1
 62
     2
  6
CONTINUOUS
 10
0.129154
 20
-0.314020
  0
VERTEX
  8
PLAN_1
 62
     2
  6
CONTINUOUS
 10
0.127224
 20
-0.313051
  0
VERTEX
  8
PLAN_1
 62
     2
  6
CONTINUOUS
 10
0.125291
 20
-0.311602
  0
VERTEX
  8
PLAN_1
 62
     2
  6
CONTINUOUS
 10
0.123362
 20
-0.310638
  0
VERTEX
  8
PLAN_1
 62
     2
  6
CONTINUOUS
 10
0.122394
 20
-0.309189
  0
VERTEX
  8
PLAN_1
 62
     2
  6
CONTINUOUS
 10
0.120465
 20
-0.305807
  0
VERTEX
  8
PLAN_1
 62
     2
  6
CONTINUOUS
 10
0.119496
 20
-0.302909
  0
VERTEX
  8
PLAN_1
 62
     2
  6
CONTINUOUS
 10
0.118531
 20
-0.299531
  0
VERTEX
  8
PLAN_1
 62
     2
  6
CONTINUOUS
 10
0.118531
 20
-0.297118
  0
VERTEX
  8
PLAN_1
 62
     2
  6
CONTINUOUS
 10
0.127224
 20
-0.297118
  0
VERTEX
  8
PLAN_1
 62
     2
  6
CONTINUOUS
 10
0.127709
 20
-0.298567
  0
VERTEX
  8
PLAN_1
 62
     2
  6
CONTINUOUS
 10
0.127709
 20
-0.300496
  0
VERTEX
  8
PLAN_1
 62
     2
  6
CONTINUOUS
 10
0.128673
 20
-0.302429
  0
VERTEX
  8
PLAN_1
 62
     2
  6
CONTINUOUS
 10
0.130122
 20
-0.304358
  0
VERTEX
  8
PLAN_1
 62
     2
  6
CONTINUOUS
 10
0.131571
 20
-0.305807
  0
VERTEX
  8
PLAN_1
 62
     2
  6
CONTINUOUS
 10
0.133984
 20
-0.306776
  0
VERTEX
  8
PLAN_1
 62
     2
  6
CONTINUOUS
 10
0.137366
 20
-0.307740
  0
VERTEX
  8
PLAN_1
 62
     2
  6
CONTINUOUS
 10
0.141709
 20
-0.308224
  0
VERTEX
  8
PLAN_1
 62
     2
  6
CONTINUOUS
 10
0.144126
 20
-0.308224
  0
VERTEX
  8
PLAN_1
 62
     2
  6
CONTINUOUS
 10
0.146539
 20
-0.307740
  0
VERTEX
  8
PLAN_1
 62
     2
  6
CONTINUOUS
 10
0.148472
 20
-0.306776
  0
VERTEX
  8
PLAN_1
 62
     2
  6
CONTINUOUS
 10
0.150402
 20
-0.306291
  0
VERTEX
  8
PLAN_1
 62
     2
  6
CONTINUOUS
 10
0.151850
 20
-0.304843
  0
VERTEX
  8
PLAN_1
 62
     2
  6
CONTINUOUS
 10
0.153299
 20
-0.303394
  0
VERTEX
  8
PLAN_1
 62
     2
  6
CONTINUOUS
 10
0.154264
 20
-0.301465
  0
VERTEX
  8
PLAN_1
 62
     2
  6
CONTINUOUS
 10
0.154264
 20
-0.299531
  0
VERTEX
  8
PLAN_1
 62
     2
  6
CONTINUOUS
 10
0.154264
 20
-0.298083
  0
VERTEX
  8
PLAN_1
 62
     2
  6
CONTINUOUS
 10
0.153783
 20
-0.296634
  0
VERTEX
  8
PLAN_1
 62
     2
  6
CONTINUOUS
 10
0.152819
 20
-0.295669
  0
VERTEX
  8
PLAN_1
 62
     2
  6
CONTINUOUS
 10
0.151850
 20
-0.294701
  0
VERTEX
  8
PLAN_1
 62
     2
  6
CONTINUOUS
 10
0.150402
 20
-0.293736
  0
VERTEX
  8
PLAN_1
 62
     2
  6
CONTINUOUS
 10
0.148472
 20
-0.293252
  0
VERTEX
  8
PLAN_1
 62
     2
  6
CONTINUOUS
 10
0.146055
 20
-0.292287
  0
VERTEX
  8
PLAN_1
 62
     2
  6
CONTINUOUS
 10
0.143642
 20
-0.291803
  0
VERTEX
  8
PLAN_1
 62
     2
  6
CONTINUOUS
 10
0.133020
 20
-0.288909
  0
VERTEX
  8
PLAN_1
 62
     2
  6
CONTINUOUS
 10
0.130122
 20
-0.288425
  0
VERTEX
  8
PLAN_1
 62
     2
  6
CONTINUOUS
 10
0.127709
 20
-0.287461
  0
VERTEX
  8
PLAN_1
 62
     2
  6
CONTINUOUS
 10
0.125776
 20
-0.286012
  0
VERTEX
  8
PLAN_1
 62
     2
  6
CONTINUOUS
 10
0.123843
 20
-0.284563
  0
VERTEX
  8
PLAN_1
 62
     2
  6
CONTINUOUS
 10
0.122394
 20
-0.282630
  0
VERTEX
  8
PLAN_1
 62
     2
  6
CONTINUOUS
 10
0.121429
 20
-0.280697
  0
VERTEX
  8
PLAN_1
 62
     2
  6
CONTINUOUS
 10
0.120465
 20
-0.278283
  0
VERTEX
  8
PLAN_1
 62
     2
  6
CONTINUOUS
 10
0.120465
 20
-0.275870
  0
VERTEX
  8
PLAN_1
 62
     2
  6
CONTINUOUS
 10
0.120945
 20
-0.271524
  0
VERTEX
  8
PLAN_1
 62
     2
  6
CONTINUOUS
 10
0.121913
 20
-0.268142
  0
VERTEX
  8
PLAN_1
 62
     2
  6
CONTINUOUS
 10
0.123843
 20
-0.265244
  0
VERTEX
  8
PLAN_1
 62
     2
  6
CONTINUOUS
 10
0.126740
 20
-0.262831
  0
VERTEX
  8
PLAN_1
 62
     2
  6
CONTINUOUS
 10
0.129638
 20
-0.260902
  0
VERTEX
  8
PLAN_1
 62
     2
  6
CONTINUOUS
 10
0.133020
 20
-0.259453
  0
VERTEX
  8
PLAN_1
 62
     2
  6
CONTINUOUS
 10
0.136882
 20
-0.258969
  0
VERTEX
  8
PLAN_1
 62
     2
  6
CONTINUOUS
 10
0.140744
 20
-0.258484
  0
VERTEX
  8
PLAN_1
 62
     2
  6
CONTINUOUS
 10
0.144126
 20
-0.258484
  0
VERTEX
  8
PLAN_1
 62
     2
  6
CONTINUOUS
 10
0.147504
 20
-0.258969
  0
VERTEX
  8
PLAN_1
 62
     2
  6
CONTINUOUS
 10
0.149921
 20
-0.259933
  0
VERTEX
  8
PLAN_1
 62
     2
  6
CONTINUOUS
 10
0.152335
 20
-0.260902
  0
VERTEX
  8
PLAN_1
 62
     2
  6
CONTINUOUS
 10
0.154264
 20
-0.261866
  0
VERTEX
  8
PLAN_1
 62
     2
  6
CONTINUOUS
 10
0.156197
 20
-0.263315
  0
VERTEX
  8
PLAN_1
 62
     2
  6
CONTINUOUS
 10
0.157646
 20
-0.264764
  0
VERTEX
  8
PLAN_1
 62
     2
  6
CONTINUOUS
 10
0.158610
 20
-0.266213
  0
VERTEX
  8
PLAN_1
 62
     2
  6
CONTINUOUS
 10
0.160059
 20
-0.269110
  0
VERTEX
  8
PLAN_1
 62
     2
  6
CONTINUOUS
 10
0.161028
 20
-0.271524
  0
VERTEX
  8
PLAN_1
 62
     2
  6
CONTINUOUS
 10
0.161508
 20
-0.273937
  0
VERTEX
  8
PLAN_1
 62
     2
  6
CONTINUOUS
 10
0.161508
 20
-0.275386
  0
VERTEX
  8
PLAN_1
 62
     2
  6
CONTINUOUS
 10
0.152819
 20
-0.275386
  0
SEQEND
  8
0
  0
POLYLINE
  8
PLAN_1
 62
     2
  6
CONTINUOUS
 66
     1
 40
0.003000
 41
0.003000
  0
VERTEX
  8
PLAN_1
 62
     2
  6
CONTINUOUS
 10
0.204969
 20
-0.275386
  0
VERTEX
  8
PLAN_1
 62
     2
  6
CONTINUOUS
 10
0.204969
 20
-0.274421
  0
VERTEX
  8
PLAN_1
 62
     2
  6
CONTINUOUS
 10
0.204484
 20
-0.272488
  0
VERTEX
  8
PLAN_1
 62
     2
  6
CONTINUOUS
 10
0.204004
 20
-0.271039
  0
VERTEX
  8
PLAN_1
 62
     2
  6
CONTINUOUS
 10
0.202555
 20
-0.269591
  0
VERTEX
  8
PLAN_1
 62
     2
  6
CONTINUOUS
 10
0.201106
 20
-0.268626
  0
VERTEX
  8
PLAN_1
 62
     2
  6
CONTINUOUS
 10
0.198693
 20
-0.267177
  0
VERTEX
  8
PLAN_1
 62
     2
  6
CONTINUOUS
 10
0.195795
 20
-0.266693
  0
VERTEX
  8
PLAN_1
 62
     2
  6
CONTINUOUS
 10
0.191929
 20
-0.266213
  0
VERTEX
  8
PLAN_1
 62
     2
  6
CONTINUOUS
 10
0.190965
 20
-0.266693
  0
VERTEX
  8
PLAN_1
 62
     2
  6
CONTINUOUS
 10
0.189035
 20
-0.266693
  0
VERTEX
  8
PLAN_1
 62
     2
  6
CONTINUOUS
 10
0.187587
 20
-0.267177
  0
VERTEX
  8
PLAN_1
 62
     2
  6
CONTINUOUS
 10
0.185654
 20
-0.267661
  0
VERTEX
  8
PLAN_1
 62
     2
  6
CONTINUOUS
 10
0.183720
 20
-0.268626
  0
VERTEX
  8
PLAN_1
 62
     2
  6
CONTINUOUS
 10
0.182272
 20
-0.270075
  0
VERTEX
  8
PLAN_1
 62
     2
  6
CONTINUOUS
 10
0.181791
 20
-0.272008
  0
VERTEX
  8
PLAN_1
 62
     2
  6
CONTINUOUS
 10
0.181307
 20
-0.273937
  0
VERTEX
  8
PLAN_1
 62
     2
  6
CONTINUOUS
 10
0.181307
 20
-0.275870
  0
VERTEX
  8
PLAN_1
 62
     2
  6
CONTINUOUS
 10
0.181791
 20
-0.276835
  0
VERTEX
  8
PLAN_1
 62
     2
  6
CONTINUOUS
 10
0.182272
 20
-0.277799
  0
VERTEX
  8
PLAN_1
 62
     2
  6
CONTINUOUS
 10
0.183720
 20
-0.278768
  0
VERTEX
  8
PLAN_1
 62
     2
  6
CONTINUOUS
 10
0.184689
 20
-0.279248
  0
VERTEX
  8
PLAN_1
 62
     2
  6
CONTINUOUS
 10
0.186618
 20
-0.280217
  0
VERTEX
  8
PLAN_1
 62
     2
  6
CONTINUOUS
 10
0.188551
 20
-0.280697
  0
VERTEX
  8
PLAN_1
 62
     2
  6
CONTINUOUS
 10
0.190965
 20
-0.281181
  0
VERTEX
  8
PLAN_1
 62
     2
  6
CONTINUOUS
 10
0.200142
 20
-0.283594
  0
VERTEX
  8
PLAN_1
 62
     2
  6
CONTINUOUS
 10
0.204004
 20
-0.284563
  0
VERTEX
  8
PLAN_1
 62
     2
  6
CONTINUOUS
 10
0.207382
 20
-0.286012
  0
VERTEX
  8
PLAN_1
 62
     2
  6
CONTINUOUS
 10
0.210280
 20
-0.287461
  0
VERTEX
  8
PLAN_1
 62
     2
  6
CONTINUOUS
 10
0.212213
 20
-0.288909
  0
VERTEX
  8
PLAN_1
 62
     2
  6
CONTINUOUS
 10
0.213661
 20
-0.290839
  0
VERTEX
  8
PLAN_1
 62
     2
  6
CONTINUOUS
 10
0.214626
 20
-0.293252
  0
VERTEX
  8
PLAN_1
 62
     2
  6
CONTINUOUS
 10
0.215110
 20
-0.295185
  0
VERTEX
  8
PLAN_1
 62
     2
  6
CONTINUOUS
 10
0.215591
 20
-0.298083
  0
VERTEX
  8
PLAN_1
 62
     2
  6
CONTINUOUS
 10
0.215110
 20
-0.301945
  0
VERTEX
  8
PLAN_1
 62
     2
  6
CONTINUOUS
 10
0.213661
 20
-0.305807
  0
VERTEX
  8
PLAN_1
 62
     2
  6
CONTINUOUS
 10
0.211728
 20
-0.308705
  0
VERTEX
  8
PLAN_1
 62
     2
  6
CONTINUOUS
 10
0.209315
 20
-0.311122
  0
VERTEX
  8
PLAN_1
 62
     2
  6
CONTINUOUS
 10
0.206417
 20
-0.313051
  0
VERTEX
  8
PLAN_1
 62
     2
  6
CONTINUOUS
 10
0.202555
 20
-0.314984
  0
VERTEX
  8
PLAN_1
 62
     2
  6
CONTINUOUS
 10
0.198209
 20
-0.315949
  0
VERTEX
  8
PLAN_1
 62
     2
  6
CONTINUOUS
 10
0.193862
 20
-0.315949
  0
VERTEX
  8
PLAN_1
 62
     2
  6
CONTINUOUS
 10
0.190000
 20
-0.315949
  0
VERTEX
  8
PLAN_1
 62
     2
  6
CONTINUOUS
 10
0.186618
 20
-0.315465
  0
VERTEX
  8
PLAN_1
 62
     2
  6
CONTINUOUS
 10
0.183720
 20
-0.314984
  0
VERTEX
  8
PLAN_1
 62
     2
  6
CONTINUOUS
 10
0.181307
 20
-0.314020
  0
VERTEX
  8
PLAN_1
 62
     2
  6
CONTINUOUS
 10
0.178894
 20
-0.313051
  0
VERTEX
  8
PLAN_1
 62
     2
  6
CONTINUOUS
 10
0.177445
 20
-0.311602
  0
VERTEX
  8
PLAN_1
 62
     2
  6
CONTINUOUS
 10
0.175512
 20
-0.310638
  0
VERTEX
  8
PLAN_1
 62
     2
  6
CONTINUOUS
 10
0.174547
 20
-0.309189
  0
VERTEX
  8
PLAN_1
 62
     2
  6
CONTINUOUS
 10
0.172614
 20
-0.305807
  0
VERTEX
  8
PLAN_1
 62
     2
  6
CONTINUOUS
 10
0.171165
 20
-0.302909
  0
VERTEX
  8
PLAN_1
 62
     2
  6
CONTINUOUS
 10
0.170685
 20
-0.299531
  0
VERTEX
  8
PLAN_1
 62
     2
  6
CONTINUOUS
 10
0.170685
 20
-0.297118
  0
VERTEX
  8
PLAN_1
 62
     2
  6
CONTINUOUS
 10
0.179374
 20
-0.297118
  0
VERTEX
  8
PLAN_1
 62
     2
  6
CONTINUOUS
 10
0.179374
 20
-0.298567
  0
VERTEX
  8
PLAN_1
 62
     2
  6
CONTINUOUS
 10
0.179858
 20
-0.300496
  0
VERTEX
  8
PLAN_1
 62
     2
  6
CONTINUOUS
 10
0.180823
 20
-0.302429
  0
VERTEX
  8
PLAN_1
 62
     2
  6
CONTINUOUS
 10
0.181791
 20
-0.304358
  0
VERTEX
  8
PLAN_1
 62
     2
  6
CONTINUOUS
 10
0.183720
 20
-0.305807
  0
VERTEX
  8
PLAN_1
 62
     2
  6
CONTINUOUS
 10
0.186138
 20
-0.306776
  0
VERTEX
  8
PLAN_1
 62
     2
  6
CONTINUOUS
 10
0.189516
 20
-0.307740
  0
VERTEX
  8
PLAN_1
 62
     2
  6
CONTINUOUS
 10
0.193862
 20
-0.308224
  0
VERTEX
  8
PLAN_1
 62
     2
  6
CONTINUOUS
 10
0.196276
 20
-0.308224
  0
VERTEX
  8
PLAN_1
 62
     2
  6
CONTINUOUS
 10
0.198693
 20
-0.307740
  0
VERTEX
  8
PLAN_1
 62
     2
  6
CONTINUOUS
 10
0.200622
 20
-0.306776
  0
VERTEX
  8
PLAN_1
 62
     2
  6
CONTINUOUS
 10
0.202555
 20
-0.306291
  0
VERTEX
  8
PLAN_1
 62
     2
  6
CONTINUOUS
 10
0.204004
 20
-0.304843
  0
VERTEX
  8
PLAN_1
 62
     2
  6
CONTINUOUS
 10
0.205453
 20
-0.303394
  0
VERTEX
  8
PLAN_1
 62
     2
  6
CONTINUOUS
 10
0.205933
 20
-0.301465
  0
VERTEX
  8
PLAN_1
 62
     2
  6
CONTINUOUS
 10
0.206417
 20
-0.299531
  0
VERTEX
  8
PLAN_1
 62
     2
  6
CONTINUOUS
 10
0.206417
 20
-0.298083
  0
VERTEX
  8
PLAN_1
 62
     2
  6
CONTINUOUS
 10
0.205933
 20
-0.296634
  0
VERTEX
  8
PLAN_1
 62
     2
  6
CONTINUOUS
 10
0.204969
 20
-0.295669
  0
VERTEX
  8
PLAN_1
 62
     2
  6
CONTINUOUS
 10
0.204004
 20
-0.294701
  0
VERTEX
  8
PLAN_1
 62
     2
  6
CONTINUOUS
 10
0.202555
 20
-0.293736
  0
VERTEX
  8
PLAN_1
 62
     2
  6
CONTINUOUS
 10
0.200622
 20
-0.293252
  0
VERTEX
  8
PLAN_1
 62
     2
  6
CONTINUOUS
 10
0.198209
 20
-0.292287
  0
VERTEX
  8
PLAN_1
 62
     2
  6
CONTINUOUS
 10
0.195795
 20
-0.291803
  0
VERTEX
  8
PLAN_1
 62
     2
  6
CONTINUOUS
 10
0.185169
 20
-0.288909
  0
VERTEX
  8
PLAN_1
 62
     2
  6
CONTINUOUS
 10
0.182272
 20
-0.288425
  0
VERTEX
  8
PLAN_1
 62
     2
  6
CONTINUOUS
 10
0.179858
 20
-0.287461
  0
VERTEX
  8
PLAN_1
 62
     2
  6
CONTINUOUS
 10
0.177445
 20
-0.286012
  0
VERTEX
  8
PLAN_1
 62
     2
  6
CONTINUOUS
 10
0.175996
 20
-0.284563
  0
VERTEX
  8
PLAN_1
 62
     2
  6
CONTINUOUS
 10
0.174547
 20
-0.282630
  0
VERTEX
  8
PLAN_1
 62
     2
  6
CONTINUOUS
 10
0.173098
 20
-0.280697
  0
VERTEX
  8
PLAN_1
 62
     2
  6
CONTINUOUS
 10
0.172614
 20
-0.278283
  0
VERTEX
  8
PLAN_1
 62
     2
  6
CONTINUOUS
 10
0.172134
 20
-0.275870
  0
VERTEX
  8
PLAN_1
 62
     2
  6
CONTINUOUS
 10
0.172614
 20
-0.271524
  0
VERTEX
  8
PLAN_1
 62
     2
  6
CONTINUOUS
 10
0.174063
 20
-0.268142
  0
VERTEX
  8
PLAN_1
 62
     2
  6
CONTINUOUS
 10
0.175996
 20
-0.265244
  0
VERTEX
  8
PLAN_1
 62
     2
  6
CONTINUOUS
 10
0.178409
 20
-0.262831
  0
VERTEX
  8
PLAN_1
 62
     2
  6
CONTINUOUS
 10
0.181791
 20
-0.260902
  0
VERTEX
  8
PLAN_1
 62
     2
  6
CONTINUOUS
 10
0.185169
 20
-0.259453
  0
VERTEX
  8
PLAN_1
 62
     2
  6
CONTINUOUS
 10
0.189035
 20
-0.258969
  0
VERTEX
  8
PLAN_1
 62
     2
  6
CONTINUOUS
 10
0.192898
 20
-0.258484
  0
VERTEX
  8
PLAN_1
 62
     2
  6
CONTINUOUS
 10
0.196276
 20
-0.258484
  0
VERTEX
  8
PLAN_1
 62
     2
  6
CONTINUOUS
 10
0.199657
 20
-0.258969
  0
VERTEX
  8
PLAN_1
 62
     2
  6
CONTINUOUS
 10
0.202071
 20
-0.259933
  0
VERTEX
  8
PLAN_1
 62
     2
  6
CONTINUOUS
 10
0.204484
 20
-0.260902
  0
VERTEX
  8
PLAN_1
 62
     2
  6
CONTINUOUS
 10
0.206417
 20
-0.261866
  0
VERTEX
  8
PLAN_1
 62
     2
  6
CONTINUOUS
 10
0.207866
 20
-0.263315
  0
VERTEX
  8
PLAN_1
 62
     2
  6
CONTINUOUS
 10
0.209315
 20
-0.264764
  0
VERTEX
  8
PLAN_1
 62
     2
  6
CONTINUOUS
 10
0.210764
 20
-0.266213
  0
VERTEX
  8
PLAN_1
 62
     2
  6
CONTINUOUS
 10
0.212213
 20
-0.269110
  0
VERTEX
  8
PLAN_1
 62
     2
  6
CONTINUOUS
 10
0.213177
 20
-0.271524
  0
VERTEX
  8
PLAN_1
 62
     2
  6
CONTINUOUS
 10
0.213661
 20
-0.273937
  0
VERTEX
  8
PLAN_1
 62
     2
  6
CONTINUOUS
 10
0.213661
 20
-0.275386
  0
VERTEX
  8
PLAN_1
 62
     2
  6
CONTINUOUS
 10
0.204969
 20
-0.275386
  0
SEQEND
  8
0
  0
POLYLINE
  8
PLAN_1
 62
     2
  6
CONTINUOUS
 66
     1
 40
0.003000
 41
0.003000
  0
VERTEX
  8
PLAN_1
 62
     2
  6
CONTINUOUS
 10
0.272091
 20
-0.297598
  0
VERTEX
  8
PLAN_1
 62
     2
  6
CONTINUOUS
 10
0.272091
 20
-0.298567
  0
VERTEX
  8
PLAN_1
 62
     2
  6
CONTINUOUS
 10
0.271606
 20
-0.300016
  0
VERTEX
  8
PLAN_1
 62
     2
  6
CONTINUOUS
 10
0.271126
 20
-0.301945
  0
VERTEX
  8
PLAN_1
 62
     2
  6
CONTINUOUS
 10
0.269677
 20
-0.303878
  0
VERTEX
  8
PLAN_1
 62
     2
  6
CONTINUOUS
 10
0.268709
 20
-0.306291
  0
VERTEX
  8
PLAN_1
 62
     2
  6
CONTINUOUS
 10
0.266780
 20
-0.308224
  0
VERTEX
  8
PLAN_1
 62
     2
  6
CONTINUOUS
 10
0.264846
 20
-0.310638
  0
VERTEX
  8
PLAN_1
 62
     2
  6
CONTINUOUS
 10
0.262433
 20
-0.312087
  0
VERTEX
  8
PLAN_1
 62
     2
  6
CONTINUOUS
 10
0.261469
 20
-0.313051
  0
VERTEX
  8
PLAN_1
 62
     2
  6
CONTINUOUS
 10
0.260500
 20
-0.313535
  0
VERTEX
  8
PLAN_1
 62
     2
  6
CONTINUOUS
 10
0.259051
 20
-0.314020
  0
VERTEX
  8
PLAN_1
 62
     2
  6
CONTINUOUS
 10
0.257602
 20
-0.314984
  0
VERTEX
  8
PLAN_1
 62
     2
  6
CONTINUOUS
 10
0.255673
 20
-0.315465
  0
VERTEX
  8
PLAN_1
 62
     2
  6
CONTINUOUS
 10
0.253256
 20
-0.315465
  0
VERTEX
  8
PLAN_1
 62
     2
  6
CONTINUOUS
 10
0.250843
 20
-0.315949
  0
VERTEX
  8
PLAN_1
 62
     2
  6
CONTINUOUS
 10
0.247945
 20
-0.315949
  0
VERTEX
  8
PLAN_1
 62
     2
  6
CONTINUOUS
 10
0.245047
 20
-0.315949
  0
VERTEX
  8
PLAN_1
 62
     2
  6
CONTINUOUS
 10
0.242634
 20
-0.315465
  0
VERTEX
  8
PLAN_1
 62
     2
  6
CONTINUOUS
 10
0.239736
 20
-0.314984
  0
VERTEX
  8
PLAN_1
 62
     2
  6
CONTINUOUS
 10
0.237807
 20
-0.314020
  0
VERTEX
  8
PLAN_1
 62
     2
  6
CONTINUOUS
 10
0.235390
 20
-0.313051
  0
VERTEX
  8
PLAN_1
 62
     2
  6
CONTINUOUS
 10
0.233461
 20
-0.311602
  0
VERTEX
  8
PLAN_1
 62
     2
  6
CONTINUOUS
 10
0.231528
 20
-0.310154
  0
VERTEX
  8
PLAN_1
 62
     2
  6
CONTINUOUS
 10
0.230079
 20
-0.308224
  0
VERTEX
  8
PLAN_1
 62
     2
  6
CONTINUOUS
 10
0.228630
 20
-0.306291
  0
VERTEX
  8
PLAN_1
 62
     2
  6
CONTINUOUS
 10
0.227181
 20
-0.304358
  0
VERTEX
  8
PLAN_1
 62
     2
  6
CONTINUOUS
 10
0.226217
 20
-0.301945
  0
VERTEX
  8
PLAN_1
 62
     2
  6
CONTINUOUS
 10
0.225252
 20
-0.299531
  0
VERTEX
  8
PLAN_1
 62
     2
  6
CONTINUOUS
 10
0.223803
 20
-0.294220
  0
VERTEX
  8
PLAN_1
 62
     2
  6
CONTINUOUS
 10
0.223319
 20
-0.288909
  0
VERTEX
  8
PLAN_1
 62
     2
  6
CONTINUOUS
 10
0.223803
 20
-0.282630
  0
VERTEX
  8
PLAN_1
 62
     2
  6
CONTINUOUS
 10
0.225252
 20
-0.276835
  0
VERTEX
  8
PLAN_1
 62
     2
  6
CONTINUOUS
 10
0.225732
 20
-0.274421
  0
VERTEX
  8
PLAN_1
 62
     2
  6
CONTINUOUS
 10
0.227181
 20
-0.272008
  0
VERTEX
  8
PLAN_1
 62
     2
  6
CONTINUOUS
 10
0.228146
 20
-0.269591
  0
VERTEX
  8
PLAN_1
 62
     2
  6
CONTINUOUS
 10
0.229594
 20
-0.267177
  0
VERTEX
  8
PLAN_1
 62
     2
  6
CONTINUOUS
 10
0.231528
 20
-0.265244
  0
VERTEX
  8
PLAN_1
 62
     2
  6
CONTINUOUS
 10
0.233461
 20
-0.263799
  0
VERTEX
  8
PLAN_1
 62
     2
  6
CONTINUOUS
 10
0.235390
 20
-0.262350
  0
VERTEX
  8
PLAN_1
 62
     2
  6
CONTINUOUS
 10
0.237807
 20
-0.260902
  0
VERTEX
  8
PLAN_1
 62
     2
  6
CONTINUOUS
 10
0.240701
 20
-0.259933
  0
VERTEX
  8
PLAN_1
 62
     2
  6
CONTINUOUS
 10
0.243118
 20
-0.258969
  0
VERTEX
  8
PLAN_1
 62
     2
  6
CONTINUOUS
 10
0.246496
 20
-0.258484
  0
VERTEX
  8
PLAN_1
 62
     2
  6
CONTINUOUS
 10
0.249394
 20
-0.258484
  0
VERTEX
  8
PLAN_1
 62
     2
  6
CONTINUOUS
 10
0.252291
 20
-0.258484
  0
VERTEX
  8
PLAN_1
 62
     2
  6
CONTINUOUS
 10
0.255189
 20
-0.258969
  0
VERTEX
  8
PLAN_1
 62
     2
  6
CONTINUOUS
 10
0.257602
 20
-0.259933
  0
VERTEX
  8
PLAN_1
 62
     2
  6
CONTINUOUS
 10
0.260020
 20
-0.260902
  0
VERTEX
  8
PLAN_1
 62
     2
  6
CONTINUOUS
 10
0.261949
 20
-0.261866
  0
VERTEX
  8
PLAN_1
 62
     2
  6
CONTINUOUS
 10
0.263882
 20
-0.263315
  0
VERTEX
  8
PLAN_1
 62
     2
  6
CONTINUOUS
 10
0.265811
 20
-0.265244
  0
VERTEX
  8
PLAN_1
 62
     2
  6
CONTINUOUS
 10
0.267260
 20
-0.267177
  0
VERTEX
  8
PLAN_1
 62
     2
  6
CONTINUOUS
 10
0.268709
 20
-0.269110
  0
VERTEX
  8
PLAN_1
 62
     2
  6
CONTINUOUS
 10
0.269677
 20
-0.271524
  0
VERTEX
  8
PLAN_1
 62
     2
  6
CONTINUOUS
 10
0.270642
 20
-0.274421
  0
VERTEX
  8
PLAN_1
 62
     2
  6
CONTINUOUS
 10
0.271606
 20
-0.277319
  0
VERTEX
  8
PLAN_1
 62
     2
  6
CONTINUOUS
 10
0.272575
 20
-0.283114
  0
VERTEX
  8
PLAN_1
 62
     2
  6
CONTINUOUS
 10
0.273055
 20
-0.290354
  0
VERTEX
  8
PLAN_1
 62
     2
  6
CONTINUOUS
 10
0.233461
 20
-0.290354
  0
VERTEX
  8
PLAN_1
 62
     2
  6
CONTINUOUS
 10
0.233461
 20
-0.294220
  0
VERTEX
  8
PLAN_1
 62
     2
  6
CONTINUOUS
 10
0.234425
 20
-0.297598
  0
VERTEX
  8
PLAN_1
 62
     2
  6
CONTINUOUS
 10
0.235390
 20
-0.300980
  0
VERTEX
  8
PLAN_1
 62
     2
  6
CONTINUOUS
 10
0.237323
 20
-0.303394
  0
VERTEX
  8
PLAN_1
 62
     2
  6
CONTINUOUS
 10
0.239256
 20
-0.305327
  0
VERTEX
  8
PLAN_1
 62
     2
  6
CONTINUOUS
 10
0.242150
 20
-0.306776
  0
VERTEX
  8
PLAN_1
 62
     2
  6
CONTINUOUS
 10
0.245531
 20
-0.307740
  0
VERTEX
  8
PLAN_1
 62
     2
  6
CONTINUOUS
 10
0.248913
 20
-0.308224
  0
VERTEX
  8
PLAN_1
 62
     2
  6
CONTINUOUS
 10
0.252291
 20
-0.307740
  0
VERTEX
  8
PLAN_1
 62
     2
  6
CONTINUOUS
 10
0.254705
 20
-0.306776
  0
VERTEX
  8
PLAN_1
 62
     2
  6
CONTINUOUS
 10
0.257122
 20
-0.305807
  0
VERTEX
  8
PLAN_1
 62
     2
  6
CONTINUOUS
 10
0.259051
 20
-0.304358
  0
VERTEX
  8
PLAN_1
 62
     2
  6
CONTINUOUS
 10
0.260984
 20
-0.302429
  0
VERTEX
  8
PLAN_1
 62
     2
  6
CONTINUOUS
 10
0.261949
 20
-0.300980
  0
VERTEX
  8
PLAN_1
 62
     2
  6
CONTINUOUS
 10
0.262917
 20
-0.299047
  0
VERTEX
  8
PLAN_1
 62
     2
  6
CONTINUOUS
 10
0.262917
 20
-0.297598
  0
VERTEX
  8
PLAN_1
 62
     2
  6
CONTINUOUS
 10
0.272091
 20
-0.297598
  0
SEQEND
  8
0
  0
POLYLINE
  8
PLAN_1
 62
     2
  6
CONTINUOUS
 66
     1
 40
0.003000
 41
0.003000
  0
VERTEX
  8
PLAN_1
 62
     2
  6
CONTINUOUS
 10
0.263398
 20
-0.283114
  0
VERTEX
  8
PLAN_1
 62
     2
  6
CONTINUOUS
 10
0.263398
 20
-0.279732
  0
VERTEX
  8
PLAN_1
 62
     2
  6
CONTINUOUS
 10
0.262433
 20
-0.276835
  0
VERTEX
  8
PLAN_1
 62
     2
  6
CONTINUOUS
 10
0.261469
 20
-0.273937
  0
VERTEX
  8
PLAN_1
 62
     2
  6
CONTINUOUS
 10
0.260020
 20
-0.271524
  0
VERTEX
  8
PLAN_1
 62
     2
  6
CONTINUOUS
 10
0.258087
 20
-0.269591
  0
VERTEX
  8
PLAN_1
 62
     2
  6
CONTINUOUS
 10
0.255189
 20
-0.268142
  0
VERTEX
  8
PLAN_1
 62
     2
  6
CONTINUOUS
 10
0.252291
 20
-0.267177
  0
VERTEX
  8
PLAN_1
 62
     2
  6
CONTINUOUS
 10
0.248429
 20
-0.266693
  0
VERTEX
  8
PLAN_1
 62
     2
  6
CONTINUOUS
 10
0.245531
 20
-0.267177
  0
VERTEX
  8
PLAN_1
 62
     2
  6
CONTINUOUS
 10
0.242634
 20
-0.268142
  0
VERTEX
  8
PLAN_1
 62
     2
  6
CONTINUOUS
 10
0.239736
 20
-0.269591
  0
VERTEX
  8
PLAN_1
 62
     2
  6
CONTINUOUS
 10
0.237807
 20
-0.271524
  0
VERTEX
  8
PLAN_1
 62
     2
  6
CONTINUOUS
 10
0.235874
 20
-0.273937
  0
VERTEX
  8
PLAN_1
 62
     2
  6
CONTINUOUS
 10
0.234425
 20
-0.276835
  0
VERTEX
  8
PLAN_1
 62
     2
  6
CONTINUOUS
 10
0.233461
 20
-0.279732
  0
VERTEX
  8
PLAN_1
 62
     2
  6
CONTINUOUS
 10
0.233461
 20
-0.283114
  0
VERTEX
  8
PLAN_1
 62
     2
  6
CONTINUOUS
 10
0.263398
 20
-0.283114
  0
SEQEND
  8
0
  0
SOLID
  8
PLAN_1
 62
     2
 10
0.307343
 20
-0.290354
 11
0.281748
 21
-0.290354
 12
0.307343
 22
-0.281181
 13
0.281748
 23
-0.281181
  0
POLYLINE
  8
PLAN_1
 62
     2
  6
CONTINUOUS
 66
     1
 40
0.003000
 41
0.003000
  0
VERTEX
  8
PLAN_1
 62
     2
  6
CONTINUOUS
 10
0.307343
 20
-0.290354
  0
VERTEX
  8
PLAN_1
 62
     2
  6
CONTINUOUS
 10
0.281748
 20
-0.290354
  0
VERTEX
  8
PLAN_1
 62
     2
  6
CONTINUOUS
 10
0.281748
 20
-0.281181
  0
VERTEX
  8
PLAN_1
 62
     2
  6
CONTINUOUS
 10
0.307343
 20
-0.281181
  0
VERTEX
  8
PLAN_1
 62
     2
  6
CONTINUOUS
 10
0.307343
 20
-0.290354
  0
SEQEND
  8
0
  0
SOLID
  8
PLAN_1
 62
     2
 10
0.343075
 20
-0.252689
 11
0.336315
 21
-0.252689
 12
0.356594
 22
-0.238205
 13
0.345488
 23
-0.238205
  0
POLYLINE
  8
PLAN_1
 62
     2
  6
CONTINUOUS
 66
     1
 40
0.003000
 41
0.003000
  0
VERTEX
  8
PLAN_1
 62
     2
  6
CONTINUOUS
 10
0.343075
 20
-0.252689
  0
VERTEX
  8
PLAN_1
 62
     2
  6
CONTINUOUS
 10
0.336315
 20
-0.252689
  0
VERTEX
  8
PLAN_1
 62
     2
  6
CONTINUOUS
 10
0.345488
 20
-0.238205
  0
VERTEX
  8
PLAN_1
 62
     2
  6
CONTINUOUS
 10
0.356594
 20
-0.238205
  0
VERTEX
  8
PLAN_1
 62
     2
  6
CONTINUOUS
 10
0.343075
 20
-0.252689
  0
SEQEND
  8
0
  0
POLYLINE
  8
PLAN_1
 62
     2
  6
CONTINUOUS
 66
     1
 40
0.003000
 41
0.003000
  0
VERTEX
  8
PLAN_1
 62
     2
  6
CONTINUOUS
 10
0.364803
 20
-0.297598
  0
VERTEX
  8
PLAN_1
 62
     2
  6
CONTINUOUS
 10
0.364803
 20
-0.298567
  0
VERTEX
  8
PLAN_1
 62
     2
  6
CONTINUOUS
 10
0.364323
 20
-0.300016
  0
VERTEX
  8
PLAN_1
 62
     2
  6
CONTINUOUS
 10
0.363358
 20
-0.301945
  0
VERTEX
  8
PLAN_1
 62
     2
  6
CONTINUOUS
 10
0.362390
 20
-0.303878
  0
VERTEX
  8
PLAN_1
 62
     2
  6
CONTINUOUS
 10
0.360941
 20
-0.306291
  0
VERTEX
  8
PLAN_1
 62
     2
  6
CONTINUOUS
 10
0.359492
 20
-0.308224
  0
VERTEX
  8
PLAN_1
 62
     2
  6
CONTINUOUS
 10
0.357563
 20
-0.310638
  0
VERTEX
  8
PLAN_1
 62
     2
  6
CONTINUOUS
 10
0.355146
 20
-0.312087
  0
VERTEX
  8
PLAN_1
 62
     2
  6
CONTINUOUS
 10
0.354181
 20
-0.313051
  0
VERTEX
  8
PLAN_1
 62
     2
  6
CONTINUOUS
 10
0.353217
 20
-0.313535
  0
VERTEX
  8
PLAN_1
 62
     2
  6
CONTINUOUS
 10
0.351768
 20
-0.314020
  0
VERTEX
  8
PLAN_1
 62
     2
  6
CONTINUOUS
 10
0.350319
 20
-0.314984
  0
VERTEX
  8
PLAN_1
 62
     2
  6
CONTINUOUS
 10
0.348386
 20
-0.315465
  0
VERTEX
  8
PLAN_1
 62
     2
  6
CONTINUOUS
 10
0.345972
 20
-0.315465
  0
VERTEX
  8
PLAN_1
 62
     2
  6
CONTINUOUS
 10
0.343559
 20
-0.315949
  0
VERTEX
  8
PLAN_1
 62
     2
  6
CONTINUOUS
 10
0.340177
 20
-0.315949
  0
VERTEX
  8
PLAN_1
 62
     2
  6
CONTINUOUS
 10
0.337764
 20
-0.315949
  0
VERTEX
  8
PLAN_1
 62
     2
  6
CONTINUOUS
 10
0.334866
 20
-0.315465
  0
VERTEX
  8
PLAN_1
 62
     2
  6
CONTINUOUS
 10
0.332453
 20
-0.314984
  0
VERTEX
  8
PLAN_1
 62
     2
  6
CONTINUOUS
 10
0.330035
 20
-0.314020
  0
VERTEX
  8
PLAN_1
 62
     2
  6
CONTINUOUS
 10
0.328106
 20
-0.313051
  0
VERTEX
  8
PLAN_1
 62
     2
  6
CONTINUOUS
 10
0.326173
 20
-0.311602
  0
VERTEX
  8
PLAN_1
 62
     2
  6
CONTINUOUS
 10
0.324244
 20
-0.310154
  0
VERTEX
  8
PLAN_1
 62
     2
  6
CONTINUOUS
 10
0.322311
 20
-0.308224
  0
VERTEX
  8
PLAN_1
 62
     2
  6
CONTINUOUS
 10
0.320862
 20
-0.306291
  0
VERTEX
  8
PLAN_1
 62
     2
  6
CONTINUOUS
 10
0.319898
 20
-0.304358
  0
VERTEX
  8
PLAN_1
 62
     2
  6
CONTINUOUS
 10
0.318449
 20
-0.301945
  0
VERTEX
  8
PLAN_1
 62
     2
  6
CONTINUOUS
 10
0.317480
 20
-0.299531
  0
VERTEX
  8
PLAN_1
 62
     2
  6
CONTINUOUS
 10
0.316516
 20
-0.294220
  0
VERTEX
  8
PLAN_1
 62
     2
  6
CONTINUOUS
 10
0.316031
 20
-0.288909
  0
VERTEX
  8
PLAN_1
 62
     2
  6
CONTINUOUS
 10
0.316516
 20
-0.282630
  0
VERTEX
  8
PLAN_1
 62
     2
  6
CONTINUOUS
 10
0.317480
 20
-0.276835
  0
VERTEX
  8
PLAN_1
 62
     2
  6
CONTINUOUS
 10
0.318449
 20
-0.274421
  0
VERTEX
  8
PLAN_1
 62
     2
  6
CONTINUOUS
 10
0.319413
 20
-0.272008
  0
VERTEX
  8
PLAN_1
 62
     2
  6
CONTINUOUS
 10
0.320862
 20
-0.269591
  0
VERTEX
  8
PLAN_1
 62
     2
  6
CONTINUOUS
 10
0.322311
 20
-0.267177
  0
VERTEX
  8
PLAN_1
 62
     2
  6
CONTINUOUS
 10
0.324244
 20
-0.265244
  0
VERTEX
  8
PLAN_1
 62
     2
  6
CONTINUOUS
 10
0.326173
 20
-0.263799
  0
VERTEX
  8
PLAN_1
 62
     2
  6
CONTINUOUS
 10
0.328106
 20
-0.262350
  0
VERTEX
  8
PLAN_1
 62
     2
  6
CONTINUOUS
 10
0.330520
 20
-0.260902
  0
VERTEX
  8
PLAN_1
 62
     2
  6
CONTINUOUS
 10
0.332933
 20
-0.259933
  0
VERTEX
  8
PLAN_1
 62
     2
  6
CONTINUOUS
 10
0.335831
 20
-0.258969
  0
VERTEX
  8
PLAN_1
 62
     2
  6
CONTINUOUS
 10
0.338728
 20
-0.258484
  0
VERTEX
  8
PLAN_1
 62
     2
  6
CONTINUOUS
 10
0.342110
 20
-0.258484
  0
VERTEX
  8
PLAN_1
 62
     2
  6
CONTINUOUS
 10
0.345008
 20
-0.258484
  0
VERTEX
  8
PLAN_1
 62
     2
  6
CONTINUOUS
 10
0.347906
 20
-0.258969
  0
VERTEX
  8
PLAN_1
 62
     2
  6
CONTINUOUS
 10
0.350319
 20
-0.259933
  0
VERTEX
  8
PLAN_1
 62
     2
  6
CONTINUOUS
 10
0.352248
 20
-0.260902
  0
VERTEX
  8
PLAN_1
 62
     2
  6
CONTINUOUS
 10
0.354665
 20
-0.261866
  0
VERTEX
  8
PLAN_1
 62
     2
  6
CONTINUOUS
 10
0.356594
 20
-0.263315
  0
VERTEX
  8
PLAN_1
 62
     2
  6
CONTINUOUS
 10
0.358043
 20
-0.265244
  0
VERTEX
  8
PLAN_1
 62
     2
  6
CONTINUOUS
 10
0.359976
 20
-0.267177
  0
VERTEX
  8
PLAN_1
 62
     2
  6
CONTINUOUS
 10
0.360941
 20
-0.269110
  0
VERTEX
  8
PLAN_1
 62
     2
  6
CONTINUOUS
 10
0.362390
 20
-0.271524
  0
VERTEX
  8
PLAN_1
 62
     2
  6
CONTINUOUS
 10
0.363358
 20
-0.274421
  0
VERTEX
  8
PLAN_1
 62
     2
  6
CONTINUOUS
 10
0.364323
 20
-0.277319
  0
VERTEX
  8
PLAN_1
 62
     2
  6
CONTINUOUS
 10
0.365287
 20
-0.283114
  0
VERTEX
  8
PLAN_1
 62
     2
  6
CONTINUOUS
 10
0.365772
 20
-0.290354
  0
VERTEX
  8
PLAN_1
 62
     2
  6
CONTINUOUS
 10
0.325693
 20
-0.290354
  0
VERTEX
  8
PLAN_1
 62
     2
  6
CONTINUOUS
 10
0.326173
 20
-0.294220
  0
VERTEX
  8
PLAN_1
 62
     2
  6
CONTINUOUS
 10
0.326657
 20
-0.297598
  0
VERTEX
  8
PLAN_1
 62
     2
  6
CONTINUOUS
 10
0.328106
 20
-0.300980
  0
VERTEX
  8
PLAN_1
 62
     2
  6
CONTINUOUS
 10
0.329555
 20
-0.303394
  0
VERTEX
  8
PLAN_1
 62
     2
  6
CONTINUOUS
 10
0.331969
 20
-0.305327
  0
VERTEX
  8
PLAN_1
 62
     2
  6
CONTINUOUS
 10
0.334866
 20
-0.306776
  0
VERTEX
  8
PLAN_1
 62
     2
  6
CONTINUOUS
 10
0.337764
 20
-0.307740
  0
VERTEX
  8
PLAN_1
 62
     2
  6
CONTINUOUS
 10
0.341626
 20
-0.308224
  0
VERTEX
  8
PLAN_1
 62
     2
  6
CONTINUOUS
 10
0.344524
 20
-0.307740
  0
VERTEX
  8
PLAN_1
 62
     2
  6
CONTINUOUS
 10
0.347421
 20
-0.306776
  0
VERTEX
  8
PLAN_1
 62
     2
  6
CONTINUOUS
 10
0.349835
 20
-0.305807
  0
VERTEX
  8
PLAN_1
 62
     2
  6
CONTINUOUS
 10
0.351768
 20
-0.304358
  0
VERTEX
  8
PLAN_1
 62
     2
  6
CONTINUOUS
 10
0.353217
 20
-0.302429
  0
VERTEX
  8
PLAN_1
 62
     2
  6
CONTINUOUS
 10
0.354665
 20
-0.300980
  0
VERTEX
  8
PLAN_1
 62
     2
  6
CONTINUOUS
 10
0.355146
 20
-0.299047
  0
VERTEX
  8
PLAN_1
 62
     2
  6
CONTINUOUS
 10
0.355630
 20
-0.297598
  0
VERTEX
  8
PLAN_1
 62
     2
  6
CONTINUOUS
 10
0.364803
 20
-0.297598
  0
SEQEND
  8
0
  0
POLYLINE
  8
PLAN_1
 62
     2
  6
CONTINUOUS
 66
     1
 40
0.003000
 41
0.003000
  0
VERTEX
  8
PLAN_1
 62
     2
  6
CONTINUOUS
 10
0.356114
 20
-0.283114
  0
VERTEX
  8
PLAN_1
 62
     2
  6
CONTINUOUS
 10
0.355630
 20
-0.279732
  0
VERTEX
  8
PLAN_1
 62
     2
  6
CONTINUOUS
 10
0.355146
 20
-0.276835
  0
VERTEX
  8
PLAN_1
 62
     2
  6
CONTINUOUS
 10
0.354181
 20
-0.273937
  0
VERTEX
  8
PLAN_1
 62
     2
  6
CONTINUOUS
 10
0.352248
 20
-0.271524
  0
VERTEX
  8
PLAN_1
 62
     2
  6
CONTINUOUS
 10
0.350319
 20
-0.269591
  0
VERTEX
  8
PLAN_1
 62
     2
  6
CONTINUOUS
 10
0.347906
 20
-0.268142
  0
VERTEX
  8
PLAN_1
 62
     2
  6
CONTINUOUS
 10
0.344524
 20
-0.267177
  0
VERTEX
  8
PLAN_1
 62
     2
  6
CONTINUOUS
 10
0.341142
 20
-0.266693
  0
VERTEX
  8
PLAN_1
 62
     2
  6
CONTINUOUS
 10
0.337764
 20
-0.267177
  0
VERTEX
  8
PLAN_1
 62
     2
  6
CONTINUOUS
 10
0.334866
 20
-0.268142
  0
VERTEX
  8
PLAN_1
 62
     2
  6
CONTINUOUS
 10
0.332453
 20
-0.269591
  0
VERTEX
  8
PLAN_1
 62
     2
  6
CONTINUOUS
 10
0.330035
 20
-0.271524
  0
VERTEX
  8
PLAN_1
 62
     2
  6
CONTINUOUS
 10
0.328587
 20
-0.273937
  0
VERTEX
  8
PLAN_1
 62
     2
  6
CONTINUOUS
 10
0.327138
 20
-0.276835
  0
VERTEX
  8
PLAN_1
 62
     2
  6
CONTINUOUS
 10
0.326173
 20
-0.279732
  0
VERTEX
  8
PLAN_1
 62
     2
  6
CONTINUOUS
 10
0.325693
 20
-0.283114
  0
VERTEX
  8
PLAN_1
 62
     2
  6
CONTINUOUS
 10
0.356114
 20
-0.283114
  0
SEQEND
  8
0
  0
POLYLINE
  8
PLAN_1
 62
     2
  6
CONTINUOUS
 66
     1
 40
0.003000
 41
0.003000
  0
VERTEX
  8
PLAN_1
 62
     2
  6
CONTINUOUS
 10
0.387984
 20
-0.267661
  0
VERTEX
  8
PLAN_1
 62
     2
  6
CONTINUOUS
 10
0.387984
 20
-0.302909
  0
VERTEX
  8
PLAN_1
 62
     2
  6
CONTINUOUS
 10
0.387984
 20
-0.304358
  0
VERTEX
  8
PLAN_1
 62
     2
  6
CONTINUOUS
 10
0.388465
 20
-0.305327
  0
VERTEX
  8
PLAN_1
 62
     2
  6
CONTINUOUS
 10
0.388949
 20
-0.306291
  0
VERTEX
  8
PLAN_1
 62
     2
  6
CONTINUOUS
 10
0.389913
 20
-0.306776
  0
VERTEX
  8
PLAN_1
 62
     2
  6
CONTINUOUS
 10
0.390882
 20
-0.307256
  0
VERTEX
  8
PLAN_1
 62
     2
  6
CONTINUOUS
 10
0.391846
 20
-0.307256
  0
VERTEX
  8
PLAN_1
 62
     2
  6
CONTINUOUS
 10
0.392331
 20
-0.307256
  0
VERTEX
  8
PLAN_1
 62
     2
  6
CONTINUOUS
 10
0.393295
 20
-0.307256
  0
VERTEX
  8
PLAN_1
 62
     2
  6
CONTINUOUS
 10
0.396677
 20
-0.307256
  0
VERTEX
  8
PLAN_1
 62
     2
  6
CONTINUOUS
 10
0.396677
 20
-0.314500
  0
VERTEX
  8
PLAN_1
 62
     2
  6
CONTINUOUS
 10
0.395228
 20
-0.314500
  0
VERTEX
  8
PLAN_1
 62
     2
  6
CONTINUOUS
 10
0.394260
 20
-0.314500
  0
VERTEX
  8
PLAN_1
 62
     2
  6
CONTINUOUS
 10
0.393295
 20
-0.314984
  0
VERTEX
  8
PLAN_1
 62
     2
  6
CONTINUOUS
 10
0.392331
 20
-0.314984
  0
VERTEX
  8
PLAN_1
 62
     2
  6
CONTINUOUS
 10
0.391362
 20
-0.314984
  0
VERTEX
  8
PLAN_1
 62
     2
  6
CONTINUOUS
 10
0.390398
 20
-0.314984
  0
VERTEX
  8
PLAN_1
 62
     2
  6
CONTINUOUS
 10
0.389913
 20
-0.314984
  0
VERTEX
  8
PLAN_1
 62
     2
  6
CONTINUOUS
 10
0.389433
 20
-0.314984
  0
VERTEX
  8
PLAN_1
 62
     2
  6
CONTINUOUS
 10
0.386535
 20
-0.314984
  0
VERTEX
  8
PLAN_1
 62
     2
  6
CONTINUOUS
 10
0.384122
 20
-0.314500
  0
VERTEX
  8
PLAN_1
 62
     2
  6
CONTINUOUS
 10
0.382189
 20
-0.313051
  0
VERTEX
  8
PLAN_1
 62
     2
  6
CONTINUOUS
 10
0.380740
 20
-0.311602
  0
VERTEX
  8
PLAN_1
 62
     2
  6
CONTINUOUS
 10
0.379776
 20
-0.310154
  0
VERTEX
  8
PLAN_1
 62
     2
  6
CONTINUOUS
 10
0.379291
 20
-0.308224
  0
VERTEX
  8
PLAN_1
 62
     2
  6
CONTINUOUS
 10
0.378807
 20
-0.305807
  0
VERTEX
  8
PLAN_1
 62
     2
  6
CONTINUOUS
 10
0.378807
 20
-0.303394
  0
VERTEX
  8
PLAN_1
 62
     2
  6
CONTINUOUS
 10
0.378807
 20
-0.267661
  0
VERTEX
  8
PLAN_1
 62
     2
  6
CONTINUOUS
 10
0.371083
 20
-0.267661
  0
VERTEX
  8
PLAN_1
 62
     2
  6
CONTINUOUS
 10
0.371083
 20
-0.259933
  0
VERTEX
  8
PLAN_1
 62
     2
  6
CONTINUOUS
 10
0.378807
 20
-0.259933
  0
VERTEX
  8
PLAN_1
 62
     2
  6
CONTINUOUS
 10
0.378807
 20
-0.244965
  0
VERTEX
  8
PLAN_1
 62
     2
  6
CONTINUOUS
 10
0.387984
 20
-0.244965
  0
VERTEX
  8
PLAN_1
 62
     2
  6
CONTINUOUS
 10
0.387984
 20
-0.259933
  0
VERTEX
  8
PLAN_1
 62
     2
  6
CONTINUOUS
 10
0.396677
 20
-0.259933
  0
VERTEX
  8
PLAN_1
 62
     2
  6
CONTINUOUS
 10
0.396677
 20
-0.267661
  0
VERTEX
  8
PLAN_1
 62
     2
  6
CONTINUOUS
 10
0.387984
 20
-0.267661
  0
SEQEND
  8
0
  0
POLYLINE
  8
PLAN_1
 62
     2
  6
CONTINUOUS
 66
     1
 40
0.003000
 41
0.003000
  0
VERTEX
  8
PLAN_1
 62
     2
  6
CONTINUOUS
 10
0.427579
 20
-0.258484
  0
VERTEX
  8
PLAN_1
 62
     2
  6
CONTINUOUS
 10
0.430961
 20
-0.258484
  0
VERTEX
  8
PLAN_1
 62
     2
  6
CONTINUOUS
 10
0.433858
 20
-0.258969
  0
VERTEX
  8
PLAN_1
 62
     2
  6
CONTINUOUS
 10
0.436272
 20
-0.259933
  0
VERTEX
  8
PLAN_1
 62
     2
  6
CONTINUOUS
 10
0.438685
 20
-0.260902
  0
VERTEX
  8
PLAN_1
 62
     2
  6
CONTINUOUS
 10
0.441102
 20
-0.262350
  0
VERTEX
  8
PLAN_1
 62
     2
  6
CONTINUOUS
 10
0.443031
 20
-0.263799
  0
VERTEX
  8
PLAN_1
 62
     2
  6
CONTINUOUS
 10
0.444965
 20
-0.265728
  0
VERTEX
  8
PLAN_1
 62
     2
  6
CONTINUOUS
 10
0.446898
 20
-0.267661
  0
VERTEX
  8
PLAN_1
 62
     2
  6
CONTINUOUS
 10
0.449311
 20
-0.272008
  0
VERTEX
  8
PLAN_1
 62
     2
  6
CONTINUOUS
 10
0.451240
 20
-0.276835
  0
VERTEX
  8
PLAN_1
 62
     2
  6
CONTINUOUS
 10
0.452689
 20
-0.282146
  0
VERTEX
  8
PLAN_1
 62
     2
  6
CONTINUOUS
 10
0.452689
 20
-0.286976
  0
VERTEX
  8
PLAN_1
 62
     2
  6
CONTINUOUS
 10
0.452689
 20
-0.292287
  0
VERTEX
  8
PLAN_1
 62
     2
  6
CONTINUOUS
 10
0.451240
 20
-0.297598
  0
VERTEX
  8
PLAN_1
 62
     2
  6
CONTINUOUS
 10
0.449311
 20
-0.302429
  0
VERTEX
  8
PLAN_1
 62
     2
  6
CONTINUOUS
 10
0.446898
 20
-0.306776
  0
VERTEX
  8
PLAN_1
 62
     2
  6
CONTINUOUS
 10
0.444965
 20
-0.308705
  0
VERTEX
  8
PLAN_1
 62
     2
  6
CONTINUOUS
 10
0.443031
 20
-0.310638
  0
VERTEX
  8
PLAN_1
 62
     2
  6
CONTINUOUS
 10
0.441102
 20
-0.312087
  0
VERTEX
  8
PLAN_1
 62
     2
  6
CONTINUOUS
 10
0.438685
 20
-0.313535
  0
VERTEX
  8
PLAN_1
 62
     2
  6
CONTINUOUS
 10
0.436272
 20
-0.314500
  0
VERTEX
  8
PLAN_1
 62
     2
  6
CONTINUOUS
 10
0.433858
 20
-0.315465
  0
VERTEX
  8
PLAN_1
 62
     2
  6
CONTINUOUS
 10
0.430961
 20
-0.315949
  0
VERTEX
  8
PLAN_1
 62
     2
  6
CONTINUOUS
 10
0.427579
 20
-0.315949
  0
VERTEX
  8
PLAN_1
 62
     2
  6
CONTINUOUS
 10
0.424685
 20
-0.315949
  0
VERTEX
  8
PLAN_1
 62
     2
  6
CONTINUOUS
 10
0.421787
 20
-0.315465
  0
VERTEX
  8
PLAN_1
 62
     2
  6
CONTINUOUS
 10
0.418890
 20
-0.314500
  0
VERTEX
  8
PLAN_1
 62
     2
  6
CONTINUOUS
 10
0.416472
 20
-0.313535
  0
VERTEX
  8
PLAN_1
 62
     2
  6
CONTINUOUS
 10
0.414059
 20
-0.312087
  0
VERTEX
  8
PLAN_1
 62
     2
  6
CONTINUOUS
 10
0.412130
 20
-0.310638
  0
VERTEX
  8
PLAN_1
 62
     2
  6
CONTINUOUS
 10
0.410197
 20
-0.308705
  0
VERTEX
  8
PLAN_1
 62
     2
  6
CONTINUOUS
 10
0.408264
 20
-0.306776
  0
VERTEX
  8
PLAN_1
 62
     2
  6
CONTINUOUS
 10
0.405850
 20
-0.302429
  0
VERTEX
  8
PLAN_1
 62
     2
  6
CONTINUOUS
 10
0.403917
 20
-0.297598
  0
VERTEX
  8
PLAN_1
 62
     2
  6
CONTINUOUS
 10
0.402953
 20
-0.292287
  0
VERTEX
  8
PLAN_1
 62
     2
  6
CONTINUOUS
 10
0.402469
 20
-0.286976
  0
VERTEX
  8
PLAN_1
 62
     2
  6
CONTINUOUS
 10
0.402953
 20
-0.282146
  0
VERTEX
  8
PLAN_1
 62
     2
  6
CONTINUOUS
 10
0.403917
 20
-0.276835
  0
VERTEX
  8
PLAN_1
 62
     2
  6
CONTINUOUS
 10
0.405850
 20
-0.272008
  0
VERTEX
  8
PLAN_1
 62
     2
  6
CONTINUOUS
 10
0.408264
 20
-0.267661
  0
VERTEX
  8
PLAN_1
 62
     2
  6
CONTINUOUS
 10
0.410197
 20
-0.265728
  0
VERTEX
  8
PLAN_1
 62
     2
  6
CONTINUOUS
 10
0.412130
 20
-0.263799
  0
VERTEX
  8
PLAN_1
 62
     2
  6
CONTINUOUS
 10
0.414059
 20
-0.262350
  0
VERTEX
  8
PLAN_1
 62
     2
  6
CONTINUOUS
 10
0.416472
 20
-0.260902
  0
VERTEX
  8
PLAN_1
 62
     2
  6
CONTINUOUS
 10
0.418890
 20
-0.259933
  0
VERTEX
  8
PLAN_1
 62
     2
  6
CONTINUOUS
 10
0.421787
 20
-0.258969
  0
VERTEX
  8
PLAN_1
 62
     2
  6
CONTINUOUS
 10
0.424685
 20
-0.258484
  0
VERTEX
  8
PLAN_1
 62
     2
  6
CONTINUOUS
 10
0.427579
 20
-0.258484
  0
SEQEND
  8
0
  0
POLYLINE
  8
PLAN_1
 62
     2
  6
CONTINUOUS
 66
     1
 40
0.003000
 41
0.003000
  0
VERTEX
  8
PLAN_1
 62
     2
  6
CONTINUOUS
 10
0.427579
 20
-0.308224
  0
VERTEX
  8
PLAN_1
 62
     2
  6
CONTINUOUS
 10
0.429996
 20
-0.307740
  0
VERTEX
  8
PLAN_1
 62
     2
  6
CONTINUOUS
 10
0.431925
 20
-0.307256
  0
VERTEX
  8
PLAN_1
 62
     2
  6
CONTINUOUS
 10
0.433858
 20
-0.306776
  0
VERTEX
  8
PLAN_1
 62
     2
  6
CONTINUOUS
 10
0.435791
 20
-0.305807
  0
VERTEX
  8
PLAN_1
 62
     2
  6
CONTINUOUS
 10
0.438205
 20
-0.303394
  0
VERTEX
  8
PLAN_1
 62
     2
  6
CONTINUOUS
 10
0.440618
 20
-0.300496
  0
VERTEX
  8
PLAN_1
 62
     2
  6
CONTINUOUS
 10
0.442067
 20
-0.297118
  0
VERTEX
  8
PLAN_1
 62
     2
  6
CONTINUOUS
 10
0.443031
 20
-0.293736
  0
VERTEX
  8
PLAN_1
 62
     2
  6
CONTINUOUS
 10
0.443516
 20
-0.290354
  0
VERTEX
  8
PLAN_1
 62
     2
  6
CONTINUOUS
 10
0.443516
 20
-0.286976
  0
VERTEX
  8
PLAN_1
 62
     2
  6
CONTINUOUS
 10
0.443516
 20
-0.284079
  0
VERTEX
  8
PLAN_1
 62
     2
  6
CONTINUOUS
 10
0.443031
 20
-0.280697
  0
VERTEX
  8
PLAN_1
 62
     2
  6
CONTINUOUS
 10
0.442067
 20
-0.277319
  0
VERTEX
  8
PLAN_1
 62
     2
  6
CONTINUOUS
 10
0.440618
 20
-0.273937
  0
VERTEX
  8
PLAN_1
 62
     2
  6
CONTINUOUS
 10
0.438205
 20
-0.271039
  0
VERTEX
  8
PLAN_1
 62
     2
  6
CONTINUOUS
 10
0.435791
 20
-0.268626
  0
VERTEX
  8
PLAN_1
 62
     2
  6
CONTINUOUS
 10
0.433858
 20
-0.267661
  0
VERTEX
  8
PLAN_1
 62
     2
  6
CONTINUOUS
 10
0.431925
 20
-0.267177
  0
VERTEX
  8
PLAN_1
 62
     2
  6
CONTINUOUS
 10
0.429996
 20
-0.266693
  0
VERTEX
  8
PLAN_1
 62
     2
  6
CONTINUOUS
 10
0.427579
 20
-0.266213
  0
VERTEX
  8
PLAN_1
 62
     2
  6
CONTINUOUS
 10
0.425165
 20
-0.266693
  0
VERTEX
  8
PLAN_1
 62
     2
  6
CONTINUOUS
 10
0.423236
 20
-0.267177
  0
VERTEX
  8
PLAN_1
 62
     2
  6
CONTINUOUS
 10
0.421303
 20
-0.267661
  0
VERTEX
  8
PLAN_1
 62
     2
  6
CONTINUOUS
 10
0.419854
 20
-0.268626
  0
VERTEX
  8
PLAN_1
 62
     2
  6
CONTINUOUS
 10
0.416957
 20
-0.271039
  0
VERTEX
  8
PLAN_1
 62
     2
  6
CONTINUOUS
 10
0.415024
 20
-0.273937
  0
VERTEX
  8
PLAN_1
 62
     2
  6
CONTINUOUS
 10
0.413575
 20
-0.277319
  0
VERTEX
  8
PLAN_1
 62
     2
  6
CONTINUOUS
 10
0.412610
 20
-0.280697
  0
VERTEX
  8
PLAN_1
 62
     2
  6
CONTINUOUS
 10
0.412130
 20
-0.284079
  0
VERTEX
  8
PLAN_1
 62
     2
  6
CONTINUOUS
 10
0.411646
 20
-0.286976
  0
VERTEX
  8
PLAN_1
 62
     2
  6
CONTINUOUS
 10
0.412130
 20
-0.290354
  0
VERTEX
  8
PLAN_1
 62
     2
  6
CONTINUOUS
 10
0.412610
 20
-0.293736
  0
VERTEX
  8
PLAN_1
 62
     2
  6
CONTINUOUS
 10
0.413575
 20
-0.297118
  0
VERTEX
  8
PLAN_1
 62
     2
  6
CONTINUOUS
 10
0.415024
 20
-0.300496
  0
VERTEX
  8
PLAN_1
 62
     2
  6
CONTINUOUS
 10
0.416957
 20
-0.303394
  0
VERTEX
  8
PLAN_1
 62
     2
  6
CONTINUOUS
 10
0.419854
 20
-0.305807
  0
VERTEX
  8
PLAN_1
 62
     2
  6
CONTINUOUS
 10
0.421303
 20
-0.306776
  0
VERTEX
  8
PLAN_1
 62
     2
  6
CONTINUOUS
 10
0.423236
 20
-0.307256
  0
VERTEX
  8
PLAN_1
 62
     2
  6
CONTINUOUS
 10
0.425165
 20
-0.307740
  0
VERTEX
  8
PLAN_1
 62
     2
  6
CONTINUOUS
 10
0.427579
 20
-0.308224
  0
SEQEND
  8
0
  0
POLYLINE
  8
PLAN_1
 62
     2
  6
CONTINUOUS
 66
     1
 40
0.003000
 41
0.003000
  0
VERTEX
  8
PLAN_1
 62
     2
  6
CONTINUOUS
 10
0.499047
 20
-0.314500
  0
VERTEX
  8
PLAN_1
 62
     2
  6
CONTINUOUS
 10
0.499047
 20
-0.306776
  0
VERTEX
  8
PLAN_1
 62
     2
  6
CONTINUOUS
 10
0.498567
 20
-0.306291
  0
VERTEX
  8
PLAN_1
 62
     2
  6
CONTINUOUS
 10
0.497118
 20
-0.308705
  0
VERTEX
  8
PLAN_1
 62
     2
  6
CONTINUOUS
 10
0.495669
 20
-0.310638
  0
VERTEX
  8
PLAN_1
 62
     2
  6
CONTINUOUS
 10
0.493736
 20
-0.312087
  0
VERTEX
  8
PLAN_1
 62
     2
  6
CONTINUOUS
 10
0.491803
 20
-0.313535
  0
VERTEX
  8
PLAN_1
 62
     2
  6
CONTINUOUS
 10
0.489874
 20
-0.314500
  0
VERTEX
  8
PLAN_1
 62
     2
  6
CONTINUOUS
 10
0.486976
 20
-0.315465
  0
VERTEX
  8
PLAN_1
 62
     2
  6
CONTINUOUS
 10
0.484563
 20
-0.315949
  0
VERTEX
  8
PLAN_1
 62
     2
  6
CONTINUOUS
 10
0.481181
 20
-0.315949
  0
VERTEX
  8
PLAN_1
 62
     2
  6
CONTINUOUS
 10
0.478283
 20
-0.315949
  0
VERTEX
  8
PLAN_1
 62
     2
  6
CONTINUOUS
 10
0.475386
 20
-0.314984
  0
VERTEX
  8
PLAN_1
 62
     2
  6
CONTINUOUS
 10
0.472008
 20
-0.314020
  0
VERTEX
  8
PLAN_1
 62
     2
  6
CONTINUOUS
 10
0.469591
 20
-0.312571
  0
VERTEX
  8
PLAN_1
 62
     2
  6
CONTINUOUS
 10
0.467177
 20
-0.310154
  0
VERTEX
  8
PLAN_1
 62
     2
  6
CONTINUOUS
 10
0.465244
 20
-0.307256
  0
VERTEX
  8
PLAN_1
 62
     2
  6
CONTINUOUS
 10
0.464280
 20
-0.303394
  0
VERTEX
  8
PLAN_1
 62
     2
  6
CONTINUOUS
 10
0.463795
 20
-0.299047
  0
VERTEX
  8
PLAN_1
 62
     2
  6
CONTINUOUS
 10
0.463795
 20
-0.259933
  0
VERTEX
  8
PLAN_1
 62
     2
  6
CONTINUOUS
 10
0.472972
 20
-0.259933
  0
VERTEX
  8
PLAN_1
 62
     2
  6
CONTINUOUS
 10
0.472972
 20
-0.296150
  0
VERTEX
  8
PLAN_1
 62
     2
  6
CONTINUOUS
 10
0.472972
 20
-0.299047
  0
VERTEX
  8
PLAN_1
 62
     2
  6
CONTINUOUS
 10
0.473457
 20
-0.301945
  0
VERTEX
  8
PLAN_1
 62
     2
  6
CONTINUOUS
 10
0.474421
 20
-0.303878
  0
VERTEX
  8
PLAN_1
 62
     2
  6
CONTINUOUS
 10
0.475870
 20
-0.305327
  0
VERTEX
  8
PLAN_1
 62
     2
  6
CONTINUOUS
 10
0.477319
 20
-0.306776
  0
VERTEX
  8
PLAN_1
 62
     2
  6
CONTINUOUS
 10
0.479248
 20
-0.307740
  0
VERTEX
  8
PLAN_1
 62
     2
  6
CONTINUOUS
 10
0.481181
 20
-0.307740
  0
VERTEX
  8
PLAN_1
 62
     2
  6
CONTINUOUS
 10
0.483114
 20
-0.308224
  0
VERTEX
  8
PLAN_1
 62
     2
  6
CONTINUOUS
 10
0.487457
 20
-0.307740
  0
VERTEX
  8
PLAN_1
 62
     2
  6
CONTINUOUS
 10
0.490354
 20
-0.306291
  0
VERTEX
  8
PLAN_1
 62
     2
  6
CONTINUOUS
 10
0.493252
 20
-0.304358
  0
VERTEX
  8
PLAN_1
 62
     2
  6
CONTINUOUS
 10
0.495185
 20
-0.301945
  0
VERTEX
  8
PLAN_1
 62
     2
  6
CONTINUOUS
 10
0.496634
 20
-0.299047
  0
VERTEX
  8
PLAN_1
 62
     2
  6
CONTINUOUS
 10
0.497598
 20
-0.296150
  0
VERTEX
  8
PLAN_1
 62
     2
  6
CONTINUOUS
 10
0.498083
 20
-0.293252
  0
VERTEX
  8
PLAN_1
 62
     2
  6
CONTINUOUS
 10
0.498083
 20
-0.289874
  0
VERTEX
  8
PLAN_1
 62
     2
  6
CONTINUOUS
 10
0.498083
 20
-0.259933
  0
VERTEX
  8
PLAN_1
 62
     2
  6
CONTINUOUS
 10
0.507256
 20
-0.259933
  0
VERTEX
  8
PLAN_1
 62
     2
  6
CONTINUOUS
 10
0.507256
 20
-0.314500
  0
VERTEX
  8
PLAN_1
 62
     2
  6
CONTINUOUS
 10
0.499047
 20
-0.314500
  0
SEQEND
  8
0
  0
POLYLINE
  8
PLAN_1
 62
     2
  6
CONTINUOUS
 66
     1
 40
0.003000
 41
0.003000
  0
VERTEX
  8
PLAN_1
 62
     2
  6
CONTINUOUS
 10
0.520295
 20
-0.259933
  0
VERTEX
  8
PLAN_1
 62
     2
  6
CONTINUOUS
 10
0.528988
 20
-0.259933
  0
VERTEX
  8
PLAN_1
 62
     2
  6
CONTINUOUS
 10
0.528988
 20
-0.267661
  0
VERTEX
  8
PLAN_1
 62
     2
  6
CONTINUOUS
 10
0.529469
 20
-0.267661
  0
VERTEX
  8
PLAN_1
 62
     2
  6
CONTINUOUS
 10
0.530437
 20
-0.266693
  0
VERTEX
  8
PLAN_1
 62
     2
  6
CONTINUOUS
 10
0.531402
 20
-0.264764
  0
VERTEX
  8
PLAN_1
 62
     2
  6
CONTINUOUS
 10
0.532850
 20
-0.263315
  0
VERTEX
  8
PLAN_1
 62
     2
  6
CONTINUOUS
 10
0.534783
 20
-0.261866
  0
VERTEX
  8
PLAN_1
 62
     2
  6
CONTINUOUS
 10
0.536713
 20
-0.260417
  0
VERTEX
  8
PLAN_1
 62
     2
  6
CONTINUOUS
 10
0.539126
 20
-0.259453
  0
VERTEX
  8
PLAN_1
 62
     2
  6
CONTINUOUS
 10
0.542024
 20
-0.258969
  0
VERTEX
  8
PLAN_1
 62
     2
  6
CONTINUOUS
 10
0.545406
 20
-0.258484
  0
VERTEX
  8
PLAN_1
 62
     2
  6
CONTINUOUS
 10
0.548303
 20
-0.258484
  0
VERTEX
  8
PLAN_1
 62
     2
  6
CONTINUOUS
 10
0.550717
 20
-0.258969
  0
VERTEX
  8
PLAN_1
 62
     2
  6
CONTINUOUS
 10
0.553130
 20
-0.259453
  0
VERTEX
  8
PLAN_1
 62
     2
  6
CONTINUOUS
 10
0.555063
 20
-0.260417
  0
VERTEX
  8
PLAN_1
 62
     2
  6
CONTINUOUS
 10
0.557476
 20
-0.261866
  0
VERTEX
  8
PLAN_1
 62
     2
  6
CONTINUOUS
 10
0.558925
 20
-0.262831
  0
VERTEX
  8
PLAN_1
 62
     2
  6
CONTINUOUS
 10
0.560858
 20
-0.264764
  0
VERTEX
  8
PLAN_1
 62
     2
  6
CONTINUOUS
 10
0.562307
 20
-0.266213
  0
VERTEX
  8
PLAN_1
 62
     2
  6
CONTINUOUS
 10
0.564720
 20
-0.270559
  0
VERTEX
  8
PLAN_1
 62
     2
  6
CONTINUOUS
 10
0.566654
 20
-0.274906
  0
VERTEX
  8
PLAN_1
 62
     2
  6
CONTINUOUS
 10
0.568102
 20
-0.280217
  0
VERTEX
  8
PLAN_1
 62
     2
  6
CONTINUOUS
 10
0.568102
 20
-0.285528
  0
VERTEX
  8
PLAN_1
 62
     2
  6
CONTINUOUS
 10
0.568102
 20
-0.290839
  0
VERTEX
  8
PLAN_1
 62
     2
  6
CONTINUOUS
 10
0.567134
 20
-0.295669
  0
VERTEX
  8
PLAN_1
 62
     2
  6
CONTINUOUS
 10
0.565685
 20
-0.300980
  0
VERTEX
  8
PLAN_1
 62
     2
  6
CONTINUOUS
 10
0.563272
 20
-0.305807
  0
VERTEX
  8
PLAN_1
 62
     2
  6
CONTINUOUS
 10
0.561823
 20
-0.307740
  0
VERTEX
  8
PLAN_1
 62
     2
  6
CONTINUOUS
 10
0.559894
 20
-0.309673
  0
VERTEX
  8
PLAN_1
 62
     2
  6
CONTINUOUS
 10
0.557961
 20
-0.311602
  0
VERTEX
  8
PLAN_1
 62
     2
  6
CONTINUOUS
 10
0.556028
 20
-0.313051
  0
VERTEX
  8
PLAN_1
 62
     2
  6
CONTINUOUS
 10
0.553614
 20
-0.314500
  0
VERTEX
  8
PLAN_1
 62
     2
  6
CONTINUOUS
 10
0.550717
 20
-0.315465
  0
VERTEX
  8
PLAN_1
 62
     2
  6
CONTINUOUS
 10
0.547819
 20
-0.315949
  0
VERTEX
  8
PLAN_1
 62
     2
  6
CONTINUOUS
 10
0.544441
 20
-0.315949
  0
VERTEX
  8
PLAN_1
 62
     2
  6
CONTINUOUS
 10
0.541543
 20
-0.315949
  0
VERTEX
  8
PLAN_1
 62
     2
  6
CONTINUOUS
 10
0.539126
 20
-0.315465
  0
VERTEX
  8
PLAN_1
 62
     2
  6
CONTINUOUS
 10
0.537197
 20
-0.314500
  0
VERTEX
  8
PLAN_1
 62
     2
  6
CONTINUOUS
 10
0.535264
 20
-0.314020
  0
VERTEX
  8
PLAN_1
 62
     2
  6
CONTINUOUS
 10
0.533815
 20
-0.312571
  0
VERTEX
  8
PLAN_1
 62
     2
  6
CONTINUOUS
 10
0.532366
 20
-0.311602
  0
VERTEX
  8
PLAN_1
 62
     2
  6
CONTINUOUS
 10
0.530917
 20
-0.310154
  0
VERTEX
  8
PLAN_1
 62
     2
  6
CONTINUOUS
 10
0.529953
 20
-0.308705
  0
VERTEX
  8
PLAN_1
 62
     2
  6
CONTINUOUS
 10
0.529469
 20
-0.308705
  0
VERTEX
  8
PLAN_1
 62
     2
  6
CONTINUOUS
 10
0.529469
 20
-0.336232
  0
VERTEX
  8
PLAN_1
 62
     2
  6
CONTINUOUS
 10
0.520295
 20
-0.336232
  0
VERTEX
  8
PLAN_1
 62
     2
  6
CONTINUOUS
 10
0.520295
 20
-0.259933
  0
SEQEND
  8
0
  0
POLYLINE
  8
PLAN_1
 62
     2
  6
CONTINUOUS
 66
     1
 40
0.003000
 41
0.003000
  0
VERTEX
  8
PLAN_1
 62
     2
  6
CONTINUOUS
 10
0.543957
 20
-0.308224
  0
VERTEX
  8
PLAN_1
 62
     2
  6
CONTINUOUS
 10
0.547819
 20
-0.307740
  0
VERTEX
  8
PLAN_1
 62
     2
  6
CONTINUOUS
 10
0.550717
 20
-0.306291
  0
VERTEX
  8
PLAN_1
 62
     2
  6
CONTINUOUS
 10
0.553130
 20
-0.304843
  0
VERTEX
  8
PLAN_1
 62
     2
  6
CONTINUOUS
 10
0.555063
 20
-0.301945
  0
VERTEX
  8
PLAN_1
 62
     2
  6
CONTINUOUS
 10
0.556996
 20
-0.299047
  0
VERTEX
  8
PLAN_1
 62
     2
  6
CONTINUOUS
 10
0.557961
 20
-0.295669
  0
VERTEX
  8
PLAN_1
 62
     2
  6
CONTINUOUS
 10
0.558445
 20
-0.291323
  0
VERTEX
  8
PLAN_1
 62
     2
  6
CONTINUOUS
 10
0.558925
 20
-0.286976
  0
VERTEX
  8
PLAN_1
 62
     2
  6
CONTINUOUS
 10
0.558925
 20
-0.284079
  0
VERTEX
  8
PLAN_1
 62
     2
  6
CONTINUOUS
 10
0.558445
 20
-0.281181
  0
VERTEX
  8
PLAN_1
 62
     2
  6
CONTINUOUS
 10
0.557961
 20
-0.277799
  0
VERTEX
  8
PLAN_1
 62
     2
  6
CONTINUOUS
 10
0.556512
 20
-0.274421
  0
VERTEX
  8
PLAN_1
 62
     2
  6
CONTINUOUS
 10
0.556028
 20
-0.272972
  0
VERTEX
  8
PLAN_1
 62
     2
  6
CONTINUOUS
 10
0.555063
 20
-0.271524
  0
VERTEX
  8
PLAN_1
 62
     2
  6
CONTINUOUS
 10
0.553614
 20
-0.270075
  0
VERTEX
  8
PLAN_1
 62
     2
  6
CONTINUOUS
 10
0.552165
 20
-0.269110
  0
VERTEX
  8
PLAN_1
 62
     2
  6
CONTINUOUS
 10
0.550717
 20
-0.268142
  0
VERTEX
  8
PLAN_1
 62
     2
  6
CONTINUOUS
 10
0.548783
 20
-0.267177
  0
VERTEX
  8
PLAN_1
 62
     2
  6
CONTINUOUS
 10
0.546370
 20
-0.266693
  0
VERTEX
  8
PLAN_1
 62
     2
  6
CONTINUOUS
 10
0.543957
 20
-0.266693
  0
VERTEX
  8
PLAN_1
 62
     2
  6
CONTINUOUS
 10
0.541543
 20
-0.266693
  0
VERTEX
  8
PLAN_1
 62
     2
  6
CONTINUOUS
 10
0.539610
 20
-0.267177
  0
VERTEX
  8
PLAN_1
 62
     2
  6
CONTINUOUS
 10
0.537677
 20
-0.268142
  0
VERTEX
  8
PLAN_1
 62
     2
  6
CONTINUOUS
 10
0.536228
 20
-0.269110
  0
VERTEX
  8
PLAN_1
 62
     2
  6
CONTINUOUS
 10
0.534783
 20
-0.270075
  0
VERTEX
  8
PLAN_1
 62
     2
  6
CONTINUOUS
 10
0.533335
 20
-0.271524
  0
VERTEX
  8
PLAN_1
 62
     2
  6
CONTINUOUS
 10
0.532366
 20
-0.273457
  0
VERTEX
  8
PLAN_1
 62
     2
  6
CONTINUOUS
 10
0.531402
 20
-0.274906
  0
VERTEX
  8
PLAN_1
 62
     2
  6
CONTINUOUS
 10
0.530437
 20
-0.278768
  0
VERTEX
  8
PLAN_1
 62
     2
  6
CONTINUOUS
 10
0.529469
 20
-0.282630
  0
VERTEX
  8
PLAN_1
 62
     2
  6
CONTINUOUS
 10
0.529469
 20
-0.286492
  0
VERTEX
  8
PLAN_1
 62
     2
  6
CONTINUOUS
 10
0.529469
 20
-0.289874
  0
VERTEX
  8
PLAN_1
 62
     2
  6
CONTINUOUS
 10
0.529469
 20
-0.294701
  0
VERTEX
  8
PLAN_1
 62
     2
  6
CONTINUOUS
 10
0.530917
 20
-0.298567
  0
VERTEX
  8
PLAN_1
 62
     2
  6
CONTINUOUS
 10
0.532366
 20
-0.301945
  0
VERTEX
  8
PLAN_1
 62
     2
  6
CONTINUOUS
 10
0.534299
 20
-0.304358
  0
VERTEX
  8
PLAN_1
 62
     2
  6
CONTINUOUS
 10
0.536713
 20
-0.306291
  0
VERTEX
  8
PLAN_1
 62
     2
  6
CONTINUOUS
 10
0.539126
 20
-0.307256
  0
VERTEX
  8
PLAN_1
 62
     2
  6
CONTINUOUS
 10
0.542024
 20
-0.307740
  0
VERTEX
  8
PLAN_1
 62
     2
  6
CONTINUOUS
 10
0.543957
 20
-0.308224
  0
SEQEND
  8
0
  0
POLYLINE
  8
PLAN_1
 62
     2
  6
CONTINUOUS
 66
     1
 40
0.003000
 41
0.003000
  0
VERTEX
  8
PLAN_1
 62
     2
  6
CONTINUOUS
 10
0.625563
 20
-0.297598
  0
VERTEX
  8
PLAN_1
 62
     2
  6
CONTINUOUS
 10
0.625083
 20
-0.298567
  0
VERTEX
  8
PLAN_1
 62
     2
  6
CONTINUOUS
 10
0.624598
 20
-0.300016
  0
VERTEX
  8
PLAN_1
 62
     2
  6
CONTINUOUS
 10
0.624114
 20
-0.301945
  0
VERTEX
  8
PLAN_1
 62
     2
  6
CONTINUOUS
 10
0.623150
 20
-0.303878
  0
VERTEX
  8
PLAN_1
 62
     2
  6
CONTINUOUS
 10
0.621701
 20
-0.306291
  0
VERTEX
  8
PLAN_1
 62
     2
  6
CONTINUOUS
 10
0.620252
 20
-0.308224
  0
VERTEX
  8
PLAN_1
 62
     2
  6
CONTINUOUS
 10
0.617839
 20
-0.310638
  0
VERTEX
  8
PLAN_1
 62
     2
  6
CONTINUOUS
 10
0.615425
 20
-0.312087
  0
VERTEX
  8
PLAN_1
 62
     2
  6
CONTINUOUS
 10
0.614457
 20
-0.313051
  0
VERTEX
  8
PLAN_1
 62
     2
  6
CONTINUOUS
 10
0.613492
 20
-0.313535
  0
VERTEX
  8
PLAN_1
 62
     2
  6
CONTINUOUS
 10
0.612043
 20
-0.314020
  0
VERTEX
  8
PLAN_1
 62
     2
  6
CONTINUOUS
 10
0.610594
 20
-0.314984
  0
VERTEX
  8
PLAN_1
 62
     2
  6
CONTINUOUS
 10
0.608665
 20
-0.315465
  0
VERTEX
  8
PLAN_1
 62
     2
  6
CONTINUOUS
 10
0.606732
 20
-0.315465
  0
VERTEX
  8
PLAN_1
 62
     2
  6
CONTINUOUS
 10
0.603835
 20
-0.315949
  0
VERTEX
  8
PLAN_1
 62
     2
  6
CONTINUOUS
 10
0.600937
 20
-0.315949
  0
VERTEX
  8
PLAN_1
 62
     2
  6
CONTINUOUS
 10
0.598039
 20
-0.315949
  0
VERTEX
  8
PLAN_1
 62
     2
  6
CONTINUOUS
 10
0.595626
 20
-0.315465
  0
VERTEX
  8
PLAN_1
 62
     2
  6
CONTINUOUS
 10
0.592728
 20
-0.314984
  0
VERTEX
  8
PLAN_1
 62
     2
  6
CONTINUOUS
 10
0.590795
 20
-0.314020
  0
VERTEX
  8
PLAN_1
 62
     2
  6
CONTINUOUS
 10
0.588382
 20
-0.313051
  0
VERTEX
  8
PLAN_1
 62
     2
  6
CONTINUOUS
 10
0.586449
 20
-0.311602
  0
VERTEX
  8
PLAN_1
 62
     2
  6
CONTINUOUS
 10
0.584520
 20
-0.310154
  0
VERTEX
  8
PLAN_1
 62
     2
  6
CONTINUOUS
 10
0.583071
 20
-0.308224
  0
VERTEX
  8
PLAN_1
 62
     2
  6
CONTINUOUS
 10
0.581622
 20
-0.306291
  0
VERTEX
  8
PLAN_1
 62
     2
  6
CONTINUOUS
 10
0.580173
 20
-0.304358
  0
VERTEX
  8
PLAN_1
 62
     2
  6
CONTINUOUS
 10
0.579209
 20
-0.301945
  0
VERTEX
  8
PLAN_1
 62
     2
  6
CONTINUOUS
 10
0.578240
 20
-0.299531
  0
VERTEX
  8
PLAN_1
 62
     2
  6
CONTINUOUS
 10
0.576791
 20
-0.294220
  0
VERTEX
  8
PLAN_1
 62
     2
  6
CONTINUOUS
 10
0.576311
 20
-0.288909
  0
VERTEX
  8
PLAN_1
 62
     2
  6
CONTINUOUS
 10
0.576791
 20
-0.282630
  0
VERTEX
  8
PLAN_1
 62
     2
  6
CONTINUOUS
 10
0.578240
 20
-0.276835
  0
VERTEX
  8
PLAN_1
 62
     2
  6
CONTINUOUS
 10
0.578724
 20
-0.274421
  0
VERTEX
  8
PLAN_1
 62
     2
  6
CONTINUOUS
 10
0.580173
 20
-0.272008
  0
VERTEX
  8
PLAN_1
 62
     2
  6
CONTINUOUS
 10
0.581138
 20
-0.269591
  0
VERTEX
  8
PLAN_1
 62
     2
  6
CONTINUOUS
 10
0.583071
 20
-0.267177
  0
VERTEX
  8
PLAN_1
 62
     2
  6
CONTINUOUS
 10
0.584520
 20
-0.265244
  0
VERTEX
  8
PLAN_1
 62
     2
  6
CONTINUOUS
 10
0.586449
 20
-0.263799
  0
VERTEX
  8
PLAN_1
 62
     2
  6
CONTINUOUS
 10
0.588382
 20
-0.262350
  0
VERTEX
  8
PLAN_1
 62
     2
  6
CONTINUOUS
 10
0.590795
 20
-0.260902
  0
VERTEX
  8
PLAN_1
 62
     2
  6
CONTINUOUS
 10
0.593693
 20
-0.259933
  0
VERTEX
  8
PLAN_1
 62
     2
  6
CONTINUOUS
 10
0.596591
 20
-0.258969
  0
VERTEX
  8
PLAN_1
 62
     2
  6
CONTINUOUS
 10
0.599488
 20
-0.258484
  0
VERTEX
  8
PLAN_1
 62
     2
  6
CONTINUOUS
 10
0.602870
 20
-0.258484
  0
VERTEX
  8
PLAN_1
 62
     2
  6
CONTINUOUS
 10
0.605283
 20
-0.258484
  0
VERTEX
  8
PLAN_1
 62
     2
  6
CONTINUOUS
 10
0.608181
 20
-0.258969
  0
VERTEX
  8
PLAN_1
 62
     2
  6
CONTINUOUS
 10
0.610594
 20
-0.259933
  0
VERTEX
  8
PLAN_1
 62
     2
  6
CONTINUOUS
 10
0.613008
 20
-0.260902
  0
VERTEX
  8
PLAN_1
 62
     2
  6
CONTINUOUS
 10
0.614941
 20
-0.261866
  0
VERTEX
  8
PLAN_1
 62
     2
  6
CONTINUOUS
 10
0.616874
 20
-0.263315
  0
VERTEX
  8
PLAN_1
 62
     2
  6
CONTINUOUS
 10
0.618803
 20
-0.265244
  0
VERTEX
  8
PLAN_1
 62
     2
  6
CONTINUOUS
 10
0.620252
 20
-0.267177
  0
VERTEX
  8
PLAN_1
 62
     2
  6
CONTINUOUS
 10
0.621701
 20
-0.269110
  0
VERTEX
  8
PLAN_1
 62
     2
  6
CONTINUOUS
 10
0.622665
 20
-0.271524
  0
VERTEX
  8
PLAN_1
 62
     2
  6
CONTINUOUS
 10
0.623634
 20
-0.274421
  0
VERTEX
  8
PLAN_1
 62
     2
  6
CONTINUOUS
 10
0.624598
 20
-0.277319
  0
VERTEX
  8
PLAN_1
 62
     2
  6
CONTINUOUS
 10
0.625563
 20
-0.283114
  0
VERTEX
  8
PLAN_1
 62
     2
  6
CONTINUOUS
 10
0.626047
 20
-0.290354
  0
VERTEX
  8
PLAN_1
 62
     2
  6
CONTINUOUS
 10
0.586449
 20
-0.290354
  0
VERTEX
  8
PLAN_1
 62
     2
  6
CONTINUOUS
 10
0.586449
 20
-0.294220
  0
VERTEX
  8
PLAN_1
 62
     2
  6
CONTINUOUS
 10
0.587417
 20
-0.297598
  0
VERTEX
  8
PLAN_1
 62
     2
  6
CONTINUOUS
 10
0.588382
 20
-0.300980
  0
VERTEX
  8
PLAN_1
 62
     2
  6
CONTINUOUS
 10
0.590315
 20
-0.303394
  0
VERTEX
  8
PLAN_1
 62
     2
  6
CONTINUOUS
 10
0.592728
 20
-0.305327
  0
VERTEX
  8
PLAN_1
 62
     2
  6
CONTINUOUS
 10
0.595142
 20
-0.306776
  0
VERTEX
  8
PLAN_1
 62
     2
  6
CONTINUOUS
 10
0.598524
 20
-0.307740
  0
VERTEX
  8
PLAN_1
 62
     2
  6
CONTINUOUS
 10
0.601902
 20
-0.308224
  0
VERTEX
  8
PLAN_1
 62
     2
  6
CONTINUOUS
 10
0.605283
 20
-0.307740
  0
VERTEX
  8
PLAN_1
 62
     2
  6
CONTINUOUS
 10
0.607697
 20
-0.306776
  0
VERTEX
  8
PLAN_1
 62
     2
  6
CONTINUOUS
 10
0.610114
 20
-0.305807
  0
VERTEX
  8
PLAN_1
 62
     2
  6
CONTINUOUS
 10
0.612043
 20
-0.304358
  0
VERTEX
  8
PLAN_1
 62
     2
  6
CONTINUOUS
 10
0.613976
 20
-0.302429
  0
VERTEX
  8
PLAN_1
 62
     2
  6
CONTINUOUS
 10
0.614941
 20
-0.300980
  0
VERTEX
  8
PLAN_1
 62
     2
  6
CONTINUOUS
 10
0.615906
 20
-0.299047
  0
VERTEX
  8
PLAN_1
 62
     2
  6
CONTINUOUS
 10
0.616390
 20
-0.297598
  0
VERTEX
  8
PLAN_1
 62
     2
  6
CONTINUOUS
 10
0.625563
 20
-0.297598
  0
SEQEND
  8
0
  0
POLYLINE
  8
PLAN_1
 62
     2
  6
CONTINUOUS
 66
     1
 40
0.003000
 41
0.003000
  0
VERTEX
  8
PLAN_1
 62
     2
  6
CONTINUOUS
 10
0.616390
 20
-0.283114
  0
VERTEX
  8
PLAN_1
 62
     2
  6
CONTINUOUS
 10
0.616390
 20
-0.279732
  0
VERTEX
  8
PLAN_1
 62
     2
  6
CONTINUOUS
 10
0.615425
 20
-0.276835
  0
VERTEX
  8
PLAN_1
 62
     2
  6
CONTINUOUS
 10
0.614457
 20
-0.273937
  0
VERTEX
  8
PLAN_1
 62
     2
  6
CONTINUOUS
 10
0.613008
 20
-0.271524
  0
VERTEX
  8
PLAN_1
 62
     2
  6
CONTINUOUS
 10
0.611079
 20
-0.269591
  0
VERTEX
  8
PLAN_1
 62
     2
  6
CONTINUOUS
 10
0.608181
 20
-0.268142
  0
VERTEX
  8
PLAN_1
 62
     2
  6
CONTINUOUS
 10
0.605283
 20
-0.267177
  0
VERTEX
  8
PLAN_1
 62
     2
  6
CONTINUOUS
 10
0.601421
 20
-0.266693
  0
VERTEX
  8
PLAN_1
 62
     2
  6
CONTINUOUS
 10
0.598524
 20
-0.267177
  0
VERTEX
  8
PLAN_1
 62
     2
  6
CONTINUOUS
 10
0.595626
 20
-0.268142
  0
VERTEX
  8
PLAN_1
 62
     2
  6
CONTINUOUS
 10
0.592728
 20
-0.269591
  0
VERTEX
  8
PLAN_1
 62
     2
  6
CONTINUOUS
 10
0.590795
 20
-0.271524
  0
VERTEX
  8
PLAN_1
 62
     2
  6
CONTINUOUS
 10
0.588866
 20
-0.273937
  0
VERTEX
  8
PLAN_1
 62
     2
  6
CONTINUOUS
 10
0.587417
 20
-0.276835
  0
VERTEX
  8
PLAN_1
 62
     2
  6
CONTINUOUS
 10
0.586449
 20
-0.279732
  0
VERTEX
  8
PLAN_1
 62
     2
  6
CONTINUOUS
 10
0.586449
 20
-0.283114
  0
VERTEX
  8
PLAN_1
 62
     2
  6
CONTINUOUS
 10
0.616390
 20
-0.283114
  0
SEQEND
  8
0
  0
POLYLINE
  8
PLAN_1
 62
     2
  6
CONTINUOUS
 66
     1
 40
0.003000
 41
0.003000
  0
VERTEX
  8
PLAN_1
 62
     2
  6
CONTINUOUS
 10
0.696551
 20
-0.314500
  0
VERTEX
  8
PLAN_1
 62
     2
  6
CONTINUOUS
 10
0.686890
 20
-0.314500
  0
VERTEX
  8
PLAN_1
 62
     2
  6
CONTINUOUS
 10
0.686890
 20
-0.262350
  0
VERTEX
  8
PLAN_1
 62
     2
  6
CONTINUOUS
 10
0.669508
 20
-0.262350
  0
VERTEX
  8
PLAN_1
 62
     2
  6
CONTINUOUS
 10
0.669508
 20
-0.255106
  0
VERTEX
  8
PLAN_1
 62
     2
  6
CONTINUOUS
 10
0.673854
 20
-0.255106
  0
VERTEX
  8
PLAN_1
 62
     2
  6
CONTINUOUS
 10
0.677232
 20
-0.254622
  0
VERTEX
  8
PLAN_1
 62
     2
  6
CONTINUOUS
 10
0.680130
 20
-0.253657
  0
VERTEX
  8
PLAN_1
 62
     2
  6
CONTINUOUS
 10
0.683028
 20
-0.252689
  0
VERTEX
  8
PLAN_1
 62
     2
  6
CONTINUOUS
 10
0.684961
 20
-0.250760
  0
VERTEX
  8
PLAN_1
 62
     2
  6
CONTINUOUS
 10
0.686890
 20
-0.248346
  0
VERTEX
  8
PLAN_1
 62
     2
  6
CONTINUOUS
 10
0.688339
 20
-0.245449
  0
VERTEX
  8
PLAN_1
 62
     2
  6
CONTINUOUS
 10
0.689307
 20
-0.241102
  0
VERTEX
  8
PLAN_1
 62
     2
  6
CONTINUOUS
 10
0.696551
 20
-0.241102
  0
VERTEX
  8
PLAN_1
 62
     2
  6
CONTINUOUS
 10
0.696551
 20
-0.314500
  0
SEQEND
  8
0
  0
POLYLINE
  8
PLAN_1
 62
     2
  6
CONTINUOUS
 66
     1
 40
0.003000
 41
0.003000
  0
VERTEX
  8
PLAN_1
 62
     2
  6
CONTINUOUS
 10
0.740492
 20
-0.272972
  0
VERTEX
  8
PLAN_1
 62
     2
  6
CONTINUOUS
 10
0.740976
 20
-0.272972
  0
VERTEX
  8
PLAN_1
 62
     2
  6
CONTINUOUS
 10
0.741457
 20
-0.272972
  0
VERTEX
  8
PLAN_1
 62
     2
  6
CONTINUOUS
 10
0.741941
 20
-0.272972
  0
VERTEX
  8
PLAN_1
 62
     2
  6
CONTINUOUS
 10
0.742906
 20
-0.272972
  0
VERTEX
  8
PLAN_1
 62
     2
  6
CONTINUOUS
 10
0.743390
 20
-0.272972
  0
VERTEX
  8
PLAN_1
 62
     2
  6
CONTINUOUS
 10
0.743874
 20
-0.272972
  0
VERTEX
  8
PLAN_1
 62
     2
  6
CONTINUOUS
 10
0.744354
 20
-0.272972
  0
VERTEX
  8
PLAN_1
 62
     2
  6
CONTINUOUS
 10
0.745323
 20
-0.272972
  0
VERTEX
  8
PLAN_1
 62
     2
  6
CONTINUOUS
 10
0.747736
 20
-0.272972
  0
VERTEX
  8
PLAN_1
 62
     2
  6
CONTINUOUS
 10
0.750150
 20
-0.272488
  0
VERTEX
  8
PLAN_1
 62
     2
  6
CONTINUOUS
 10
0.752563
 20
-0.271524
  0
VERTEX
  8
PLAN_1
 62
     2
  6
CONTINUOUS
 10
0.754980
 20
-0.270559
  0
VERTEX
  8
PLAN_1
 62
     2
  6
CONTINUOUS
 10
0.756429
 20
-0.269110
  0
VERTEX
  8
PLAN_1
 62
     2
  6
CONTINUOUS
 10
0.757878
 20
-0.266693
  0
VERTEX
  8
PLAN_1
 62
     2
  6
CONTINUOUS
 10
0.758843
 20
-0.264280
  0
VERTEX
  8
PLAN_1
 62
     2
  6
CONTINUOUS
 10
0.759323
 20
-0.260902
  0
VERTEX
  8
PLAN_1
 62
     2
  6
CONTINUOUS
 10
0.758843
 20
-0.259453
  0
VERTEX
  8
PLAN_1
 62
     2
  6
CONTINUOUS
 10
0.758358
 20
-0.257520
  0
VERTEX
  8
PLAN_1
 62
     2
  6
CONTINUOUS
 10
0.757878
 20
-0.255587
  0
VERTEX
  8
PLAN_1
 62
     2
  6
CONTINUOUS
 10
0.756429
 20
-0.253657
  0
VERTEX
  8
PLAN_1
 62
     2
  6
CONTINUOUS
 10
0.754496
 20
-0.252209
  0
VERTEX
  8
PLAN_1
 62
     2
  6
CONTINUOUS
 10
0.752083
 20
-0.250760
  0
VERTEX
  8
PLAN_1
 62
     2
  6
CONTINUOUS
 10
0.749185
 20
-0.249795
  0
VERTEX
  8
PLAN_1
 62
     2
  6
CONTINUOUS
 10
0.745803
 20
-0.249311
  0
VERTEX
  8
PLAN_1
 62
     2
  6
CONTINUOUS
 10
0.743390
 20
-0.249795
  0
VERTEX
  8
PLAN_1
 62
     2
  6
CONTINUOUS
 10
0.741457
 20
-0.249795
  0
VERTEX
  8
PLAN_1
 62
     2
  6
CONTINUOUS
 10
0.739528
 20
-0.250760
  0
VERTEX
  8
PLAN_1
 62
     2
  6
CONTINUOUS
 10
0.738079
 20
-0.251244
  0
VERTEX
  8
PLAN_1
 62
     2
  6
CONTINUOUS
 10
0.735661
 20
-0.253173
  0
VERTEX
  8
PLAN_1
 62
     2
  6
CONTINUOUS
 10
0.733732
 20
-0.255587
  0
VERTEX
  8
PLAN_1
 62
     2
  6
CONTINUOUS
 10
0.732768
 20
-0.258004
  0
VERTEX
  8
PLAN_1
 62
     2
  6
CONTINUOUS
 10
0.731799
 20
-0.260417
  0
VERTEX
  8
PLAN_1
 62
     2
  6
CONTINUOUS
 10
0.731319
 20
-0.263315
  0
VERTEX
  8
PLAN_1
 62
     2
  6
CONTINUOUS
 10
0.731319
 20
-0.265244
  0
VERTEX
  8
PLAN_1
 62
     2
  6
CONTINUOUS
 10
0.722626
 20
-0.265244
  0
VERTEX
  8
PLAN_1
 62
     2
  6
CONTINUOUS
 10
0.722626
 20
-0.261382
  0
VERTEX
  8
PLAN_1
 62
     2
  6
CONTINUOUS
 10
0.723591
 20
-0.257035
  0
VERTEX
  8
PLAN_1
 62
     2
  6
CONTINUOUS
 10
0.724555
 20
-0.253173
  0
VERTEX
  8
PLAN_1
 62
     2
  6
CONTINUOUS
 10
0.726972
 20
-0.249311
  0
VERTEX
  8
PLAN_1
 62
     2
  6
CONTINUOUS
 10
0.728421
 20
-0.247378
  0
VERTEX
  8
PLAN_1
 62
     2
  6
CONTINUOUS
 10
0.729870
 20
-0.245929
  0
VERTEX
  8
PLAN_1
 62
     2
  6
CONTINUOUS
 10
0.731799
 20
-0.244965
  0
VERTEX
  8
PLAN_1
 62
     2
  6
CONTINUOUS
 10
0.734213
 20
-0.243516
  0
VERTEX
  8
PLAN_1
 62
     2
  6
CONTINUOUS
 10
0.736630
 20
-0.242551
  0
VERTEX
  8
PLAN_1
 62
     2
  6
CONTINUOUS
 10
0.739528
 20
-0.242067
  0
VERTEX
  8
PLAN_1
 62
     2
  6
CONTINUOUS
 10
0.742425
 20
-0.241583
  0
VERTEX
  8
PLAN_1
 62
     2
  6
CONTINUOUS
 10
0.745803
 20
-0.241102
  0
VERTEX
  8
PLAN_1
 62
     2
  6
CONTINUOUS
 10
0.751114
 20
-0.241583
  0
VERTEX
  8
PLAN_1
 62
     2
  6
CONTINUOUS
 10
0.755461
 20
-0.242551
  0
VERTEX
  8
PLAN_1
 62
     2
  6
CONTINUOUS
 10
0.759323
 20
-0.244480
  0
VERTEX
  8
PLAN_1
 62
     2
  6
CONTINUOUS
 10
0.762705
 20
-0.246898
  0
VERTEX
  8
PLAN_1
 62
     2
  6
CONTINUOUS
 10
0.765118
 20
-0.249795
  0
VERTEX
  8
PLAN_1
 62
     2
  6
CONTINUOUS
 10
0.767051
 20
-0.252689
  0
VERTEX
  8
PLAN_1
 62
     2
  6
CONTINUOUS
 10
0.768016
 20
-0.256555
  0
VERTEX
  8
PLAN_1
 62
     2
  6
CONTINUOUS
 10
0.768500
 20
-0.260417
  0
VERTEX
  8
PLAN_1
 62
     2
  6
CONTINUOUS
 10
0.768500
 20
-0.263799
  0
VERTEX
  8
PLAN_1
 62
     2
  6
CONTINUOUS
 10
0.767535
 20
-0.266693
  0
VERTEX
  8
PLAN_1
 62
     2
  6
CONTINUOUS
 10
0.766567
 20
-0.269110
  0
VERTEX
  8
PLAN_1
 62
     2
  6
CONTINUOUS
 10
0.765602
 20
-0.271039
  0
VERTEX
  8
PLAN_1
 62
     2
  6
CONTINUOUS
 10
0.764154
 20
-0.272972
  0
VERTEX
  8
PLAN_1
 62
     2
  6
CONTINUOUS
 10
0.762220
 20
-0.273937
  0
VERTEX
  8
PLAN_1
 62
     2
  6
CONTINUOUS
 10
0.760772
 20
-0.274906
  0
VERTEX
  8
PLAN_1
 62
     2
  6
CONTINUOUS
 10
0.759323
 20
-0.275870
  0
VERTEX
  8
PLAN_1
 62
     2
  6
CONTINUOUS
 10
0.761740
 20
-0.276835
  0
VERTEX
  8
PLAN_1
 62
     2
  6
CONTINUOUS
 10
0.764154
 20
-0.278283
  0
VERTEX
  8
PLAN_1
 62
     2
  6
CONTINUOUS
 10
0.766087
 20
-0.279732
  0
VERTEX
  8
PLAN_1
 62
     2
  6
CONTINUOUS
 10
0.768016
 20
-0.281665
  0
VERTEX
  8
PLAN_1
 62
     2
  6
CONTINUOUS
 10
0.769465
 20
-0.284079
  0
VERTEX
  8
PLAN_1
 62
     2
  6
CONTINUOUS
 10
0.770433
 20
-0.286492
  0
VERTEX
  8
PLAN_1
 62
     2
  6
CONTINUOUS
 10
0.771398
 20
-0.289390
  0
VERTEX
  8
PLAN_1
 62
     2
  6
CONTINUOUS
 10
0.771398
 20
-0.292772
  0
VERTEX
  8
PLAN_1
 62
     2
  6
CONTINUOUS
 10
0.770913
 20
-0.297598
  0
VERTEX
  8
PLAN_1
 62
     2
  6
CONTINUOUS
 10
0.769949
 20
-0.301465
  0
VERTEX
  8
PLAN_1
 62
     2
  6
CONTINUOUS
 10
0.768016
 20
-0.305807
  0
VERTEX
  8
PLAN_1
 62
     2
  6
CONTINUOUS
 10
0.765118
 20
-0.309189
  0
VERTEX
  8
PLAN_1
 62
     2
  6
CONTINUOUS
 10
0.763669
 20
-0.310638
  0
VERTEX
  8
PLAN_1
 62
     2
  6
CONTINUOUS
 10
0.761740
 20
-0.312087
  0
VERTEX
  8
PLAN_1
 62
     2
  6
CONTINUOUS
 10
0.759323
 20
-0.313535
  0
VERTEX
  8
PLAN_1
 62
     2
  6
CONTINUOUS
 10
0.756909
 20
-0.314500
  0
VERTEX
  8
PLAN_1
 62
     2
  6
CONTINUOUS
 10
0.754496
 20
-0.315465
  0
VERTEX
  8
PLAN_1
 62
     2
  6
CONTINUOUS
 10
0.751598
 20
-0.315949
  0
VERTEX
  8
PLAN_1
 62
     2
  6
CONTINUOUS
 10
0.748217
 20
-0.316433
  0
VERTEX
  8
PLAN_1
 62
     2
  6
CONTINUOUS
 10
0.744839
 20
-0.316433
  0
VERTEX
  8
PLAN_1
 62
     2
  6
CONTINUOUS
 10
0.742906
 20
-0.316433
  0
VERTEX
  8
PLAN_1
 62
     2
  6
CONTINUOUS
 10
0.740976
 20
-0.316433
  0
VERTEX
  8
PLAN_1
 62
     2
  6
CONTINUOUS
 10
0.739528
 20
-0.315949
  0
VERTEX
  8
PLAN_1
 62
     2
  6
CONTINUOUS
 10
0.737594
 20
-0.315465
  0
VERTEX
  8
PLAN_1
 62
     2
  6
CONTINUOUS
 10
0.736146
 20
-0.314984
  0
VERTEX
  8
PLAN_1
 62
     2
  6
CONTINUOUS
 10
0.734213
 20
-0.314500
  0
VERTEX
  8
PLAN_1
 62
     2
  6
CONTINUOUS
 10
0.732768
 20
-0.314020
  0
VERTEX
  8
PLAN_1
 62
     2
  6
CONTINUOUS
 10
0.731319
 20
-0.313051
  0
VERTEX
  8
PLAN_1
 62
     2
  6
CONTINUOUS
 10
0.728902
 20
-0.311602
  0
VERTEX
  8
PLAN_1
 62
     2
  6
CONTINUOUS
 10
0.726488
 20
-0.309189
  0
VERTEX
  8
PLAN_1
 62
     2
  6
CONTINUOUS
 10
0.724555
 20
-0.306776
  0
VERTEX
  8
PLAN_1
 62
     2
  6
CONTINUOUS
 10
0.723106
 20
-0.304358
  0
VERTEX
  8
PLAN_1
 62
     2
  6
CONTINUOUS
 10
0.722142
 20
-0.301465
  0
VERTEX
  8
PLAN_1
 62
     2
  6
CONTINUOUS
 10
0.721657
 20
-0.298567
  0
VERTEX
  8
PLAN_1
 62
     2
  6
CONTINUOUS
 10
0.721177
 20
-0.295185
  0
VERTEX
  8
PLAN_1
 62
     2
  6
CONTINUOUS
 10
0.720693
 20
-0.292287
  0
VERTEX
  8
PLAN_1
 62
     2
  6
CONTINUOUS
 10
0.729870
 20
-0.292287
  0
VERTEX
  8
PLAN_1
 62
     2
  6
CONTINUOUS
 10
0.730350
 20
-0.294701
  0
VERTEX
  8
PLAN_1
 62
     2
  6
CONTINUOUS
 10
0.730835
 20
-0.297598
  0
VERTEX
  8
PLAN_1
 62
     2
  6
CONTINUOUS
 10
0.731799
 20
-0.300016
  0
VERTEX
  8
PLAN_1
 62
     2
  6
CONTINUOUS
 10
0.732768
 20
-0.302909
  0
VERTEX
  8
PLAN_1
 62
     2
  6
CONTINUOUS
 10
0.734697
 20
-0.304843
  0
VERTEX
  8
PLAN_1
 62
     2
  6
CONTINUOUS
 10
0.737594
 20
-0.306776
  0
VERTEX
  8
PLAN_1
 62
     2
  6
CONTINUOUS
 10
0.740976
 20
-0.307740
  0
VERTEX
  8
PLAN_1
 62
     2
  6
CONTINUOUS
 10
0.745803
 20
-0.308224
  0
VERTEX
  8
PLAN_1
 62
     2
  6
CONTINUOUS
 10
0.749185
 20
-0.307740
  0
VERTEX
  8
PLAN_1
 62
     2
  6
CONTINUOUS
 10
0.752083
 20
-0.307256
  0
VERTEX
  8
PLAN_1
 62
     2
  6
CONTINUOUS
 10
0.754980
 20
-0.305807
  0
VERTEX
  8
PLAN_1
 62
     2
  6
CONTINUOUS
 10
0.757394
 20
-0.304358
  0
VERTEX
  8
PLAN_1
 62
     2
  6
CONTINUOUS
 10
0.758843
 20
-0.302429
  0
VERTEX
  8
PLAN_1
 62
     2
  6
CONTINUOUS
 10
0.760291
 20
-0.300016
  0
VERTEX
  8
PLAN_1
 62
     2
  6
CONTINUOUS
 10
0.761256
 20
-0.297118
  0
VERTEX
  8
PLAN_1
 62
     2
  6
CONTINUOUS
 10
0.761740
 20
-0.294220
  0
VERTEX
  8
PLAN_1
 62
     2
  6
CONTINUOUS
 10
0.761256
 20
-0.291803
  0
VERTEX
  8
PLAN_1
 62
     2
  6
CONTINUOUS
 10
0.761256
 20
-0.289874
  0
VERTEX
  8
PLAN_1
 62
     2
  6
CONTINUOUS
 10
0.760772
 20
-0.288425
  0
VERTEX
  8
PLAN_1
 62
     2
  6
CONTINUOUS
 10
0.759807
 20
-0.286976
  0
VERTEX
  8
PLAN_1
 62
     2
  6
CONTINUOUS
 10
0.757878
 20
-0.284563
  0
VERTEX
  8
PLAN_1
 62
     2
  6
CONTINUOUS
 10
0.755461
 20
-0.282630
  0
VERTEX
  8
PLAN_1
 62
     2
  6
CONTINUOUS
 10
0.752563
 20
-0.281665
  0
VERTEX
  8
PLAN_1
 62
     2
  6
CONTINUOUS
 10
0.749665
 20
-0.281181
  0
VERTEX
  8
PLAN_1
 62
     2
  6
CONTINUOUS
 10
0.747252
 20
-0.280697
  0
VERTEX
  8
PLAN_1
 62
     2
  6
CONTINUOUS
 10
0.744354
 20
-0.280697
  0
VERTEX
  8
PLAN_1
 62
     2
  6
CONTINUOUS
 10
0.743874
 20
-0.280697
  0
VERTEX
  8
PLAN_1
 62
     2
  6
CONTINUOUS
 10
0.743390
 20
-0.280697
  0
VERTEX
  8
PLAN_1
 62
     2
  6
CONTINUOUS
 10
0.742906
 20
-0.280697
  0
VERTEX
  8
PLAN_1
 62
     2
  6
CONTINUOUS
 10
0.742425
 20
-0.280697
  0
VERTEX
  8
PLAN_1
 62
     2
  6
CONTINUOUS
 10
0.741941
 20
-0.280697
  0
VERTEX
  8
PLAN_1
 62
     2
  6
CONTINUOUS
 10
0.741457
 20
-0.280697
  0
VERTEX
  8
PLAN_1
 62
     2
  6
CONTINUOUS
 10
0.740976
 20
-0.280697
  0
VERTEX
  8
PLAN_1
 62
     2
  6
CONTINUOUS
 10
0.740492
 20
-0.280697
  0
VERTEX
  8
PLAN_1
 62
     2
  6
CONTINUOUS
 10
0.740492
 20
-0.272972
  0
SEQEND
  8
0
  0
POLYLINE
  8
PLAN_1
 62
     2
  6
CONTINUOUS
 66
     1
 40
0.004343
 41
0.004343
  0
VERTEX
  8
PLAN_1
 62
     2
  6
CONTINUOUS
 10
-0.843866
 20
-0.020421
  0
VERTEX
  8
PLAN_1
 62
     2
  6
CONTINUOUS
 10
-0.086213
 20
-0.213094
  0
VERTEX
  8
PLAN_1
 62
     2
  6
CONTINUOUS
 10
0.871839
 20
-0.213094
  0
SEQEND
  8
0
  0
SOLID
  8
PLAN_1
 62
     2
 10
-0.874287
 20
-0.006417
 11
-0.820685
 21
-0.035390
 12
-0.874287
 22
-0.006417
 13
-0.813441
 23
-0.004969
  0
POLYLINE
  8
PLAN_1
 62
     2
  6
CONTINUOUS
 66
     1
 40
0.003000
 41
0.003000
  0
VERTEX
  8
PLAN_1
 62
     2
  6
CONTINUOUS
 10
-0.874287
 20
-0.006417
  0
VERTEX
  8
PLAN_1
 62
     2
  6
CONTINUOUS
 10
-0.820685
 20
-0.035390
  0
VERTEX
  8
PLAN_1
 62
     2
  6
CONTINUOUS
 10
-0.813441
 20
-0.004969
  0
VERTEX
  8
PLAN_1
 62
     2
  6
CONTINUOUS
 10
-0.874287
 20
-0.006417
  0
SEQEND
  8
0
  0
POLYLINE
  8
PLAN_1
 62
     2
  6
CONTINUOUS
 66
     1
 40
0.004343
 41
0.004343
  0
VERTEX
  8
PLAN_1
 62
     2
  6
CONTINUOUS
 10
-0.008469
 20
0.024488
  0
VERTEX
  8
PLAN_1
 62
     2
  6
CONTINUOUS
 10
-0.008469
 20
3.830614
  0
SEQEND
  8
0
  0
SOLID
  8
PLAN_1
 62
     2
 10
-0.008469
 20
3.860067
 11
-0.024402
 21
3.800673
 12
-0.008469
 22
3.860067
 13
0.007469
 23
3.800673
  0
POLYLINE
  8
PLAN_1
 62
     2
  6
CONTINUOUS
 66
     1
 40
0.003000
 41
0.003000
  0
VERTEX
  8
PLAN_1
 62
     2
  6
CONTINUOUS
 10
-0.008469
 20
3.860067
  0
VERTEX
  8
PLAN_1
 62
     2
  6
CONTINUOUS
 10
-0.024402
 20
3.800673
  0
VERTEX
  8
PLAN_1
 62
     2
  6
CONTINUOUS
 10
0.007469
 20
3.800673
  0
VERTEX
  8
PLAN_1
 62
     2
  6
CONTINUOUS
 10
-0.008469
 20
3.860067
  0
SEQEND
  8
0
  0
SOLID
  8
PLAN_1
 62
     2
 10
-0.008469
 20
-0.004969
 11
-0.024402
 21
0.053945
 12
-0.008469
 22
-0.004969
 13
0.007469
 23
0.053945
  0
POLYLINE
  8
PLAN_1
 62
     2
  6
CONTINUOUS
 66
     1
 40
0.003000
 41
0.003000
  0
VERTEX
  8
PLAN_1
 62
     2
  6
CONTINUOUS
 10
-0.008469
 20
-0.004969
  0
VERTEX
  8
PLAN_1
 62
     2
  6
CONTINUOUS
 10
-0.024402
 20
0.053945
  0
VERTEX
  8
PLAN_1
 62
     2
  6
CONTINUOUS
 10
0.007469
 20
0.053945
  0
VERTEX
  8
PLAN_1
 62
     2
  6
CONTINUOUS
 10
-0.008469
 20
-0.004969
  0
SEQEND
  8
0
  0
POLYLINE
  8
PLAN_1
 62
     2
  6
CONTINUOUS
 66
     1
 40
0.003000
 41
0.003000
  0
VERTEX
  8
PLAN_1
 62
     2
  6
CONTINUOUS
 10
-0.079937
 20
1.830488
  0
VERTEX
  8
PLAN_1
 62
     2
  6
CONTINUOUS
 10
-0.085248
 20
1.830972
  0
VERTEX
  8
PLAN_1
 62
     2
  6
CONTINUOUS
 10
-0.089594
 20
1.831937
  0
VERTEX
  8
PLAN_1
 62
     2
  6
CONTINUOUS
 10
-0.093937
 20
1.833870
  0
VERTEX
  8
PLAN_1
 62
     2
  6
CONTINUOUS
 10
-0.097803
 20
1.836283
  0
VERTEX
  8
PLAN_1
 62
     2
  6
CONTINUOUS
 10
-0.099252
 20
1.838217
  0
VERTEX
  8
PLAN_1
 62
     2
  6
CONTINUOUS
 10
-0.100701
 20
1.839665
  0
VERTEX
  8
PLAN_1
 62
     2
  6
CONTINUOUS
 10
-0.102150
 20
1.841594
  0
VERTEX
  8
PLAN_1
 62
     2
  6
CONTINUOUS
 10
-0.103114
 20
1.844012
  0
VERTEX
  8
PLAN_1
 62
     2
  6
CONTINUOUS
 10
-0.104079
 20
1.845941
  0
VERTEX
  8
PLAN_1
 62
     2
  6
CONTINUOUS
 10
-0.104563
 20
1.848839
  0
VERTEX
  8
PLAN_1
 62
     2
  6
CONTINUOUS
 10
-0.105047
 20
1.851252
  0
VERTEX
  8
PLAN_1
 62
     2
  6
CONTINUOUS
 10
-0.105047
 20
1.854150
  0
VERTEX
  8
PLAN_1
 62
     2
  6
CONTINUOUS
 10
-0.105047
 20
1.858012
  0
VERTEX
  8
PLAN_1
 62
     2
  6
CONTINUOUS
 10
-0.104079
 20
1.861878
  0
VERTEX
  8
PLAN_1
 62
     2
  6
CONTINUOUS
 10
-0.103114
 20
1.865256
  0
VERTEX
  8
PLAN_1
 62
     2
  6
CONTINUOUS
 10
-0.101665
 20
1.867673
  0
VERTEX
  8
PLAN_1
 62
     2
  6
CONTINUOUS
 10
-0.099732
 20
1.870087
  0
VERTEX
  8
PLAN_1
 62
     2
  6
CONTINUOUS
 10
-0.097803
 20
1.872500
  0
VERTEX
  8
PLAN_1
 62
     2
  6
CONTINUOUS
 10
-0.095386
 20
1.873949
  0
VERTEX
  8
PLAN_1
 62
     2
  6
CONTINUOUS
 10
-0.092492
 20
1.875398
  0
VERTEX
  8
PLAN_1
 62
     2
  6
CONTINUOUS
 10
-0.087177
 20
1.877811
  0
VERTEX
  8
PLAN_1
 62
     2
  6
CONTINUOUS
 10
-0.081382
 20
1.878780
  0
VERTEX
  8
PLAN_1
 62
     2
  6
CONTINUOUS
 10
-0.076071
 20
1.879260
  0
VERTEX
  8
PLAN_1
 62
     2
  6
CONTINUOUS
 10
-0.071244
 20
1.879744
  0
VERTEX
  8
PLAN_1
 62
     2
  6
CONTINUOUS
 10
-0.067382
 20
1.879744
  0
VERTEX
  8
PLAN_1
 62
     2
  6
CONTINUOUS
 10
-0.061587
 20
1.878780
  0
VERTEX
  8
PLAN_1
 62
     2
  6
CONTINUOUS
 10
-0.054827
 20
1.877811
  0
VERTEX
  8
PLAN_1
 62
     2
  6
CONTINUOUS
 10
-0.047583
 20
1.875882
  0
VERTEX
  8
PLAN_1
 62
     2
  6
CONTINUOUS
 10
-0.044201
 20
1.874433
  0
VERTEX
  8
PLAN_1
 62
     2
  6
CONTINUOUS
 10
-0.041303
 20
1.872500
  0
VERTEX
  8
PLAN_1
 62
     2
  6
CONTINUOUS
 10
-0.037925
 20
1.870567
  0
VERTEX
  8
PLAN_1
 62
     2
  6
CONTINUOUS
 10
-0.035508
 20
1.867673
  0
VERTEX
  8
PLAN_1
 62
     2
  6
CONTINUOUS
 10
-0.033094
 20
1.864776
  0
VERTEX
  8
PLAN_1
 62
     2
  6
CONTINUOUS
 10
-0.031646
 20
1.861394
  0
VERTEX
  8
PLAN_1
 62
     2
  6
CONTINUOUS
 10
-0.030681
 20
1.857531
  0
VERTEX
  8
PLAN_1
 62
     2
  6
CONTINUOUS
 10
-0.030197
 20
1.853185
  0
VERTEX
  8
PLAN_1
 62
     2
  6
CONTINUOUS
 10
-0.030197
 20
1.849803
  0
VERTEX
  8
PLAN_1
 62
     2
  6
CONTINUOUS
 10
-0.030681
 20
1.847390
  0
VERTEX
  8
PLAN_1
 62
     2
  6
CONTINUOUS
 10
-0.031165
 20
1.844492
  0
VERTEX
  8
PLAN_1
 62
     2
  6
CONTINUOUS
 10
-0.032130
 20
1.842563
  0
VERTEX
  8
PLAN_1
 62
     2
  6
CONTINUOUS
 10
-0.033094
 20
1.840630
  0
VERTEX
  8
PLAN_1
 62
     2
  6
CONTINUOUS
 10
-0.034543
 20
1.838697
  0
VERTEX
  8
PLAN_1
 62
     2
  6
CONTINUOUS
 10
-0.035992
 20
1.837248
  0
VERTEX
  8
PLAN_1
 62
     2
  6
CONTINUOUS
 10
-0.037441
 20
1.835799
  0
VERTEX
  8
PLAN_1
 62
     2
  6
CONTINUOUS
 10
-0.040339
 20
1.833870
  0
VERTEX
  8
PLAN_1
 62
     2
  6
CONTINUOUS
 10
-0.043717
 20
1.832421
  0
VERTEX
  8
PLAN_1
 62
     2
  6
CONTINUOUS
 10
-0.046614
 20
1.831457
  0
VERTEX
  8
PLAN_1
 62
     2
  6
CONTINUOUS
 10
-0.049512
 20
1.831457
  0
VERTEX
  8
PLAN_1
 62
     2
  6
CONTINUOUS
 10
-0.049512
 20
1.840630
  0
VERTEX
  8
PLAN_1
 62
     2
  6
CONTINUOUS
 10
-0.047098
 20
1.841114
  0
VERTEX
  8
PLAN_1
 62
     2
  6
CONTINUOUS
 10
-0.044685
 20
1.841594
  0
VERTEX
  8
PLAN_1
 62
     2
  6
CONTINUOUS
 10
-0.042752
 20
1.842563
  0
VERTEX
  8
PLAN_1
 62
     2
  6
CONTINUOUS
 10
-0.040823
 20
1.844012
  0
VERTEX
  8
PLAN_1
 62
     2
  6
CONTINUOUS
 10
-0.039374
 20
1.845941
  0
VERTEX
  8
PLAN_1
 62
     2
  6
CONTINUOUS
 10
-0.038406
 20
1.847874
  0
VERTEX
  8
PLAN_1
 62
     2
  6
CONTINUOUS
 10
-0.037925
 20
1.850287
  0
VERTEX
  8
PLAN_1
 62
     2
  6
CONTINUOUS
 10
-0.037925
 20
1.852701
  0
VERTEX
  8
PLAN_1
 62
     2
  6
CONTINUOUS
 10
-0.037925
 20
1.856567
  0
VERTEX
  8
PLAN_1
 62
     2
  6
CONTINUOUS
 10
-0.039374
 20
1.859461
  0
VERTEX
  8
PLAN_1
 62
     2
  6
CONTINUOUS
 10
-0.041303
 20
1.862358
  0
VERTEX
  8
PLAN_1
 62
     2
  6
CONTINUOUS
 10
-0.044201
 20
1.864776
  0
VERTEX
  8
PLAN_1
 62
     2
  6
CONTINUOUS
 10
-0.048063
 20
1.866705
  0
VERTEX
  8
PLAN_1
 62
     2
  6
CONTINUOUS
 10
-0.052894
 20
1.868154
  0
VERTEX
  8
PLAN_1
 62
     2
  6
CONTINUOUS
 10
-0.058689
 20
1.869602
  0
VERTEX
  8
PLAN_1
 62
     2
  6
CONTINUOUS
 10
-0.064965
 20
1.870567
  0
VERTEX
  8
PLAN_1
 62
     2
  6
CONTINUOUS
 10
-0.065449
 20
1.870087
  0
VERTEX
  8
PLAN_1
 62
     2
  6
CONTINUOUS
 10
-0.063516
 20
1.869122
  0
VERTEX
  8
PLAN_1
 62
     2
  6
CONTINUOUS
 10
-0.061587
 20
1.867673
  0
VERTEX
  8
PLAN_1
 62
     2
  6
CONTINUOUS
 10
-0.060138
 20
1.865740
  0
VERTEX
  8
PLAN_1
 62
     2
  6
CONTINUOUS
 10
-0.058689
 20
1.863327
  0
VERTEX
  8
PLAN_1
 62
     2
  6
CONTINUOUS
 10
-0.057720
 20
1.860909
  0
VERTEX
  8
PLAN_1
 62
     2
  6
CONTINUOUS
 10
-0.057240
 20
1.858496
  0
VERTEX
  8
PLAN_1
 62
     2
  6
CONTINUOUS
 10
-0.056756
 20
1.856083
  0
VERTEX
  8
PLAN_1
 62
     2
  6
CONTINUOUS
 10
-0.056756
 20
1.853669
  0
VERTEX
  8
PLAN_1
 62
     2
  6
CONTINUOUS
 10
-0.056756
 20
1.848839
  0
VERTEX
  8
PLAN_1
 62
     2
  6
CONTINUOUS
 10
-0.058205
 20
1.844012
  0
VERTEX
  8
PLAN_1
 62
     2
  6
CONTINUOUS
 10
-0.060138
 20
1.840146
  0
VERTEX
  8
PLAN_1
 62
     2
  6
CONTINUOUS
 10
-0.063035
 20
1.836768
  0
VERTEX
  8
PLAN_1
 62
     2
  6
CONTINUOUS
 10
-0.066413
 20
1.834350
  0
VERTEX
  8
PLAN_1
 62
     2
  6
CONTINUOUS
 10
-0.070276
 20
1.832421
  0
VERTEX
  8
PLAN_1
 62
     2
  6
CONTINUOUS
 10
-0.075106
 20
1.830972
  0
VERTEX
  8
PLAN_1
 62
     2
  6
CONTINUOUS
 10
-0.079937
 20
1.830488
  0
SEQEND
  8
0
  0
POLYLINE
  8
PLAN_1
 62
     2
  6
CONTINUOUS
 66
     1
 40
0.003000
 41
0.003000
  0
VERTEX
  8
PLAN_1
 62
     2
  6
CONTINUOUS
 10
-0.081382
 20
1.869122
  0
VERTEX
  8
PLAN_1
 62
     2
  6
CONTINUOUS
 10
-0.084280
 20
1.868638
  0
VERTEX
  8
PLAN_1
 62
     2
  6
CONTINUOUS
 10
-0.087177
 20
1.868154
  0
VERTEX
  8
PLAN_1
 62
     2
  6
CONTINUOUS
 10
-0.090075
 20
1.867189
  0
VERTEX
  8
PLAN_1
 62
     2
  6
CONTINUOUS
 10
-0.092492
 20
1.865256
  0
VERTEX
  8
PLAN_1
 62
     2
  6
CONTINUOUS
 10
-0.094421
 20
1.863327
  0
VERTEX
  8
PLAN_1
 62
     2
  6
CONTINUOUS
 10
-0.095870
 20
1.860909
  0
VERTEX
  8
PLAN_1
 62
     2
  6
CONTINUOUS
 10
-0.096835
 20
1.858012
  0
VERTEX
  8
PLAN_1
 62
     2
  6
CONTINUOUS
 10
-0.096835
 20
1.854150
  0
VERTEX
  8
PLAN_1
 62
     2
  6
CONTINUOUS
 10
-0.096835
 20
1.851252
  0
VERTEX
  8
PLAN_1
 62
     2
  6
CONTINUOUS
 10
-0.095870
 20
1.848354
  0
VERTEX
  8
PLAN_1
 62
     2
  6
CONTINUOUS
 10
-0.094421
 20
1.845941
  0
VERTEX
  8
PLAN_1
 62
     2
  6
CONTINUOUS
 10
-0.092492
 20
1.844012
  0
VERTEX
  8
PLAN_1
 62
     2
  6
CONTINUOUS
 10
-0.090075
 20
1.842079
  0
VERTEX
  8
PLAN_1
 62
     2
  6
CONTINUOUS
 10
-0.087177
 20
1.841114
  0
VERTEX
  8
PLAN_1
 62
     2
  6
CONTINUOUS
 10
-0.084280
 20
1.840146
  0
VERTEX
  8
PLAN_1
 62
     2
  6
CONTINUOUS
 10
-0.080417
 20
1.840146
  0
VERTEX
  8
PLAN_1
 62
     2
  6
CONTINUOUS
 10
-0.076071
 20
1.840146
  0
VERTEX
  8
PLAN_1
 62
     2
  6
CONTINUOUS
 10
-0.072209
 20
1.841594
  0
VERTEX
  8
PLAN_1
 62
     2
  6
CONTINUOUS
 10
-0.069311
 20
1.843043
  0
VERTEX
  8
PLAN_1
 62
     2
  6
CONTINUOUS
 10
-0.067382
 20
1.844976
  0
VERTEX
  8
PLAN_1
 62
     2
  6
CONTINUOUS
 10
-0.065933
 20
1.847390
  0
VERTEX
  8
PLAN_1
 62
     2
  6
CONTINUOUS
 10
-0.065449
 20
1.849803
  0
VERTEX
  8
PLAN_1
 62
     2
  6
CONTINUOUS
 10
-0.064965
 20
1.852220
  0
VERTEX
  8
PLAN_1
 62
     2
  6
CONTINUOUS
 10
-0.064965
 20
1.854634
  0
VERTEX
  8
PLAN_1
 62
     2
  6
CONTINUOUS
 10
-0.064965
 20
1.857047
  0
VERTEX
  8
PLAN_1
 62
     2
  6
CONTINUOUS
 10
-0.065449
 20
1.858980
  0
VERTEX
  8
PLAN_1
 62
     2
  6
CONTINUOUS
 10
-0.066413
 20
1.861394
  0
VERTEX
  8
PLAN_1
 62
     2
  6
CONTINUOUS
 10
-0.067862
 20
1.863807
  0
VERTEX
  8
PLAN_1
 62
     2
  6
CONTINUOUS
 10
-0.069795
 20
1.865740
  0
VERTEX
  8
PLAN_1
 62
     2
  6
CONTINUOUS
 10
-0.072693
 20
1.867189
  0
VERTEX
  8
PLAN_1
 62
     2
  6
CONTINUOUS
 10
-0.076555
 20
1.868638
  0
VERTEX
  8
PLAN_1
 62
     2
  6
CONTINUOUS
 10
-0.081382
 20
1.869122
  0
SEQEND
  8
0
  0
POLYLINE
  8
PLAN_1
 62
     2
  6
CONTINUOUS
 66
     1
 40
0.003000
 41
0.003000
  0
VERTEX
  8
PLAN_1
 62
     2
  6
CONTINUOUS
 10
-0.070760
 20
1.926102
  0
VERTEX
  8
PLAN_1
 62
     2
  6
CONTINUOUS
 10
-0.069311
 20
1.929000
  0
VERTEX
  8
PLAN_1
 62
     2
  6
CONTINUOUS
 10
-0.067382
 20
1.931894
  0
VERTEX
  8
PLAN_1
 62
     2
  6
CONTINUOUS
 10
-0.064965
 20
1.933827
  0
VERTEX
  8
PLAN_1
 62
     2
  6
CONTINUOUS
 10
-0.062551
 20
1.935760
  0
VERTEX
  8
PLAN_1
 62
     2
  6
CONTINUOUS
 10
-0.060138
 20
1.936724
  0
VERTEX
  8
PLAN_1
 62
     2
  6
CONTINUOUS
 10
-0.057720
 20
1.937209
  0
VERTEX
  8
PLAN_1
 62
     2
  6
CONTINUOUS
 10
-0.055307
 20
1.937689
  0
VERTEX
  8
PLAN_1
 62
     2
  6
CONTINUOUS
 10
-0.053378
 20
1.937689
  0
VERTEX
  8
PLAN_1
 62
     2
  6
CONTINUOUS
 10
-0.049031
 20
1.937689
  0
VERTEX
  8
PLAN_1
 62
     2
  6
CONTINUOUS
 10
-0.044685
 20
1.936240
  0
VERTEX
  8
PLAN_1
 62
     2
  6
CONTINUOUS
 10
-0.040823
 20
1.934311
  0
VERTEX
  8
PLAN_1
 62
     2
  6
CONTINUOUS
 10
-0.037441
 20
1.931894
  0
VERTEX
  8
PLAN_1
 62
     2
  6
CONTINUOUS
 10
-0.035508
 20
1.930449
  0
VERTEX
  8
PLAN_1
 62
     2
  6
CONTINUOUS
 10
-0.034543
 20
1.928516
  0
VERTEX
  8
PLAN_1
 62
     2
  6
CONTINUOUS
 10
-0.033094
 20
1.926583
  0
VERTEX
  8
PLAN_1
 62
     2
  6
CONTINUOUS
 10
-0.032130
 20
1.924169
  0
VERTEX
  8
PLAN_1
 62
     2
  6
CONTINUOUS
 10
-0.031165
 20
1.921756
  0
VERTEX
  8
PLAN_1
 62
     2
  6
CONTINUOUS
 10
-0.030681
 20
1.918858
  0
VERTEX
  8
PLAN_1
 62
     2
  6
CONTINUOUS
 10
-0.030197
 20
1.915961
  0
VERTEX
  8
PLAN_1
 62
     2
  6
CONTINUOUS
 10
-0.030197
 20
1.913063
  0
VERTEX
  8
PLAN_1
 62
     2
  6
CONTINUOUS
 10
-0.030197
 20
1.911614
  0
VERTEX
  8
PLAN_1
 62
     2
  6
CONTINUOUS
 10
-0.030197
 20
1.909201
  0
VERTEX
  8
PLAN_1
 62
     2
  6
CONTINUOUS
 10
-0.030681
 20
1.907268
  0
VERTEX
  8
PLAN_1
 62
     2
  6
CONTINUOUS
 10
-0.031165
 20
1.904854
  0
VERTEX
  8
PLAN_1
 62
     2
  6
CONTINUOUS
 10
-0.032130
 20
1.902441
  0
VERTEX
  8
PLAN_1
 62
     2
  6
CONTINUOUS
 10
-0.033094
 20
1.900024
  0
VERTEX
  8
PLAN_1
 62
     2
  6
CONTINUOUS
 10
-0.034059
 20
1.897610
  0
VERTEX
  8
PLAN_1
 62
     2
  6
CONTINUOUS
 10
-0.035508
 20
1.895677
  0
VERTEX
  8
PLAN_1
 62
     2
  6
CONTINUOUS
 10
-0.037925
 20
1.892783
  0
VERTEX
  8
PLAN_1
 62
     2
  6
CONTINUOUS
 10
-0.040339
 20
1.891335
  0
VERTEX
  8
PLAN_1
 62
     2
  6
CONTINUOUS
 10
-0.042752
 20
1.889886
  0
VERTEX
  8
PLAN_1
 62
     2
  6
CONTINUOUS
 10
-0.045165
 20
1.888917
  0
VERTEX
  8
PLAN_1
 62
     2
  6
CONTINUOUS
 10
-0.047583
 20
1.888437
  0
VERTEX
  8
PLAN_1
 62
     2
  6
CONTINUOUS
 10
-0.049512
 20
1.887953
  0
VERTEX
  8
PLAN_1
 62
     2
  6
CONTINUOUS
 10
-0.051445
 20
1.887953
  0
VERTEX
  8
PLAN_1
 62
     2
  6
CONTINUOUS
 10
-0.052894
 20
1.887953
  0
VERTEX
  8
PLAN_1
 62
     2
  6
CONTINUOUS
 10
-0.056272
 20
1.888437
  0
VERTEX
  8
PLAN_1
 62
     2
  6
CONTINUOUS
 10
-0.059169
 20
1.888917
  0
VERTEX
  8
PLAN_1
 62
     2
  6
CONTINUOUS
 10
-0.062067
 20
1.889886
  0
VERTEX
  8
PLAN_1
 62
     2
  6
CONTINUOUS
 10
-0.064000
 20
1.891335
  0
VERTEX
  8
PLAN_1
 62
     2
  6
CONTINUOUS
 10
-0.066413
 20
1.893264
  0
VERTEX
  8
PLAN_1
 62
     2
  6
CONTINUOUS
 10
-0.067862
 20
1.895197
  0
VERTEX
  8
PLAN_1
 62
     2
  6
CONTINUOUS
 10
-0.069795
 20
1.897610
  0
VERTEX
  8
PLAN_1
 62
     2
  6
CONTINUOUS
 10
-0.070760
 20
1.900508
  0
VERTEX
  8
PLAN_1
 62
     2
  6
CONTINUOUS
 10
-0.071724
 20
1.898094
  0
VERTEX
  8
PLAN_1
 62
     2
  6
CONTINUOUS
 10
-0.073173
 20
1.896161
  0
VERTEX
  8
PLAN_1
 62
     2
  6
CONTINUOUS
 10
-0.074622
 20
1.894713
  0
VERTEX
  8
PLAN_1
 62
     2
  6
CONTINUOUS
 10
-0.076555
 20
1.893264
  0
VERTEX
  8
PLAN_1
 62
     2
  6
CONTINUOUS
 10
-0.078488
 20
1.891815
  0
VERTEX
  8
PLAN_1
 62
     2
  6
CONTINUOUS
 10
-0.080417
 20
1.891335
  0
VERTEX
  8
PLAN_1
 62
     2
  6
CONTINUOUS
 10
-0.082831
 20
1.890850
  0
VERTEX
  8
PLAN_1
 62
     2
  6
CONTINUOUS
 10
-0.085248
 20
1.890366
  0
VERTEX
  8
PLAN_1
 62
     2
  6
CONTINUOUS
 10
-0.088146
 20
1.890850
  0
VERTEX
  8
PLAN_1
 62
     2
  6
CONTINUOUS
 10
-0.091524
 20
1.891335
  0
VERTEX
  8
PLAN_1
 62
     2
  6
CONTINUOUS
 10
-0.094906
 20
1.892783
  0
VERTEX
  8
PLAN_1
 62
     2
  6
CONTINUOUS
 10
-0.097803
 20
1.895197
  0
VERTEX
  8
PLAN_1
 62
     2
  6
CONTINUOUS
 10
-0.099732
 20
1.896161
  0
VERTEX
  8
PLAN_1
 62
     2
  6
CONTINUOUS
 10
-0.100701
 20
1.898094
  0
VERTEX
  8
PLAN_1
 62
     2
  6
CONTINUOUS
 10
-0.102150
 20
1.899543
  0
VERTEX
  8
PLAN_1
 62
     2
  6
CONTINUOUS
 10
-0.103114
 20
1.901957
  0
VERTEX
  8
PLAN_1
 62
     2
  6
CONTINUOUS
 10
-0.104079
 20
1.903890
  0
VERTEX
  8
PLAN_1
 62
     2
  6
CONTINUOUS
 10
-0.104563
 20
1.906783
  0
VERTEX
  8
PLAN_1
 62
     2
  6
CONTINUOUS
 10
-0.105047
 20
1.909681
  0
VERTEX
  8
PLAN_1
 62
     2
  6
CONTINUOUS
 10
-0.105047
 20
1.912579
  0
VERTEX
  8
PLAN_1
 62
     2
  6
CONTINUOUS
 10
-0.105047
 20
1.915476
  0
VERTEX
  8
PLAN_1
 62
     2
  6
CONTINUOUS
 10
-0.104563
 20
1.918374
  0
VERTEX
  8
PLAN_1
 62
     2
  6
CONTINUOUS
 10
-0.104079
 20
1.920787
  0
VERTEX
  8
PLAN_1
 62
     2
  6
CONTINUOUS
 10
-0.103598
 20
1.923205
  0
VERTEX
  8
PLAN_1
 62
     2
  6
CONTINUOUS
 10
-0.101665
 20
1.927067
  0
VERTEX
  8
PLAN_1
 62
     2
  6
CONTINUOUS
 10
-0.099252
 20
1.929965
  0
VERTEX
  8
PLAN_1
 62
     2
  6
CONTINUOUS
 10
-0.095870
 20
1.932378
  0
VERTEX
  8
PLAN_1
 62
     2
  6
CONTINUOUS
 10
-0.092972
 20
1.933827
  0
VERTEX
  8
PLAN_1
 62
     2
  6
CONTINUOUS
 10
-0.089594
 20
1.934791
  0
VERTEX
  8
PLAN_1
 62
     2
  6
CONTINUOUS
 10
-0.086213
 20
1.935276
  0
VERTEX
  8
PLAN_1
 62
     2
  6
CONTINUOUS
 10
-0.082831
 20
1.934791
  0
VERTEX
  8
PLAN_1
 62
     2
  6
CONTINUOUS
 10
-0.079937
 20
1.934311
  0
VERTEX
  8
PLAN_1
 62
     2
  6
CONTINUOUS
 10
-0.077520
 20
1.933343
  0
VERTEX
  8
PLAN_1
 62
     2
  6
CONTINUOUS
 10
-0.075591
 20
1.931894
  0
VERTEX
  8
PLAN_1
 62
     2
  6
CONTINUOUS
 10
-0.073657
 20
1.930449
  0
VERTEX
  8
PLAN_1
 62
     2
  6
CONTINUOUS
 10
-0.072693
 20
1.928516
  0
VERTEX
  8
PLAN_1
 62
     2
  6
CONTINUOUS
 10
-0.071724
 20
1.927067
  0
VERTEX
  8
PLAN_1
 62
     2
  6
CONTINUOUS
 10
-0.070760
 20
1.926102
  0
SEQEND
  8
0
  0
POLYLINE
  8
PLAN_1
 62
     2
  6
CONTINUOUS
 66
     1
 40
0.003000
 41
0.003000
  0
VERTEX
  8
PLAN_1
 62
     2
  6
CONTINUOUS
 10
-0.052894
 20
1.897610
  0
VERTEX
  8
PLAN_1
 62
     2
  6
CONTINUOUS
 10
-0.050480
 20
1.898094
  0
VERTEX
  8
PLAN_1
 62
     2
  6
CONTINUOUS
 10
-0.048063
 20
1.898575
  0
VERTEX
  8
PLAN_1
 62
     2
  6
CONTINUOUS
 10
-0.045650
 20
1.899543
  0
VERTEX
  8
PLAN_1
 62
     2
  6
CONTINUOUS
 10
-0.043236
 20
1.900992
  0
VERTEX
  8
PLAN_1
 62
     2
  6
CONTINUOUS
 10
-0.041303
 20
1.902921
  0
VERTEX
  8
PLAN_1
 62
     2
  6
CONTINUOUS
 10
-0.039854
 20
1.905819
  0
VERTEX
  8
PLAN_1
 62
     2
  6
CONTINUOUS
 10
-0.038890
 20
1.909201
  0
VERTEX
  8
PLAN_1
 62
     2
  6
CONTINUOUS
 10
-0.038406
 20
1.913547
  0
VERTEX
  8
PLAN_1
 62
     2
  6
CONTINUOUS
 10
-0.038406
 20
1.915961
  0
VERTEX
  8
PLAN_1
 62
     2
  6
CONTINUOUS
 10
-0.038890
 20
1.918374
  0
VERTEX
  8
PLAN_1
 62
     2
  6
CONTINUOUS
 10
-0.039854
 20
1.920787
  0
VERTEX
  8
PLAN_1
 62
     2
  6
CONTINUOUS
 10
-0.040823
 20
1.923205
  0
VERTEX
  8
PLAN_1
 62
     2
  6
CONTINUOUS
 10
-0.042752
 20
1.925134
  0
VERTEX
  8
PLAN_1
 62
     2
  6
CONTINUOUS
 10
-0.045165
 20
1.926583
  0
VERTEX
  8
PLAN_1
 62
     2
  6
CONTINUOUS
 10
-0.048063
 20
1.927551
  0
VERTEX
  8
PLAN_1
 62
     2
  6
CONTINUOUS
 10
-0.052409
 20
1.928031
  0
VERTEX
  8
PLAN_1
 62
     2
  6
CONTINUOUS
 10
-0.055791
 20
1.927551
  0
VERTEX
  8
PLAN_1
 62
     2
  6
CONTINUOUS
 10
-0.058689
 20
1.927067
  0
VERTEX
  8
PLAN_1
 62
     2
  6
CONTINUOUS
 10
-0.061102
 20
1.925618
  0
VERTEX
  8
PLAN_1
 62
     2
  6
CONTINUOUS
 10
-0.063035
 20
1.923685
  0
VERTEX
  8
PLAN_1
 62
     2
  6
CONTINUOUS
 10
-0.064484
 20
1.921272
  0
VERTEX
  8
PLAN_1
 62
     2
  6
CONTINUOUS
 10
-0.065449
 20
1.918858
  0
VERTEX
  8
PLAN_1
 62
     2
  6
CONTINUOUS
 10
-0.066413
 20
1.915961
  0
VERTEX
  8
PLAN_1
 62
     2
  6
CONTINUOUS
 10
-0.066413
 20
1.913063
  0
VERTEX
  8
PLAN_1
 62
     2
  6
CONTINUOUS
 10
-0.065933
 20
1.909201
  0
VERTEX
  8
PLAN_1
 62
     2
  6
CONTINUOUS
 10
-0.065449
 20
1.906303
  0
VERTEX
  8
PLAN_1
 62
     2
  6
CONTINUOUS
 10
-0.064000
 20
1.903406
  0
VERTEX
  8
PLAN_1
 62
     2
  6
CONTINUOUS
 10
-0.062067
 20
1.901472
  0
VERTEX
  8
PLAN_1
 62
     2
  6
CONTINUOUS
 10
-0.060138
 20
1.900024
  0
VERTEX
  8
PLAN_1
 62
     2
  6
CONTINUOUS
 10
-0.057720
 20
1.898575
  0
VERTEX
  8
PLAN_1
 62
     2
  6
CONTINUOUS
 10
-0.055307
 20
1.898094
  0
VERTEX
  8
PLAN_1
 62
     2
  6
CONTINUOUS
 10
-0.052894
 20
1.897610
  0
SEQEND
  8
0
  0
POLYLINE
  8
PLAN_1
 62
     2
  6
CONTINUOUS
 66
     1
 40
0.003000
 41
0.003000
  0
VERTEX
  8
PLAN_1
 62
     2
  6
CONTINUOUS
 10
-0.086213
 20
1.925618
  0
VERTEX
  8
PLAN_1
 62
     2
  6
CONTINUOUS
 10
-0.087661
 20
1.925618
  0
VERTEX
  8
PLAN_1
 62
     2
  6
CONTINUOUS
 10
-0.089594
 20
1.925134
  0
VERTEX
  8
PLAN_1
 62
     2
  6
CONTINUOUS
 10
-0.091524
 20
1.924169
  0
VERTEX
  8
PLAN_1
 62
     2
  6
CONTINUOUS
 10
-0.093457
 20
1.922720
  0
VERTEX
  8
PLAN_1
 62
     2
  6
CONTINUOUS
 10
-0.094906
 20
1.921272
  0
VERTEX
  8
PLAN_1
 62
     2
  6
CONTINUOUS
 10
-0.095870
 20
1.918858
  0
VERTEX
  8
PLAN_1
 62
     2
  6
CONTINUOUS
 10
-0.096835
 20
1.915961
  0
VERTEX
  8
PLAN_1
 62
     2
  6
CONTINUOUS
 10
-0.096835
 20
1.912098
  0
VERTEX
  8
PLAN_1
 62
     2
  6
CONTINUOUS
 10
-0.096835
 20
1.908717
  0
VERTEX
  8
PLAN_1
 62
     2
  6
CONTINUOUS
 10
-0.095870
 20
1.906303
  0
VERTEX
  8
PLAN_1
 62
     2
  6
CONTINUOUS
 10
-0.094421
 20
1.903890
  0
VERTEX
  8
PLAN_1
 62
     2
  6
CONTINUOUS
 10
-0.092972
 20
1.902441
  0
VERTEX
  8
PLAN_1
 62
     2
  6
CONTINUOUS
 10
-0.091043
 20
1.900992
  0
VERTEX
  8
PLAN_1
 62
     2
  6
CONTINUOUS
 10
-0.089110
 20
1.900508
  0
VERTEX
  8
PLAN_1
 62
     2
  6
CONTINUOUS
 10
-0.087177
 20
1.900024
  0
VERTEX
  8
PLAN_1
 62
     2
  6
CONTINUOUS
 10
-0.085728
 20
1.900024
  0
VERTEX
  8
PLAN_1
 62
     2
  6
CONTINUOUS
 10
-0.083315
 20
1.900024
  0
VERTEX
  8
PLAN_1
 62
     2
  6
CONTINUOUS
 10
-0.080902
 20
1.900992
  0
VERTEX
  8
PLAN_1
 62
     2
  6
CONTINUOUS
 10
-0.078969
 20
1.902441
  0
VERTEX
  8
PLAN_1
 62
     2
  6
CONTINUOUS
 10
-0.077520
 20
1.903890
  0
VERTEX
  8
PLAN_1
 62
     2
  6
CONTINUOUS
 10
-0.076071
 20
1.905819
  0
VERTEX
  8
PLAN_1
 62
     2
  6
CONTINUOUS
 10
-0.075106
 20
1.907752
  0
VERTEX
  8
PLAN_1
 62
     2
  6
CONTINUOUS
 10
-0.074622
 20
1.910165
  0
VERTEX
  8
PLAN_1
 62
     2
  6
CONTINUOUS
 10
-0.074142
 20
1.912579
  0
VERTEX
  8
PLAN_1
 62
     2
  6
CONTINUOUS
 10
-0.074622
 20
1.915476
  0
VERTEX
  8
PLAN_1
 62
     2
  6
CONTINUOUS
 10
-0.075106
 20
1.917894
  0
VERTEX
  8
PLAN_1
 62
     2
  6
CONTINUOUS
 10
-0.076071
 20
1.920307
  0
VERTEX
  8
PLAN_1
 62
     2
  6
CONTINUOUS
 10
-0.077520
 20
1.922236
  0
VERTEX
  8
PLAN_1
 62
     2
  6
CONTINUOUS
 10
-0.079453
 20
1.923685
  0
VERTEX
  8
PLAN_1
 62
     2
  6
CONTINUOUS
 10
-0.081382
 20
1.924654
  0
VERTEX
  8
PLAN_1
 62
     2
  6
CONTINUOUS
 10
-0.083799
 20
1.925618
  0
VERTEX
  8
PLAN_1
 62
     2
  6
CONTINUOUS
 10
-0.086213
 20
1.925618
  0
SEQEND
  8
0
  0
POLYLINE
  8
PLAN_1
 62
     2
  6
CONTINUOUS
 66
     1
 40
0.003000
 41
0.003000
  0
VERTEX
  8
PLAN_1
 62
     2
  6
CONTINUOUS
 10
-0.043236
 20
1.951213
  0
VERTEX
  8
PLAN_1
 62
     2
  6
CONTINUOUS
 10
-0.043236
 20
1.961835
  0
VERTEX
  8
PLAN_1
 62
     2
  6
CONTINUOUS
 10
-0.033094
 20
1.961835
  0
VERTEX
  8
PLAN_1
 62
     2
  6
CONTINUOUS
 10
-0.028268
 20
1.961350
  0
VERTEX
  8
PLAN_1
 62
     2
  6
CONTINUOUS
 10
-0.024402
 20
1.960386
  0
VERTEX
  8
PLAN_1
 62
     2
  6
CONTINUOUS
 10
-0.021504
 20
1.958937
  0
VERTEX
  8
PLAN_1
 62
     2
  6
CONTINUOUS
 10
-0.019575
 20
1.957004
  0
VERTEX
  8
PLAN_1
 62
     2
  6
CONTINUOUS
 10
-0.018126
 20
1.955075
  0
VERTEX
  8
PLAN_1
 62
     2
  6
CONTINUOUS
 10
-0.017642
 20
1.953626
  0
VERTEX
  8
PLAN_1
 62
     2
  6
CONTINUOUS
 10
-0.017161
 20
1.952177
  0
VERTEX
  8
PLAN_1
 62
     2
  6
CONTINUOUS
 10
-0.016677
 20
1.951213
  0
VERTEX
  8
PLAN_1
 62
     2
  6
CONTINUOUS
 10
-0.021504
 20
1.951213
  0
VERTEX
  8
PLAN_1
 62
     2
  6
CONTINUOUS
 10
-0.021988
 20
1.952661
  0
VERTEX
  8
PLAN_1
 62
     2
  6
CONTINUOUS
 10
-0.022953
 20
1.953626
  0
VERTEX
  8
PLAN_1
 62
     2
  6
CONTINUOUS
 10
-0.023921
 20
1.954591
  0
VERTEX
  8
PLAN_1
 62
     2
  6
CONTINUOUS
 10
-0.025370
 20
1.955559
  0
VERTEX
  8
PLAN_1
 62
     2
  6
CONTINUOUS
 10
-0.026819
 20
1.956039
  0
VERTEX
  8
PLAN_1
 62
     2
  6
CONTINUOUS
 10
-0.028268
 20
1.956039
  0
VERTEX
  8
PLAN_1
 62
     2
  6
CONTINUOUS
 10
-0.030197
 20
1.956524
  0
VERTEX
  8
PLAN_1
 62
     2
  6
CONTINUOUS
 10
-0.032130
 20
1.956524
  0
VERTEX
  8
PLAN_1
 62
     2
  6
CONTINUOUS
 10
-0.032130
 20
1.951213
  0
VERTEX
  8
PLAN_1
 62
     2
  6
CONTINUOUS
 10
-0.043236
 20
1.951213
  0
SEQEND
  8
0
  0
POLYLINE
  8
PLAN_1
 62
     2
  6
CONTINUOUS
 66
     1
 40
0.003000
 41
0.003000
  0
VERTEX
  8
PLAN_1
 62
     2
  6
CONTINUOUS
 10
-0.074622
 20
1.985980
  0
VERTEX
  8
PLAN_1
 62
     2
  6
CONTINUOUS
 10
-0.075591
 20
1.987429
  0
VERTEX
  8
PLAN_1
 62
     2
  6
CONTINUOUS
 10
-0.076555
 20
1.988878
  0
VERTEX
  8
PLAN_1
 62
     2
  6
CONTINUOUS
 10
-0.077039
 20
1.990327
  0
VERTEX
  8
PLAN_1
 62
     2
  6
CONTINUOUS
 10
-0.078004
 20
1.991776
  0
VERTEX
  8
PLAN_1
 62
     2
  6
CONTINUOUS
 10
-0.078488
 20
1.993705
  0
VERTEX
  8
PLAN_1
 62
     2
  6
CONTINUOUS
 10
-0.078969
 20
1.995638
  0
VERTEX
  8
PLAN_1
 62
     2
  6
CONTINUOUS
 10
-0.078969
 20
1.998051
  0
VERTEX
  8
PLAN_1
 62
     2
  6
CONTINUOUS
 10
-0.079453
 20
2.000465
  0
VERTEX
  8
PLAN_1
 62
     2
  6
CONTINUOUS
 10
-0.078969
 20
2.004811
  0
VERTEX
  8
PLAN_1
 62
     2
  6
CONTINUOUS
 10
-0.077520
 20
2.009157
  0
VERTEX
  8
PLAN_1
 62
     2
  6
CONTINUOUS
 10
-0.075591
 20
2.013020
  0
VERTEX
  8
PLAN_1
 62
     2
  6
CONTINUOUS
 10
-0.073173
 20
2.016886
  0
VERTEX
  8
PLAN_1
 62
     2
  6
CONTINUOUS
 10
-0.071724
 20
2.018331
  0
VERTEX
  8
PLAN_1
 62
     2
  6
CONTINUOUS
 10
-0.069795
 20
2.019780
  0
VERTEX
  8
PLAN_1
 62
     2
  6
CONTINUOUS
 10
-0.067862
 20
2.021228
  0
VERTEX
  8
PLAN_1
 62
     2
  6
CONTINUOUS
 10
-0.065933
 20
2.022197
  0
VERTEX
  8
PLAN_1
 62
     2
  6
CONTINUOUS
 10
-0.063516
 20
2.023161
  0
VERTEX
  8
PLAN_1
 62
     2
  6
CONTINUOUS
 10
-0.061102
 20
2.023646
  0
VERTEX
  8
PLAN_1
 62
     2
  6
CONTINUOUS
 10
-0.058689
 20
2.024126
  0
VERTEX
  8
PLAN_1
 62
     2
  6
CONTINUOUS
 10
-0.055791
 20
2.024126
  0
VERTEX
  8
PLAN_1
 62
     2
  6
CONTINUOUS
 10
-0.052409
 20
2.024126
  0
VERTEX
  8
PLAN_1
 62
     2
  6
CONTINUOUS
 10
-0.048547
 20
2.023646
  0
VERTEX
  8
PLAN_1
 62
     2
  6
CONTINUOUS
 10
-0.044201
 20
2.022197
  0
VERTEX
  8
PLAN_1
 62
     2
  6
CONTINUOUS
 10
-0.039854
 20
2.019780
  0
VERTEX
  8
PLAN_1
 62
     2
  6
CONTINUOUS
 10
-0.037925
 20
2.018331
  0
VERTEX
  8
PLAN_1
 62
     2
  6
CONTINUOUS
 10
-0.035992
 20
2.016402
  0
VERTEX
  8
PLAN_1
 62
     2
  6
CONTINUOUS
 10
-0.034543
 20
2.013988
  0
VERTEX
  8
PLAN_1
 62
     2
  6
CONTINUOUS
 10
-0.033094
 20
2.011571
  0
VERTEX
  8
PLAN_1
 62
     2
  6
CONTINUOUS
 10
-0.031646
 20
2.008673
  0
VERTEX
  8
PLAN_1
 62
     2
  6
CONTINUOUS
 10
-0.030681
 20
2.005295
  0
VERTEX
  8
PLAN_1
 62
     2
  6
CONTINUOUS
 10
-0.030197
 20
2.001913
  0
VERTEX
  8
PLAN_1
 62
     2
  6
CONTINUOUS
 10
-0.030197
 20
1.997567
  0
VERTEX
  8
PLAN_1
 62
     2
  6
CONTINUOUS
 10
-0.030197
 20
1.994189
  0
VERTEX
  8
PLAN_1
 62
     2
  6
CONTINUOUS
 10
-0.031165
 20
1.990327
  0
VERTEX
  8
PLAN_1
 62
     2
  6
CONTINUOUS
 10
-0.032130
 20
1.986461
  0
VERTEX
  8
PLAN_1
 62
     2
  6
CONTINUOUS
 10
-0.034059
 20
1.983083
  0
VERTEX
  8
PLAN_1
 62
     2
  6
CONTINUOUS
 10
-0.035508
 20
1.981634
  0
VERTEX
  8
PLAN_1
 62
     2
  6
CONTINUOUS
 10
-0.036957
 20
1.979701
  0
VERTEX
  8
PLAN_1
 62
     2
  6
CONTINUOUS
 10
-0.038406
 20
1.978736
  0
VERTEX
  8
PLAN_1
 62
     2
  6
CONTINUOUS
 10
-0.040339
 20
1.977287
  0
VERTEX
  8
PLAN_1
 62
     2
  6
CONTINUOUS
 10
-0.042272
 20
1.976323
  0
VERTEX
  8
PLAN_1
 62
     2
  6
CONTINUOUS
 10
-0.044685
 20
1.975354
  0
VERTEX
  8
PLAN_1
 62
     2
  6
CONTINUOUS
 10
-0.047583
 20
1.974874
  0
VERTEX
  8
PLAN_1
 62
     2
  6
CONTINUOUS
 10
-0.050480
 20
1.974390
  0
VERTEX
  8
PLAN_1
 62
     2
  6
CONTINUOUS
 10
-0.050480
 20
1.983563
  0
VERTEX
  8
PLAN_1
 62
     2
  6
CONTINUOUS
 10
-0.047098
 20
1.984047
  0
VERTEX
  8
PLAN_1
 62
     2
  6
CONTINUOUS
 10
-0.044685
 20
1.985496
  0
VERTEX
  8
PLAN_1
 62
     2
  6
CONTINUOUS
 10
-0.042752
 20
1.986945
  0
VERTEX
  8
PLAN_1
 62
     2
  6
CONTINUOUS
 10
-0.040823
 20
1.988878
  0
VERTEX
  8
PLAN_1
 62
     2
  6
CONTINUOUS
 10
-0.039854
 20
1.990807
  0
VERTEX
  8
PLAN_1
 62
     2
  6
CONTINUOUS
 10
-0.038890
 20
1.993220
  0
VERTEX
  8
PLAN_1
 62
     2
  6
CONTINUOUS
 10
-0.038406
 20
1.996118
  0
VERTEX
  8
PLAN_1
 62
     2
  6
CONTINUOUS
 10
-0.037925
 20
1.999016
  0
VERTEX
  8
PLAN_1
 62
     2
  6
CONTINUOUS
 10
-0.038406
 20
2.002398
  0
VERTEX
  8
PLAN_1
 62
     2
  6
CONTINUOUS
 10
-0.039374
 20
2.005776
  0
VERTEX
  8
PLAN_1
 62
     2
  6
CONTINUOUS
 10
-0.040823
 20
2.008193
  0
VERTEX
  8
PLAN_1
 62
     2
  6
CONTINUOUS
 10
-0.042752
 20
2.010606
  0
VERTEX
  8
PLAN_1
 62
     2
  6
CONTINUOUS
 10
-0.045650
 20
2.012055
  0
VERTEX
  8
PLAN_1
 62
     2
  6
CONTINUOUS
 10
-0.048063
 20
2.013504
  0
VERTEX
  8
PLAN_1
 62
     2
  6
CONTINUOUS
 10
-0.051445
 20
2.014469
  0
VERTEX
  8
PLAN_1
 62
     2
  6
CONTINUOUS
 10
-0.054827
 20
2.014469
  0
VERTEX
  8
PLAN_1
 62
     2
  6
CONTINUOUS
 10
-0.058689
 20
2.013988
  0
VERTEX
  8
PLAN_1
 62
     2
  6
CONTINUOUS
 10
-0.061587
 20
2.013504
  0
VERTEX
  8
PLAN_1
 62
     2
  6
CONTINUOUS
 10
-0.064484
 20
2.011571
  0
VERTEX
  8
PLAN_1
 62
     2
  6
CONTINUOUS
 10
-0.066898
 20
2.009642
  0
VERTEX
  8
PLAN_1
 62
     2
  6
CONTINUOUS
 10
-0.068827
 20
2.007224
  0
VERTEX
  8
PLAN_1
 62
     2
  6
CONTINUOUS
 10
-0.069795
 20
2.004811
  0
VERTEX
  8
PLAN_1
 62
     2
  6
CONTINUOUS
 10
-0.070760
 20
2.001433
  0
VERTEX
  8
PLAN_1
 62
     2
  6
CONTINUOUS
 10
-0.070760
 20
1.998535
  0
VERTEX
  8
PLAN_1
 62
     2
  6
CONTINUOUS
 10
-0.070760
 20
1.996118
  0
VERTEX
  8
PLAN_1
 62
     2
  6
CONTINUOUS
 10
-0.070760
 20
1.994669
  0
VERTEX
  8
PLAN_1
 62
     2
  6
CONTINUOUS
 10
-0.069795
 20
1.992740
  0
VERTEX
  8
PLAN_1
 62
     2
  6
CONTINUOUS
 10
-0.069311
 20
1.990807
  0
VERTEX
  8
PLAN_1
 62
     2
  6
CONTINUOUS
 10
-0.068346
 20
1.989358
  0
VERTEX
  8
PLAN_1
 62
     2
  6
CONTINUOUS
 10
-0.066898
 20
1.987429
  0
VERTEX
  8
PLAN_1
 62
     2
  6
CONTINUOUS
 10
-0.065449
 20
1.985980
  0
VERTEX
  8
PLAN_1
 62
     2
  6
CONTINUOUS
 10
-0.064000
 20
1.985012
  0
VERTEX
  8
PLAN_1
 62
     2
  6
CONTINUOUS
 10
-0.064484
 20
1.976803
  0
VERTEX
  8
PLAN_1
 62
     2
  6
CONTINUOUS
 10
-0.103598
 20
1.982598
  0
VERTEX
  8
PLAN_1
 62
     2
  6
CONTINUOUS
 10
-0.103598
 20
2.020264
  0
VERTEX
  8
PLAN_1
 62
     2
  6
CONTINUOUS
 10
-0.094906
 20
2.020264
  0
VERTEX
  8
PLAN_1
 62
     2
  6
CONTINUOUS
 10
-0.094906
 20
1.989358
  0
VERTEX
  8
PLAN_1
 62
     2
  6
CONTINUOUS
 10
-0.074622
 20
1.985980
  0
SEQEND
  8
0
  0
SOLID
  8
PLAN_1
 62
     2
 10
-2.060744
 20
3.481969
 11
-2.091165
 21
3.535083
 12
-2.060744
 22
3.481969
 13
-2.113378
 23
3.512870
  0
POLYLINE
  8
PLAN_1
 62
     2
  6
CONTINUOUS
 66
     1
 40
0.003000
 41
0.003000
  0
VERTEX
  8
PLAN_1
 62
     2
  6
CONTINUOUS
 10
-2.060744
 20
3.481969
  0
VERTEX
  8
PLAN_1
 62
     2
  6
CONTINUOUS
 10
-2.091165
 20
3.535083
  0
VERTEX
  8
PLAN_1
 62
     2
  6
CONTINUOUS
 10
-2.113378
 20
3.512870
  0
VERTEX
  8
PLAN_1
 62
     2
  6
CONTINUOUS
 10
-2.060744
 20
3.481969
  0
SEQEND
  8
0
  0
POLYLINE
  8
PLAN_1
 62
     2
  6
CONTINUOUS
 66
     1
 40
0.004343
 41
0.004343
  0
VERTEX
  8
PLAN_1
 62
     2
  6
CONTINUOUS
 10
-2.087303
 20
3.508528
  0
VERTEX
  8
PLAN_1
 62
     2
  6
CONTINUOUS
 10
-2.216717
 20
3.633110
  0
VERTEX
  8
PLAN_1
 62
     2
  6
CONTINUOUS
 10
-2.505000
 20
3.633110
  0
SEQEND
  8
0
  0
POLYLINE
  8
PLAN_1
 62
     2
  6
CONTINUOUS
 66
     1
 40
0.003000
 41
0.003000
  0
VERTEX
  8
PLAN_1
 62
     2
  6
CONTINUOUS
 10
-2.382831
 20
3.656772
  0
VERTEX
  8
PLAN_1
 62
     2
  6
CONTINUOUS
 10
-2.382831
 20
3.700717
  0
VERTEX
  8
PLAN_1
 62
     2
  6
CONTINUOUS
 10
-2.382831
 20
3.702165
  0
VERTEX
  8
PLAN_1
 62
     2
  6
CONTINUOUS
 10
-2.382831
 20
3.703614
  0
VERTEX
  8
PLAN_1
 62
     2
  6
CONTINUOUS
 10
-2.382831
 20
3.706028
  0
VERTEX
  8
PLAN_1
 62
     2
  6
CONTINUOUS
 10
-2.382831
 20
3.708441
  0
VERTEX
  8
PLAN_1
 62
     2
  6
CONTINUOUS
 10
-2.382831
 20
3.710854
  0
VERTEX
  8
PLAN_1
 62
     2
  6
CONTINUOUS
 10
-2.382831
 20
3.713752
  0
VERTEX
  8
PLAN_1
 62
     2
  6
CONTINUOUS
 10
-2.382831
 20
3.716650
  0
VERTEX
  8
PLAN_1
 62
     2
  6
CONTINUOUS
 10
-2.382831
 20
3.719547
  0
VERTEX
  8
PLAN_1
 62
     2
  6
CONTINUOUS
 10
-2.404075
 20
3.656772
  0
VERTEX
  8
PLAN_1
 62
     2
  6
CONTINUOUS
 10
-2.413732
 20
3.656772
  0
VERTEX
  8
PLAN_1
 62
     2
  6
CONTINUOUS
 10
-2.434980
 20
3.719547
  0
VERTEX
  8
PLAN_1
 62
     2
  6
CONTINUOUS
 10
-2.434980
 20
3.716650
  0
VERTEX
  8
PLAN_1
 62
     2
  6
CONTINUOUS
 10
-2.434980
 20
3.713752
  0
VERTEX
  8
PLAN_1
 62
     2
  6
CONTINUOUS
 10
-2.434980
 20
3.710854
  0
VERTEX
  8
PLAN_1
 62
     2
  6
CONTINUOUS
 10
-2.434980
 20
3.708441
  0
VERTEX
  8
PLAN_1
 62
     2
  6
CONTINUOUS
 10
-2.434980
 20
3.706028
  0
VERTEX
  8
PLAN_1
 62
     2
  6
CONTINUOUS
 10
-2.434980
 20
3.703614
  0
VERTEX
  8
PLAN_1
 62
     2
  6
CONTINUOUS
 10
-2.434980
 20
3.702165
  0
VERTEX
  8
PLAN_1
 62
     2
  6
CONTINUOUS
 10
-2.434980
 20
3.700717
  0
VERTEX
  8
PLAN_1
 62
     2
  6
CONTINUOUS
 10
-2.434980
 20
3.656772
  0
VERTEX
  8
PLAN_1
 62
     2
  6
CONTINUOUS
 10
-2.444638
 20
3.656772
  0
VERTEX
  8
PLAN_1
 62
     2
  6
CONTINUOUS
 10
-2.444638
 20
3.731622
  0
VERTEX
  8
PLAN_1
 62
     2
  6
CONTINUOUS
 10
-2.430154
 20
3.731622
  0
VERTEX
  8
PLAN_1
 62
     2
  6
CONTINUOUS
 10
-2.408906
 20
3.668362
  0
VERTEX
  8
PLAN_1
 62
     2
  6
CONTINUOUS
 10
-2.387657
 20
3.731622
  0
VERTEX
  8
PLAN_1
 62
     2
  6
CONTINUOUS
 10
-2.373173
 20
3.731622
  0
VERTEX
  8
PLAN_1
 62
     2
  6
CONTINUOUS
 10
-2.373173
 20
3.656772
  0
VERTEX
  8
PLAN_1
 62
     2
  6
CONTINUOUS
 10
-2.382831
 20
3.656772
  0
SEQEND
  8
0
  0
POLYLINE
  8
PLAN_1
 62
     2
  6
CONTINUOUS
 66
     1
 40
0.003000
 41
0.003000
  0
VERTEX
  8
PLAN_1
 62
     2
  6
CONTINUOUS
 10
-2.322469
 20
3.710374
  0
VERTEX
  8
PLAN_1
 62
     2
  6
CONTINUOUS
 10
-2.322953
 20
3.712787
  0
VERTEX
  8
PLAN_1
 62
     2
  6
CONTINUOUS
 10
-2.323433
 20
3.714720
  0
VERTEX
  8
PLAN_1
 62
     2
  6
CONTINUOUS
 10
-2.324882
 20
3.716650
  0
VERTEX
  8
PLAN_1
 62
     2
  6
CONTINUOUS
 10
-2.325850
 20
3.718583
  0
VERTEX
  8
PLAN_1
 62
     2
  6
CONTINUOUS
 10
-2.327780
 20
3.719547
  0
VERTEX
  8
PLAN_1
 62
     2
  6
CONTINUOUS
 10
-2.329713
 20
3.720512
  0
VERTEX
  8
PLAN_1
 62
     2
  6
CONTINUOUS
 10
-2.332126
 20
3.721480
  0
VERTEX
  8
PLAN_1
 62
     2
  6
CONTINUOUS
 10
-2.335024
 20
3.721480
  0
VERTEX
  8
PLAN_1
 62
     2
  6
CONTINUOUS
 10
-2.337437
 20
3.721480
  0
VERTEX
  8
PLAN_1
 62
     2
  6
CONTINUOUS
 10
-2.339850
 20
3.720512
  0
VERTEX
  8
PLAN_1
 62
     2
  6
CONTINUOUS
 10
-2.341783
 20
3.719547
  0
VERTEX
  8
PLAN_1
 62
     2
  6
CONTINUOUS
 10
-2.343717
 20
3.718583
  0
VERTEX
  8
PLAN_1
 62
     2
  6
CONTINUOUS
 10
-2.345165
 20
3.716650
  0
VERTEX
  8
PLAN_1
 62
     2
  6
CONTINUOUS
 10
-2.346614
 20
3.715201
  0
VERTEX
  8
PLAN_1
 62
     2
  6
CONTINUOUS
 10
-2.348063
 20
3.713272
  0
VERTEX
  8
PLAN_1
 62
     2
  6
CONTINUOUS
 10
-2.349028
 20
3.710854
  0
VERTEX
  8
PLAN_1
 62
     2
  6
CONTINUOUS
 10
-2.350476
 20
3.706512
  0
VERTEX
  8
PLAN_1
 62
     2
  6
CONTINUOUS
 10
-2.351441
 20
3.702165
  0
VERTEX
  8
PLAN_1
 62
     2
  6
CONTINUOUS
 10
-2.351925
 20
3.697819
  0
VERTEX
  8
PLAN_1
 62
     2
  6
CONTINUOUS
 10
-2.352406
 20
3.694437
  0
VERTEX
  8
PLAN_1
 62
     2
  6
CONTINUOUS
 10
-2.351925
 20
3.694437
  0
VERTEX
  8
PLAN_1
 62
     2
  6
CONTINUOUS
 10
-2.350957
 20
3.695886
  0
VERTEX
  8
PLAN_1
 62
     2
  6
CONTINUOUS
 10
-2.349512
 20
3.697335
  0
VERTEX
  8
PLAN_1
 62
     2
  6
CONTINUOUS
 10
-2.348063
 20
3.698783
  0
VERTEX
  8
PLAN_1
 62
     2
  6
CONTINUOUS
 10
-2.346130
 20
3.700232
  0
VERTEX
  8
PLAN_1
 62
     2
  6
CONTINUOUS
 10
-2.343717
 20
3.701681
  0
VERTEX
  8
PLAN_1
 62
     2
  6
CONTINUOUS
 10
-2.341299
 20
3.702646
  0
VERTEX
  8
PLAN_1
 62
     2
  6
CONTINUOUS
 10
-2.337921
 20
3.703130
  0
VERTEX
  8
PLAN_1
 62
     2
  6
CONTINUOUS
 10
-2.334539
 20
3.703130
  0
VERTEX
  8
PLAN_1
 62
     2
  6
CONTINUOUS
 10
-2.331161
 20
3.703130
  0
VERTEX
  8
PLAN_1
 62
     2
  6
CONTINUOUS
 10
-2.327295
 20
3.702165
  0
VERTEX
  8
PLAN_1
 62
     2
  6
CONTINUOUS
 10
-2.323433
 20
3.700717
  0
VERTEX
  8
PLAN_1
 62
     2
  6
CONTINUOUS
 10
-2.320055
 20
3.698299
  0
VERTEX
  8
PLAN_1
 62
     2
  6
CONTINUOUS
 10
-2.318122
 20
3.696850
  0
VERTEX
  8
PLAN_1
 62
     2
  6
CONTINUOUS
 10
-2.316673
 20
3.694921
  0
VERTEX
  8
PLAN_1
 62
     2
  6
CONTINUOUS
 10
-2.315224
 20
3.692988
  0
VERTEX
  8
PLAN_1
 62
     2
  6
CONTINUOUS
 10
-2.314260
 20
3.691059
  0
VERTEX
  8
PLAN_1
 62
     2
  6
CONTINUOUS
 10
-2.313295
 20
3.688642
  0
VERTEX
  8
PLAN_1
 62
     2
  6
CONTINUOUS
 10
-2.312327
 20
3.686228
  0
VERTEX
  8
PLAN_1
 62
     2
  6
CONTINUOUS
 10
-2.311846
 20
3.683331
  0
VERTEX
  8
PLAN_1
 62
     2
  6
CONTINUOUS
 10
-2.311846
 20
3.679953
  0
VERTEX
  8
PLAN_1
 62
     2
  6
CONTINUOUS
 10
-2.311846
 20
3.677535
  0
VERTEX
  8
PLAN_1
 62
     2
  6
CONTINUOUS
 10
-2.312327
 20
3.674638
  0
VERTEX
  8
PLAN_1
 62
     2
  6
CONTINUOUS
 10
-2.312811
 20
3.672224
  0
VERTEX
  8
PLAN_1
 62
     2
  6
CONTINUOUS
 10
-2.313295
 20
3.670295
  0
VERTEX
  8
PLAN_1
 62
     2
  6
CONTINUOUS
 10
-2.314260
 20
3.667878
  0
VERTEX
  8
PLAN_1
 62
     2
  6
CONTINUOUS
 10
-2.315709
 20
3.665949
  0
VERTEX
  8
PLAN_1
 62
     2
  6
CONTINUOUS
 10
-2.317157
 20
3.664016
  0
VERTEX
  8
PLAN_1
 62
     2
  6
CONTINUOUS
 10
-2.318606
 20
3.661602
  0
VERTEX
  8
PLAN_1
 62
     2
  6
CONTINUOUS
 10
-2.320055
 20
3.660154
  0
VERTEX
  8
PLAN_1
 62
     2
  6
CONTINUOUS
 10
-2.321984
 20
3.658705
  0
VERTEX
  8
PLAN_1
 62
     2
  6
CONTINUOUS
 10
-2.323433
 20
3.657740
  0
VERTEX
  8
PLAN_1
 62
     2
  6
CONTINUOUS
 10
-2.325366
 20
3.656772
  0
VERTEX
  8
PLAN_1
 62
     2
  6
CONTINUOUS
 10
-2.327780
 20
3.655807
  0
VERTEX
  8
PLAN_1
 62
     2
  6
CONTINUOUS
 10
-2.330677
 20
3.655323
  0
VERTEX
  8
PLAN_1
 62
     2
  6
CONTINUOUS
 10
-2.333575
 20
3.654843
  0
VERTEX
  8
PLAN_1
 62
     2
  6
CONTINUOUS
 10
-2.337437
 20
3.654843
  0
VERTEX
  8
PLAN_1
 62
     2
  6
CONTINUOUS
 10
-2.339370
 20
3.654843
  0
VERTEX
  8
PLAN_1
 62
     2
  6
CONTINUOUS
 10
-2.341783
 20
3.655323
  0
VERTEX
  8
PLAN_1
 62
     2
  6
CONTINUOUS
 10
-2.344197
 20
3.655807
  0
VERTEX
  8
PLAN_1
 62
     2
  6
CONTINUOUS
 10
-2.346614
 20
3.656772
  0
VERTEX
  8
PLAN_1
 62
     2
  6
CONTINUOUS
 10
-2.349512
 20
3.658220
  0
VERTEX
  8
PLAN_1
 62
     2
  6
CONTINUOUS
 10
-2.351925
 20
3.660154
  0
VERTEX
  8
PLAN_1
 62
     2
  6
CONTINUOUS
 10
-2.353854
 20
3.662567
  0
VERTEX
  8
PLAN_1
 62
     2
  6
CONTINUOUS
 10
-2.356272
 20
3.665465
  0
VERTEX
  8
PLAN_1
 62
     2
  6
CONTINUOUS
 10
-2.357720
 20
3.667878
  0
VERTEX
  8
PLAN_1
 62
     2
  6
CONTINUOUS
 10
-2.358685
 20
3.670776
  0
VERTEX
  8
PLAN_1
 62
     2
  6
CONTINUOUS
 10
-2.359650
 20
3.673673
  0
VERTEX
  8
PLAN_1
 62
     2
  6
CONTINUOUS
 10
-2.360618
 20
3.677055
  0
VERTEX
  8
PLAN_1
 62
     2
  6
CONTINUOUS
 10
-2.361098
 20
3.680433
  0
VERTEX
  8
PLAN_1
 62
     2
  6
CONTINUOUS
 10
-2.361583
 20
3.683815
  0
VERTEX
  8
PLAN_1
 62
     2
  6
CONTINUOUS
 10
-2.361583
 20
3.687193
  0
VERTEX
  8
PLAN_1
 62
     2
  6
CONTINUOUS
 10
-2.361583
 20
3.690575
  0
VERTEX
  8
PLAN_1
 62
     2
  6
CONTINUOUS
 10
-2.361583
 20
3.696850
  0
VERTEX
  8
PLAN_1
 62
     2
  6
CONTINUOUS
 10
-2.360618
 20
3.703614
  0
VERTEX
  8
PLAN_1
 62
     2
  6
CONTINUOUS
 10
-2.359650
 20
3.706992
  0
VERTEX
  8
PLAN_1
 62
     2
  6
CONTINUOUS
 10
-2.358685
 20
3.709890
  0
VERTEX
  8
PLAN_1
 62
     2
  6
CONTINUOUS
 10
-2.357720
 20
3.713272
  0
VERTEX
  8
PLAN_1
 62
     2
  6
CONTINUOUS
 10
-2.356272
 20
3.716169
  0
VERTEX
  8
PLAN_1
 62
     2
  6
CONTINUOUS
 10
-2.354823
 20
3.719067
  0
VERTEX
  8
PLAN_1
 62
     2
  6
CONTINUOUS
 10
-2.352890
 20
3.721480
  0
VERTEX
  8
PLAN_1
 62
     2
  6
CONTINUOUS
 10
-2.350476
 20
3.723894
  0
VERTEX
  8
PLAN_1
 62
     2
  6
CONTINUOUS
 10
-2.348063
 20
3.725827
  0
VERTEX
  8
PLAN_1
 62
     2
  6
CONTINUOUS
 10
-2.345165
 20
3.727756
  0
VERTEX
  8
PLAN_1
 62
     2
  6
CONTINUOUS
 10
-2.342268
 20
3.728724
  0
VERTEX
  8
PLAN_1
 62
     2
  6
CONTINUOUS
 10
-2.338406
 20
3.729689
  0
VERTEX
  8
PLAN_1
 62
     2
  6
CONTINUOUS
 10
-2.334539
 20
3.729689
  0
VERTEX
  8
PLAN_1
 62
     2
  6
CONTINUOUS
 10
-2.331161
 20
3.729689
  0
VERTEX
  8
PLAN_1
 62
     2
  6
CONTINUOUS
 10
-2.327780
 20
3.728724
  0
VERTEX
  8
PLAN_1
 62
     2
  6
CONTINUOUS
 10
-2.324402
 20
3.727756
  0
VERTEX
  8
PLAN_1
 62
     2
  6
CONTINUOUS
 10
-2.321020
 20
3.725827
  0
VERTEX
  8
PLAN_1
 62
     2
  6
CONTINUOUS
 10
-2.318122
 20
3.722929
  0
VERTEX
  8
PLAN_1
 62
     2
  6
CONTINUOUS
 10
-2.315709
 20
3.719547
  0
VERTEX
  8
PLAN_1
 62
     2
  6
CONTINUOUS
 10
-2.314740
 20
3.717618
  0
VERTEX
  8
PLAN_1
 62
     2
  6
CONTINUOUS
 10
-2.314260
 20
3.715685
  0
VERTEX
  8
PLAN_1
 62
     2
  6
CONTINUOUS
 10
-2.313776
 20
3.713272
  0
VERTEX
  8
PLAN_1
 62
     2
  6
CONTINUOUS
 10
-2.313295
 20
3.710374
  0
VERTEX
  8
PLAN_1
 62
     2
  6
CONTINUOUS
 10
-2.322469
 20
3.710374
  0
SEQEND
  8
0
  0
POLYLINE
  8
PLAN_1
 62
     2
  6
CONTINUOUS
 66
     1
 40
0.003000
 41
0.003000
  0
VERTEX
  8
PLAN_1
 62
     2
  6
CONTINUOUS
 10
-2.335508
 20
3.663051
  0
VERTEX
  8
PLAN_1
 62
     2
  6
CONTINUOUS
 10
-2.332610
 20
3.663051
  0
VERTEX
  8
PLAN_1
 62
     2
  6
CONTINUOUS
 10
-2.329713
 20
3.664016
  0
VERTEX
  8
PLAN_1
 62
     2
  6
CONTINUOUS
 10
-2.327295
 20
3.665465
  0
VERTEX
  8
PLAN_1
 62
     2
  6
CONTINUOUS
 10
-2.324882
 20
3.667398
  0
VERTEX
  8
PLAN_1
 62
     2
  6
CONTINUOUS
 10
-2.323433
 20
3.669811
  0
VERTEX
  8
PLAN_1
 62
     2
  6
CONTINUOUS
 10
-2.321984
 20
3.672709
  0
VERTEX
  8
PLAN_1
 62
     2
  6
CONTINUOUS
 10
-2.321504
 20
3.676087
  0
VERTEX
  8
PLAN_1
 62
     2
  6
CONTINUOUS
 10
-2.321020
 20
3.679469
  0
VERTEX
  8
PLAN_1
 62
     2
  6
CONTINUOUS
 10
-2.321504
 20
3.682366
  0
VERTEX
  8
PLAN_1
 62
     2
  6
CONTINUOUS
 10
-2.321984
 20
3.684780
  0
VERTEX
  8
PLAN_1
 62
     2
  6
CONTINUOUS
 10
-2.322953
 20
3.687193
  0
VERTEX
  8
PLAN_1
 62
     2
  6
CONTINUOUS
 10
-2.324402
 20
3.689610
  0
VERTEX
  8
PLAN_1
 62
     2
  6
CONTINUOUS
 10
-2.326331
 20
3.692024
  0
VERTEX
  8
PLAN_1
 62
     2
  6
CONTINUOUS
 10
-2.328744
 20
3.693472
  0
VERTEX
  8
PLAN_1
 62
     2
  6
CONTINUOUS
 10
-2.332126
 20
3.694437
  0
VERTEX
  8
PLAN_1
 62
     2
  6
CONTINUOUS
 10
-2.335988
 20
3.694921
  0
VERTEX
  8
PLAN_1
 62
     2
  6
CONTINUOUS
 10
-2.339370
 20
3.694921
  0
VERTEX
  8
PLAN_1
 62
     2
  6
CONTINUOUS
 10
-2.342748
 20
3.693957
  0
VERTEX
  8
PLAN_1
 62
     2
  6
CONTINUOUS
 10
-2.345165
 20
3.692508
  0
VERTEX
  8
PLAN_1
 62
     2
  6
CONTINUOUS
 10
-2.347094
 20
3.690575
  0
VERTEX
  8
PLAN_1
 62
     2
  6
CONTINUOUS
 10
-2.349028
 20
3.688161
  0
VERTEX
  8
PLAN_1
 62
     2
  6
CONTINUOUS
 10
-2.349992
 20
3.685264
  0
VERTEX
  8
PLAN_1
 62
     2
  6
CONTINUOUS
 10
-2.350957
 20
3.682366
  0
VERTEX
  8
PLAN_1
 62
     2
  6
CONTINUOUS
 10
-2.350957
 20
3.678984
  0
VERTEX
  8
PLAN_1
 62
     2
  6
CONTINUOUS
 10
-2.350957
 20
3.676087
  0
VERTEX
  8
PLAN_1
 62
     2
  6
CONTINUOUS
 10
-2.349992
 20
3.673189
  0
VERTEX
  8
PLAN_1
 62
     2
  6
CONTINUOUS
 10
-2.349028
 20
3.670776
  0
VERTEX
  8
PLAN_1
 62
     2
  6
CONTINUOUS
 10
-2.347094
 20
3.667878
  0
VERTEX
  8
PLAN_1
 62
     2
  6
CONTINUOUS
 10
-2.345165
 20
3.665949
  0
VERTEX
  8
PLAN_1
 62
     2
  6
CONTINUOUS
 10
-2.342268
 20
3.664500
  0
VERTEX
  8
PLAN_1
 62
     2
  6
CONTINUOUS
 10
-2.339370
 20
3.663531
  0
VERTEX
  8
PLAN_1
 62
     2
  6
CONTINUOUS
 10
-2.335508
 20
3.663051
  0
SEQEND
  8
0
  0
POLYLINE
  8
PLAN_1
 62
     2
  6
CONTINUOUS
 66
     1
 40
0.004343
 41
0.004343
  0
VERTEX
  8
PLAN_1
 62
     2
  6
CONTINUOUS
 10
-0.142228
 20
-0.004969
  0
VERTEX
  8
PLAN_1
 62
     2
  6
CONTINUOUS
 10
0.015193
 20
-0.004969
  0
SEQEND
  8
0
  0
POLYLINE
  8
PLAN_1
 62
     2
  6
CONTINUOUS
 66
     1
 40
0.004343
 41
0.004343
  0
VERTEX
  8
PLAN_1
 62
     2
  6
CONTINUOUS
 10
-0.247980
 20
3.860067
  0
VERTEX
  8
PLAN_1
 62
     2
  6
CONTINUOUS
 10
0.015193
 20
3.860067
  0
SEQEND
  8
0
  0
POLYLINE
  8
PLAN_1
 62
     2
  6
CONTINUOUS
 66
     1
 40
0.004343
 41
0.004343
  0
VERTEX
  8
PLAN_1
 62
     2
  6
CONTINUOUS
 10
-2.116276
 20
-0.456469
  0
VERTEX
  8
PLAN_1
 62
     2
  6
CONTINUOUS
 10
-2.116276
 20
3.207685
  0
SEQEND
  8
0
  0
ENDSEC
  0
EOF
