  0
SECTION
  2
HEADER
  9
$ACADVER
  1
AC1006
  9
$EXTMIN
 10
-2.337000
 20
-3.624000
  9
$EXTMAX
 10
2.339453
 20
3.620000
  9
$LTSCALE
 40
0.000394
  9
$PDMODE
 70
    35
  9
$PDSIZE
 40
0.000315
  0
ENDSEC
  0
SECTION
  2
TABLES
  0
TABLE
  2
LTYPE
 70
     9
  0
LTYPE
  2
CONTINUOUS
 70
    64
  3
Solid line
 72
    65
 73
     0
 40
0.000000
  0
LTYPE
  2
DASHED
 70
    64
  3
__ __ __ __ __ __ __ __ __ __ __ __ __ __ __
 72
    65
 73
     2
 40
0.000003
 49
0.000002
 49
-0.000001
  0
LTYPE
  2
HIDDEN
 70
    64
  3
 _ _ _ _ _ _ _ _ _ _ _ _ _ _ _ _ _ _ _ _ _ _
 72
    65
 73
     2
 40
0.000001
 49
0.000001
 49
-0.000000
  0
LTYPE
  2
CENTER
 70
    64
  3
____ _ ____ _ ____ _ ____ _ ____ _ ____ _ ____
 72
    65
 73
     4
 40
0.000008
 49
0.000005
 49
-0.000001
 49
0.000001
 49
-0.000001
  0
LTYPE
  2
PHANTOM
 70
    64
  3
_____ _ _ _____ _ _ _____ _ _ _____ _ _ ____
 72
    65
 73
     6
 40
0.000010
 49
0.000005
 49
-0.000001
 49
0.000001
 49
-0.000001
 49
0.000001
 49
-0.000001
  0
LTYPE
  2
DOT
 70
    64
  3
...............................................
 72
    65
 73
     2
 40
0.000001
 49
0.000000
 49
-0.000001
  0
LTYPE
  2
DASHDOT
 70
    64
  3
__ . __ . __ . __ . __ . __ . __ . __ . __ . __
 72
    65
 73
     4
 40
0.000004
 49
0.000002
 49
-0.000001
 49
0.000000
 49
-0.000001
  0
LTYPE
  2
BORDER
 70
    64
  3
__ __ . __ __ . __ __ . __ __ . __ __ . __ __
 72
    65
 73
     6
 40
0.000007
 49
0.000002
 49
-0.000001
 49
0.000002
 49
-0.000001
 49
0.000000
 49
-0.000001
  0
LTYPE
  2
DIVIDE
 70
    64
  3
__ . . __ . . __ . . __ . . __ . . __ . . __
 72
    65
 73
     6
 40
0.000005
 49
0.000002
 49
-0.000001
 49
0.000000
 49
-0.000001
 49
0.000000
 49
-0.000001
  0
LTYPE
  2
DOTDOT
 70
    64
  3
 . .  . .  . .  . .  . .  . . 
 72
    65
 73
     5
 40
0.000002
 49
-0.000001
 49
0.000000
 49
-0.000001
 49
0.000000
 49
-0.000001
  0
ENDTAB
  0
TABLE
  2
STYLE
 70
     0
  0
ENDTAB
  0
TABLE
  2
LAYER
 70
     3
  0
LAYER
  2
FOREGROUND
 70
    64
 62
     7
  6
CONTINUOUS
  0
LAYER
  2
BACKGROUND
 70
    65
 62
    -7
  6
CONTINUOUS
  0
LAYER
  2
PLAN_1
 70
    64
 62
     7
  6
CONTINUOUS
  0
ENDTAB
  0
ENDSEC
  0
SECTION
  2
ENTITIES
  0
POLYLINE
  8
PLAN_1
  6
CONTINUOUS
 66
     1
 40
0.003000
 41
0.003000
  0
VERTEX
  8
PLAN_1
  6
CONTINUOUS
 10
0.351429
 20
-3.589138
  0
VERTEX
  8
PLAN_1
  6
CONTINUOUS
 10
0.194327
 20
-3.589138
  0
VERTEX
  8
PLAN_1
  6
CONTINUOUS
 10
0.194327
 20
-3.566953
  0
VERTEX
  8
PLAN_1
  6
CONTINUOUS
 10
0.316567
 20
-3.413925
  0
VERTEX
  8
PLAN_1
  6
CONTINUOUS
 10
0.203382
 20
-3.413925
  0
VERTEX
  8
PLAN_1
  6
CONTINUOUS
 10
0.203382
 20
-3.389929
  0
VERTEX
  8
PLAN_1
  6
CONTINUOUS
 10
0.351429
 20
-3.389929
  0
VERTEX
  8
PLAN_1
  6
CONTINUOUS
 10
0.351429
 20
-3.413472
  0
VERTEX
  8
PLAN_1
  6
CONTINUOUS
 10
0.228732
 20
-3.565594
  0
VERTEX
  8
PLAN_1
  6
CONTINUOUS
 10
0.351429
 20
-3.565594
  0
VERTEX
  8
PLAN_1
  6
CONTINUOUS
 10
0.351429
 20
-3.589138
  0
SEQEND
  8
0
  0
POLYLINE
  8
PLAN_1
  6
CONTINUOUS
 66
     1
 40
0.003000
 41
0.003000
  0
VERTEX
  8
PLAN_1
  6
CONTINUOUS
 10
0.518496
 20
-3.450146
  0
VERTEX
  8
PLAN_1
  6
CONTINUOUS
 10
0.517138
 20
-3.443807
  0
VERTEX
  8
PLAN_1
  6
CONTINUOUS
 10
0.514874
 20
-3.438374
  0
VERTEX
  8
PLAN_1
  6
CONTINUOUS
 10
0.512157
 20
-3.433394
  0
VERTEX
  8
PLAN_1
  6
CONTINUOUS
 10
0.509441
 20
-3.428866
  0
VERTEX
  8
PLAN_1
  6
CONTINUOUS
 10
0.506272
 20
-3.424791
  0
VERTEX
  8
PLAN_1
  6
CONTINUOUS
 10
0.502650
 20
-3.421622
  0
VERTEX
  8
PLAN_1
  6
CONTINUOUS
 10
0.499028
 20
-3.418453
  0
VERTEX
  8
PLAN_1
  6
CONTINUOUS
 10
0.494953
 20
-3.416189
  0
VERTEX
  8
PLAN_1
  6
CONTINUOUS
 10
0.490878
 20
-3.413925
  0
VERTEX
  8
PLAN_1
  6
CONTINUOUS
 10
0.486803
 20
-3.412567
  0
VERTEX
  8
PLAN_1
  6
CONTINUOUS
 10
0.482728
 20
-3.411209
  0
VERTEX
  8
PLAN_1
  6
CONTINUOUS
 10
0.478654
 20
-3.410303
  0
VERTEX
  8
PLAN_1
  6
CONTINUOUS
 10
0.470504
 20
-3.408945
  0
VERTEX
  8
PLAN_1
  6
CONTINUOUS
 10
0.462807
 20
-3.408492
  0
VERTEX
  8
PLAN_1
  6
CONTINUOUS
 10
0.456016
 20
-3.408945
  0
VERTEX
  8
PLAN_1
  6
CONTINUOUS
 10
0.449677
 20
-3.409850
  0
VERTEX
  8
PLAN_1
  6
CONTINUOUS
 10
0.443339
 20
-3.411209
  0
VERTEX
  8
PLAN_1
  6
CONTINUOUS
 10
0.437453
 20
-3.413472
  0
VERTEX
  8
PLAN_1
  6
CONTINUOUS
 10
0.431567
 20
-3.416189
  0
VERTEX
  8
PLAN_1
  6
CONTINUOUS
 10
0.426587
 20
-3.419811
  0
VERTEX
  8
PLAN_1
  6
CONTINUOUS
 10
0.421154
 20
-3.423886
  0
VERTEX
  8
PLAN_1
  6
CONTINUOUS
 10
0.416626
 20
-3.428413
  0
VERTEX
  8
PLAN_1
  6
CONTINUOUS
 10
0.412551
 20
-3.433846
  0
VERTEX
  8
PLAN_1
  6
CONTINUOUS
 10
0.408929
 20
-3.439732
  0
VERTEX
  8
PLAN_1
  6
CONTINUOUS
 10
0.405307
 20
-3.446071
  0
VERTEX
  8
PLAN_1
  6
CONTINUOUS
 10
0.402591
 20
-3.453315
  0
VERTEX
  8
PLAN_1
  6
CONTINUOUS
 10
0.400780
 20
-3.461008
  0
VERTEX
  8
PLAN_1
  6
CONTINUOUS
 10
0.398969
 20
-3.469157
  0
VERTEX
  8
PLAN_1
  6
CONTINUOUS
 10
0.398063
 20
-3.478213
  0
VERTEX
  8
PLAN_1
  6
CONTINUOUS
 10
0.397610
 20
-3.487720
  0
VERTEX
  8
PLAN_1
  6
CONTINUOUS
 10
0.397610
 20
-3.496323
  0
VERTEX
  8
PLAN_1
  6
CONTINUOUS
 10
0.398516
 20
-3.504925
  0
VERTEX
  8
PLAN_1
  6
CONTINUOUS
 10
0.399421
 20
-3.512622
  0
VERTEX
  8
PLAN_1
  6
CONTINUOUS
 10
0.400780
 20
-3.520319
  0
VERTEX
  8
PLAN_1
  6
CONTINUOUS
 10
0.403043
 20
-3.527563
  0
VERTEX
  8
PLAN_1
  6
CONTINUOUS
 10
0.405307
 20
-3.534807
  0
VERTEX
  8
PLAN_1
  6
CONTINUOUS
 10
0.408476
 20
-3.541146
  0
VERTEX
  8
PLAN_1
  6
CONTINUOUS
 10
0.412098
 20
-3.547031
  0
VERTEX
  8
PLAN_1
  6
CONTINUOUS
 10
0.416173
 20
-3.552012
  0
VERTEX
  8
PLAN_1
  6
CONTINUOUS
 10
0.421154
 20
-3.556992
  0
VERTEX
  8
PLAN_1
  6
CONTINUOUS
 10
0.423870
 20
-3.558803
  0
VERTEX
  8
PLAN_1
  6
CONTINUOUS
 10
0.426587
 20
-3.561067
  0
VERTEX
  8
PLAN_1
  6
CONTINUOUS
 10
0.429303
 20
-3.562878
  0
VERTEX
  8
PLAN_1
  6
CONTINUOUS
 10
0.432472
 20
-3.564236
  0
VERTEX
  8
PLAN_1
  6
CONTINUOUS
 10
0.435642
 20
-3.565594
  0
VERTEX
  8
PLAN_1
  6
CONTINUOUS
 10
0.439264
 20
-3.566953
  0
VERTEX
  8
PLAN_1
  6
CONTINUOUS
 10
0.442886
 20
-3.568311
  0
VERTEX
  8
PLAN_1
  6
CONTINUOUS
 10
0.446508
 20
-3.569217
  0
VERTEX
  8
PLAN_1
  6
CONTINUOUS
 10
0.454657
 20
-3.570122
  0
VERTEX
  8
PLAN_1
  6
CONTINUOUS
 10
0.463713
 20
-3.570575
  0
VERTEX
  8
PLAN_1
  6
CONTINUOUS
 10
0.466882
 20
-3.570575
  0
VERTEX
  8
PLAN_1
  6
CONTINUOUS
 10
0.470957
 20
-3.570122
  0
VERTEX
  8
PLAN_1
  6
CONTINUOUS
 10
0.474579
 20
-3.569669
  0
VERTEX
  8
PLAN_1
  6
CONTINUOUS
 10
0.478654
 20
-3.568764
  0
VERTEX
  8
PLAN_1
  6
CONTINUOUS
 10
0.482728
 20
-3.567406
  0
VERTEX
  8
PLAN_1
  6
CONTINUOUS
 10
0.486803
 20
-3.565594
  0
VERTEX
  8
PLAN_1
  6
CONTINUOUS
 10
0.491331
 20
-3.563331
  0
VERTEX
  8
PLAN_1
  6
CONTINUOUS
 10
0.495406
 20
-3.560614
  0
VERTEX
  8
PLAN_1
  6
CONTINUOUS
 10
0.499480
 20
-3.557445
  0
VERTEX
  8
PLAN_1
  6
CONTINUOUS
 10
0.503102
 20
-3.553823
  0
VERTEX
  8
PLAN_1
  6
CONTINUOUS
 10
0.506724
 20
-3.549295
  0
VERTEX
  8
PLAN_1
  6
CONTINUOUS
 10
0.510346
 20
-3.544315
  0
VERTEX
  8
PLAN_1
  6
CONTINUOUS
 10
0.513516
 20
-3.538429
  0
VERTEX
  8
PLAN_1
  6
CONTINUOUS
 10
0.516232
 20
-3.531638
  0
VERTEX
  8
PLAN_1
  6
CONTINUOUS
 10
0.518496
 20
-3.524394
  0
VERTEX
  8
PLAN_1
  6
CONTINUOUS
 10
0.520760
 20
-3.516244
  0
VERTEX
  8
PLAN_1
  6
CONTINUOUS
 10
0.546563
 20
-3.516244
  0
VERTEX
  8
PLAN_1
  6
CONTINUOUS
 10
0.545657
 20
-3.523035
  0
VERTEX
  8
PLAN_1
  6
CONTINUOUS
 10
0.543846
 20
-3.529374
  0
VERTEX
  8
PLAN_1
  6
CONTINUOUS
 10
0.542488
 20
-3.535260
  0
VERTEX
  8
PLAN_1
  6
CONTINUOUS
 10
0.540224
 20
-3.541146
  0
VERTEX
  8
PLAN_1
  6
CONTINUOUS
 10
0.537961
 20
-3.546126
  0
VERTEX
  8
PLAN_1
  6
CONTINUOUS
 10
0.535697
 20
-3.551106
  0
VERTEX
  8
PLAN_1
  6
CONTINUOUS
 10
0.533433
 20
-3.555634
  0
VERTEX
  8
PLAN_1
  6
CONTINUOUS
 10
0.530264
 20
-3.560161
  0
VERTEX
  8
PLAN_1
  6
CONTINUOUS
 10
0.527547
 20
-3.563783
  0
VERTEX
  8
PLAN_1
  6
CONTINUOUS
 10
0.524382
 20
-3.567406
  0
VERTEX
  8
PLAN_1
  6
CONTINUOUS
 10
0.521213
 20
-3.571028
  0
VERTEX
  8
PLAN_1
  6
CONTINUOUS
 10
0.518043
 20
-3.573744
  0
VERTEX
  8
PLAN_1
  6
CONTINUOUS
 10
0.514874
 20
-3.576913
  0
VERTEX
  8
PLAN_1
  6
CONTINUOUS
 10
0.511252
 20
-3.579177
  0
VERTEX
  8
PLAN_1
  6
CONTINUOUS
 10
0.508083
 20
-3.581441
  0
VERTEX
  8
PLAN_1
  6
CONTINUOUS
 10
0.504461
 20
-3.583705
  0
VERTEX
  8
PLAN_1
  6
CONTINUOUS
 10
0.497669
 20
-3.586874
  0
VERTEX
  8
PLAN_1
  6
CONTINUOUS
 10
0.490878
 20
-3.589591
  0
VERTEX
  8
PLAN_1
  6
CONTINUOUS
 10
0.484087
 20
-3.591402
  0
VERTEX
  8
PLAN_1
  6
CONTINUOUS
 10
0.477748
 20
-3.592760
  0
VERTEX
  8
PLAN_1
  6
CONTINUOUS
 10
0.467335
 20
-3.594118
  0
VERTEX
  8
PLAN_1
  6
CONTINUOUS
 10
0.459638
 20
-3.594571
  0
VERTEX
  8
PLAN_1
  6
CONTINUOUS
 10
0.451035
 20
-3.594118
  0
VERTEX
  8
PLAN_1
  6
CONTINUOUS
 10
0.442886
 20
-3.593213
  0
VERTEX
  8
PLAN_1
  6
CONTINUOUS
 10
0.434283
 20
-3.591402
  0
VERTEX
  8
PLAN_1
  6
CONTINUOUS
 10
0.426587
 20
-3.588685
  0
VERTEX
  8
PLAN_1
  6
CONTINUOUS
 10
0.418890
 20
-3.585516
  0
VERTEX
  8
PLAN_1
  6
CONTINUOUS
 10
0.411193
 20
-3.581441
  0
VERTEX
  8
PLAN_1
  6
CONTINUOUS
 10
0.407571
 20
-3.578724
  0
VERTEX
  8
PLAN_1
  6
CONTINUOUS
 10
0.404402
 20
-3.576008
  0
VERTEX
  8
PLAN_1
  6
CONTINUOUS
 10
0.400780
 20
-3.573291
  0
VERTEX
  8
PLAN_1
  6
CONTINUOUS
 10
0.397610
 20
-3.570122
  0
VERTEX
  8
PLAN_1
  6
CONTINUOUS
 10
0.394441
 20
-3.566953
  0
VERTEX
  8
PLAN_1
  6
CONTINUOUS
 10
0.391724
 20
-3.563331
  0
VERTEX
  8
PLAN_1
  6
CONTINUOUS
 10
0.389008
 20
-3.559709
  0
VERTEX
  8
PLAN_1
  6
CONTINUOUS
 10
0.386291
 20
-3.555634
  0
VERTEX
  8
PLAN_1
  6
CONTINUOUS
 10
0.384028
 20
-3.551559
  0
VERTEX
  8
PLAN_1
  6
CONTINUOUS
 10
0.381764
 20
-3.547031
  0
VERTEX
  8
PLAN_1
  6
CONTINUOUS
 10
0.379500
 20
-3.542504
  0
VERTEX
  8
PLAN_1
  6
CONTINUOUS
 10
0.377689
 20
-3.537524
  0
VERTEX
  8
PLAN_1
  6
CONTINUOUS
 10
0.375878
 20
-3.532091
  0
VERTEX
  8
PLAN_1
  6
CONTINUOUS
 10
0.374067
 20
-3.526657
  0
VERTEX
  8
PLAN_1
  6
CONTINUOUS
 10
0.373161
 20
-3.521224
  0
VERTEX
  8
PLAN_1
  6
CONTINUOUS
 10
0.371803
 20
-3.514886
  0
VERTEX
  8
PLAN_1
  6
CONTINUOUS
 10
0.370898
 20
-3.509000
  0
VERTEX
  8
PLAN_1
  6
CONTINUOUS
 10
0.370445
 20
-3.502209
  0
VERTEX
  8
PLAN_1
  6
CONTINUOUS
 10
0.369992
 20
-3.495417
  0
VERTEX
  8
PLAN_1
  6
CONTINUOUS
 10
0.369992
 20
-3.488626
  0
VERTEX
  8
PLAN_1
  6
CONTINUOUS
 10
0.370445
 20
-3.477307
  0
VERTEX
  8
PLAN_1
  6
CONTINUOUS
 10
0.371350
 20
-3.466441
  0
VERTEX
  8
PLAN_1
  6
CONTINUOUS
 10
0.373614
 20
-3.456031
  0
VERTEX
  8
PLAN_1
  6
CONTINUOUS
 10
0.376331
 20
-3.446524
  0
VERTEX
  8
PLAN_1
  6
CONTINUOUS
 10
0.377689
 20
-3.441996
  0
VERTEX
  8
PLAN_1
  6
CONTINUOUS
 10
0.379953
 20
-3.437469
  0
VERTEX
  8
PLAN_1
  6
CONTINUOUS
 10
0.381764
 20
-3.432941
  0
VERTEX
  8
PLAN_1
  6
CONTINUOUS
 10
0.384028
 20
-3.428866
  0
VERTEX
  8
PLAN_1
  6
CONTINUOUS
 10
0.386291
 20
-3.424791
  0
VERTEX
  8
PLAN_1
  6
CONTINUOUS
 10
0.389008
 20
-3.420717
  0
VERTEX
  8
PLAN_1
  6
CONTINUOUS
 10
0.391724
 20
-3.417094
  0
VERTEX
  8
PLAN_1
  6
CONTINUOUS
 10
0.394441
 20
-3.413472
  0
VERTEX
  8
PLAN_1
  6
CONTINUOUS
 10
0.397610
 20
-3.410303
  0
VERTEX
  8
PLAN_1
  6
CONTINUOUS
 10
0.400780
 20
-3.407134
  0
VERTEX
  8
PLAN_1
  6
CONTINUOUS
 10
0.404402
 20
-3.404417
  0
VERTEX
  8
PLAN_1
  6
CONTINUOUS
 10
0.408024
 20
-3.401248
  0
VERTEX
  8
PLAN_1
  6
CONTINUOUS
 10
0.411646
 20
-3.398984
  0
VERTEX
  8
PLAN_1
  6
CONTINUOUS
 10
0.415720
 20
-3.396268
  0
VERTEX
  8
PLAN_1
  6
CONTINUOUS
 10
0.419795
 20
-3.394457
  0
VERTEX
  8
PLAN_1
  6
CONTINUOUS
 10
0.423870
 20
-3.392193
  0
VERTEX
  8
PLAN_1
  6
CONTINUOUS
 10
0.428398
 20
-3.390382
  0
VERTEX
  8
PLAN_1
  6
CONTINUOUS
 10
0.432925
 20
-3.389024
  0
VERTEX
  8
PLAN_1
  6
CONTINUOUS
 10
0.437453
 20
-3.387665
  0
VERTEX
  8
PLAN_1
  6
CONTINUOUS
 10
0.441980
 20
-3.386760
  0
VERTEX
  8
PLAN_1
  6
CONTINUOUS
 10
0.446961
 20
-3.385854
  0
VERTEX
  8
PLAN_1
  6
CONTINUOUS
 10
0.452394
 20
-3.385402
  0
VERTEX
  8
PLAN_1
  6
CONTINUOUS
 10
0.457374
 20
-3.384949
  0
VERTEX
  8
PLAN_1
  6
CONTINUOUS
 10
0.462807
 20
-3.384949
  0
VERTEX
  8
PLAN_1
  6
CONTINUOUS
 10
0.472315
 20
-3.384949
  0
VERTEX
  8
PLAN_1
  6
CONTINUOUS
 10
0.480917
 20
-3.386307
  0
VERTEX
  8
PLAN_1
  6
CONTINUOUS
 10
0.489067
 20
-3.388118
  0
VERTEX
  8
PLAN_1
  6
CONTINUOUS
 10
0.496764
 20
-3.390382
  0
VERTEX
  8
PLAN_1
  6
CONTINUOUS
 10
0.504008
 20
-3.393098
  0
VERTEX
  8
PLAN_1
  6
CONTINUOUS
 10
0.510346
 20
-3.396720
  0
VERTEX
  8
PLAN_1
  6
CONTINUOUS
 10
0.516232
 20
-3.400343
  0
VERTEX
  8
PLAN_1
  6
CONTINUOUS
 10
0.521665
 20
-3.404870
  0
VERTEX
  8
PLAN_1
  6
CONTINUOUS
 10
0.526189
 20
-3.409398
  0
VERTEX
  8
PLAN_1
  6
CONTINUOUS
 10
0.530717
 20
-3.414831
  0
VERTEX
  8
PLAN_1
  6
CONTINUOUS
 10
0.534339
 20
-3.420264
  0
VERTEX
  8
PLAN_1
  6
CONTINUOUS
 10
0.537508
 20
-3.425697
  0
VERTEX
  8
PLAN_1
  6
CONTINUOUS
 10
0.540224
 20
-3.431583
  0
VERTEX
  8
PLAN_1
  6
CONTINUOUS
 10
0.542035
 20
-3.437469
  0
VERTEX
  8
PLAN_1
  6
CONTINUOUS
 10
0.543846
 20
-3.443807
  0
VERTEX
  8
PLAN_1
  6
CONTINUOUS
 10
0.544752
 20
-3.450146
  0
VERTEX
  8
PLAN_1
  6
CONTINUOUS
 10
0.518496
 20
-3.450146
  0
SEQEND
  8
0
  0
POLYLINE
  8
PLAN_1
  6
CONTINUOUS
 66
     1
 40
0.003000
 41
0.003000
  0
VERTEX
  8
PLAN_1
  6
CONTINUOUS
 10
0.606327
 20
-3.589138
  0
VERTEX
  8
PLAN_1
  6
CONTINUOUS
 10
0.579161
 20
-3.589138
  0
VERTEX
  8
PLAN_1
  6
CONTINUOUS
 10
0.579161
 20
-3.389929
  0
VERTEX
  8
PLAN_1
  6
CONTINUOUS
 10
0.606327
 20
-3.389929
  0
VERTEX
  8
PLAN_1
  6
CONTINUOUS
 10
0.606327
 20
-3.486815
  0
VERTEX
  8
PLAN_1
  6
CONTINUOUS
 10
0.702764
 20
-3.389929
  0
VERTEX
  8
PLAN_1
  6
CONTINUOUS
 10
0.739890
 20
-3.389929
  0
VERTEX
  8
PLAN_1
  6
CONTINUOUS
 10
0.657035
 20
-3.470516
  0
VERTEX
  8
PLAN_1
  6
CONTINUOUS
 10
0.742154
 20
-3.589138
  0
VERTEX
  8
PLAN_1
  6
CONTINUOUS
 10
0.707291
 20
-3.589138
  0
VERTEX
  8
PLAN_1
  6
CONTINUOUS
 10
0.637567
 20
-3.489531
  0
VERTEX
  8
PLAN_1
  6
CONTINUOUS
 10
0.606327
 20
-3.519413
  0
VERTEX
  8
PLAN_1
  6
CONTINUOUS
 10
0.606327
 20
-3.589138
  0
SEQEND
  8
0
  0
POLYLINE
  8
PLAN_1
  6
CONTINUOUS
 66
     1
 40
0.003000
 41
0.003000
  0
VERTEX
  8
PLAN_1
  6
CONTINUOUS
 10
0.884768
 20
-3.448335
  0
VERTEX
  8
PLAN_1
  6
CONTINUOUS
 10
0.884315
 20
-3.442902
  0
VERTEX
  8
PLAN_1
  6
CONTINUOUS
 10
0.882957
 20
-3.437921
  0
VERTEX
  8
PLAN_1
  6
CONTINUOUS
 10
0.881598
 20
-3.432941
  0
VERTEX
  8
PLAN_1
  6
CONTINUOUS
 10
0.879335
 20
-3.428866
  0
VERTEX
  8
PLAN_1
  6
CONTINUOUS
 10
0.877071
 20
-3.425244
  0
VERTEX
  8
PLAN_1
  6
CONTINUOUS
 10
0.874354
 20
-3.422075
  0
VERTEX
  8
PLAN_1
  6
CONTINUOUS
 10
0.871185
 20
-3.418906
  0
VERTEX
  8
PLAN_1
  6
CONTINUOUS
 10
0.868016
 20
-3.416642
  0
VERTEX
  8
PLAN_1
  6
CONTINUOUS
 10
0.864394
 20
-3.414378
  0
VERTEX
  8
PLAN_1
  6
CONTINUOUS
 10
0.860319
 20
-3.412567
  0
VERTEX
  8
PLAN_1
  6
CONTINUOUS
 10
0.856244
 20
-3.410756
  0
VERTEX
  8
PLAN_1
  6
CONTINUOUS
 10
0.852169
 20
-3.409850
  0
VERTEX
  8
PLAN_1
  6
CONTINUOUS
 10
0.848094
 20
-3.408945
  0
VERTEX
  8
PLAN_1
  6
CONTINUOUS
 10
0.843567
 20
-3.408039
  0
VERTEX
  8
PLAN_1
  6
CONTINUOUS
 10
0.839492
 20
-3.408039
  0
VERTEX
  8
PLAN_1
  6
CONTINUOUS
 10
0.835417
 20
-3.407587
  0
VERTEX
  8
PLAN_1
  6
CONTINUOUS
 10
0.828626
 20
-3.408039
  0
VERTEX
  8
PLAN_1
  6
CONTINUOUS
 10
0.820933
 20
-3.408945
  0
VERTEX
  8
PLAN_1
  6
CONTINUOUS
 10
0.817311
 20
-3.409850
  0
VERTEX
  8
PLAN_1
  6
CONTINUOUS
 10
0.813236
 20
-3.410756
  0
VERTEX
  8
PLAN_1
  6
CONTINUOUS
 10
0.809614
 20
-3.412114
  0
VERTEX
  8
PLAN_1
  6
CONTINUOUS
 10
0.805992
 20
-3.413925
  0
VERTEX
  8
PLAN_1
  6
CONTINUOUS
 10
0.802823
 20
-3.416189
  0
VERTEX
  8
PLAN_1
  6
CONTINUOUS
 10
0.799654
 20
-3.418453
  0
VERTEX
  8
PLAN_1
  6
CONTINUOUS
 10
0.796937
 20
-3.421169
  0
VERTEX
  8
PLAN_1
  6
CONTINUOUS
 10
0.794673
 20
-3.424339
  0
VERTEX
  8
PLAN_1
  6
CONTINUOUS
 10
0.792409
 20
-3.428413
  0
VERTEX
  8
PLAN_1
  6
CONTINUOUS
 10
0.791051
 20
-3.432488
  0
VERTEX
  8
PLAN_1
  6
CONTINUOUS
 10
0.790146
 20
-3.437469
  0
VERTEX
  8
PLAN_1
  6
CONTINUOUS
 10
0.789693
 20
-3.442902
  0
VERTEX
  8
PLAN_1
  6
CONTINUOUS
 10
0.789693
 20
-3.445618
  0
VERTEX
  8
PLAN_1
  6
CONTINUOUS
 10
0.790146
 20
-3.448787
  0
VERTEX
  8
PLAN_1
  6
CONTINUOUS
 10
0.791051
 20
-3.451051
  0
VERTEX
  8
PLAN_1
  6
CONTINUOUS
 10
0.791957
 20
-3.453315
  0
VERTEX
  8
PLAN_1
  6
CONTINUOUS
 10
0.792862
 20
-3.455579
  0
VERTEX
  8
PLAN_1
  6
CONTINUOUS
 10
0.794220
 20
-3.457390
  0
VERTEX
  8
PLAN_1
  6
CONTINUOUS
 10
0.795579
 20
-3.459197
  0
VERTEX
  8
PLAN_1
  6
CONTINUOUS
 10
0.797390
 20
-3.460555
  0
VERTEX
  8
PLAN_1
  6
CONTINUOUS
 10
0.800559
 20
-3.463272
  0
VERTEX
  8
PLAN_1
  6
CONTINUOUS
 10
0.804634
 20
-3.465083
  0
VERTEX
  8
PLAN_1
  6
CONTINUOUS
 10
0.809161
 20
-3.466894
  0
VERTEX
  8
PLAN_1
  6
CONTINUOUS
 10
0.813236
 20
-3.467799
  0
VERTEX
  8
PLAN_1
  6
CONTINUOUS
 10
0.870280
 20
-3.480929
  0
VERTEX
  8
PLAN_1
  6
CONTINUOUS
 10
0.874807
 20
-3.482287
  0
VERTEX
  8
PLAN_1
  6
CONTINUOUS
 10
0.879787
 20
-3.483646
  0
VERTEX
  8
PLAN_1
  6
CONTINUOUS
 10
0.883862
 20
-3.485457
  0
VERTEX
  8
PLAN_1
  6
CONTINUOUS
 10
0.888390
 20
-3.487720
  0
VERTEX
  8
PLAN_1
  6
CONTINUOUS
 10
0.892012
 20
-3.489531
  0
VERTEX
  8
PLAN_1
  6
CONTINUOUS
 10
0.896087
 20
-3.492248
  0
VERTEX
  8
PLAN_1
  6
CONTINUOUS
 10
0.899256
 20
-3.494965
  0
VERTEX
  8
PLAN_1
  6
CONTINUOUS
 10
0.902425
 20
-3.498134
  0
VERTEX
  8
PLAN_1
  6
CONTINUOUS
 10
0.905594
 20
-3.501303
  0
VERTEX
  8
PLAN_1
  6
CONTINUOUS
 10
0.907858
 20
-3.505378
  0
VERTEX
  8
PLAN_1
  6
CONTINUOUS
 10
0.910122
 20
-3.509000
  0
VERTEX
  8
PLAN_1
  6
CONTINUOUS
 10
0.911933
 20
-3.513528
  0
VERTEX
  8
PLAN_1
  6
CONTINUOUS
 10
0.913291
 20
-3.518055
  0
VERTEX
  8
PLAN_1
  6
CONTINUOUS
 10
0.914650
 20
-3.523035
  0
VERTEX
  8
PLAN_1
  6
CONTINUOUS
 10
0.915102
 20
-3.528469
  0
VERTEX
  8
PLAN_1
  6
CONTINUOUS
 10
0.915555
 20
-3.534354
  0
VERTEX
  8
PLAN_1
  6
CONTINUOUS
 10
0.915555
 20
-3.538882
  0
VERTEX
  8
PLAN_1
  6
CONTINUOUS
 10
0.915102
 20
-3.542957
  0
VERTEX
  8
PLAN_1
  6
CONTINUOUS
 10
0.914197
 20
-3.546579
  0
VERTEX
  8
PLAN_1
  6
CONTINUOUS
 10
0.913744
 20
-3.550654
  0
VERTEX
  8
PLAN_1
  6
CONTINUOUS
 10
0.912386
 20
-3.554276
  0
VERTEX
  8
PLAN_1
  6
CONTINUOUS
 10
0.911028
 20
-3.557445
  0
VERTEX
  8
PLAN_1
  6
CONTINUOUS
 10
0.909669
 20
-3.560614
  0
VERTEX
  8
PLAN_1
  6
CONTINUOUS
 10
0.908311
 20
-3.563783
  0
VERTEX
  8
PLAN_1
  6
CONTINUOUS
 10
0.904236
 20
-3.569217
  0
VERTEX
  8
PLAN_1
  6
CONTINUOUS
 10
0.899709
 20
-3.574197
  0
VERTEX
  8
PLAN_1
  6
CONTINUOUS
 10
0.894728
 20
-3.578272
  0
VERTEX
  8
PLAN_1
  6
CONTINUOUS
 10
0.889295
 20
-3.582346
  0
VERTEX
  8
PLAN_1
  6
CONTINUOUS
 10
0.883409
 20
-3.585516
  0
VERTEX
  8
PLAN_1
  6
CONTINUOUS
 10
0.877071
 20
-3.587780
  0
VERTEX
  8
PLAN_1
  6
CONTINUOUS
 10
0.870732
 20
-3.590043
  0
VERTEX
  8
PLAN_1
  6
CONTINUOUS
 10
0.863941
 20
-3.591854
  0
VERTEX
  8
PLAN_1
  6
CONTINUOUS
 10
0.857150
 20
-3.593213
  0
VERTEX
  8
PLAN_1
  6
CONTINUOUS
 10
0.850811
 20
-3.594118
  0
VERTEX
  8
PLAN_1
  6
CONTINUOUS
 10
0.844020
 20
-3.594571
  0
VERTEX
  8
PLAN_1
  6
CONTINUOUS
 10
0.837681
 20
-3.594571
  0
VERTEX
  8
PLAN_1
  6
CONTINUOUS
 10
0.830890
 20
-3.594571
  0
VERTEX
  8
PLAN_1
  6
CONTINUOUS
 10
0.824555
 20
-3.594118
  0
VERTEX
  8
PLAN_1
  6
CONTINUOUS
 10
0.819122
 20
-3.593665
  0
VERTEX
  8
PLAN_1
  6
CONTINUOUS
 10
0.813689
 20
-3.592760
  0
VERTEX
  8
PLAN_1
  6
CONTINUOUS
 10
0.808709
 20
-3.591854
  0
VERTEX
  8
PLAN_1
  6
CONTINUOUS
 10
0.804634
 20
-3.590496
  0
VERTEX
  8
PLAN_1
  6
CONTINUOUS
 10
0.800559
 20
-3.589591
  0
VERTEX
  8
PLAN_1
  6
CONTINUOUS
 10
0.796937
 20
-3.588232
  0
VERTEX
  8
PLAN_1
  6
CONTINUOUS
 10
0.790598
 20
-3.585063
  0
VERTEX
  8
PLAN_1
  6
CONTINUOUS
 10
0.785165
 20
-3.581894
  0
VERTEX
  8
PLAN_1
  6
CONTINUOUS
 10
0.781091
 20
-3.578724
  0
VERTEX
  8
PLAN_1
  6
CONTINUOUS
 10
0.777469
 20
-3.575555
  0
VERTEX
  8
PLAN_1
  6
CONTINUOUS
 10
0.774299
 20
-3.572386
  0
VERTEX
  8
PLAN_1
  6
CONTINUOUS
 10
0.771583
 20
-3.569669
  0
VERTEX
  8
PLAN_1
  6
CONTINUOUS
 10
0.768866
 20
-3.566500
  0
VERTEX
  8
PLAN_1
  6
CONTINUOUS
 10
0.767055
 20
-3.563783
  0
VERTEX
  8
PLAN_1
  6
CONTINUOUS
 10
0.763433
 20
-3.557445
  0
VERTEX
  8
PLAN_1
  6
CONTINUOUS
 10
0.760717
 20
-3.551559
  0
VERTEX
  8
PLAN_1
  6
CONTINUOUS
 10
0.758906
 20
-3.545220
  0
VERTEX
  8
PLAN_1
  6
CONTINUOUS
 10
0.757547
 20
-3.538429
  0
VERTEX
  8
PLAN_1
  6
CONTINUOUS
 10
0.757094
 20
-3.531638
  0
VERTEX
  8
PLAN_1
  6
CONTINUOUS
 10
0.757094
 20
-3.524846
  0
VERTEX
  8
PLAN_1
  6
CONTINUOUS
 10
0.782449
 20
-3.524846
  0
VERTEX
  8
PLAN_1
  6
CONTINUOUS
 10
0.782449
 20
-3.531185
  0
VERTEX
  8
PLAN_1
  6
CONTINUOUS
 10
0.783354
 20
-3.537071
  0
VERTEX
  8
PLAN_1
  6
CONTINUOUS
 10
0.785165
 20
-3.542504
  0
VERTEX
  8
PLAN_1
  6
CONTINUOUS
 10
0.787429
 20
-3.547484
  0
VERTEX
  8
PLAN_1
  6
CONTINUOUS
 10
0.789693
 20
-3.551559
  0
VERTEX
  8
PLAN_1
  6
CONTINUOUS
 10
0.792862
 20
-3.555634
  0
VERTEX
  8
PLAN_1
  6
CONTINUOUS
 10
0.796484
 20
-3.558803
  0
VERTEX
  8
PLAN_1
  6
CONTINUOUS
 10
0.800106
 20
-3.561972
  0
VERTEX
  8
PLAN_1
  6
CONTINUOUS
 10
0.804181
 20
-3.564236
  0
VERTEX
  8
PLAN_1
  6
CONTINUOUS
 10
0.808709
 20
-3.566500
  0
VERTEX
  8
PLAN_1
  6
CONTINUOUS
 10
0.813236
 20
-3.567858
  0
VERTEX
  8
PLAN_1
  6
CONTINUOUS
 10
0.817764
 20
-3.569217
  0
VERTEX
  8
PLAN_1
  6
CONTINUOUS
 10
0.822744
 20
-3.570122
  0
VERTEX
  8
PLAN_1
  6
CONTINUOUS
 10
0.827720
 20
-3.571028
  0
VERTEX
  8
PLAN_1
  6
CONTINUOUS
 10
0.832248
 20
-3.571480
  0
VERTEX
  8
PLAN_1
  6
CONTINUOUS
 10
0.837228
 20
-3.571480
  0
VERTEX
  8
PLAN_1
  6
CONTINUOUS
 10
0.844925
 20
-3.571480
  0
VERTEX
  8
PLAN_1
  6
CONTINUOUS
 10
0.853528
 20
-3.570122
  0
VERTEX
  8
PLAN_1
  6
CONTINUOUS
 10
0.858055
 20
-3.569669
  0
VERTEX
  8
PLAN_1
  6
CONTINUOUS
 10
0.862130
 20
-3.568311
  0
VERTEX
  8
PLAN_1
  6
CONTINUOUS
 10
0.866657
 20
-3.566953
  0
VERTEX
  8
PLAN_1
  6
CONTINUOUS
 10
0.870732
 20
-3.565594
  0
VERTEX
  8
PLAN_1
  6
CONTINUOUS
 10
0.874354
 20
-3.563331
  0
VERTEX
  8
PLAN_1
  6
CONTINUOUS
 10
0.877976
 20
-3.561067
  0
VERTEX
  8
PLAN_1
  6
CONTINUOUS
 10
0.881146
 20
-3.558350
  0
VERTEX
  8
PLAN_1
  6
CONTINUOUS
 10
0.883862
 20
-3.555181
  0
VERTEX
  8
PLAN_1
  6
CONTINUOUS
 10
0.886126
 20
-3.551559
  0
VERTEX
  8
PLAN_1
  6
CONTINUOUS
 10
0.887937
 20
-3.547484
  0
VERTEX
  8
PLAN_1
  6
CONTINUOUS
 10
0.888843
 20
-3.542957
  0
VERTEX
  8
PLAN_1
  6
CONTINUOUS
 10
0.889295
 20
-3.537976
  0
VERTEX
  8
PLAN_1
  6
CONTINUOUS
 10
0.889295
 20
-3.534354
  0
VERTEX
  8
PLAN_1
  6
CONTINUOUS
 10
0.888843
 20
-3.530732
  0
VERTEX
  8
PLAN_1
  6
CONTINUOUS
 10
0.888390
 20
-3.527563
  0
VERTEX
  8
PLAN_1
  6
CONTINUOUS
 10
0.887484
 20
-3.524846
  0
VERTEX
  8
PLAN_1
  6
CONTINUOUS
 10
0.886126
 20
-3.522130
  0
VERTEX
  8
PLAN_1
  6
CONTINUOUS
 10
0.884768
 20
-3.519866
  0
VERTEX
  8
PLAN_1
  6
CONTINUOUS
 10
0.882504
 20
-3.517602
  0
VERTEX
  8
PLAN_1
  6
CONTINUOUS
 10
0.880240
 20
-3.515339
  0
VERTEX
  8
PLAN_1
  6
CONTINUOUS
 10
0.877976
 20
-3.513528
  0
VERTEX
  8
PLAN_1
  6
CONTINUOUS
 10
0.874807
 20
-3.511717
  0
VERTEX
  8
PLAN_1
  6
CONTINUOUS
 10
0.871185
 20
-3.510358
  0
VERTEX
  8
PLAN_1
  6
CONTINUOUS
 10
0.867563
 20
-3.508547
  0
VERTEX
  8
PLAN_1
  6
CONTINUOUS
 10
0.858055
 20
-3.505378
  0
VERTEX
  8
PLAN_1
  6
CONTINUOUS
 10
0.846736
 20
-3.502661
  0
VERTEX
  8
PLAN_1
  6
CONTINUOUS
 10
0.805992
 20
-3.493154
  0
VERTEX
  8
PLAN_1
  6
CONTINUOUS
 10
0.800559
 20
-3.491795
  0
VERTEX
  8
PLAN_1
  6
CONTINUOUS
 10
0.793768
 20
-3.489531
  0
VERTEX
  8
PLAN_1
  6
CONTINUOUS
 10
0.790598
 20
-3.488173
  0
VERTEX
  8
PLAN_1
  6
CONTINUOUS
 10
0.786976
 20
-3.486362
  0
VERTEX
  8
PLAN_1
  6
CONTINUOUS
 10
0.783354
 20
-3.484098
  0
VERTEX
  8
PLAN_1
  6
CONTINUOUS
 10
0.780185
 20
-3.481835
  0
VERTEX
  8
PLAN_1
  6
CONTINUOUS
 10
0.776563
 20
-3.478665
  0
VERTEX
  8
PLAN_1
  6
CONTINUOUS
 10
0.773846
 20
-3.475496
  0
VERTEX
  8
PLAN_1
  6
CONTINUOUS
 10
0.770677
 20
-3.471874
  0
VERTEX
  8
PLAN_1
  6
CONTINUOUS
 10
0.768413
 20
-3.467799
  0
VERTEX
  8
PLAN_1
  6
CONTINUOUS
 10
0.766602
 20
-3.463272
  0
VERTEX
  8
PLAN_1
  6
CONTINUOUS
 10
0.764791
 20
-3.458295
  0
VERTEX
  8
PLAN_1
  6
CONTINUOUS
 10
0.763886
 20
-3.452409
  0
VERTEX
  8
PLAN_1
  6
CONTINUOUS
 10
0.763433
 20
-3.446524
  0
VERTEX
  8
PLAN_1
  6
CONTINUOUS
 10
0.763886
 20
-3.440638
  0
VERTEX
  8
PLAN_1
  6
CONTINUOUS
 10
0.764791
 20
-3.434752
  0
VERTEX
  8
PLAN_1
  6
CONTINUOUS
 10
0.765697
 20
-3.429319
  0
VERTEX
  8
PLAN_1
  6
CONTINUOUS
 10
0.767508
 20
-3.423433
  0
VERTEX
  8
PLAN_1
  6
CONTINUOUS
 10
0.769772
 20
-3.418453
  0
VERTEX
  8
PLAN_1
  6
CONTINUOUS
 10
0.772488
 20
-3.413020
  0
VERTEX
  8
PLAN_1
  6
CONTINUOUS
 10
0.776110
 20
-3.408492
  0
VERTEX
  8
PLAN_1
  6
CONTINUOUS
 10
0.779732
 20
-3.403965
  0
VERTEX
  8
PLAN_1
  6
CONTINUOUS
 10
0.784260
 20
-3.399890
  0
VERTEX
  8
PLAN_1
  6
CONTINUOUS
 10
0.789240
 20
-3.396268
  0
VERTEX
  8
PLAN_1
  6
CONTINUOUS
 10
0.795126
 20
-3.392646
  0
VERTEX
  8
PLAN_1
  6
CONTINUOUS
 10
0.801012
 20
-3.389929
  0
VERTEX
  8
PLAN_1
  6
CONTINUOUS
 10
0.807803
 20
-3.387665
  0
VERTEX
  8
PLAN_1
  6
CONTINUOUS
 10
0.815500
 20
-3.386307
  0
VERTEX
  8
PLAN_1
  6
CONTINUOUS
 10
0.823650
 20
-3.384949
  0
VERTEX
  8
PLAN_1
  6
CONTINUOUS
 10
0.832248
 20
-3.384949
  0
VERTEX
  8
PLAN_1
  6
CONTINUOUS
 10
0.838587
 20
-3.384949
  0
VERTEX
  8
PLAN_1
  6
CONTINUOUS
 10
0.844472
 20
-3.385402
  0
VERTEX
  8
PLAN_1
  6
CONTINUOUS
 10
0.850358
 20
-3.385854
  0
VERTEX
  8
PLAN_1
  6
CONTINUOUS
 10
0.855339
 20
-3.386760
  0
VERTEX
  8
PLAN_1
  6
CONTINUOUS
 10
0.860319
 20
-3.387665
  0
VERTEX
  8
PLAN_1
  6
CONTINUOUS
 10
0.865299
 20
-3.388571
  0
VERTEX
  8
PLAN_1
  6
CONTINUOUS
 10
0.869374
 20
-3.389929
  0
VERTEX
  8
PLAN_1
  6
CONTINUOUS
 10
0.873449
 20
-3.391740
  0
VERTEX
  8
PLAN_1
  6
CONTINUOUS
 10
0.877524
 20
-3.393098
  0
VERTEX
  8
PLAN_1
  6
CONTINUOUS
 10
0.880693
 20
-3.394909
  0
VERTEX
  8
PLAN_1
  6
CONTINUOUS
 10
0.884315
 20
-3.397173
  0
VERTEX
  8
PLAN_1
  6
CONTINUOUS
 10
0.887031
 20
-3.398984
  0
VERTEX
  8
PLAN_1
  6
CONTINUOUS
 10
0.892465
 20
-3.403512
  0
VERTEX
  8
PLAN_1
  6
CONTINUOUS
 10
0.896992
 20
-3.408492
  0
VERTEX
  8
PLAN_1
  6
CONTINUOUS
 10
0.900161
 20
-3.413472
  0
VERTEX
  8
PLAN_1
  6
CONTINUOUS
 10
0.903331
 20
-3.418453
  0
VERTEX
  8
PLAN_1
  6
CONTINUOUS
 10
0.905594
 20
-3.423886
  0
VERTEX
  8
PLAN_1
  6
CONTINUOUS
 10
0.906953
 20
-3.429319
  0
VERTEX
  8
PLAN_1
  6
CONTINUOUS
 10
0.908311
 20
-3.434299
  0
VERTEX
  8
PLAN_1
  6
CONTINUOUS
 10
0.909217
 20
-3.439280
  0
VERTEX
  8
PLAN_1
  6
CONTINUOUS
 10
0.909669
 20
-3.443807
  0
VERTEX
  8
PLAN_1
  6
CONTINUOUS
 10
0.910122
 20
-3.448335
  0
VERTEX
  8
PLAN_1
  6
CONTINUOUS
 10
0.884768
 20
-3.448335
  0
SEQEND
  8
0
  0
POLYLINE
  8
PLAN_1
  6
CONTINUOUS
 66
     1
 40
0.003000
 41
0.003000
  0
VERTEX
  8
PLAN_1
  6
CONTINUOUS
 10
1.112504
 20
-3.435205
  0
VERTEX
  8
PLAN_1
  6
CONTINUOUS
 10
1.131063
 20
-3.435205
  0
VERTEX
  8
PLAN_1
  6
CONTINUOUS
 10
1.126992
 20
-3.449693
  0
VERTEX
  8
PLAN_1
  6
CONTINUOUS
 10
1.122917
 20
-3.464630
  0
VERTEX
  8
PLAN_1
  6
CONTINUOUS
 10
1.118843
 20
-3.478665
  0
VERTEX
  8
PLAN_1
  6
CONTINUOUS
 10
1.114768
 20
-3.491795
  0
VERTEX
  8
PLAN_1
  6
CONTINUOUS
 10
1.111598
 20
-3.503567
  0
VERTEX
  8
PLAN_1
  6
CONTINUOUS
 10
1.108882
 20
-3.513528
  0
VERTEX
  8
PLAN_1
  6
CONTINUOUS
 10
1.107071
 20
-3.521224
  0
VERTEX
  8
PLAN_1
  6
CONTINUOUS
 10
1.106165
 20
-3.525299
  0
VERTEX
  8
PLAN_1
  6
CONTINUOUS
 10
1.106165
 20
-3.527110
  0
VERTEX
  8
PLAN_1
  6
CONTINUOUS
 10
1.106618
 20
-3.528921
  0
VERTEX
  8
PLAN_1
  6
CONTINUOUS
 10
1.107071
 20
-3.530280
  0
VERTEX
  8
PLAN_1
  6
CONTINUOUS
 10
1.107524
 20
-3.531638
  0
VERTEX
  8
PLAN_1
  6
CONTINUOUS
 10
1.108429
 20
-3.532543
  0
VERTEX
  8
PLAN_1
  6
CONTINUOUS
 10
1.109335
 20
-3.532996
  0
VERTEX
  8
PLAN_1
  6
CONTINUOUS
 10
1.110693
 20
-3.533449
  0
VERTEX
  8
PLAN_1
  6
CONTINUOUS
 10
1.112051
 20
-3.533449
  0
VERTEX
  8
PLAN_1
  6
CONTINUOUS
 10
1.115673
 20
-3.532996
  0
VERTEX
  8
PLAN_1
  6
CONTINUOUS
 10
1.119295
 20
-3.532091
  0
VERTEX
  8
PLAN_1
  6
CONTINUOUS
 10
1.122917
 20
-3.530732
  0
VERTEX
  8
PLAN_1
  6
CONTINUOUS
 10
1.126087
 20
-3.528469
  0
VERTEX
  8
PLAN_1
  6
CONTINUOUS
 10
1.129705
 20
-3.525752
  0
VERTEX
  8
PLAN_1
  6
CONTINUOUS
 10
1.132874
 20
-3.522583
  0
VERTEX
  8
PLAN_1
  6
CONTINUOUS
 10
1.136043
 20
-3.518508
  0
VERTEX
  8
PLAN_1
  6
CONTINUOUS
 10
1.138760
 20
-3.514886
  0
VERTEX
  8
PLAN_1
  6
CONTINUOUS
 10
1.141476
 20
-3.510358
  0
VERTEX
  8
PLAN_1
  6
CONTINUOUS
 10
1.144193
 20
-3.505378
  0
VERTEX
  8
PLAN_1
  6
CONTINUOUS
 10
1.146004
 20
-3.500850
  0
VERTEX
  8
PLAN_1
  6
CONTINUOUS
 10
1.147815
 20
-3.495417
  0
VERTEX
  8
PLAN_1
  6
CONTINUOUS
 10
1.149626
 20
-3.489984
  0
VERTEX
  8
PLAN_1
  6
CONTINUOUS
 10
1.150531
 20
-3.484551
  0
VERTEX
  8
PLAN_1
  6
CONTINUOUS
 10
1.151437
 20
-3.479118
  0
VERTEX
  8
PLAN_1
  6
CONTINUOUS
 10
1.151437
 20
-3.473685
  0
VERTEX
  8
PLAN_1
  6
CONTINUOUS
 10
1.150984
 20
-3.465535
  0
VERTEX
  8
PLAN_1
  6
CONTINUOUS
 10
1.150079
 20
-3.457843
  0
VERTEX
  8
PLAN_1
  6
CONTINUOUS
 10
1.147815
 20
-3.450598
  0
VERTEX
  8
PLAN_1
  6
CONTINUOUS
 10
1.145098
 20
-3.443807
  0
VERTEX
  8
PLAN_1
  6
CONTINUOUS
 10
1.141929
 20
-3.437469
  0
VERTEX
  8
PLAN_1
  6
CONTINUOUS
 10
1.137854
 20
-3.431583
  0
VERTEX
  8
PLAN_1
  6
CONTINUOUS
 10
1.133327
 20
-3.426150
  0
VERTEX
  8
PLAN_1
  6
CONTINUOUS
 10
1.128346
 20
-3.421169
  0
VERTEX
  8
PLAN_1
  6
CONTINUOUS
 10
1.122917
 20
-3.416642
  0
VERTEX
  8
PLAN_1
  6
CONTINUOUS
 10
1.117031
 20
-3.413020
  0
VERTEX
  8
PLAN_1
  6
CONTINUOUS
 10
1.110693
 20
-3.409398
  0
VERTEX
  8
PLAN_1
  6
CONTINUOUS
 10
1.103902
 20
-3.406681
  0
VERTEX
  8
PLAN_1
  6
CONTINUOUS
 10
1.096657
 20
-3.404870
  0
VERTEX
  8
PLAN_1
  6
CONTINUOUS
 10
1.089413
 20
-3.403059
  0
VERTEX
  8
PLAN_1
  6
CONTINUOUS
 10
1.081717
 20
-3.402154
  0
VERTEX
  8
PLAN_1
  6
CONTINUOUS
 10
1.074020
 20
-3.402154
  0
VERTEX
  8
PLAN_1
  6
CONTINUOUS
 10
1.069492
 20
-3.402154
  0
VERTEX
  8
PLAN_1
  6
CONTINUOUS
 10
1.064965
 20
-3.402606
  0
VERTEX
  8
PLAN_1
  6
CONTINUOUS
 10
1.060437
 20
-3.403059
  0
VERTEX
  8
PLAN_1
  6
CONTINUOUS
 10
1.056362
 20
-3.403965
  0
VERTEX
  8
PLAN_1
  6
CONTINUOUS
 10
1.047760
 20
-3.405776
  0
VERTEX
  8
PLAN_1
  6
CONTINUOUS
 10
1.040063
 20
-3.408945
  0
VERTEX
  8
PLAN_1
  6
CONTINUOUS
 10
1.032819
 20
-3.412567
  0
VERTEX
  8
PLAN_1
  6
CONTINUOUS
 10
1.025575
 20
-3.417094
  0
VERTEX
  8
PLAN_1
  6
CONTINUOUS
 10
1.019236
 20
-3.422075
  0
VERTEX
  8
PLAN_1
  6
CONTINUOUS
 10
1.013350
 20
-3.427961
  0
VERTEX
  8
PLAN_1
  6
CONTINUOUS
 10
1.007917
 20
-3.434299
  0
VERTEX
  8
PLAN_1
  6
CONTINUOUS
 10
1.003390
 20
-3.441091
  0
VERTEX
  8
PLAN_1
  6
CONTINUOUS
 10
0.999315
 20
-3.448335
  0
VERTEX
  8
PLAN_1
  6
CONTINUOUS
 10
0.996146
 20
-3.456031
  0
VERTEX
  8
PLAN_1
  6
CONTINUOUS
 10
0.993429
 20
-3.464177
  0
VERTEX
  8
PLAN_1
  6
CONTINUOUS
 10
0.991165
 20
-3.472780
  0
VERTEX
  8
PLAN_1
  6
CONTINUOUS
 10
0.990260
 20
-3.481835
  0
VERTEX
  8
PLAN_1
  6
CONTINUOUS
 10
0.989807
 20
-3.490890
  0
VERTEX
  8
PLAN_1
  6
CONTINUOUS
 10
0.990260
 20
-3.499945
  0
VERTEX
  8
PLAN_1
  6
CONTINUOUS
 10
0.991618
 20
-3.508547
  0
VERTEX
  8
PLAN_1
  6
CONTINUOUS
 10
0.993429
 20
-3.517150
  0
VERTEX
  8
PLAN_1
  6
CONTINUOUS
 10
0.996146
 20
-3.524846
  0
VERTEX
  8
PLAN_1
  6
CONTINUOUS
 10
0.999768
 20
-3.532543
  0
VERTEX
  8
PLAN_1
  6
CONTINUOUS
 10
1.004295
 20
-3.539787
  0
VERTEX
  8
PLAN_1
  6
CONTINUOUS
 10
1.009276
 20
-3.546579
  0
VERTEX
  8
PLAN_1
  6
CONTINUOUS
 10
1.014709
 20
-3.552465
  0
VERTEX
  8
PLAN_1
  6
CONTINUOUS
 10
1.020594
 20
-3.557898
  0
VERTEX
  8
PLAN_1
  6
CONTINUOUS
 10
1.027386
 20
-3.562878
  0
VERTEX
  8
PLAN_1
  6
CONTINUOUS
 10
1.034630
 20
-3.567406
  0
VERTEX
  8
PLAN_1
  6
CONTINUOUS
 10
1.041874
 20
-3.570575
  0
VERTEX
  8
PLAN_1
  6
CONTINUOUS
 10
1.050024
 20
-3.573744
  0
VERTEX
  8
PLAN_1
  6
CONTINUOUS
 10
1.058173
 20
-3.575555
  0
VERTEX
  8
PLAN_1
  6
CONTINUOUS
 10
1.067228
 20
-3.576913
  0
VERTEX
  8
PLAN_1
  6
CONTINUOUS
 10
1.075831
 20
-3.577366
  0
VERTEX
  8
PLAN_1
  6
CONTINUOUS
 10
1.080811
 20
-3.577366
  0
VERTEX
  8
PLAN_1
  6
CONTINUOUS
 10
1.085791
 20
-3.576913
  0
VERTEX
  8
PLAN_1
  6
CONTINUOUS
 10
1.090319
 20
-3.576008
  0
VERTEX
  8
PLAN_1
  6
CONTINUOUS
 10
1.095299
 20
-3.575102
  0
VERTEX
  8
PLAN_1
  6
CONTINUOUS
 10
1.099827
 20
-3.573744
  0
VERTEX
  8
PLAN_1
  6
CONTINUOUS
 10
1.104354
 20
-3.572386
  0
VERTEX
  8
PLAN_1
  6
CONTINUOUS
 10
1.108882
 20
-3.570575
  0
VERTEX
  8
PLAN_1
  6
CONTINUOUS
 10
1.113409
 20
-3.568764
  0
VERTEX
  8
PLAN_1
  6
CONTINUOUS
 10
1.117937
 20
-3.566500
  0
VERTEX
  8
PLAN_1
  6
CONTINUOUS
 10
1.122012
 20
-3.564236
  0
VERTEX
  8
PLAN_1
  6
CONTINUOUS
 10
1.126087
 20
-3.561520
  0
VERTEX
  8
PLAN_1
  6
CONTINUOUS
 10
1.129705
 20
-3.558803
  0
VERTEX
  8
PLAN_1
  6
CONTINUOUS
 10
1.133780
 20
-3.556087
  0
VERTEX
  8
PLAN_1
  6
CONTINUOUS
 10
1.136949
 20
-3.552465
  0
VERTEX
  8
PLAN_1
  6
CONTINUOUS
 10
1.140571
 20
-3.549295
  0
VERTEX
  8
PLAN_1
  6
CONTINUOUS
 10
1.143287
 20
-3.545673
  0
VERTEX
  8
PLAN_1
  6
CONTINUOUS
 10
1.161850
 20
-3.545673
  0
VERTEX
  8
PLAN_1
  6
CONTINUOUS
 10
1.158681
 20
-3.551106
  0
VERTEX
  8
PLAN_1
  6
CONTINUOUS
 10
1.154606
 20
-3.556539
  0
VERTEX
  8
PLAN_1
  6
CONTINUOUS
 10
1.150531
 20
-3.561520
  0
VERTEX
  8
PLAN_1
  6
CONTINUOUS
 10
1.146004
 20
-3.566047
  0
VERTEX
  8
PLAN_1
  6
CONTINUOUS
 10
1.141024
 20
-3.570575
  0
VERTEX
  8
PLAN_1
  6
CONTINUOUS
 10
1.136043
 20
-3.574650
  0
VERTEX
  8
PLAN_1
  6
CONTINUOUS
 10
1.130610
 20
-3.578272
  0
VERTEX
  8
PLAN_1
  6
CONTINUOUS
 10
1.125181
 20
-3.581441
  0
VERTEX
  8
PLAN_1
  6
CONTINUOUS
 10
1.119748
 20
-3.584610
  0
VERTEX
  8
PLAN_1
  6
CONTINUOUS
 10
1.113862
 20
-3.587327
  0
VERTEX
  8
PLAN_1
  6
CONTINUOUS
 10
1.107524
 20
-3.589138
  0
VERTEX
  8
PLAN_1
  6
CONTINUOUS
 10
1.101638
 20
-3.591402
  0
VERTEX
  8
PLAN_1
  6
CONTINUOUS
 10
1.095299
 20
-3.592760
  0
VERTEX
  8
PLAN_1
  6
CONTINUOUS
 10
1.088508
 20
-3.593665
  0
VERTEX
  8
PLAN_1
  6
CONTINUOUS
 10
1.082169
 20
-3.594571
  0
VERTEX
  8
PLAN_1
  6
CONTINUOUS
 10
1.075378
 20
-3.594571
  0
VERTEX
  8
PLAN_1
  6
CONTINUOUS
 10
1.069945
 20
-3.594571
  0
VERTEX
  8
PLAN_1
  6
CONTINUOUS
 10
1.064512
 20
-3.594118
  0
VERTEX
  8
PLAN_1
  6
CONTINUOUS
 10
1.059079
 20
-3.593213
  0
VERTEX
  8
PLAN_1
  6
CONTINUOUS
 10
1.053646
 20
-3.592307
  0
VERTEX
  8
PLAN_1
  6
CONTINUOUS
 10
1.048665
 20
-3.591402
  0
VERTEX
  8
PLAN_1
  6
CONTINUOUS
 10
1.043685
 20
-3.590043
  0
VERTEX
  8
PLAN_1
  6
CONTINUOUS
 10
1.038705
 20
-3.588232
  0
VERTEX
  8
PLAN_1
  6
CONTINUOUS
 10
1.033724
 20
-3.586421
  0
VERTEX
  8
PLAN_1
  6
CONTINUOUS
 10
1.029197
 20
-3.584157
  0
VERTEX
  8
PLAN_1
  6
CONTINUOUS
 10
1.024669
 20
-3.581894
  0
VERTEX
  8
PLAN_1
  6
CONTINUOUS
 10
1.020142
 20
-3.579630
  0
VERTEX
  8
PLAN_1
  6
CONTINUOUS
 10
1.015614
 20
-3.576913
  0
VERTEX
  8
PLAN_1
  6
CONTINUOUS
 10
1.011539
 20
-3.573744
  0
VERTEX
  8
PLAN_1
  6
CONTINUOUS
 10
1.007465
 20
-3.570575
  0
VERTEX
  8
PLAN_1
  6
CONTINUOUS
 10
1.003843
 20
-3.567406
  0
VERTEX
  8
PLAN_1
  6
CONTINUOUS
 10
1.000220
 20
-3.564236
  0
VERTEX
  8
PLAN_1
  6
CONTINUOUS
 10
0.996598
 20
-3.560161
  0
VERTEX
  8
PLAN_1
  6
CONTINUOUS
 10
0.993429
 20
-3.556539
  0
VERTEX
  8
PLAN_1
  6
CONTINUOUS
 10
0.990260
 20
-3.552465
  0
VERTEX
  8
PLAN_1
  6
CONTINUOUS
 10
0.987091
 20
-3.548390
  0
VERTEX
  8
PLAN_1
  6
CONTINUOUS
 10
0.984374
 20
-3.544315
  0
VERTEX
  8
PLAN_1
  6
CONTINUOUS
 10
0.982110
 20
-3.539787
  0
VERTEX
  8
PLAN_1
  6
CONTINUOUS
 10
0.979846
 20
-3.535260
  0
VERTEX
  8
PLAN_1
  6
CONTINUOUS
 10
0.977583
 20
-3.530732
  0
VERTEX
  8
PLAN_1
  6
CONTINUOUS
 10
0.975772
 20
-3.525752
  0
VERTEX
  8
PLAN_1
  6
CONTINUOUS
 10
0.973961
 20
-3.520772
  0
VERTEX
  8
PLAN_1
  6
CONTINUOUS
 10
0.972602
 20
-3.515791
  0
VERTEX
  8
PLAN_1
  6
CONTINUOUS
 10
0.971697
 20
-3.510811
  0
VERTEX
  8
PLAN_1
  6
CONTINUOUS
 10
0.970791
 20
-3.505378
  0
VERTEX
  8
PLAN_1
  6
CONTINUOUS
 10
0.969886
 20
-3.499945
  0
VERTEX
  8
PLAN_1
  6
CONTINUOUS
 10
0.969433
 20
-3.494512
  0
VERTEX
  8
PLAN_1
  6
CONTINUOUS
 10
0.969433
 20
-3.489079
  0
VERTEX
  8
PLAN_1
  6
CONTINUOUS
 10
0.969433
 20
-3.483646
  0
VERTEX
  8
PLAN_1
  6
CONTINUOUS
 10
0.969886
 20
-3.478213
  0
VERTEX
  8
PLAN_1
  6
CONTINUOUS
 10
0.970791
 20
-3.473232
  0
VERTEX
  8
PLAN_1
  6
CONTINUOUS
 10
0.971697
 20
-3.467799
  0
VERTEX
  8
PLAN_1
  6
CONTINUOUS
 10
0.972602
 20
-3.462819
  0
VERTEX
  8
PLAN_1
  6
CONTINUOUS
 10
0.973961
 20
-3.457843
  0
VERTEX
  8
PLAN_1
  6
CONTINUOUS
 10
0.975772
 20
-3.452862
  0
VERTEX
  8
PLAN_1
  6
CONTINUOUS
 10
0.977583
 20
-3.448335
  0
VERTEX
  8
PLAN_1
  6
CONTINUOUS
 10
0.979846
 20
-3.443807
  0
VERTEX
  8
PLAN_1
  6
CONTINUOUS
 10
0.982110
 20
-3.439280
  0
VERTEX
  8
PLAN_1
  6
CONTINUOUS
 10
0.984827
 20
-3.434752
  0
VERTEX
  8
PLAN_1
  6
CONTINUOUS
 10
0.987543
 20
-3.430677
  0
VERTEX
  8
PLAN_1
  6
CONTINUOUS
 10
0.990260
 20
-3.426602
  0
VERTEX
  8
PLAN_1
  6
CONTINUOUS
 10
0.993429
 20
-3.422528
  0
VERTEX
  8
PLAN_1
  6
CONTINUOUS
 10
0.996598
 20
-3.418906
  0
VERTEX
  8
PLAN_1
  6
CONTINUOUS
 10
1.000220
 20
-3.415283
  0
VERTEX
  8
PLAN_1
  6
CONTINUOUS
 10
1.003843
 20
-3.411661
  0
VERTEX
  8
PLAN_1
  6
CONTINUOUS
 10
1.007917
 20
-3.408492
  0
VERTEX
  8
PLAN_1
  6
CONTINUOUS
 10
1.011539
 20
-3.405323
  0
VERTEX
  8
PLAN_1
  6
CONTINUOUS
 10
1.015614
 20
-3.402606
  0
VERTEX
  8
PLAN_1
  6
CONTINUOUS
 10
1.020142
 20
-3.399890
  0
VERTEX
  8
PLAN_1
  6
CONTINUOUS
 10
1.024669
 20
-3.397173
  0
VERTEX
  8
PLAN_1
  6
CONTINUOUS
 10
1.028744
 20
-3.394909
  0
VERTEX
  8
PLAN_1
  6
CONTINUOUS
 10
1.033724
 20
-3.393098
  0
VERTEX
  8
PLAN_1
  6
CONTINUOUS
 10
1.038252
 20
-3.390835
  0
VERTEX
  8
PLAN_1
  6
CONTINUOUS
 10
1.043232
 20
-3.389476
  0
VERTEX
  8
PLAN_1
  6
CONTINUOUS
 10
1.048213
 20
-3.388118
  0
VERTEX
  8
PLAN_1
  6
CONTINUOUS
 10
1.053193
 20
-3.386760
  0
VERTEX
  8
PLAN_1
  6
CONTINUOUS
 10
1.058173
 20
-3.385854
  0
VERTEX
  8
PLAN_1
  6
CONTINUOUS
 10
1.063606
 20
-3.385402
  0
VERTEX
  8
PLAN_1
  6
CONTINUOUS
 10
1.068587
 20
-3.384949
  0
VERTEX
  8
PLAN_1
  6
CONTINUOUS
 10
1.074020
 20
-3.384949
  0
VERTEX
  8
PLAN_1
  6
CONTINUOUS
 10
1.083528
 20
-3.384949
  0
VERTEX
  8
PLAN_1
  6
CONTINUOUS
 10
1.093035
 20
-3.386307
  0
VERTEX
  8
PLAN_1
  6
CONTINUOUS
 10
1.102091
 20
-3.388571
  0
VERTEX
  8
PLAN_1
  6
CONTINUOUS
 10
1.110693
 20
-3.391287
  0
VERTEX
  8
PLAN_1
  6
CONTINUOUS
 10
1.118843
 20
-3.394457
  0
VERTEX
  8
PLAN_1
  6
CONTINUOUS
 10
1.126992
 20
-3.398984
  0
VERTEX
  8
PLAN_1
  6
CONTINUOUS
 10
1.134232
 20
-3.403512
  0
VERTEX
  8
PLAN_1
  6
CONTINUOUS
 10
1.141024
 20
-3.408945
  0
VERTEX
  8
PLAN_1
  6
CONTINUOUS
 10
1.147362
 20
-3.415283
  0
VERTEX
  8
PLAN_1
  6
CONTINUOUS
 10
1.152795
 20
-3.421622
  0
VERTEX
  8
PLAN_1
  6
CONTINUOUS
 10
1.157776
 20
-3.428866
  0
VERTEX
  8
PLAN_1
  6
CONTINUOUS
 10
1.161850
 20
-3.436563
  0
VERTEX
  8
PLAN_1
  6
CONTINUOUS
 10
1.163661
 20
-3.440638
  0
VERTEX
  8
PLAN_1
  6
CONTINUOUS
 10
1.165020
 20
-3.444713
  0
VERTEX
  8
PLAN_1
  6
CONTINUOUS
 10
1.166378
 20
-3.448787
  0
VERTEX
  8
PLAN_1
  6
CONTINUOUS
 10
1.167736
 20
-3.453315
  0
VERTEX
  8
PLAN_1
  6
CONTINUOUS
 10
1.168189
 20
-3.457390
  0
VERTEX
  8
PLAN_1
  6
CONTINUOUS
 10
1.169094
 20
-3.461913
  0
VERTEX
  8
PLAN_1
  6
CONTINUOUS
 10
1.169547
 20
-3.466441
  0
VERTEX
  8
PLAN_1
  6
CONTINUOUS
 10
1.169547
 20
-3.471421
  0
VERTEX
  8
PLAN_1
  6
CONTINUOUS
 10
1.169547
 20
-3.475949
  0
VERTEX
  8
PLAN_1
  6
CONTINUOUS
 10
1.169094
 20
-3.480476
  0
VERTEX
  8
PLAN_1
  6
CONTINUOUS
 10
1.168642
 20
-3.485004
  0
VERTEX
  8
PLAN_1
  6
CONTINUOUS
 10
1.167736
 20
-3.489079
  0
VERTEX
  8
PLAN_1
  6
CONTINUOUS
 10
1.165472
 20
-3.497228
  0
VERTEX
  8
PLAN_1
  6
CONTINUOUS
 10
1.162756
 20
-3.504925
  0
VERTEX
  8
PLAN_1
  6
CONTINUOUS
 10
1.159134
 20
-3.512169
  0
VERTEX
  8
PLAN_1
  6
CONTINUOUS
 10
1.155059
 20
-3.518961
  0
VERTEX
  8
PLAN_1
  6
CONTINUOUS
 10
1.150531
 20
-3.524846
  0
VERTEX
  8
PLAN_1
  6
CONTINUOUS
 10
1.145551
 20
-3.530280
  0
VERTEX
  8
PLAN_1
  6
CONTINUOUS
 10
1.140571
 20
-3.535260
  0
VERTEX
  8
PLAN_1
  6
CONTINUOUS
 10
1.135138
 20
-3.539335
  0
VERTEX
  8
PLAN_1
  6
CONTINUOUS
 10
1.129705
 20
-3.542957
  0
VERTEX
  8
PLAN_1
  6
CONTINUOUS
 10
1.123823
 20
-3.546126
  0
VERTEX
  8
PLAN_1
  6
CONTINUOUS
 10
1.118390
 20
-3.548390
  0
VERTEX
  8
PLAN_1
  6
CONTINUOUS
 10
1.112957
 20
-3.550201
  0
VERTEX
  8
PLAN_1
  6
CONTINUOUS
 10
1.107976
 20
-3.551106
  0
VERTEX
  8
PLAN_1
  6
CONTINUOUS
 10
1.102996
 20
-3.551559
  0
VERTEX
  8
PLAN_1
  6
CONTINUOUS
 10
1.099827
 20
-3.551106
  0
VERTEX
  8
PLAN_1
  6
CONTINUOUS
 10
1.096657
 20
-3.550654
  0
VERTEX
  8
PLAN_1
  6
CONTINUOUS
 10
1.093488
 20
-3.549295
  0
VERTEX
  8
PLAN_1
  6
CONTINUOUS
 10
1.091224
 20
-3.547484
  0
VERTEX
  8
PLAN_1
  6
CONTINUOUS
 10
1.088961
 20
-3.544768
  0
VERTEX
  8
PLAN_1
  6
CONTINUOUS
 10
1.087150
 20
-3.542051
  0
VERTEX
  8
PLAN_1
  6
CONTINUOUS
 10
1.085791
 20
-3.538429
  0
VERTEX
  8
PLAN_1
  6
CONTINUOUS
 10
1.085339
 20
-3.533902
  0
VERTEX
  8
PLAN_1
  6
CONTINUOUS
 10
1.084886
 20
-3.534354
  0
VERTEX
  8
PLAN_1
  6
CONTINUOUS
 10
1.081717
 20
-3.537524
  0
VERTEX
  8
PLAN_1
  6
CONTINUOUS
 10
1.078094
 20
-3.540693
  0
VERTEX
  8
PLAN_1
  6
CONTINUOUS
 10
1.074472
 20
-3.543409
  0
VERTEX
  8
PLAN_1
  6
CONTINUOUS
 10
1.069945
 20
-3.546126
  0
VERTEX
  8
PLAN_1
  6
CONTINUOUS
 10
1.065870
 20
-3.548390
  0
VERTEX
  8
PLAN_1
  6
CONTINUOUS
 10
1.061343
 20
-3.550201
  0
VERTEX
  8
PLAN_1
  6
CONTINUOUS
 10
1.056362
 20
-3.551106
  0
VERTEX
  8
PLAN_1
  6
CONTINUOUS
 10
1.051382
 20
-3.551559
  0
VERTEX
  8
PLAN_1
  6
CONTINUOUS
 10
1.047307
 20
-3.551106
  0
VERTEX
  8
PLAN_1
  6
CONTINUOUS
 10
1.042780
 20
-3.550654
  0
VERTEX
  8
PLAN_1
  6
CONTINUOUS
 10
1.039157
 20
-3.549748
  0
VERTEX
  8
PLAN_1
  6
CONTINUOUS
 10
1.035083
 20
-3.547937
  0
VERTEX
  8
PLAN_1
  6
CONTINUOUS
 10
1.031461
 20
-3.546126
  0
VERTEX
  8
PLAN_1
  6
CONTINUOUS
 10
1.028291
 20
-3.543862
  0
VERTEX
  8
PLAN_1
  6
CONTINUOUS
 10
1.025122
 20
-3.541146
  0
VERTEX
  8
PLAN_1
  6
CONTINUOUS
 10
1.022406
 20
-3.538429
  0
VERTEX
  8
PLAN_1
  6
CONTINUOUS
 10
1.019689
 20
-3.535260
  0
VERTEX
  8
PLAN_1
  6
CONTINUOUS
 10
1.017425
 20
-3.531638
  0
VERTEX
  8
PLAN_1
  6
CONTINUOUS
 10
1.015614
 20
-3.528016
  0
VERTEX
  8
PLAN_1
  6
CONTINUOUS
 10
1.013803
 20
-3.524394
  0
VERTEX
  8
PLAN_1
  6
CONTINUOUS
 10
1.012445
 20
-3.520319
  0
VERTEX
  8
PLAN_1
  6
CONTINUOUS
 10
1.011539
 20
-3.515791
  0
VERTEX
  8
PLAN_1
  6
CONTINUOUS
 10
1.011087
 20
-3.511717
  0
VERTEX
  8
PLAN_1
  6
CONTINUOUS
 10
1.010634
 20
-3.507189
  0
VERTEX
  8
PLAN_1
  6
CONTINUOUS
 10
1.011087
 20
-3.499945
  0
VERTEX
  8
PLAN_1
  6
CONTINUOUS
 10
1.011992
 20
-3.493154
  0
VERTEX
  8
PLAN_1
  6
CONTINUOUS
 10
1.013350
 20
-3.486362
  0
VERTEX
  8
PLAN_1
  6
CONTINUOUS
 10
1.015161
 20
-3.479571
  0
VERTEX
  8
PLAN_1
  6
CONTINUOUS
 10
1.017878
 20
-3.472780
  0
VERTEX
  8
PLAN_1
  6
CONTINUOUS
 10
1.021047
 20
-3.466441
  0
VERTEX
  8
PLAN_1
  6
CONTINUOUS
 10
1.024217
 20
-3.460555
  0
VERTEX
  8
PLAN_1
  6
CONTINUOUS
 10
1.028291
 20
-3.454673
  0
VERTEX
  8
PLAN_1
  6
CONTINUOUS
 10
1.032819
 20
-3.449693
  0
VERTEX
  8
PLAN_1
  6
CONTINUOUS
 10
1.037799
 20
-3.444713
  0
VERTEX
  8
PLAN_1
  6
CONTINUOUS
 10
1.042780
 20
-3.440638
  0
VERTEX
  8
PLAN_1
  6
CONTINUOUS
 10
1.048665
 20
-3.437469
  0
VERTEX
  8
PLAN_1
  6
CONTINUOUS
 10
1.054551
 20
-3.434299
  0
VERTEX
  8
PLAN_1
  6
CONTINUOUS
 10
1.060890
 20
-3.432488
  0
VERTEX
  8
PLAN_1
  6
CONTINUOUS
 10
1.067681
 20
-3.431130
  0
VERTEX
  8
PLAN_1
  6
CONTINUOUS
 10
1.074925
 20
-3.430677
  0
VERTEX
  8
PLAN_1
  6
CONTINUOUS
 10
1.079906
 20
-3.430677
  0
VERTEX
  8
PLAN_1
  6
CONTINUOUS
 10
1.084433
 20
-3.431583
  0
VERTEX
  8
PLAN_1
  6
CONTINUOUS
 10
1.088961
 20
-3.433394
  0
VERTEX
  8
PLAN_1
  6
CONTINUOUS
 10
1.093035
 20
-3.435657
  0
VERTEX
  8
PLAN_1
  6
CONTINUOUS
 10
1.097110
 20
-3.438374
  0
VERTEX
  8
PLAN_1
  6
CONTINUOUS
 10
1.100732
 20
-3.442449
  0
VERTEX
  8
PLAN_1
  6
CONTINUOUS
 10
1.103902
 20
-3.446976
  0
VERTEX
  8
PLAN_1
  6
CONTINUOUS
 10
1.106618
 20
-3.452409
  0
VERTEX
  8
PLAN_1
  6
CONTINUOUS
 10
1.112504
 20
-3.435205
  0
SEQEND
  8
0
  0
POLYLINE
  8
PLAN_1
  6
CONTINUOUS
 66
     1
 40
0.003000
 41
0.003000
  0
VERTEX
  8
PLAN_1
  6
CONTINUOUS
 10
1.075378
 20
-3.450598
  0
VERTEX
  8
PLAN_1
  6
CONTINUOUS
 10
1.070850
 20
-3.451051
  0
VERTEX
  8
PLAN_1
  6
CONTINUOUS
 10
1.066776
 20
-3.451957
  0
VERTEX
  8
PLAN_1
  6
CONTINUOUS
 10
1.062248
 20
-3.453768
  0
VERTEX
  8
PLAN_1
  6
CONTINUOUS
 10
1.058626
 20
-3.455579
  0
VERTEX
  8
PLAN_1
  6
CONTINUOUS
 10
1.055004
 20
-3.458295
  0
VERTEX
  8
PLAN_1
  6
CONTINUOUS
 10
1.051382
 20
-3.461461
  0
VERTEX
  8
PLAN_1
  6
CONTINUOUS
 10
1.048213
 20
-3.465083
  0
VERTEX
  8
PLAN_1
  6
CONTINUOUS
 10
1.045043
 20
-3.469157
  0
VERTEX
  8
PLAN_1
  6
CONTINUOUS
 10
1.042780
 20
-3.473232
  0
VERTEX
  8
PLAN_1
  6
CONTINUOUS
 10
1.040063
 20
-3.477307
  0
VERTEX
  8
PLAN_1
  6
CONTINUOUS
 10
1.038252
 20
-3.481835
  0
VERTEX
  8
PLAN_1
  6
CONTINUOUS
 10
1.036441
 20
-3.486362
  0
VERTEX
  8
PLAN_1
  6
CONTINUOUS
 10
1.035083
 20
-3.490890
  0
VERTEX
  8
PLAN_1
  6
CONTINUOUS
 10
1.034177
 20
-3.495870
  0
VERTEX
  8
PLAN_1
  6
CONTINUOUS
 10
1.033724
 20
-3.500398
  0
VERTEX
  8
PLAN_1
  6
CONTINUOUS
 10
1.033724
 20
-3.504472
  0
VERTEX
  8
PLAN_1
  6
CONTINUOUS
 10
1.034177
 20
-3.510358
  0
VERTEX
  8
PLAN_1
  6
CONTINUOUS
 10
1.035083
 20
-3.515339
  0
VERTEX
  8
PLAN_1
  6
CONTINUOUS
 10
1.035988
 20
-3.518055
  0
VERTEX
  8
PLAN_1
  6
CONTINUOUS
 10
1.037346
 20
-3.520319
  0
VERTEX
  8
PLAN_1
  6
CONTINUOUS
 10
1.038705
 20
-3.522130
  0
VERTEX
  8
PLAN_1
  6
CONTINUOUS
 10
1.040063
 20
-3.523941
  0
VERTEX
  8
PLAN_1
  6
CONTINUOUS
 10
1.041421
 20
-3.525752
  0
VERTEX
  8
PLAN_1
  6
CONTINUOUS
 10
1.043232
 20
-3.527110
  0
VERTEX
  8
PLAN_1
  6
CONTINUOUS
 10
1.045496
 20
-3.528469
  0
VERTEX
  8
PLAN_1
  6
CONTINUOUS
 10
1.047307
 20
-3.529374
  0
VERTEX
  8
PLAN_1
  6
CONTINUOUS
 10
1.049571
 20
-3.530280
  0
VERTEX
  8
PLAN_1
  6
CONTINUOUS
 10
1.051835
 20
-3.531185
  0
VERTEX
  8
PLAN_1
  6
CONTINUOUS
 10
1.054098
 20
-3.531638
  0
VERTEX
  8
PLAN_1
  6
CONTINUOUS
 10
1.056815
 20
-3.531638
  0
VERTEX
  8
PLAN_1
  6
CONTINUOUS
 10
1.061343
 20
-3.531185
  0
VERTEX
  8
PLAN_1
  6
CONTINUOUS
 10
1.065417
 20
-3.530280
  0
VERTEX
  8
PLAN_1
  6
CONTINUOUS
 10
1.069492
 20
-3.528469
  0
VERTEX
  8
PLAN_1
  6
CONTINUOUS
 10
1.073114
 20
-3.526205
  0
VERTEX
  8
PLAN_1
  6
CONTINUOUS
 10
1.076736
 20
-3.523035
  0
VERTEX
  8
PLAN_1
  6
CONTINUOUS
 10
1.080358
 20
-3.519866
  0
VERTEX
  8
PLAN_1
  6
CONTINUOUS
 10
1.083528
 20
-3.516244
  0
VERTEX
  8
PLAN_1
  6
CONTINUOUS
 10
1.086244
 20
-3.512169
  0
VERTEX
  8
PLAN_1
  6
CONTINUOUS
 10
1.088961
 20
-3.507642
  0
VERTEX
  8
PLAN_1
  6
CONTINUOUS
 10
1.091224
 20
-3.503567
  0
VERTEX
  8
PLAN_1
  6
CONTINUOUS
 10
1.093488
 20
-3.498587
  0
VERTEX
  8
PLAN_1
  6
CONTINUOUS
 10
1.094846
 20
-3.494059
  0
VERTEX
  8
PLAN_1
  6
CONTINUOUS
 10
1.096205
 20
-3.489531
  0
VERTEX
  8
PLAN_1
  6
CONTINUOUS
 10
1.097563
 20
-3.485004
  0
VERTEX
  8
PLAN_1
  6
CONTINUOUS
 10
1.098016
 20
-3.480476
  0
VERTEX
  8
PLAN_1
  6
CONTINUOUS
 10
1.098016
 20
-3.475949
  0
VERTEX
  8
PLAN_1
  6
CONTINUOUS
 10
1.098016
 20
-3.473685
  0
VERTEX
  8
PLAN_1
  6
CONTINUOUS
 10
1.097563
 20
-3.470969
  0
VERTEX
  8
PLAN_1
  6
CONTINUOUS
 10
1.097110
 20
-3.468705
  0
VERTEX
  8
PLAN_1
  6
CONTINUOUS
 10
1.096205
 20
-3.466441
  0
VERTEX
  8
PLAN_1
  6
CONTINUOUS
 10
1.094394
 20
-3.461913
  0
VERTEX
  8
PLAN_1
  6
CONTINUOUS
 10
1.091224
 20
-3.458295
  0
VERTEX
  8
PLAN_1
  6
CONTINUOUS
 10
1.088055
 20
-3.455126
  0
VERTEX
  8
PLAN_1
  6
CONTINUOUS
 10
1.083980
 20
-3.452409
  0
VERTEX
  8
PLAN_1
  6
CONTINUOUS
 10
1.082169
 20
-3.451504
  0
VERTEX
  8
PLAN_1
  6
CONTINUOUS
 10
1.079906
 20
-3.451051
  0
VERTEX
  8
PLAN_1
  6
CONTINUOUS
 10
1.077642
 20
-3.450598
  0
VERTEX
  8
PLAN_1
  6
CONTINUOUS
 10
1.075378
 20
-3.450598
  0
SEQEND
  8
0
  0
SOLID
  8
PLAN_1
 10
1.210295
 20
-3.624000
 11
1.210295
 21
-3.609965
 12
1.364685
 22
-3.624000
 13
1.364685
 23
-3.609965
  0
POLYLINE
  8
PLAN_1
  6
CONTINUOUS
 66
     1
 40
0.003000
 41
0.003000
  0
VERTEX
  8
PLAN_1
  6
CONTINUOUS
 10
1.210295
 20
-3.624000
  0
VERTEX
  8
PLAN_1
  6
CONTINUOUS
 10
1.210295
 20
-3.609965
  0
VERTEX
  8
PLAN_1
  6
CONTINUOUS
 10
1.364685
 20
-3.609965
  0
VERTEX
  8
PLAN_1
  6
CONTINUOUS
 10
1.364685
 20
-3.624000
  0
VERTEX
  8
PLAN_1
  6
CONTINUOUS
 10
1.210295
 20
-3.624000
  0
SEQEND
  8
0
  0
SOLID
  8
PLAN_1
 10
1.364685
 20
-3.624000
 11
1.364685
 21
-3.609965
 12
1.519071
 22
-3.624000
 13
1.519071
 23
-3.609965
  0
POLYLINE
  8
PLAN_1
  6
CONTINUOUS
 66
     1
 40
0.003000
 41
0.003000
  0
VERTEX
  8
PLAN_1
  6
CONTINUOUS
 10
1.364685
 20
-3.624000
  0
VERTEX
  8
PLAN_1
  6
CONTINUOUS
 10
1.364685
 20
-3.609965
  0
VERTEX
  8
PLAN_1
  6
CONTINUOUS
 10
1.519071
 20
-3.609965
  0
VERTEX
  8
PLAN_1
  6
CONTINUOUS
 10
1.519071
 20
-3.624000
  0
VERTEX
  8
PLAN_1
  6
CONTINUOUS
 10
1.364685
 20
-3.624000
  0
SEQEND
  8
0
  0
POLYLINE
  8
PLAN_1
  6
CONTINUOUS
 66
     1
 40
0.003000
 41
0.003000
  0
VERTEX
  8
PLAN_1
  6
CONTINUOUS
 10
1.570685
 20
-3.589138
  0
VERTEX
  8
PLAN_1
  6
CONTINUOUS
 10
1.543520
 20
-3.589138
  0
VERTEX
  8
PLAN_1
  6
CONTINUOUS
 10
1.543520
 20
-3.389929
  0
VERTEX
  8
PLAN_1
  6
CONTINUOUS
 10
1.635882
 20
-3.389929
  0
VERTEX
  8
PLAN_1
  6
CONTINUOUS
 10
1.641768
 20
-3.389929
  0
VERTEX
  8
PLAN_1
  6
CONTINUOUS
 10
1.648106
 20
-3.390382
  0
VERTEX
  8
PLAN_1
  6
CONTINUOUS
 10
1.653992
 20
-3.391287
  0
VERTEX
  8
PLAN_1
  6
CONTINUOUS
 10
1.659878
 20
-3.392646
  0
VERTEX
  8
PLAN_1
  6
CONTINUOUS
 10
1.665311
 20
-3.394004
  0
VERTEX
  8
PLAN_1
  6
CONTINUOUS
 10
1.670744
 20
-3.395815
  0
VERTEX
  8
PLAN_1
  6
CONTINUOUS
 10
1.676177
 20
-3.398079
  0
VERTEX
  8
PLAN_1
  6
CONTINUOUS
 10
1.680705
 20
-3.400795
  0
VERTEX
  8
PLAN_1
  6
CONTINUOUS
 10
1.685232
 20
-3.404417
  0
VERTEX
  8
PLAN_1
  6
CONTINUOUS
 10
1.689307
 20
-3.408039
  0
VERTEX
  8
PLAN_1
  6
CONTINUOUS
 10
1.692929
 20
-3.412567
  0
VERTEX
  8
PLAN_1
  6
CONTINUOUS
 10
1.695646
 20
-3.417547
  0
VERTEX
  8
PLAN_1
  6
CONTINUOUS
 10
1.697909
 20
-3.422980
  0
VERTEX
  8
PLAN_1
  6
CONTINUOUS
 10
1.699720
 20
-3.429319
  0
VERTEX
  8
PLAN_1
  6
CONTINUOUS
 10
1.701079
 20
-3.436110
  0
VERTEX
  8
PLAN_1
  6
CONTINUOUS
 10
1.701531
 20
-3.443807
  0
VERTEX
  8
PLAN_1
  6
CONTINUOUS
 10
1.701079
 20
-3.448787
  0
VERTEX
  8
PLAN_1
  6
CONTINUOUS
 10
1.700626
 20
-3.453768
  0
VERTEX
  8
PLAN_1
  6
CONTINUOUS
 10
1.699720
 20
-3.458295
  0
VERTEX
  8
PLAN_1
  6
CONTINUOUS
 10
1.698815
 20
-3.462366
  0
VERTEX
  8
PLAN_1
  6
CONTINUOUS
 10
1.697457
 20
-3.465988
  0
VERTEX
  8
PLAN_1
  6
CONTINUOUS
 10
1.696098
 20
-3.469610
  0
VERTEX
  8
PLAN_1
  6
CONTINUOUS
 10
1.694287
 20
-3.472780
  0
VERTEX
  8
PLAN_1
  6
CONTINUOUS
 10
1.692024
 20
-3.475496
  0
VERTEX
  8
PLAN_1
  6
CONTINUOUS
 10
1.687949
 20
-3.480476
  0
VERTEX
  8
PLAN_1
  6
CONTINUOUS
 10
1.683421
 20
-3.485004
  0
VERTEX
  8
PLAN_1
  6
CONTINUOUS
 10
1.678441
 20
-3.488173
  0
VERTEX
  8
PLAN_1
  6
CONTINUOUS
 10
1.673461
 20
-3.491343
  0
VERTEX
  8
PLAN_1
  6
CONTINUOUS
 10
1.677988
 20
-3.493154
  0
VERTEX
  8
PLAN_1
  6
CONTINUOUS
 10
1.682063
 20
-3.495417
  0
VERTEX
  8
PLAN_1
  6
CONTINUOUS
 10
1.685685
 20
-3.498134
  0
VERTEX
  8
PLAN_1
  6
CONTINUOUS
 10
1.689307
 20
-3.501303
  0
VERTEX
  8
PLAN_1
  6
CONTINUOUS
 10
1.691118
 20
-3.503567
  0
VERTEX
  8
PLAN_1
  6
CONTINUOUS
 10
1.692476
 20
-3.505831
  0
VERTEX
  8
PLAN_1
  6
CONTINUOUS
 10
1.693835
 20
-3.508547
  0
VERTEX
  8
PLAN_1
  6
CONTINUOUS
 10
1.694740
 20
-3.511717
  0
VERTEX
  8
PLAN_1
  6
CONTINUOUS
 10
1.695646
 20
-3.515339
  0
VERTEX
  8
PLAN_1
  6
CONTINUOUS
 10
1.696551
 20
-3.519413
  0
VERTEX
  8
PLAN_1
  6
CONTINUOUS
 10
1.697004
 20
-3.523941
  0
VERTEX
  8
PLAN_1
  6
CONTINUOUS
 10
1.697457
 20
-3.528921
  0
VERTEX
  8
PLAN_1
  6
CONTINUOUS
 10
1.699268
 20
-3.564689
  0
VERTEX
  8
PLAN_1
  6
CONTINUOUS
 10
1.699268
 20
-3.568764
  0
VERTEX
  8
PLAN_1
  6
CONTINUOUS
 10
1.699720
 20
-3.571933
  0
VERTEX
  8
PLAN_1
  6
CONTINUOUS
 10
1.700173
 20
-3.574650
  0
VERTEX
  8
PLAN_1
  6
CONTINUOUS
 10
1.701079
 20
-3.577366
  0
VERTEX
  8
PLAN_1
  6
CONTINUOUS
 10
1.702437
 20
-3.579177
  0
VERTEX
  8
PLAN_1
  6
CONTINUOUS
 10
1.704248
 20
-3.581441
  0
VERTEX
  8
PLAN_1
  6
CONTINUOUS
 10
1.706512
 20
-3.583252
  0
VERTEX
  8
PLAN_1
  6
CONTINUOUS
 10
1.709228
 20
-3.585063
  0
VERTEX
  8
PLAN_1
  6
CONTINUOUS
 10
1.709228
 20
-3.589138
  0
VERTEX
  8
PLAN_1
  6
CONTINUOUS
 10
1.676177
 20
-3.589138
  0
VERTEX
  8
PLAN_1
  6
CONTINUOUS
 10
1.674819
 20
-3.584157
  0
VERTEX
  8
PLAN_1
  6
CONTINUOUS
 10
1.673913
 20
-3.577366
  0
VERTEX
  8
PLAN_1
  6
CONTINUOUS
 10
1.673008
 20
-3.570122
  0
VERTEX
  8
PLAN_1
  6
CONTINUOUS
 10
1.672102
 20
-3.562425
  0
VERTEX
  8
PLAN_1
  6
CONTINUOUS
 10
1.671650
 20
-3.555181
  0
VERTEX
  8
PLAN_1
  6
CONTINUOUS
 10
1.671650
 20
-3.548390
  0
VERTEX
  8
PLAN_1
  6
CONTINUOUS
 10
1.671197
 20
-3.542957
  0
VERTEX
  8
PLAN_1
  6
CONTINUOUS
 10
1.671197
 20
-3.539335
  0
VERTEX
  8
PLAN_1
  6
CONTINUOUS
 10
1.671197
 20
-3.532996
  0
VERTEX
  8
PLAN_1
  6
CONTINUOUS
 10
1.670291
 20
-3.527110
  0
VERTEX
  8
PLAN_1
  6
CONTINUOUS
 10
1.669386
 20
-3.523941
  0
VERTEX
  8
PLAN_1
  6
CONTINUOUS
 10
1.668480
 20
-3.520772
  0
VERTEX
  8
PLAN_1
  6
CONTINUOUS
 10
1.667122
 20
-3.518055
  0
VERTEX
  8
PLAN_1
  6
CONTINUOUS
 10
1.665764
 20
-3.515339
  0
VERTEX
  8
PLAN_1
  6
CONTINUOUS
 10
1.663500
 20
-3.513075
  0
VERTEX
  8
PLAN_1
  6
CONTINUOUS
 10
1.661236
 20
-3.510811
  0
VERTEX
  8
PLAN_1
  6
CONTINUOUS
 10
1.658520
 20
-3.508547
  0
VERTEX
  8
PLAN_1
  6
CONTINUOUS
 10
1.654898
 20
-3.507189
  0
VERTEX
  8
PLAN_1
  6
CONTINUOUS
 10
1.650823
 20
-3.505831
  0
VERTEX
  8
PLAN_1
  6
CONTINUOUS
 10
1.646748
 20
-3.504472
  0
VERTEX
  8
PLAN_1
  6
CONTINUOUS
 10
1.641315
 20
-3.504020
  0
VERTEX
  8
PLAN_1
  6
CONTINUOUS
 10
1.635882
 20
-3.504020
  0
VERTEX
  8
PLAN_1
  6
CONTINUOUS
 10
1.570685
 20
-3.504020
  0
VERTEX
  8
PLAN_1
  6
CONTINUOUS
 10
1.570685
 20
-3.589138
  0
SEQEND
  8
0
  0
POLYLINE
  8
PLAN_1
  6
CONTINUOUS
 66
     1
 40
0.003000
 41
0.003000
  0
VERTEX
  8
PLAN_1
  6
CONTINUOUS
 10
1.570685
 20
-3.480929
  0
VERTEX
  8
PLAN_1
  6
CONTINUOUS
 10
1.633165
 20
-3.480929
  0
VERTEX
  8
PLAN_1
  6
CONTINUOUS
 10
1.640409
 20
-3.480476
  0
VERTEX
  8
PLAN_1
  6
CONTINUOUS
 10
1.647654
 20
-3.479571
  0
VERTEX
  8
PLAN_1
  6
CONTINUOUS
 10
1.651276
 20
-3.478665
  0
VERTEX
  8
PLAN_1
  6
CONTINUOUS
 10
1.654445
 20
-3.477760
  0
VERTEX
  8
PLAN_1
  6
CONTINUOUS
 10
1.657614
 20
-3.476402
  0
VERTEX
  8
PLAN_1
  6
CONTINUOUS
 10
1.660783
 20
-3.474591
  0
VERTEX
  8
PLAN_1
  6
CONTINUOUS
 10
1.663500
 20
-3.472780
  0
VERTEX
  8
PLAN_1
  6
CONTINUOUS
 10
1.665764
 20
-3.470063
  0
VERTEX
  8
PLAN_1
  6
CONTINUOUS
 10
1.668028
 20
-3.467346
  0
VERTEX
  8
PLAN_1
  6
CONTINUOUS
 10
1.669839
 20
-3.464177
  0
VERTEX
  8
PLAN_1
  6
CONTINUOUS
 10
1.671650
 20
-3.460555
  0
VERTEX
  8
PLAN_1
  6
CONTINUOUS
 10
1.672555
 20
-3.456484
  0
VERTEX
  8
PLAN_1
  6
CONTINUOUS
 10
1.673461
 20
-3.451504
  0
VERTEX
  8
PLAN_1
  6
CONTINUOUS
 10
1.673461
 20
-3.446524
  0
VERTEX
  8
PLAN_1
  6
CONTINUOUS
 10
1.673461
 20
-3.441091
  0
VERTEX
  8
PLAN_1
  6
CONTINUOUS
 10
1.672555
 20
-3.436110
  0
VERTEX
  8
PLAN_1
  6
CONTINUOUS
 10
1.671197
 20
-3.432035
  0
VERTEX
  8
PLAN_1
  6
CONTINUOUS
 10
1.669839
 20
-3.427961
  0
VERTEX
  8
PLAN_1
  6
CONTINUOUS
 10
1.668028
 20
-3.424791
  0
VERTEX
  8
PLAN_1
  6
CONTINUOUS
 10
1.665764
 20
-3.422075
  0
VERTEX
  8
PLAN_1
  6
CONTINUOUS
 10
1.663500
 20
-3.419811
  0
VERTEX
  8
PLAN_1
  6
CONTINUOUS
 10
1.660783
 20
-3.418000
  0
VERTEX
  8
PLAN_1
  6
CONTINUOUS
 10
1.658067
 20
-3.416642
  0
VERTEX
  8
PLAN_1
  6
CONTINUOUS
 10
1.654898
 20
-3.415283
  0
VERTEX
  8
PLAN_1
  6
CONTINUOUS
 10
1.652181
 20
-3.414378
  0
VERTEX
  8
PLAN_1
  6
CONTINUOUS
 10
1.649012
 20
-3.413925
  0
VERTEX
  8
PLAN_1
  6
CONTINUOUS
 10
1.643126
 20
-3.413020
  0
VERTEX
  8
PLAN_1
  6
CONTINUOUS
 10
1.637693
 20
-3.413020
  0
VERTEX
  8
PLAN_1
  6
CONTINUOUS
 10
1.570685
 20
-3.413020
  0
VERTEX
  8
PLAN_1
  6
CONTINUOUS
 10
1.570685
 20
-3.480929
  0
SEQEND
  8
0
  0
SOLID
  8
PLAN_1
 10
1.772610
 20
-3.589138
 11
1.744087
 21
-3.589138
 12
1.772610
 22
-3.559709
 13
1.744087
 23
-3.559709
  0
POLYLINE
  8
PLAN_1
  6
CONTINUOUS
 66
     1
 40
0.003000
 41
0.003000
  0
VERTEX
  8
PLAN_1
  6
CONTINUOUS
 10
1.772610
 20
-3.589138
  0
VERTEX
  8
PLAN_1
  6
CONTINUOUS
 10
1.744087
 20
-3.589138
  0
VERTEX
  8
PLAN_1
  6
CONTINUOUS
 10
1.744087
 20
-3.559709
  0
VERTEX
  8
PLAN_1
  6
CONTINUOUS
 10
1.772610
 20
-3.559709
  0
VERTEX
  8
PLAN_1
  6
CONTINUOUS
 10
1.772610
 20
-3.589138
  0
SEQEND
  8
0
  0
POLYLINE
  8
PLAN_1
  6
CONTINUOUS
 66
     1
 40
0.003000
 41
0.003000
  0
VERTEX
  8
PLAN_1
  6
CONTINUOUS
 10
1.967748
 20
-3.589138
  0
VERTEX
  8
PLAN_1
  6
CONTINUOUS
 10
1.820602
 20
-3.589138
  0
VERTEX
  8
PLAN_1
  6
CONTINUOUS
 10
1.820602
 20
-3.389929
  0
VERTEX
  8
PLAN_1
  6
CONTINUOUS
 10
1.965937
 20
-3.389929
  0
VERTEX
  8
PLAN_1
  6
CONTINUOUS
 10
1.965937
 20
-3.413925
  0
VERTEX
  8
PLAN_1
  6
CONTINUOUS
 10
1.847768
 20
-3.413925
  0
VERTEX
  8
PLAN_1
  6
CONTINUOUS
 10
1.847768
 20
-3.475043
  0
VERTEX
  8
PLAN_1
  6
CONTINUOUS
 10
1.956882
 20
-3.475043
  0
VERTEX
  8
PLAN_1
  6
CONTINUOUS
 10
1.956882
 20
-3.499039
  0
VERTEX
  8
PLAN_1
  6
CONTINUOUS
 10
1.847768
 20
-3.499039
  0
VERTEX
  8
PLAN_1
  6
CONTINUOUS
 10
1.847768
 20
-3.565594
  0
VERTEX
  8
PLAN_1
  6
CONTINUOUS
 10
1.967748
 20
-3.565594
  0
VERTEX
  8
PLAN_1
  6
CONTINUOUS
 10
1.967748
 20
-3.589138
  0
SEQEND
  8
0
  0
POLYLINE
  8
PLAN_1
  6
CONTINUOUS
 66
     1
 40
0.003000
 41
0.003000
  0
VERTEX
  8
PLAN_1
  6
CONTINUOUS
 10
2.032941
 20
-3.589138
  0
VERTEX
  8
PLAN_1
  6
CONTINUOUS
 10
2.005780
 20
-3.589138
  0
VERTEX
  8
PLAN_1
  6
CONTINUOUS
 10
2.005780
 20
-3.389929
  0
VERTEX
  8
PLAN_1
  6
CONTINUOUS
 10
2.095874
 20
-3.389929
  0
VERTEX
  8
PLAN_1
  6
CONTINUOUS
 10
2.102213
 20
-3.390382
  0
VERTEX
  8
PLAN_1
  6
CONTINUOUS
 10
2.109004
 20
-3.391287
  0
VERTEX
  8
PLAN_1
  6
CONTINUOUS
 10
2.114890
 20
-3.392646
  0
VERTEX
  8
PLAN_1
  6
CONTINUOUS
 10
2.120323
 20
-3.394457
  0
VERTEX
  8
PLAN_1
  6
CONTINUOUS
 10
2.125756
 20
-3.396720
  0
VERTEX
  8
PLAN_1
  6
CONTINUOUS
 10
2.130736
 20
-3.399437
  0
VERTEX
  8
PLAN_1
  6
CONTINUOUS
 10
2.134811
 20
-3.402606
  0
VERTEX
  8
PLAN_1
  6
CONTINUOUS
 10
2.138886
 20
-3.405776
  0
VERTEX
  8
PLAN_1
  6
CONTINUOUS
 10
2.142508
 20
-3.409850
  0
VERTEX
  8
PLAN_1
  6
CONTINUOUS
 10
2.145677
 20
-3.414378
  0
VERTEX
  8
PLAN_1
  6
CONTINUOUS
 10
2.148394
 20
-3.418906
  0
VERTEX
  8
PLAN_1
  6
CONTINUOUS
 10
2.150657
 20
-3.423886
  0
VERTEX
  8
PLAN_1
  6
CONTINUOUS
 10
2.152469
 20
-3.428866
  0
VERTEX
  8
PLAN_1
  6
CONTINUOUS
 10
2.153827
 20
-3.434299
  0
VERTEX
  8
PLAN_1
  6
CONTINUOUS
 10
2.154732
 20
-3.440185
  0
VERTEX
  8
PLAN_1
  6
CONTINUOUS
 10
2.154732
 20
-3.446071
  0
VERTEX
  8
PLAN_1
  6
CONTINUOUS
 10
2.154732
 20
-3.451504
  0
VERTEX
  8
PLAN_1
  6
CONTINUOUS
 10
2.153827
 20
-3.456484
  0
VERTEX
  8
PLAN_1
  6
CONTINUOUS
 10
2.152921
 20
-3.461913
  0
VERTEX
  8
PLAN_1
  6
CONTINUOUS
 10
2.151563
 20
-3.466894
  0
VERTEX
  8
PLAN_1
  6
CONTINUOUS
 10
2.149752
 20
-3.471874
  0
VERTEX
  8
PLAN_1
  6
CONTINUOUS
 10
2.147488
 20
-3.476854
  0
VERTEX
  8
PLAN_1
  6
CONTINUOUS
 10
2.144772
 20
-3.481835
  0
VERTEX
  8
PLAN_1
  6
CONTINUOUS
 10
2.141602
 20
-3.485909
  0
VERTEX
  8
PLAN_1
  6
CONTINUOUS
 10
2.137528
 20
-3.489984
  0
VERTEX
  8
PLAN_1
  6
CONTINUOUS
 10
2.133453
 20
-3.493606
  0
VERTEX
  8
PLAN_1
  6
CONTINUOUS
 10
2.128472
 20
-3.497228
  0
VERTEX
  8
PLAN_1
  6
CONTINUOUS
 10
2.123039
 20
-3.499945
  0
VERTEX
  8
PLAN_1
  6
CONTINUOUS
 10
2.117154
 20
-3.502209
  0
VERTEX
  8
PLAN_1
  6
CONTINUOUS
 10
2.110815
 20
-3.504020
  0
VERTEX
  8
PLAN_1
  6
CONTINUOUS
 10
2.103571
 20
-3.504925
  0
VERTEX
  8
PLAN_1
  6
CONTINUOUS
 10
2.095874
 20
-3.505378
  0
VERTEX
  8
PLAN_1
  6
CONTINUOUS
 10
2.032941
 20
-3.505378
  0
VERTEX
  8
PLAN_1
  6
CONTINUOUS
 10
2.032941
 20
-3.589138
  0
SEQEND
  8
0
  0
POLYLINE
  8
PLAN_1
  6
CONTINUOUS
 66
     1
 40
0.003000
 41
0.003000
  0
VERTEX
  8
PLAN_1
  6
CONTINUOUS
 10
2.032941
 20
-3.482287
  0
VERTEX
  8
PLAN_1
  6
CONTINUOUS
 10
2.086366
 20
-3.482287
  0
VERTEX
  8
PLAN_1
  6
CONTINUOUS
 10
2.090894
 20
-3.481835
  0
VERTEX
  8
PLAN_1
  6
CONTINUOUS
 10
2.094969
 20
-3.481835
  0
VERTEX
  8
PLAN_1
  6
CONTINUOUS
 10
2.099043
 20
-3.481382
  0
VERTEX
  8
PLAN_1
  6
CONTINUOUS
 10
2.103118
 20
-3.480476
  0
VERTEX
  8
PLAN_1
  6
CONTINUOUS
 10
2.106740
 20
-3.479118
  0
VERTEX
  8
PLAN_1
  6
CONTINUOUS
 10
2.109909
 20
-3.477760
  0
VERTEX
  8
PLAN_1
  6
CONTINUOUS
 10
2.113079
 20
-3.476402
  0
VERTEX
  8
PLAN_1
  6
CONTINUOUS
 10
2.115795
 20
-3.474138
  0
VERTEX
  8
PLAN_1
  6
CONTINUOUS
 10
2.118512
 20
-3.472327
  0
VERTEX
  8
PLAN_1
  6
CONTINUOUS
 10
2.120776
 20
-3.469610
  0
VERTEX
  8
PLAN_1
  6
CONTINUOUS
 10
2.122587
 20
-3.466441
  0
VERTEX
  8
PLAN_1
  6
CONTINUOUS
 10
2.123945
 20
-3.463272
  0
VERTEX
  8
PLAN_1
  6
CONTINUOUS
 10
2.125303
 20
-3.459650
  0
VERTEX
  8
PLAN_1
  6
CONTINUOUS
 10
2.126209
 20
-3.455579
  0
VERTEX
  8
PLAN_1
  6
CONTINUOUS
 10
2.126661
 20
-3.451051
  0
VERTEX
  8
PLAN_1
  6
CONTINUOUS
 10
2.127114
 20
-3.446524
  0
VERTEX
  8
PLAN_1
  6
CONTINUOUS
 10
2.126661
 20
-3.441996
  0
VERTEX
  8
PLAN_1
  6
CONTINUOUS
 10
2.126209
 20
-3.437469
  0
VERTEX
  8
PLAN_1
  6
CONTINUOUS
 10
2.125303
 20
-3.433846
  0
VERTEX
  8
PLAN_1
  6
CONTINUOUS
 10
2.123945
 20
-3.430677
  0
VERTEX
  8
PLAN_1
  6
CONTINUOUS
 10
2.122134
 20
-3.427508
  0
VERTEX
  8
PLAN_1
  6
CONTINUOUS
 10
2.120323
 20
-3.424791
  0
VERTEX
  8
PLAN_1
  6
CONTINUOUS
 10
2.118059
 20
-3.422528
  0
VERTEX
  8
PLAN_1
  6
CONTINUOUS
 10
2.115795
 20
-3.420264
  0
VERTEX
  8
PLAN_1
  6
CONTINUOUS
 10
2.112626
 20
-3.418453
  0
VERTEX
  8
PLAN_1
  6
CONTINUOUS
 10
2.109909
 20
-3.417094
  0
VERTEX
  8
PLAN_1
  6
CONTINUOUS
 10
2.106740
 20
-3.415736
  0
VERTEX
  8
PLAN_1
  6
CONTINUOUS
 10
2.103118
 20
-3.414831
  0
VERTEX
  8
PLAN_1
  6
CONTINUOUS
 10
2.099496
 20
-3.413925
  0
VERTEX
  8
PLAN_1
  6
CONTINUOUS
 10
2.095874
 20
-3.413472
  0
VERTEX
  8
PLAN_1
  6
CONTINUOUS
 10
2.091799
 20
-3.413020
  0
VERTEX
  8
PLAN_1
  6
CONTINUOUS
 10
2.087724
 20
-3.413020
  0
VERTEX
  8
PLAN_1
  6
CONTINUOUS
 10
2.032941
 20
-3.413020
  0
VERTEX
  8
PLAN_1
  6
CONTINUOUS
 10
2.032941
 20
-3.482287
  0
SEQEND
  8
0
  0
POLYLINE
  8
PLAN_1
  6
CONTINUOUS
 66
     1
 40
0.003000
 41
0.003000
  0
VERTEX
  8
PLAN_1
  6
CONTINUOUS
 10
2.308669
 20
-3.448335
  0
VERTEX
  8
PLAN_1
  6
CONTINUOUS
 10
2.308217
 20
-3.442902
  0
VERTEX
  8
PLAN_1
  6
CONTINUOUS
 10
2.306858
 20
-3.437921
  0
VERTEX
  8
PLAN_1
  6
CONTINUOUS
 10
2.305500
 20
-3.432941
  0
VERTEX
  8
PLAN_1
  6
CONTINUOUS
 10
2.303689
 20
-3.428866
  0
VERTEX
  8
PLAN_1
  6
CONTINUOUS
 10
2.300972
 20
-3.425244
  0
VERTEX
  8
PLAN_1
  6
CONTINUOUS
 10
2.298256
 20
-3.422075
  0
VERTEX
  8
PLAN_1
  6
CONTINUOUS
 10
2.295087
 20
-3.418906
  0
VERTEX
  8
PLAN_1
  6
CONTINUOUS
 10
2.291917
 20
-3.416642
  0
VERTEX
  8
PLAN_1
  6
CONTINUOUS
 10
2.288295
 20
-3.414378
  0
VERTEX
  8
PLAN_1
  6
CONTINUOUS
 10
2.284220
 20
-3.412567
  0
VERTEX
  8
PLAN_1
  6
CONTINUOUS
 10
2.280598
 20
-3.410756
  0
VERTEX
  8
PLAN_1
  6
CONTINUOUS
 10
2.276071
 20
-3.409850
  0
VERTEX
  8
PLAN_1
  6
CONTINUOUS
 10
2.271996
 20
-3.408945
  0
VERTEX
  8
PLAN_1
  6
CONTINUOUS
 10
2.267921
 20
-3.408039
  0
VERTEX
  8
PLAN_1
  6
CONTINUOUS
 10
2.263394
 20
-3.408039
  0
VERTEX
  8
PLAN_1
  6
CONTINUOUS
 10
2.259319
 20
-3.407587
  0
VERTEX
  8
PLAN_1
  6
CONTINUOUS
 10
2.252528
 20
-3.408039
  0
VERTEX
  8
PLAN_1
  6
CONTINUOUS
 10
2.244831
 20
-3.408945
  0
VERTEX
  8
PLAN_1
  6
CONTINUOUS
 10
2.241209
 20
-3.409850
  0
VERTEX
  8
PLAN_1
  6
CONTINUOUS
 10
2.237587
 20
-3.410756
  0
VERTEX
  8
PLAN_1
  6
CONTINUOUS
 10
2.233512
 20
-3.412114
  0
VERTEX
  8
PLAN_1
  6
CONTINUOUS
 10
2.230343
 20
-3.413925
  0
VERTEX
  8
PLAN_1
  6
CONTINUOUS
 10
2.226720
 20
-3.416189
  0
VERTEX
  8
PLAN_1
  6
CONTINUOUS
 10
2.223551
 20
-3.418453
  0
VERTEX
  8
PLAN_1
  6
CONTINUOUS
 10
2.220835
 20
-3.421169
  0
VERTEX
  8
PLAN_1
  6
CONTINUOUS
 10
2.218571
 20
-3.424339
  0
VERTEX
  8
PLAN_1
  6
CONTINUOUS
 10
2.216307
 20
-3.428413
  0
VERTEX
  8
PLAN_1
  6
CONTINUOUS
 10
2.214949
 20
-3.432488
  0
VERTEX
  8
PLAN_1
  6
CONTINUOUS
 10
2.214043
 20
-3.437469
  0
VERTEX
  8
PLAN_1
  6
CONTINUOUS
 10
2.213591
 20
-3.442902
  0
VERTEX
  8
PLAN_1
  6
CONTINUOUS
 10
2.214043
 20
-3.445618
  0
VERTEX
  8
PLAN_1
  6
CONTINUOUS
 10
2.214043
 20
-3.448787
  0
VERTEX
  8
PLAN_1
  6
CONTINUOUS
 10
2.214949
 20
-3.451051
  0
VERTEX
  8
PLAN_1
  6
CONTINUOUS
 10
2.215854
 20
-3.453315
  0
VERTEX
  8
PLAN_1
  6
CONTINUOUS
 10
2.216760
 20
-3.455579
  0
VERTEX
  8
PLAN_1
  6
CONTINUOUS
 10
2.218118
 20
-3.457390
  0
VERTEX
  8
PLAN_1
  6
CONTINUOUS
 10
2.219476
 20
-3.459197
  0
VERTEX
  8
PLAN_1
  6
CONTINUOUS
 10
2.221287
 20
-3.460555
  0
VERTEX
  8
PLAN_1
  6
CONTINUOUS
 10
2.224909
 20
-3.463272
  0
VERTEX
  8
PLAN_1
  6
CONTINUOUS
 10
2.228531
 20
-3.465083
  0
VERTEX
  8
PLAN_1
  6
CONTINUOUS
 10
2.233059
 20
-3.466894
  0
VERTEX
  8
PLAN_1
  6
CONTINUOUS
 10
2.237134
 20
-3.467799
  0
VERTEX
  8
PLAN_1
  6
CONTINUOUS
 10
2.294181
 20
-3.480929
  0
VERTEX
  8
PLAN_1
  6
CONTINUOUS
 10
2.299161
 20
-3.482287
  0
VERTEX
  8
PLAN_1
  6
CONTINUOUS
 10
2.303689
 20
-3.483646
  0
VERTEX
  8
PLAN_1
  6
CONTINUOUS
 10
2.307764
 20
-3.485457
  0
VERTEX
  8
PLAN_1
  6
CONTINUOUS
 10
2.312291
 20
-3.487720
  0
VERTEX
  8
PLAN_1
  6
CONTINUOUS
 10
2.315913
 20
-3.489531
  0
VERTEX
  8
PLAN_1
  6
CONTINUOUS
 10
2.319988
 20
-3.492248
  0
VERTEX
  8
PLAN_1
  6
CONTINUOUS
 10
2.323157
 20
-3.494965
  0
VERTEX
  8
PLAN_1
  6
CONTINUOUS
 10
2.326327
 20
-3.498134
  0
VERTEX
  8
PLAN_1
  6
CONTINUOUS
 10
2.329496
 20
-3.501303
  0
VERTEX
  8
PLAN_1
  6
CONTINUOUS
 10
2.331760
 20
-3.505378
  0
VERTEX
  8
PLAN_1
  6
CONTINUOUS
 10
2.334020
 20
-3.509000
  0
VERTEX
  8
PLAN_1
  6
CONTINUOUS
 10
2.335831
 20
-3.513528
  0
VERTEX
  8
PLAN_1
  6
CONTINUOUS
 10
2.337642
 20
-3.518055
  0
VERTEX
  8
PLAN_1
  6
CONTINUOUS
 10
2.338547
 20
-3.523035
  0
VERTEX
  8
PLAN_1
  6
CONTINUOUS
 10
2.339000
 20
-3.528469
  0
VERTEX
  8
PLAN_1
  6
CONTINUOUS
 10
2.339453
 20
-3.534354
  0
VERTEX
  8
PLAN_1
  6
CONTINUOUS
 10
2.339453
 20
-3.538882
  0
VERTEX
  8
PLAN_1
  6
CONTINUOUS
 10
2.339000
 20
-3.542957
  0
VERTEX
  8
PLAN_1
  6
CONTINUOUS
 10
2.338547
 20
-3.546579
  0
VERTEX
  8
PLAN_1
  6
CONTINUOUS
 10
2.337642
 20
-3.550654
  0
VERTEX
  8
PLAN_1
  6
CONTINUOUS
 10
2.336283
 20
-3.554276
  0
VERTEX
  8
PLAN_1
  6
CONTINUOUS
 10
2.335378
 20
-3.557445
  0
VERTEX
  8
PLAN_1
  6
CONTINUOUS
 10
2.333567
 20
-3.560614
  0
VERTEX
  8
PLAN_1
  6
CONTINUOUS
 10
2.332209
 20
-3.563783
  0
VERTEX
  8
PLAN_1
  6
CONTINUOUS
 10
2.328138
 20
-3.569217
  0
VERTEX
  8
PLAN_1
  6
CONTINUOUS
 10
2.323610
 20
-3.574197
  0
VERTEX
  8
PLAN_1
  6
CONTINUOUS
 10
2.318630
 20
-3.578272
  0
VERTEX
  8
PLAN_1
  6
CONTINUOUS
 10
2.313197
 20
-3.582346
  0
VERTEX
  8
PLAN_1
  6
CONTINUOUS
 10
2.307311
 20
-3.585516
  0
VERTEX
  8
PLAN_1
  6
CONTINUOUS
 10
2.300972
 20
-3.587780
  0
VERTEX
  8
PLAN_1
  6
CONTINUOUS
 10
2.294634
 20
-3.590043
  0
VERTEX
  8
PLAN_1
  6
CONTINUOUS
 10
2.287843
 20
-3.591854
  0
VERTEX
  8
PLAN_1
  6
CONTINUOUS
 10
2.281504
 20
-3.593213
  0
VERTEX
  8
PLAN_1
  6
CONTINUOUS
 10
2.274713
 20
-3.594118
  0
VERTEX
  8
PLAN_1
  6
CONTINUOUS
 10
2.267921
 20
-3.594571
  0
VERTEX
  8
PLAN_1
  6
CONTINUOUS
 10
2.261583
 20
-3.594571
  0
VERTEX
  8
PLAN_1
  6
CONTINUOUS
 10
2.254791
 20
-3.594571
  0
VERTEX
  8
PLAN_1
  6
CONTINUOUS
 10
2.248453
 20
-3.594118
  0
VERTEX
  8
PLAN_1
  6
CONTINUOUS
 10
2.243020
 20
-3.593665
  0
VERTEX
  8
PLAN_1
  6
CONTINUOUS
 10
2.237587
 20
-3.592760
  0
VERTEX
  8
PLAN_1
  6
CONTINUOUS
 10
2.233059
 20
-3.591854
  0
VERTEX
  8
PLAN_1
  6
CONTINUOUS
 10
2.228531
 20
-3.590496
  0
VERTEX
  8
PLAN_1
  6
CONTINUOUS
 10
2.224457
 20
-3.589591
  0
VERTEX
  8
PLAN_1
  6
CONTINUOUS
 10
2.220835
 20
-3.588232
  0
VERTEX
  8
PLAN_1
  6
CONTINUOUS
 10
2.214496
 20
-3.585063
  0
VERTEX
  8
PLAN_1
  6
CONTINUOUS
 10
2.209063
 20
-3.581894
  0
VERTEX
  8
PLAN_1
  6
CONTINUOUS
 10
2.204988
 20
-3.578724
  0
VERTEX
  8
PLAN_1
  6
CONTINUOUS
 10
2.201366
 20
-3.575555
  0
VERTEX
  8
PLAN_1
  6
CONTINUOUS
 10
2.198197
 20
-3.572386
  0
VERTEX
  8
PLAN_1
  6
CONTINUOUS
 10
2.195480
 20
-3.569669
  0
VERTEX
  8
PLAN_1
  6
CONTINUOUS
 10
2.193217
 20
-3.566500
  0
VERTEX
  8
PLAN_1
  6
CONTINUOUS
 10
2.190953
 20
-3.563783
  0
VERTEX
  8
PLAN_1
  6
CONTINUOUS
 10
2.187331
 20
-3.557445
  0
VERTEX
  8
PLAN_1
  6
CONTINUOUS
 10
2.184614
 20
-3.551559
  0
VERTEX
  8
PLAN_1
  6
CONTINUOUS
 10
2.182803
 20
-3.545220
  0
VERTEX
  8
PLAN_1
  6
CONTINUOUS
 10
2.181898
 20
-3.538429
  0
VERTEX
  8
PLAN_1
  6
CONTINUOUS
 10
2.180992
 20
-3.531638
  0
VERTEX
  8
PLAN_1
  6
CONTINUOUS
 10
2.180992
 20
-3.524846
  0
VERTEX
  8
PLAN_1
  6
CONTINUOUS
 10
2.206346
 20
-3.524846
  0
VERTEX
  8
PLAN_1
  6
CONTINUOUS
 10
2.206346
 20
-3.531185
  0
VERTEX
  8
PLAN_1
  6
CONTINUOUS
 10
2.207705
 20
-3.537071
  0
VERTEX
  8
PLAN_1
  6
CONTINUOUS
 10
2.209063
 20
-3.542504
  0
VERTEX
  8
PLAN_1
  6
CONTINUOUS
 10
2.211327
 20
-3.547484
  0
VERTEX
  8
PLAN_1
  6
CONTINUOUS
 10
2.214043
 20
-3.551559
  0
VERTEX
  8
PLAN_1
  6
CONTINUOUS
 10
2.216760
 20
-3.555634
  0
VERTEX
  8
PLAN_1
  6
CONTINUOUS
 10
2.220382
 20
-3.558803
  0
VERTEX
  8
PLAN_1
  6
CONTINUOUS
 10
2.224004
 20
-3.561972
  0
VERTEX
  8
PLAN_1
  6
CONTINUOUS
 10
2.228079
 20
-3.564236
  0
VERTEX
  8
PLAN_1
  6
CONTINUOUS
 10
2.232606
 20
-3.566500
  0
VERTEX
  8
PLAN_1
  6
CONTINUOUS
 10
2.237134
 20
-3.567858
  0
VERTEX
  8
PLAN_1
  6
CONTINUOUS
 10
2.241661
 20
-3.569217
  0
VERTEX
  8
PLAN_1
  6
CONTINUOUS
 10
2.246642
 20
-3.570122
  0
VERTEX
  8
PLAN_1
  6
CONTINUOUS
 10
2.251622
 20
-3.571028
  0
VERTEX
  8
PLAN_1
  6
CONTINUOUS
 10
2.256150
 20
-3.571480
  0
VERTEX
  8
PLAN_1
  6
CONTINUOUS
 10
2.261130
 20
-3.571480
  0
VERTEX
  8
PLAN_1
  6
CONTINUOUS
 10
2.268827
 20
-3.571480
  0
VERTEX
  8
PLAN_1
  6
CONTINUOUS
 10
2.277429
 20
-3.570122
  0
VERTEX
  8
PLAN_1
  6
CONTINUOUS
 10
2.281957
 20
-3.569669
  0
VERTEX
  8
PLAN_1
  6
CONTINUOUS
 10
2.286031
 20
-3.568311
  0
VERTEX
  8
PLAN_1
  6
CONTINUOUS
 10
2.290559
 20
-3.566953
  0
VERTEX
  8
PLAN_1
  6
CONTINUOUS
 10
2.294634
 20
-3.565594
  0
VERTEX
  8
PLAN_1
  6
CONTINUOUS
 10
2.298256
 20
-3.563331
  0
VERTEX
  8
PLAN_1
  6
CONTINUOUS
 10
2.301878
 20
-3.561067
  0
VERTEX
  8
PLAN_1
  6
CONTINUOUS
 10
2.305047
 20
-3.558350
  0
VERTEX
  8
PLAN_1
  6
CONTINUOUS
 10
2.307764
 20
-3.555181
  0
VERTEX
  8
PLAN_1
  6
CONTINUOUS
 10
2.310028
 20
-3.551559
  0
VERTEX
  8
PLAN_1
  6
CONTINUOUS
 10
2.311839
 20
-3.547484
  0
VERTEX
  8
PLAN_1
  6
CONTINUOUS
 10
2.313197
 20
-3.542957
  0
VERTEX
  8
PLAN_1
  6
CONTINUOUS
 10
2.313197
 20
-3.537976
  0
VERTEX
  8
PLAN_1
  6
CONTINUOUS
 10
2.313197
 20
-3.534354
  0
VERTEX
  8
PLAN_1
  6
CONTINUOUS
 10
2.312744
 20
-3.530732
  0
VERTEX
  8
PLAN_1
  6
CONTINUOUS
 10
2.312291
 20
-3.527563
  0
VERTEX
  8
PLAN_1
  6
CONTINUOUS
 10
2.311386
 20
-3.524846
  0
VERTEX
  8
PLAN_1
  6
CONTINUOUS
 10
2.310028
 20
-3.522130
  0
VERTEX
  8
PLAN_1
  6
CONTINUOUS
 10
2.308669
 20
-3.519866
  0
VERTEX
  8
PLAN_1
  6
CONTINUOUS
 10
2.306858
 20
-3.517602
  0
VERTEX
  8
PLAN_1
  6
CONTINUOUS
 10
2.304594
 20
-3.515339
  0
VERTEX
  8
PLAN_1
  6
CONTINUOUS
 10
2.301878
 20
-3.513528
  0
VERTEX
  8
PLAN_1
  6
CONTINUOUS
 10
2.298709
 20
-3.511717
  0
VERTEX
  8
PLAN_1
  6
CONTINUOUS
 10
2.295087
 20
-3.510358
  0
VERTEX
  8
PLAN_1
  6
CONTINUOUS
 10
2.291465
 20
-3.508547
  0
VERTEX
  8
PLAN_1
  6
CONTINUOUS
 10
2.281957
 20
-3.505378
  0
VERTEX
  8
PLAN_1
  6
CONTINUOUS
 10
2.271091
 20
-3.502661
  0
VERTEX
  8
PLAN_1
  6
CONTINUOUS
 10
2.229890
 20
-3.493154
  0
VERTEX
  8
PLAN_1
  6
CONTINUOUS
 10
2.224457
 20
-3.491795
  0
VERTEX
  8
PLAN_1
  6
CONTINUOUS
 10
2.218118
 20
-3.489531
  0
VERTEX
  8
PLAN_1
  6
CONTINUOUS
 10
2.214496
 20
-3.488173
  0
VERTEX
  8
PLAN_1
  6
CONTINUOUS
 10
2.210874
 20
-3.486362
  0
VERTEX
  8
PLAN_1
  6
CONTINUOUS
 10
2.207252
 20
-3.484098
  0
VERTEX
  8
PLAN_1
  6
CONTINUOUS
 10
2.204083
 20
-3.481835
  0
VERTEX
  8
PLAN_1
  6
CONTINUOUS
 10
2.200461
 20
-3.478665
  0
VERTEX
  8
PLAN_1
  6
CONTINUOUS
 10
2.197744
 20
-3.475496
  0
VERTEX
  8
PLAN_1
  6
CONTINUOUS
 10
2.195028
 20
-3.471874
  0
VERTEX
  8
PLAN_1
  6
CONTINUOUS
 10
2.192311
 20
-3.467799
  0
VERTEX
  8
PLAN_1
  6
CONTINUOUS
 10
2.190500
 20
-3.463272
  0
VERTEX
  8
PLAN_1
  6
CONTINUOUS
 10
2.188689
 20
-3.458295
  0
VERTEX
  8
PLAN_1
  6
CONTINUOUS
 10
2.187783
 20
-3.452409
  0
VERTEX
  8
PLAN_1
  6
CONTINUOUS
 10
2.187783
 20
-3.446524
  0
VERTEX
  8
PLAN_1
  6
CONTINUOUS
 10
2.187783
 20
-3.440638
  0
VERTEX
  8
PLAN_1
  6
CONTINUOUS
 10
2.188689
 20
-3.434752
  0
VERTEX
  8
PLAN_1
  6
CONTINUOUS
 10
2.189594
 20
-3.429319
  0
VERTEX
  8
PLAN_1
  6
CONTINUOUS
 10
2.191406
 20
-3.423433
  0
VERTEX
  8
PLAN_1
  6
CONTINUOUS
 10
2.193669
 20
-3.418453
  0
VERTEX
  8
PLAN_1
  6
CONTINUOUS
 10
2.196386
 20
-3.413020
  0
VERTEX
  8
PLAN_1
  6
CONTINUOUS
 10
2.200008
 20
-3.408492
  0
VERTEX
  8
PLAN_1
  6
CONTINUOUS
 10
2.203630
 20
-3.403965
  0
VERTEX
  8
PLAN_1
  6
CONTINUOUS
 10
2.208157
 20
-3.399890
  0
VERTEX
  8
PLAN_1
  6
CONTINUOUS
 10
2.213138
 20
-3.396268
  0
VERTEX
  8
PLAN_1
  6
CONTINUOUS
 10
2.219024
 20
-3.392646
  0
VERTEX
  8
PLAN_1
  6
CONTINUOUS
 10
2.224909
 20
-3.389929
  0
VERTEX
  8
PLAN_1
  6
CONTINUOUS
 10
2.231701
 20
-3.387665
  0
VERTEX
  8
PLAN_1
  6
CONTINUOUS
 10
2.239398
 20
-3.386307
  0
VERTEX
  8
PLAN_1
  6
CONTINUOUS
 10
2.247547
 20
-3.384949
  0
VERTEX
  8
PLAN_1
  6
CONTINUOUS
 10
2.256150
 20
-3.384949
  0
VERTEX
  8
PLAN_1
  6
CONTINUOUS
 10
2.262488
 20
-3.384949
  0
VERTEX
  8
PLAN_1
  6
CONTINUOUS
 10
2.268374
 20
-3.385402
  0
VERTEX
  8
PLAN_1
  6
CONTINUOUS
 10
2.274260
 20
-3.385854
  0
VERTEX
  8
PLAN_1
  6
CONTINUOUS
 10
2.279693
 20
-3.386760
  0
VERTEX
  8
PLAN_1
  6
CONTINUOUS
 10
2.284673
 20
-3.387665
  0
VERTEX
  8
PLAN_1
  6
CONTINUOUS
 10
2.289201
 20
-3.388571
  0
VERTEX
  8
PLAN_1
  6
CONTINUOUS
 10
2.293276
 20
-3.389929
  0
VERTEX
  8
PLAN_1
  6
CONTINUOUS
 10
2.297350
 20
-3.391740
  0
VERTEX
  8
PLAN_1
  6
CONTINUOUS
 10
2.301425
 20
-3.393098
  0
VERTEX
  8
PLAN_1
  6
CONTINUOUS
 10
2.305047
 20
-3.394909
  0
VERTEX
  8
PLAN_1
  6
CONTINUOUS
 10
2.308217
 20
-3.397173
  0
VERTEX
  8
PLAN_1
  6
CONTINUOUS
 10
2.310933
 20
-3.398984
  0
VERTEX
  8
PLAN_1
  6
CONTINUOUS
 10
2.316366
 20
-3.403512
  0
VERTEX
  8
PLAN_1
  6
CONTINUOUS
 10
2.320894
 20
-3.408492
  0
VERTEX
  8
PLAN_1
  6
CONTINUOUS
 10
2.324516
 20
-3.413472
  0
VERTEX
  8
PLAN_1
  6
CONTINUOUS
 10
2.327232
 20
-3.418453
  0
VERTEX
  8
PLAN_1
  6
CONTINUOUS
 10
2.329496
 20
-3.423886
  0
VERTEX
  8
PLAN_1
  6
CONTINUOUS
 10
2.331307
 20
-3.429319
  0
VERTEX
  8
PLAN_1
  6
CONTINUOUS
 10
2.332209
 20
-3.434299
  0
VERTEX
  8
PLAN_1
  6
CONTINUOUS
 10
2.333114
 20
-3.439280
  0
VERTEX
  8
PLAN_1
  6
CONTINUOUS
 10
2.333567
 20
-3.443807
  0
VERTEX
  8
PLAN_1
  6
CONTINUOUS
 10
2.334020
 20
-3.448335
  0
VERTEX
  8
PLAN_1
  6
CONTINUOUS
 10
2.308669
 20
-3.448335
  0
SEQEND
  8
0
  0
POLYLINE
  8
PLAN_1
  6
CONTINUOUS
 66
     1
 40
0.008146
 41
0.008146
  0
VERTEX
  8
PLAN_1
  6
CONTINUOUS
 10
-2.332925
 20
3.232898
  0
VERTEX
  8
PLAN_1
  6
CONTINUOUS
 10
-2.332925
 20
1.073732
  0
VERTEX
  8
PLAN_1
  6
CONTINUOUS
 10
-2.084366
 20
1.073732
  0
VERTEX
  8
PLAN_1
  6
CONTINUOUS
 10
-2.084366
 20
3.232898
  0
VERTEX
  8
PLAN_1
  6
CONTINUOUS
 10
-2.332925
 20
3.232898
  0
SEQEND
  8
0
  0
POLYLINE
  8
PLAN_1
  6
CONTINUOUS
 66
     1
 40
0.008146
 41
0.008146
  0
VERTEX
  8
PLAN_1
  6
CONTINUOUS
 10
-2.084366
 20
2.888354
  0
VERTEX
  8
PLAN_1
  6
CONTINUOUS
 10
-2.333378
 20
2.888354
  0
SEQEND
  8
0
  0
POLYLINE
  8
PLAN_1
  6
CONTINUOUS
 66
     1
 40
0.008146
 41
0.008146
  0
VERTEX
  8
PLAN_1
  6
CONTINUOUS
 10
-2.333378
 20
1.480303
  0
VERTEX
  8
PLAN_1
  6
CONTINUOUS
 10
-2.084366
 20
1.480303
  0
SEQEND
  8
0
  0
POLYLINE
  8
PLAN_1
  6
CONTINUOUS
 66
     1
 40
0.008146
 41
0.008146
  0
VERTEX
  8
PLAN_1
  6
CONTINUOUS
 10
-2.084366
 20
0.780350
  0
VERTEX
  8
PLAN_1
  6
CONTINUOUS
 10
-0.925327
 20
0.780350
  0
VERTEX
  8
PLAN_1
  6
CONTINUOUS
 10
-0.925327
 20
3.615925
  0
VERTEX
  8
PLAN_1
  6
CONTINUOUS
 10
-2.084366
 20
3.615925
  0
VERTEX
  8
PLAN_1
  6
CONTINUOUS
 10
-2.084366
 20
0.780350
  0
SEQEND
  8
0
  0
POLYLINE
  8
PLAN_1
  6
CONTINUOUS
 66
     1
 40
0.004071
 41
0.004071
  0
VERTEX
  8
PLAN_1
  6
CONTINUOUS
 10
-1.952614
 20
0.969150
  0
VERTEX
  8
PLAN_1
  6
CONTINUOUS
 10
-2.202079
 20
0.969150
  0
SEQEND
  8
0
  0
POLYLINE
  8
PLAN_1
  6
CONTINUOUS
 66
     1
 40
0.004071
 41
0.004071
  0
VERTEX
  8
PLAN_1
  6
CONTINUOUS
 10
-0.801272
 20
0.969150
  0
VERTEX
  8
PLAN_1
  6
CONTINUOUS
 10
-1.050736
 20
0.969150
  0
SEQEND
  8
0
  0
POLYLINE
  8
PLAN_1
  6
CONTINUOUS
 66
     1
 40
0.004071
 41
0.004071
  0
VERTEX
  8
PLAN_1
  6
CONTINUOUS
 10
-1.952614
 20
3.379138
  0
VERTEX
  8
PLAN_1
  6
CONTINUOUS
 10
-2.202079
 20
3.379138
  0
SEQEND
  8
0
  0
POLYLINE
  8
PLAN_1
  6
CONTINUOUS
 66
     1
 40
0.004071
 41
0.004071
  0
VERTEX
  8
PLAN_1
  6
CONTINUOUS
 10
-0.801272
 20
3.379138
  0
VERTEX
  8
PLAN_1
  6
CONTINUOUS
 10
-1.050736
 20
3.379138
  0
SEQEND
  8
0
  0
POLYLINE
  8
PLAN_1
  6
CONTINUOUS
 66
     1
 40
0.004071
 41
0.004071
  0
VERTEX
  8
PLAN_1
  6
CONTINUOUS
 10
-1.634783
 20
0.913913
  0
VERTEX
  8
PLAN_1
  6
CONTINUOUS
 10
-1.634783
 20
0.664449
  0
SEQEND
  8
0
  0
POLYLINE
  8
PLAN_1
 62
     2
  6
CONTINUOUS
 66
     1
 40
0.004071
 41
0.004071
  0
VERTEX
  8
PLAN_1
 62
     2
  6
CONTINUOUS
 10
-0.917630
 20
0.756811
  0
VERTEX
  8
PLAN_1
 62
     2
  6
CONTINUOUS
 10
-0.917630
 20
0.646791
  0
SEQEND
  8
0
  0
POLYLINE
  8
PLAN_1
 62
     2
  6
CONTINUOUS
 66
     1
 40
0.004071
 41
0.004071
  0
VERTEX
  8
PLAN_1
 62
     2
  6
CONTINUOUS
 10
-0.917630
 20
0.577520
  0
VERTEX
  8
PLAN_1
 62
     2
  6
CONTINUOUS
 10
-0.917630
 20
0.328508
  0
SEQEND
  8
0
  0
POLYLINE
  8
PLAN_1
 62
     2
  6
CONTINUOUS
 66
     1
 40
0.004071
 41
0.004071
  0
VERTEX
  8
PLAN_1
 62
     2
  6
CONTINUOUS
 10
-2.084366
 20
0.756811
  0
VERTEX
  8
PLAN_1
 62
     2
  6
CONTINUOUS
 10
-2.084366
 20
0.486063
  0
SEQEND
  8
0
  0
POLYLINE
  8
PLAN_1
 62
     2
  6
CONTINUOUS
 66
     1
 40
0.004071
 41
0.004071
  0
VERTEX
  8
PLAN_1
 62
     2
  6
CONTINUOUS
 10
-2.054937
 20
0.509606
  0
VERTEX
  8
PLAN_1
 62
     2
  6
CONTINUOUS
 10
-0.947059
 20
0.509606
  0
SEQEND
  8
0
  0
SOLID
  8
PLAN_1
 62
     2
 10
-0.917630
 20
0.509606
 11
-0.976488
 21
0.525453
 12
-0.917630
 22
0.509606
 13
-0.976488
 23
0.493760
  0
POLYLINE
  8
PLAN_1
 62
     2
  6
CONTINUOUS
 66
     1
 40
0.003000
 41
0.003000
  0
VERTEX
  8
PLAN_1
 62
     2
  6
CONTINUOUS
 10
-0.917630
 20
0.509606
  0
VERTEX
  8
PLAN_1
 62
     2
  6
CONTINUOUS
 10
-0.976488
 20
0.525453
  0
VERTEX
  8
PLAN_1
 62
     2
  6
CONTINUOUS
 10
-0.976488
 20
0.493760
  0
VERTEX
  8
PLAN_1
 62
     2
  6
CONTINUOUS
 10
-0.917630
 20
0.509606
  0
SEQEND
  8
0
  0
SOLID
  8
PLAN_1
 62
     2
 10
-2.084366
 20
0.509606
 11
-2.025508
 21
0.525453
 12
-2.084366
 22
0.509606
 13
-2.025508
 23
0.493760
  0
POLYLINE
  8
PLAN_1
 62
     2
  6
CONTINUOUS
 66
     1
 40
0.003000
 41
0.003000
  0
VERTEX
  8
PLAN_1
 62
     2
  6
CONTINUOUS
 10
-2.084366
 20
0.509606
  0
VERTEX
  8
PLAN_1
 62
     2
  6
CONTINUOUS
 10
-2.025508
 20
0.525453
  0
VERTEX
  8
PLAN_1
 62
     2
  6
CONTINUOUS
 10
-2.025508
 20
0.493760
  0
VERTEX
  8
PLAN_1
 62
     2
  6
CONTINUOUS
 10
-2.084366
 20
0.509606
  0
SEQEND
  8
0
  0
POLYLINE
  8
PLAN_1
 62
     2
  6
CONTINUOUS
 66
     1
 40
0.003000
 41
0.003000
  0
VERTEX
  8
PLAN_1
 62
     2
  6
CONTINUOUS
 10
-1.600374
 20
0.580236
  0
VERTEX
  8
PLAN_1
 62
     2
  6
CONTINUOUS
 10
-1.599921
 20
0.584311
  0
VERTEX
  8
PLAN_1
 62
     2
  6
CONTINUOUS
 10
-1.599469
 20
0.588386
  0
VERTEX
  8
PLAN_1
 62
     2
  6
CONTINUOUS
 10
-1.598563
 20
0.591555
  0
VERTEX
  8
PLAN_1
 62
     2
  6
CONTINUOUS
 10
-1.597205
 20
0.594272
  0
VERTEX
  8
PLAN_1
 62
     2
  6
CONTINUOUS
 10
-1.595846
 20
0.596988
  0
VERTEX
  8
PLAN_1
 62
     2
  6
CONTINUOUS
 10
-1.594488
 20
0.598799
  0
VERTEX
  8
PLAN_1
 62
     2
  6
CONTINUOUS
 10
-1.592677
 20
0.600610
  0
VERTEX
  8
PLAN_1
 62
     2
  6
CONTINUOUS
 10
-1.590413
 20
0.602421
  0
VERTEX
  8
PLAN_1
 62
     2
  6
CONTINUOUS
 10
-1.586339
 20
0.604232
  0
VERTEX
  8
PLAN_1
 62
     2
  6
CONTINUOUS
 10
-1.582268
 20
0.605591
  0
VERTEX
  8
PLAN_1
 62
     2
  6
CONTINUOUS
 10
-1.578193
 20
0.606496
  0
VERTEX
  8
PLAN_1
 62
     2
  6
CONTINUOUS
 10
-1.575024
 20
0.606496
  0
VERTEX
  8
PLAN_1
 62
     2
  6
CONTINUOUS
 10
-1.570496
 20
0.606043
  0
VERTEX
  8
PLAN_1
 62
     2
  6
CONTINUOUS
 10
-1.565969
 20
0.605138
  0
VERTEX
  8
PLAN_1
 62
     2
  6
CONTINUOUS
 10
-1.561894
 20
0.602874
  0
VERTEX
  8
PLAN_1
 62
     2
  6
CONTINUOUS
 10
-1.558724
 20
0.600610
  0
VERTEX
  8
PLAN_1
 62
     2
  6
CONTINUOUS
 10
-1.556008
 20
0.597441
  0
VERTEX
  8
PLAN_1
 62
     2
  6
CONTINUOUS
 10
-1.553744
 20
0.593819
  0
VERTEX
  8
PLAN_1
 62
     2
  6
CONTINUOUS
 10
-1.552839
 20
0.591555
  0
VERTEX
  8
PLAN_1
 62
     2
  6
CONTINUOUS
 10
-1.552386
 20
0.589291
  0
VERTEX
  8
PLAN_1
 62
     2
  6
CONTINUOUS
 10
-1.551933
 20
0.587028
  0
VERTEX
  8
PLAN_1
 62
     2
  6
CONTINUOUS
 10
-1.551933
 20
0.584764
  0
VERTEX
  8
PLAN_1
 62
     2
  6
CONTINUOUS
 10
-1.552386
 20
0.579783
  0
VERTEX
  8
PLAN_1
 62
     2
  6
CONTINUOUS
 10
-1.553744
 20
0.576161
  0
VERTEX
  8
PLAN_1
 62
     2
  6
CONTINUOUS
 10
-1.555555
 20
0.572539
  0
VERTEX
  8
PLAN_1
 62
     2
  6
CONTINUOUS
 10
-1.557819
 20
0.569823
  0
VERTEX
  8
PLAN_1
 62
     2
  6
CONTINUOUS
 10
-1.560535
 20
0.567106
  0
VERTEX
  8
PLAN_1
 62
     2
  6
CONTINUOUS
 10
-1.563705
 20
0.564390
  0
VERTEX
  8
PLAN_1
 62
     2
  6
CONTINUOUS
 10
-1.567780
 20
0.562126
  0
VERTEX
  8
PLAN_1
 62
     2
  6
CONTINUOUS
 10
-1.571402
 20
0.560315
  0
VERTEX
  8
PLAN_1
 62
     2
  6
CONTINUOUS
 10
-1.579098
 20
0.555787
  0
VERTEX
  8
PLAN_1
 62
     2
  6
CONTINUOUS
 10
-1.582720
 20
0.553976
  0
VERTEX
  8
PLAN_1
 62
     2
  6
CONTINUOUS
 10
-1.585433
 20
0.551713
  0
VERTEX
  8
PLAN_1
 62
     2
  6
CONTINUOUS
 10
-1.587244
 20
0.549902
  0
VERTEX
  8
PLAN_1
 62
     2
  6
CONTINUOUS
 10
-1.589055
 20
0.548091
  0
VERTEX
  8
PLAN_1
 62
     2
  6
CONTINUOUS
 10
-1.590413
 20
0.546280
  0
VERTEX
  8
PLAN_1
 62
     2
  6
CONTINUOUS
 10
-1.590866
 20
0.544469
  0
VERTEX
  8
PLAN_1
 62
     2
  6
CONTINUOUS
 10
-1.591319
 20
0.543110
  0
VERTEX
  8
PLAN_1
 62
     2
  6
CONTINUOUS
 10
-1.591772
 20
0.541752
  0
VERTEX
  8
PLAN_1
 62
     2
  6
CONTINUOUS
 10
-1.551933
 20
0.541752
  0
VERTEX
  8
PLAN_1
 62
     2
  6
CONTINUOUS
 10
-1.551933
 20
0.533150
  0
VERTEX
  8
PLAN_1
 62
     2
  6
CONTINUOUS
 10
-1.602185
 20
0.533150
  0
VERTEX
  8
PLAN_1
 62
     2
  6
CONTINUOUS
 10
-1.601732
 20
0.538583
  0
VERTEX
  8
PLAN_1
 62
     2
  6
CONTINUOUS
 10
-1.600374
 20
0.543563
  0
VERTEX
  8
PLAN_1
 62
     2
  6
CONTINUOUS
 10
-1.599016
 20
0.547638
  0
VERTEX
  8
PLAN_1
 62
     2
  6
CONTINUOUS
 10
-1.596752
 20
0.551260
  0
VERTEX
  8
PLAN_1
 62
     2
  6
CONTINUOUS
 10
-1.594488
 20
0.554429
  0
VERTEX
  8
PLAN_1
 62
     2
  6
CONTINUOUS
 10
-1.591772
 20
0.557598
  0
VERTEX
  8
PLAN_1
 62
     2
  6
CONTINUOUS
 10
-1.588602
 20
0.559862
  0
VERTEX
  8
PLAN_1
 62
     2
  6
CONTINUOUS
 10
-1.584980
 20
0.562126
  0
VERTEX
  8
PLAN_1
 62
     2
  6
CONTINUOUS
 10
-1.575024
 20
0.568012
  0
VERTEX
  8
PLAN_1
 62
     2
  6
CONTINUOUS
 10
-1.572307
 20
0.569370
  0
VERTEX
  8
PLAN_1
 62
     2
  6
CONTINUOUS
 10
-1.570043
 20
0.571181
  0
VERTEX
  8
PLAN_1
 62
     2
  6
CONTINUOUS
 10
-1.567780
 20
0.572539
  0
VERTEX
  8
PLAN_1
 62
     2
  6
CONTINUOUS
 10
-1.565516
 20
0.574350
  0
VERTEX
  8
PLAN_1
 62
     2
  6
CONTINUOUS
 10
-1.564157
 20
0.576614
  0
VERTEX
  8
PLAN_1
 62
     2
  6
CONTINUOUS
 10
-1.562799
 20
0.578878
  0
VERTEX
  8
PLAN_1
 62
     2
  6
CONTINUOUS
 10
-1.561894
 20
0.581594
  0
VERTEX
  8
PLAN_1
 62
     2
  6
CONTINUOUS
 10
-1.561894
 20
0.585217
  0
VERTEX
  8
PLAN_1
 62
     2
  6
CONTINUOUS
 10
-1.561894
 20
0.587028
  0
VERTEX
  8
PLAN_1
 62
     2
  6
CONTINUOUS
 10
-1.562346
 20
0.589291
  0
VERTEX
  8
PLAN_1
 62
     2
  6
CONTINUOUS
 10
-1.563705
 20
0.591555
  0
VERTEX
  8
PLAN_1
 62
     2
  6
CONTINUOUS
 10
-1.565063
 20
0.593819
  0
VERTEX
  8
PLAN_1
 62
     2
  6
CONTINUOUS
 10
-1.566874
 20
0.595630
  0
VERTEX
  8
PLAN_1
 62
     2
  6
CONTINUOUS
 10
-1.569591
 20
0.596988
  0
VERTEX
  8
PLAN_1
 62
     2
  6
CONTINUOUS
 10
-1.572760
 20
0.597894
  0
VERTEX
  8
PLAN_1
 62
     2
  6
CONTINUOUS
 10
-1.576382
 20
0.598346
  0
VERTEX
  8
PLAN_1
 62
     2
  6
CONTINUOUS
 10
-1.578646
 20
0.597894
  0
VERTEX
  8
PLAN_1
 62
     2
  6
CONTINUOUS
 10
-1.580909
 20
0.597441
  0
VERTEX
  8
PLAN_1
 62
     2
  6
CONTINUOUS
 10
-1.582720
 20
0.596988
  0
VERTEX
  8
PLAN_1
 62
     2
  6
CONTINUOUS
 10
-1.584528
 20
0.596083
  0
VERTEX
  8
PLAN_1
 62
     2
  6
CONTINUOUS
 10
-1.586791
 20
0.593819
  0
VERTEX
  8
PLAN_1
 62
     2
  6
CONTINUOUS
 10
-1.588602
 20
0.591102
  0
VERTEX
  8
PLAN_1
 62
     2
  6
CONTINUOUS
 10
-1.589961
 20
0.587933
  0
VERTEX
  8
PLAN_1
 62
     2
  6
CONTINUOUS
 10
-1.590413
 20
0.585217
  0
VERTEX
  8
PLAN_1
 62
     2
  6
CONTINUOUS
 10
-1.590866
 20
0.582500
  0
VERTEX
  8
PLAN_1
 62
     2
  6
CONTINUOUS
 10
-1.590866
 20
0.580236
  0
VERTEX
  8
PLAN_1
 62
     2
  6
CONTINUOUS
 10
-1.600374
 20
0.580236
  0
SEQEND
  8
0
  0
POLYLINE
  8
PLAN_1
 62
     2
  6
CONTINUOUS
 66
     1
 40
0.003000
 41
0.003000
  0
VERTEX
  8
PLAN_1
 62
     2
  6
CONTINUOUS
 10
-1.542425
 20
0.581142
  0
VERTEX
  8
PLAN_1
 62
     2
  6
CONTINUOUS
 10
-1.541972
 20
0.586122
  0
VERTEX
  8
PLAN_1
 62
     2
  6
CONTINUOUS
 10
-1.541067
 20
0.591102
  0
VERTEX
  8
PLAN_1
 62
     2
  6
CONTINUOUS
 10
-1.539256
 20
0.595177
  0
VERTEX
  8
PLAN_1
 62
     2
  6
CONTINUOUS
 10
-1.536539
 20
0.598799
  0
VERTEX
  8
PLAN_1
 62
     2
  6
CONTINUOUS
 10
-1.535181
 20
0.600610
  0
VERTEX
  8
PLAN_1
 62
     2
  6
CONTINUOUS
 10
-1.533370
 20
0.601969
  0
VERTEX
  8
PLAN_1
 62
     2
  6
CONTINUOUS
 10
-1.531106
 20
0.603327
  0
VERTEX
  8
PLAN_1
 62
     2
  6
CONTINUOUS
 10
-1.529295
 20
0.604232
  0
VERTEX
  8
PLAN_1
 62
     2
  6
CONTINUOUS
 10
-1.527031
 20
0.605138
  0
VERTEX
  8
PLAN_1
 62
     2
  6
CONTINUOUS
 10
-1.524315
 20
0.606043
  0
VERTEX
  8
PLAN_1
 62
     2
  6
CONTINUOUS
 10
-1.521598
 20
0.606496
  0
VERTEX
  8
PLAN_1
 62
     2
  6
CONTINUOUS
 10
-1.518882
 20
0.606496
  0
VERTEX
  8
PLAN_1
 62
     2
  6
CONTINUOUS
 10
-1.514807
 20
0.606043
  0
VERTEX
  8
PLAN_1
 62
     2
  6
CONTINUOUS
 10
-1.511185
 20
0.605591
  0
VERTEX
  8
PLAN_1
 62
     2
  6
CONTINUOUS
 10
-1.508016
 20
0.604232
  0
VERTEX
  8
PLAN_1
 62
     2
  6
CONTINUOUS
 10
-1.505299
 20
0.602874
  0
VERTEX
  8
PLAN_1
 62
     2
  6
CONTINUOUS
 10
-1.502583
 20
0.601063
  0
VERTEX
  8
PLAN_1
 62
     2
  6
CONTINUOUS
 10
-1.500772
 20
0.598799
  0
VERTEX
  8
PLAN_1
 62
     2
  6
CONTINUOUS
 10
-1.498961
 20
0.596535
  0
VERTEX
  8
PLAN_1
 62
     2
  6
CONTINUOUS
 10
-1.497602
 20
0.593819
  0
VERTEX
  8
PLAN_1
 62
     2
  6
CONTINUOUS
 10
-1.495339
 20
0.588386
  0
VERTEX
  8
PLAN_1
 62
     2
  6
CONTINUOUS
 10
-1.493980
 20
0.582953
  0
VERTEX
  8
PLAN_1
 62
     2
  6
CONTINUOUS
 10
-1.493528
 20
0.577520
  0
VERTEX
  8
PLAN_1
 62
     2
  6
CONTINUOUS
 10
-1.493528
 20
0.572539
  0
VERTEX
  8
PLAN_1
 62
     2
  6
CONTINUOUS
 10
-1.493528
 20
0.568465
  0
VERTEX
  8
PLAN_1
 62
     2
  6
CONTINUOUS
 10
-1.493980
 20
0.562579
  0
VERTEX
  8
PLAN_1
 62
     2
  6
CONTINUOUS
 10
-1.495339
 20
0.556240
  0
VERTEX
  8
PLAN_1
 62
     2
  6
CONTINUOUS
 10
-1.497150
 20
0.548996
  0
VERTEX
  8
PLAN_1
 62
     2
  6
CONTINUOUS
 10
-1.498508
 20
0.545374
  0
VERTEX
  8
PLAN_1
 62
     2
  6
CONTINUOUS
 10
-1.500319
 20
0.542205
  0
VERTEX
  8
PLAN_1
 62
     2
  6
CONTINUOUS
 10
-1.502583
 20
0.539488
  0
VERTEX
  8
PLAN_1
 62
     2
  6
CONTINUOUS
 10
-1.505299
 20
0.536772
  0
VERTEX
  8
PLAN_1
 62
     2
  6
CONTINUOUS
 10
-1.508016
 20
0.534508
  0
VERTEX
  8
PLAN_1
 62
     2
  6
CONTINUOUS
 10
-1.511638
 20
0.532697
  0
VERTEX
  8
PLAN_1
 62
     2
  6
CONTINUOUS
 10
-1.515713
 20
0.531791
  0
VERTEX
  8
PLAN_1
 62
     2
  6
CONTINUOUS
 10
-1.519787
 20
0.531339
  0
VERTEX
  8
PLAN_1
 62
     2
  6
CONTINUOUS
 10
-1.522957
 20
0.531339
  0
VERTEX
  8
PLAN_1
 62
     2
  6
CONTINUOUS
 10
-1.525673
 20
0.531791
  0
VERTEX
  8
PLAN_1
 62
     2
  6
CONTINUOUS
 10
-1.528390
 20
0.532697
  0
VERTEX
  8
PLAN_1
 62
     2
  6
CONTINUOUS
 10
-1.530654
 20
0.533150
  0
VERTEX
  8
PLAN_1
 62
     2
  6
CONTINUOUS
 10
-1.532465
 20
0.534508
  0
VERTEX
  8
PLAN_1
 62
     2
  6
CONTINUOUS
 10
-1.534276
 20
0.535413
  0
VERTEX
  8
PLAN_1
 62
     2
  6
CONTINUOUS
 10
-1.536087
 20
0.536772
  0
VERTEX
  8
PLAN_1
 62
     2
  6
CONTINUOUS
 10
-1.537445
 20
0.538583
  0
VERTEX
  8
PLAN_1
 62
     2
  6
CONTINUOUS
 10
-1.539256
 20
0.541752
  0
VERTEX
  8
PLAN_1
 62
     2
  6
CONTINUOUS
 10
-1.540614
 20
0.544921
  0
VERTEX
  8
PLAN_1
 62
     2
  6
CONTINUOUS
 10
-1.541520
 20
0.548091
  0
VERTEX
  8
PLAN_1
 62
     2
  6
CONTINUOUS
 10
-1.541520
 20
0.550807
  0
VERTEX
  8
PLAN_1
 62
     2
  6
CONTINUOUS
 10
-1.532465
 20
0.550807
  0
VERTEX
  8
PLAN_1
 62
     2
  6
CONTINUOUS
 10
-1.532012
 20
0.548091
  0
VERTEX
  8
PLAN_1
 62
     2
  6
CONTINUOUS
 10
-1.531559
 20
0.545827
  0
VERTEX
  8
PLAN_1
 62
     2
  6
CONTINUOUS
 10
-1.530201
 20
0.544016
  0
VERTEX
  8
PLAN_1
 62
     2
  6
CONTINUOUS
 10
-1.528843
 20
0.542205
  0
VERTEX
  8
PLAN_1
 62
     2
  6
CONTINUOUS
 10
-1.527031
 20
0.540846
  0
VERTEX
  8
PLAN_1
 62
     2
  6
CONTINUOUS
 10
-1.525220
 20
0.539941
  0
VERTEX
  8
PLAN_1
 62
     2
  6
CONTINUOUS
 10
-1.522957
 20
0.539035
  0
VERTEX
  8
PLAN_1
 62
     2
  6
CONTINUOUS
 10
-1.520240
 20
0.539035
  0
VERTEX
  8
PLAN_1
 62
     2
  6
CONTINUOUS
 10
-1.516618
 20
0.539488
  0
VERTEX
  8
PLAN_1
 62
     2
  6
CONTINUOUS
 10
-1.513449
 20
0.540394
  0
VERTEX
  8
PLAN_1
 62
     2
  6
CONTINUOUS
 10
-1.510732
 20
0.542657
  0
VERTEX
  8
PLAN_1
 62
     2
  6
CONTINUOUS
 10
-1.508469
 20
0.545374
  0
VERTEX
  8
PLAN_1
 62
     2
  6
CONTINUOUS
 10
-1.506657
 20
0.549449
  0
VERTEX
  8
PLAN_1
 62
     2
  6
CONTINUOUS
 10
-1.504846
 20
0.553976
  0
VERTEX
  8
PLAN_1
 62
     2
  6
CONTINUOUS
 10
-1.503488
 20
0.559862
  0
VERTEX
  8
PLAN_1
 62
     2
  6
CONTINUOUS
 10
-1.502583
 20
0.566201
  0
VERTEX
  8
PLAN_1
 62
     2
  6
CONTINUOUS
 10
-1.502583
 20
0.566654
  0
VERTEX
  8
PLAN_1
 62
     2
  6
CONTINUOUS
 10
-1.503941
 20
0.564390
  0
VERTEX
  8
PLAN_1
 62
     2
  6
CONTINUOUS
 10
-1.505752
 20
0.562579
  0
VERTEX
  8
PLAN_1
 62
     2
  6
CONTINUOUS
 10
-1.507563
 20
0.561220
  0
VERTEX
  8
PLAN_1
 62
     2
  6
CONTINUOUS
 10
-1.509827
 20
0.559862
  0
VERTEX
  8
PLAN_1
 62
     2
  6
CONTINUOUS
 10
-1.512091
 20
0.558957
  0
VERTEX
  8
PLAN_1
 62
     2
  6
CONTINUOUS
 10
-1.514354
 20
0.558504
  0
VERTEX
  8
PLAN_1
 62
     2
  6
CONTINUOUS
 10
-1.517071
 20
0.558051
  0
VERTEX
  8
PLAN_1
 62
     2
  6
CONTINUOUS
 10
-1.519335
 20
0.557598
  0
VERTEX
  8
PLAN_1
 62
     2
  6
CONTINUOUS
 10
-1.524315
 20
0.558051
  0
VERTEX
  8
PLAN_1
 62
     2
  6
CONTINUOUS
 10
-1.528843
 20
0.559409
  0
VERTEX
  8
PLAN_1
 62
     2
  6
CONTINUOUS
 10
-1.530654
 20
0.560315
  0
VERTEX
  8
PLAN_1
 62
     2
  6
CONTINUOUS
 10
-1.532917
 20
0.561220
  0
VERTEX
  8
PLAN_1
 62
     2
  6
CONTINUOUS
 10
-1.534276
 20
0.562579
  0
VERTEX
  8
PLAN_1
 62
     2
  6
CONTINUOUS
 10
-1.536087
 20
0.563937
  0
VERTEX
  8
PLAN_1
 62
     2
  6
CONTINUOUS
 10
-1.537445
 20
0.565748
  0
VERTEX
  8
PLAN_1
 62
     2
  6
CONTINUOUS
 10
-1.538803
 20
0.567559
  0
VERTEX
  8
PLAN_1
 62
     2
  6
CONTINUOUS
 10
-1.539709
 20
0.569370
  0
VERTEX
  8
PLAN_1
 62
     2
  6
CONTINUOUS
 10
-1.540614
 20
0.571634
  0
VERTEX
  8
PLAN_1
 62
     2
  6
CONTINUOUS
 10
-1.541520
 20
0.573898
  0
VERTEX
  8
PLAN_1
 62
     2
  6
CONTINUOUS
 10
-1.541972
 20
0.576161
  0
VERTEX
  8
PLAN_1
 62
     2
  6
CONTINUOUS
 10
-1.542425
 20
0.578878
  0
VERTEX
  8
PLAN_1
 62
     2
  6
CONTINUOUS
 10
-1.542425
 20
0.581142
  0
SEQEND
  8
0
  0
POLYLINE
  8
PLAN_1
 62
     2
  6
CONTINUOUS
 66
     1
 40
0.003000
 41
0.003000
  0
VERTEX
  8
PLAN_1
 62
     2
  6
CONTINUOUS
 10
-1.503941
 20
0.582500
  0
VERTEX
  8
PLAN_1
 62
     2
  6
CONTINUOUS
 10
-1.504394
 20
0.585669
  0
VERTEX
  8
PLAN_1
 62
     2
  6
CONTINUOUS
 10
-1.504846
 20
0.588386
  0
VERTEX
  8
PLAN_1
 62
     2
  6
CONTINUOUS
 10
-1.506205
 20
0.591102
  0
VERTEX
  8
PLAN_1
 62
     2
  6
CONTINUOUS
 10
-1.507563
 20
0.593366
  0
VERTEX
  8
PLAN_1
 62
     2
  6
CONTINUOUS
 10
-1.509827
 20
0.595630
  0
VERTEX
  8
PLAN_1
 62
     2
  6
CONTINUOUS
 10
-1.512091
 20
0.596988
  0
VERTEX
  8
PLAN_1
 62
     2
  6
CONTINUOUS
 10
-1.515260
 20
0.597894
  0
VERTEX
  8
PLAN_1
 62
     2
  6
CONTINUOUS
 10
-1.518882
 20
0.598346
  0
VERTEX
  8
PLAN_1
 62
     2
  6
CONTINUOUS
 10
-1.522051
 20
0.597894
  0
VERTEX
  8
PLAN_1
 62
     2
  6
CONTINUOUS
 10
-1.524768
 20
0.596988
  0
VERTEX
  8
PLAN_1
 62
     2
  6
CONTINUOUS
 10
-1.527031
 20
0.595630
  0
VERTEX
  8
PLAN_1
 62
     2
  6
CONTINUOUS
 10
-1.529295
 20
0.593819
  0
VERTEX
  8
PLAN_1
 62
     2
  6
CONTINUOUS
 10
-1.530654
 20
0.591102
  0
VERTEX
  8
PLAN_1
 62
     2
  6
CONTINUOUS
 10
-1.532012
 20
0.588386
  0
VERTEX
  8
PLAN_1
 62
     2
  6
CONTINUOUS
 10
-1.532917
 20
0.585217
  0
VERTEX
  8
PLAN_1
 62
     2
  6
CONTINUOUS
 10
-1.532917
 20
0.581594
  0
VERTEX
  8
PLAN_1
 62
     2
  6
CONTINUOUS
 10
-1.532465
 20
0.577067
  0
VERTEX
  8
PLAN_1
 62
     2
  6
CONTINUOUS
 10
-1.531559
 20
0.573445
  0
VERTEX
  8
PLAN_1
 62
     2
  6
CONTINUOUS
 10
-1.529748
 20
0.570728
  0
VERTEX
  8
PLAN_1
 62
     2
  6
CONTINUOUS
 10
-1.527937
 20
0.568465
  0
VERTEX
  8
PLAN_1
 62
     2
  6
CONTINUOUS
 10
-1.525673
 20
0.567106
  0
VERTEX
  8
PLAN_1
 62
     2
  6
CONTINUOUS
 10
-1.522957
 20
0.566654
  0
VERTEX
  8
PLAN_1
 62
     2
  6
CONTINUOUS
 10
-1.520693
 20
0.566201
  0
VERTEX
  8
PLAN_1
 62
     2
  6
CONTINUOUS
 10
-1.517976
 20
0.565748
  0
VERTEX
  8
PLAN_1
 62
     2
  6
CONTINUOUS
 10
-1.516165
 20
0.566201
  0
VERTEX
  8
PLAN_1
 62
     2
  6
CONTINUOUS
 10
-1.513902
 20
0.566654
  0
VERTEX
  8
PLAN_1
 62
     2
  6
CONTINUOUS
 10
-1.511638
 20
0.567559
  0
VERTEX
  8
PLAN_1
 62
     2
  6
CONTINUOUS
 10
-1.509374
 20
0.568917
  0
VERTEX
  8
PLAN_1
 62
     2
  6
CONTINUOUS
 10
-1.507110
 20
0.571181
  0
VERTEX
  8
PLAN_1
 62
     2
  6
CONTINUOUS
 10
-1.505752
 20
0.573898
  0
VERTEX
  8
PLAN_1
 62
     2
  6
CONTINUOUS
 10
-1.504394
 20
0.577520
  0
VERTEX
  8
PLAN_1
 62
     2
  6
CONTINUOUS
 10
-1.503941
 20
0.582500
  0
SEQEND
  8
0
  0
POLYLINE
  8
PLAN_1
 62
     2
  6
CONTINUOUS
 66
     1
 40
0.003000
 41
0.003000
  0
VERTEX
  8
PLAN_1
 62
     2
  6
CONTINUOUS
 10
-1.479945
 20
0.544469
  0
VERTEX
  8
PLAN_1
 62
     2
  6
CONTINUOUS
 10
-1.469079
 20
0.544469
  0
VERTEX
  8
PLAN_1
 62
     2
  6
CONTINUOUS
 10
-1.469079
 20
0.534055
  0
VERTEX
  8
PLAN_1
 62
     2
  6
CONTINUOUS
 10
-1.469531
 20
0.529528
  0
VERTEX
  8
PLAN_1
 62
     2
  6
CONTINUOUS
 10
-1.470437
 20
0.525453
  0
VERTEX
  8
PLAN_1
 62
     2
  6
CONTINUOUS
 10
-1.471795
 20
0.522736
  0
VERTEX
  8
PLAN_1
 62
     2
  6
CONTINUOUS
 10
-1.473606
 20
0.520925
  0
VERTEX
  8
PLAN_1
 62
     2
  6
CONTINUOUS
 10
-1.475417
 20
0.519567
  0
VERTEX
  8
PLAN_1
 62
     2
  6
CONTINUOUS
 10
-1.477228
 20
0.518661
  0
VERTEX
  8
PLAN_1
 62
     2
  6
CONTINUOUS
 10
-1.479039
 20
0.518209
  0
VERTEX
  8
PLAN_1
 62
     2
  6
CONTINUOUS
 10
-1.479945
 20
0.518209
  0
VERTEX
  8
PLAN_1
 62
     2
  6
CONTINUOUS
 10
-1.479945
 20
0.522736
  0
VERTEX
  8
PLAN_1
 62
     2
  6
CONTINUOUS
 10
-1.478587
 20
0.523189
  0
VERTEX
  8
PLAN_1
 62
     2
  6
CONTINUOUS
 10
-1.477228
 20
0.524094
  0
VERTEX
  8
PLAN_1
 62
     2
  6
CONTINUOUS
 10
-1.476323
 20
0.525000
  0
VERTEX
  8
PLAN_1
 62
     2
  6
CONTINUOUS
 10
-1.475417
 20
0.526358
  0
VERTEX
  8
PLAN_1
 62
     2
  6
CONTINUOUS
 10
-1.474965
 20
0.527717
  0
VERTEX
  8
PLAN_1
 62
     2
  6
CONTINUOUS
 10
-1.474512
 20
0.529528
  0
VERTEX
  8
PLAN_1
 62
     2
  6
CONTINUOUS
 10
-1.474512
 20
0.531339
  0
VERTEX
  8
PLAN_1
 62
     2
  6
CONTINUOUS
 10
-1.474512
 20
0.533150
  0
VERTEX
  8
PLAN_1
 62
     2
  6
CONTINUOUS
 10
-1.479945
 20
0.533150
  0
VERTEX
  8
PLAN_1
 62
     2
  6
CONTINUOUS
 10
-1.479945
 20
0.544469
  0
SEQEND
  8
0
  0
POLYLINE
  8
PLAN_1
 62
     2
  6
CONTINUOUS
 66
     1
 40
0.003000
 41
0.003000
  0
VERTEX
  8
PLAN_1
 62
     2
  6
CONTINUOUS
 10
-1.444630
 20
0.575709
  0
VERTEX
  8
PLAN_1
 62
     2
  6
CONTINUOUS
 10
-1.443724
 20
0.576614
  0
VERTEX
  8
PLAN_1
 62
     2
  6
CONTINUOUS
 10
-1.442366
 20
0.577520
  0
VERTEX
  8
PLAN_1
 62
     2
  6
CONTINUOUS
 10
-1.440555
 20
0.578425
  0
VERTEX
  8
PLAN_1
 62
     2
  6
CONTINUOUS
 10
-1.438744
 20
0.578878
  0
VERTEX
  8
PLAN_1
 62
     2
  6
CONTINUOUS
 10
-1.436933
 20
0.579783
  0
VERTEX
  8
PLAN_1
 62
     2
  6
CONTINUOUS
 10
-1.435122
 20
0.580236
  0
VERTEX
  8
PLAN_1
 62
     2
  6
CONTINUOUS
 10
-1.432858
 20
0.580236
  0
VERTEX
  8
PLAN_1
 62
     2
  6
CONTINUOUS
 10
-1.430594
 20
0.580236
  0
VERTEX
  8
PLAN_1
 62
     2
  6
CONTINUOUS
 10
-1.426067
 20
0.580236
  0
VERTEX
  8
PLAN_1
 62
     2
  6
CONTINUOUS
 10
-1.421992
 20
0.578878
  0
VERTEX
  8
PLAN_1
 62
     2
  6
CONTINUOUS
 10
-1.417917
 20
0.577067
  0
VERTEX
  8
PLAN_1
 62
     2
  6
CONTINUOUS
 10
-1.414295
 20
0.574350
  0
VERTEX
  8
PLAN_1
 62
     2
  6
CONTINUOUS
 10
-1.412484
 20
0.572992
  0
VERTEX
  8
PLAN_1
 62
     2
  6
CONTINUOUS
 10
-1.411126
 20
0.571181
  0
VERTEX
  8
PLAN_1
 62
     2
  6
CONTINUOUS
 10
-1.409768
 20
0.568917
  0
VERTEX
  8
PLAN_1
 62
     2
  6
CONTINUOUS
 10
-1.408862
 20
0.567106
  0
VERTEX
  8
PLAN_1
 62
     2
  6
CONTINUOUS
 10
-1.407957
 20
0.564843
  0
VERTEX
  8
PLAN_1
 62
     2
  6
CONTINUOUS
 10
-1.407051
 20
0.562126
  0
VERTEX
  8
PLAN_1
 62
     2
  6
CONTINUOUS
 10
-1.406598
 20
0.559862
  0
VERTEX
  8
PLAN_1
 62
     2
  6
CONTINUOUS
 10
-1.406598
 20
0.557146
  0
VERTEX
  8
PLAN_1
 62
     2
  6
CONTINUOUS
 10
-1.406598
 20
0.553524
  0
VERTEX
  8
PLAN_1
 62
     2
  6
CONTINUOUS
 10
-1.407504
 20
0.549449
  0
VERTEX
  8
PLAN_1
 62
     2
  6
CONTINUOUS
 10
-1.408862
 20
0.545374
  0
VERTEX
  8
PLAN_1
 62
     2
  6
CONTINUOUS
 10
-1.411126
 20
0.541299
  0
VERTEX
  8
PLAN_1
 62
     2
  6
CONTINUOUS
 10
-1.412937
 20
0.539035
  0
VERTEX
  8
PLAN_1
 62
     2
  6
CONTINUOUS
 10
-1.414748
 20
0.537224
  0
VERTEX
  8
PLAN_1
 62
     2
  6
CONTINUOUS
 10
-1.417012
 20
0.535413
  0
VERTEX
  8
PLAN_1
 62
     2
  6
CONTINUOUS
 10
-1.419276
 20
0.534055
  0
VERTEX
  8
PLAN_1
 62
     2
  6
CONTINUOUS
 10
-1.421992
 20
0.533150
  0
VERTEX
  8
PLAN_1
 62
     2
  6
CONTINUOUS
 10
-1.425614
 20
0.532244
  0
VERTEX
  8
PLAN_1
 62
     2
  6
CONTINUOUS
 10
-1.429236
 20
0.531339
  0
VERTEX
  8
PLAN_1
 62
     2
  6
CONTINUOUS
 10
-1.433311
 20
0.531339
  0
VERTEX
  8
PLAN_1
 62
     2
  6
CONTINUOUS
 10
-1.436933
 20
0.531339
  0
VERTEX
  8
PLAN_1
 62
     2
  6
CONTINUOUS
 10
-1.440555
 20
0.532244
  0
VERTEX
  8
PLAN_1
 62
     2
  6
CONTINUOUS
 10
-1.444177
 20
0.533602
  0
VERTEX
  8
PLAN_1
 62
     2
  6
CONTINUOUS
 10
-1.447799
 20
0.535413
  0
VERTEX
  8
PLAN_1
 62
     2
  6
CONTINUOUS
 10
-1.449610
 20
0.536319
  0
VERTEX
  8
PLAN_1
 62
     2
  6
CONTINUOUS
 10
-1.450969
 20
0.538130
  0
VERTEX
  8
PLAN_1
 62
     2
  6
CONTINUOUS
 10
-1.452327
 20
0.539488
  0
VERTEX
  8
PLAN_1
 62
     2
  6
CONTINUOUS
 10
-1.453685
 20
0.541299
  0
VERTEX
  8
PLAN_1
 62
     2
  6
CONTINUOUS
 10
-1.454591
 20
0.543563
  0
VERTEX
  8
PLAN_1
 62
     2
  6
CONTINUOUS
 10
-1.455496
 20
0.545827
  0
VERTEX
  8
PLAN_1
 62
     2
  6
CONTINUOUS
 10
-1.456402
 20
0.548543
  0
VERTEX
  8
PLAN_1
 62
     2
  6
CONTINUOUS
 10
-1.456854
 20
0.551713
  0
VERTEX
  8
PLAN_1
 62
     2
  6
CONTINUOUS
 10
-1.447346
 20
0.551713
  0
VERTEX
  8
PLAN_1
 62
     2
  6
CONTINUOUS
 10
-1.446441
 20
0.548543
  0
VERTEX
  8
PLAN_1
 62
     2
  6
CONTINUOUS
 10
-1.445535
 20
0.545827
  0
VERTEX
  8
PLAN_1
 62
     2
  6
CONTINUOUS
 10
-1.444177
 20
0.544016
  0
VERTEX
  8
PLAN_1
 62
     2
  6
CONTINUOUS
 10
-1.442366
 20
0.542205
  0
VERTEX
  8
PLAN_1
 62
     2
  6
CONTINUOUS
 10
-1.440102
 20
0.540846
  0
VERTEX
  8
PLAN_1
 62
     2
  6
CONTINUOUS
 10
-1.437386
 20
0.539941
  0
VERTEX
  8
PLAN_1
 62
     2
  6
CONTINUOUS
 10
-1.434669
 20
0.539488
  0
VERTEX
  8
PLAN_1
 62
     2
  6
CONTINUOUS
 10
-1.431953
 20
0.539035
  0
VERTEX
  8
PLAN_1
 62
     2
  6
CONTINUOUS
 10
-1.428331
 20
0.539488
  0
VERTEX
  8
PLAN_1
 62
     2
  6
CONTINUOUS
 10
-1.425161
 20
0.540394
  0
VERTEX
  8
PLAN_1
 62
     2
  6
CONTINUOUS
 10
-1.422898
 20
0.542205
  0
VERTEX
  8
PLAN_1
 62
     2
  6
CONTINUOUS
 10
-1.420634
 20
0.544016
  0
VERTEX
  8
PLAN_1
 62
     2
  6
CONTINUOUS
 10
-1.418823
 20
0.546732
  0
VERTEX
  8
PLAN_1
 62
     2
  6
CONTINUOUS
 10
-1.417465
 20
0.549449
  0
VERTEX
  8
PLAN_1
 62
     2
  6
CONTINUOUS
 10
-1.416559
 20
0.552618
  0
VERTEX
  8
PLAN_1
 62
     2
  6
CONTINUOUS
 10
-1.416559
 20
0.555787
  0
VERTEX
  8
PLAN_1
 62
     2
  6
CONTINUOUS
 10
-1.416559
 20
0.559862
  0
VERTEX
  8
PLAN_1
 62
     2
  6
CONTINUOUS
 10
-1.417465
 20
0.563031
  0
VERTEX
  8
PLAN_1
 62
     2
  6
CONTINUOUS
 10
-1.419276
 20
0.565748
  0
VERTEX
  8
PLAN_1
 62
     2
  6
CONTINUOUS
 10
-1.421087
 20
0.568012
  0
VERTEX
  8
PLAN_1
 62
     2
  6
CONTINUOUS
 10
-1.423350
 20
0.569823
  0
VERTEX
  8
PLAN_1
 62
     2
  6
CONTINUOUS
 10
-1.426067
 20
0.571181
  0
VERTEX
  8
PLAN_1
 62
     2
  6
CONTINUOUS
 10
-1.429236
 20
0.572087
  0
VERTEX
  8
PLAN_1
 62
     2
  6
CONTINUOUS
 10
-1.432406
 20
0.572087
  0
VERTEX
  8
PLAN_1
 62
     2
  6
CONTINUOUS
 10
-1.434669
 20
0.572087
  0
VERTEX
  8
PLAN_1
 62
     2
  6
CONTINUOUS
 10
-1.436480
 20
0.571634
  0
VERTEX
  8
PLAN_1
 62
     2
  6
CONTINUOUS
 10
-1.438291
 20
0.571181
  0
VERTEX
  8
PLAN_1
 62
     2
  6
CONTINUOUS
 10
-1.440102
 20
0.570276
  0
VERTEX
  8
PLAN_1
 62
     2
  6
CONTINUOUS
 10
-1.441913
 20
0.569370
  0
VERTEX
  8
PLAN_1
 62
     2
  6
CONTINUOUS
 10
-1.443272
 20
0.568012
  0
VERTEX
  8
PLAN_1
 62
     2
  6
CONTINUOUS
 10
-1.444630
 20
0.566654
  0
VERTEX
  8
PLAN_1
 62
     2
  6
CONTINUOUS
 10
-1.445988
 20
0.565295
  0
VERTEX
  8
PLAN_1
 62
     2
  6
CONTINUOUS
 10
-1.454138
 20
0.565748
  0
VERTEX
  8
PLAN_1
 62
     2
  6
CONTINUOUS
 10
-1.448705
 20
0.604685
  0
VERTEX
  8
PLAN_1
 62
     2
  6
CONTINUOUS
 10
-1.410673
 20
0.604685
  0
VERTEX
  8
PLAN_1
 62
     2
  6
CONTINUOUS
 10
-1.410673
 20
0.596083
  0
VERTEX
  8
PLAN_1
 62
     2
  6
CONTINUOUS
 10
-1.441461
 20
0.596083
  0
VERTEX
  8
PLAN_1
 62
     2
  6
CONTINUOUS
 10
-1.444630
 20
0.575709
  0
SEQEND
  8
0
  0
POLYLINE
  8
PLAN_1
 62
     2
  6
CONTINUOUS
 66
     1
 40
0.004071
 41
0.004071
  0
VERTEX
  8
PLAN_1
 62
     2
  6
CONTINUOUS
 10
-2.329303
 20
1.049740
  0
VERTEX
  8
PLAN_1
 62
     2
  6
CONTINUOUS
 10
-2.329303
 20
0.319906
  0
SEQEND
  8
0
  0
POLYLINE
  8
PLAN_1
 62
     2
  6
CONTINUOUS
 66
     1
 40
0.004071
 41
0.004071
  0
VERTEX
  8
PLAN_1
 62
     2
  6
CONTINUOUS
 10
-2.299421
 20
0.352051
  0
VERTEX
  8
PLAN_1
 62
     2
  6
CONTINUOUS
 10
-0.947059
 20
0.352051
  0
SEQEND
  8
0
  0
SOLID
  8
PLAN_1
 62
     2
 10
-0.917630
 20
0.352051
 11
-0.976488
 21
0.367898
 12
-0.917630
 22
0.352051
 13
-0.976488
 23
0.336657
  0
POLYLINE
  8
PLAN_1
 62
     2
  6
CONTINUOUS
 66
     1
 40
0.003000
 41
0.003000
  0
VERTEX
  8
PLAN_1
 62
     2
  6
CONTINUOUS
 10
-0.917630
 20
0.352051
  0
VERTEX
  8
PLAN_1
 62
     2
  6
CONTINUOUS
 10
-0.976488
 20
0.367898
  0
VERTEX
  8
PLAN_1
 62
     2
  6
CONTINUOUS
 10
-0.976488
 20
0.336657
  0
VERTEX
  8
PLAN_1
 62
     2
  6
CONTINUOUS
 10
-0.917630
 20
0.352051
  0
SEQEND
  8
0
  0
SOLID
  8
PLAN_1
 62
     2
 10
-2.329303
 20
0.352051
 11
-2.269992
 21
0.367898
 12
-2.329303
 22
0.352051
 13
-2.269992
 23
0.336657
  0
POLYLINE
  8
PLAN_1
 62
     2
  6
CONTINUOUS
 66
     1
 40
0.003000
 41
0.003000
  0
VERTEX
  8
PLAN_1
 62
     2
  6
CONTINUOUS
 10
-2.329303
 20
0.352051
  0
VERTEX
  8
PLAN_1
 62
     2
  6
CONTINUOUS
 10
-2.269992
 20
0.367898
  0
VERTEX
  8
PLAN_1
 62
     2
  6
CONTINUOUS
 10
-2.269992
 20
0.336657
  0
VERTEX
  8
PLAN_1
 62
     2
  6
CONTINUOUS
 10
-2.329303
 20
0.352051
  0
SEQEND
  8
0
  0
POLYLINE
  8
PLAN_1
 62
     2
  6
CONTINUOUS
 66
     1
 40
0.003000
 41
0.003000
  0
VERTEX
  8
PLAN_1
 62
     2
  6
CONTINUOUS
 10
-1.718543
 20
0.417248
  0
VERTEX
  8
PLAN_1
 62
     2
  6
CONTINUOUS
 10
-1.718091
 20
0.417248
  0
VERTEX
  8
PLAN_1
 62
     2
  6
CONTINUOUS
 10
-1.717185
 20
0.417248
  0
VERTEX
  8
PLAN_1
 62
     2
  6
CONTINUOUS
 10
-1.716732
 20
0.417248
  0
VERTEX
  8
PLAN_1
 62
     2
  6
CONTINUOUS
 10
-1.716280
 20
0.417248
  0
VERTEX
  8
PLAN_1
 62
     2
  6
CONTINUOUS
 10
-1.715374
 20
0.417248
  0
VERTEX
  8
PLAN_1
 62
     2
  6
CONTINUOUS
 10
-1.714921
 20
0.417248
  0
VERTEX
  8
PLAN_1
 62
     2
  6
CONTINUOUS
 10
-1.714469
 20
0.417248
  0
VERTEX
  8
PLAN_1
 62
     2
  6
CONTINUOUS
 10
-1.713563
 20
0.417248
  0
VERTEX
  8
PLAN_1
 62
     2
  6
CONTINUOUS
 10
-1.711299
 20
0.417248
  0
VERTEX
  8
PLAN_1
 62
     2
  6
CONTINUOUS
 10
-1.708583
 20
0.417701
  0
VERTEX
  8
PLAN_1
 62
     2
  6
CONTINUOUS
 10
-1.706319
 20
0.418606
  0
VERTEX
  8
PLAN_1
 62
     2
  6
CONTINUOUS
 10
-1.704055
 20
0.419965
  0
VERTEX
  8
PLAN_1
 62
     2
  6
CONTINUOUS
 10
-1.702244
 20
0.421323
  0
VERTEX
  8
PLAN_1
 62
     2
  6
CONTINUOUS
 10
-1.700886
 20
0.423587
  0
VERTEX
  8
PLAN_1
 62
     2
  6
CONTINUOUS
 10
-1.699980
 20
0.425850
  0
VERTEX
  8
PLAN_1
 62
     2
  6
CONTINUOUS
 10
-1.699980
 20
0.429020
  0
VERTEX
  8
PLAN_1
 62
     2
  6
CONTINUOUS
 10
-1.699980
 20
0.430831
  0
VERTEX
  8
PLAN_1
 62
     2
  6
CONTINUOUS
 10
-1.700433
 20
0.432642
  0
VERTEX
  8
PLAN_1
 62
     2
  6
CONTINUOUS
 10
-1.701339
 20
0.434906
  0
VERTEX
  8
PLAN_1
 62
     2
  6
CONTINUOUS
 10
-1.702244
 20
0.436717
  0
VERTEX
  8
PLAN_1
 62
     2
  6
CONTINUOUS
 10
-1.704055
 20
0.438075
  0
VERTEX
  8
PLAN_1
 62
     2
  6
CONTINUOUS
 10
-1.706772
 20
0.439433
  0
VERTEX
  8
PLAN_1
 62
     2
  6
CONTINUOUS
 10
-1.709488
 20
0.440339
  0
VERTEX
  8
PLAN_1
 62
     2
  6
CONTINUOUS
 10
-1.713110
 20
0.440791
  0
VERTEX
  8
PLAN_1
 62
     2
  6
CONTINUOUS
 10
-1.715827
 20
0.440791
  0
VERTEX
  8
PLAN_1
 62
     2
  6
CONTINUOUS
 10
-1.717638
 20
0.440339
  0
VERTEX
  8
PLAN_1
 62
     2
  6
CONTINUOUS
 10
-1.719449
 20
0.439886
  0
VERTEX
  8
PLAN_1
 62
     2
  6
CONTINUOUS
 10
-1.720807
 20
0.438980
  0
VERTEX
  8
PLAN_1
 62
     2
  6
CONTINUOUS
 10
-1.723524
 20
0.437169
  0
VERTEX
  8
PLAN_1
 62
     2
  6
CONTINUOUS
 10
-1.725335
 20
0.434906
  0
VERTEX
  8
PLAN_1
 62
     2
  6
CONTINUOUS
 10
-1.726240
 20
0.432189
  0
VERTEX
  8
PLAN_1
 62
     2
  6
CONTINUOUS
 10
-1.727146
 20
0.429472
  0
VERTEX
  8
PLAN_1
 62
     2
  6
CONTINUOUS
 10
-1.727146
 20
0.427209
  0
VERTEX
  8
PLAN_1
 62
     2
  6
CONTINUOUS
 10
-1.727598
 20
0.424945
  0
VERTEX
  8
PLAN_1
 62
     2
  6
CONTINUOUS
 10
-1.736654
 20
0.424945
  0
VERTEX
  8
PLAN_1
 62
     2
  6
CONTINUOUS
 10
-1.736201
 20
0.429020
  0
VERTEX
  8
PLAN_1
 62
     2
  6
CONTINUOUS
 10
-1.735748
 20
0.433094
  0
VERTEX
  8
PLAN_1
 62
     2
  6
CONTINUOUS
 10
-1.733937
 20
0.437169
  0
VERTEX
  8
PLAN_1
 62
     2
  6
CONTINUOUS
 10
-1.732126
 20
0.441244
  0
VERTEX
  8
PLAN_1
 62
     2
  6
CONTINUOUS
 10
-1.730315
 20
0.442602
  0
VERTEX
  8
PLAN_1
 62
     2
  6
CONTINUOUS
 10
-1.728957
 20
0.444413
  0
VERTEX
  8
PLAN_1
 62
     2
  6
CONTINUOUS
 10
-1.726693
 20
0.445772
  0
VERTEX
  8
PLAN_1
 62
     2
  6
CONTINUOUS
 10
-1.724882
 20
0.446677
  0
VERTEX
  8
PLAN_1
 62
     2
  6
CONTINUOUS
 10
-1.722165
 20
0.447583
  0
VERTEX
  8
PLAN_1
 62
     2
  6
CONTINUOUS
 10
-1.719449
 20
0.448488
  0
VERTEX
  8
PLAN_1
 62
     2
  6
CONTINUOUS
 10
-1.716280
 20
0.448941
  0
VERTEX
  8
PLAN_1
 62
     2
  6
CONTINUOUS
 10
-1.713110
 20
0.448941
  0
VERTEX
  8
PLAN_1
 62
     2
  6
CONTINUOUS
 10
-1.707677
 20
0.448488
  0
VERTEX
  8
PLAN_1
 62
     2
  6
CONTINUOUS
 10
-1.703602
 20
0.447583
  0
VERTEX
  8
PLAN_1
 62
     2
  6
CONTINUOUS
 10
-1.699528
 20
0.445772
  0
VERTEX
  8
PLAN_1
 62
     2
  6
CONTINUOUS
 10
-1.696358
 20
0.443508
  0
VERTEX
  8
PLAN_1
 62
     2
  6
CONTINUOUS
 10
-1.693642
 20
0.440791
  0
VERTEX
  8
PLAN_1
 62
     2
  6
CONTINUOUS
 10
-1.691831
 20
0.437622
  0
VERTEX
  8
PLAN_1
 62
     2
  6
CONTINUOUS
 10
-1.690925
 20
0.433547
  0
VERTEX
  8
PLAN_1
 62
     2
  6
CONTINUOUS
 10
-1.690472
 20
0.429925
  0
VERTEX
  8
PLAN_1
 62
     2
  6
CONTINUOUS
 10
-1.690472
 20
0.426303
  0
VERTEX
  8
PLAN_1
 62
     2
  6
CONTINUOUS
 10
-1.691378
 20
0.423587
  0
VERTEX
  8
PLAN_1
 62
     2
  6
CONTINUOUS
 10
-1.692283
 20
0.421323
  0
VERTEX
  8
PLAN_1
 62
     2
  6
CONTINUOUS
 10
-1.693642
 20
0.419059
  0
VERTEX
  8
PLAN_1
 62
     2
  6
CONTINUOUS
 10
-1.695000
 20
0.417701
  0
VERTEX
  8
PLAN_1
 62
     2
  6
CONTINUOUS
 10
-1.696358
 20
0.416343
  0
VERTEX
  8
PLAN_1
 62
     2
  6
CONTINUOUS
 10
-1.698169
 20
0.415437
  0
VERTEX
  8
PLAN_1
 62
     2
  6
CONTINUOUS
 10
-1.699528
 20
0.414531
  0
VERTEX
  8
PLAN_1
 62
     2
  6
CONTINUOUS
 10
-1.697264
 20
0.413626
  0
VERTEX
  8
PLAN_1
 62
     2
  6
CONTINUOUS
 10
-1.695000
 20
0.412268
  0
VERTEX
  8
PLAN_1
 62
     2
  6
CONTINUOUS
 10
-1.692736
 20
0.410457
  0
VERTEX
  8
PLAN_1
 62
     2
  6
CONTINUOUS
 10
-1.690925
 20
0.408646
  0
VERTEX
  8
PLAN_1
 62
     2
  6
CONTINUOUS
 10
-1.689567
 20
0.406382
  0
VERTEX
  8
PLAN_1
 62
     2
  6
CONTINUOUS
 10
-1.688209
 20
0.403665
  0
VERTEX
  8
PLAN_1
 62
     2
  6
CONTINUOUS
 10
-1.687756
 20
0.400949
  0
VERTEX
  8
PLAN_1
 62
     2
  6
CONTINUOUS
 10
-1.687303
 20
0.397327
  0
VERTEX
  8
PLAN_1
 62
     2
  6
CONTINUOUS
 10
-1.687756
 20
0.392799
  0
VERTEX
  8
PLAN_1
 62
     2
  6
CONTINUOUS
 10
-1.689114
 20
0.388724
  0
VERTEX
  8
PLAN_1
 62
     2
  6
CONTINUOUS
 10
-1.690020
 20
0.386461
  0
VERTEX
  8
PLAN_1
 62
     2
  6
CONTINUOUS
 10
-1.690925
 20
0.384650
  0
VERTEX
  8
PLAN_1
 62
     2
  6
CONTINUOUS
 10
-1.692283
 20
0.382839
  0
VERTEX
  8
PLAN_1
 62
     2
  6
CONTINUOUS
 10
-1.693642
 20
0.381028
  0
VERTEX
  8
PLAN_1
 62
     2
  6
CONTINUOUS
 10
-1.695453
 20
0.379669
  0
VERTEX
  8
PLAN_1
 62
     2
  6
CONTINUOUS
 10
-1.697264
 20
0.378311
  0
VERTEX
  8
PLAN_1
 62
     2
  6
CONTINUOUS
 10
-1.699528
 20
0.376953
  0
VERTEX
  8
PLAN_1
 62
     2
  6
CONTINUOUS
 10
-1.701791
 20
0.376047
  0
VERTEX
  8
PLAN_1
 62
     2
  6
CONTINUOUS
 10
-1.704508
 20
0.375142
  0
VERTEX
  8
PLAN_1
 62
     2
  6
CONTINUOUS
 10
-1.707224
 20
0.374236
  0
VERTEX
  8
PLAN_1
 62
     2
  6
CONTINUOUS
 10
-1.710394
 20
0.373783
  0
VERTEX
  8
PLAN_1
 62
     2
  6
CONTINUOUS
 10
-1.714016
 20
0.373783
  0
VERTEX
  8
PLAN_1
 62
     2
  6
CONTINUOUS
 10
-1.715827
 20
0.373783
  0
VERTEX
  8
PLAN_1
 62
     2
  6
CONTINUOUS
 10
-1.717638
 20
0.374236
  0
VERTEX
  8
PLAN_1
 62
     2
  6
CONTINUOUS
 10
-1.719449
 20
0.374236
  0
VERTEX
  8
PLAN_1
 62
     2
  6
CONTINUOUS
 10
-1.721260
 20
0.374689
  0
VERTEX
  8
PLAN_1
 62
     2
  6
CONTINUOUS
 10
-1.723071
 20
0.375142
  0
VERTEX
  8
PLAN_1
 62
     2
  6
CONTINUOUS
 10
-1.724429
 20
0.375594
  0
VERTEX
  8
PLAN_1
 62
     2
  6
CONTINUOUS
 10
-1.725787
 20
0.376500
  0
VERTEX
  8
PLAN_1
 62
     2
  6
CONTINUOUS
 10
-1.727146
 20
0.376953
  0
VERTEX
  8
PLAN_1
 62
     2
  6
CONTINUOUS
 10
-1.730315
 20
0.378764
  0
VERTEX
  8
PLAN_1
 62
     2
  6
CONTINUOUS
 10
-1.732579
 20
0.381028
  0
VERTEX
  8
PLAN_1
 62
     2
  6
CONTINUOUS
 10
-1.734390
 20
0.383291
  0
VERTEX
  8
PLAN_1
 62
     2
  6
CONTINUOUS
 10
-1.735748
 20
0.386008
  0
VERTEX
  8
PLAN_1
 62
     2
  6
CONTINUOUS
 10
-1.736654
 20
0.388724
  0
VERTEX
  8
PLAN_1
 62
     2
  6
CONTINUOUS
 10
-1.737559
 20
0.391894
  0
VERTEX
  8
PLAN_1
 62
     2
  6
CONTINUOUS
 10
-1.738012
 20
0.395063
  0
VERTEX
  8
PLAN_1
 62
     2
  6
CONTINUOUS
 10
-1.738465
 20
0.398232
  0
VERTEX
  8
PLAN_1
 62
     2
  6
CONTINUOUS
 10
-1.728957
 20
0.398232
  0
VERTEX
  8
PLAN_1
 62
     2
  6
CONTINUOUS
 10
-1.728504
 20
0.395516
  0
VERTEX
  8
PLAN_1
 62
     2
  6
CONTINUOUS
 10
-1.728051
 20
0.392799
  0
VERTEX
  8
PLAN_1
 62
     2
  6
CONTINUOUS
 10
-1.727146
 20
0.390083
  0
VERTEX
  8
PLAN_1
 62
     2
  6
CONTINUOUS
 10
-1.725787
 20
0.387366
  0
VERTEX
  8
PLAN_1
 62
     2
  6
CONTINUOUS
 10
-1.723976
 20
0.385555
  0
VERTEX
  8
PLAN_1
 62
     2
  6
CONTINUOUS
 10
-1.721260
 20
0.383744
  0
VERTEX
  8
PLAN_1
 62
     2
  6
CONTINUOUS
 10
-1.719902
 20
0.382839
  0
VERTEX
  8
PLAN_1
 62
     2
  6
CONTINUOUS
 10
-1.717638
 20
0.382386
  0
VERTEX
  8
PLAN_1
 62
     2
  6
CONTINUOUS
 10
-1.715827
 20
0.382386
  0
VERTEX
  8
PLAN_1
 62
     2
  6
CONTINUOUS
 10
-1.713110
 20
0.381933
  0
VERTEX
  8
PLAN_1
 62
     2
  6
CONTINUOUS
 10
-1.709941
 20
0.382386
  0
VERTEX
  8
PLAN_1
 62
     2
  6
CONTINUOUS
 10
-1.706772
 20
0.383291
  0
VERTEX
  8
PLAN_1
 62
     2
  6
CONTINUOUS
 10
-1.704055
 20
0.384197
  0
VERTEX
  8
PLAN_1
 62
     2
  6
CONTINUOUS
 10
-1.701791
 20
0.386008
  0
VERTEX
  8
PLAN_1
 62
     2
  6
CONTINUOUS
 10
-1.699980
 20
0.387819
  0
VERTEX
  8
PLAN_1
 62
     2
  6
CONTINUOUS
 10
-1.698622
 20
0.390535
  0
VERTEX
  8
PLAN_1
 62
     2
  6
CONTINUOUS
 10
-1.697717
 20
0.393252
  0
VERTEX
  8
PLAN_1
 62
     2
  6
CONTINUOUS
 10
-1.697264
 20
0.396421
  0
VERTEX
  8
PLAN_1
 62
     2
  6
CONTINUOUS
 10
-1.697264
 20
0.398232
  0
VERTEX
  8
PLAN_1
 62
     2
  6
CONTINUOUS
 10
-1.697717
 20
0.400496
  0
VERTEX
  8
PLAN_1
 62
     2
  6
CONTINUOUS
 10
-1.698169
 20
0.401854
  0
VERTEX
  8
PLAN_1
 62
     2
  6
CONTINUOUS
 10
-1.699075
 20
0.403665
  0
VERTEX
  8
PLAN_1
 62
     2
  6
CONTINUOUS
 10
-1.700886
 20
0.405929
  0
VERTEX
  8
PLAN_1
 62
     2
  6
CONTINUOUS
 10
-1.703602
 20
0.407740
  0
VERTEX
  8
PLAN_1
 62
     2
  6
CONTINUOUS
 10
-1.706319
 20
0.408646
  0
VERTEX
  8
PLAN_1
 62
     2
  6
CONTINUOUS
 10
-1.709035
 20
0.409098
  0
VERTEX
  8
PLAN_1
 62
     2
  6
CONTINUOUS
 10
-1.711752
 20
0.409551
  0
VERTEX
  8
PLAN_1
 62
     2
  6
CONTINUOUS
 10
-1.714469
 20
0.409551
  0
VERTEX
  8
PLAN_1
 62
     2
  6
CONTINUOUS
 10
-1.714921
 20
0.409551
  0
VERTEX
  8
PLAN_1
 62
     2
  6
CONTINUOUS
 10
-1.715374
 20
0.409551
  0
VERTEX
  8
PLAN_1
 62
     2
  6
CONTINUOUS
 10
-1.715827
 20
0.409551
  0
VERTEX
  8
PLAN_1
 62
     2
  6
CONTINUOUS
 10
-1.716280
 20
0.409551
  0
VERTEX
  8
PLAN_1
 62
     2
  6
CONTINUOUS
 10
-1.716732
 20
0.409551
  0
VERTEX
  8
PLAN_1
 62
     2
  6
CONTINUOUS
 10
-1.717638
 20
0.409551
  0
VERTEX
  8
PLAN_1
 62
     2
  6
CONTINUOUS
 10
-1.718091
 20
0.409551
  0
VERTEX
  8
PLAN_1
 62
     2
  6
CONTINUOUS
 10
-1.718543
 20
0.409551
  0
VERTEX
  8
PLAN_1
 62
     2
  6
CONTINUOUS
 10
-1.718543
 20
0.417248
  0
SEQEND
  8
0
  0
POLYLINE
  8
PLAN_1
 62
     2
  6
CONTINUOUS
 66
     1
 40
0.003000
 41
0.003000
  0
VERTEX
  8
PLAN_1
 62
     2
  6
CONTINUOUS
 10
-1.640669
 20
0.429472
  0
VERTEX
  8
PLAN_1
 62
     2
  6
CONTINUOUS
 10
-1.641122
 20
0.431736
  0
VERTEX
  8
PLAN_1
 62
     2
  6
CONTINUOUS
 10
-1.642028
 20
0.434000
  0
VERTEX
  8
PLAN_1
 62
     2
  6
CONTINUOUS
 10
-1.642933
 20
0.435811
  0
VERTEX
  8
PLAN_1
 62
     2
  6
CONTINUOUS
 10
-1.644291
 20
0.437622
  0
VERTEX
  8
PLAN_1
 62
     2
  6
CONTINUOUS
 10
-1.646102
 20
0.438980
  0
VERTEX
  8
PLAN_1
 62
     2
  6
CONTINUOUS
 10
-1.647913
 20
0.439886
  0
VERTEX
  8
PLAN_1
 62
     2
  6
CONTINUOUS
 10
-1.650177
 20
0.440339
  0
VERTEX
  8
PLAN_1
 62
     2
  6
CONTINUOUS
 10
-1.652894
 20
0.440791
  0
VERTEX
  8
PLAN_1
 62
     2
  6
CONTINUOUS
 10
-1.655610
 20
0.440339
  0
VERTEX
  8
PLAN_1
 62
     2
  6
CONTINUOUS
 10
-1.657874
 20
0.439886
  0
VERTEX
  8
PLAN_1
 62
     2
  6
CONTINUOUS
 10
-1.660138
 20
0.438980
  0
VERTEX
  8
PLAN_1
 62
     2
  6
CONTINUOUS
 10
-1.661949
 20
0.437622
  0
VERTEX
  8
PLAN_1
 62
     2
  6
CONTINUOUS
 10
-1.663307
 20
0.435811
  0
VERTEX
  8
PLAN_1
 62
     2
  6
CONTINUOUS
 10
-1.665118
 20
0.434000
  0
VERTEX
  8
PLAN_1
 62
     2
  6
CONTINUOUS
 10
-1.666024
 20
0.432189
  0
VERTEX
  8
PLAN_1
 62
     2
  6
CONTINUOUS
 10
-1.667382
 20
0.429925
  0
VERTEX
  8
PLAN_1
 62
     2
  6
CONTINUOUS
 10
-1.668740
 20
0.425850
  0
VERTEX
  8
PLAN_1
 62
     2
  6
CONTINUOUS
 10
-1.669646
 20
0.421323
  0
VERTEX
  8
PLAN_1
 62
     2
  6
CONTINUOUS
 10
-1.670551
 20
0.417248
  0
VERTEX
  8
PLAN_1
 62
     2
  6
CONTINUOUS
 10
-1.670551
 20
0.413626
  0
VERTEX
  8
PLAN_1
 62
     2
  6
CONTINUOUS
 10
-1.670098
 20
0.413626
  0
VERTEX
  8
PLAN_1
 62
     2
  6
CONTINUOUS
 10
-1.669193
 20
0.414984
  0
VERTEX
  8
PLAN_1
 62
     2
  6
CONTINUOUS
 10
-1.667835
 20
0.416343
  0
VERTEX
  8
PLAN_1
 62
     2
  6
CONTINUOUS
 10
-1.666476
 20
0.418154
  0
VERTEX
  8
PLAN_1
 62
     2
  6
CONTINUOUS
 10
-1.664665
 20
0.419512
  0
VERTEX
  8
PLAN_1
 62
     2
  6
CONTINUOUS
 10
-1.662402
 20
0.420870
  0
VERTEX
  8
PLAN_1
 62
     2
  6
CONTINUOUS
 10
-1.659685
 20
0.421776
  0
VERTEX
  8
PLAN_1
 62
     2
  6
CONTINUOUS
 10
-1.656516
 20
0.422228
  0
VERTEX
  8
PLAN_1
 62
     2
  6
CONTINUOUS
 10
-1.652894
 20
0.422228
  0
VERTEX
  8
PLAN_1
 62
     2
  6
CONTINUOUS
 10
-1.649272
 20
0.422228
  0
VERTEX
  8
PLAN_1
 62
     2
  6
CONTINUOUS
 10
-1.645650
 20
0.421323
  0
VERTEX
  8
PLAN_1
 62
     2
  6
CONTINUOUS
 10
-1.641575
 20
0.419512
  0
VERTEX
  8
PLAN_1
 62
     2
  6
CONTINUOUS
 10
-1.637953
 20
0.417248
  0
VERTEX
  8
PLAN_1
 62
     2
  6
CONTINUOUS
 10
-1.636594
 20
0.415890
  0
VERTEX
  8
PLAN_1
 62
     2
  6
CONTINUOUS
 10
-1.634783
 20
0.414079
  0
VERTEX
  8
PLAN_1
 62
     2
  6
CONTINUOUS
 10
-1.633425
 20
0.412268
  0
VERTEX
  8
PLAN_1
 62
     2
  6
CONTINUOUS
 10
-1.632520
 20
0.410457
  0
VERTEX
  8
PLAN_1
 62
     2
  6
CONTINUOUS
 10
-1.631161
 20
0.407740
  0
VERTEX
  8
PLAN_1
 62
     2
  6
CONTINUOUS
 10
-1.630709
 20
0.405476
  0
VERTEX
  8
PLAN_1
 62
     2
  6
CONTINUOUS
 10
-1.630256
 20
0.402307
  0
VERTEX
  8
PLAN_1
 62
     2
  6
CONTINUOUS
 10
-1.629803
 20
0.399138
  0
VERTEX
  8
PLAN_1
 62
     2
  6
CONTINUOUS
 10
-1.630256
 20
0.396421
  0
VERTEX
  8
PLAN_1
 62
     2
  6
CONTINUOUS
 10
-1.630256
 20
0.394157
  0
VERTEX
  8
PLAN_1
 62
     2
  6
CONTINUOUS
 10
-1.630709
 20
0.391441
  0
VERTEX
  8
PLAN_1
 62
     2
  6
CONTINUOUS
 10
-1.631614
 20
0.389177
  0
VERTEX
  8
PLAN_1
 62
     2
  6
CONTINUOUS
 10
-1.632520
 20
0.386913
  0
VERTEX
  8
PLAN_1
 62
     2
  6
CONTINUOUS
 10
-1.633878
 20
0.385102
  0
VERTEX
  8
PLAN_1
 62
     2
  6
CONTINUOUS
 10
-1.635236
 20
0.382839
  0
VERTEX
  8
PLAN_1
 62
     2
  6
CONTINUOUS
 10
-1.637047
 20
0.381028
  0
VERTEX
  8
PLAN_1
 62
     2
  6
CONTINUOUS
 10
-1.638406
 20
0.379217
  0
VERTEX
  8
PLAN_1
 62
     2
  6
CONTINUOUS
 10
-1.640217
 20
0.377858
  0
VERTEX
  8
PLAN_1
 62
     2
  6
CONTINUOUS
 10
-1.642028
 20
0.376953
  0
VERTEX
  8
PLAN_1
 62
     2
  6
CONTINUOUS
 10
-1.643839
 20
0.375594
  0
VERTEX
  8
PLAN_1
 62
     2
  6
CONTINUOUS
 10
-1.646102
 20
0.375142
  0
VERTEX
  8
PLAN_1
 62
     2
  6
CONTINUOUS
 10
-1.648819
 20
0.374236
  0
VERTEX
  8
PLAN_1
 62
     2
  6
CONTINUOUS
 10
-1.651988
 20
0.373783
  0
VERTEX
  8
PLAN_1
 62
     2
  6
CONTINUOUS
 10
-1.655610
 20
0.373783
  0
VERTEX
  8
PLAN_1
 62
     2
  6
CONTINUOUS
 10
-1.657874
 20
0.373783
  0
VERTEX
  8
PLAN_1
 62
     2
  6
CONTINUOUS
 10
-1.660138
 20
0.374236
  0
VERTEX
  8
PLAN_1
 62
     2
  6
CONTINUOUS
 10
-1.662402
 20
0.375142
  0
VERTEX
  8
PLAN_1
 62
     2
  6
CONTINUOUS
 10
-1.665118
 20
0.376047
  0
VERTEX
  8
PLAN_1
 62
     2
  6
CONTINUOUS
 10
-1.667382
 20
0.377406
  0
VERTEX
  8
PLAN_1
 62
     2
  6
CONTINUOUS
 10
-1.670098
 20
0.379217
  0
VERTEX
  8
PLAN_1
 62
     2
  6
CONTINUOUS
 10
-1.672362
 20
0.381480
  0
VERTEX
  8
PLAN_1
 62
     2
  6
CONTINUOUS
 10
-1.674173
 20
0.384650
  0
VERTEX
  8
PLAN_1
 62
     2
  6
CONTINUOUS
 10
-1.675984
 20
0.387366
  0
VERTEX
  8
PLAN_1
 62
     2
  6
CONTINUOUS
 10
-1.676890
 20
0.390083
  0
VERTEX
  8
PLAN_1
 62
     2
  6
CONTINUOUS
 10
-1.678248
 20
0.392799
  0
VERTEX
  8
PLAN_1
 62
     2
  6
CONTINUOUS
 10
-1.678701
 20
0.395969
  0
VERTEX
  8
PLAN_1
 62
     2
  6
CONTINUOUS
 10
-1.679154
 20
0.399591
  0
VERTEX
  8
PLAN_1
 62
     2
  6
CONTINUOUS
 10
-1.679606
 20
0.402760
  0
VERTEX
  8
PLAN_1
 62
     2
  6
CONTINUOUS
 10
-1.680059
 20
0.406382
  0
VERTEX
  8
PLAN_1
 62
     2
  6
CONTINUOUS
 10
-1.680059
 20
0.410004
  0
VERTEX
  8
PLAN_1
 62
     2
  6
CONTINUOUS
 10
-1.679606
 20
0.416343
  0
VERTEX
  8
PLAN_1
 62
     2
  6
CONTINUOUS
 10
-1.678701
 20
0.422681
  0
VERTEX
  8
PLAN_1
 62
     2
  6
CONTINUOUS
 10
-1.678248
 20
0.425850
  0
VERTEX
  8
PLAN_1
 62
     2
  6
CONTINUOUS
 10
-1.677343
 20
0.429472
  0
VERTEX
  8
PLAN_1
 62
     2
  6
CONTINUOUS
 10
-1.675984
 20
0.432642
  0
VERTEX
  8
PLAN_1
 62
     2
  6
CONTINUOUS
 10
-1.674626
 20
0.435358
  0
VERTEX
  8
PLAN_1
 62
     2
  6
CONTINUOUS
 10
-1.672815
 20
0.438075
  0
VERTEX
  8
PLAN_1
 62
     2
  6
CONTINUOUS
 10
-1.671004
 20
0.440791
  0
VERTEX
  8
PLAN_1
 62
     2
  6
CONTINUOUS
 10
-1.668740
 20
0.443055
  0
VERTEX
  8
PLAN_1
 62
     2
  6
CONTINUOUS
 10
-1.666476
 20
0.445319
  0
VERTEX
  8
PLAN_1
 62
     2
  6
CONTINUOUS
 10
-1.663307
 20
0.446677
  0
VERTEX
  8
PLAN_1
 62
     2
  6
CONTINUOUS
 10
-1.660138
 20
0.448035
  0
VERTEX
  8
PLAN_1
 62
     2
  6
CONTINUOUS
 10
-1.656969
 20
0.448488
  0
VERTEX
  8
PLAN_1
 62
     2
  6
CONTINUOUS
 10
-1.652894
 20
0.448941
  0
VERTEX
  8
PLAN_1
 62
     2
  6
CONTINUOUS
 10
-1.649724
 20
0.448941
  0
VERTEX
  8
PLAN_1
 62
     2
  6
CONTINUOUS
 10
-1.646102
 20
0.448035
  0
VERTEX
  8
PLAN_1
 62
     2
  6
CONTINUOUS
 10
-1.642933
 20
0.446677
  0
VERTEX
  8
PLAN_1
 62
     2
  6
CONTINUOUS
 10
-1.639311
 20
0.444866
  0
VERTEX
  8
PLAN_1
 62
     2
  6
CONTINUOUS
 10
-1.636594
 20
0.442150
  0
VERTEX
  8
PLAN_1
 62
     2
  6
CONTINUOUS
 10
-1.634331
 20
0.438980
  0
VERTEX
  8
PLAN_1
 62
     2
  6
CONTINUOUS
 10
-1.632972
 20
0.436717
  0
VERTEX
  8
PLAN_1
 62
     2
  6
CONTINUOUS
 10
-1.632520
 20
0.434453
  0
VERTEX
  8
PLAN_1
 62
     2
  6
CONTINUOUS
 10
-1.632067
 20
0.432189
  0
VERTEX
  8
PLAN_1
 62
     2
  6
CONTINUOUS
 10
-1.631614
 20
0.429472
  0
VERTEX
  8
PLAN_1
 62
     2
  6
CONTINUOUS
 10
-1.640669
 20
0.429472
  0
SEQEND
  8
0
  0
POLYLINE
  8
PLAN_1
 62
     2
  6
CONTINUOUS
 66
     1
 40
0.003000
 41
0.003000
  0
VERTEX
  8
PLAN_1
 62
     2
  6
CONTINUOUS
 10
-1.653799
 20
0.381933
  0
VERTEX
  8
PLAN_1
 62
     2
  6
CONTINUOUS
 10
-1.650630
 20
0.382386
  0
VERTEX
  8
PLAN_1
 62
     2
  6
CONTINUOUS
 10
-1.647913
 20
0.383291
  0
VERTEX
  8
PLAN_1
 62
     2
  6
CONTINUOUS
 10
-1.645650
 20
0.384650
  0
VERTEX
  8
PLAN_1
 62
     2
  6
CONTINUOUS
 10
-1.643386
 20
0.386913
  0
VERTEX
  8
PLAN_1
 62
     2
  6
CONTINUOUS
 10
-1.641575
 20
0.389177
  0
VERTEX
  8
PLAN_1
 62
     2
  6
CONTINUOUS
 10
-1.640669
 20
0.391894
  0
VERTEX
  8
PLAN_1
 62
     2
  6
CONTINUOUS
 10
-1.639764
 20
0.395063
  0
VERTEX
  8
PLAN_1
 62
     2
  6
CONTINUOUS
 10
-1.639311
 20
0.398685
  0
VERTEX
  8
PLAN_1
 62
     2
  6
CONTINUOUS
 10
-1.639764
 20
0.401402
  0
VERTEX
  8
PLAN_1
 62
     2
  6
CONTINUOUS
 10
-1.640217
 20
0.404118
  0
VERTEX
  8
PLAN_1
 62
     2
  6
CONTINUOUS
 10
-1.641122
 20
0.406382
  0
VERTEX
  8
PLAN_1
 62
     2
  6
CONTINUOUS
 10
-1.642480
 20
0.409098
  0
VERTEX
  8
PLAN_1
 62
     2
  6
CONTINUOUS
 10
-1.644744
 20
0.410909
  0
VERTEX
  8
PLAN_1
 62
     2
  6
CONTINUOUS
 10
-1.647008
 20
0.412720
  0
VERTEX
  8
PLAN_1
 62
     2
  6
CONTINUOUS
 10
-1.650177
 20
0.413626
  0
VERTEX
  8
PLAN_1
 62
     2
  6
CONTINUOUS
 10
-1.654252
 20
0.414079
  0
VERTEX
  8
PLAN_1
 62
     2
  6
CONTINUOUS
 10
-1.657874
 20
0.414079
  0
VERTEX
  8
PLAN_1
 62
     2
  6
CONTINUOUS
 10
-1.661043
 20
0.413173
  0
VERTEX
  8
PLAN_1
 62
     2
  6
CONTINUOUS
 10
-1.663307
 20
0.411362
  0
VERTEX
  8
PLAN_1
 62
     2
  6
CONTINUOUS
 10
-1.665571
 20
0.409551
  0
VERTEX
  8
PLAN_1
 62
     2
  6
CONTINUOUS
 10
-1.667382
 20
0.407287
  0
VERTEX
  8
PLAN_1
 62
     2
  6
CONTINUOUS
 10
-1.668287
 20
0.404571
  0
VERTEX
  8
PLAN_1
 62
     2
  6
CONTINUOUS
 10
-1.669193
 20
0.401402
  0
VERTEX
  8
PLAN_1
 62
     2
  6
CONTINUOUS
 10
-1.669193
 20
0.398232
  0
VERTEX
  8
PLAN_1
 62
     2
  6
CONTINUOUS
 10
-1.669193
 20
0.395516
  0
VERTEX
  8
PLAN_1
 62
     2
  6
CONTINUOUS
 10
-1.668287
 20
0.392346
  0
VERTEX
  8
PLAN_1
 62
     2
  6
CONTINUOUS
 10
-1.667382
 20
0.389630
  0
VERTEX
  8
PLAN_1
 62
     2
  6
CONTINUOUS
 10
-1.665571
 20
0.387366
  0
VERTEX
  8
PLAN_1
 62
     2
  6
CONTINUOUS
 10
-1.663307
 20
0.385102
  0
VERTEX
  8
PLAN_1
 62
     2
  6
CONTINUOUS
 10
-1.660591
 20
0.383291
  0
VERTEX
  8
PLAN_1
 62
     2
  6
CONTINUOUS
 10
-1.657421
 20
0.382386
  0
VERTEX
  8
PLAN_1
 62
     2
  6
CONTINUOUS
 10
-1.653799
 20
0.381933
  0
SEQEND
  8
0
  0
POLYLINE
  8
PLAN_1
 62
     2
  6
CONTINUOUS
 66
     1
 40
0.003000
 41
0.003000
  0
VERTEX
  8
PLAN_1
 62
     2
  6
CONTINUOUS
 10
-0.775012
 20
0.619626
  0
VERTEX
  8
PLAN_1
 62
     2
  6
CONTINUOUS
 10
-0.784972
 20
0.619626
  0
VERTEX
  8
PLAN_1
 62
     2
  6
CONTINUOUS
 10
-0.784972
 20
0.671240
  0
VERTEX
  8
PLAN_1
 62
     2
  6
CONTINUOUS
 10
-0.802177
 20
0.671240
  0
VERTEX
  8
PLAN_1
 62
     2
  6
CONTINUOUS
 10
-0.802177
 20
0.678484
  0
VERTEX
  8
PLAN_1
 62
     2
  6
CONTINUOUS
 10
-0.797650
 20
0.678937
  0
VERTEX
  8
PLAN_1
 62
     2
  6
CONTINUOUS
 10
-0.794480
 20
0.679390
  0
VERTEX
  8
PLAN_1
 62
     2
  6
CONTINUOUS
 10
-0.791311
 20
0.680295
  0
VERTEX
  8
PLAN_1
 62
     2
  6
CONTINUOUS
 10
-0.788594
 20
0.681654
  0
VERTEX
  8
PLAN_1
 62
     2
  6
CONTINUOUS
 10
-0.786783
 20
0.683012
  0
VERTEX
  8
PLAN_1
 62
     2
  6
CONTINUOUS
 10
-0.784972
 20
0.685276
  0
VERTEX
  8
PLAN_1
 62
     2
  6
CONTINUOUS
 10
-0.783614
 20
0.688445
  0
VERTEX
  8
PLAN_1
 62
     2
  6
CONTINUOUS
 10
-0.782256
 20
0.692520
  0
VERTEX
  8
PLAN_1
 62
     2
  6
CONTINUOUS
 10
-0.775012
 20
0.692520
  0
VERTEX
  8
PLAN_1
 62
     2
  6
CONTINUOUS
 10
-0.775012
 20
0.619626
  0
SEQEND
  8
0
  0
POLYLINE
  8
PLAN_1
 62
     2
  6
CONTINUOUS
 66
     1
 40
0.003000
 41
0.003000
  0
VERTEX
  8
PLAN_1
 62
     2
  6
CONTINUOUS
 10
-0.707551
 20
0.666260
  0
VERTEX
  8
PLAN_1
 62
     2
  6
CONTINUOUS
 10
-0.707551
 20
0.630945
  0
VERTEX
  8
PLAN_1
 62
     2
  6
CONTINUOUS
 10
-0.707551
 20
0.629587
  0
VERTEX
  8
PLAN_1
 62
     2
  6
CONTINUOUS
 10
-0.707098
 20
0.628228
  0
VERTEX
  8
PLAN_1
 62
     2
  6
CONTINUOUS
 10
-0.706193
 20
0.627776
  0
VERTEX
  8
PLAN_1
 62
     2
  6
CONTINUOUS
 10
-0.705740
 20
0.627323
  0
VERTEX
  8
PLAN_1
 62
     2
  6
CONTINUOUS
 10
-0.704835
 20
0.626870
  0
VERTEX
  8
PLAN_1
 62
     2
  6
CONTINUOUS
 10
-0.703929
 20
0.626870
  0
VERTEX
  8
PLAN_1
 62
     2
  6
CONTINUOUS
 10
-0.703024
 20
0.626417
  0
VERTEX
  8
PLAN_1
 62
     2
  6
CONTINUOUS
 10
-0.702118
 20
0.626417
  0
VERTEX
  8
PLAN_1
 62
     2
  6
CONTINUOUS
 10
-0.698949
 20
0.626417
  0
VERTEX
  8
PLAN_1
 62
     2
  6
CONTINUOUS
 10
-0.698949
 20
0.619626
  0
VERTEX
  8
PLAN_1
 62
     2
  6
CONTINUOUS
 10
-0.700307
 20
0.619173
  0
VERTEX
  8
PLAN_1
 62
     2
  6
CONTINUOUS
 10
-0.701213
 20
0.619173
  0
VERTEX
  8
PLAN_1
 62
     2
  6
CONTINUOUS
 10
-0.702118
 20
0.619173
  0
VERTEX
  8
PLAN_1
 62
     2
  6
CONTINUOUS
 10
-0.703476
 20
0.619173
  0
VERTEX
  8
PLAN_1
 62
     2
  6
CONTINUOUS
 10
-0.703929
 20
0.618720
  0
VERTEX
  8
PLAN_1
 62
     2
  6
CONTINUOUS
 10
-0.704835
 20
0.618720
  0
VERTEX
  8
PLAN_1
 62
     2
  6
CONTINUOUS
 10
-0.705287
 20
0.618720
  0
VERTEX
  8
PLAN_1
 62
     2
  6
CONTINUOUS
 10
-0.705740
 20
0.618720
  0
VERTEX
  8
PLAN_1
 62
     2
  6
CONTINUOUS
 10
-0.708909
 20
0.618720
  0
VERTEX
  8
PLAN_1
 62
     2
  6
CONTINUOUS
 10
-0.711173
 20
0.619626
  0
VERTEX
  8
PLAN_1
 62
     2
  6
CONTINUOUS
 10
-0.713437
 20
0.620531
  0
VERTEX
  8
PLAN_1
 62
     2
  6
CONTINUOUS
 10
-0.714795
 20
0.621890
  0
VERTEX
  8
PLAN_1
 62
     2
  6
CONTINUOUS
 10
-0.715701
 20
0.623701
  0
VERTEX
  8
PLAN_1
 62
     2
  6
CONTINUOUS
 10
-0.716154
 20
0.625965
  0
VERTEX
  8
PLAN_1
 62
     2
  6
CONTINUOUS
 10
-0.716606
 20
0.627776
  0
VERTEX
  8
PLAN_1
 62
     2
  6
CONTINUOUS
 10
-0.716606
 20
0.630492
  0
VERTEX
  8
PLAN_1
 62
     2
  6
CONTINUOUS
 10
-0.716606
 20
0.666260
  0
VERTEX
  8
PLAN_1
 62
     2
  6
CONTINUOUS
 10
-0.724303
 20
0.666260
  0
VERTEX
  8
PLAN_1
 62
     2
  6
CONTINUOUS
 10
-0.724303
 20
0.673957
  0
VERTEX
  8
PLAN_1
 62
     2
  6
CONTINUOUS
 10
-0.716606
 20
0.673957
  0
VERTEX
  8
PLAN_1
 62
     2
  6
CONTINUOUS
 10
-0.716606
 20
0.688898
  0
VERTEX
  8
PLAN_1
 62
     2
  6
CONTINUOUS
 10
-0.707551
 20
0.688898
  0
VERTEX
  8
PLAN_1
 62
     2
  6
CONTINUOUS
 10
-0.707551
 20
0.673957
  0
VERTEX
  8
PLAN_1
 62
     2
  6
CONTINUOUS
 10
-0.698949
 20
0.673957
  0
VERTEX
  8
PLAN_1
 62
     2
  6
CONTINUOUS
 10
-0.698949
 20
0.666260
  0
VERTEX
  8
PLAN_1
 62
     2
  6
CONTINUOUS
 10
-0.707551
 20
0.666260
  0
SEQEND
  8
0
  0
POLYLINE
  8
PLAN_1
 62
     2
  6
CONTINUOUS
 66
     1
 40
0.003000
 41
0.003000
  0
VERTEX
  8
PLAN_1
 62
     2
  6
CONTINUOUS
 10
-0.679484
 20
0.619626
  0
VERTEX
  8
PLAN_1
 62
     2
  6
CONTINUOUS
 10
-0.688535
 20
0.619626
  0
VERTEX
  8
PLAN_1
 62
     2
  6
CONTINUOUS
 10
-0.688535
 20
0.673957
  0
VERTEX
  8
PLAN_1
 62
     2
  6
CONTINUOUS
 10
-0.679937
 20
0.673957
  0
VERTEX
  8
PLAN_1
 62
     2
  6
CONTINUOUS
 10
-0.679937
 20
0.664902
  0
VERTEX
  8
PLAN_1
 62
     2
  6
CONTINUOUS
 10
-0.678579
 20
0.667165
  0
VERTEX
  8
PLAN_1
 62
     2
  6
CONTINUOUS
 10
-0.676768
 20
0.668976
  0
VERTEX
  8
PLAN_1
 62
     2
  6
CONTINUOUS
 10
-0.675409
 20
0.670787
  0
VERTEX
  8
PLAN_1
 62
     2
  6
CONTINUOUS
 10
-0.673598
 20
0.672598
  0
VERTEX
  8
PLAN_1
 62
     2
  6
CONTINUOUS
 10
-0.671335
 20
0.673504
  0
VERTEX
  8
PLAN_1
 62
     2
  6
CONTINUOUS
 10
-0.669524
 20
0.674862
  0
VERTEX
  8
PLAN_1
 62
     2
  6
CONTINUOUS
 10
-0.667260
 20
0.675315
  0
VERTEX
  8
PLAN_1
 62
     2
  6
CONTINUOUS
 10
-0.664543
 20
0.675315
  0
VERTEX
  8
PLAN_1
 62
     2
  6
CONTINUOUS
 10
-0.664091
 20
0.675315
  0
VERTEX
  8
PLAN_1
 62
     2
  6
CONTINUOUS
 10
-0.663638
 20
0.675315
  0
VERTEX
  8
PLAN_1
 62
     2
  6
CONTINUOUS
 10
-0.663185
 20
0.675315
  0
VERTEX
  8
PLAN_1
 62
     2
  6
CONTINUOUS
 10
-0.662732
 20
0.675315
  0
VERTEX
  8
PLAN_1
 62
     2
  6
CONTINUOUS
 10
-0.662280
 20
0.675315
  0
VERTEX
  8
PLAN_1
 62
     2
  6
CONTINUOUS
 10
-0.662280
 20
0.665807
  0
VERTEX
  8
PLAN_1
 62
     2
  6
CONTINUOUS
 10
-0.665449
 20
0.665807
  0
VERTEX
  8
PLAN_1
 62
     2
  6
CONTINUOUS
 10
-0.668618
 20
0.665354
  0
VERTEX
  8
PLAN_1
 62
     2
  6
CONTINUOUS
 10
-0.671335
 20
0.664449
  0
VERTEX
  8
PLAN_1
 62
     2
  6
CONTINUOUS
 10
-0.673598
 20
0.663091
  0
VERTEX
  8
PLAN_1
 62
     2
  6
CONTINUOUS
 10
-0.675862
 20
0.661280
  0
VERTEX
  8
PLAN_1
 62
     2
  6
CONTINUOUS
 10
-0.677220
 20
0.659016
  0
VERTEX
  8
PLAN_1
 62
     2
  6
CONTINUOUS
 10
-0.678579
 20
0.656752
  0
VERTEX
  8
PLAN_1
 62
     2
  6
CONTINUOUS
 10
-0.679484
 20
0.654035
  0
VERTEX
  8
PLAN_1
 62
     2
  6
CONTINUOUS
 10
-0.679484
 20
0.650866
  0
VERTEX
  8
PLAN_1
 62
     2
  6
CONTINUOUS
 10
-0.679484
 20
0.619626
  0
SEQEND
  8
0
  0
POLYLINE
  8
PLAN_1
 62
     2
  6
CONTINUOUS
 66
     1
 40
0.003000
 41
0.003000
  0
VERTEX
  8
PLAN_1
 62
     2
  6
CONTINUOUS
 10
-0.633303
 20
0.675315
  0
VERTEX
  8
PLAN_1
 62
     2
  6
CONTINUOUS
 10
-0.630134
 20
0.675315
  0
VERTEX
  8
PLAN_1
 62
     2
  6
CONTINUOUS
 10
-0.626965
 20
0.674862
  0
VERTEX
  8
PLAN_1
 62
     2
  6
CONTINUOUS
 10
-0.624248
 20
0.673957
  0
VERTEX
  8
PLAN_1
 62
     2
  6
CONTINUOUS
 10
-0.621984
 20
0.673051
  0
VERTEX
  8
PLAN_1
 62
     2
  6
CONTINUOUS
 10
-0.619720
 20
0.671693
  0
VERTEX
  8
PLAN_1
 62
     2
  6
CONTINUOUS
 10
-0.617457
 20
0.669882
  0
VERTEX
  8
PLAN_1
 62
     2
  6
CONTINUOUS
 10
-0.615646
 20
0.668071
  0
VERTEX
  8
PLAN_1
 62
     2
  6
CONTINUOUS
 10
-0.613835
 20
0.666260
  0
VERTEX
  8
PLAN_1
 62
     2
  6
CONTINUOUS
 10
-0.612476
 20
0.663996
  0
VERTEX
  8
PLAN_1
 62
     2
  6
CONTINUOUS
 10
-0.611118
 20
0.661732
  0
VERTEX
  8
PLAN_1
 62
     2
  6
CONTINUOUS
 10
-0.610213
 20
0.659469
  0
VERTEX
  8
PLAN_1
 62
     2
  6
CONTINUOUS
 10
-0.609307
 20
0.657205
  0
VERTEX
  8
PLAN_1
 62
     2
  6
CONTINUOUS
 10
-0.608402
 20
0.651772
  0
VERTEX
  8
PLAN_1
 62
     2
  6
CONTINUOUS
 10
-0.607949
 20
0.646791
  0
VERTEX
  8
PLAN_1
 62
     2
  6
CONTINUOUS
 10
-0.608402
 20
0.641358
  0
VERTEX
  8
PLAN_1
 62
     2
  6
CONTINUOUS
 10
-0.609307
 20
0.636378
  0
VERTEX
  8
PLAN_1
 62
     2
  6
CONTINUOUS
 10
-0.610213
 20
0.633661
  0
VERTEX
  8
PLAN_1
 62
     2
  6
CONTINUOUS
 10
-0.611118
 20
0.631398
  0
VERTEX
  8
PLAN_1
 62
     2
  6
CONTINUOUS
 10
-0.612476
 20
0.629134
  0
VERTEX
  8
PLAN_1
 62
     2
  6
CONTINUOUS
 10
-0.613835
 20
0.626870
  0
VERTEX
  8
PLAN_1
 62
     2
  6
CONTINUOUS
 10
-0.615646
 20
0.625059
  0
VERTEX
  8
PLAN_1
 62
     2
  6
CONTINUOUS
 10
-0.617457
 20
0.623248
  0
VERTEX
  8
PLAN_1
 62
     2
  6
CONTINUOUS
 10
-0.619720
 20
0.621890
  0
VERTEX
  8
PLAN_1
 62
     2
  6
CONTINUOUS
 10
-0.621984
 20
0.620531
  0
VERTEX
  8
PLAN_1
 62
     2
  6
CONTINUOUS
 10
-0.624248
 20
0.619626
  0
VERTEX
  8
PLAN_1
 62
     2
  6
CONTINUOUS
 10
-0.626965
 20
0.618720
  0
VERTEX
  8
PLAN_1
 62
     2
  6
CONTINUOUS
 10
-0.630134
 20
0.618268
  0
VERTEX
  8
PLAN_1
 62
     2
  6
CONTINUOUS
 10
-0.633303
 20
0.617815
  0
VERTEX
  8
PLAN_1
 62
     2
  6
CONTINUOUS
 10
-0.636472
 20
0.618268
  0
VERTEX
  8
PLAN_1
 62
     2
  6
CONTINUOUS
 10
-0.639189
 20
0.618720
  0
VERTEX
  8
PLAN_1
 62
     2
  6
CONTINUOUS
 10
-0.641906
 20
0.619626
  0
VERTEX
  8
PLAN_1
 62
     2
  6
CONTINUOUS
 10
-0.644622
 20
0.620531
  0
VERTEX
  8
PLAN_1
 62
     2
  6
CONTINUOUS
 10
-0.646886
 20
0.621890
  0
VERTEX
  8
PLAN_1
 62
     2
  6
CONTINUOUS
 10
-0.648697
 20
0.623248
  0
VERTEX
  8
PLAN_1
 62
     2
  6
CONTINUOUS
 10
-0.650508
 20
0.625059
  0
VERTEX
  8
PLAN_1
 62
     2
  6
CONTINUOUS
 10
-0.652319
 20
0.626870
  0
VERTEX
  8
PLAN_1
 62
     2
  6
CONTINUOUS
 10
-0.653677
 20
0.629134
  0
VERTEX
  8
PLAN_1
 62
     2
  6
CONTINUOUS
 10
-0.655035
 20
0.631398
  0
VERTEX
  8
PLAN_1
 62
     2
  6
CONTINUOUS
 10
-0.655941
 20
0.633661
  0
VERTEX
  8
PLAN_1
 62
     2
  6
CONTINUOUS
 10
-0.656846
 20
0.636378
  0
VERTEX
  8
PLAN_1
 62
     2
  6
CONTINUOUS
 10
-0.658205
 20
0.641358
  0
VERTEX
  8
PLAN_1
 62
     2
  6
CONTINUOUS
 10
-0.658205
 20
0.646791
  0
VERTEX
  8
PLAN_1
 62
     2
  6
CONTINUOUS
 10
-0.658205
 20
0.651772
  0
VERTEX
  8
PLAN_1
 62
     2
  6
CONTINUOUS
 10
-0.656846
 20
0.657205
  0
VERTEX
  8
PLAN_1
 62
     2
  6
CONTINUOUS
 10
-0.655941
 20
0.659469
  0
VERTEX
  8
PLAN_1
 62
     2
  6
CONTINUOUS
 10
-0.655035
 20
0.661732
  0
VERTEX
  8
PLAN_1
 62
     2
  6
CONTINUOUS
 10
-0.653677
 20
0.663996
  0
VERTEX
  8
PLAN_1
 62
     2
  6
CONTINUOUS
 10
-0.652319
 20
0.666260
  0
VERTEX
  8
PLAN_1
 62
     2
  6
CONTINUOUS
 10
-0.650508
 20
0.668071
  0
VERTEX
  8
PLAN_1
 62
     2
  6
CONTINUOUS
 10
-0.648697
 20
0.669882
  0
VERTEX
  8
PLAN_1
 62
     2
  6
CONTINUOUS
 10
-0.646886
 20
0.671693
  0
VERTEX
  8
PLAN_1
 62
     2
  6
CONTINUOUS
 10
-0.644622
 20
0.673051
  0
VERTEX
  8
PLAN_1
 62
     2
  6
CONTINUOUS
 10
-0.641906
 20
0.673957
  0
VERTEX
  8
PLAN_1
 62
     2
  6
CONTINUOUS
 10
-0.639189
 20
0.674862
  0
VERTEX
  8
PLAN_1
 62
     2
  6
CONTINUOUS
 10
-0.636472
 20
0.675315
  0
VERTEX
  8
PLAN_1
 62
     2
  6
CONTINUOUS
 10
-0.633303
 20
0.675315
  0
SEQEND
  8
0
  0
POLYLINE
  8
PLAN_1
 62
     2
  6
CONTINUOUS
 66
     1
 40
0.003000
 41
0.003000
  0
VERTEX
  8
PLAN_1
 62
     2
  6
CONTINUOUS
 10
-0.633303
 20
0.625965
  0
VERTEX
  8
PLAN_1
 62
     2
  6
CONTINUOUS
 10
-0.631039
 20
0.625965
  0
VERTEX
  8
PLAN_1
 62
     2
  6
CONTINUOUS
 10
-0.628776
 20
0.626417
  0
VERTEX
  8
PLAN_1
 62
     2
  6
CONTINUOUS
 10
-0.626965
 20
0.627323
  0
VERTEX
  8
PLAN_1
 62
     2
  6
CONTINUOUS
 10
-0.625154
 20
0.628228
  0
VERTEX
  8
PLAN_1
 62
     2
  6
CONTINUOUS
 10
-0.623795
 20
0.629134
  0
VERTEX
  8
PLAN_1
 62
     2
  6
CONTINUOUS
 10
-0.622437
 20
0.630492
  0
VERTEX
  8
PLAN_1
 62
     2
  6
CONTINUOUS
 10
-0.621079
 20
0.631850
  0
VERTEX
  8
PLAN_1
 62
     2
  6
CONTINUOUS
 10
-0.620173
 20
0.633661
  0
VERTEX
  8
PLAN_1
 62
     2
  6
CONTINUOUS
 10
-0.618815
 20
0.636831
  0
VERTEX
  8
PLAN_1
 62
     2
  6
CONTINUOUS
 10
-0.617909
 20
0.640453
  0
VERTEX
  8
PLAN_1
 62
     2
  6
CONTINUOUS
 10
-0.617457
 20
0.643622
  0
VERTEX
  8
PLAN_1
 62
     2
  6
CONTINUOUS
 10
-0.617457
 20
0.646791
  0
VERTEX
  8
PLAN_1
 62
     2
  6
CONTINUOUS
 10
-0.617457
 20
0.649508
  0
VERTEX
  8
PLAN_1
 62
     2
  6
CONTINUOUS
 10
-0.617909
 20
0.653130
  0
VERTEX
  8
PLAN_1
 62
     2
  6
CONTINUOUS
 10
-0.618815
 20
0.656299
  0
VERTEX
  8
PLAN_1
 62
     2
  6
CONTINUOUS
 10
-0.620173
 20
0.659921
  0
VERTEX
  8
PLAN_1
 62
     2
  6
CONTINUOUS
 10
-0.622437
 20
0.662638
  0
VERTEX
  8
PLAN_1
 62
     2
  6
CONTINUOUS
 10
-0.625154
 20
0.665354
  0
VERTEX
  8
PLAN_1
 62
     2
  6
CONTINUOUS
 10
-0.626965
 20
0.666260
  0
VERTEX
  8
PLAN_1
 62
     2
  6
CONTINUOUS
 10
-0.628776
 20
0.666713
  0
VERTEX
  8
PLAN_1
 62
     2
  6
CONTINUOUS
 10
-0.631039
 20
0.667165
  0
VERTEX
  8
PLAN_1
 62
     2
  6
CONTINUOUS
 10
-0.633303
 20
0.667618
  0
VERTEX
  8
PLAN_1
 62
     2
  6
CONTINUOUS
 10
-0.635567
 20
0.667165
  0
VERTEX
  8
PLAN_1
 62
     2
  6
CONTINUOUS
 10
-0.637378
 20
0.666713
  0
VERTEX
  8
PLAN_1
 62
     2
  6
CONTINUOUS
 10
-0.639642
 20
0.666260
  0
VERTEX
  8
PLAN_1
 62
     2
  6
CONTINUOUS
 10
-0.641000
 20
0.665354
  0
VERTEX
  8
PLAN_1
 62
     2
  6
CONTINUOUS
 10
-0.642811
 20
0.663996
  0
VERTEX
  8
PLAN_1
 62
     2
  6
CONTINUOUS
 10
-0.643717
 20
0.662638
  0
VERTEX
  8
PLAN_1
 62
     2
  6
CONTINUOUS
 10
-0.645075
 20
0.661280
  0
VERTEX
  8
PLAN_1
 62
     2
  6
CONTINUOUS
 10
-0.645980
 20
0.659921
  0
VERTEX
  8
PLAN_1
 62
     2
  6
CONTINUOUS
 10
-0.647339
 20
0.656299
  0
VERTEX
  8
PLAN_1
 62
     2
  6
CONTINUOUS
 10
-0.648244
 20
0.653130
  0
VERTEX
  8
PLAN_1
 62
     2
  6
CONTINUOUS
 10
-0.648697
 20
0.649508
  0
VERTEX
  8
PLAN_1
 62
     2
  6
CONTINUOUS
 10
-0.649150
 20
0.646791
  0
VERTEX
  8
PLAN_1
 62
     2
  6
CONTINUOUS
 10
-0.648697
 20
0.643622
  0
VERTEX
  8
PLAN_1
 62
     2
  6
CONTINUOUS
 10
-0.648244
 20
0.640453
  0
VERTEX
  8
PLAN_1
 62
     2
  6
CONTINUOUS
 10
-0.647339
 20
0.636831
  0
VERTEX
  8
PLAN_1
 62
     2
  6
CONTINUOUS
 10
-0.645980
 20
0.633661
  0
VERTEX
  8
PLAN_1
 62
     2
  6
CONTINUOUS
 10
-0.645075
 20
0.631850
  0
VERTEX
  8
PLAN_1
 62
     2
  6
CONTINUOUS
 10
-0.643717
 20
0.630492
  0
VERTEX
  8
PLAN_1
 62
     2
  6
CONTINUOUS
 10
-0.642811
 20
0.629134
  0
VERTEX
  8
PLAN_1
 62
     2
  6
CONTINUOUS
 10
-0.641000
 20
0.628228
  0
VERTEX
  8
PLAN_1
 62
     2
  6
CONTINUOUS
 10
-0.639642
 20
0.627323
  0
VERTEX
  8
PLAN_1
 62
     2
  6
CONTINUOUS
 10
-0.637378
 20
0.626417
  0
VERTEX
  8
PLAN_1
 62
     2
  6
CONTINUOUS
 10
-0.635567
 20
0.625965
  0
VERTEX
  8
PLAN_1
 62
     2
  6
CONTINUOUS
 10
-0.633303
 20
0.625965
  0
SEQEND
  8
0
  0
POLYLINE
  8
PLAN_1
 62
     2
  6
CONTINUOUS
 66
     1
 40
0.003000
 41
0.003000
  0
VERTEX
  8
PLAN_1
 62
     2
  6
CONTINUOUS
 10
-0.561768
 20
0.619626
  0
VERTEX
  8
PLAN_1
 62
     2
  6
CONTINUOUS
 10
-0.561768
 20
0.627323
  0
VERTEX
  8
PLAN_1
 62
     2
  6
CONTINUOUS
 10
-0.562220
 20
0.627776
  0
VERTEX
  8
PLAN_1
 62
     2
  6
CONTINUOUS
 10
-0.563579
 20
0.625512
  0
VERTEX
  8
PLAN_1
 62
     2
  6
CONTINUOUS
 10
-0.565390
 20
0.623248
  0
VERTEX
  8
PLAN_1
 62
     2
  6
CONTINUOUS
 10
-0.567201
 20
0.621890
  0
VERTEX
  8
PLAN_1
 62
     2
  6
CONTINUOUS
 10
-0.569012
 20
0.620531
  0
VERTEX
  8
PLAN_1
 62
     2
  6
CONTINUOUS
 10
-0.571276
 20
0.619173
  0
VERTEX
  8
PLAN_1
 62
     2
  6
CONTINUOUS
 10
-0.573539
 20
0.618720
  0
VERTEX
  8
PLAN_1
 62
     2
  6
CONTINUOUS
 10
-0.576256
 20
0.617815
  0
VERTEX
  8
PLAN_1
 62
     2
  6
CONTINUOUS
 10
-0.579425
 20
0.617815
  0
VERTEX
  8
PLAN_1
 62
     2
  6
CONTINUOUS
 10
-0.582594
 20
0.618268
  0
VERTEX
  8
PLAN_1
 62
     2
  6
CONTINUOUS
 10
-0.585764
 20
0.618720
  0
VERTEX
  8
PLAN_1
 62
     2
  6
CONTINUOUS
 10
-0.588480
 20
0.619626
  0
VERTEX
  8
PLAN_1
 62
     2
  6
CONTINUOUS
 10
-0.591197
 20
0.621437
  0
VERTEX
  8
PLAN_1
 62
     2
  6
CONTINUOUS
 10
-0.593461
 20
0.623701
  0
VERTEX
  8
PLAN_1
 62
     2
  6
CONTINUOUS
 10
-0.595272
 20
0.626417
  0
VERTEX
  8
PLAN_1
 62
     2
  6
CONTINUOUS
 10
-0.596177
 20
0.628228
  0
VERTEX
  8
PLAN_1
 62
     2
  6
CONTINUOUS
 10
-0.596630
 20
0.630492
  0
VERTEX
  8
PLAN_1
 62
     2
  6
CONTINUOUS
 10
-0.597083
 20
0.632303
  0
VERTEX
  8
PLAN_1
 62
     2
  6
CONTINUOUS
 10
-0.597083
 20
0.634567
  0
VERTEX
  8
PLAN_1
 62
     2
  6
CONTINUOUS
 10
-0.597083
 20
0.673957
  0
VERTEX
  8
PLAN_1
 62
     2
  6
CONTINUOUS
 10
-0.588028
 20
0.673957
  0
VERTEX
  8
PLAN_1
 62
     2
  6
CONTINUOUS
 10
-0.588028
 20
0.637736
  0
VERTEX
  8
PLAN_1
 62
     2
  6
CONTINUOUS
 10
-0.587575
 20
0.634567
  0
VERTEX
  8
PLAN_1
 62
     2
  6
CONTINUOUS
 10
-0.587122
 20
0.632303
  0
VERTEX
  8
PLAN_1
 62
     2
  6
CONTINUOUS
 10
-0.586217
 20
0.630039
  0
VERTEX
  8
PLAN_1
 62
     2
  6
CONTINUOUS
 10
-0.584858
 20
0.628228
  0
VERTEX
  8
PLAN_1
 62
     2
  6
CONTINUOUS
 10
-0.583500
 20
0.627323
  0
VERTEX
  8
PLAN_1
 62
     2
  6
CONTINUOUS
 10
-0.581689
 20
0.626417
  0
VERTEX
  8
PLAN_1
 62
     2
  6
CONTINUOUS
 10
-0.579425
 20
0.625965
  0
VERTEX
  8
PLAN_1
 62
     2
  6
CONTINUOUS
 10
-0.577614
 20
0.625965
  0
VERTEX
  8
PLAN_1
 62
     2
  6
CONTINUOUS
 10
-0.575350
 20
0.625965
  0
VERTEX
  8
PLAN_1
 62
     2
  6
CONTINUOUS
 10
-0.573539
 20
0.626417
  0
VERTEX
  8
PLAN_1
 62
     2
  6
CONTINUOUS
 10
-0.571728
 20
0.626870
  0
VERTEX
  8
PLAN_1
 62
     2
  6
CONTINUOUS
 10
-0.570370
 20
0.627323
  0
VERTEX
  8
PLAN_1
 62
     2
  6
CONTINUOUS
 10
-0.567654
 20
0.629587
  0
VERTEX
  8
PLAN_1
 62
     2
  6
CONTINUOUS
 10
-0.565843
 20
0.631850
  0
VERTEX
  8
PLAN_1
 62
     2
  6
CONTINUOUS
 10
-0.564031
 20
0.634567
  0
VERTEX
  8
PLAN_1
 62
     2
  6
CONTINUOUS
 10
-0.563126
 20
0.637736
  0
VERTEX
  8
PLAN_1
 62
     2
  6
CONTINUOUS
 10
-0.562673
 20
0.640906
  0
VERTEX
  8
PLAN_1
 62
     2
  6
CONTINUOUS
 10
-0.562673
 20
0.644075
  0
VERTEX
  8
PLAN_1
 62
     2
  6
CONTINUOUS
 10
-0.562673
 20
0.673957
  0
VERTEX
  8
PLAN_1
 62
     2
  6
CONTINUOUS
 10
-0.553165
 20
0.673957
  0
VERTEX
  8
PLAN_1
 62
     2
  6
CONTINUOUS
 10
-0.553165
 20
0.619626
  0
VERTEX
  8
PLAN_1
 62
     2
  6
CONTINUOUS
 10
-0.561768
 20
0.619626
  0
SEQEND
  8
0
  0
POLYLINE
  8
PLAN_1
 62
     2
  6
CONTINUOUS
 66
     1
 40
0.003000
 41
0.003000
  0
VERTEX
  8
PLAN_1
 62
     2
  6
CONTINUOUS
 10
-0.499287
 20
0.666260
  0
VERTEX
  8
PLAN_1
 62
     2
  6
CONTINUOUS
 10
-0.499287
 20
0.630945
  0
VERTEX
  8
PLAN_1
 62
     2
  6
CONTINUOUS
 10
-0.499287
 20
0.629587
  0
VERTEX
  8
PLAN_1
 62
     2
  6
CONTINUOUS
 10
-0.498835
 20
0.628228
  0
VERTEX
  8
PLAN_1
 62
     2
  6
CONTINUOUS
 10
-0.497929
 20
0.627776
  0
VERTEX
  8
PLAN_1
 62
     2
  6
CONTINUOUS
 10
-0.497476
 20
0.627323
  0
VERTEX
  8
PLAN_1
 62
     2
  6
CONTINUOUS
 10
-0.496571
 20
0.626870
  0
VERTEX
  8
PLAN_1
 62
     2
  6
CONTINUOUS
 10
-0.495665
 20
0.626870
  0
VERTEX
  8
PLAN_1
 62
     2
  6
CONTINUOUS
 10
-0.494760
 20
0.626417
  0
VERTEX
  8
PLAN_1
 62
     2
  6
CONTINUOUS
 10
-0.493854
 20
0.626417
  0
VERTEX
  8
PLAN_1
 62
     2
  6
CONTINUOUS
 10
-0.490685
 20
0.626417
  0
VERTEX
  8
PLAN_1
 62
     2
  6
CONTINUOUS
 10
-0.490685
 20
0.619626
  0
VERTEX
  8
PLAN_1
 62
     2
  6
CONTINUOUS
 10
-0.492043
 20
0.619173
  0
VERTEX
  8
PLAN_1
 62
     2
  6
CONTINUOUS
 10
-0.492949
 20
0.619173
  0
VERTEX
  8
PLAN_1
 62
     2
  6
CONTINUOUS
 10
-0.493854
 20
0.619173
  0
VERTEX
  8
PLAN_1
 62
     2
  6
CONTINUOUS
 10
-0.494760
 20
0.619173
  0
VERTEX
  8
PLAN_1
 62
     2
  6
CONTINUOUS
 10
-0.495665
 20
0.618720
  0
VERTEX
  8
PLAN_1
 62
     2
  6
CONTINUOUS
 10
-0.496571
 20
0.618720
  0
VERTEX
  8
PLAN_1
 62
     2
  6
CONTINUOUS
 10
-0.497024
 20
0.618720
  0
VERTEX
  8
PLAN_1
 62
     2
  6
CONTINUOUS
 10
-0.497476
 20
0.618720
  0
VERTEX
  8
PLAN_1
 62
     2
  6
CONTINUOUS
 10
-0.500646
 20
0.618720
  0
VERTEX
  8
PLAN_1
 62
     2
  6
CONTINUOUS
 10
-0.502909
 20
0.619626
  0
VERTEX
  8
PLAN_1
 62
     2
  6
CONTINUOUS
 10
-0.505173
 20
0.620531
  0
VERTEX
  8
PLAN_1
 62
     2
  6
CONTINUOUS
 10
-0.506531
 20
0.621890
  0
VERTEX
  8
PLAN_1
 62
     2
  6
CONTINUOUS
 10
-0.507437
 20
0.623701
  0
VERTEX
  8
PLAN_1
 62
     2
  6
CONTINUOUS
 10
-0.507890
 20
0.625965
  0
VERTEX
  8
PLAN_1
 62
     2
  6
CONTINUOUS
 10
-0.508343
 20
0.627776
  0
VERTEX
  8
PLAN_1
 62
     2
  6
CONTINUOUS
 10
-0.508343
 20
0.630492
  0
VERTEX
  8
PLAN_1
 62
     2
  6
CONTINUOUS
 10
-0.508343
 20
0.666260
  0
VERTEX
  8
PLAN_1
 62
     2
  6
CONTINUOUS
 10
-0.516039
 20
0.666260
  0
VERTEX
  8
PLAN_1
 62
     2
  6
CONTINUOUS
 10
-0.516039
 20
0.673957
  0
VERTEX
  8
PLAN_1
 62
     2
  6
CONTINUOUS
 10
-0.508343
 20
0.673957
  0
VERTEX
  8
PLAN_1
 62
     2
  6
CONTINUOUS
 10
-0.508343
 20
0.688898
  0
VERTEX
  8
PLAN_1
 62
     2
  6
CONTINUOUS
 10
-0.499287
 20
0.688898
  0
VERTEX
  8
PLAN_1
 62
     2
  6
CONTINUOUS
 10
-0.499287
 20
0.673957
  0
VERTEX
  8
PLAN_1
 62
     2
  6
CONTINUOUS
 10
-0.490685
 20
0.673957
  0
VERTEX
  8
PLAN_1
 62
     2
  6
CONTINUOUS
 10
-0.490685
 20
0.666260
  0
VERTEX
  8
PLAN_1
 62
     2
  6
CONTINUOUS
 10
-0.499287
 20
0.666260
  0
SEQEND
  8
0
  0
POLYLINE
  8
PLAN_1
 62
     2
  6
CONTINUOUS
 66
     1
 40
0.003000
 41
0.003000
  0
VERTEX
  8
PLAN_1
 62
     2
  6
CONTINUOUS
 10
-0.482083
 20
0.657205
  0
VERTEX
  8
PLAN_1
 62
     2
  6
CONTINUOUS
 10
-0.481630
 20
0.661732
  0
VERTEX
  8
PLAN_1
 62
     2
  6
CONTINUOUS
 10
-0.480272
 20
0.665807
  0
VERTEX
  8
PLAN_1
 62
     2
  6
CONTINUOUS
 10
-0.479366
 20
0.667165
  0
VERTEX
  8
PLAN_1
 62
     2
  6
CONTINUOUS
 10
-0.478008
 20
0.668524
  0
VERTEX
  8
PLAN_1
 62
     2
  6
CONTINUOUS
 10
-0.477102
 20
0.669882
  0
VERTEX
  8
PLAN_1
 62
     2
  6
CONTINUOUS
 10
-0.475744
 20
0.671240
  0
VERTEX
  8
PLAN_1
 62
     2
  6
CONTINUOUS
 10
-0.472575
 20
0.673051
  0
VERTEX
  8
PLAN_1
 62
     2
  6
CONTINUOUS
 10
-0.468500
 20
0.674409
  0
VERTEX
  8
PLAN_1
 62
     2
  6
CONTINUOUS
 10
-0.464425
 20
0.675315
  0
VERTEX
  8
PLAN_1
 62
     2
  6
CONTINUOUS
 10
-0.459445
 20
0.675315
  0
VERTEX
  8
PLAN_1
 62
     2
  6
CONTINUOUS
 10
-0.457181
 20
0.675315
  0
VERTEX
  8
PLAN_1
 62
     2
  6
CONTINUOUS
 10
-0.454465
 20
0.674862
  0
VERTEX
  8
PLAN_1
 62
     2
  6
CONTINUOUS
 10
-0.451295
 20
0.674409
  0
VERTEX
  8
PLAN_1
 62
     2
  6
CONTINUOUS
 10
-0.447673
 20
0.673051
  0
VERTEX
  8
PLAN_1
 62
     2
  6
CONTINUOUS
 10
-0.446315
 20
0.672146
  0
VERTEX
  8
PLAN_1
 62
     2
  6
CONTINUOUS
 10
-0.444504
 20
0.671240
  0
VERTEX
  8
PLAN_1
 62
     2
  6
CONTINUOUS
 10
-0.443146
 20
0.669882
  0
VERTEX
  8
PLAN_1
 62
     2
  6
CONTINUOUS
 10
-0.441787
 20
0.668524
  0
VERTEX
  8
PLAN_1
 62
     2
  6
CONTINUOUS
 10
-0.440882
 20
0.666713
  0
VERTEX
  8
PLAN_1
 62
     2
  6
CONTINUOUS
 10
-0.439976
 20
0.664902
  0
VERTEX
  8
PLAN_1
 62
     2
  6
CONTINUOUS
 10
-0.439524
 20
0.662638
  0
VERTEX
  8
PLAN_1
 62
     2
  6
CONTINUOUS
 10
-0.439524
 20
0.660374
  0
VERTEX
  8
PLAN_1
 62
     2
  6
CONTINUOUS
 10
-0.439524
 20
0.628681
  0
VERTEX
  8
PLAN_1
 62
     2
  6
CONTINUOUS
 10
-0.439071
 20
0.628228
  0
VERTEX
  8
PLAN_1
 62
     2
  6
CONTINUOUS
 10
-0.439071
 20
0.627323
  0
VERTEX
  8
PLAN_1
 62
     2
  6
CONTINUOUS
 10
-0.439071
 20
0.626870
  0
VERTEX
  8
PLAN_1
 62
     2
  6
CONTINUOUS
 10
-0.438618
 20
0.626417
  0
VERTEX
  8
PLAN_1
 62
     2
  6
CONTINUOUS
 10
-0.438165
 20
0.625965
  0
VERTEX
  8
PLAN_1
 62
     2
  6
CONTINUOUS
 10
-0.437713
 20
0.625965
  0
VERTEX
  8
PLAN_1
 62
     2
  6
CONTINUOUS
 10
-0.436807
 20
0.625512
  0
VERTEX
  8
PLAN_1
 62
     2
  6
CONTINUOUS
 10
-0.436354
 20
0.625512
  0
VERTEX
  8
PLAN_1
 62
     2
  6
CONTINUOUS
 10
-0.435902
 20
0.625512
  0
VERTEX
  8
PLAN_1
 62
     2
  6
CONTINUOUS
 10
-0.435449
 20
0.625512
  0
VERTEX
  8
PLAN_1
 62
     2
  6
CONTINUOUS
 10
-0.435449
 20
0.625965
  0
VERTEX
  8
PLAN_1
 62
     2
  6
CONTINUOUS
 10
-0.434996
 20
0.625965
  0
VERTEX
  8
PLAN_1
 62
     2
  6
CONTINUOUS
 10
-0.434543
 20
0.625965
  0
VERTEX
  8
PLAN_1
 62
     2
  6
CONTINUOUS
 10
-0.434091
 20
0.625965
  0
VERTEX
  8
PLAN_1
 62
     2
  6
CONTINUOUS
 10
-0.433638
 20
0.625965
  0
VERTEX
  8
PLAN_1
 62
     2
  6
CONTINUOUS
 10
-0.433185
 20
0.625965
  0
VERTEX
  8
PLAN_1
 62
     2
  6
CONTINUOUS
 10
-0.433185
 20
0.619626
  0
VERTEX
  8
PLAN_1
 62
     2
  6
CONTINUOUS
 10
-0.433638
 20
0.619173
  0
VERTEX
  8
PLAN_1
 62
     2
  6
CONTINUOUS
 10
-0.434543
 20
0.619173
  0
VERTEX
  8
PLAN_1
 62
     2
  6
CONTINUOUS
 10
-0.434996
 20
0.618720
  0
VERTEX
  8
PLAN_1
 62
     2
  6
CONTINUOUS
 10
-0.435449
 20
0.618720
  0
VERTEX
  8
PLAN_1
 62
     2
  6
CONTINUOUS
 10
-0.436354
 20
0.618720
  0
VERTEX
  8
PLAN_1
 62
     2
  6
CONTINUOUS
 10
-0.436807
 20
0.618720
  0
VERTEX
  8
PLAN_1
 62
     2
  6
CONTINUOUS
 10
-0.437713
 20
0.618268
  0
VERTEX
  8
PLAN_1
 62
     2
  6
CONTINUOUS
 10
-0.438165
 20
0.618268
  0
VERTEX
  8
PLAN_1
 62
     2
  6
CONTINUOUS
 10
-0.440882
 20
0.618720
  0
VERTEX
  8
PLAN_1
 62
     2
  6
CONTINUOUS
 10
-0.443146
 20
0.619173
  0
VERTEX
  8
PLAN_1
 62
     2
  6
CONTINUOUS
 10
-0.444957
 20
0.620079
  0
VERTEX
  8
PLAN_1
 62
     2
  6
CONTINUOUS
 10
-0.445862
 20
0.620984
  0
VERTEX
  8
PLAN_1
 62
     2
  6
CONTINUOUS
 10
-0.446768
 20
0.622343
  0
VERTEX
  8
PLAN_1
 62
     2
  6
CONTINUOUS
 10
-0.447220
 20
0.623701
  0
VERTEX
  8
PLAN_1
 62
     2
  6
CONTINUOUS
 10
-0.447673
 20
0.625059
  0
VERTEX
  8
PLAN_1
 62
     2
  6
CONTINUOUS
 10
-0.448126
 20
0.626870
  0
VERTEX
  8
PLAN_1
 62
     2
  6
CONTINUOUS
 10
-0.449484
 20
0.625059
  0
VERTEX
  8
PLAN_1
 62
     2
  6
CONTINUOUS
 10
-0.450843
 20
0.623701
  0
VERTEX
  8
PLAN_1
 62
     2
  6
CONTINUOUS
 10
-0.453106
 20
0.622343
  0
VERTEX
  8
PLAN_1
 62
     2
  6
CONTINUOUS
 10
-0.454917
 20
0.620984
  0
VERTEX
  8
PLAN_1
 62
     2
  6
CONTINUOUS
 10
-0.457634
 20
0.619626
  0
VERTEX
  8
PLAN_1
 62
     2
  6
CONTINUOUS
 10
-0.460350
 20
0.618720
  0
VERTEX
  8
PLAN_1
 62
     2
  6
CONTINUOUS
 10
-0.463972
 20
0.618268
  0
VERTEX
  8
PLAN_1
 62
     2
  6
CONTINUOUS
 10
-0.467594
 20
0.617815
  0
VERTEX
  8
PLAN_1
 62
     2
  6
CONTINUOUS
 10
-0.471217
 20
0.618268
  0
VERTEX
  8
PLAN_1
 62
     2
  6
CONTINUOUS
 10
-0.474386
 20
0.619173
  0
VERTEX
  8
PLAN_1
 62
     2
  6
CONTINUOUS
 10
-0.477555
 20
0.620531
  0
VERTEX
  8
PLAN_1
 62
     2
  6
CONTINUOUS
 10
-0.479819
 20
0.622343
  0
VERTEX
  8
PLAN_1
 62
     2
  6
CONTINUOUS
 10
-0.482083
 20
0.624606
  0
VERTEX
  8
PLAN_1
 62
     2
  6
CONTINUOUS
 10
-0.483441
 20
0.627323
  0
VERTEX
  8
PLAN_1
 62
     2
  6
CONTINUOUS
 10
-0.484346
 20
0.630039
  0
VERTEX
  8
PLAN_1
 62
     2
  6
CONTINUOUS
 10
-0.484799
 20
0.633661
  0
VERTEX
  8
PLAN_1
 62
     2
  6
CONTINUOUS
 10
-0.484799
 20
0.635472
  0
VERTEX
  8
PLAN_1
 62
     2
  6
CONTINUOUS
 10
-0.484346
 20
0.637736
  0
VERTEX
  8
PLAN_1
 62
     2
  6
CONTINUOUS
 10
-0.483441
 20
0.640453
  0
VERTEX
  8
PLAN_1
 62
     2
  6
CONTINUOUS
 10
-0.482083
 20
0.643169
  0
VERTEX
  8
PLAN_1
 62
     2
  6
CONTINUOUS
 10
-0.479819
 20
0.645433
  0
VERTEX
  8
PLAN_1
 62
     2
  6
CONTINUOUS
 10
-0.477102
 20
0.647697
  0
VERTEX
  8
PLAN_1
 62
     2
  6
CONTINUOUS
 10
-0.475291
 20
0.648602
  0
VERTEX
  8
PLAN_1
 62
     2
  6
CONTINUOUS
 10
-0.473028
 20
0.649508
  0
VERTEX
  8
PLAN_1
 62
     2
  6
CONTINUOUS
 10
-0.470764
 20
0.650413
  0
VERTEX
  8
PLAN_1
 62
     2
  6
CONTINUOUS
 10
-0.468047
 20
0.650866
  0
VERTEX
  8
PLAN_1
 62
     2
  6
CONTINUOUS
 10
-0.453106
 20
0.652677
  0
VERTEX
  8
PLAN_1
 62
     2
  6
CONTINUOUS
 10
-0.452201
 20
0.652677
  0
VERTEX
  8
PLAN_1
 62
     2
  6
CONTINUOUS
 10
-0.451295
 20
0.652677
  0
VERTEX
  8
PLAN_1
 62
     2
  6
CONTINUOUS
 10
-0.450390
 20
0.653130
  0
VERTEX
  8
PLAN_1
 62
     2
  6
CONTINUOUS
 10
-0.449937
 20
0.653583
  0
VERTEX
  8
PLAN_1
 62
     2
  6
CONTINUOUS
 10
-0.449031
 20
0.654488
  0
VERTEX
  8
PLAN_1
 62
     2
  6
CONTINUOUS
 10
-0.448579
 20
0.655846
  0
VERTEX
  8
PLAN_1
 62
     2
  6
CONTINUOUS
 10
-0.448579
 20
0.657205
  0
VERTEX
  8
PLAN_1
 62
     2
  6
CONTINUOUS
 10
-0.448126
 20
0.659016
  0
VERTEX
  8
PLAN_1
 62
     2
  6
CONTINUOUS
 10
-0.448579
 20
0.660827
  0
VERTEX
  8
PLAN_1
 62
     2
  6
CONTINUOUS
 10
-0.449031
 20
0.662638
  0
VERTEX
  8
PLAN_1
 62
     2
  6
CONTINUOUS
 10
-0.449937
 20
0.664449
  0
VERTEX
  8
PLAN_1
 62
     2
  6
CONTINUOUS
 10
-0.451295
 20
0.665354
  0
VERTEX
  8
PLAN_1
 62
     2
  6
CONTINUOUS
 10
-0.453106
 20
0.666713
  0
VERTEX
  8
PLAN_1
 62
     2
  6
CONTINUOUS
 10
-0.455370
 20
0.667165
  0
VERTEX
  8
PLAN_1
 62
     2
  6
CONTINUOUS
 10
-0.458087
 20
0.667618
  0
VERTEX
  8
PLAN_1
 62
     2
  6
CONTINUOUS
 10
-0.461256
 20
0.667618
  0
VERTEX
  8
PLAN_1
 62
     2
  6
CONTINUOUS
 10
-0.464425
 20
0.667618
  0
VERTEX
  8
PLAN_1
 62
     2
  6
CONTINUOUS
 10
-0.467142
 20
0.666713
  0
VERTEX
  8
PLAN_1
 62
     2
  6
CONTINUOUS
 10
-0.469406
 20
0.665807
  0
VERTEX
  8
PLAN_1
 62
     2
  6
CONTINUOUS
 10
-0.470764
 20
0.663996
  0
VERTEX
  8
PLAN_1
 62
     2
  6
CONTINUOUS
 10
-0.472122
 20
0.662638
  0
VERTEX
  8
PLAN_1
 62
     2
  6
CONTINUOUS
 10
-0.472575
 20
0.660827
  0
VERTEX
  8
PLAN_1
 62
     2
  6
CONTINUOUS
 10
-0.473028
 20
0.659016
  0
VERTEX
  8
PLAN_1
 62
     2
  6
CONTINUOUS
 10
-0.473480
 20
0.657205
  0
VERTEX
  8
PLAN_1
 62
     2
  6
CONTINUOUS
 10
-0.482083
 20
0.657205
  0
SEQEND
  8
0
  0
POLYLINE
  8
PLAN_1
 62
     2
  6
CONTINUOUS
 66
     1
 40
0.003000
 41
0.003000
  0
VERTEX
  8
PLAN_1
 62
     2
  6
CONTINUOUS
 10
-0.448579
 20
0.647244
  0
VERTEX
  8
PLAN_1
 62
     2
  6
CONTINUOUS
 10
-0.449031
 20
0.646791
  0
VERTEX
  8
PLAN_1
 62
     2
  6
CONTINUOUS
 10
-0.449937
 20
0.646339
  0
VERTEX
  8
PLAN_1
 62
     2
  6
CONTINUOUS
 10
-0.450843
 20
0.645886
  0
VERTEX
  8
PLAN_1
 62
     2
  6
CONTINUOUS
 10
-0.452201
 20
0.645433
  0
VERTEX
  8
PLAN_1
 62
     2
  6
CONTINUOUS
 10
-0.454012
 20
0.644980
  0
VERTEX
  8
PLAN_1
 62
     2
  6
CONTINUOUS
 10
-0.456728
 20
0.644980
  0
VERTEX
  8
PLAN_1
 62
     2
  6
CONTINUOUS
 10
-0.459898
 20
0.644075
  0
VERTEX
  8
PLAN_1
 62
     2
  6
CONTINUOUS
 10
-0.463520
 20
0.643622
  0
VERTEX
  8
PLAN_1
 62
     2
  6
CONTINUOUS
 10
-0.465331
 20
0.643622
  0
VERTEX
  8
PLAN_1
 62
     2
  6
CONTINUOUS
 10
-0.467142
 20
0.643169
  0
VERTEX
  8
PLAN_1
 62
     2
  6
CONTINUOUS
 10
-0.469406
 20
0.642717
  0
VERTEX
  8
PLAN_1
 62
     2
  6
CONTINUOUS
 10
-0.471217
 20
0.641811
  0
VERTEX
  8
PLAN_1
 62
     2
  6
CONTINUOUS
 10
-0.472575
 20
0.640453
  0
VERTEX
  8
PLAN_1
 62
     2
  6
CONTINUOUS
 10
-0.473933
 20
0.639094
  0
VERTEX
  8
PLAN_1
 62
     2
  6
CONTINUOUS
 10
-0.474839
 20
0.637283
  0
VERTEX
  8
PLAN_1
 62
     2
  6
CONTINUOUS
 10
-0.475291
 20
0.635020
  0
VERTEX
  8
PLAN_1
 62
     2
  6
CONTINUOUS
 10
-0.474839
 20
0.632756
  0
VERTEX
  8
PLAN_1
 62
     2
  6
CONTINUOUS
 10
-0.474839
 20
0.630945
  0
VERTEX
  8
PLAN_1
 62
     2
  6
CONTINUOUS
 10
-0.473933
 20
0.629134
  0
VERTEX
  8
PLAN_1
 62
     2
  6
CONTINUOUS
 10
-0.473028
 20
0.627776
  0
VERTEX
  8
PLAN_1
 62
     2
  6
CONTINUOUS
 10
-0.471669
 20
0.626870
  0
VERTEX
  8
PLAN_1
 62
     2
  6
CONTINUOUS
 10
-0.469858
 20
0.625965
  0
VERTEX
  8
PLAN_1
 62
     2
  6
CONTINUOUS
 10
-0.467594
 20
0.625512
  0
VERTEX
  8
PLAN_1
 62
     2
  6
CONTINUOUS
 10
-0.465331
 20
0.625512
  0
VERTEX
  8
PLAN_1
 62
     2
  6
CONTINUOUS
 10
-0.462161
 20
0.625512
  0
VERTEX
  8
PLAN_1
 62
     2
  6
CONTINUOUS
 10
-0.458992
 20
0.626417
  0
VERTEX
  8
PLAN_1
 62
     2
  6
CONTINUOUS
 10
-0.456276
 20
0.627776
  0
VERTEX
  8
PLAN_1
 62
     2
  6
CONTINUOUS
 10
-0.453559
 20
0.629134
  0
VERTEX
  8
PLAN_1
 62
     2
  6
CONTINUOUS
 10
-0.451748
 20
0.630945
  0
VERTEX
  8
PLAN_1
 62
     2
  6
CONTINUOUS
 10
-0.449937
 20
0.633209
  0
VERTEX
  8
PLAN_1
 62
     2
  6
CONTINUOUS
 10
-0.449031
 20
0.635472
  0
VERTEX
  8
PLAN_1
 62
     2
  6
CONTINUOUS
 10
-0.448579
 20
0.638189
  0
VERTEX
  8
PLAN_1
 62
     2
  6
CONTINUOUS
 10
-0.448579
 20
0.647244
  0
SEQEND
  8
0
  0
POLYLINE
  8
PLAN_1
 62
     2
  6
CONTINUOUS
 66
     1
 40
0.003000
 41
0.003000
  0
VERTEX
  8
PLAN_1
 62
     2
  6
CONTINUOUS
 10
-0.413264
 20
0.619626
  0
VERTEX
  8
PLAN_1
 62
     2
  6
CONTINUOUS
 10
-0.422319
 20
0.619626
  0
VERTEX
  8
PLAN_1
 62
     2
  6
CONTINUOUS
 10
-0.422319
 20
0.673957
  0
VERTEX
  8
PLAN_1
 62
     2
  6
CONTINUOUS
 10
-0.413717
 20
0.673957
  0
VERTEX
  8
PLAN_1
 62
     2
  6
CONTINUOUS
 10
-0.413717
 20
0.664902
  0
VERTEX
  8
PLAN_1
 62
     2
  6
CONTINUOUS
 10
-0.412358
 20
0.667165
  0
VERTEX
  8
PLAN_1
 62
     2
  6
CONTINUOUS
 10
-0.410547
 20
0.668976
  0
VERTEX
  8
PLAN_1
 62
     2
  6
CONTINUOUS
 10
-0.409189
 20
0.670787
  0
VERTEX
  8
PLAN_1
 62
     2
  6
CONTINUOUS
 10
-0.407378
 20
0.672598
  0
VERTEX
  8
PLAN_1
 62
     2
  6
CONTINUOUS
 10
-0.405114
 20
0.673504
  0
VERTEX
  8
PLAN_1
 62
     2
  6
CONTINUOUS
 10
-0.403303
 20
0.674862
  0
VERTEX
  8
PLAN_1
 62
     2
  6
CONTINUOUS
 10
-0.401039
 20
0.675315
  0
VERTEX
  8
PLAN_1
 62
     2
  6
CONTINUOUS
 10
-0.398323
 20
0.675315
  0
VERTEX
  8
PLAN_1
 62
     2
  6
CONTINUOUS
 10
-0.397870
 20
0.675315
  0
VERTEX
  8
PLAN_1
 62
     2
  6
CONTINUOUS
 10
-0.397417
 20
0.675315
  0
VERTEX
  8
PLAN_1
 62
     2
  6
CONTINUOUS
 10
-0.396965
 20
0.675315
  0
VERTEX
  8
PLAN_1
 62
     2
  6
CONTINUOUS
 10
-0.396512
 20
0.675315
  0
VERTEX
  8
PLAN_1
 62
     2
  6
CONTINUOUS
 10
-0.396059
 20
0.675315
  0
VERTEX
  8
PLAN_1
 62
     2
  6
CONTINUOUS
 10
-0.396059
 20
0.665807
  0
VERTEX
  8
PLAN_1
 62
     2
  6
CONTINUOUS
 10
-0.399228
 20
0.665807
  0
VERTEX
  8
PLAN_1
 62
     2
  6
CONTINUOUS
 10
-0.402398
 20
0.665354
  0
VERTEX
  8
PLAN_1
 62
     2
  6
CONTINUOUS
 10
-0.405114
 20
0.664449
  0
VERTEX
  8
PLAN_1
 62
     2
  6
CONTINUOUS
 10
-0.407378
 20
0.663091
  0
VERTEX
  8
PLAN_1
 62
     2
  6
CONTINUOUS
 10
-0.409642
 20
0.661280
  0
VERTEX
  8
PLAN_1
 62
     2
  6
CONTINUOUS
 10
-0.411000
 20
0.659016
  0
VERTEX
  8
PLAN_1
 62
     2
  6
CONTINUOUS
 10
-0.412358
 20
0.656752
  0
VERTEX
  8
PLAN_1
 62
     2
  6
CONTINUOUS
 10
-0.413264
 20
0.654035
  0
VERTEX
  8
PLAN_1
 62
     2
  6
CONTINUOUS
 10
-0.413264
 20
0.650866
  0
VERTEX
  8
PLAN_1
 62
     2
  6
CONTINUOUS
 10
-0.413264
 20
0.619626
  0
SEQEND
  8
0
  0
POLYLINE
  8
PLAN_1
 62
     2
  6
CONTINUOUS
 66
     1
 40
0.003000
 41
0.003000
  0
VERTEX
  8
PLAN_1
 62
     2
  6
CONTINUOUS
 10
-0.390626
 20
0.657205
  0
VERTEX
  8
PLAN_1
 62
     2
  6
CONTINUOUS
 10
-0.389720
 20
0.661732
  0
VERTEX
  8
PLAN_1
 62
     2
  6
CONTINUOUS
 10
-0.388815
 20
0.665807
  0
VERTEX
  8
PLAN_1
 62
     2
  6
CONTINUOUS
 10
-0.387909
 20
0.667165
  0
VERTEX
  8
PLAN_1
 62
     2
  6
CONTINUOUS
 10
-0.386551
 20
0.668524
  0
VERTEX
  8
PLAN_1
 62
     2
  6
CONTINUOUS
 10
-0.385646
 20
0.669882
  0
VERTEX
  8
PLAN_1
 62
     2
  6
CONTINUOUS
 10
-0.384287
 20
0.671240
  0
VERTEX
  8
PLAN_1
 62
     2
  6
CONTINUOUS
 10
-0.380665
 20
0.673051
  0
VERTEX
  8
PLAN_1
 62
     2
  6
CONTINUOUS
 10
-0.377047
 20
0.674409
  0
VERTEX
  8
PLAN_1
 62
     2
  6
CONTINUOUS
 10
-0.372972
 20
0.675315
  0
VERTEX
  8
PLAN_1
 62
     2
  6
CONTINUOUS
 10
-0.367992
 20
0.675315
  0
VERTEX
  8
PLAN_1
 62
     2
  6
CONTINUOUS
 10
-0.365728
 20
0.675315
  0
VERTEX
  8
PLAN_1
 62
     2
  6
CONTINUOUS
 10
-0.363012
 20
0.674862
  0
VERTEX
  8
PLAN_1
 62
     2
  6
CONTINUOUS
 10
-0.359843
 20
0.674409
  0
VERTEX
  8
PLAN_1
 62
     2
  6
CONTINUOUS
 10
-0.356220
 20
0.673051
  0
VERTEX
  8
PLAN_1
 62
     2
  6
CONTINUOUS
 10
-0.354409
 20
0.672146
  0
VERTEX
  8
PLAN_1
 62
     2
  6
CONTINUOUS
 10
-0.353051
 20
0.671240
  0
VERTEX
  8
PLAN_1
 62
     2
  6
CONTINUOUS
 10
-0.351693
 20
0.669882
  0
VERTEX
  8
PLAN_1
 62
     2
  6
CONTINUOUS
 10
-0.350335
 20
0.668524
  0
VERTEX
  8
PLAN_1
 62
     2
  6
CONTINUOUS
 10
-0.349429
 20
0.666713
  0
VERTEX
  8
PLAN_1
 62
     2
  6
CONTINUOUS
 10
-0.348524
 20
0.664902
  0
VERTEX
  8
PLAN_1
 62
     2
  6
CONTINUOUS
 10
-0.348071
 20
0.662638
  0
VERTEX
  8
PLAN_1
 62
     2
  6
CONTINUOUS
 10
-0.347618
 20
0.660374
  0
VERTEX
  8
PLAN_1
 62
     2
  6
CONTINUOUS
 10
-0.347618
 20
0.628681
  0
VERTEX
  8
PLAN_1
 62
     2
  6
CONTINUOUS
 10
-0.347618
 20
0.628228
  0
VERTEX
  8
PLAN_1
 62
     2
  6
CONTINUOUS
 10
-0.347618
 20
0.627323
  0
VERTEX
  8
PLAN_1
 62
     2
  6
CONTINUOUS
 10
-0.347165
 20
0.626870
  0
VERTEX
  8
PLAN_1
 62
     2
  6
CONTINUOUS
 10
-0.347165
 20
0.626417
  0
VERTEX
  8
PLAN_1
 62
     2
  6
CONTINUOUS
 10
-0.346713
 20
0.625965
  0
VERTEX
  8
PLAN_1
 62
     2
  6
CONTINUOUS
 10
-0.345807
 20
0.625965
  0
VERTEX
  8
PLAN_1
 62
     2
  6
CONTINUOUS
 10
-0.345354
 20
0.625512
  0
VERTEX
  8
PLAN_1
 62
     2
  6
CONTINUOUS
 10
-0.344902
 20
0.625512
  0
VERTEX
  8
PLAN_1
 62
     2
  6
CONTINUOUS
 10
-0.344449
 20
0.625512
  0
VERTEX
  8
PLAN_1
 62
     2
  6
CONTINUOUS
 10
-0.343996
 20
0.625512
  0
VERTEX
  8
PLAN_1
 62
     2
  6
CONTINUOUS
 10
-0.343543
 20
0.625965
  0
VERTEX
  8
PLAN_1
 62
     2
  6
CONTINUOUS
 10
-0.343091
 20
0.625965
  0
VERTEX
  8
PLAN_1
 62
     2
  6
CONTINUOUS
 10
-0.342638
 20
0.625965
  0
VERTEX
  8
PLAN_1
 62
     2
  6
CONTINUOUS
 10
-0.342185
 20
0.625965
  0
VERTEX
  8
PLAN_1
 62
     2
  6
CONTINUOUS
 10
-0.341732
 20
0.625965
  0
VERTEX
  8
PLAN_1
 62
     2
  6
CONTINUOUS
 10
-0.341732
 20
0.619626
  0
VERTEX
  8
PLAN_1
 62
     2
  6
CONTINUOUS
 10
-0.342185
 20
0.619173
  0
VERTEX
  8
PLAN_1
 62
     2
  6
CONTINUOUS
 10
-0.343091
 20
0.619173
  0
VERTEX
  8
PLAN_1
 62
     2
  6
CONTINUOUS
 10
-0.343543
 20
0.618720
  0
VERTEX
  8
PLAN_1
 62
     2
  6
CONTINUOUS
 10
-0.343996
 20
0.618720
  0
VERTEX
  8
PLAN_1
 62
     2
  6
CONTINUOUS
 10
-0.344449
 20
0.618720
  0
VERTEX
  8
PLAN_1
 62
     2
  6
CONTINUOUS
 10
-0.345354
 20
0.618720
  0
VERTEX
  8
PLAN_1
 62
     2
  6
CONTINUOUS
 10
-0.345807
 20
0.618268
  0
VERTEX
  8
PLAN_1
 62
     2
  6
CONTINUOUS
 10
-0.346713
 20
0.618268
  0
VERTEX
  8
PLAN_1
 62
     2
  6
CONTINUOUS
 10
-0.349429
 20
0.618720
  0
VERTEX
  8
PLAN_1
 62
     2
  6
CONTINUOUS
 10
-0.351693
 20
0.619173
  0
VERTEX
  8
PLAN_1
 62
     2
  6
CONTINUOUS
 10
-0.353504
 20
0.620079
  0
VERTEX
  8
PLAN_1
 62
     2
  6
CONTINUOUS
 10
-0.354409
 20
0.620984
  0
VERTEX
  8
PLAN_1
 62
     2
  6
CONTINUOUS
 10
-0.355315
 20
0.622343
  0
VERTEX
  8
PLAN_1
 62
     2
  6
CONTINUOUS
 10
-0.355768
 20
0.623701
  0
VERTEX
  8
PLAN_1
 62
     2
  6
CONTINUOUS
 10
-0.356220
 20
0.625059
  0
VERTEX
  8
PLAN_1
 62
     2
  6
CONTINUOUS
 10
-0.356220
 20
0.626870
  0
VERTEX
  8
PLAN_1
 62
     2
  6
CONTINUOUS
 10
-0.358031
 20
0.625059
  0
VERTEX
  8
PLAN_1
 62
     2
  6
CONTINUOUS
 10
-0.359390
 20
0.623701
  0
VERTEX
  8
PLAN_1
 62
     2
  6
CONTINUOUS
 10
-0.361201
 20
0.622343
  0
VERTEX
  8
PLAN_1
 62
     2
  6
CONTINUOUS
 10
-0.363465
 20
0.620984
  0
VERTEX
  8
PLAN_1
 62
     2
  6
CONTINUOUS
 10
-0.366181
 20
0.619626
  0
VERTEX
  8
PLAN_1
 62
     2
  6
CONTINUOUS
 10
-0.368898
 20
0.618720
  0
VERTEX
  8
PLAN_1
 62
     2
  6
CONTINUOUS
 10
-0.372520
 20
0.618268
  0
VERTEX
  8
PLAN_1
 62
     2
  6
CONTINUOUS
 10
-0.376142
 20
0.617815
  0
VERTEX
  8
PLAN_1
 62
     2
  6
CONTINUOUS
 10
-0.379760
 20
0.618268
  0
VERTEX
  8
PLAN_1
 62
     2
  6
CONTINUOUS
 10
-0.382929
 20
0.619173
  0
VERTEX
  8
PLAN_1
 62
     2
  6
CONTINUOUS
 10
-0.385646
 20
0.620531
  0
VERTEX
  8
PLAN_1
 62
     2
  6
CONTINUOUS
 10
-0.388362
 20
0.622343
  0
VERTEX
  8
PLAN_1
 62
     2
  6
CONTINUOUS
 10
-0.390173
 20
0.624606
  0
VERTEX
  8
PLAN_1
 62
     2
  6
CONTINUOUS
 10
-0.391984
 20
0.627323
  0
VERTEX
  8
PLAN_1
 62
     2
  6
CONTINUOUS
 10
-0.392890
 20
0.630039
  0
VERTEX
  8
PLAN_1
 62
     2
  6
CONTINUOUS
 10
-0.393343
 20
0.633661
  0
VERTEX
  8
PLAN_1
 62
     2
  6
CONTINUOUS
 10
-0.392890
 20
0.635472
  0
VERTEX
  8
PLAN_1
 62
     2
  6
CONTINUOUS
 10
-0.392890
 20
0.637736
  0
VERTEX
  8
PLAN_1
 62
     2
  6
CONTINUOUS
 10
-0.391984
 20
0.640453
  0
VERTEX
  8
PLAN_1
 62
     2
  6
CONTINUOUS
 10
-0.390626
 20
0.643169
  0
VERTEX
  8
PLAN_1
 62
     2
  6
CONTINUOUS
 10
-0.388362
 20
0.645433
  0
VERTEX
  8
PLAN_1
 62
     2
  6
CONTINUOUS
 10
-0.385646
 20
0.647697
  0
VERTEX
  8
PLAN_1
 62
     2
  6
CONTINUOUS
 10
-0.383835
 20
0.648602
  0
VERTEX
  8
PLAN_1
 62
     2
  6
CONTINUOUS
 10
-0.381571
 20
0.649508
  0
VERTEX
  8
PLAN_1
 62
     2
  6
CONTINUOUS
 10
-0.379307
 20
0.650413
  0
VERTEX
  8
PLAN_1
 62
     2
  6
CONTINUOUS
 10
-0.376594
 20
0.650866
  0
VERTEX
  8
PLAN_1
 62
     2
  6
CONTINUOUS
 10
-0.361654
 20
0.652677
  0
VERTEX
  8
PLAN_1
 62
     2
  6
CONTINUOUS
 10
-0.360748
 20
0.652677
  0
VERTEX
  8
PLAN_1
 62
     2
  6
CONTINUOUS
 10
-0.359843
 20
0.652677
  0
VERTEX
  8
PLAN_1
 62
     2
  6
CONTINUOUS
 10
-0.358937
 20
0.653130
  0
VERTEX
  8
PLAN_1
 62
     2
  6
CONTINUOUS
 10
-0.358484
 20
0.653583
  0
VERTEX
  8
PLAN_1
 62
     2
  6
CONTINUOUS
 10
-0.357579
 20
0.654488
  0
VERTEX
  8
PLAN_1
 62
     2
  6
CONTINUOUS
 10
-0.357126
 20
0.655846
  0
VERTEX
  8
PLAN_1
 62
     2
  6
CONTINUOUS
 10
-0.356673
 20
0.657205
  0
VERTEX
  8
PLAN_1
 62
     2
  6
CONTINUOUS
 10
-0.356673
 20
0.659016
  0
VERTEX
  8
PLAN_1
 62
     2
  6
CONTINUOUS
 10
-0.357126
 20
0.660827
  0
VERTEX
  8
PLAN_1
 62
     2
  6
CONTINUOUS
 10
-0.357579
 20
0.662638
  0
VERTEX
  8
PLAN_1
 62
     2
  6
CONTINUOUS
 10
-0.358484
 20
0.664449
  0
VERTEX
  8
PLAN_1
 62
     2
  6
CONTINUOUS
 10
-0.359843
 20
0.665354
  0
VERTEX
  8
PLAN_1
 62
     2
  6
CONTINUOUS
 10
-0.361654
 20
0.666713
  0
VERTEX
  8
PLAN_1
 62
     2
  6
CONTINUOUS
 10
-0.363917
 20
0.667165
  0
VERTEX
  8
PLAN_1
 62
     2
  6
CONTINUOUS
 10
-0.366634
 20
0.667618
  0
VERTEX
  8
PLAN_1
 62
     2
  6
CONTINUOUS
 10
-0.369350
 20
0.667618
  0
VERTEX
  8
PLAN_1
 62
     2
  6
CONTINUOUS
 10
-0.372972
 20
0.667618
  0
VERTEX
  8
PLAN_1
 62
     2
  6
CONTINUOUS
 10
-0.375689
 20
0.666713
  0
VERTEX
  8
PLAN_1
 62
     2
  6
CONTINUOUS
 10
-0.377953
 20
0.665807
  0
VERTEX
  8
PLAN_1
 62
     2
  6
CONTINUOUS
 10
-0.379307
 20
0.663996
  0
VERTEX
  8
PLAN_1
 62
     2
  6
CONTINUOUS
 10
-0.380665
 20
0.662638
  0
VERTEX
  8
PLAN_1
 62
     2
  6
CONTINUOUS
 10
-0.381118
 20
0.660827
  0
VERTEX
  8
PLAN_1
 62
     2
  6
CONTINUOUS
 10
-0.381571
 20
0.659016
  0
VERTEX
  8
PLAN_1
 62
     2
  6
CONTINUOUS
 10
-0.382024
 20
0.657205
  0
VERTEX
  8
PLAN_1
 62
     2
  6
CONTINUOUS
 10
-0.390626
 20
0.657205
  0
SEQEND
  8
0
  0
POLYLINE
  8
PLAN_1
 62
     2
  6
CONTINUOUS
 66
     1
 40
0.003000
 41
0.003000
  0
VERTEX
  8
PLAN_1
 62
     2
  6
CONTINUOUS
 10
-0.357126
 20
0.647244
  0
VERTEX
  8
PLAN_1
 62
     2
  6
CONTINUOUS
 10
-0.357579
 20
0.646791
  0
VERTEX
  8
PLAN_1
 62
     2
  6
CONTINUOUS
 10
-0.358484
 20
0.646339
  0
VERTEX
  8
PLAN_1
 62
     2
  6
CONTINUOUS
 10
-0.359390
 20
0.645886
  0
VERTEX
  8
PLAN_1
 62
     2
  6
CONTINUOUS
 10
-0.360748
 20
0.645433
  0
VERTEX
  8
PLAN_1
 62
     2
  6
CONTINUOUS
 10
-0.362559
 20
0.644980
  0
VERTEX
  8
PLAN_1
 62
     2
  6
CONTINUOUS
 10
-0.365276
 20
0.644980
  0
VERTEX
  8
PLAN_1
 62
     2
  6
CONTINUOUS
 10
-0.367992
 20
0.644075
  0
VERTEX
  8
PLAN_1
 62
     2
  6
CONTINUOUS
 10
-0.372067
 20
0.643622
  0
VERTEX
  8
PLAN_1
 62
     2
  6
CONTINUOUS
 10
-0.373878
 20
0.643622
  0
VERTEX
  8
PLAN_1
 62
     2
  6
CONTINUOUS
 10
-0.375689
 20
0.643169
  0
VERTEX
  8
PLAN_1
 62
     2
  6
CONTINUOUS
 10
-0.377500
 20
0.642717
  0
VERTEX
  8
PLAN_1
 62
     2
  6
CONTINUOUS
 10
-0.379307
 20
0.641811
  0
VERTEX
  8
PLAN_1
 62
     2
  6
CONTINUOUS
 10
-0.381118
 20
0.640453
  0
VERTEX
  8
PLAN_1
 62
     2
  6
CONTINUOUS
 10
-0.382476
 20
0.639094
  0
VERTEX
  8
PLAN_1
 62
     2
  6
CONTINUOUS
 10
-0.383382
 20
0.637283
  0
VERTEX
  8
PLAN_1
 62
     2
  6
CONTINUOUS
 10
-0.383835
 20
0.635020
  0
VERTEX
  8
PLAN_1
 62
     2
  6
CONTINUOUS
 10
-0.383382
 20
0.632756
  0
VERTEX
  8
PLAN_1
 62
     2
  6
CONTINUOUS
 10
-0.382929
 20
0.630945
  0
VERTEX
  8
PLAN_1
 62
     2
  6
CONTINUOUS
 10
-0.382476
 20
0.629134
  0
VERTEX
  8
PLAN_1
 62
     2
  6
CONTINUOUS
 10
-0.381118
 20
0.627776
  0
VERTEX
  8
PLAN_1
 62
     2
  6
CONTINUOUS
 10
-0.379760
 20
0.626870
  0
VERTEX
  8
PLAN_1
 62
     2
  6
CONTINUOUS
 10
-0.378406
 20
0.625965
  0
VERTEX
  8
PLAN_1
 62
     2
  6
CONTINUOUS
 10
-0.376142
 20
0.625512
  0
VERTEX
  8
PLAN_1
 62
     2
  6
CONTINUOUS
 10
-0.373878
 20
0.625512
  0
VERTEX
  8
PLAN_1
 62
     2
  6
CONTINUOUS
 10
-0.370709
 20
0.625512
  0
VERTEX
  8
PLAN_1
 62
     2
  6
CONTINUOUS
 10
-0.367539
 20
0.626417
  0
VERTEX
  8
PLAN_1
 62
     2
  6
CONTINUOUS
 10
-0.364823
 20
0.627776
  0
VERTEX
  8
PLAN_1
 62
     2
  6
CONTINUOUS
 10
-0.362106
 20
0.629134
  0
VERTEX
  8
PLAN_1
 62
     2
  6
CONTINUOUS
 10
-0.359843
 20
0.630945
  0
VERTEX
  8
PLAN_1
 62
     2
  6
CONTINUOUS
 10
-0.358484
 20
0.633209
  0
VERTEX
  8
PLAN_1
 62
     2
  6
CONTINUOUS
 10
-0.357126
 20
0.635472
  0
VERTEX
  8
PLAN_1
 62
     2
  6
CONTINUOUS
 10
-0.357126
 20
0.638189
  0
VERTEX
  8
PLAN_1
 62
     2
  6
CONTINUOUS
 10
-0.357126
 20
0.647244
  0
SEQEND
  8
0
  0
POLYLINE
  8
PLAN_1
 62
     2
  6
CONTINUOUS
 66
     1
 40
0.003000
 41
0.003000
  0
VERTEX
  8
PLAN_1
 62
     2
  6
CONTINUOUS
 10
-0.296909
 20
0.619626
  0
VERTEX
  8
PLAN_1
 62
     2
  6
CONTINUOUS
 10
-0.296909
 20
0.627323
  0
VERTEX
  8
PLAN_1
 62
     2
  6
CONTINUOUS
 10
-0.296909
 20
0.627776
  0
VERTEX
  8
PLAN_1
 62
     2
  6
CONTINUOUS
 10
-0.298268
 20
0.625512
  0
VERTEX
  8
PLAN_1
 62
     2
  6
CONTINUOUS
 10
-0.300079
 20
0.623248
  0
VERTEX
  8
PLAN_1
 62
     2
  6
CONTINUOUS
 10
-0.301890
 20
0.621890
  0
VERTEX
  8
PLAN_1
 62
     2
  6
CONTINUOUS
 10
-0.303701
 20
0.620531
  0
VERTEX
  8
PLAN_1
 62
     2
  6
CONTINUOUS
 10
-0.305965
 20
0.619173
  0
VERTEX
  8
PLAN_1
 62
     2
  6
CONTINUOUS
 10
-0.308228
 20
0.618720
  0
VERTEX
  8
PLAN_1
 62
     2
  6
CONTINUOUS
 10
-0.310945
 20
0.617815
  0
VERTEX
  8
PLAN_1
 62
     2
  6
CONTINUOUS
 10
-0.314114
 20
0.617815
  0
VERTEX
  8
PLAN_1
 62
     2
  6
CONTINUOUS
 10
-0.317283
 20
0.618268
  0
VERTEX
  8
PLAN_1
 62
     2
  6
CONTINUOUS
 10
-0.320453
 20
0.618720
  0
VERTEX
  8
PLAN_1
 62
     2
  6
CONTINUOUS
 10
-0.323169
 20
0.619626
  0
VERTEX
  8
PLAN_1
 62
     2
  6
CONTINUOUS
 10
-0.325886
 20
0.621437
  0
VERTEX
  8
PLAN_1
 62
     2
  6
CONTINUOUS
 10
-0.328602
 20
0.623701
  0
VERTEX
  8
PLAN_1
 62
     2
  6
CONTINUOUS
 10
-0.330413
 20
0.626417
  0
VERTEX
  8
PLAN_1
 62
     2
  6
CONTINUOUS
 10
-0.330866
 20
0.628228
  0
VERTEX
  8
PLAN_1
 62
     2
  6
CONTINUOUS
 10
-0.331319
 20
0.630492
  0
VERTEX
  8
PLAN_1
 62
     2
  6
CONTINUOUS
 10
-0.331772
 20
0.632303
  0
VERTEX
  8
PLAN_1
 62
     2
  6
CONTINUOUS
 10
-0.331772
 20
0.634567
  0
VERTEX
  8
PLAN_1
 62
     2
  6
CONTINUOUS
 10
-0.331772
 20
0.673957
  0
VERTEX
  8
PLAN_1
 62
     2
  6
CONTINUOUS
 10
-0.322717
 20
0.673957
  0
VERTEX
  8
PLAN_1
 62
     2
  6
CONTINUOUS
 10
-0.322717
 20
0.637736
  0
VERTEX
  8
PLAN_1
 62
     2
  6
CONTINUOUS
 10
-0.322717
 20
0.634567
  0
VERTEX
  8
PLAN_1
 62
     2
  6
CONTINUOUS
 10
-0.321811
 20
0.632303
  0
VERTEX
  8
PLAN_1
 62
     2
  6
CONTINUOUS
 10
-0.320906
 20
0.630039
  0
VERTEX
  8
PLAN_1
 62
     2
  6
CONTINUOUS
 10
-0.319547
 20
0.628228
  0
VERTEX
  8
PLAN_1
 62
     2
  6
CONTINUOUS
 10
-0.318189
 20
0.627323
  0
VERTEX
  8
PLAN_1
 62
     2
  6
CONTINUOUS
 10
-0.316378
 20
0.626417
  0
VERTEX
  8
PLAN_1
 62
     2
  6
CONTINUOUS
 10
-0.314567
 20
0.625965
  0
VERTEX
  8
PLAN_1
 62
     2
  6
CONTINUOUS
 10
-0.312303
 20
0.625965
  0
VERTEX
  8
PLAN_1
 62
     2
  6
CONTINUOUS
 10
-0.310039
 20
0.625965
  0
VERTEX
  8
PLAN_1
 62
     2
  6
CONTINUOUS
 10
-0.308228
 20
0.626417
  0
VERTEX
  8
PLAN_1
 62
     2
  6
CONTINUOUS
 10
-0.306417
 20
0.626870
  0
VERTEX
  8
PLAN_1
 62
     2
  6
CONTINUOUS
 10
-0.305059
 20
0.627323
  0
VERTEX
  8
PLAN_1
 62
     2
  6
CONTINUOUS
 10
-0.302343
 20
0.629587
  0
VERTEX
  8
PLAN_1
 62
     2
  6
CONTINUOUS
 10
-0.300531
 20
0.631850
  0
VERTEX
  8
PLAN_1
 62
     2
  6
CONTINUOUS
 10
-0.299173
 20
0.634567
  0
VERTEX
  8
PLAN_1
 62
     2
  6
CONTINUOUS
 10
-0.297815
 20
0.637736
  0
VERTEX
  8
PLAN_1
 62
     2
  6
CONTINUOUS
 10
-0.297362
 20
0.640906
  0
VERTEX
  8
PLAN_1
 62
     2
  6
CONTINUOUS
 10
-0.297362
 20
0.644075
  0
VERTEX
  8
PLAN_1
 62
     2
  6
CONTINUOUS
 10
-0.297362
 20
0.673957
  0
VERTEX
  8
PLAN_1
 62
     2
  6
CONTINUOUS
 10
-0.288307
 20
0.673957
  0
VERTEX
  8
PLAN_1
 62
     2
  6
CONTINUOUS
 10
-0.288307
 20
0.619626
  0
VERTEX
  8
PLAN_1
 62
     2
  6
CONTINUOUS
 10
-0.296909
 20
0.619626
  0
SEQEND
  8
0
  0
POLYLINE
  8
PLAN_1
 62
     2
  6
CONTINUOUS
 66
     1
 40
0.003000
 41
0.003000
  0
VERTEX
  8
PLAN_1
 62
     2
  6
CONTINUOUS
 10
-0.228996
 20
0.619626
  0
VERTEX
  8
PLAN_1
 62
     2
  6
CONTINUOUS
 10
-0.237598
 20
0.619626
  0
VERTEX
  8
PLAN_1
 62
     2
  6
CONTINUOUS
 10
-0.237598
 20
0.626870
  0
VERTEX
  8
PLAN_1
 62
     2
  6
CONTINUOUS
 10
-0.238051
 20
0.626870
  0
VERTEX
  8
PLAN_1
 62
     2
  6
CONTINUOUS
 10
-0.239409
 20
0.624606
  0
VERTEX
  8
PLAN_1
 62
     2
  6
CONTINUOUS
 10
-0.241220
 20
0.622343
  0
VERTEX
  8
PLAN_1
 62
     2
  6
CONTINUOUS
 10
-0.243484
 20
0.620984
  0
VERTEX
  8
PLAN_1
 62
     2
  6
CONTINUOUS
 10
-0.245295
 20
0.619626
  0
VERTEX
  8
PLAN_1
 62
     2
  6
CONTINUOUS
 10
-0.247106
 20
0.618720
  0
VERTEX
  8
PLAN_1
 62
     2
  6
CONTINUOUS
 10
-0.249370
 20
0.618268
  0
VERTEX
  8
PLAN_1
 62
     2
  6
CONTINUOUS
 10
-0.251634
 20
0.617815
  0
VERTEX
  8
PLAN_1
 62
     2
  6
CONTINUOUS
 10
-0.253445
 20
0.617815
  0
VERTEX
  8
PLAN_1
 62
     2
  6
CONTINUOUS
 10
-0.257067
 20
0.618268
  0
VERTEX
  8
PLAN_1
 62
     2
  6
CONTINUOUS
 10
-0.259783
 20
0.618720
  0
VERTEX
  8
PLAN_1
 62
     2
  6
CONTINUOUS
 10
-0.262500
 20
0.619626
  0
VERTEX
  8
PLAN_1
 62
     2
  6
CONTINUOUS
 10
-0.265217
 20
0.620984
  0
VERTEX
  8
PLAN_1
 62
     2
  6
CONTINUOUS
 10
-0.267480
 20
0.622343
  0
VERTEX
  8
PLAN_1
 62
     2
  6
CONTINUOUS
 10
-0.269291
 20
0.624154
  0
VERTEX
  8
PLAN_1
 62
     2
  6
CONTINUOUS
 10
-0.271102
 20
0.625965
  0
VERTEX
  8
PLAN_1
 62
     2
  6
CONTINUOUS
 10
-0.272461
 20
0.628228
  0
VERTEX
  8
PLAN_1
 62
     2
  6
CONTINUOUS
 10
-0.274724
 20
0.632756
  0
VERTEX
  8
PLAN_1
 62
     2
  6
CONTINUOUS
 10
-0.276535
 20
0.638189
  0
VERTEX
  8
PLAN_1
 62
     2
  6
CONTINUOUS
 10
-0.276988
 20
0.643169
  0
VERTEX
  8
PLAN_1
 62
     2
  6
CONTINUOUS
 10
-0.277441
 20
0.648150
  0
VERTEX
  8
PLAN_1
 62
     2
  6
CONTINUOUS
 10
-0.276988
 20
0.654035
  0
VERTEX
  8
PLAN_1
 62
     2
  6
CONTINUOUS
 10
-0.276083
 20
0.659016
  0
VERTEX
  8
PLAN_1
 62
     2
  6
CONTINUOUS
 10
-0.275177
 20
0.661280
  0
VERTEX
  8
PLAN_1
 62
     2
  6
CONTINUOUS
 10
-0.274272
 20
0.663543
  0
VERTEX
  8
PLAN_1
 62
     2
  6
CONTINUOUS
 10
-0.272913
 20
0.665807
  0
VERTEX
  8
PLAN_1
 62
     2
  6
CONTINUOUS
 10
-0.271555
 20
0.667618
  0
VERTEX
  8
PLAN_1
 62
     2
  6
CONTINUOUS
 10
-0.270197
 20
0.669429
  0
VERTEX
  8
PLAN_1
 62
     2
  6
CONTINUOUS
 10
-0.268386
 20
0.670787
  0
VERTEX
  8
PLAN_1
 62
     2
  6
CONTINUOUS
 10
-0.266575
 20
0.672146
  0
VERTEX
  8
PLAN_1
 62
     2
  6
CONTINUOUS
 10
-0.264311
 20
0.673504
  0
VERTEX
  8
PLAN_1
 62
     2
  6
CONTINUOUS
 10
-0.262047
 20
0.674409
  0
VERTEX
  8
PLAN_1
 62
     2
  6
CONTINUOUS
 10
-0.259783
 20
0.674862
  0
VERTEX
  8
PLAN_1
 62
     2
  6
CONTINUOUS
 10
-0.257520
 20
0.675315
  0
VERTEX
  8
PLAN_1
 62
     2
  6
CONTINUOUS
 10
-0.254803
 20
0.675315
  0
VERTEX
  8
PLAN_1
 62
     2
  6
CONTINUOUS
 10
-0.251181
 20
0.675315
  0
VERTEX
  8
PLAN_1
 62
     2
  6
CONTINUOUS
 10
-0.248465
 20
0.674409
  0
VERTEX
  8
PLAN_1
 62
     2
  6
CONTINUOUS
 10
-0.245748
 20
0.673504
  0
VERTEX
  8
PLAN_1
 62
     2
  6
CONTINUOUS
 10
-0.243937
 20
0.672146
  0
VERTEX
  8
PLAN_1
 62
     2
  6
CONTINUOUS
 10
-0.242126
 20
0.670335
  0
VERTEX
  8
PLAN_1
 62
     2
  6
CONTINUOUS
 10
-0.240768
 20
0.668976
  0
VERTEX
  8
PLAN_1
 62
     2
  6
CONTINUOUS
 10
-0.239409
 20
0.667618
  0
VERTEX
  8
PLAN_1
 62
     2
  6
CONTINUOUS
 10
-0.238504
 20
0.666260
  0
VERTEX
  8
PLAN_1
 62
     2
  6
CONTINUOUS
 10
-0.238504
 20
0.666713
  0
VERTEX
  8
PLAN_1
 62
     2
  6
CONTINUOUS
 10
-0.238504
 20
0.694331
  0
VERTEX
  8
PLAN_1
 62
     2
  6
CONTINUOUS
 10
-0.228996
 20
0.694331
  0
VERTEX
  8
PLAN_1
 62
     2
  6
CONTINUOUS
 10
-0.228996
 20
0.619626
  0
SEQEND
  8
0
  0
POLYLINE
  8
PLAN_1
 62
     2
  6
CONTINUOUS
 66
     1
 40
0.003000
 41
0.003000
  0
VERTEX
  8
PLAN_1
 62
     2
  6
CONTINUOUS
 10
-0.253445
 20
0.625965
  0
VERTEX
  8
PLAN_1
 62
     2
  6
CONTINUOUS
 10
-0.251181
 20
0.625965
  0
VERTEX
  8
PLAN_1
 62
     2
  6
CONTINUOUS
 10
-0.248465
 20
0.626417
  0
VERTEX
  8
PLAN_1
 62
     2
  6
CONTINUOUS
 10
-0.246201
 20
0.627776
  0
VERTEX
  8
PLAN_1
 62
     2
  6
CONTINUOUS
 10
-0.243484
 20
0.629587
  0
VERTEX
  8
PLAN_1
 62
     2
  6
CONTINUOUS
 10
-0.241673
 20
0.631850
  0
VERTEX
  8
PLAN_1
 62
     2
  6
CONTINUOUS
 10
-0.239862
 20
0.635020
  0
VERTEX
  8
PLAN_1
 62
     2
  6
CONTINUOUS
 10
-0.238957
 20
0.639094
  0
VERTEX
  8
PLAN_1
 62
     2
  6
CONTINUOUS
 10
-0.238504
 20
0.644075
  0
VERTEX
  8
PLAN_1
 62
     2
  6
CONTINUOUS
 10
-0.238504
 20
0.647697
  0
VERTEX
  8
PLAN_1
 62
     2
  6
CONTINUOUS
 10
-0.238957
 20
0.651319
  0
VERTEX
  8
PLAN_1
 62
     2
  6
CONTINUOUS
 10
-0.239409
 20
0.655394
  0
VERTEX
  8
PLAN_1
 62
     2
  6
CONTINUOUS
 10
-0.240768
 20
0.659016
  0
VERTEX
  8
PLAN_1
 62
     2
  6
CONTINUOUS
 10
-0.241673
 20
0.660827
  0
VERTEX
  8
PLAN_1
 62
     2
  6
CONTINUOUS
 10
-0.242579
 20
0.662185
  0
VERTEX
  8
PLAN_1
 62
     2
  6
CONTINUOUS
 10
-0.243937
 20
0.663543
  0
VERTEX
  8
PLAN_1
 62
     2
  6
CONTINUOUS
 10
-0.245295
 20
0.664902
  0
VERTEX
  8
PLAN_1
 62
     2
  6
CONTINUOUS
 10
-0.246654
 20
0.665807
  0
VERTEX
  8
PLAN_1
 62
     2
  6
CONTINUOUS
 10
-0.248465
 20
0.666713
  0
VERTEX
  8
PLAN_1
 62
     2
  6
CONTINUOUS
 10
-0.250728
 20
0.667165
  0
VERTEX
  8
PLAN_1
 62
     2
  6
CONTINUOUS
 10
-0.252992
 20
0.667165
  0
VERTEX
  8
PLAN_1
 62
     2
  6
CONTINUOUS
 10
-0.255709
 20
0.667165
  0
VERTEX
  8
PLAN_1
 62
     2
  6
CONTINUOUS
 10
-0.257972
 20
0.666713
  0
VERTEX
  8
PLAN_1
 62
     2
  6
CONTINUOUS
 10
-0.259783
 20
0.665807
  0
VERTEX
  8
PLAN_1
 62
     2
  6
CONTINUOUS
 10
-0.261594
 20
0.664902
  0
VERTEX
  8
PLAN_1
 62
     2
  6
CONTINUOUS
 10
-0.262953
 20
0.663996
  0
VERTEX
  8
PLAN_1
 62
     2
  6
CONTINUOUS
 10
-0.263858
 20
0.662638
  0
VERTEX
  8
PLAN_1
 62
     2
  6
CONTINUOUS
 10
-0.265217
 20
0.661280
  0
VERTEX
  8
PLAN_1
 62
     2
  6
CONTINUOUS
 10
-0.265669
 20
0.659469
  0
VERTEX
  8
PLAN_1
 62
     2
  6
CONTINUOUS
 10
-0.267028
 20
0.656299
  0
VERTEX
  8
PLAN_1
 62
     2
  6
CONTINUOUS
 10
-0.267480
 20
0.653130
  0
VERTEX
  8
PLAN_1
 62
     2
  6
CONTINUOUS
 10
-0.267933
 20
0.649508
  0
VERTEX
  8
PLAN_1
 62
     2
  6
CONTINUOUS
 10
-0.267933
 20
0.646791
  0
VERTEX
  8
PLAN_1
 62
     2
  6
CONTINUOUS
 10
-0.267933
 20
0.642264
  0
VERTEX
  8
PLAN_1
 62
     2
  6
CONTINUOUS
 10
-0.267028
 20
0.638642
  0
VERTEX
  8
PLAN_1
 62
     2
  6
CONTINUOUS
 10
-0.266122
 20
0.635020
  0
VERTEX
  8
PLAN_1
 62
     2
  6
CONTINUOUS
 10
-0.264311
 20
0.631850
  0
VERTEX
  8
PLAN_1
 62
     2
  6
CONTINUOUS
 10
-0.262500
 20
0.629134
  0
VERTEX
  8
PLAN_1
 62
     2
  6
CONTINUOUS
 10
-0.259783
 20
0.627323
  0
VERTEX
  8
PLAN_1
 62
     2
  6
CONTINUOUS
 10
-0.256614
 20
0.626417
  0
VERTEX
  8
PLAN_1
 62
     2
  6
CONTINUOUS
 10
-0.253445
 20
0.625965
  0
SEQEND
  8
0
  0
POLYLINE
  8
PLAN_1
 62
     2
  6
CONTINUOUS
 66
     1
 40
0.003000
 41
0.003000
  0
VERTEX
  8
PLAN_1
 62
     2
  6
CONTINUOUS
 10
-0.170138
 20
0.636378
  0
VERTEX
  8
PLAN_1
 62
     2
  6
CONTINUOUS
 10
-0.170591
 20
0.635472
  0
VERTEX
  8
PLAN_1
 62
     2
  6
CONTINUOUS
 10
-0.171043
 20
0.633661
  0
VERTEX
  8
PLAN_1
 62
     2
  6
CONTINUOUS
 10
-0.171496
 20
0.631850
  0
VERTEX
  8
PLAN_1
 62
     2
  6
CONTINUOUS
 10
-0.172402
 20
0.629587
  0
VERTEX
  8
PLAN_1
 62
     2
  6
CONTINUOUS
 10
-0.173760
 20
0.627776
  0
VERTEX
  8
PLAN_1
 62
     2
  6
CONTINUOUS
 10
-0.175571
 20
0.625512
  0
VERTEX
  8
PLAN_1
 62
     2
  6
CONTINUOUS
 10
-0.177382
 20
0.623248
  0
VERTEX
  8
PLAN_1
 62
     2
  6
CONTINUOUS
 10
-0.180098
 20
0.621437
  0
VERTEX
  8
PLAN_1
 62
     2
  6
CONTINUOUS
 10
-0.181004
 20
0.620984
  0
VERTEX
  8
PLAN_1
 62
     2
  6
CONTINUOUS
 10
-0.181909
 20
0.620531
  0
VERTEX
  8
PLAN_1
 62
     2
  6
CONTINUOUS
 10
-0.183268
 20
0.619626
  0
VERTEX
  8
PLAN_1
 62
     2
  6
CONTINUOUS
 10
-0.185079
 20
0.619173
  0
VERTEX
  8
PLAN_1
 62
     2
  6
CONTINUOUS
 10
-0.186890
 20
0.618720
  0
VERTEX
  8
PLAN_1
 62
     2
  6
CONTINUOUS
 10
-0.189154
 20
0.618268
  0
VERTEX
  8
PLAN_1
 62
     2
  6
CONTINUOUS
 10
-0.191870
 20
0.617815
  0
VERTEX
  8
PLAN_1
 62
     2
  6
CONTINUOUS
 10
-0.194587
 20
0.617815
  0
VERTEX
  8
PLAN_1
 62
     2
  6
CONTINUOUS
 10
-0.197303
 20
0.617815
  0
VERTEX
  8
PLAN_1
 62
     2
  6
CONTINUOUS
 10
-0.200020
 20
0.618268
  0
VERTEX
  8
PLAN_1
 62
     2
  6
CONTINUOUS
 10
-0.202736
 20
0.619173
  0
VERTEX
  8
PLAN_1
 62
     2
  6
CONTINUOUS
 10
-0.205000
 20
0.620079
  0
VERTEX
  8
PLAN_1
 62
     2
  6
CONTINUOUS
 10
-0.207264
 20
0.620984
  0
VERTEX
  8
PLAN_1
 62
     2
  6
CONTINUOUS
 10
-0.209075
 20
0.622343
  0
VERTEX
  8
PLAN_1
 62
     2
  6
CONTINUOUS
 10
-0.210886
 20
0.623701
  0
VERTEX
  8
PLAN_1
 62
     2
  6
CONTINUOUS
 10
-0.212697
 20
0.625512
  0
VERTEX
  8
PLAN_1
 62
     2
  6
CONTINUOUS
 10
-0.214055
 20
0.627323
  0
VERTEX
  8
PLAN_1
 62
     2
  6
CONTINUOUS
 10
-0.215413
 20
0.629587
  0
VERTEX
  8
PLAN_1
 62
     2
  6
CONTINUOUS
 10
-0.216319
 20
0.631850
  0
VERTEX
  8
PLAN_1
 62
     2
  6
CONTINUOUS
 10
-0.217224
 20
0.634114
  0
VERTEX
  8
PLAN_1
 62
     2
  6
CONTINUOUS
 10
-0.218583
 20
0.639547
  0
VERTEX
  8
PLAN_1
 62
     2
  6
CONTINUOUS
 10
-0.219035
 20
0.644980
  0
VERTEX
  8
PLAN_1
 62
     2
  6
CONTINUOUS
 10
-0.218583
 20
0.651319
  0
VERTEX
  8
PLAN_1
 62
     2
  6
CONTINUOUS
 10
-0.217677
 20
0.656752
  0
VERTEX
  8
PLAN_1
 62
     2
  6
CONTINUOUS
 10
-0.216772
 20
0.659469
  0
VERTEX
  8
PLAN_1
 62
     2
  6
CONTINUOUS
 10
-0.215413
 20
0.662185
  0
VERTEX
  8
PLAN_1
 62
     2
  6
CONTINUOUS
 10
-0.214055
 20
0.664449
  0
VERTEX
  8
PLAN_1
 62
     2
  6
CONTINUOUS
 10
-0.212697
 20
0.666713
  0
VERTEX
  8
PLAN_1
 62
     2
  6
CONTINUOUS
 10
-0.210886
 20
0.668524
  0
VERTEX
  8
PLAN_1
 62
     2
  6
CONTINUOUS
 10
-0.209075
 20
0.670335
  0
VERTEX
  8
PLAN_1
 62
     2
  6
CONTINUOUS
 10
-0.206811
 20
0.671693
  0
VERTEX
  8
PLAN_1
 62
     2
  6
CONTINUOUS
 10
-0.204547
 20
0.673051
  0
VERTEX
  8
PLAN_1
 62
     2
  6
CONTINUOUS
 10
-0.201831
 20
0.673957
  0
VERTEX
  8
PLAN_1
 62
     2
  6
CONTINUOUS
 10
-0.199114
 20
0.674862
  0
VERTEX
  8
PLAN_1
 62
     2
  6
CONTINUOUS
 10
-0.196398
 20
0.675315
  0
VERTEX
  8
PLAN_1
 62
     2
  6
CONTINUOUS
 10
-0.192776
 20
0.675315
  0
VERTEX
  8
PLAN_1
 62
     2
  6
CONTINUOUS
 10
-0.190059
 20
0.675315
  0
VERTEX
  8
PLAN_1
 62
     2
  6
CONTINUOUS
 10
-0.187343
 20
0.674862
  0
VERTEX
  8
PLAN_1
 62
     2
  6
CONTINUOUS
 10
-0.185079
 20
0.673957
  0
VERTEX
  8
PLAN_1
 62
     2
  6
CONTINUOUS
 10
-0.182815
 20
0.673051
  0
VERTEX
  8
PLAN_1
 62
     2
  6
CONTINUOUS
 10
-0.180551
 20
0.672146
  0
VERTEX
  8
PLAN_1
 62
     2
  6
CONTINUOUS
 10
-0.178740
 20
0.670335
  0
VERTEX
  8
PLAN_1
 62
     2
  6
CONTINUOUS
 10
-0.176929
 20
0.668524
  0
VERTEX
  8
PLAN_1
 62
     2
  6
CONTINUOUS
 10
-0.175118
 20
0.666713
  0
VERTEX
  8
PLAN_1
 62
     2
  6
CONTINUOUS
 10
-0.173760
 20
0.664449
  0
VERTEX
  8
PLAN_1
 62
     2
  6
CONTINUOUS
 10
-0.172854
 20
0.662185
  0
VERTEX
  8
PLAN_1
 62
     2
  6
CONTINUOUS
 10
-0.171949
 20
0.659469
  0
VERTEX
  8
PLAN_1
 62
     2
  6
CONTINUOUS
 10
-0.171043
 20
0.656752
  0
VERTEX
  8
PLAN_1
 62
     2
  6
CONTINUOUS
 10
-0.169685
 20
0.650413
  0
VERTEX
  8
PLAN_1
 62
     2
  6
CONTINUOUS
 10
-0.169685
 20
0.643622
  0
VERTEX
  8
PLAN_1
 62
     2
  6
CONTINUOUS
 10
-0.209075
 20
0.643622
  0
VERTEX
  8
PLAN_1
 62
     2
  6
CONTINUOUS
 10
-0.209075
 20
0.639547
  0
VERTEX
  8
PLAN_1
 62
     2
  6
CONTINUOUS
 10
-0.208169
 20
0.635925
  0
VERTEX
  8
PLAN_1
 62
     2
  6
CONTINUOUS
 10
-0.206811
 20
0.633209
  0
VERTEX
  8
PLAN_1
 62
     2
  6
CONTINUOUS
 10
-0.205453
 20
0.630492
  0
VERTEX
  8
PLAN_1
 62
     2
  6
CONTINUOUS
 10
-0.203189
 20
0.628681
  0
VERTEX
  8
PLAN_1
 62
     2
  6
CONTINUOUS
 10
-0.200472
 20
0.626870
  0
VERTEX
  8
PLAN_1
 62
     2
  6
CONTINUOUS
 10
-0.197303
 20
0.625965
  0
VERTEX
  8
PLAN_1
 62
     2
  6
CONTINUOUS
 10
-0.193228
 20
0.625965
  0
VERTEX
  8
PLAN_1
 62
     2
  6
CONTINUOUS
 10
-0.190512
 20
0.625965
  0
VERTEX
  8
PLAN_1
 62
     2
  6
CONTINUOUS
 10
-0.187795
 20
0.626870
  0
VERTEX
  8
PLAN_1
 62
     2
  6
CONTINUOUS
 10
-0.185079
 20
0.628228
  0
VERTEX
  8
PLAN_1
 62
     2
  6
CONTINUOUS
 10
-0.183268
 20
0.629587
  0
VERTEX
  8
PLAN_1
 62
     2
  6
CONTINUOUS
 10
-0.181909
 20
0.631398
  0
VERTEX
  8
PLAN_1
 62
     2
  6
CONTINUOUS
 10
-0.180551
 20
0.633209
  0
VERTEX
  8
PLAN_1
 62
     2
  6
CONTINUOUS
 10
-0.179646
 20
0.635020
  0
VERTEX
  8
PLAN_1
 62
     2
  6
CONTINUOUS
 10
-0.179193
 20
0.636378
  0
VERTEX
  8
PLAN_1
 62
     2
  6
CONTINUOUS
 10
-0.170138
 20
0.636378
  0
SEQEND
  8
0
  0
SOLID
  8
PLAN_1
 62
     2
 10
-0.191870
 20
0.681201
 11
-0.198661
 21
0.681201
 12
-0.178287
 22
0.695689
 13
-0.189606
 23
0.695689
  0
POLYLINE
  8
PLAN_1
 62
     2
  6
CONTINUOUS
 66
     1
 40
0.003000
 41
0.003000
  0
VERTEX
  8
PLAN_1
 62
     2
  6
CONTINUOUS
 10
-0.191870
 20
0.681201
  0
VERTEX
  8
PLAN_1
 62
     2
  6
CONTINUOUS
 10
-0.198661
 20
0.681201
  0
VERTEX
  8
PLAN_1
 62
     2
  6
CONTINUOUS
 10
-0.189606
 20
0.695689
  0
VERTEX
  8
PLAN_1
 62
     2
  6
CONTINUOUS
 10
-0.178287
 20
0.695689
  0
VERTEX
  8
PLAN_1
 62
     2
  6
CONTINUOUS
 10
-0.191870
 20
0.681201
  0
SEQEND
  8
0
  0
POLYLINE
  8
PLAN_1
 62
     2
  6
CONTINUOUS
 66
     1
 40
0.003000
 41
0.003000
  0
VERTEX
  8
PLAN_1
 62
     2
  6
CONTINUOUS
 10
-0.179193
 20
0.650866
  0
VERTEX
  8
PLAN_1
 62
     2
  6
CONTINUOUS
 10
-0.179193
 20
0.654035
  0
VERTEX
  8
PLAN_1
 62
     2
  6
CONTINUOUS
 10
-0.180098
 20
0.657205
  0
VERTEX
  8
PLAN_1
 62
     2
  6
CONTINUOUS
 10
-0.181004
 20
0.659921
  0
VERTEX
  8
PLAN_1
 62
     2
  6
CONTINUOUS
 10
-0.182815
 20
0.662185
  0
VERTEX
  8
PLAN_1
 62
     2
  6
CONTINUOUS
 10
-0.184626
 20
0.664449
  0
VERTEX
  8
PLAN_1
 62
     2
  6
CONTINUOUS
 10
-0.187343
 20
0.665807
  0
VERTEX
  8
PLAN_1
 62
     2
  6
CONTINUOUS
 10
-0.190512
 20
0.666713
  0
VERTEX
  8
PLAN_1
 62
     2
  6
CONTINUOUS
 10
-0.194134
 20
0.667165
  0
VERTEX
  8
PLAN_1
 62
     2
  6
CONTINUOUS
 10
-0.197303
 20
0.666713
  0
VERTEX
  8
PLAN_1
 62
     2
  6
CONTINUOUS
 10
-0.200020
 20
0.665807
  0
VERTEX
  8
PLAN_1
 62
     2
  6
CONTINUOUS
 10
-0.202736
 20
0.664449
  0
VERTEX
  8
PLAN_1
 62
     2
  6
CONTINUOUS
 10
-0.205000
 20
0.662185
  0
VERTEX
  8
PLAN_1
 62
     2
  6
CONTINUOUS
 10
-0.206811
 20
0.659921
  0
VERTEX
  8
PLAN_1
 62
     2
  6
CONTINUOUS
 10
-0.208169
 20
0.657205
  0
VERTEX
  8
PLAN_1
 62
     2
  6
CONTINUOUS
 10
-0.209075
 20
0.654035
  0
VERTEX
  8
PLAN_1
 62
     2
  6
CONTINUOUS
 10
-0.209075
 20
0.650866
  0
VERTEX
  8
PLAN_1
 62
     2
  6
CONTINUOUS
 10
-0.179193
 20
0.650866
  0
SEQEND
  8
0
  0
POLYLINE
  8
PLAN_1
 62
     2
  6
CONTINUOUS
 66
     1
 40
0.003000
 41
0.003000
  0
VERTEX
  8
PLAN_1
 62
     2
  6
CONTINUOUS
 10
-0.130295
 20
0.673957
  0
VERTEX
  8
PLAN_1
 62
     2
  6
CONTINUOUS
 10
-0.121693
 20
0.673957
  0
VERTEX
  8
PLAN_1
 62
     2
  6
CONTINUOUS
 10
-0.121693
 20
0.666260
  0
VERTEX
  8
PLAN_1
 62
     2
  6
CONTINUOUS
 10
-0.120787
 20
0.667618
  0
VERTEX
  8
PLAN_1
 62
     2
  6
CONTINUOUS
 10
-0.119429
 20
0.668976
  0
VERTEX
  8
PLAN_1
 62
     2
  6
CONTINUOUS
 10
-0.118071
 20
0.670335
  0
VERTEX
  8
PLAN_1
 62
     2
  6
CONTINUOUS
 10
-0.116260
 20
0.672146
  0
VERTEX
  8
PLAN_1
 62
     2
  6
CONTINUOUS
 10
-0.113996
 20
0.673504
  0
VERTEX
  8
PLAN_1
 62
     2
  6
CONTINUOUS
 10
-0.111732
 20
0.674409
  0
VERTEX
  8
PLAN_1
 62
     2
  6
CONTINUOUS
 10
-0.108563
 20
0.675315
  0
VERTEX
  8
PLAN_1
 62
     2
  6
CONTINUOUS
 10
-0.105394
 20
0.675315
  0
VERTEX
  8
PLAN_1
 62
     2
  6
CONTINUOUS
 10
-0.102677
 20
0.675315
  0
VERTEX
  8
PLAN_1
 62
     2
  6
CONTINUOUS
 10
-0.099961
 20
0.674862
  0
VERTEX
  8
PLAN_1
 62
     2
  6
CONTINUOUS
 10
-0.097697
 20
0.674409
  0
VERTEX
  8
PLAN_1
 62
     2
  6
CONTINUOUS
 10
-0.095433
 20
0.673504
  0
VERTEX
  8
PLAN_1
 62
     2
  6
CONTINUOUS
 10
-0.093622
 20
0.672146
  0
VERTEX
  8
PLAN_1
 62
     2
  6
CONTINUOUS
 10
-0.091811
 20
0.670787
  0
VERTEX
  8
PLAN_1
 62
     2
  6
CONTINUOUS
 10
-0.090000
 20
0.669429
  0
VERTEX
  8
PLAN_1
 62
     2
  6
CONTINUOUS
 10
-0.088642
 20
0.667618
  0
VERTEX
  8
PLAN_1
 62
     2
  6
CONTINUOUS
 10
-0.085925
 20
0.663543
  0
VERTEX
  8
PLAN_1
 62
     2
  6
CONTINUOUS
 10
-0.084114
 20
0.659016
  0
VERTEX
  8
PLAN_1
 62
     2
  6
CONTINUOUS
 10
-0.082756
 20
0.654035
  0
VERTEX
  8
PLAN_1
 62
     2
  6
CONTINUOUS
 10
-0.082756
 20
0.648150
  0
VERTEX
  8
PLAN_1
 62
     2
  6
CONTINUOUS
 10
-0.082756
 20
0.643169
  0
VERTEX
  8
PLAN_1
 62
     2
  6
CONTINUOUS
 10
-0.083661
 20
0.638189
  0
VERTEX
  8
PLAN_1
 62
     2
  6
CONTINUOUS
 10
-0.085472
 20
0.632756
  0
VERTEX
  8
PLAN_1
 62
     2
  6
CONTINUOUS
 10
-0.087736
 20
0.628228
  0
VERTEX
  8
PLAN_1
 62
     2
  6
CONTINUOUS
 10
-0.089094
 20
0.625965
  0
VERTEX
  8
PLAN_1
 62
     2
  6
CONTINUOUS
 10
-0.090906
 20
0.624154
  0
VERTEX
  8
PLAN_1
 62
     2
  6
CONTINUOUS
 10
-0.092717
 20
0.622343
  0
VERTEX
  8
PLAN_1
 62
     2
  6
CONTINUOUS
 10
-0.094980
 20
0.620984
  0
VERTEX
  8
PLAN_1
 62
     2
  6
CONTINUOUS
 10
-0.097244
 20
0.619626
  0
VERTEX
  8
PLAN_1
 62
     2
  6
CONTINUOUS
 10
-0.099961
 20
0.618720
  0
VERTEX
  8
PLAN_1
 62
     2
  6
CONTINUOUS
 10
-0.103130
 20
0.618268
  0
VERTEX
  8
PLAN_1
 62
     2
  6
CONTINUOUS
 10
-0.106299
 20
0.617815
  0
VERTEX
  8
PLAN_1
 62
     2
  6
CONTINUOUS
 10
-0.109016
 20
0.617815
  0
VERTEX
  8
PLAN_1
 62
     2
  6
CONTINUOUS
 10
-0.111732
 20
0.618268
  0
VERTEX
  8
PLAN_1
 62
     2
  6
CONTINUOUS
 10
-0.113543
 20
0.619173
  0
VERTEX
  8
PLAN_1
 62
     2
  6
CONTINUOUS
 10
-0.115354
 20
0.620079
  0
VERTEX
  8
PLAN_1
 62
     2
  6
CONTINUOUS
 10
-0.117165
 20
0.620984
  0
VERTEX
  8
PLAN_1
 62
     2
  6
CONTINUOUS
 10
-0.118524
 20
0.622343
  0
VERTEX
  8
PLAN_1
 62
     2
  6
CONTINUOUS
 10
-0.119882
 20
0.623701
  0
VERTEX
  8
PLAN_1
 62
     2
  6
CONTINUOUS
 10
-0.120787
 20
0.625059
  0
VERTEX
  8
PLAN_1
 62
     2
  6
CONTINUOUS
 10
-0.121240
 20
0.625059
  0
VERTEX
  8
PLAN_1
 62
     2
  6
CONTINUOUS
 10
-0.121240
 20
0.597894
  0
VERTEX
  8
PLAN_1
 62
     2
  6
CONTINUOUS
 10
-0.130295
 20
0.597894
  0
VERTEX
  8
PLAN_1
 62
     2
  6
CONTINUOUS
 10
-0.130295
 20
0.673957
  0
SEQEND
  8
0
  0
POLYLINE
  8
PLAN_1
 62
     2
  6
CONTINUOUS
 66
     1
 40
0.003000
 41
0.003000
  0
VERTEX
  8
PLAN_1
 62
     2
  6
CONTINUOUS
 10
-0.106752
 20
0.625965
  0
VERTEX
  8
PLAN_1
 62
     2
  6
CONTINUOUS
 10
-0.103130
 20
0.626417
  0
VERTEX
  8
PLAN_1
 62
     2
  6
CONTINUOUS
 10
-0.100413
 20
0.627323
  0
VERTEX
  8
PLAN_1
 62
     2
  6
CONTINUOUS
 10
-0.097697
 20
0.629134
  0
VERTEX
  8
PLAN_1
 62
     2
  6
CONTINUOUS
 10
-0.095433
 20
0.631850
  0
VERTEX
  8
PLAN_1
 62
     2
  6
CONTINUOUS
 10
-0.094075
 20
0.635020
  0
VERTEX
  8
PLAN_1
 62
     2
  6
CONTINUOUS
 10
-0.092717
 20
0.638642
  0
VERTEX
  8
PLAN_1
 62
     2
  6
CONTINUOUS
 10
-0.092264
 20
0.642264
  0
VERTEX
  8
PLAN_1
 62
     2
  6
CONTINUOUS
 10
-0.092264
 20
0.646791
  0
VERTEX
  8
PLAN_1
 62
     2
  6
CONTINUOUS
 10
-0.092264
 20
0.649508
  0
VERTEX
  8
PLAN_1
 62
     2
  6
CONTINUOUS
 10
-0.092264
 20
0.653130
  0
VERTEX
  8
PLAN_1
 62
     2
  6
CONTINUOUS
 10
-0.093169
 20
0.656299
  0
VERTEX
  8
PLAN_1
 62
     2
  6
CONTINUOUS
 10
-0.094075
 20
0.659469
  0
VERTEX
  8
PLAN_1
 62
     2
  6
CONTINUOUS
 10
-0.094980
 20
0.661280
  0
VERTEX
  8
PLAN_1
 62
     2
  6
CONTINUOUS
 10
-0.095886
 20
0.662638
  0
VERTEX
  8
PLAN_1
 62
     2
  6
CONTINUOUS
 10
-0.097244
 20
0.663996
  0
VERTEX
  8
PLAN_1
 62
     2
  6
CONTINUOUS
 10
-0.098602
 20
0.664902
  0
VERTEX
  8
PLAN_1
 62
     2
  6
CONTINUOUS
 10
-0.100413
 20
0.665807
  0
VERTEX
  8
PLAN_1
 62
     2
  6
CONTINUOUS
 10
-0.102224
 20
0.666713
  0
VERTEX
  8
PLAN_1
 62
     2
  6
CONTINUOUS
 10
-0.104488
 20
0.667165
  0
VERTEX
  8
PLAN_1
 62
     2
  6
CONTINUOUS
 10
-0.106752
 20
0.667165
  0
VERTEX
  8
PLAN_1
 62
     2
  6
CONTINUOUS
 10
-0.109469
 20
0.667165
  0
VERTEX
  8
PLAN_1
 62
     2
  6
CONTINUOUS
 10
-0.111280
 20
0.666713
  0
VERTEX
  8
PLAN_1
 62
     2
  6
CONTINUOUS
 10
-0.113091
 20
0.665807
  0
VERTEX
  8
PLAN_1
 62
     2
  6
CONTINUOUS
 10
-0.114902
 20
0.664902
  0
VERTEX
  8
PLAN_1
 62
     2
  6
CONTINUOUS
 10
-0.116260
 20
0.663543
  0
VERTEX
  8
PLAN_1
 62
     2
  6
CONTINUOUS
 10
-0.117165
 20
0.662185
  0
VERTEX
  8
PLAN_1
 62
     2
  6
CONTINUOUS
 10
-0.118524
 20
0.660827
  0
VERTEX
  8
PLAN_1
 62
     2
  6
CONTINUOUS
 10
-0.119429
 20
0.659016
  0
VERTEX
  8
PLAN_1
 62
     2
  6
CONTINUOUS
 10
-0.120335
 20
0.655394
  0
VERTEX
  8
PLAN_1
 62
     2
  6
CONTINUOUS
 10
-0.121240
 20
0.651319
  0
VERTEX
  8
PLAN_1
 62
     2
  6
CONTINUOUS
 10
-0.121693
 20
0.647697
  0
VERTEX
  8
PLAN_1
 62
     2
  6
CONTINUOUS
 10
-0.121693
 20
0.644075
  0
VERTEX
  8
PLAN_1
 62
     2
  6
CONTINUOUS
 10
-0.121240
 20
0.639094
  0
VERTEX
  8
PLAN_1
 62
     2
  6
CONTINUOUS
 10
-0.119882
 20
0.635020
  0
VERTEX
  8
PLAN_1
 62
     2
  6
CONTINUOUS
 10
-0.118524
 20
0.631850
  0
VERTEX
  8
PLAN_1
 62
     2
  6
CONTINUOUS
 10
-0.116260
 20
0.629587
  0
VERTEX
  8
PLAN_1
 62
     2
  6
CONTINUOUS
 10
-0.113996
 20
0.627776
  0
VERTEX
  8
PLAN_1
 62
     2
  6
CONTINUOUS
 10
-0.111280
 20
0.626417
  0
VERTEX
  8
PLAN_1
 62
     2
  6
CONTINUOUS
 10
-0.109016
 20
0.625965
  0
VERTEX
  8
PLAN_1
 62
     2
  6
CONTINUOUS
 10
-0.106752
 20
0.625965
  0
SEQEND
  8
0
  0
POLYLINE
  8
PLAN_1
 62
     2
  6
CONTINUOUS
 66
     1
 40
0.003000
 41
0.003000
  0
VERTEX
  8
PLAN_1
 62
     2
  6
CONTINUOUS
 10
-0.049709
 20
0.675315
  0
VERTEX
  8
PLAN_1
 62
     2
  6
CONTINUOUS
 10
-0.046539
 20
0.675315
  0
VERTEX
  8
PLAN_1
 62
     2
  6
CONTINUOUS
 10
-0.043370
 20
0.674862
  0
VERTEX
  8
PLAN_1
 62
     2
  6
CONTINUOUS
 10
-0.040654
 20
0.673957
  0
VERTEX
  8
PLAN_1
 62
     2
  6
CONTINUOUS
 10
-0.038390
 20
0.673051
  0
VERTEX
  8
PLAN_1
 62
     2
  6
CONTINUOUS
 10
-0.036126
 20
0.671693
  0
VERTEX
  8
PLAN_1
 62
     2
  6
CONTINUOUS
 10
-0.033862
 20
0.669882
  0
VERTEX
  8
PLAN_1
 62
     2
  6
CONTINUOUS
 10
-0.032051
 20
0.668071
  0
VERTEX
  8
PLAN_1
 62
     2
  6
CONTINUOUS
 10
-0.030240
 20
0.666260
  0
VERTEX
  8
PLAN_1
 62
     2
  6
CONTINUOUS
 10
-0.028882
 20
0.663996
  0
VERTEX
  8
PLAN_1
 62
     2
  6
CONTINUOUS
 10
-0.027524
 20
0.661732
  0
VERTEX
  8
PLAN_1
 62
     2
  6
CONTINUOUS
 10
-0.026618
 20
0.659469
  0
VERTEX
  8
PLAN_1
 62
     2
  6
CONTINUOUS
 10
-0.025713
 20
0.657205
  0
VERTEX
  8
PLAN_1
 62
     2
  6
CONTINUOUS
 10
-0.024807
 20
0.651772
  0
VERTEX
  8
PLAN_1
 62
     2
  6
CONTINUOUS
 10
-0.024354
 20
0.646791
  0
VERTEX
  8
PLAN_1
 62
     2
  6
CONTINUOUS
 10
-0.024807
 20
0.641358
  0
VERTEX
  8
PLAN_1
 62
     2
  6
CONTINUOUS
 10
-0.025713
 20
0.636378
  0
VERTEX
  8
PLAN_1
 62
     2
  6
CONTINUOUS
 10
-0.026618
 20
0.633661
  0
VERTEX
  8
PLAN_1
 62
     2
  6
CONTINUOUS
 10
-0.027524
 20
0.631398
  0
VERTEX
  8
PLAN_1
 62
     2
  6
CONTINUOUS
 10
-0.028882
 20
0.629134
  0
VERTEX
  8
PLAN_1
 62
     2
  6
CONTINUOUS
 10
-0.030240
 20
0.626870
  0
VERTEX
  8
PLAN_1
 62
     2
  6
CONTINUOUS
 10
-0.032051
 20
0.625059
  0
VERTEX
  8
PLAN_1
 62
     2
  6
CONTINUOUS
 10
-0.033862
 20
0.623248
  0
VERTEX
  8
PLAN_1
 62
     2
  6
CONTINUOUS
 10
-0.036126
 20
0.621890
  0
VERTEX
  8
PLAN_1
 62
     2
  6
CONTINUOUS
 10
-0.038390
 20
0.620531
  0
VERTEX
  8
PLAN_1
 62
     2
  6
CONTINUOUS
 10
-0.040654
 20
0.619626
  0
VERTEX
  8
PLAN_1
 62
     2
  6
CONTINUOUS
 10
-0.043370
 20
0.618720
  0
VERTEX
  8
PLAN_1
 62
     2
  6
CONTINUOUS
 10
-0.046539
 20
0.618268
  0
VERTEX
  8
PLAN_1
 62
     2
  6
CONTINUOUS
 10
-0.049709
 20
0.617815
  0
VERTEX
  8
PLAN_1
 62
     2
  6
CONTINUOUS
 10
-0.052878
 20
0.618268
  0
VERTEX
  8
PLAN_1
 62
     2
  6
CONTINUOUS
 10
-0.055594
 20
0.618720
  0
VERTEX
  8
PLAN_1
 62
     2
  6
CONTINUOUS
 10
-0.058311
 20
0.619626
  0
VERTEX
  8
PLAN_1
 62
     2
  6
CONTINUOUS
 10
-0.061028
 20
0.620531
  0
VERTEX
  8
PLAN_1
 62
     2
  6
CONTINUOUS
 10
-0.063291
 20
0.621890
  0
VERTEX
  8
PLAN_1
 62
     2
  6
CONTINUOUS
 10
-0.065102
 20
0.623248
  0
VERTEX
  8
PLAN_1
 62
     2
  6
CONTINUOUS
 10
-0.066913
 20
0.625059
  0
VERTEX
  8
PLAN_1
 62
     2
  6
CONTINUOUS
 10
-0.068724
 20
0.626870
  0
VERTEX
  8
PLAN_1
 62
     2
  6
CONTINUOUS
 10
-0.070083
 20
0.629134
  0
VERTEX
  8
PLAN_1
 62
     2
  6
CONTINUOUS
 10
-0.071441
 20
0.631398
  0
VERTEX
  8
PLAN_1
 62
     2
  6
CONTINUOUS
 10
-0.072346
 20
0.633661
  0
VERTEX
  8
PLAN_1
 62
     2
  6
CONTINUOUS
 10
-0.073252
 20
0.636378
  0
VERTEX
  8
PLAN_1
 62
     2
  6
CONTINUOUS
 10
-0.074610
 20
0.641358
  0
VERTEX
  8
PLAN_1
 62
     2
  6
CONTINUOUS
 10
-0.075063
 20
0.646791
  0
VERTEX
  8
PLAN_1
 62
     2
  6
CONTINUOUS
 10
-0.074610
 20
0.651772
  0
VERTEX
  8
PLAN_1
 62
     2
  6
CONTINUOUS
 10
-0.073252
 20
0.657205
  0
VERTEX
  8
PLAN_1
 62
     2
  6
CONTINUOUS
 10
-0.072346
 20
0.659469
  0
VERTEX
  8
PLAN_1
 62
     2
  6
CONTINUOUS
 10
-0.071441
 20
0.661732
  0
VERTEX
  8
PLAN_1
 62
     2
  6
CONTINUOUS
 10
-0.070083
 20
0.663996
  0
VERTEX
  8
PLAN_1
 62
     2
  6
CONTINUOUS
 10
-0.068724
 20
0.666260
  0
VERTEX
  8
PLAN_1
 62
     2
  6
CONTINUOUS
 10
-0.066913
 20
0.668071
  0
VERTEX
  8
PLAN_1
 62
     2
  6
CONTINUOUS
 10
-0.065102
 20
0.669882
  0
VERTEX
  8
PLAN_1
 62
     2
  6
CONTINUOUS
 10
-0.063291
 20
0.671693
  0
VERTEX
  8
PLAN_1
 62
     2
  6
CONTINUOUS
 10
-0.061028
 20
0.673051
  0
VERTEX
  8
PLAN_1
 62
     2
  6
CONTINUOUS
 10
-0.058311
 20
0.673957
  0
VERTEX
  8
PLAN_1
 62
     2
  6
CONTINUOUS
 10
-0.055594
 20
0.674862
  0
VERTEX
  8
PLAN_1
 62
     2
  6
CONTINUOUS
 10
-0.052878
 20
0.675315
  0
VERTEX
  8
PLAN_1
 62
     2
  6
CONTINUOUS
 10
-0.049709
 20
0.675315
  0
SEQEND
  8
0
  0
POLYLINE
  8
PLAN_1
 62
     2
  6
CONTINUOUS
 66
     1
 40
0.003000
 41
0.003000
  0
VERTEX
  8
PLAN_1
 62
     2
  6
CONTINUOUS
 10
-0.049709
 20
0.625965
  0
VERTEX
  8
PLAN_1
 62
     2
  6
CONTINUOUS
 10
-0.047445
 20
0.625965
  0
VERTEX
  8
PLAN_1
 62
     2
  6
CONTINUOUS
 10
-0.045181
 20
0.626417
  0
VERTEX
  8
PLAN_1
 62
     2
  6
CONTINUOUS
 10
-0.043370
 20
0.627323
  0
VERTEX
  8
PLAN_1
 62
     2
  6
CONTINUOUS
 10
-0.041559
 20
0.628228
  0
VERTEX
  8
PLAN_1
 62
     2
  6
CONTINUOUS
 10
-0.040201
 20
0.629134
  0
VERTEX
  8
PLAN_1
 62
     2
  6
CONTINUOUS
 10
-0.038843
 20
0.630492
  0
VERTEX
  8
PLAN_1
 62
     2
  6
CONTINUOUS
 10
-0.037484
 20
0.631850
  0
VERTEX
  8
PLAN_1
 62
     2
  6
CONTINUOUS
 10
-0.036579
 20
0.633661
  0
VERTEX
  8
PLAN_1
 62
     2
  6
CONTINUOUS
 10
-0.035220
 20
0.636831
  0
VERTEX
  8
PLAN_1
 62
     2
  6
CONTINUOUS
 10
-0.034315
 20
0.640453
  0
VERTEX
  8
PLAN_1
 62
     2
  6
CONTINUOUS
 10
-0.033862
 20
0.643622
  0
VERTEX
  8
PLAN_1
 62
     2
  6
CONTINUOUS
 10
-0.033862
 20
0.646791
  0
VERTEX
  8
PLAN_1
 62
     2
  6
CONTINUOUS
 10
-0.033862
 20
0.649508
  0
VERTEX
  8
PLAN_1
 62
     2
  6
CONTINUOUS
 10
-0.034315
 20
0.653130
  0
VERTEX
  8
PLAN_1
 62
     2
  6
CONTINUOUS
 10
-0.035220
 20
0.656299
  0
VERTEX
  8
PLAN_1
 62
     2
  6
CONTINUOUS
 10
-0.036579
 20
0.659921
  0
VERTEX
  8
PLAN_1
 62
     2
  6
CONTINUOUS
 10
-0.038843
 20
0.662638
  0
VERTEX
  8
PLAN_1
 62
     2
  6
CONTINUOUS
 10
-0.041559
 20
0.665354
  0
VERTEX
  8
PLAN_1
 62
     2
  6
CONTINUOUS
 10
-0.043370
 20
0.666260
  0
VERTEX
  8
PLAN_1
 62
     2
  6
CONTINUOUS
 10
-0.045181
 20
0.666713
  0
VERTEX
  8
PLAN_1
 62
     2
  6
CONTINUOUS
 10
-0.047445
 20
0.667165
  0
VERTEX
  8
PLAN_1
 62
     2
  6
CONTINUOUS
 10
-0.049709
 20
0.667618
  0
VERTEX
  8
PLAN_1
 62
     2
  6
CONTINUOUS
 10
-0.051972
 20
0.667165
  0
VERTEX
  8
PLAN_1
 62
     2
  6
CONTINUOUS
 10
-0.053783
 20
0.666713
  0
VERTEX
  8
PLAN_1
 62
     2
  6
CONTINUOUS
 10
-0.056047
 20
0.666260
  0
VERTEX
  8
PLAN_1
 62
     2
  6
CONTINUOUS
 10
-0.057406
 20
0.665354
  0
VERTEX
  8
PLAN_1
 62
     2
  6
CONTINUOUS
 10
-0.059217
 20
0.663996
  0
VERTEX
  8
PLAN_1
 62
     2
  6
CONTINUOUS
 10
-0.060122
 20
0.662638
  0
VERTEX
  8
PLAN_1
 62
     2
  6
CONTINUOUS
 10
-0.061480
 20
0.661280
  0
VERTEX
  8
PLAN_1
 62
     2
  6
CONTINUOUS
 10
-0.062386
 20
0.659921
  0
VERTEX
  8
PLAN_1
 62
     2
  6
CONTINUOUS
 10
-0.063744
 20
0.656299
  0
VERTEX
  8
PLAN_1
 62
     2
  6
CONTINUOUS
 10
-0.064650
 20
0.653130
  0
VERTEX
  8
PLAN_1
 62
     2
  6
CONTINUOUS
 10
-0.065102
 20
0.649508
  0
VERTEX
  8
PLAN_1
 62
     2
  6
CONTINUOUS
 10
-0.065555
 20
0.646791
  0
VERTEX
  8
PLAN_1
 62
     2
  6
CONTINUOUS
 10
-0.065102
 20
0.643622
  0
VERTEX
  8
PLAN_1
 62
     2
  6
CONTINUOUS
 10
-0.064650
 20
0.640453
  0
VERTEX
  8
PLAN_1
 62
     2
  6
CONTINUOUS
 10
-0.063744
 20
0.636831
  0
VERTEX
  8
PLAN_1
 62
     2
  6
CONTINUOUS
 10
-0.062386
 20
0.633661
  0
VERTEX
  8
PLAN_1
 62
     2
  6
CONTINUOUS
 10
-0.061480
 20
0.631850
  0
VERTEX
  8
PLAN_1
 62
     2
  6
CONTINUOUS
 10
-0.060122
 20
0.630492
  0
VERTEX
  8
PLAN_1
 62
     2
  6
CONTINUOUS
 10
-0.059217
 20
0.629134
  0
VERTEX
  8
PLAN_1
 62
     2
  6
CONTINUOUS
 10
-0.057406
 20
0.628228
  0
VERTEX
  8
PLAN_1
 62
     2
  6
CONTINUOUS
 10
-0.056047
 20
0.627323
  0
VERTEX
  8
PLAN_1
 62
     2
  6
CONTINUOUS
 10
-0.053783
 20
0.626417
  0
VERTEX
  8
PLAN_1
 62
     2
  6
CONTINUOUS
 10
-0.051972
 20
0.625965
  0
VERTEX
  8
PLAN_1
 62
     2
  6
CONTINUOUS
 10
-0.049709
 20
0.625965
  0
SEQEND
  8
0
  0
POLYLINE
  8
PLAN_1
 62
     2
  6
CONTINUOUS
 66
     1
 40
0.003000
 41
0.003000
  0
VERTEX
  8
PLAN_1
 62
     2
  6
CONTINUOUS
 10
0.021827
 20
0.619626
  0
VERTEX
  8
PLAN_1
 62
     2
  6
CONTINUOUS
 10
0.021827
 20
0.627323
  0
VERTEX
  8
PLAN_1
 62
     2
  6
CONTINUOUS
 10
0.021374
 20
0.627776
  0
VERTEX
  8
PLAN_1
 62
     2
  6
CONTINUOUS
 10
0.020016
 20
0.625512
  0
VERTEX
  8
PLAN_1
 62
     2
  6
CONTINUOUS
 10
0.018205
 20
0.623248
  0
VERTEX
  8
PLAN_1
 62
     2
  6
CONTINUOUS
 10
0.016394
 20
0.621890
  0
VERTEX
  8
PLAN_1
 62
     2
  6
CONTINUOUS
 10
0.014583
 20
0.620531
  0
VERTEX
  8
PLAN_1
 62
     2
  6
CONTINUOUS
 10
0.012319
 20
0.619173
  0
VERTEX
  8
PLAN_1
 62
     2
  6
CONTINUOUS
 10
0.010055
 20
0.618720
  0
VERTEX
  8
PLAN_1
 62
     2
  6
CONTINUOUS
 10
0.007339
 20
0.617815
  0
VERTEX
  8
PLAN_1
 62
     2
  6
CONTINUOUS
 10
0.004169
 20
0.617815
  0
VERTEX
  8
PLAN_1
 62
     2
  6
CONTINUOUS
 10
0.001000
 20
0.618268
  0
VERTEX
  8
PLAN_1
 62
     2
  6
CONTINUOUS
 10
-0.002169
 20
0.618720
  0
VERTEX
  8
PLAN_1
 62
     2
  6
CONTINUOUS
 10
-0.004886
 20
0.619626
  0
VERTEX
  8
PLAN_1
 62
     2
  6
CONTINUOUS
 10
-0.007602
 20
0.621437
  0
VERTEX
  8
PLAN_1
 62
     2
  6
CONTINUOUS
 10
-0.009866
 20
0.623701
  0
VERTEX
  8
PLAN_1
 62
     2
  6
CONTINUOUS
 10
-0.011677
 20
0.626417
  0
VERTEX
  8
PLAN_1
 62
     2
  6
CONTINUOUS
 10
-0.012583
 20
0.628228
  0
VERTEX
  8
PLAN_1
 62
     2
  6
CONTINUOUS
 10
-0.013035
 20
0.630492
  0
VERTEX
  8
PLAN_1
 62
     2
  6
CONTINUOUS
 10
-0.013488
 20
0.632303
  0
VERTEX
  8
PLAN_1
 62
     2
  6
CONTINUOUS
 10
-0.013488
 20
0.634567
  0
VERTEX
  8
PLAN_1
 62
     2
  6
CONTINUOUS
 10
-0.013488
 20
0.673957
  0
VERTEX
  8
PLAN_1
 62
     2
  6
CONTINUOUS
 10
-0.004433
 20
0.673957
  0
VERTEX
  8
PLAN_1
 62
     2
  6
CONTINUOUS
 10
-0.004433
 20
0.637736
  0
VERTEX
  8
PLAN_1
 62
     2
  6
CONTINUOUS
 10
-0.003980
 20
0.634567
  0
VERTEX
  8
PLAN_1
 62
     2
  6
CONTINUOUS
 10
-0.003528
 20
0.632303
  0
VERTEX
  8
PLAN_1
 62
     2
  6
CONTINUOUS
 10
-0.002622
 20
0.630039
  0
VERTEX
  8
PLAN_1
 62
     2
  6
CONTINUOUS
 10
-0.001264
 20
0.628228
  0
VERTEX
  8
PLAN_1
 62
     2
  6
CONTINUOUS
 10
0.000094
 20
0.627323
  0
VERTEX
  8
PLAN_1
 62
     2
  6
CONTINUOUS
 10
0.001906
 20
0.626417
  0
VERTEX
  8
PLAN_1
 62
     2
  6
CONTINUOUS
 10
0.004169
 20
0.625965
  0
VERTEX
  8
PLAN_1
 62
     2
  6
CONTINUOUS
 10
0.005980
 20
0.625965
  0
VERTEX
  8
PLAN_1
 62
     2
  6
CONTINUOUS
 10
0.008244
 20
0.625965
  0
VERTEX
  8
PLAN_1
 62
     2
  6
CONTINUOUS
 10
0.010055
 20
0.626417
  0
VERTEX
  8
PLAN_1
 62
     2
  6
CONTINUOUS
 10
0.011866
 20
0.626870
  0
VERTEX
  8
PLAN_1
 62
     2
  6
CONTINUOUS
 10
0.013224
 20
0.627323
  0
VERTEX
  8
PLAN_1
 62
     2
  6
CONTINUOUS
 10
0.015941
 20
0.629587
  0
VERTEX
  8
PLAN_1
 62
     2
  6
CONTINUOUS
 10
0.017752
 20
0.631850
  0
VERTEX
  8
PLAN_1
 62
     2
  6
CONTINUOUS
 10
0.019563
 20
0.634567
  0
VERTEX
  8
PLAN_1
 62
     2
  6
CONTINUOUS
 10
0.020469
 20
0.637736
  0
VERTEX
  8
PLAN_1
 62
     2
  6
CONTINUOUS
 10
0.020921
 20
0.640906
  0
VERTEX
  8
PLAN_1
 62
     2
  6
CONTINUOUS
 10
0.020921
 20
0.644075
  0
VERTEX
  8
PLAN_1
 62
     2
  6
CONTINUOUS
 10
0.020921
 20
0.673957
  0
VERTEX
  8
PLAN_1
 62
     2
  6
CONTINUOUS
 10
0.030429
 20
0.673957
  0
VERTEX
  8
PLAN_1
 62
     2
  6
CONTINUOUS
 10
0.030429
 20
0.619626
  0
VERTEX
  8
PLAN_1
 62
     2
  6
CONTINUOUS
 10
0.021827
 20
0.619626
  0
SEQEND
  8
0
  0
POLYLINE
  8
PLAN_1
 62
     2
  6
CONTINUOUS
 66
     1
 40
0.003000
 41
0.003000
  0
VERTEX
  8
PLAN_1
 62
     2
  6
CONTINUOUS
 10
0.054425
 20
0.619626
  0
VERTEX
  8
PLAN_1
 62
     2
  6
CONTINUOUS
 10
0.045370
 20
0.619626
  0
VERTEX
  8
PLAN_1
 62
     2
  6
CONTINUOUS
 10
0.045370
 20
0.673957
  0
VERTEX
  8
PLAN_1
 62
     2
  6
CONTINUOUS
 10
0.053972
 20
0.673957
  0
VERTEX
  8
PLAN_1
 62
     2
  6
CONTINUOUS
 10
0.053972
 20
0.664902
  0
VERTEX
  8
PLAN_1
 62
     2
  6
CONTINUOUS
 10
0.055783
 20
0.667165
  0
VERTEX
  8
PLAN_1
 62
     2
  6
CONTINUOUS
 10
0.057142
 20
0.668976
  0
VERTEX
  8
PLAN_1
 62
     2
  6
CONTINUOUS
 10
0.058953
 20
0.670787
  0
VERTEX
  8
PLAN_1
 62
     2
  6
CONTINUOUS
 10
0.060764
 20
0.672598
  0
VERTEX
  8
PLAN_1
 62
     2
  6
CONTINUOUS
 10
0.062575
 20
0.673504
  0
VERTEX
  8
PLAN_1
 62
     2
  6
CONTINUOUS
 10
0.064839
 20
0.674862
  0
VERTEX
  8
PLAN_1
 62
     2
  6
CONTINUOUS
 10
0.067102
 20
0.675315
  0
VERTEX
  8
PLAN_1
 62
     2
  6
CONTINUOUS
 10
0.069366
 20
0.675315
  0
VERTEX
  8
PLAN_1
 62
     2
  6
CONTINUOUS
 10
0.069819
 20
0.675315
  0
VERTEX
  8
PLAN_1
 62
     2
  6
CONTINUOUS
 10
0.070272
 20
0.675315
  0
VERTEX
  8
PLAN_1
 62
     2
  6
CONTINUOUS
 10
0.070724
 20
0.675315
  0
VERTEX
  8
PLAN_1
 62
     2
  6
CONTINUOUS
 10
0.071177
 20
0.675315
  0
VERTEX
  8
PLAN_1
 62
     2
  6
CONTINUOUS
 10
0.071630
 20
0.675315
  0
VERTEX
  8
PLAN_1
 62
     2
  6
CONTINUOUS
 10
0.071630
 20
0.665807
  0
VERTEX
  8
PLAN_1
 62
     2
  6
CONTINUOUS
 10
0.068461
 20
0.665807
  0
VERTEX
  8
PLAN_1
 62
     2
  6
CONTINUOUS
 10
0.065291
 20
0.665354
  0
VERTEX
  8
PLAN_1
 62
     2
  6
CONTINUOUS
 10
0.062575
 20
0.664449
  0
VERTEX
  8
PLAN_1
 62
     2
  6
CONTINUOUS
 10
0.060311
 20
0.663091
  0
VERTEX
  8
PLAN_1
 62
     2
  6
CONTINUOUS
 10
0.058047
 20
0.661280
  0
VERTEX
  8
PLAN_1
 62
     2
  6
CONTINUOUS
 10
0.056689
 20
0.659016
  0
VERTEX
  8
PLAN_1
 62
     2
  6
CONTINUOUS
 10
0.055331
 20
0.656752
  0
VERTEX
  8
PLAN_1
 62
     2
  6
CONTINUOUS
 10
0.054878
 20
0.654035
  0
VERTEX
  8
PLAN_1
 62
     2
  6
CONTINUOUS
 10
0.054425
 20
0.650866
  0
VERTEX
  8
PLAN_1
 62
     2
  6
CONTINUOUS
 10
0.054425
 20
0.619626
  0
SEQEND
  8
0
  0
POLYLINE
  8
PLAN_1
 62
     2
  6
CONTINUOUS
 66
     1
 40
0.003000
 41
0.003000
  0
VERTEX
  8
PLAN_1
 62
     2
  6
CONTINUOUS
 10
-0.806252
 20
0.548996
  0
VERTEX
  8
PLAN_1
 62
     2
  6
CONTINUOUS
 10
-0.797650
 20
0.548996
  0
VERTEX
  8
PLAN_1
 62
     2
  6
CONTINUOUS
 10
-0.797650
 20
0.541299
  0
VERTEX
  8
PLAN_1
 62
     2
  6
CONTINUOUS
 10
-0.796744
 20
0.542657
  0
VERTEX
  8
PLAN_1
 62
     2
  6
CONTINUOUS
 10
-0.795386
 20
0.544016
  0
VERTEX
  8
PLAN_1
 62
     2
  6
CONTINUOUS
 10
-0.794028
 20
0.545374
  0
VERTEX
  8
PLAN_1
 62
     2
  6
CONTINUOUS
 10
-0.792217
 20
0.547185
  0
VERTEX
  8
PLAN_1
 62
     2
  6
CONTINUOUS
 10
-0.790406
 20
0.548543
  0
VERTEX
  8
PLAN_1
 62
     2
  6
CONTINUOUS
 10
-0.787689
 20
0.549449
  0
VERTEX
  8
PLAN_1
 62
     2
  6
CONTINUOUS
 10
-0.784972
 20
0.550354
  0
VERTEX
  8
PLAN_1
 62
     2
  6
CONTINUOUS
 10
-0.781350
 20
0.550354
  0
VERTEX
  8
PLAN_1
 62
     2
  6
CONTINUOUS
 10
-0.778634
 20
0.550354
  0
VERTEX
  8
PLAN_1
 62
     2
  6
CONTINUOUS
 10
-0.776370
 20
0.549902
  0
VERTEX
  8
PLAN_1
 62
     2
  6
CONTINUOUS
 10
-0.774106
 20
0.549449
  0
VERTEX
  8
PLAN_1
 62
     2
  6
CONTINUOUS
 10
-0.771843
 20
0.548543
  0
VERTEX
  8
PLAN_1
 62
     2
  6
CONTINUOUS
 10
-0.769579
 20
0.547185
  0
VERTEX
  8
PLAN_1
 62
     2
  6
CONTINUOUS
 10
-0.767768
 20
0.545827
  0
VERTEX
  8
PLAN_1
 62
     2
  6
CONTINUOUS
 10
-0.765957
 20
0.544469
  0
VERTEX
  8
PLAN_1
 62
     2
  6
CONTINUOUS
 10
-0.764598
 20
0.542657
  0
VERTEX
  8
PLAN_1
 62
     2
  6
CONTINUOUS
 10
-0.761882
 20
0.538583
  0
VERTEX
  8
PLAN_1
 62
     2
  6
CONTINUOUS
 10
-0.760071
 20
0.534055
  0
VERTEX
  8
PLAN_1
 62
     2
  6
CONTINUOUS
 10
-0.759165
 20
0.528622
  0
VERTEX
  8
PLAN_1
 62
     2
  6
CONTINUOUS
 10
-0.758713
 20
0.523189
  0
VERTEX
  8
PLAN_1
 62
     2
  6
CONTINUOUS
 10
-0.759165
 20
0.518209
  0
VERTEX
  8
PLAN_1
 62
     2
  6
CONTINUOUS
 10
-0.759618
 20
0.513228
  0
VERTEX
  8
PLAN_1
 62
     2
  6
CONTINUOUS
 10
-0.761429
 20
0.507795
  0
VERTEX
  8
PLAN_1
 62
     2
  6
CONTINUOUS
 10
-0.763693
 20
0.503268
  0
VERTEX
  8
PLAN_1
 62
     2
  6
CONTINUOUS
 10
-0.765051
 20
0.501004
  0
VERTEX
  8
PLAN_1
 62
     2
  6
CONTINUOUS
 10
-0.766862
 20
0.499193
  0
VERTEX
  8
PLAN_1
 62
     2
  6
CONTINUOUS
 10
-0.768673
 20
0.497382
  0
VERTEX
  8
PLAN_1
 62
     2
  6
CONTINUOUS
 10
-0.770937
 20
0.496024
  0
VERTEX
  8
PLAN_1
 62
     2
  6
CONTINUOUS
 10
-0.773654
 20
0.494665
  0
VERTEX
  8
PLAN_1
 62
     2
  6
CONTINUOUS
 10
-0.776370
 20
0.493760
  0
VERTEX
  8
PLAN_1
 62
     2
  6
CONTINUOUS
 10
-0.779539
 20
0.493307
  0
VERTEX
  8
PLAN_1
 62
     2
  6
CONTINUOUS
 10
-0.782709
 20
0.492854
  0
VERTEX
  8
PLAN_1
 62
     2
  6
CONTINUOUS
 10
-0.785425
 20
0.492854
  0
VERTEX
  8
PLAN_1
 62
     2
  6
CONTINUOUS
 10
-0.787689
 20
0.493307
  0
VERTEX
  8
PLAN_1
 62
     2
  6
CONTINUOUS
 10
-0.789953
 20
0.494213
  0
VERTEX
  8
PLAN_1
 62
     2
  6
CONTINUOUS
 10
-0.791764
 20
0.495118
  0
VERTEX
  8
PLAN_1
 62
     2
  6
CONTINUOUS
 10
-0.793575
 20
0.496024
  0
VERTEX
  8
PLAN_1
 62
     2
  6
CONTINUOUS
 10
-0.794933
 20
0.497382
  0
VERTEX
  8
PLAN_1
 62
     2
  6
CONTINUOUS
 10
-0.796291
 20
0.498740
  0
VERTEX
  8
PLAN_1
 62
     2
  6
CONTINUOUS
 10
-0.797197
 20
0.500098
  0
VERTEX
  8
PLAN_1
 62
     2
  6
CONTINUOUS
 10
-0.797197
 20
0.472933
  0
VERTEX
  8
PLAN_1
 62
     2
  6
CONTINUOUS
 10
-0.806252
 20
0.472933
  0
VERTEX
  8
PLAN_1
 62
     2
  6
CONTINUOUS
 10
-0.806252
 20
0.548996
  0
SEQEND
  8
0
  0
POLYLINE
  8
PLAN_1
 62
     2
  6
CONTINUOUS
 66
     1
 40
0.003000
 41
0.003000
  0
VERTEX
  8
PLAN_1
 62
     2
  6
CONTINUOUS
 10
-0.782709
 20
0.501004
  0
VERTEX
  8
PLAN_1
 62
     2
  6
CONTINUOUS
 10
-0.779539
 20
0.501004
  0
VERTEX
  8
PLAN_1
 62
     2
  6
CONTINUOUS
 10
-0.776370
 20
0.502362
  0
VERTEX
  8
PLAN_1
 62
     2
  6
CONTINUOUS
 10
-0.773654
 20
0.504173
  0
VERTEX
  8
PLAN_1
 62
     2
  6
CONTINUOUS
 10
-0.771843
 20
0.506890
  0
VERTEX
  8
PLAN_1
 62
     2
  6
CONTINUOUS
 10
-0.770031
 20
0.510059
  0
VERTEX
  8
PLAN_1
 62
     2
  6
CONTINUOUS
 10
-0.769126
 20
0.513681
  0
VERTEX
  8
PLAN_1
 62
     2
  6
CONTINUOUS
 10
-0.768220
 20
0.517303
  0
VERTEX
  8
PLAN_1
 62
     2
  6
CONTINUOUS
 10
-0.768220
 20
0.521831
  0
VERTEX
  8
PLAN_1
 62
     2
  6
CONTINUOUS
 10
-0.768220
 20
0.524547
  0
VERTEX
  8
PLAN_1
 62
     2
  6
CONTINUOUS
 10
-0.768673
 20
0.528169
  0
VERTEX
  8
PLAN_1
 62
     2
  6
CONTINUOUS
 10
-0.769126
 20
0.531339
  0
VERTEX
  8
PLAN_1
 62
     2
  6
CONTINUOUS
 10
-0.770484
 20
0.534508
  0
VERTEX
  8
PLAN_1
 62
     2
  6
CONTINUOUS
 10
-0.770937
 20
0.536319
  0
VERTEX
  8
PLAN_1
 62
     2
  6
CONTINUOUS
 10
-0.772295
 20
0.537677
  0
VERTEX
  8
PLAN_1
 62
     2
  6
CONTINUOUS
 10
-0.773201
 20
0.539035
  0
VERTEX
  8
PLAN_1
 62
     2
  6
CONTINUOUS
 10
-0.774559
 20
0.539941
  0
VERTEX
  8
PLAN_1
 62
     2
  6
CONTINUOUS
 10
-0.776370
 20
0.540846
  0
VERTEX
  8
PLAN_1
 62
     2
  6
CONTINUOUS
 10
-0.778181
 20
0.541752
  0
VERTEX
  8
PLAN_1
 62
     2
  6
CONTINUOUS
 10
-0.780445
 20
0.542205
  0
VERTEX
  8
PLAN_1
 62
     2
  6
CONTINUOUS
 10
-0.783161
 20
0.542205
  0
VERTEX
  8
PLAN_1
 62
     2
  6
CONTINUOUS
 10
-0.785425
 20
0.542205
  0
VERTEX
  8
PLAN_1
 62
     2
  6
CONTINUOUS
 10
-0.787689
 20
0.541752
  0
VERTEX
  8
PLAN_1
 62
     2
  6
CONTINUOUS
 10
-0.789500
 20
0.540846
  0
VERTEX
  8
PLAN_1
 62
     2
  6
CONTINUOUS
 10
-0.790858
 20
0.539941
  0
VERTEX
  8
PLAN_1
 62
     2
  6
CONTINUOUS
 10
-0.792217
 20
0.538583
  0
VERTEX
  8
PLAN_1
 62
     2
  6
CONTINUOUS
 10
-0.793575
 20
0.537224
  0
VERTEX
  8
PLAN_1
 62
     2
  6
CONTINUOUS
 10
-0.794480
 20
0.535866
  0
VERTEX
  8
PLAN_1
 62
     2
  6
CONTINUOUS
 10
-0.795386
 20
0.534055
  0
VERTEX
  8
PLAN_1
 62
     2
  6
CONTINUOUS
 10
-0.796744
 20
0.530433
  0
VERTEX
  8
PLAN_1
 62
     2
  6
CONTINUOUS
 10
-0.797197
 20
0.526358
  0
VERTEX
  8
PLAN_1
 62
     2
  6
CONTINUOUS
 10
-0.797650
 20
0.522736
  0
VERTEX
  8
PLAN_1
 62
     2
  6
CONTINUOUS
 10
-0.797650
 20
0.519114
  0
VERTEX
  8
PLAN_1
 62
     2
  6
CONTINUOUS
 10
-0.797197
 20
0.514134
  0
VERTEX
  8
PLAN_1
 62
     2
  6
CONTINUOUS
 10
-0.796291
 20
0.510059
  0
VERTEX
  8
PLAN_1
 62
     2
  6
CONTINUOUS
 10
-0.794480
 20
0.506890
  0
VERTEX
  8
PLAN_1
 62
     2
  6
CONTINUOUS
 10
-0.792669
 20
0.504626
  0
VERTEX
  8
PLAN_1
 62
     2
  6
CONTINUOUS
 10
-0.789953
 20
0.502815
  0
VERTEX
  8
PLAN_1
 62
     2
  6
CONTINUOUS
 10
-0.787689
 20
0.501457
  0
VERTEX
  8
PLAN_1
 62
     2
  6
CONTINUOUS
 10
-0.784972
 20
0.501004
  0
VERTEX
  8
PLAN_1
 62
     2
  6
CONTINUOUS
 10
-0.782709
 20
0.501004
  0
SEQEND
  8
0
  0
POLYLINE
  8
PLAN_1
 62
     2
  6
CONTINUOUS
 66
     1
 40
0.003000
 41
0.003000
  0
VERTEX
  8
PLAN_1
 62
     2
  6
CONTINUOUS
 10
-0.737433
 20
0.494665
  0
VERTEX
  8
PLAN_1
 62
     2
  6
CONTINUOUS
 10
-0.746488
 20
0.494665
  0
VERTEX
  8
PLAN_1
 62
     2
  6
CONTINUOUS
 10
-0.746488
 20
0.548996
  0
VERTEX
  8
PLAN_1
 62
     2
  6
CONTINUOUS
 10
-0.737886
 20
0.548996
  0
VERTEX
  8
PLAN_1
 62
     2
  6
CONTINUOUS
 10
-0.737886
 20
0.539941
  0
VERTEX
  8
PLAN_1
 62
     2
  6
CONTINUOUS
 10
-0.736528
 20
0.542205
  0
VERTEX
  8
PLAN_1
 62
     2
  6
CONTINUOUS
 10
-0.734717
 20
0.544016
  0
VERTEX
  8
PLAN_1
 62
     2
  6
CONTINUOUS
 10
-0.732906
 20
0.545827
  0
VERTEX
  8
PLAN_1
 62
     2
  6
CONTINUOUS
 10
-0.731094
 20
0.547638
  0
VERTEX
  8
PLAN_1
 62
     2
  6
CONTINUOUS
 10
-0.729283
 20
0.548543
  0
VERTEX
  8
PLAN_1
 62
     2
  6
CONTINUOUS
 10
-0.727020
 20
0.549449
  0
VERTEX
  8
PLAN_1
 62
     2
  6
CONTINUOUS
 10
-0.724756
 20
0.550354
  0
VERTEX
  8
PLAN_1
 62
     2
  6
CONTINUOUS
 10
-0.722492
 20
0.550354
  0
VERTEX
  8
PLAN_1
 62
     2
  6
CONTINUOUS
 10
-0.722039
 20
0.550354
  0
VERTEX
  8
PLAN_1
 62
     2
  6
CONTINUOUS
 10
-0.721587
 20
0.550354
  0
VERTEX
  8
PLAN_1
 62
     2
  6
CONTINUOUS
 10
-0.721134
 20
0.550354
  0
VERTEX
  8
PLAN_1
 62
     2
  6
CONTINUOUS
 10
-0.720681
 20
0.550354
  0
VERTEX
  8
PLAN_1
 62
     2
  6
CONTINUOUS
 10
-0.720228
 20
0.550354
  0
VERTEX
  8
PLAN_1
 62
     2
  6
CONTINUOUS
 10
-0.720228
 20
0.549902
  0
VERTEX
  8
PLAN_1
 62
     2
  6
CONTINUOUS
 10
-0.720228
 20
0.540846
  0
VERTEX
  8
PLAN_1
 62
     2
  6
CONTINUOUS
 10
-0.723398
 20
0.540846
  0
VERTEX
  8
PLAN_1
 62
     2
  6
CONTINUOUS
 10
-0.726567
 20
0.540394
  0
VERTEX
  8
PLAN_1
 62
     2
  6
CONTINUOUS
 10
-0.729283
 20
0.539488
  0
VERTEX
  8
PLAN_1
 62
     2
  6
CONTINUOUS
 10
-0.731547
 20
0.538130
  0
VERTEX
  8
PLAN_1
 62
     2
  6
CONTINUOUS
 10
-0.733811
 20
0.536319
  0
VERTEX
  8
PLAN_1
 62
     2
  6
CONTINUOUS
 10
-0.735169
 20
0.534055
  0
VERTEX
  8
PLAN_1
 62
     2
  6
CONTINUOUS
 10
-0.736528
 20
0.531791
  0
VERTEX
  8
PLAN_1
 62
     2
  6
CONTINUOUS
 10
-0.736980
 20
0.529075
  0
VERTEX
  8
PLAN_1
 62
     2
  6
CONTINUOUS
 10
-0.737433
 20
0.525906
  0
VERTEX
  8
PLAN_1
 62
     2
  6
CONTINUOUS
 10
-0.737433
 20
0.494665
  0
SEQEND
  8
0
  0
POLYLINE
  8
PLAN_1
 62
     2
  6
CONTINUOUS
 66
     1
 40
0.003000
 41
0.003000
  0
VERTEX
  8
PLAN_1
 62
     2
  6
CONTINUOUS
 10
-0.666807
 20
0.511417
  0
VERTEX
  8
PLAN_1
 62
     2
  6
CONTINUOUS
 10
-0.667260
 20
0.510512
  0
VERTEX
  8
PLAN_1
 62
     2
  6
CONTINUOUS
 10
-0.667713
 20
0.508701
  0
VERTEX
  8
PLAN_1
 62
     2
  6
CONTINUOUS
 10
-0.668165
 20
0.506890
  0
VERTEX
  8
PLAN_1
 62
     2
  6
CONTINUOUS
 10
-0.669524
 20
0.504626
  0
VERTEX
  8
PLAN_1
 62
     2
  6
CONTINUOUS
 10
-0.670882
 20
0.502815
  0
VERTEX
  8
PLAN_1
 62
     2
  6
CONTINUOUS
 10
-0.672240
 20
0.500551
  0
VERTEX
  8
PLAN_1
 62
     2
  6
CONTINUOUS
 10
-0.674504
 20
0.498287
  0
VERTEX
  8
PLAN_1
 62
     2
  6
CONTINUOUS
 10
-0.676768
 20
0.496476
  0
VERTEX
  8
PLAN_1
 62
     2
  6
CONTINUOUS
 10
-0.677673
 20
0.496024
  0
VERTEX
  8
PLAN_1
 62
     2
  6
CONTINUOUS
 10
-0.678579
 20
0.495571
  0
VERTEX
  8
PLAN_1
 62
     2
  6
CONTINUOUS
 10
-0.679937
 20
0.494665
  0
VERTEX
  8
PLAN_1
 62
     2
  6
CONTINUOUS
 10
-0.681744
 20
0.494213
  0
VERTEX
  8
PLAN_1
 62
     2
  6
CONTINUOUS
 10
-0.683555
 20
0.493760
  0
VERTEX
  8
PLAN_1
 62
     2
  6
CONTINUOUS
 10
-0.685819
 20
0.493307
  0
VERTEX
  8
PLAN_1
 62
     2
  6
CONTINUOUS
 10
-0.688535
 20
0.492854
  0
VERTEX
  8
PLAN_1
 62
     2
  6
CONTINUOUS
 10
-0.691252
 20
0.492854
  0
VERTEX
  8
PLAN_1
 62
     2
  6
CONTINUOUS
 10
-0.694421
 20
0.492854
  0
VERTEX
  8
PLAN_1
 62
     2
  6
CONTINUOUS
 10
-0.696685
 20
0.493307
  0
VERTEX
  8
PLAN_1
 62
     2
  6
CONTINUOUS
 10
-0.699402
 20
0.494213
  0
VERTEX
  8
PLAN_1
 62
     2
  6
CONTINUOUS
 10
-0.701665
 20
0.495118
  0
VERTEX
  8
PLAN_1
 62
     2
  6
CONTINUOUS
 10
-0.703929
 20
0.496024
  0
VERTEX
  8
PLAN_1
 62
     2
  6
CONTINUOUS
 10
-0.705740
 20
0.497382
  0
VERTEX
  8
PLAN_1
 62
     2
  6
CONTINUOUS
 10
-0.707551
 20
0.498740
  0
VERTEX
  8
PLAN_1
 62
     2
  6
CONTINUOUS
 10
-0.709362
 20
0.500551
  0
VERTEX
  8
PLAN_1
 62
     2
  6
CONTINUOUS
 10
-0.710720
 20
0.502362
  0
VERTEX
  8
PLAN_1
 62
     2
  6
CONTINUOUS
 10
-0.712079
 20
0.504626
  0
VERTEX
  8
PLAN_1
 62
     2
  6
CONTINUOUS
 10
-0.713437
 20
0.506890
  0
VERTEX
  8
PLAN_1
 62
     2
  6
CONTINUOUS
 10
-0.714343
 20
0.509154
  0
VERTEX
  8
PLAN_1
 62
     2
  6
CONTINUOUS
 10
-0.715248
 20
0.514587
  0
VERTEX
  8
PLAN_1
 62
     2
  6
CONTINUOUS
 10
-0.715701
 20
0.520020
  0
VERTEX
  8
PLAN_1
 62
     2
  6
CONTINUOUS
 10
-0.715248
 20
0.526358
  0
VERTEX
  8
PLAN_1
 62
     2
  6
CONTINUOUS
 10
-0.714343
 20
0.531791
  0
VERTEX
  8
PLAN_1
 62
     2
  6
CONTINUOUS
 10
-0.713437
 20
0.534508
  0
VERTEX
  8
PLAN_1
 62
     2
  6
CONTINUOUS
 10
-0.712079
 20
0.537224
  0
VERTEX
  8
PLAN_1
 62
     2
  6
CONTINUOUS
 10
-0.711173
 20
0.539488
  0
VERTEX
  8
PLAN_1
 62
     2
  6
CONTINUOUS
 10
-0.709362
 20
0.541752
  0
VERTEX
  8
PLAN_1
 62
     2
  6
CONTINUOUS
 10
-0.707551
 20
0.543563
  0
VERTEX
  8
PLAN_1
 62
     2
  6
CONTINUOUS
 10
-0.705740
 20
0.545374
  0
VERTEX
  8
PLAN_1
 62
     2
  6
CONTINUOUS
 10
-0.703929
 20
0.546732
  0
VERTEX
  8
PLAN_1
 62
     2
  6
CONTINUOUS
 10
-0.701213
 20
0.548091
  0
VERTEX
  8
PLAN_1
 62
     2
  6
CONTINUOUS
 10
-0.698949
 20
0.548996
  0
VERTEX
  8
PLAN_1
 62
     2
  6
CONTINUOUS
 10
-0.695780
 20
0.549902
  0
VERTEX
  8
PLAN_1
 62
     2
  6
CONTINUOUS
 10
-0.693063
 20
0.550354
  0
VERTEX
  8
PLAN_1
 62
     2
  6
CONTINUOUS
 10
-0.689441
 20
0.550354
  0
VERTEX
  8
PLAN_1
 62
     2
  6
CONTINUOUS
 10
-0.686724
 20
0.550354
  0
VERTEX
  8
PLAN_1
 62
     2
  6
CONTINUOUS
 10
-0.684008
 20
0.549902
  0
VERTEX
  8
PLAN_1
 62
     2
  6
CONTINUOUS
 10
-0.681744
 20
0.548996
  0
VERTEX
  8
PLAN_1
 62
     2
  6
CONTINUOUS
 10
-0.679484
 20
0.548091
  0
VERTEX
  8
PLAN_1
 62
     2
  6
CONTINUOUS
 10
-0.677220
 20
0.546732
  0
VERTEX
  8
PLAN_1
 62
     2
  6
CONTINUOUS
 10
-0.675409
 20
0.545374
  0
VERTEX
  8
PLAN_1
 62
     2
  6
CONTINUOUS
 10
-0.673598
 20
0.543563
  0
VERTEX
  8
PLAN_1
 62
     2
  6
CONTINUOUS
 10
-0.672240
 20
0.541752
  0
VERTEX
  8
PLAN_1
 62
     2
  6
CONTINUOUS
 10
-0.670882
 20
0.539488
  0
VERTEX
  8
PLAN_1
 62
     2
  6
CONTINUOUS
 10
-0.669524
 20
0.537224
  0
VERTEX
  8
PLAN_1
 62
     2
  6
CONTINUOUS
 10
-0.668618
 20
0.534508
  0
VERTEX
  8
PLAN_1
 62
     2
  6
CONTINUOUS
 10
-0.667713
 20
0.531791
  0
VERTEX
  8
PLAN_1
 62
     2
  6
CONTINUOUS
 10
-0.666807
 20
0.525453
  0
VERTEX
  8
PLAN_1
 62
     2
  6
CONTINUOUS
 10
-0.666354
 20
0.518661
  0
VERTEX
  8
PLAN_1
 62
     2
  6
CONTINUOUS
 10
-0.706193
 20
0.518661
  0
VERTEX
  8
PLAN_1
 62
     2
  6
CONTINUOUS
 10
-0.705740
 20
0.514587
  0
VERTEX
  8
PLAN_1
 62
     2
  6
CONTINUOUS
 10
-0.704835
 20
0.510965
  0
VERTEX
  8
PLAN_1
 62
     2
  6
CONTINUOUS
 10
-0.703929
 20
0.508248
  0
VERTEX
  8
PLAN_1
 62
     2
  6
CONTINUOUS
 10
-0.702118
 20
0.505531
  0
VERTEX
  8
PLAN_1
 62
     2
  6
CONTINUOUS
 10
-0.699854
 20
0.503268
  0
VERTEX
  8
PLAN_1
 62
     2
  6
CONTINUOUS
 10
-0.697138
 20
0.501909
  0
VERTEX
  8
PLAN_1
 62
     2
  6
CONTINUOUS
 10
-0.693969
 20
0.501004
  0
VERTEX
  8
PLAN_1
 62
     2
  6
CONTINUOUS
 10
-0.690346
 20
0.501004
  0
VERTEX
  8
PLAN_1
 62
     2
  6
CONTINUOUS
 10
-0.687177
 20
0.501004
  0
VERTEX
  8
PLAN_1
 62
     2
  6
CONTINUOUS
 10
-0.684461
 20
0.501909
  0
VERTEX
  8
PLAN_1
 62
     2
  6
CONTINUOUS
 10
-0.682197
 20
0.503268
  0
VERTEX
  8
PLAN_1
 62
     2
  6
CONTINUOUS
 10
-0.679937
 20
0.504626
  0
VERTEX
  8
PLAN_1
 62
     2
  6
CONTINUOUS
 10
-0.678579
 20
0.506437
  0
VERTEX
  8
PLAN_1
 62
     2
  6
CONTINUOUS
 10
-0.677220
 20
0.508248
  0
VERTEX
  8
PLAN_1
 62
     2
  6
CONTINUOUS
 10
-0.676315
 20
0.510059
  0
VERTEX
  8
PLAN_1
 62
     2
  6
CONTINUOUS
 10
-0.676315
 20
0.511417
  0
VERTEX
  8
PLAN_1
 62
     2
  6
CONTINUOUS
 10
-0.666807
 20
0.511417
  0
SEQEND
  8
0
  0
POLYLINE
  8
PLAN_1
 62
     2
  6
CONTINUOUS
 66
     1
 40
0.003000
 41
0.003000
  0
VERTEX
  8
PLAN_1
 62
     2
  6
CONTINUOUS
 10
-0.675862
 20
0.525906
  0
VERTEX
  8
PLAN_1
 62
     2
  6
CONTINUOUS
 10
-0.675862
 20
0.529075
  0
VERTEX
  8
PLAN_1
 62
     2
  6
CONTINUOUS
 10
-0.676768
 20
0.532244
  0
VERTEX
  8
PLAN_1
 62
     2
  6
CONTINUOUS
 10
-0.677673
 20
0.534961
  0
VERTEX
  8
PLAN_1
 62
     2
  6
CONTINUOUS
 10
-0.679484
 20
0.537224
  0
VERTEX
  8
PLAN_1
 62
     2
  6
CONTINUOUS
 10
-0.681291
 20
0.539488
  0
VERTEX
  8
PLAN_1
 62
     2
  6
CONTINUOUS
 10
-0.684008
 20
0.540846
  0
VERTEX
  8
PLAN_1
 62
     2
  6
CONTINUOUS
 10
-0.687177
 20
0.541752
  0
VERTEX
  8
PLAN_1
 62
     2
  6
CONTINUOUS
 10
-0.690799
 20
0.542205
  0
VERTEX
  8
PLAN_1
 62
     2
  6
CONTINUOUS
 10
-0.693969
 20
0.541752
  0
VERTEX
  8
PLAN_1
 62
     2
  6
CONTINUOUS
 10
-0.696685
 20
0.540846
  0
VERTEX
  8
PLAN_1
 62
     2
  6
CONTINUOUS
 10
-0.699402
 20
0.539488
  0
VERTEX
  8
PLAN_1
 62
     2
  6
CONTINUOUS
 10
-0.701665
 20
0.537224
  0
VERTEX
  8
PLAN_1
 62
     2
  6
CONTINUOUS
 10
-0.703476
 20
0.534961
  0
VERTEX
  8
PLAN_1
 62
     2
  6
CONTINUOUS
 10
-0.704835
 20
0.532244
  0
VERTEX
  8
PLAN_1
 62
     2
  6
CONTINUOUS
 10
-0.705740
 20
0.529075
  0
VERTEX
  8
PLAN_1
 62
     2
  6
CONTINUOUS
 10
-0.706193
 20
0.525906
  0
VERTEX
  8
PLAN_1
 62
     2
  6
CONTINUOUS
 10
-0.675862
 20
0.525906
  0
SEQEND
  8
0
  0
POLYLINE
  8
PLAN_1
 62
     2
  6
CONTINUOUS
 66
     1
 40
0.003000
 41
0.003000
  0
VERTEX
  8
PLAN_1
 62
     2
  6
CONTINUOUS
 10
-0.624248
 20
0.533602
  0
VERTEX
  8
PLAN_1
 62
     2
  6
CONTINUOUS
 10
-0.624701
 20
0.534961
  0
VERTEX
  8
PLAN_1
 62
     2
  6
CONTINUOUS
 10
-0.624701
 20
0.536319
  0
VERTEX
  8
PLAN_1
 62
     2
  6
CONTINUOUS
 10
-0.625606
 20
0.537677
  0
VERTEX
  8
PLAN_1
 62
     2
  6
CONTINUOUS
 10
-0.626512
 20
0.539035
  0
VERTEX
  8
PLAN_1
 62
     2
  6
CONTINUOUS
 10
-0.628323
 20
0.540394
  0
VERTEX
  8
PLAN_1
 62
     2
  6
CONTINUOUS
 10
-0.630587
 20
0.541752
  0
VERTEX
  8
PLAN_1
 62
     2
  6
CONTINUOUS
 10
-0.633303
 20
0.542205
  0
VERTEX
  8
PLAN_1
 62
     2
  6
CONTINUOUS
 10
-0.637378
 20
0.542657
  0
VERTEX
  8
PLAN_1
 62
     2
  6
CONTINUOUS
 10
-0.638736
 20
0.542657
  0
VERTEX
  8
PLAN_1
 62
     2
  6
CONTINUOUS
 10
-0.640094
 20
0.542205
  0
VERTEX
  8
PLAN_1
 62
     2
  6
CONTINUOUS
 10
-0.641906
 20
0.541752
  0
VERTEX
  8
PLAN_1
 62
     2
  6
CONTINUOUS
 10
-0.643717
 20
0.541299
  0
VERTEX
  8
PLAN_1
 62
     2
  6
CONTINUOUS
 10
-0.645528
 20
0.540394
  0
VERTEX
  8
PLAN_1
 62
     2
  6
CONTINUOUS
 10
-0.646886
 20
0.539035
  0
VERTEX
  8
PLAN_1
 62
     2
  6
CONTINUOUS
 10
-0.647791
 20
0.537224
  0
VERTEX
  8
PLAN_1
 62
     2
  6
CONTINUOUS
 10
-0.648244
 20
0.534961
  0
VERTEX
  8
PLAN_1
 62
     2
  6
CONTINUOUS
 10
-0.647791
 20
0.533150
  0
VERTEX
  8
PLAN_1
 62
     2
  6
CONTINUOUS
 10
-0.647339
 20
0.532244
  0
VERTEX
  8
PLAN_1
 62
     2
  6
CONTINUOUS
 10
-0.646886
 20
0.530886
  0
VERTEX
  8
PLAN_1
 62
     2
  6
CONTINUOUS
 10
-0.645980
 20
0.529980
  0
VERTEX
  8
PLAN_1
 62
     2
  6
CONTINUOUS
 10
-0.644622
 20
0.529528
  0
VERTEX
  8
PLAN_1
 62
     2
  6
CONTINUOUS
 10
-0.642811
 20
0.528622
  0
VERTEX
  8
PLAN_1
 62
     2
  6
CONTINUOUS
 10
-0.640547
 20
0.528169
  0
VERTEX
  8
PLAN_1
 62
     2
  6
CONTINUOUS
 10
-0.638283
 20
0.527717
  0
VERTEX
  8
PLAN_1
 62
     2
  6
CONTINUOUS
 10
-0.629228
 20
0.525453
  0
VERTEX
  8
PLAN_1
 62
     2
  6
CONTINUOUS
 10
-0.625154
 20
0.524094
  0
VERTEX
  8
PLAN_1
 62
     2
  6
CONTINUOUS
 10
-0.621984
 20
0.522736
  0
VERTEX
  8
PLAN_1
 62
     2
  6
CONTINUOUS
 10
-0.619268
 20
0.521378
  0
VERTEX
  8
PLAN_1
 62
     2
  6
CONTINUOUS
 10
-0.617004
 20
0.520020
  0
VERTEX
  8
PLAN_1
 62
     2
  6
CONTINUOUS
 10
-0.615646
 20
0.517756
  0
VERTEX
  8
PLAN_1
 62
     2
  6
CONTINUOUS
 10
-0.614740
 20
0.515945
  0
VERTEX
  8
PLAN_1
 62
     2
  6
CONTINUOUS
 10
-0.613835
 20
0.513681
  0
VERTEX
  8
PLAN_1
 62
     2
  6
CONTINUOUS
 10
-0.613835
 20
0.510965
  0
VERTEX
  8
PLAN_1
 62
     2
  6
CONTINUOUS
 10
-0.614287
 20
0.506890
  0
VERTEX
  8
PLAN_1
 62
     2
  6
CONTINUOUS
 10
-0.615193
 20
0.503268
  0
VERTEX
  8
PLAN_1
 62
     2
  6
CONTINUOUS
 10
-0.617457
 20
0.500098
  0
VERTEX
  8
PLAN_1
 62
     2
  6
CONTINUOUS
 10
-0.619720
 20
0.497835
  0
VERTEX
  8
PLAN_1
 62
     2
  6
CONTINUOUS
 10
-0.622890
 20
0.495571
  0
VERTEX
  8
PLAN_1
 62
     2
  6
CONTINUOUS
 10
-0.626965
 20
0.494213
  0
VERTEX
  8
PLAN_1
 62
     2
  6
CONTINUOUS
 10
-0.631039
 20
0.493307
  0
VERTEX
  8
PLAN_1
 62
     2
  6
CONTINUOUS
 10
-0.635114
 20
0.492854
  0
VERTEX
  8
PLAN_1
 62
     2
  6
CONTINUOUS
 10
-0.639189
 20
0.492854
  0
VERTEX
  8
PLAN_1
 62
     2
  6
CONTINUOUS
 10
-0.642358
 20
0.493307
  0
VERTEX
  8
PLAN_1
 62
     2
  6
CONTINUOUS
 10
-0.645528
 20
0.494213
  0
VERTEX
  8
PLAN_1
 62
     2
  6
CONTINUOUS
 10
-0.647791
 20
0.495118
  0
VERTEX
  8
PLAN_1
 62
     2
  6
CONTINUOUS
 10
-0.650055
 20
0.496024
  0
VERTEX
  8
PLAN_1
 62
     2
  6
CONTINUOUS
 10
-0.652319
 20
0.497382
  0
VERTEX
  8
PLAN_1
 62
     2
  6
CONTINUOUS
 10
-0.653677
 20
0.498740
  0
VERTEX
  8
PLAN_1
 62
     2
  6
CONTINUOUS
 10
-0.655035
 20
0.500098
  0
VERTEX
  8
PLAN_1
 62
     2
  6
CONTINUOUS
 10
-0.656846
 20
0.502815
  0
VERTEX
  8
PLAN_1
 62
     2
  6
CONTINUOUS
 10
-0.657752
 20
0.505984
  0
VERTEX
  8
PLAN_1
 62
     2
  6
CONTINUOUS
 10
-0.658657
 20
0.509154
  0
VERTEX
  8
PLAN_1
 62
     2
  6
CONTINUOUS
 10
-0.658657
 20
0.511870
  0
VERTEX
  8
PLAN_1
 62
     2
  6
CONTINUOUS
 10
-0.650055
 20
0.511870
  0
VERTEX
  8
PLAN_1
 62
     2
  6
CONTINUOUS
 10
-0.649602
 20
0.510059
  0
VERTEX
  8
PLAN_1
 62
     2
  6
CONTINUOUS
 10
-0.649150
 20
0.508248
  0
VERTEX
  8
PLAN_1
 62
     2
  6
CONTINUOUS
 10
-0.648697
 20
0.506437
  0
VERTEX
  8
PLAN_1
 62
     2
  6
CONTINUOUS
 10
-0.647339
 20
0.504626
  0
VERTEX
  8
PLAN_1
 62
     2
  6
CONTINUOUS
 10
-0.645528
 20
0.503268
  0
VERTEX
  8
PLAN_1
 62
     2
  6
CONTINUOUS
 10
-0.643264
 20
0.501909
  0
VERTEX
  8
PLAN_1
 62
     2
  6
CONTINUOUS
 10
-0.639642
 20
0.501004
  0
VERTEX
  8
PLAN_1
 62
     2
  6
CONTINUOUS
 10
-0.635567
 20
0.501004
  0
VERTEX
  8
PLAN_1
 62
     2
  6
CONTINUOUS
 10
-0.632850
 20
0.501004
  0
VERTEX
  8
PLAN_1
 62
     2
  6
CONTINUOUS
 10
-0.630587
 20
0.501457
  0
VERTEX
  8
PLAN_1
 62
     2
  6
CONTINUOUS
 10
-0.628776
 20
0.501909
  0
VERTEX
  8
PLAN_1
 62
     2
  6
CONTINUOUS
 10
-0.626512
 20
0.502815
  0
VERTEX
  8
PLAN_1
 62
     2
  6
CONTINUOUS
 10
-0.625154
 20
0.504173
  0
VERTEX
  8
PLAN_1
 62
     2
  6
CONTINUOUS
 10
-0.623795
 20
0.505531
  0
VERTEX
  8
PLAN_1
 62
     2
  6
CONTINUOUS
 10
-0.623343
 20
0.507343
  0
VERTEX
  8
PLAN_1
 62
     2
  6
CONTINUOUS
 10
-0.622890
 20
0.509606
  0
VERTEX
  8
PLAN_1
 62
     2
  6
CONTINUOUS
 10
-0.622890
 20
0.510965
  0
VERTEX
  8
PLAN_1
 62
     2
  6
CONTINUOUS
 10
-0.623343
 20
0.512323
  0
VERTEX
  8
PLAN_1
 62
     2
  6
CONTINUOUS
 10
-0.624248
 20
0.513228
  0
VERTEX
  8
PLAN_1
 62
     2
  6
CONTINUOUS
 10
-0.625606
 20
0.514134
  0
VERTEX
  8
PLAN_1
 62
     2
  6
CONTINUOUS
 10
-0.626965
 20
0.515039
  0
VERTEX
  8
PLAN_1
 62
     2
  6
CONTINUOUS
 10
-0.628776
 20
0.515945
  0
VERTEX
  8
PLAN_1
 62
     2
  6
CONTINUOUS
 10
-0.631039
 20
0.516398
  0
VERTEX
  8
PLAN_1
 62
     2
  6
CONTINUOUS
 10
-0.633756
 20
0.517303
  0
VERTEX
  8
PLAN_1
 62
     2
  6
CONTINUOUS
 10
-0.644169
 20
0.520020
  0
VERTEX
  8
PLAN_1
 62
     2
  6
CONTINUOUS
 10
-0.646886
 20
0.520472
  0
VERTEX
  8
PLAN_1
 62
     2
  6
CONTINUOUS
 10
-0.649602
 20
0.521831
  0
VERTEX
  8
PLAN_1
 62
     2
  6
CONTINUOUS
 10
-0.651866
 20
0.522736
  0
VERTEX
  8
PLAN_1
 62
     2
  6
CONTINUOUS
 10
-0.653677
 20
0.524547
  0
VERTEX
  8
PLAN_1
 62
     2
  6
CONTINUOUS
 10
-0.655035
 20
0.525906
  0
VERTEX
  8
PLAN_1
 62
     2
  6
CONTINUOUS
 10
-0.655941
 20
0.528169
  0
VERTEX
  8
PLAN_1
 62
     2
  6
CONTINUOUS
 10
-0.656846
 20
0.530433
  0
VERTEX
  8
PLAN_1
 62
     2
  6
CONTINUOUS
 10
-0.656846
 20
0.533150
  0
VERTEX
  8
PLAN_1
 62
     2
  6
CONTINUOUS
 10
-0.656846
 20
0.535413
  0
VERTEX
  8
PLAN_1
 62
     2
  6
CONTINUOUS
 10
-0.656394
 20
0.537224
  0
VERTEX
  8
PLAN_1
 62
     2
  6
CONTINUOUS
 10
-0.655941
 20
0.539035
  0
VERTEX
  8
PLAN_1
 62
     2
  6
CONTINUOUS
 10
-0.655035
 20
0.540846
  0
VERTEX
  8
PLAN_1
 62
     2
  6
CONTINUOUS
 10
-0.653224
 20
0.544016
  0
VERTEX
  8
PLAN_1
 62
     2
  6
CONTINUOUS
 10
-0.650508
 20
0.546280
  0
VERTEX
  8
PLAN_1
 62
     2
  6
CONTINUOUS
 10
-0.647791
 20
0.548091
  0
VERTEX
  8
PLAN_1
 62
     2
  6
CONTINUOUS
 10
-0.644169
 20
0.549449
  0
VERTEX
  8
PLAN_1
 62
     2
  6
CONTINUOUS
 10
-0.640094
 20
0.550354
  0
VERTEX
  8
PLAN_1
 62
     2
  6
CONTINUOUS
 10
-0.636472
 20
0.550354
  0
VERTEX
  8
PLAN_1
 62
     2
  6
CONTINUOUS
 10
-0.632850
 20
0.550354
  0
VERTEX
  8
PLAN_1
 62
     2
  6
CONTINUOUS
 10
-0.629681
 20
0.549902
  0
VERTEX
  8
PLAN_1
 62
     2
  6
CONTINUOUS
 10
-0.627417
 20
0.548996
  0
VERTEX
  8
PLAN_1
 62
     2
  6
CONTINUOUS
 10
-0.624701
 20
0.548091
  0
VERTEX
  8
PLAN_1
 62
     2
  6
CONTINUOUS
 10
-0.622890
 20
0.547185
  0
VERTEX
  8
PLAN_1
 62
     2
  6
CONTINUOUS
 10
-0.621079
 20
0.545827
  0
VERTEX
  8
PLAN_1
 62
     2
  6
CONTINUOUS
 10
-0.619720
 20
0.544469
  0
VERTEX
  8
PLAN_1
 62
     2
  6
CONTINUOUS
 10
-0.618815
 20
0.543110
  0
VERTEX
  8
PLAN_1
 62
     2
  6
CONTINUOUS
 10
-0.617004
 20
0.539941
  0
VERTEX
  8
PLAN_1
 62
     2
  6
CONTINUOUS
 10
-0.616098
 20
0.537224
  0
VERTEX
  8
PLAN_1
 62
     2
  6
CONTINUOUS
 10
-0.615646
 20
0.534961
  0
VERTEX
  8
PLAN_1
 62
     2
  6
CONTINUOUS
 10
-0.615646
 20
0.533602
  0
VERTEX
  8
PLAN_1
 62
     2
  6
CONTINUOUS
 10
-0.624248
 20
0.533602
  0
SEQEND
  8
0
  0
POLYLINE
  8
PLAN_1
 62
     2
  6
CONTINUOUS
 66
     1
 40
0.003000
 41
0.003000
  0
VERTEX
  8
PLAN_1
 62
     2
  6
CONTINUOUS
 10
-0.572181
 20
0.533602
  0
VERTEX
  8
PLAN_1
 62
     2
  6
CONTINUOUS
 10
-0.572634
 20
0.534961
  0
VERTEX
  8
PLAN_1
 62
     2
  6
CONTINUOUS
 10
-0.572634
 20
0.536319
  0
VERTEX
  8
PLAN_1
 62
     2
  6
CONTINUOUS
 10
-0.573539
 20
0.537677
  0
VERTEX
  8
PLAN_1
 62
     2
  6
CONTINUOUS
 10
-0.574445
 20
0.539035
  0
VERTEX
  8
PLAN_1
 62
     2
  6
CONTINUOUS
 10
-0.576256
 20
0.540394
  0
VERTEX
  8
PLAN_1
 62
     2
  6
CONTINUOUS
 10
-0.578520
 20
0.541752
  0
VERTEX
  8
PLAN_1
 62
     2
  6
CONTINUOUS
 10
-0.581236
 20
0.542205
  0
VERTEX
  8
PLAN_1
 62
     2
  6
CONTINUOUS
 10
-0.585311
 20
0.542657
  0
VERTEX
  8
PLAN_1
 62
     2
  6
CONTINUOUS
 10
-0.586669
 20
0.542657
  0
VERTEX
  8
PLAN_1
 62
     2
  6
CONTINUOUS
 10
-0.588028
 20
0.542205
  0
VERTEX
  8
PLAN_1
 62
     2
  6
CONTINUOUS
 10
-0.589839
 20
0.541752
  0
VERTEX
  8
PLAN_1
 62
     2
  6
CONTINUOUS
 10
-0.591650
 20
0.541299
  0
VERTEX
  8
PLAN_1
 62
     2
  6
CONTINUOUS
 10
-0.593461
 20
0.540394
  0
VERTEX
  8
PLAN_1
 62
     2
  6
CONTINUOUS
 10
-0.594819
 20
0.539035
  0
VERTEX
  8
PLAN_1
 62
     2
  6
CONTINUOUS
 10
-0.595724
 20
0.537224
  0
VERTEX
  8
PLAN_1
 62
     2
  6
CONTINUOUS
 10
-0.596177
 20
0.534961
  0
VERTEX
  8
PLAN_1
 62
     2
  6
CONTINUOUS
 10
-0.595724
 20
0.533150
  0
VERTEX
  8
PLAN_1
 62
     2
  6
CONTINUOUS
 10
-0.595272
 20
0.532244
  0
VERTEX
  8
PLAN_1
 62
     2
  6
CONTINUOUS
 10
-0.594819
 20
0.530886
  0
VERTEX
  8
PLAN_1
 62
     2
  6
CONTINUOUS
 10
-0.593913
 20
0.529980
  0
VERTEX
  8
PLAN_1
 62
     2
  6
CONTINUOUS
 10
-0.592555
 20
0.529528
  0
VERTEX
  8
PLAN_1
 62
     2
  6
CONTINUOUS
 10
-0.590744
 20
0.528622
  0
VERTEX
  8
PLAN_1
 62
     2
  6
CONTINUOUS
 10
-0.588480
 20
0.528169
  0
VERTEX
  8
PLAN_1
 62
     2
  6
CONTINUOUS
 10
-0.586217
 20
0.527717
  0
VERTEX
  8
PLAN_1
 62
     2
  6
CONTINUOUS
 10
-0.577161
 20
0.525453
  0
VERTEX
  8
PLAN_1
 62
     2
  6
CONTINUOUS
 10
-0.573087
 20
0.524094
  0
VERTEX
  8
PLAN_1
 62
     2
  6
CONTINUOUS
 10
-0.569917
 20
0.522736
  0
VERTEX
  8
PLAN_1
 62
     2
  6
CONTINUOUS
 10
-0.567201
 20
0.521378
  0
VERTEX
  8
PLAN_1
 62
     2
  6
CONTINUOUS
 10
-0.564937
 20
0.520020
  0
VERTEX
  8
PLAN_1
 62
     2
  6
CONTINUOUS
 10
-0.563579
 20
0.517756
  0
VERTEX
  8
PLAN_1
 62
     2
  6
CONTINUOUS
 10
-0.562673
 20
0.515945
  0
VERTEX
  8
PLAN_1
 62
     2
  6
CONTINUOUS
 10
-0.561768
 20
0.513681
  0
VERTEX
  8
PLAN_1
 62
     2
  6
CONTINUOUS
 10
-0.561768
 20
0.510965
  0
VERTEX
  8
PLAN_1
 62
     2
  6
CONTINUOUS
 10
-0.562220
 20
0.506890
  0
VERTEX
  8
PLAN_1
 62
     2
  6
CONTINUOUS
 10
-0.563126
 20
0.503268
  0
VERTEX
  8
PLAN_1
 62
     2
  6
CONTINUOUS
 10
-0.565390
 20
0.500098
  0
VERTEX
  8
PLAN_1
 62
     2
  6
CONTINUOUS
 10
-0.567654
 20
0.497835
  0
VERTEX
  8
PLAN_1
 62
     2
  6
CONTINUOUS
 10
-0.570823
 20
0.495571
  0
VERTEX
  8
PLAN_1
 62
     2
  6
CONTINUOUS
 10
-0.574898
 20
0.494213
  0
VERTEX
  8
PLAN_1
 62
     2
  6
CONTINUOUS
 10
-0.578972
 20
0.493307
  0
VERTEX
  8
PLAN_1
 62
     2
  6
CONTINUOUS
 10
-0.583047
 20
0.492854
  0
VERTEX
  8
PLAN_1
 62
     2
  6
CONTINUOUS
 10
-0.587122
 20
0.492854
  0
VERTEX
  8
PLAN_1
 62
     2
  6
CONTINUOUS
 10
-0.590291
 20
0.493307
  0
VERTEX
  8
PLAN_1
 62
     2
  6
CONTINUOUS
 10
-0.593461
 20
0.494213
  0
VERTEX
  8
PLAN_1
 62
     2
  6
CONTINUOUS
 10
-0.595724
 20
0.495118
  0
VERTEX
  8
PLAN_1
 62
     2
  6
CONTINUOUS
 10
-0.597988
 20
0.496024
  0
VERTEX
  8
PLAN_1
 62
     2
  6
CONTINUOUS
 10
-0.600252
 20
0.497382
  0
VERTEX
  8
PLAN_1
 62
     2
  6
CONTINUOUS
 10
-0.601610
 20
0.498740
  0
VERTEX
  8
PLAN_1
 62
     2
  6
CONTINUOUS
 10
-0.602969
 20
0.500098
  0
VERTEX
  8
PLAN_1
 62
     2
  6
CONTINUOUS
 10
-0.604780
 20
0.502815
  0
VERTEX
  8
PLAN_1
 62
     2
  6
CONTINUOUS
 10
-0.605685
 20
0.505984
  0
VERTEX
  8
PLAN_1
 62
     2
  6
CONTINUOUS
 10
-0.606591
 20
0.509154
  0
VERTEX
  8
PLAN_1
 62
     2
  6
CONTINUOUS
 10
-0.606591
 20
0.511870
  0
VERTEX
  8
PLAN_1
 62
     2
  6
CONTINUOUS
 10
-0.597988
 20
0.511870
  0
VERTEX
  8
PLAN_1
 62
     2
  6
CONTINUOUS
 10
-0.597535
 20
0.510059
  0
VERTEX
  8
PLAN_1
 62
     2
  6
CONTINUOUS
 10
-0.597083
 20
0.508248
  0
VERTEX
  8
PLAN_1
 62
     2
  6
CONTINUOUS
 10
-0.596630
 20
0.506437
  0
VERTEX
  8
PLAN_1
 62
     2
  6
CONTINUOUS
 10
-0.595272
 20
0.504626
  0
VERTEX
  8
PLAN_1
 62
     2
  6
CONTINUOUS
 10
-0.593461
 20
0.503268
  0
VERTEX
  8
PLAN_1
 62
     2
  6
CONTINUOUS
 10
-0.591197
 20
0.501909
  0
VERTEX
  8
PLAN_1
 62
     2
  6
CONTINUOUS
 10
-0.587575
 20
0.501004
  0
VERTEX
  8
PLAN_1
 62
     2
  6
CONTINUOUS
 10
-0.583500
 20
0.501004
  0
VERTEX
  8
PLAN_1
 62
     2
  6
CONTINUOUS
 10
-0.580783
 20
0.501004
  0
VERTEX
  8
PLAN_1
 62
     2
  6
CONTINUOUS
 10
-0.578520
 20
0.501457
  0
VERTEX
  8
PLAN_1
 62
     2
  6
CONTINUOUS
 10
-0.576709
 20
0.501909
  0
VERTEX
  8
PLAN_1
 62
     2
  6
CONTINUOUS
 10
-0.574445
 20
0.502815
  0
VERTEX
  8
PLAN_1
 62
     2
  6
CONTINUOUS
 10
-0.573087
 20
0.504173
  0
VERTEX
  8
PLAN_1
 62
     2
  6
CONTINUOUS
 10
-0.571728
 20
0.505531
  0
VERTEX
  8
PLAN_1
 62
     2
  6
CONTINUOUS
 10
-0.571276
 20
0.507343
  0
VERTEX
  8
PLAN_1
 62
     2
  6
CONTINUOUS
 10
-0.570823
 20
0.509606
  0
VERTEX
  8
PLAN_1
 62
     2
  6
CONTINUOUS
 10
-0.570823
 20
0.510965
  0
VERTEX
  8
PLAN_1
 62
     2
  6
CONTINUOUS
 10
-0.571276
 20
0.512323
  0
VERTEX
  8
PLAN_1
 62
     2
  6
CONTINUOUS
 10
-0.572181
 20
0.513228
  0
VERTEX
  8
PLAN_1
 62
     2
  6
CONTINUOUS
 10
-0.573539
 20
0.514134
  0
VERTEX
  8
PLAN_1
 62
     2
  6
CONTINUOUS
 10
-0.574898
 20
0.515039
  0
VERTEX
  8
PLAN_1
 62
     2
  6
CONTINUOUS
 10
-0.576709
 20
0.515945
  0
VERTEX
  8
PLAN_1
 62
     2
  6
CONTINUOUS
 10
-0.578972
 20
0.516398
  0
VERTEX
  8
PLAN_1
 62
     2
  6
CONTINUOUS
 10
-0.581689
 20
0.517303
  0
VERTEX
  8
PLAN_1
 62
     2
  6
CONTINUOUS
 10
-0.592102
 20
0.520020
  0
VERTEX
  8
PLAN_1
 62
     2
  6
CONTINUOUS
 10
-0.594819
 20
0.520472
  0
VERTEX
  8
PLAN_1
 62
     2
  6
CONTINUOUS
 10
-0.597535
 20
0.521831
  0
VERTEX
  8
PLAN_1
 62
     2
  6
CONTINUOUS
 10
-0.599799
 20
0.522736
  0
VERTEX
  8
PLAN_1
 62
     2
  6
CONTINUOUS
 10
-0.601610
 20
0.524547
  0
VERTEX
  8
PLAN_1
 62
     2
  6
CONTINUOUS
 10
-0.602969
 20
0.525906
  0
VERTEX
  8
PLAN_1
 62
     2
  6
CONTINUOUS
 10
-0.603874
 20
0.528169
  0
VERTEX
  8
PLAN_1
 62
     2
  6
CONTINUOUS
 10
-0.604780
 20
0.530433
  0
VERTEX
  8
PLAN_1
 62
     2
  6
CONTINUOUS
 10
-0.604780
 20
0.533150
  0
VERTEX
  8
PLAN_1
 62
     2
  6
CONTINUOUS
 10
-0.604780
 20
0.535413
  0
VERTEX
  8
PLAN_1
 62
     2
  6
CONTINUOUS
 10
-0.604327
 20
0.537224
  0
VERTEX
  8
PLAN_1
 62
     2
  6
CONTINUOUS
 10
-0.603874
 20
0.539035
  0
VERTEX
  8
PLAN_1
 62
     2
  6
CONTINUOUS
 10
-0.602969
 20
0.540846
  0
VERTEX
  8
PLAN_1
 62
     2
  6
CONTINUOUS
 10
-0.601157
 20
0.544016
  0
VERTEX
  8
PLAN_1
 62
     2
  6
CONTINUOUS
 10
-0.598441
 20
0.546280
  0
VERTEX
  8
PLAN_1
 62
     2
  6
CONTINUOUS
 10
-0.595724
 20
0.548091
  0
VERTEX
  8
PLAN_1
 62
     2
  6
CONTINUOUS
 10
-0.592102
 20
0.549449
  0
VERTEX
  8
PLAN_1
 62
     2
  6
CONTINUOUS
 10
-0.588028
 20
0.550354
  0
VERTEX
  8
PLAN_1
 62
     2
  6
CONTINUOUS
 10
-0.584406
 20
0.550354
  0
VERTEX
  8
PLAN_1
 62
     2
  6
CONTINUOUS
 10
-0.580783
 20
0.550354
  0
VERTEX
  8
PLAN_1
 62
     2
  6
CONTINUOUS
 10
-0.577614
 20
0.549902
  0
VERTEX
  8
PLAN_1
 62
     2
  6
CONTINUOUS
 10
-0.575350
 20
0.548996
  0
VERTEX
  8
PLAN_1
 62
     2
  6
CONTINUOUS
 10
-0.572634
 20
0.548091
  0
VERTEX
  8
PLAN_1
 62
     2
  6
CONTINUOUS
 10
-0.570823
 20
0.547185
  0
VERTEX
  8
PLAN_1
 62
     2
  6
CONTINUOUS
 10
-0.569012
 20
0.545827
  0
VERTEX
  8
PLAN_1
 62
     2
  6
CONTINUOUS
 10
-0.567654
 20
0.544469
  0
VERTEX
  8
PLAN_1
 62
     2
  6
CONTINUOUS
 10
-0.566748
 20
0.543110
  0
VERTEX
  8
PLAN_1
 62
     2
  6
CONTINUOUS
 10
-0.564937
 20
0.539941
  0
VERTEX
  8
PLAN_1
 62
     2
  6
CONTINUOUS
 10
-0.564031
 20
0.537224
  0
VERTEX
  8
PLAN_1
 62
     2
  6
CONTINUOUS
 10
-0.563579
 20
0.534961
  0
VERTEX
  8
PLAN_1
 62
     2
  6
CONTINUOUS
 10
-0.563579
 20
0.533602
  0
VERTEX
  8
PLAN_1
 62
     2
  6
CONTINUOUS
 10
-0.572181
 20
0.533602
  0
SEQEND
  8
0
  0
POLYLINE
  8
PLAN_1
 62
     2
  6
CONTINUOUS
 66
     1
 40
0.003000
 41
0.003000
  0
VERTEX
  8
PLAN_1
 62
     2
  6
CONTINUOUS
 10
-0.505173
 20
0.511417
  0
VERTEX
  8
PLAN_1
 62
     2
  6
CONTINUOUS
 10
-0.505173
 20
0.510512
  0
VERTEX
  8
PLAN_1
 62
     2
  6
CONTINUOUS
 10
-0.505626
 20
0.508701
  0
VERTEX
  8
PLAN_1
 62
     2
  6
CONTINUOUS
 10
-0.506531
 20
0.506890
  0
VERTEX
  8
PLAN_1
 62
     2
  6
CONTINUOUS
 10
-0.507437
 20
0.504626
  0
VERTEX
  8
PLAN_1
 62
     2
  6
CONTINUOUS
 10
-0.508795
 20
0.502815
  0
VERTEX
  8
PLAN_1
 62
     2
  6
CONTINUOUS
 10
-0.510154
 20
0.500551
  0
VERTEX
  8
PLAN_1
 62
     2
  6
CONTINUOUS
 10
-0.512417
 20
0.498287
  0
VERTEX
  8
PLAN_1
 62
     2
  6
CONTINUOUS
 10
-0.514681
 20
0.496476
  0
VERTEX
  8
PLAN_1
 62
     2
  6
CONTINUOUS
 10
-0.515587
 20
0.496024
  0
VERTEX
  8
PLAN_1
 62
     2
  6
CONTINUOUS
 10
-0.516945
 20
0.495571
  0
VERTEX
  8
PLAN_1
 62
     2
  6
CONTINUOUS
 10
-0.518303
 20
0.494665
  0
VERTEX
  8
PLAN_1
 62
     2
  6
CONTINUOUS
 10
-0.519661
 20
0.494213
  0
VERTEX
  8
PLAN_1
 62
     2
  6
CONTINUOUS
 10
-0.521472
 20
0.493760
  0
VERTEX
  8
PLAN_1
 62
     2
  6
CONTINUOUS
 10
-0.523736
 20
0.493307
  0
VERTEX
  8
PLAN_1
 62
     2
  6
CONTINUOUS
 10
-0.526453
 20
0.492854
  0
VERTEX
  8
PLAN_1
 62
     2
  6
CONTINUOUS
 10
-0.529622
 20
0.492854
  0
VERTEX
  8
PLAN_1
 62
     2
  6
CONTINUOUS
 10
-0.532339
 20
0.492854
  0
VERTEX
  8
PLAN_1
 62
     2
  6
CONTINUOUS
 10
-0.535055
 20
0.493307
  0
VERTEX
  8
PLAN_1
 62
     2
  6
CONTINUOUS
 10
-0.537319
 20
0.494213
  0
VERTEX
  8
PLAN_1
 62
     2
  6
CONTINUOUS
 10
-0.539583
 20
0.495118
  0
VERTEX
  8
PLAN_1
 62
     2
  6
CONTINUOUS
 10
-0.541846
 20
0.496024
  0
VERTEX
  8
PLAN_1
 62
     2
  6
CONTINUOUS
 10
-0.543657
 20
0.497382
  0
VERTEX
  8
PLAN_1
 62
     2
  6
CONTINUOUS
 10
-0.545469
 20
0.498740
  0
VERTEX
  8
PLAN_1
 62
     2
  6
CONTINUOUS
 10
-0.547280
 20
0.500551
  0
VERTEX
  8
PLAN_1
 62
     2
  6
CONTINUOUS
 10
-0.548638
 20
0.502362
  0
VERTEX
  8
PLAN_1
 62
     2
  6
CONTINUOUS
 10
-0.549996
 20
0.504626
  0
VERTEX
  8
PLAN_1
 62
     2
  6
CONTINUOUS
 10
-0.551354
 20
0.506890
  0
VERTEX
  8
PLAN_1
 62
     2
  6
CONTINUOUS
 10
-0.552260
 20
0.509154
  0
VERTEX
  8
PLAN_1
 62
     2
  6
CONTINUOUS
 10
-0.553165
 20
0.514587
  0
VERTEX
  8
PLAN_1
 62
     2
  6
CONTINUOUS
 10
-0.553618
 20
0.520020
  0
VERTEX
  8
PLAN_1
 62
     2
  6
CONTINUOUS
 10
-0.553165
 20
0.526358
  0
VERTEX
  8
PLAN_1
 62
     2
  6
CONTINUOUS
 10
-0.552260
 20
0.531791
  0
VERTEX
  8
PLAN_1
 62
     2
  6
CONTINUOUS
 10
-0.551354
 20
0.534508
  0
VERTEX
  8
PLAN_1
 62
     2
  6
CONTINUOUS
 10
-0.550449
 20
0.537224
  0
VERTEX
  8
PLAN_1
 62
     2
  6
CONTINUOUS
 10
-0.549091
 20
0.539488
  0
VERTEX
  8
PLAN_1
 62
     2
  6
CONTINUOUS
 10
-0.547280
 20
0.541752
  0
VERTEX
  8
PLAN_1
 62
     2
  6
CONTINUOUS
 10
-0.545921
 20
0.543563
  0
VERTEX
  8
PLAN_1
 62
     2
  6
CONTINUOUS
 10
-0.543657
 20
0.545374
  0
VERTEX
  8
PLAN_1
 62
     2
  6
CONTINUOUS
 10
-0.541846
 20
0.546732
  0
VERTEX
  8
PLAN_1
 62
     2
  6
CONTINUOUS
 10
-0.539130
 20
0.548091
  0
VERTEX
  8
PLAN_1
 62
     2
  6
CONTINUOUS
 10
-0.536866
 20
0.548996
  0
VERTEX
  8
PLAN_1
 62
     2
  6
CONTINUOUS
 10
-0.533697
 20
0.549902
  0
VERTEX
  8
PLAN_1
 62
     2
  6
CONTINUOUS
 10
-0.530980
 20
0.550354
  0
VERTEX
  8
PLAN_1
 62
     2
  6
CONTINUOUS
 10
-0.527811
 20
0.550354
  0
VERTEX
  8
PLAN_1
 62
     2
  6
CONTINUOUS
 10
-0.524642
 20
0.550354
  0
VERTEX
  8
PLAN_1
 62
     2
  6
CONTINUOUS
 10
-0.521925
 20
0.549902
  0
VERTEX
  8
PLAN_1
 62
     2
  6
CONTINUOUS
 10
-0.519661
 20
0.548996
  0
VERTEX
  8
PLAN_1
 62
     2
  6
CONTINUOUS
 10
-0.517398
 20
0.548091
  0
VERTEX
  8
PLAN_1
 62
     2
  6
CONTINUOUS
 10
-0.515134
 20
0.546732
  0
VERTEX
  8
PLAN_1
 62
     2
  6
CONTINUOUS
 10
-0.513323
 20
0.545374
  0
VERTEX
  8
PLAN_1
 62
     2
  6
CONTINUOUS
 10
-0.511512
 20
0.543563
  0
VERTEX
  8
PLAN_1
 62
     2
  6
CONTINUOUS
 10
-0.510154
 20
0.541752
  0
VERTEX
  8
PLAN_1
 62
     2
  6
CONTINUOUS
 10
-0.508795
 20
0.539488
  0
VERTEX
  8
PLAN_1
 62
     2
  6
CONTINUOUS
 10
-0.507437
 20
0.537224
  0
VERTEX
  8
PLAN_1
 62
     2
  6
CONTINUOUS
 10
-0.506531
 20
0.534508
  0
VERTEX
  8
PLAN_1
 62
     2
  6
CONTINUOUS
 10
-0.505626
 20
0.531791
  0
VERTEX
  8
PLAN_1
 62
     2
  6
CONTINUOUS
 10
-0.504720
 20
0.525453
  0
VERTEX
  8
PLAN_1
 62
     2
  6
CONTINUOUS
 10
-0.504268
 20
0.518661
  0
VERTEX
  8
PLAN_1
 62
     2
  6
CONTINUOUS
 10
-0.544110
 20
0.518661
  0
VERTEX
  8
PLAN_1
 62
     2
  6
CONTINUOUS
 10
-0.543657
 20
0.514587
  0
VERTEX
  8
PLAN_1
 62
     2
  6
CONTINUOUS
 10
-0.542752
 20
0.510965
  0
VERTEX
  8
PLAN_1
 62
     2
  6
CONTINUOUS
 10
-0.541846
 20
0.508248
  0
VERTEX
  8
PLAN_1
 62
     2
  6
CONTINUOUS
 10
-0.540035
 20
0.505531
  0
VERTEX
  8
PLAN_1
 62
     2
  6
CONTINUOUS
 10
-0.537772
 20
0.503268
  0
VERTEX
  8
PLAN_1
 62
     2
  6
CONTINUOUS
 10
-0.535055
 20
0.501909
  0
VERTEX
  8
PLAN_1
 62
     2
  6
CONTINUOUS
 10
-0.531886
 20
0.501004
  0
VERTEX
  8
PLAN_1
 62
     2
  6
CONTINUOUS
 10
-0.528264
 20
0.501004
  0
VERTEX
  8
PLAN_1
 62
     2
  6
CONTINUOUS
 10
-0.525094
 20
0.501004
  0
VERTEX
  8
PLAN_1
 62
     2
  6
CONTINUOUS
 10
-0.522378
 20
0.501909
  0
VERTEX
  8
PLAN_1
 62
     2
  6
CONTINUOUS
 10
-0.520114
 20
0.503268
  0
VERTEX
  8
PLAN_1
 62
     2
  6
CONTINUOUS
 10
-0.517850
 20
0.504626
  0
VERTEX
  8
PLAN_1
 62
     2
  6
CONTINUOUS
 10
-0.516492
 20
0.506437
  0
VERTEX
  8
PLAN_1
 62
     2
  6
CONTINUOUS
 10
-0.515134
 20
0.508248
  0
VERTEX
  8
PLAN_1
 62
     2
  6
CONTINUOUS
 10
-0.514228
 20
0.510059
  0
VERTEX
  8
PLAN_1
 62
     2
  6
CONTINUOUS
 10
-0.514228
 20
0.511417
  0
VERTEX
  8
PLAN_1
 62
     2
  6
CONTINUOUS
 10
-0.505173
 20
0.511417
  0
SEQEND
  8
0
  0
POLYLINE
  8
PLAN_1
 62
     2
  6
CONTINUOUS
 66
     1
 40
0.003000
 41
0.003000
  0
VERTEX
  8
PLAN_1
 62
     2
  6
CONTINUOUS
 10
-0.513776
 20
0.525906
  0
VERTEX
  8
PLAN_1
 62
     2
  6
CONTINUOUS
 10
-0.514228
 20
0.529075
  0
VERTEX
  8
PLAN_1
 62
     2
  6
CONTINUOUS
 10
-0.514681
 20
0.532244
  0
VERTEX
  8
PLAN_1
 62
     2
  6
CONTINUOUS
 10
-0.515587
 20
0.534961
  0
VERTEX
  8
PLAN_1
 62
     2
  6
CONTINUOUS
 10
-0.517398
 20
0.537224
  0
VERTEX
  8
PLAN_1
 62
     2
  6
CONTINUOUS
 10
-0.519209
 20
0.539488
  0
VERTEX
  8
PLAN_1
 62
     2
  6
CONTINUOUS
 10
-0.521925
 20
0.540846
  0
VERTEX
  8
PLAN_1
 62
     2
  6
CONTINUOUS
 10
-0.525094
 20
0.541752
  0
VERTEX
  8
PLAN_1
 62
     2
  6
CONTINUOUS
 10
-0.528717
 20
0.542205
  0
VERTEX
  8
PLAN_1
 62
     2
  6
CONTINUOUS
 10
-0.531886
 20
0.541752
  0
VERTEX
  8
PLAN_1
 62
     2
  6
CONTINUOUS
 10
-0.534602
 20
0.540846
  0
VERTEX
  8
PLAN_1
 62
     2
  6
CONTINUOUS
 10
-0.537319
 20
0.539488
  0
VERTEX
  8
PLAN_1
 62
     2
  6
CONTINUOUS
 10
-0.539583
 20
0.537224
  0
VERTEX
  8
PLAN_1
 62
     2
  6
CONTINUOUS
 10
-0.541394
 20
0.534961
  0
VERTEX
  8
PLAN_1
 62
     2
  6
CONTINUOUS
 10
-0.542752
 20
0.532244
  0
VERTEX
  8
PLAN_1
 62
     2
  6
CONTINUOUS
 10
-0.543657
 20
0.529075
  0
VERTEX
  8
PLAN_1
 62
     2
  6
CONTINUOUS
 10
-0.544110
 20
0.525906
  0
VERTEX
  8
PLAN_1
 62
     2
  6
CONTINUOUS
 10
-0.513776
 20
0.525906
  0
SEQEND
  8
0
  0
SOLID
  8
PLAN_1
 62
     2
 10
-0.469858
 20
0.518661
 11
-0.495213
 21
0.518661
 12
-0.469858
 22
0.528169
 13
-0.495213
 23
0.528169
  0
POLYLINE
  8
PLAN_1
 62
     2
  6
CONTINUOUS
 66
     1
 40
0.003000
 41
0.003000
  0
VERTEX
  8
PLAN_1
 62
     2
  6
CONTINUOUS
 10
-0.469858
 20
0.518661
  0
VERTEX
  8
PLAN_1
 62
     2
  6
CONTINUOUS
 10
-0.495213
 20
0.518661
  0
VERTEX
  8
PLAN_1
 62
     2
  6
CONTINUOUS
 10
-0.495213
 20
0.528169
  0
VERTEX
  8
PLAN_1
 62
     2
  6
CONTINUOUS
 10
-0.469858
 20
0.528169
  0
VERTEX
  8
PLAN_1
 62
     2
  6
CONTINUOUS
 10
-0.469858
 20
0.518661
  0
SEQEND
  8
0
  0
SOLID
  8
PLAN_1
 62
     2
 10
-0.434091
 20
0.556240
 11
-0.440882
 21
0.556240
 12
-0.420508
 22
0.570728
 13
-0.431827
 23
0.570728
  0
POLYLINE
  8
PLAN_1
 62
     2
  6
CONTINUOUS
 66
     1
 40
0.003000
 41
0.003000
  0
VERTEX
  8
PLAN_1
 62
     2
  6
CONTINUOUS
 10
-0.434091
 20
0.556240
  0
VERTEX
  8
PLAN_1
 62
     2
  6
CONTINUOUS
 10
-0.440882
 20
0.556240
  0
VERTEX
  8
PLAN_1
 62
     2
  6
CONTINUOUS
 10
-0.431827
 20
0.570728
  0
VERTEX
  8
PLAN_1
 62
     2
  6
CONTINUOUS
 10
-0.420508
 20
0.570728
  0
VERTEX
  8
PLAN_1
 62
     2
  6
CONTINUOUS
 10
-0.434091
 20
0.556240
  0
SEQEND
  8
0
  0
POLYLINE
  8
PLAN_1
 62
     2
  6
CONTINUOUS
 66
     1
 40
0.003000
 41
0.003000
  0
VERTEX
  8
PLAN_1
 62
     2
  6
CONTINUOUS
 10
-0.412358
 20
0.511417
  0
VERTEX
  8
PLAN_1
 62
     2
  6
CONTINUOUS
 10
-0.412811
 20
0.510512
  0
VERTEX
  8
PLAN_1
 62
     2
  6
CONTINUOUS
 10
-0.413264
 20
0.508701
  0
VERTEX
  8
PLAN_1
 62
     2
  6
CONTINUOUS
 10
-0.413717
 20
0.506890
  0
VERTEX
  8
PLAN_1
 62
     2
  6
CONTINUOUS
 10
-0.414622
 20
0.504626
  0
VERTEX
  8
PLAN_1
 62
     2
  6
CONTINUOUS
 10
-0.415980
 20
0.502815
  0
VERTEX
  8
PLAN_1
 62
     2
  6
CONTINUOUS
 10
-0.417791
 20
0.500551
  0
VERTEX
  8
PLAN_1
 62
     2
  6
CONTINUOUS
 10
-0.419602
 20
0.498287
  0
VERTEX
  8
PLAN_1
 62
     2
  6
CONTINUOUS
 10
-0.421866
 20
0.496476
  0
VERTEX
  8
PLAN_1
 62
     2
  6
CONTINUOUS
 10
-0.423224
 20
0.496024
  0
VERTEX
  8
PLAN_1
 62
     2
  6
CONTINUOUS
 10
-0.424130
 20
0.495571
  0
VERTEX
  8
PLAN_1
 62
     2
  6
CONTINUOUS
 10
-0.425488
 20
0.494665
  0
VERTEX
  8
PLAN_1
 62
     2
  6
CONTINUOUS
 10
-0.427299
 20
0.494213
  0
VERTEX
  8
PLAN_1
 62
     2
  6
CONTINUOUS
 10
-0.429110
 20
0.493760
  0
VERTEX
  8
PLAN_1
 62
     2
  6
CONTINUOUS
 10
-0.431374
 20
0.493307
  0
VERTEX
  8
PLAN_1
 62
     2
  6
CONTINUOUS
 10
-0.433638
 20
0.492854
  0
VERTEX
  8
PLAN_1
 62
     2
  6
CONTINUOUS
 10
-0.436807
 20
0.492854
  0
VERTEX
  8
PLAN_1
 62
     2
  6
CONTINUOUS
 10
-0.439524
 20
0.492854
  0
VERTEX
  8
PLAN_1
 62
     2
  6
CONTINUOUS
 10
-0.442240
 20
0.493307
  0
VERTEX
  8
PLAN_1
 62
     2
  6
CONTINUOUS
 10
-0.444957
 20
0.494213
  0
VERTEX
  8
PLAN_1
 62
     2
  6
CONTINUOUS
 10
-0.447220
 20
0.495118
  0
VERTEX
  8
PLAN_1
 62
     2
  6
CONTINUOUS
 10
-0.449484
 20
0.496024
  0
VERTEX
  8
PLAN_1
 62
     2
  6
CONTINUOUS
 10
-0.451295
 20
0.497382
  0
VERTEX
  8
PLAN_1
 62
     2
  6
CONTINUOUS
 10
-0.453106
 20
0.498740
  0
VERTEX
  8
PLAN_1
 62
     2
  6
CONTINUOUS
 10
-0.454917
 20
0.500551
  0
VERTEX
  8
PLAN_1
 62
     2
  6
CONTINUOUS
 10
-0.456276
 20
0.502362
  0
VERTEX
  8
PLAN_1
 62
     2
  6
CONTINUOUS
 10
-0.457634
 20
0.504626
  0
VERTEX
  8
PLAN_1
 62
     2
  6
CONTINUOUS
 10
-0.458539
 20
0.506890
  0
VERTEX
  8
PLAN_1
 62
     2
  6
CONTINUOUS
 10
-0.459445
 20
0.509154
  0
VERTEX
  8
PLAN_1
 62
     2
  6
CONTINUOUS
 10
-0.460803
 20
0.514587
  0
VERTEX
  8
PLAN_1
 62
     2
  6
CONTINUOUS
 10
-0.461256
 20
0.520020
  0
VERTEX
  8
PLAN_1
 62
     2
  6
CONTINUOUS
 10
-0.460803
 20
0.526358
  0
VERTEX
  8
PLAN_1
 62
     2
  6
CONTINUOUS
 10
-0.459445
 20
0.531791
  0
VERTEX
  8
PLAN_1
 62
     2
  6
CONTINUOUS
 10
-0.458539
 20
0.534508
  0
VERTEX
  8
PLAN_1
 62
     2
  6
CONTINUOUS
 10
-0.457634
 20
0.537224
  0
VERTEX
  8
PLAN_1
 62
     2
  6
CONTINUOUS
 10
-0.456276
 20
0.539488
  0
VERTEX
  8
PLAN_1
 62
     2
  6
CONTINUOUS
 10
-0.454917
 20
0.541752
  0
VERTEX
  8
PLAN_1
 62
     2
  6
CONTINUOUS
 10
-0.453106
 20
0.543563
  0
VERTEX
  8
PLAN_1
 62
     2
  6
CONTINUOUS
 10
-0.451295
 20
0.545374
  0
VERTEX
  8
PLAN_1
 62
     2
  6
CONTINUOUS
 10
-0.449031
 20
0.546732
  0
VERTEX
  8
PLAN_1
 62
     2
  6
CONTINUOUS
 10
-0.446768
 20
0.548091
  0
VERTEX
  8
PLAN_1
 62
     2
  6
CONTINUOUS
 10
-0.444051
 20
0.548996
  0
VERTEX
  8
PLAN_1
 62
     2
  6
CONTINUOUS
 10
-0.441335
 20
0.549902
  0
VERTEX
  8
PLAN_1
 62
     2
  6
CONTINUOUS
 10
-0.438165
 20
0.550354
  0
VERTEX
  8
PLAN_1
 62
     2
  6
CONTINUOUS
 10
-0.434996
 20
0.550354
  0
VERTEX
  8
PLAN_1
 62
     2
  6
CONTINUOUS
 10
-0.432280
 20
0.550354
  0
VERTEX
  8
PLAN_1
 62
     2
  6
CONTINUOUS
 10
-0.429563
 20
0.549902
  0
VERTEX
  8
PLAN_1
 62
     2
  6
CONTINUOUS
 10
-0.427299
 20
0.548996
  0
VERTEX
  8
PLAN_1
 62
     2
  6
CONTINUOUS
 10
-0.424583
 20
0.548091
  0
VERTEX
  8
PLAN_1
 62
     2
  6
CONTINUOUS
 10
-0.422772
 20
0.546732
  0
VERTEX
  8
PLAN_1
 62
     2
  6
CONTINUOUS
 10
-0.420961
 20
0.545374
  0
VERTEX
  8
PLAN_1
 62
     2
  6
CONTINUOUS
 10
-0.419150
 20
0.543563
  0
VERTEX
  8
PLAN_1
 62
     2
  6
CONTINUOUS
 10
-0.417339
 20
0.541752
  0
VERTEX
  8
PLAN_1
 62
     2
  6
CONTINUOUS
 10
-0.415980
 20
0.539488
  0
VERTEX
  8
PLAN_1
 62
     2
  6
CONTINUOUS
 10
-0.415075
 20
0.537224
  0
VERTEX
  8
PLAN_1
 62
     2
  6
CONTINUOUS
 10
-0.413717
 20
0.534508
  0
VERTEX
  8
PLAN_1
 62
     2
  6
CONTINUOUS
 10
-0.413264
 20
0.531791
  0
VERTEX
  8
PLAN_1
 62
     2
  6
CONTINUOUS
 10
-0.411906
 20
0.525453
  0
VERTEX
  8
PLAN_1
 62
     2
  6
CONTINUOUS
 10
-0.411453
 20
0.518661
  0
VERTEX
  8
PLAN_1
 62
     2
  6
CONTINUOUS
 10
-0.451295
 20
0.518661
  0
VERTEX
  8
PLAN_1
 62
     2
  6
CONTINUOUS
 10
-0.451295
 20
0.514587
  0
VERTEX
  8
PLAN_1
 62
     2
  6
CONTINUOUS
 10
-0.450390
 20
0.510965
  0
VERTEX
  8
PLAN_1
 62
     2
  6
CONTINUOUS
 10
-0.449031
 20
0.508248
  0
VERTEX
  8
PLAN_1
 62
     2
  6
CONTINUOUS
 10
-0.447220
 20
0.505531
  0
VERTEX
  8
PLAN_1
 62
     2
  6
CONTINUOUS
 10
-0.445409
 20
0.503268
  0
VERTEX
  8
PLAN_1
 62
     2
  6
CONTINUOUS
 10
-0.442693
 20
0.501909
  0
VERTEX
  8
PLAN_1
 62
     2
  6
CONTINUOUS
 10
-0.439071
 20
0.501004
  0
VERTEX
  8
PLAN_1
 62
     2
  6
CONTINUOUS
 10
-0.435449
 20
0.501004
  0
VERTEX
  8
PLAN_1
 62
     2
  6
CONTINUOUS
 10
-0.432732
 20
0.501004
  0
VERTEX
  8
PLAN_1
 62
     2
  6
CONTINUOUS
 10
-0.430016
 20
0.501909
  0
VERTEX
  8
PLAN_1
 62
     2
  6
CONTINUOUS
 10
-0.427299
 20
0.503268
  0
VERTEX
  8
PLAN_1
 62
     2
  6
CONTINUOUS
 10
-0.425488
 20
0.504626
  0
VERTEX
  8
PLAN_1
 62
     2
  6
CONTINUOUS
 10
-0.423677
 20
0.506437
  0
VERTEX
  8
PLAN_1
 62
     2
  6
CONTINUOUS
 10
-0.422772
 20
0.508248
  0
VERTEX
  8
PLAN_1
 62
     2
  6
CONTINUOUS
 10
-0.421866
 20
0.510059
  0
VERTEX
  8
PLAN_1
 62
     2
  6
CONTINUOUS
 10
-0.421413
 20
0.511417
  0
VERTEX
  8
PLAN_1
 62
     2
  6
CONTINUOUS
 10
-0.412358
 20
0.511417
  0
SEQEND
  8
0
  0
POLYLINE
  8
PLAN_1
 62
     2
  6
CONTINUOUS
 66
     1
 40
0.003000
 41
0.003000
  0
VERTEX
  8
PLAN_1
 62
     2
  6
CONTINUOUS
 10
-0.420961
 20
0.525906
  0
VERTEX
  8
PLAN_1
 62
     2
  6
CONTINUOUS
 10
-0.421413
 20
0.529075
  0
VERTEX
  8
PLAN_1
 62
     2
  6
CONTINUOUS
 10
-0.422319
 20
0.532244
  0
VERTEX
  8
PLAN_1
 62
     2
  6
CONTINUOUS
 10
-0.423224
 20
0.534961
  0
VERTEX
  8
PLAN_1
 62
     2
  6
CONTINUOUS
 10
-0.424583
 20
0.537224
  0
VERTEX
  8
PLAN_1
 62
     2
  6
CONTINUOUS
 10
-0.426846
 20
0.539488
  0
VERTEX
  8
PLAN_1
 62
     2
  6
CONTINUOUS
 10
-0.429110
 20
0.540846
  0
VERTEX
  8
PLAN_1
 62
     2
  6
CONTINUOUS
 10
-0.432280
 20
0.541752
  0
VERTEX
  8
PLAN_1
 62
     2
  6
CONTINUOUS
 10
-0.436354
 20
0.542205
  0
VERTEX
  8
PLAN_1
 62
     2
  6
CONTINUOUS
 10
-0.439524
 20
0.541752
  0
VERTEX
  8
PLAN_1
 62
     2
  6
CONTINUOUS
 10
-0.442240
 20
0.540846
  0
VERTEX
  8
PLAN_1
 62
     2
  6
CONTINUOUS
 10
-0.444957
 20
0.539488
  0
VERTEX
  8
PLAN_1
 62
     2
  6
CONTINUOUS
 10
-0.447220
 20
0.537224
  0
VERTEX
  8
PLAN_1
 62
     2
  6
CONTINUOUS
 10
-0.449031
 20
0.534961
  0
VERTEX
  8
PLAN_1
 62
     2
  6
CONTINUOUS
 10
-0.450390
 20
0.532244
  0
VERTEX
  8
PLAN_1
 62
     2
  6
CONTINUOUS
 10
-0.451295
 20
0.529075
  0
VERTEX
  8
PLAN_1
 62
     2
  6
CONTINUOUS
 10
-0.451295
 20
0.525906
  0
VERTEX
  8
PLAN_1
 62
     2
  6
CONTINUOUS
 10
-0.420961
 20
0.525906
  0
SEQEND
  8
0
  0
POLYLINE
  8
PLAN_1
 62
     2
  6
CONTINUOUS
 66
     1
 40
0.003000
 41
0.003000
  0
VERTEX
  8
PLAN_1
 62
     2
  6
CONTINUOUS
 10
-0.389268
 20
0.541299
  0
VERTEX
  8
PLAN_1
 62
     2
  6
CONTINUOUS
 10
-0.389268
 20
0.505984
  0
VERTEX
  8
PLAN_1
 62
     2
  6
CONTINUOUS
 10
-0.389268
 20
0.504626
  0
VERTEX
  8
PLAN_1
 62
     2
  6
CONTINUOUS
 10
-0.388815
 20
0.503268
  0
VERTEX
  8
PLAN_1
 62
     2
  6
CONTINUOUS
 10
-0.388362
 20
0.502815
  0
VERTEX
  8
PLAN_1
 62
     2
  6
CONTINUOUS
 10
-0.387457
 20
0.502362
  0
VERTEX
  8
PLAN_1
 62
     2
  6
CONTINUOUS
 10
-0.386551
 20
0.501909
  0
VERTEX
  8
PLAN_1
 62
     2
  6
CONTINUOUS
 10
-0.385646
 20
0.501909
  0
VERTEX
  8
PLAN_1
 62
     2
  6
CONTINUOUS
 10
-0.384740
 20
0.501457
  0
VERTEX
  8
PLAN_1
 62
     2
  6
CONTINUOUS
 10
-0.383835
 20
0.501457
  0
VERTEX
  8
PLAN_1
 62
     2
  6
CONTINUOUS
 10
-0.380665
 20
0.501457
  0
VERTEX
  8
PLAN_1
 62
     2
  6
CONTINUOUS
 10
-0.380665
 20
0.494665
  0
VERTEX
  8
PLAN_1
 62
     2
  6
CONTINUOUS
 10
-0.382024
 20
0.494213
  0
VERTEX
  8
PLAN_1
 62
     2
  6
CONTINUOUS
 10
-0.382929
 20
0.494213
  0
VERTEX
  8
PLAN_1
 62
     2
  6
CONTINUOUS
 10
-0.384287
 20
0.494213
  0
VERTEX
  8
PLAN_1
 62
     2
  6
CONTINUOUS
 10
-0.385193
 20
0.493760
  0
VERTEX
  8
PLAN_1
 62
     2
  6
CONTINUOUS
 10
-0.386098
 20
0.493760
  0
VERTEX
  8
PLAN_1
 62
     2
  6
CONTINUOUS
 10
-0.386551
 20
0.493760
  0
VERTEX
  8
PLAN_1
 62
     2
  6
CONTINUOUS
 10
-0.387004
 20
0.493760
  0
VERTEX
  8
PLAN_1
 62
     2
  6
CONTINUOUS
 10
-0.387457
 20
0.493760
  0
VERTEX
  8
PLAN_1
 62
     2
  6
CONTINUOUS
 10
-0.390626
 20
0.493760
  0
VERTEX
  8
PLAN_1
 62
     2
  6
CONTINUOUS
 10
-0.393343
 20
0.494665
  0
VERTEX
  8
PLAN_1
 62
     2
  6
CONTINUOUS
 10
-0.395154
 20
0.495571
  0
VERTEX
  8
PLAN_1
 62
     2
  6
CONTINUOUS
 10
-0.396512
 20
0.496929
  0
VERTEX
  8
PLAN_1
 62
     2
  6
CONTINUOUS
 10
-0.397417
 20
0.498740
  0
VERTEX
  8
PLAN_1
 62
     2
  6
CONTINUOUS
 10
-0.398323
 20
0.501004
  0
VERTEX
  8
PLAN_1
 62
     2
  6
CONTINUOUS
 10
-0.398323
 20
0.502815
  0
VERTEX
  8
PLAN_1
 62
     2
  6
CONTINUOUS
 10
-0.398776
 20
0.505531
  0
VERTEX
  8
PLAN_1
 62
     2
  6
CONTINUOUS
 10
-0.398776
 20
0.541299
  0
VERTEX
  8
PLAN_1
 62
     2
  6
CONTINUOUS
 10
-0.406020
 20
0.541299
  0
VERTEX
  8
PLAN_1
 62
     2
  6
CONTINUOUS
 10
-0.406020
 20
0.548996
  0
VERTEX
  8
PLAN_1
 62
     2
  6
CONTINUOUS
 10
-0.398776
 20
0.548996
  0
VERTEX
  8
PLAN_1
 62
     2
  6
CONTINUOUS
 10
-0.398776
 20
0.563937
  0
VERTEX
  8
PLAN_1
 62
     2
  6
CONTINUOUS
 10
-0.389268
 20
0.563937
  0
VERTEX
  8
PLAN_1
 62
     2
  6
CONTINUOUS
 10
-0.389268
 20
0.548996
  0
VERTEX
  8
PLAN_1
 62
     2
  6
CONTINUOUS
 10
-0.380665
 20
0.548996
  0
VERTEX
  8
PLAN_1
 62
     2
  6
CONTINUOUS
 10
-0.380665
 20
0.541299
  0
VERTEX
  8
PLAN_1
 62
     2
  6
CONTINUOUS
 10
-0.389268
 20
0.541299
  0
SEQEND
  8
0
  0
POLYLINE
  8
PLAN_1
 62
     2
  6
CONTINUOUS
 66
     1
 40
0.003000
 41
0.003000
  0
VERTEX
  8
PLAN_1
 62
     2
  6
CONTINUOUS
 10
-0.349429
 20
0.550354
  0
VERTEX
  8
PLAN_1
 62
     2
  6
CONTINUOUS
 10
-0.346260
 20
0.550354
  0
VERTEX
  8
PLAN_1
 62
     2
  6
CONTINUOUS
 10
-0.343543
 20
0.549902
  0
VERTEX
  8
PLAN_1
 62
     2
  6
CONTINUOUS
 10
-0.340827
 20
0.548996
  0
VERTEX
  8
PLAN_1
 62
     2
  6
CONTINUOUS
 10
-0.338110
 20
0.548091
  0
VERTEX
  8
PLAN_1
 62
     2
  6
CONTINUOUS
 10
-0.335846
 20
0.546732
  0
VERTEX
  8
PLAN_1
 62
     2
  6
CONTINUOUS
 10
-0.334035
 20
0.544921
  0
VERTEX
  8
PLAN_1
 62
     2
  6
CONTINUOUS
 10
-0.332224
 20
0.543110
  0
VERTEX
  8
PLAN_1
 62
     2
  6
CONTINUOUS
 10
-0.330413
 20
0.541299
  0
VERTEX
  8
PLAN_1
 62
     2
  6
CONTINUOUS
 10
-0.329055
 20
0.539035
  0
VERTEX
  8
PLAN_1
 62
     2
  6
CONTINUOUS
 10
-0.327697
 20
0.536772
  0
VERTEX
  8
PLAN_1
 62
     2
  6
CONTINUOUS
 10
-0.326791
 20
0.534508
  0
VERTEX
  8
PLAN_1
 62
     2
  6
CONTINUOUS
 10
-0.325886
 20
0.532244
  0
VERTEX
  8
PLAN_1
 62
     2
  6
CONTINUOUS
 10
-0.324528
 20
0.526811
  0
VERTEX
  8
PLAN_1
 62
     2
  6
CONTINUOUS
 10
-0.324528
 20
0.521831
  0
VERTEX
  8
PLAN_1
 62
     2
  6
CONTINUOUS
 10
-0.324528
 20
0.516398
  0
VERTEX
  8
PLAN_1
 62
     2
  6
CONTINUOUS
 10
-0.325886
 20
0.511417
  0
VERTEX
  8
PLAN_1
 62
     2
  6
CONTINUOUS
 10
-0.326791
 20
0.508701
  0
VERTEX
  8
PLAN_1
 62
     2
  6
CONTINUOUS
 10
-0.327697
 20
0.506437
  0
VERTEX
  8
PLAN_1
 62
     2
  6
CONTINUOUS
 10
-0.329055
 20
0.504173
  0
VERTEX
  8
PLAN_1
 62
     2
  6
CONTINUOUS
 10
-0.330413
 20
0.501909
  0
VERTEX
  8
PLAN_1
 62
     2
  6
CONTINUOUS
 10
-0.332224
 20
0.500098
  0
VERTEX
  8
PLAN_1
 62
     2
  6
CONTINUOUS
 10
-0.334035
 20
0.498287
  0
VERTEX
  8
PLAN_1
 62
     2
  6
CONTINUOUS
 10
-0.335846
 20
0.496929
  0
VERTEX
  8
PLAN_1
 62
     2
  6
CONTINUOUS
 10
-0.338110
 20
0.495571
  0
VERTEX
  8
PLAN_1
 62
     2
  6
CONTINUOUS
 10
-0.340827
 20
0.494665
  0
VERTEX
  8
PLAN_1
 62
     2
  6
CONTINUOUS
 10
-0.343543
 20
0.493760
  0
VERTEX
  8
PLAN_1
 62
     2
  6
CONTINUOUS
 10
-0.346260
 20
0.493307
  0
VERTEX
  8
PLAN_1
 62
     2
  6
CONTINUOUS
 10
-0.349429
 20
0.492854
  0
VERTEX
  8
PLAN_1
 62
     2
  6
CONTINUOUS
 10
-0.352598
 20
0.493307
  0
VERTEX
  8
PLAN_1
 62
     2
  6
CONTINUOUS
 10
-0.355768
 20
0.493760
  0
VERTEX
  8
PLAN_1
 62
     2
  6
CONTINUOUS
 10
-0.358484
 20
0.494665
  0
VERTEX
  8
PLAN_1
 62
     2
  6
CONTINUOUS
 10
-0.360748
 20
0.495571
  0
VERTEX
  8
PLAN_1
 62
     2
  6
CONTINUOUS
 10
-0.363012
 20
0.496929
  0
VERTEX
  8
PLAN_1
 62
     2
  6
CONTINUOUS
 10
-0.365276
 20
0.498287
  0
VERTEX
  8
PLAN_1
 62
     2
  6
CONTINUOUS
 10
-0.367087
 20
0.500098
  0
VERTEX
  8
PLAN_1
 62
     2
  6
CONTINUOUS
 10
-0.368898
 20
0.501909
  0
VERTEX
  8
PLAN_1
 62
     2
  6
CONTINUOUS
 10
-0.370256
 20
0.504173
  0
VERTEX
  8
PLAN_1
 62
     2
  6
CONTINUOUS
 10
-0.371614
 20
0.506437
  0
VERTEX
  8
PLAN_1
 62
     2
  6
CONTINUOUS
 10
-0.372520
 20
0.508701
  0
VERTEX
  8
PLAN_1
 62
     2
  6
CONTINUOUS
 10
-0.373425
 20
0.511417
  0
VERTEX
  8
PLAN_1
 62
     2
  6
CONTINUOUS
 10
-0.374331
 20
0.516398
  0
VERTEX
  8
PLAN_1
 62
     2
  6
CONTINUOUS
 10
-0.374783
 20
0.521831
  0
VERTEX
  8
PLAN_1
 62
     2
  6
CONTINUOUS
 10
-0.374331
 20
0.526811
  0
VERTEX
  8
PLAN_1
 62
     2
  6
CONTINUOUS
 10
-0.373425
 20
0.532244
  0
VERTEX
  8
PLAN_1
 62
     2
  6
CONTINUOUS
 10
-0.372520
 20
0.534508
  0
VERTEX
  8
PLAN_1
 62
     2
  6
CONTINUOUS
 10
-0.371614
 20
0.536772
  0
VERTEX
  8
PLAN_1
 62
     2
  6
CONTINUOUS
 10
-0.370256
 20
0.539035
  0
VERTEX
  8
PLAN_1
 62
     2
  6
CONTINUOUS
 10
-0.368898
 20
0.541299
  0
VERTEX
  8
PLAN_1
 62
     2
  6
CONTINUOUS
 10
-0.367087
 20
0.543110
  0
VERTEX
  8
PLAN_1
 62
     2
  6
CONTINUOUS
 10
-0.365276
 20
0.544921
  0
VERTEX
  8
PLAN_1
 62
     2
  6
CONTINUOUS
 10
-0.363012
 20
0.546732
  0
VERTEX
  8
PLAN_1
 62
     2
  6
CONTINUOUS
 10
-0.360748
 20
0.548091
  0
VERTEX
  8
PLAN_1
 62
     2
  6
CONTINUOUS
 10
-0.358484
 20
0.548996
  0
VERTEX
  8
PLAN_1
 62
     2
  6
CONTINUOUS
 10
-0.355768
 20
0.549902
  0
VERTEX
  8
PLAN_1
 62
     2
  6
CONTINUOUS
 10
-0.352598
 20
0.550354
  0
VERTEX
  8
PLAN_1
 62
     2
  6
CONTINUOUS
 10
-0.349429
 20
0.550354
  0
SEQEND
  8
0
  0
POLYLINE
  8
PLAN_1
 62
     2
  6
CONTINUOUS
 66
     1
 40
0.003000
 41
0.003000
  0
VERTEX
  8
PLAN_1
 62
     2
  6
CONTINUOUS
 10
-0.349429
 20
0.501004
  0
VERTEX
  8
PLAN_1
 62
     2
  6
CONTINUOUS
 10
-0.347165
 20
0.501004
  0
VERTEX
  8
PLAN_1
 62
     2
  6
CONTINUOUS
 10
-0.345354
 20
0.501457
  0
VERTEX
  8
PLAN_1
 62
     2
  6
CONTINUOUS
 10
-0.343091
 20
0.502362
  0
VERTEX
  8
PLAN_1
 62
     2
  6
CONTINUOUS
 10
-0.341732
 20
0.503268
  0
VERTEX
  8
PLAN_1
 62
     2
  6
CONTINUOUS
 10
-0.339921
 20
0.504173
  0
VERTEX
  8
PLAN_1
 62
     2
  6
CONTINUOUS
 10
-0.339016
 20
0.505531
  0
VERTEX
  8
PLAN_1
 62
     2
  6
CONTINUOUS
 10
-0.337657
 20
0.506890
  0
VERTEX
  8
PLAN_1
 62
     2
  6
CONTINUOUS
 10
-0.336752
 20
0.508701
  0
VERTEX
  8
PLAN_1
 62
     2
  6
CONTINUOUS
 10
-0.335394
 20
0.511870
  0
VERTEX
  8
PLAN_1
 62
     2
  6
CONTINUOUS
 10
-0.334488
 20
0.515492
  0
VERTEX
  8
PLAN_1
 62
     2
  6
CONTINUOUS
 10
-0.334035
 20
0.518661
  0
VERTEX
  8
PLAN_1
 62
     2
  6
CONTINUOUS
 10
-0.333583
 20
0.521831
  0
VERTEX
  8
PLAN_1
 62
     2
  6
CONTINUOUS
 10
-0.334035
 20
0.524547
  0
VERTEX
  8
PLAN_1
 62
     2
  6
CONTINUOUS
 10
-0.334488
 20
0.528169
  0
VERTEX
  8
PLAN_1
 62
     2
  6
CONTINUOUS
 10
-0.335394
 20
0.531339
  0
VERTEX
  8
PLAN_1
 62
     2
  6
CONTINUOUS
 10
-0.336752
 20
0.534961
  0
VERTEX
  8
PLAN_1
 62
     2
  6
CONTINUOUS
 10
-0.339016
 20
0.537677
  0
VERTEX
  8
PLAN_1
 62
     2
  6
CONTINUOUS
 10
-0.341732
 20
0.540394
  0
VERTEX
  8
PLAN_1
 62
     2
  6
CONTINUOUS
 10
-0.343091
 20
0.541299
  0
VERTEX
  8
PLAN_1
 62
     2
  6
CONTINUOUS
 10
-0.345354
 20
0.541752
  0
VERTEX
  8
PLAN_1
 62
     2
  6
CONTINUOUS
 10
-0.347165
 20
0.542205
  0
VERTEX
  8
PLAN_1
 62
     2
  6
CONTINUOUS
 10
-0.349429
 20
0.542657
  0
VERTEX
  8
PLAN_1
 62
     2
  6
CONTINUOUS
 10
-0.352146
 20
0.542205
  0
VERTEX
  8
PLAN_1
 62
     2
  6
CONTINUOUS
 10
-0.353957
 20
0.541752
  0
VERTEX
  8
PLAN_1
 62
     2
  6
CONTINUOUS
 10
-0.355768
 20
0.541299
  0
VERTEX
  8
PLAN_1
 62
     2
  6
CONTINUOUS
 10
-0.357579
 20
0.540394
  0
VERTEX
  8
PLAN_1
 62
     2
  6
CONTINUOUS
 10
-0.358937
 20
0.539035
  0
VERTEX
  8
PLAN_1
 62
     2
  6
CONTINUOUS
 10
-0.360295
 20
0.537677
  0
VERTEX
  8
PLAN_1
 62
     2
  6
CONTINUOUS
 10
-0.361654
 20
0.536319
  0
VERTEX
  8
PLAN_1
 62
     2
  6
CONTINUOUS
 10
-0.362559
 20
0.534961
  0
VERTEX
  8
PLAN_1
 62
     2
  6
CONTINUOUS
 10
-0.363917
 20
0.531339
  0
VERTEX
  8
PLAN_1
 62
     2
  6
CONTINUOUS
 10
-0.364823
 20
0.528169
  0
VERTEX
  8
PLAN_1
 62
     2
  6
CONTINUOUS
 10
-0.365276
 20
0.524547
  0
VERTEX
  8
PLAN_1
 62
     2
  6
CONTINUOUS
 10
-0.365276
 20
0.521831
  0
VERTEX
  8
PLAN_1
 62
     2
  6
CONTINUOUS
 10
-0.365276
 20
0.518661
  0
VERTEX
  8
PLAN_1
 62
     2
  6
CONTINUOUS
 10
-0.364823
 20
0.515492
  0
VERTEX
  8
PLAN_1
 62
     2
  6
CONTINUOUS
 10
-0.363917
 20
0.511870
  0
VERTEX
  8
PLAN_1
 62
     2
  6
CONTINUOUS
 10
-0.362559
 20
0.508701
  0
VERTEX
  8
PLAN_1
 62
     2
  6
CONTINUOUS
 10
-0.361654
 20
0.506890
  0
VERTEX
  8
PLAN_1
 62
     2
  6
CONTINUOUS
 10
-0.360295
 20
0.505531
  0
VERTEX
  8
PLAN_1
 62
     2
  6
CONTINUOUS
 10
-0.358937
 20
0.504173
  0
VERTEX
  8
PLAN_1
 62
     2
  6
CONTINUOUS
 10
-0.357579
 20
0.503268
  0
VERTEX
  8
PLAN_1
 62
     2
  6
CONTINUOUS
 10
-0.355768
 20
0.502362
  0
VERTEX
  8
PLAN_1
 62
     2
  6
CONTINUOUS
 10
-0.353957
 20
0.501457
  0
VERTEX
  8
PLAN_1
 62
     2
  6
CONTINUOUS
 10
-0.352146
 20
0.501004
  0
VERTEX
  8
PLAN_1
 62
     2
  6
CONTINUOUS
 10
-0.349429
 20
0.501004
  0
SEQEND
  8
0
  0
POLYLINE
  8
PLAN_1
 62
     2
  6
CONTINUOUS
 66
     1
 40
0.003000
 41
0.003000
  0
VERTEX
  8
PLAN_1
 62
     2
  6
CONTINUOUS
 10
-0.278346
 20
0.494665
  0
VERTEX
  8
PLAN_1
 62
     2
  6
CONTINUOUS
 10
-0.278346
 20
0.502362
  0
VERTEX
  8
PLAN_1
 62
     2
  6
CONTINUOUS
 10
-0.278799
 20
0.502362
  0
VERTEX
  8
PLAN_1
 62
     2
  6
CONTINUOUS
 10
-0.280157
 20
0.500551
  0
VERTEX
  8
PLAN_1
 62
     2
  6
CONTINUOUS
 10
-0.281516
 20
0.498287
  0
VERTEX
  8
PLAN_1
 62
     2
  6
CONTINUOUS
 10
-0.283327
 20
0.496929
  0
VERTEX
  8
PLAN_1
 62
     2
  6
CONTINUOUS
 10
-0.285591
 20
0.495571
  0
VERTEX
  8
PLAN_1
 62
     2
  6
CONTINUOUS
 10
-0.287402
 20
0.494213
  0
VERTEX
  8
PLAN_1
 62
     2
  6
CONTINUOUS
 10
-0.290118
 20
0.493307
  0
VERTEX
  8
PLAN_1
 62
     2
  6
CONTINUOUS
 10
-0.292835
 20
0.492854
  0
VERTEX
  8
PLAN_1
 62
     2
  6
CONTINUOUS
 10
-0.296004
 20
0.492854
  0
VERTEX
  8
PLAN_1
 62
     2
  6
CONTINUOUS
 10
-0.298720
 20
0.493307
  0
VERTEX
  8
PLAN_1
 62
     2
  6
CONTINUOUS
 10
-0.301890
 20
0.493760
  0
VERTEX
  8
PLAN_1
 62
     2
  6
CONTINUOUS
 10
-0.305059
 20
0.494665
  0
VERTEX
  8
PLAN_1
 62
     2
  6
CONTINUOUS
 10
-0.307776
 20
0.496476
  0
VERTEX
  8
PLAN_1
 62
     2
  6
CONTINUOUS
 10
-0.310039
 20
0.498740
  0
VERTEX
  8
PLAN_1
 62
     2
  6
CONTINUOUS
 10
-0.311850
 20
0.501457
  0
VERTEX
  8
PLAN_1
 62
     2
  6
CONTINUOUS
 10
-0.312756
 20
0.503268
  0
VERTEX
  8
PLAN_1
 62
     2
  6
CONTINUOUS
 10
-0.313209
 20
0.505079
  0
VERTEX
  8
PLAN_1
 62
     2
  6
CONTINUOUS
 10
-0.313661
 20
0.507343
  0
VERTEX
  8
PLAN_1
 62
     2
  6
CONTINUOUS
 10
-0.313661
 20
0.509606
  0
VERTEX
  8
PLAN_1
 62
     2
  6
CONTINUOUS
 10
-0.313661
 20
0.548996
  0
VERTEX
  8
PLAN_1
 62
     2
  6
CONTINUOUS
 10
-0.304606
 20
0.548996
  0
VERTEX
  8
PLAN_1
 62
     2
  6
CONTINUOUS
 10
-0.304606
 20
0.512776
  0
VERTEX
  8
PLAN_1
 62
     2
  6
CONTINUOUS
 10
-0.304154
 20
0.509606
  0
VERTEX
  8
PLAN_1
 62
     2
  6
CONTINUOUS
 10
-0.303701
 20
0.507343
  0
VERTEX
  8
PLAN_1
 62
     2
  6
CONTINUOUS
 10
-0.302795
 20
0.505079
  0
VERTEX
  8
PLAN_1
 62
     2
  6
CONTINUOUS
 10
-0.301437
 20
0.503268
  0
VERTEX
  8
PLAN_1
 62
     2
  6
CONTINUOUS
 10
-0.299626
 20
0.502362
  0
VERTEX
  8
PLAN_1
 62
     2
  6
CONTINUOUS
 10
-0.297815
 20
0.501457
  0
VERTEX
  8
PLAN_1
 62
     2
  6
CONTINUOUS
 10
-0.296004
 20
0.501004
  0
VERTEX
  8
PLAN_1
 62
     2
  6
CONTINUOUS
 10
-0.293740
 20
0.501004
  0
VERTEX
  8
PLAN_1
 62
     2
  6
CONTINUOUS
 10
-0.291929
 20
0.501004
  0
VERTEX
  8
PLAN_1
 62
     2
  6
CONTINUOUS
 10
-0.290118
 20
0.501457
  0
VERTEX
  8
PLAN_1
 62
     2
  6
CONTINUOUS
 10
-0.288307
 20
0.501909
  0
VERTEX
  8
PLAN_1
 62
     2
  6
CONTINUOUS
 10
-0.286496
 20
0.502362
  0
VERTEX
  8
PLAN_1
 62
     2
  6
CONTINUOUS
 10
-0.284232
 20
0.504626
  0
VERTEX
  8
PLAN_1
 62
     2
  6
CONTINUOUS
 10
-0.281969
 20
0.506890
  0
VERTEX
  8
PLAN_1
 62
     2
  6
CONTINUOUS
 10
-0.280610
 20
0.509606
  0
VERTEX
  8
PLAN_1
 62
     2
  6
CONTINUOUS
 10
-0.279705
 20
0.512776
  0
VERTEX
  8
PLAN_1
 62
     2
  6
CONTINUOUS
 10
-0.279252
 20
0.515945
  0
VERTEX
  8
PLAN_1
 62
     2
  6
CONTINUOUS
 10
-0.278799
 20
0.519114
  0
VERTEX
  8
PLAN_1
 62
     2
  6
CONTINUOUS
 10
-0.278799
 20
0.548996
  0
VERTEX
  8
PLAN_1
 62
     2
  6
CONTINUOUS
 10
-0.269744
 20
0.548996
  0
VERTEX
  8
PLAN_1
 62
     2
  6
CONTINUOUS
 10
-0.269744
 20
0.494665
  0
VERTEX
  8
PLAN_1
 62
     2
  6
CONTINUOUS
 10
-0.278346
 20
0.494665
  0
SEQEND
  8
0
  0
POLYLINE
  8
PLAN_1
 62
     2
  6
CONTINUOUS
 66
     1
 40
0.003000
 41
0.003000
  0
VERTEX
  8
PLAN_1
 62
     2
  6
CONTINUOUS
 10
-0.256614
 20
0.548996
  0
VERTEX
  8
PLAN_1
 62
     2
  6
CONTINUOUS
 10
-0.248012
 20
0.548996
  0
VERTEX
  8
PLAN_1
 62
     2
  6
CONTINUOUS
 10
-0.248012
 20
0.541299
  0
VERTEX
  8
PLAN_1
 62
     2
  6
CONTINUOUS
 10
-0.247106
 20
0.542657
  0
VERTEX
  8
PLAN_1
 62
     2
  6
CONTINUOUS
 10
-0.245748
 20
0.544016
  0
VERTEX
  8
PLAN_1
 62
     2
  6
CONTINUOUS
 10
-0.244390
 20
0.545374
  0
VERTEX
  8
PLAN_1
 62
     2
  6
CONTINUOUS
 10
-0.242579
 20
0.547185
  0
VERTEX
  8
PLAN_1
 62
     2
  6
CONTINUOUS
 10
-0.240315
 20
0.548543
  0
VERTEX
  8
PLAN_1
 62
     2
  6
CONTINUOUS
 10
-0.238051
 20
0.549449
  0
VERTEX
  8
PLAN_1
 62
     2
  6
CONTINUOUS
 10
-0.234882
 20
0.550354
  0
VERTEX
  8
PLAN_1
 62
     2
  6
CONTINUOUS
 10
-0.231713
 20
0.550354
  0
VERTEX
  8
PLAN_1
 62
     2
  6
CONTINUOUS
 10
-0.228996
 20
0.550354
  0
VERTEX
  8
PLAN_1
 62
     2
  6
CONTINUOUS
 10
-0.226280
 20
0.549902
  0
VERTEX
  8
PLAN_1
 62
     2
  6
CONTINUOUS
 10
-0.224016
 20
0.549449
  0
VERTEX
  8
PLAN_1
 62
     2
  6
CONTINUOUS
 10
-0.222205
 20
0.548543
  0
VERTEX
  8
PLAN_1
 62
     2
  6
CONTINUOUS
 10
-0.219941
 20
0.547185
  0
VERTEX
  8
PLAN_1
 62
     2
  6
CONTINUOUS
 10
-0.218130
 20
0.545827
  0
VERTEX
  8
PLAN_1
 62
     2
  6
CONTINUOUS
 10
-0.216319
 20
0.544469
  0
VERTEX
  8
PLAN_1
 62
     2
  6
CONTINUOUS
 10
-0.214961
 20
0.542657
  0
VERTEX
  8
PLAN_1
 62
     2
  6
CONTINUOUS
 10
-0.212244
 20
0.538583
  0
VERTEX
  8
PLAN_1
 62
     2
  6
CONTINUOUS
 10
-0.210433
 20
0.534055
  0
VERTEX
  8
PLAN_1
 62
     2
  6
CONTINUOUS
 10
-0.209528
 20
0.528622
  0
VERTEX
  8
PLAN_1
 62
     2
  6
CONTINUOUS
 10
-0.209075
 20
0.523189
  0
VERTEX
  8
PLAN_1
 62
     2
  6
CONTINUOUS
 10
-0.209075
 20
0.518209
  0
VERTEX
  8
PLAN_1
 62
     2
  6
CONTINUOUS
 10
-0.209980
 20
0.513228
  0
VERTEX
  8
PLAN_1
 62
     2
  6
CONTINUOUS
 10
-0.211791
 20
0.507795
  0
VERTEX
  8
PLAN_1
 62
     2
  6
CONTINUOUS
 10
-0.214055
 20
0.503268
  0
VERTEX
  8
PLAN_1
 62
     2
  6
CONTINUOUS
 10
-0.215413
 20
0.501004
  0
VERTEX
  8
PLAN_1
 62
     2
  6
CONTINUOUS
 10
-0.217224
 20
0.499193
  0
VERTEX
  8
PLAN_1
 62
     2
  6
CONTINUOUS
 10
-0.219035
 20
0.497382
  0
VERTEX
  8
PLAN_1
 62
     2
  6
CONTINUOUS
 10
-0.221299
 20
0.496024
  0
VERTEX
  8
PLAN_1
 62
     2
  6
CONTINUOUS
 10
-0.224016
 20
0.494665
  0
VERTEX
  8
PLAN_1
 62
     2
  6
CONTINUOUS
 10
-0.226732
 20
0.493760
  0
VERTEX
  8
PLAN_1
 62
     2
  6
CONTINUOUS
 10
-0.229449
 20
0.493307
  0
VERTEX
  8
PLAN_1
 62
     2
  6
CONTINUOUS
 10
-0.233071
 20
0.492854
  0
VERTEX
  8
PLAN_1
 62
     2
  6
CONTINUOUS
 10
-0.235335
 20
0.492854
  0
VERTEX
  8
PLAN_1
 62
     2
  6
CONTINUOUS
 10
-0.238051
 20
0.493307
  0
VERTEX
  8
PLAN_1
 62
     2
  6
CONTINUOUS
 10
-0.239862
 20
0.494213
  0
VERTEX
  8
PLAN_1
 62
     2
  6
CONTINUOUS
 10
-0.242126
 20
0.495118
  0
VERTEX
  8
PLAN_1
 62
     2
  6
CONTINUOUS
 10
-0.243484
 20
0.496024
  0
VERTEX
  8
PLAN_1
 62
     2
  6
CONTINUOUS
 10
-0.245295
 20
0.497382
  0
VERTEX
  8
PLAN_1
 62
     2
  6
CONTINUOUS
 10
-0.246201
 20
0.498740
  0
VERTEX
  8
PLAN_1
 62
     2
  6
CONTINUOUS
 10
-0.247106
 20
0.500098
  0
VERTEX
  8
PLAN_1
 62
     2
  6
CONTINUOUS
 10
-0.247559
 20
0.500098
  0
VERTEX
  8
PLAN_1
 62
     2
  6
CONTINUOUS
 10
-0.247559
 20
0.472933
  0
VERTEX
  8
PLAN_1
 62
     2
  6
CONTINUOUS
 10
-0.256614
 20
0.472933
  0
VERTEX
  8
PLAN_1
 62
     2
  6
CONTINUOUS
 10
-0.256614
 20
0.548996
  0
SEQEND
  8
0
  0
POLYLINE
  8
PLAN_1
 62
     2
  6
CONTINUOUS
 66
     1
 40
0.003000
 41
0.003000
  0
VERTEX
  8
PLAN_1
 62
     2
  6
CONTINUOUS
 10
-0.233071
 20
0.501004
  0
VERTEX
  8
PLAN_1
 62
     2
  6
CONTINUOUS
 10
-0.229449
 20
0.501004
  0
VERTEX
  8
PLAN_1
 62
     2
  6
CONTINUOUS
 10
-0.226732
 20
0.502362
  0
VERTEX
  8
PLAN_1
 62
     2
  6
CONTINUOUS
 10
-0.224016
 20
0.504173
  0
VERTEX
  8
PLAN_1
 62
     2
  6
CONTINUOUS
 10
-0.222205
 20
0.506890
  0
VERTEX
  8
PLAN_1
 62
     2
  6
CONTINUOUS
 10
-0.220394
 20
0.510059
  0
VERTEX
  8
PLAN_1
 62
     2
  6
CONTINUOUS
 10
-0.219488
 20
0.513681
  0
VERTEX
  8
PLAN_1
 62
     2
  6
CONTINUOUS
 10
-0.218583
 20
0.517303
  0
VERTEX
  8
PLAN_1
 62
     2
  6
CONTINUOUS
 10
-0.218583
 20
0.521831
  0
VERTEX
  8
PLAN_1
 62
     2
  6
CONTINUOUS
 10
-0.218583
 20
0.524547
  0
VERTEX
  8
PLAN_1
 62
     2
  6
CONTINUOUS
 10
-0.218583
 20
0.528169
  0
VERTEX
  8
PLAN_1
 62
     2
  6
CONTINUOUS
 10
-0.219488
 20
0.531339
  0
VERTEX
  8
PLAN_1
 62
     2
  6
CONTINUOUS
 10
-0.220394
 20
0.534508
  0
VERTEX
  8
PLAN_1
 62
     2
  6
CONTINUOUS
 10
-0.221299
 20
0.536319
  0
VERTEX
  8
PLAN_1
 62
     2
  6
CONTINUOUS
 10
-0.222205
 20
0.537677
  0
VERTEX
  8
PLAN_1
 62
     2
  6
CONTINUOUS
 10
-0.223563
 20
0.539035
  0
VERTEX
  8
PLAN_1
 62
     2
  6
CONTINUOUS
 10
-0.224921
 20
0.539941
  0
VERTEX
  8
PLAN_1
 62
     2
  6
CONTINUOUS
 10
-0.226732
 20
0.540846
  0
VERTEX
  8
PLAN_1
 62
     2
  6
CONTINUOUS
 10
-0.228543
 20
0.541752
  0
VERTEX
  8
PLAN_1
 62
     2
  6
CONTINUOUS
 10
-0.230807
 20
0.542205
  0
VERTEX
  8
PLAN_1
 62
     2
  6
CONTINUOUS
 10
-0.233071
 20
0.542205
  0
VERTEX
  8
PLAN_1
 62
     2
  6
CONTINUOUS
 10
-0.235787
 20
0.542205
  0
VERTEX
  8
PLAN_1
 62
     2
  6
CONTINUOUS
 10
-0.237598
 20
0.541752
  0
VERTEX
  8
PLAN_1
 62
     2
  6
CONTINUOUS
 10
-0.239409
 20
0.540846
  0
VERTEX
  8
PLAN_1
 62
     2
  6
CONTINUOUS
 10
-0.241220
 20
0.539941
  0
VERTEX
  8
PLAN_1
 62
     2
  6
CONTINUOUS
 10
-0.242579
 20
0.538583
  0
VERTEX
  8
PLAN_1
 62
     2
  6
CONTINUOUS
 10
-0.243937
 20
0.537224
  0
VERTEX
  8
PLAN_1
 62
     2
  6
CONTINUOUS
 10
-0.244843
 20
0.535866
  0
VERTEX
  8
PLAN_1
 62
     2
  6
CONTINUOUS
 10
-0.245748
 20
0.534055
  0
VERTEX
  8
PLAN_1
 62
     2
  6
CONTINUOUS
 10
-0.246654
 20
0.530433
  0
VERTEX
  8
PLAN_1
 62
     2
  6
CONTINUOUS
 10
-0.247559
 20
0.526358
  0
VERTEX
  8
PLAN_1
 62
     2
  6
CONTINUOUS
 10
-0.248012
 20
0.522736
  0
VERTEX
  8
PLAN_1
 62
     2
  6
CONTINUOUS
 10
-0.248012
 20
0.519114
  0
VERTEX
  8
PLAN_1
 62
     2
  6
CONTINUOUS
 10
-0.247559
 20
0.514134
  0
VERTEX
  8
PLAN_1
 62
     2
  6
CONTINUOUS
 10
-0.246654
 20
0.510059
  0
VERTEX
  8
PLAN_1
 62
     2
  6
CONTINUOUS
 10
-0.244843
 20
0.506890
  0
VERTEX
  8
PLAN_1
 62
     2
  6
CONTINUOUS
 10
-0.242579
 20
0.504626
  0
VERTEX
  8
PLAN_1
 62
     2
  6
CONTINUOUS
 10
-0.240315
 20
0.502815
  0
VERTEX
  8
PLAN_1
 62
     2
  6
CONTINUOUS
 10
-0.238051
 20
0.501457
  0
VERTEX
  8
PLAN_1
 62
     2
  6
CONTINUOUS
 10
-0.235335
 20
0.501004
  0
VERTEX
  8
PLAN_1
 62
     2
  6
CONTINUOUS
 10
-0.233071
 20
0.501004
  0
SEQEND
  8
0
  0
POLYLINE
  8
PLAN_1
 62
     2
  6
CONTINUOUS
 66
     1
 40
0.003000
 41
0.003000
  0
VERTEX
  8
PLAN_1
 62
     2
  6
CONTINUOUS
 10
-0.152028
 20
0.511417
  0
VERTEX
  8
PLAN_1
 62
     2
  6
CONTINUOUS
 10
-0.152028
 20
0.510512
  0
VERTEX
  8
PLAN_1
 62
     2
  6
CONTINUOUS
 10
-0.152480
 20
0.508701
  0
VERTEX
  8
PLAN_1
 62
     2
  6
CONTINUOUS
 10
-0.153386
 20
0.506890
  0
VERTEX
  8
PLAN_1
 62
     2
  6
CONTINUOUS
 10
-0.154291
 20
0.504626
  0
VERTEX
  8
PLAN_1
 62
     2
  6
CONTINUOUS
 10
-0.155650
 20
0.502815
  0
VERTEX
  8
PLAN_1
 62
     2
  6
CONTINUOUS
 10
-0.157008
 20
0.500551
  0
VERTEX
  8
PLAN_1
 62
     2
  6
CONTINUOUS
 10
-0.159272
 20
0.498287
  0
VERTEX
  8
PLAN_1
 62
     2
  6
CONTINUOUS
 10
-0.161535
 20
0.496476
  0
VERTEX
  8
PLAN_1
 62
     2
  6
CONTINUOUS
 10
-0.162441
 20
0.496024
  0
VERTEX
  8
PLAN_1
 62
     2
  6
CONTINUOUS
 10
-0.163799
 20
0.495571
  0
VERTEX
  8
PLAN_1
 62
     2
  6
CONTINUOUS
 10
-0.165157
 20
0.494665
  0
VERTEX
  8
PLAN_1
 62
     2
  6
CONTINUOUS
 10
-0.166516
 20
0.494213
  0
VERTEX
  8
PLAN_1
 62
     2
  6
CONTINUOUS
 10
-0.168327
 20
0.493760
  0
VERTEX
  8
PLAN_1
 62
     2
  6
CONTINUOUS
 10
-0.170591
 20
0.493307
  0
VERTEX
  8
PLAN_1
 62
     2
  6
CONTINUOUS
 10
-0.173307
 20
0.492854
  0
VERTEX
  8
PLAN_1
 62
     2
  6
CONTINUOUS
 10
-0.176476
 20
0.492854
  0
VERTEX
  8
PLAN_1
 62
     2
  6
CONTINUOUS
 10
-0.179193
 20
0.492854
  0
VERTEX
  8
PLAN_1
 62
     2
  6
CONTINUOUS
 10
-0.181909
 20
0.493307
  0
VERTEX
  8
PLAN_1
 62
     2
  6
CONTINUOUS
 10
-0.184173
 20
0.494213
  0
VERTEX
  8
PLAN_1
 62
     2
  6
CONTINUOUS
 10
-0.186437
 20
0.495118
  0
VERTEX
  8
PLAN_1
 62
     2
  6
CONTINUOUS
 10
-0.188701
 20
0.496024
  0
VERTEX
  8
PLAN_1
 62
     2
  6
CONTINUOUS
 10
-0.190965
 20
0.497382
  0
VERTEX
  8
PLAN_1
 62
     2
  6
CONTINUOUS
 10
-0.192776
 20
0.498740
  0
VERTEX
  8
PLAN_1
 62
     2
  6
CONTINUOUS
 10
-0.194134
 20
0.500551
  0
VERTEX
  8
PLAN_1
 62
     2
  6
CONTINUOUS
 10
-0.195945
 20
0.502362
  0
VERTEX
  8
PLAN_1
 62
     2
  6
CONTINUOUS
 10
-0.196850
 20
0.504626
  0
VERTEX
  8
PLAN_1
 62
     2
  6
CONTINUOUS
 10
-0.198209
 20
0.506890
  0
VERTEX
  8
PLAN_1
 62
     2
  6
CONTINUOUS
 10
-0.199114
 20
0.509154
  0
VERTEX
  8
PLAN_1
 62
     2
  6
CONTINUOUS
 10
-0.200472
 20
0.514587
  0
VERTEX
  8
PLAN_1
 62
     2
  6
CONTINUOUS
 10
-0.200472
 20
0.520020
  0
VERTEX
  8
PLAN_1
 62
     2
  6
CONTINUOUS
 10
-0.200472
 20
0.526358
  0
VERTEX
  8
PLAN_1
 62
     2
  6
CONTINUOUS
 10
-0.199114
 20
0.531791
  0
VERTEX
  8
PLAN_1
 62
     2
  6
CONTINUOUS
 10
-0.198209
 20
0.534508
  0
VERTEX
  8
PLAN_1
 62
     2
  6
CONTINUOUS
 10
-0.197303
 20
0.537224
  0
VERTEX
  8
PLAN_1
 62
     2
  6
CONTINUOUS
 10
-0.195945
 20
0.539488
  0
VERTEX
  8
PLAN_1
 62
     2
  6
CONTINUOUS
 10
-0.194587
 20
0.541752
  0
VERTEX
  8
PLAN_1
 62
     2
  6
CONTINUOUS
 10
-0.192776
 20
0.543563
  0
VERTEX
  8
PLAN_1
 62
     2
  6
CONTINUOUS
 10
-0.190965
 20
0.545374
  0
VERTEX
  8
PLAN_1
 62
     2
  6
CONTINUOUS
 10
-0.188701
 20
0.546732
  0
VERTEX
  8
PLAN_1
 62
     2
  6
CONTINUOUS
 10
-0.186437
 20
0.548091
  0
VERTEX
  8
PLAN_1
 62
     2
  6
CONTINUOUS
 10
-0.183720
 20
0.548996
  0
VERTEX
  8
PLAN_1
 62
     2
  6
CONTINUOUS
 10
-0.181004
 20
0.549902
  0
VERTEX
  8
PLAN_1
 62
     2
  6
CONTINUOUS
 10
-0.177835
 20
0.550354
  0
VERTEX
  8
PLAN_1
 62
     2
  6
CONTINUOUS
 10
-0.174665
 20
0.550354
  0
VERTEX
  8
PLAN_1
 62
     2
  6
CONTINUOUS
 10
-0.171496
 20
0.550354
  0
VERTEX
  8
PLAN_1
 62
     2
  6
CONTINUOUS
 10
-0.169232
 20
0.549902
  0
VERTEX
  8
PLAN_1
 62
     2
  6
CONTINUOUS
 10
-0.166516
 20
0.548996
  0
VERTEX
  8
PLAN_1
 62
     2
  6
CONTINUOUS
 10
-0.164252
 20
0.548091
  0
VERTEX
  8
PLAN_1
 62
     2
  6
CONTINUOUS
 10
-0.161988
 20
0.546732
  0
VERTEX
  8
PLAN_1
 62
     2
  6
CONTINUOUS
 10
-0.160177
 20
0.545374
  0
VERTEX
  8
PLAN_1
 62
     2
  6
CONTINUOUS
 10
-0.158366
 20
0.543563
  0
VERTEX
  8
PLAN_1
 62
     2
  6
CONTINUOUS
 10
-0.157008
 20
0.541752
  0
VERTEX
  8
PLAN_1
 62
     2
  6
CONTINUOUS
 10
-0.155650
 20
0.539488
  0
VERTEX
  8
PLAN_1
 62
     2
  6
CONTINUOUS
 10
-0.154291
 20
0.537224
  0
VERTEX
  8
PLAN_1
 62
     2
  6
CONTINUOUS
 10
-0.153386
 20
0.534508
  0
VERTEX
  8
PLAN_1
 62
     2
  6
CONTINUOUS
 10
-0.152480
 20
0.531791
  0
VERTEX
  8
PLAN_1
 62
     2
  6
CONTINUOUS
 10
-0.151575
 20
0.525453
  0
VERTEX
  8
PLAN_1
 62
     2
  6
CONTINUOUS
 10
-0.151122
 20
0.518661
  0
VERTEX
  8
PLAN_1
 62
     2
  6
CONTINUOUS
 10
-0.190965
 20
0.518661
  0
VERTEX
  8
PLAN_1
 62
     2
  6
CONTINUOUS
 10
-0.190512
 20
0.514587
  0
VERTEX
  8
PLAN_1
 62
     2
  6
CONTINUOUS
 10
-0.190059
 20
0.510965
  0
VERTEX
  8
PLAN_1
 62
     2
  6
CONTINUOUS
 10
-0.188701
 20
0.508248
  0
VERTEX
  8
PLAN_1
 62
     2
  6
CONTINUOUS
 10
-0.186890
 20
0.505531
  0
VERTEX
  8
PLAN_1
 62
     2
  6
CONTINUOUS
 10
-0.184626
 20
0.503268
  0
VERTEX
  8
PLAN_1
 62
     2
  6
CONTINUOUS
 10
-0.181909
 20
0.501909
  0
VERTEX
  8
PLAN_1
 62
     2
  6
CONTINUOUS
 10
-0.178740
 20
0.501004
  0
VERTEX
  8
PLAN_1
 62
     2
  6
CONTINUOUS
 10
-0.175118
 20
0.501004
  0
VERTEX
  8
PLAN_1
 62
     2
  6
CONTINUOUS
 10
-0.171949
 20
0.501004
  0
VERTEX
  8
PLAN_1
 62
     2
  6
CONTINUOUS
 10
-0.169232
 20
0.501909
  0
VERTEX
  8
PLAN_1
 62
     2
  6
CONTINUOUS
 10
-0.166969
 20
0.503268
  0
VERTEX
  8
PLAN_1
 62
     2
  6
CONTINUOUS
 10
-0.165157
 20
0.504626
  0
VERTEX
  8
PLAN_1
 62
     2
  6
CONTINUOUS
 10
-0.163346
 20
0.506437
  0
VERTEX
  8
PLAN_1
 62
     2
  6
CONTINUOUS
 10
-0.161988
 20
0.508248
  0
VERTEX
  8
PLAN_1
 62
     2
  6
CONTINUOUS
 10
-0.161535
 20
0.510059
  0
VERTEX
  8
PLAN_1
 62
     2
  6
CONTINUOUS
 10
-0.161083
 20
0.511417
  0
VERTEX
  8
PLAN_1
 62
     2
  6
CONTINUOUS
 10
-0.152028
 20
0.511417
  0
SEQEND
  8
0
  0
POLYLINE
  8
PLAN_1
 62
     2
  6
CONTINUOUS
 66
     1
 40
0.003000
 41
0.003000
  0
VERTEX
  8
PLAN_1
 62
     2
  6
CONTINUOUS
 10
-0.160630
 20
0.525906
  0
VERTEX
  8
PLAN_1
 62
     2
  6
CONTINUOUS
 10
-0.161083
 20
0.529075
  0
VERTEX
  8
PLAN_1
 62
     2
  6
CONTINUOUS
 10
-0.161535
 20
0.532244
  0
VERTEX
  8
PLAN_1
 62
     2
  6
CONTINUOUS
 10
-0.162894
 20
0.534961
  0
VERTEX
  8
PLAN_1
 62
     2
  6
CONTINUOUS
 10
-0.164252
 20
0.537224
  0
VERTEX
  8
PLAN_1
 62
     2
  6
CONTINUOUS
 10
-0.166063
 20
0.539488
  0
VERTEX
  8
PLAN_1
 62
     2
  6
CONTINUOUS
 10
-0.168780
 20
0.540846
  0
VERTEX
  8
PLAN_1
 62
     2
  6
CONTINUOUS
 10
-0.171949
 20
0.541752
  0
VERTEX
  8
PLAN_1
 62
     2
  6
CONTINUOUS
 10
-0.176024
 20
0.542205
  0
VERTEX
  8
PLAN_1
 62
     2
  6
CONTINUOUS
 10
-0.178740
 20
0.541752
  0
VERTEX
  8
PLAN_1
 62
     2
  6
CONTINUOUS
 10
-0.181909
 20
0.540846
  0
VERTEX
  8
PLAN_1
 62
     2
  6
CONTINUOUS
 10
-0.184173
 20
0.539488
  0
VERTEX
  8
PLAN_1
 62
     2
  6
CONTINUOUS
 10
-0.186437
 20
0.537224
  0
VERTEX
  8
PLAN_1
 62
     2
  6
CONTINUOUS
 10
-0.188248
 20
0.534961
  0
VERTEX
  8
PLAN_1
 62
     2
  6
CONTINUOUS
 10
-0.189606
 20
0.532244
  0
VERTEX
  8
PLAN_1
 62
     2
  6
CONTINUOUS
 10
-0.190512
 20
0.529075
  0
VERTEX
  8
PLAN_1
 62
     2
  6
CONTINUOUS
 10
-0.190965
 20
0.525906
  0
VERTEX
  8
PLAN_1
 62
     2
  6
CONTINUOUS
 10
-0.160630
 20
0.525906
  0
SEQEND
  8
0
  0
POLYLINE
  8
PLAN_1
 62
     2
  6
CONTINUOUS
 66
     1
 40
0.003000
 41
0.003000
  0
VERTEX
  8
PLAN_1
 62
     2
  6
CONTINUOUS
 10
-0.080492
 20
0.494665
  0
VERTEX
  8
PLAN_1
 62
     2
  6
CONTINUOUS
 10
-0.090453
 20
0.494665
  0
VERTEX
  8
PLAN_1
 62
     2
  6
CONTINUOUS
 10
-0.090453
 20
0.546280
  0
VERTEX
  8
PLAN_1
 62
     2
  6
CONTINUOUS
 10
-0.107657
 20
0.546280
  0
VERTEX
  8
PLAN_1
 62
     2
  6
CONTINUOUS
 10
-0.107657
 20
0.553524
  0
VERTEX
  8
PLAN_1
 62
     2
  6
CONTINUOUS
 10
-0.103583
 20
0.553976
  0
VERTEX
  8
PLAN_1
 62
     2
  6
CONTINUOUS
 10
-0.099961
 20
0.554429
  0
VERTEX
  8
PLAN_1
 62
     2
  6
CONTINUOUS
 10
-0.096791
 20
0.555335
  0
VERTEX
  8
PLAN_1
 62
     2
  6
CONTINUOUS
 10
-0.094528
 20
0.556240
  0
VERTEX
  8
PLAN_1
 62
     2
  6
CONTINUOUS
 10
-0.092264
 20
0.558051
  0
VERTEX
  8
PLAN_1
 62
     2
  6
CONTINUOUS
 10
-0.090453
 20
0.560315
  0
VERTEX
  8
PLAN_1
 62
     2
  6
CONTINUOUS
 10
-0.089094
 20
0.563484
  0
VERTEX
  8
PLAN_1
 62
     2
  6
CONTINUOUS
 10
-0.087736
 20
0.567559
  0
VERTEX
  8
PLAN_1
 62
     2
  6
CONTINUOUS
 10
-0.080492
 20
0.567559
  0
VERTEX
  8
PLAN_1
 62
     2
  6
CONTINUOUS
 10
-0.080492
 20
0.494665
  0
SEQEND
  8
0
  0
POLYLINE
  8
PLAN_1
 62
     2
  6
CONTINUOUS
 66
     1
 40
0.003000
 41
0.003000
  0
VERTEX
  8
PLAN_1
 62
     2
  6
CONTINUOUS
 10
-0.037031
 20
0.535866
  0
VERTEX
  8
PLAN_1
 62
     2
  6
CONTINUOUS
 10
-0.036126
 20
0.535866
  0
VERTEX
  8
PLAN_1
 62
     2
  6
CONTINUOUS
 10
-0.035673
 20
0.535866
  0
VERTEX
  8
PLAN_1
 62
     2
  6
CONTINUOUS
 10
-0.035220
 20
0.535866
  0
VERTEX
  8
PLAN_1
 62
     2
  6
CONTINUOUS
 10
-0.034315
 20
0.535866
  0
VERTEX
  8
PLAN_1
 62
     2
  6
CONTINUOUS
 10
-0.033862
 20
0.535866
  0
VERTEX
  8
PLAN_1
 62
     2
  6
CONTINUOUS
 10
-0.033409
 20
0.535866
  0
VERTEX
  8
PLAN_1
 62
     2
  6
CONTINUOUS
 10
-0.032504
 20
0.535866
  0
VERTEX
  8
PLAN_1
 62
     2
  6
CONTINUOUS
 10
-0.032051
 20
0.535866
  0
VERTEX
  8
PLAN_1
 62
     2
  6
CONTINUOUS
 10
-0.029335
 20
0.535866
  0
VERTEX
  8
PLAN_1
 62
     2
  6
CONTINUOUS
 10
-0.027071
 20
0.536319
  0
VERTEX
  8
PLAN_1
 62
     2
  6
CONTINUOUS
 10
-0.024354
 20
0.537224
  0
VERTEX
  8
PLAN_1
 62
     2
  6
CONTINUOUS
 10
-0.022543
 20
0.538583
  0
VERTEX
  8
PLAN_1
 62
     2
  6
CONTINUOUS
 10
-0.020732
 20
0.539941
  0
VERTEX
  8
PLAN_1
 62
     2
  6
CONTINUOUS
 10
-0.019374
 20
0.542205
  0
VERTEX
  8
PLAN_1
 62
     2
  6
CONTINUOUS
 10
-0.018469
 20
0.544469
  0
VERTEX
  8
PLAN_1
 62
     2
  6
CONTINUOUS
 10
-0.018016
 20
0.547638
  0
VERTEX
  8
PLAN_1
 62
     2
  6
CONTINUOUS
 10
-0.018016
 20
0.549449
  0
VERTEX
  8
PLAN_1
 62
     2
  6
CONTINUOUS
 10
-0.018469
 20
0.551260
  0
VERTEX
  8
PLAN_1
 62
     2
  6
CONTINUOUS
 10
-0.019374
 20
0.553524
  0
VERTEX
  8
PLAN_1
 62
     2
  6
CONTINUOUS
 10
-0.020732
 20
0.555335
  0
VERTEX
  8
PLAN_1
 62
     2
  6
CONTINUOUS
 10
-0.022543
 20
0.556693
  0
VERTEX
  8
PLAN_1
 62
     2
  6
CONTINUOUS
 10
-0.024807
 20
0.558051
  0
VERTEX
  8
PLAN_1
 62
     2
  6
CONTINUOUS
 10
-0.027976
 20
0.558957
  0
VERTEX
  8
PLAN_1
 62
     2
  6
CONTINUOUS
 10
-0.031598
 20
0.559409
  0
VERTEX
  8
PLAN_1
 62
     2
  6
CONTINUOUS
 10
-0.033862
 20
0.559409
  0
VERTEX
  8
PLAN_1
 62
     2
  6
CONTINUOUS
 10
-0.036126
 20
0.558957
  0
VERTEX
  8
PLAN_1
 62
     2
  6
CONTINUOUS
 10
-0.037937
 20
0.558504
  0
VERTEX
  8
PLAN_1
 62
     2
  6
CONTINUOUS
 10
-0.039295
 20
0.557598
  0
VERTEX
  8
PLAN_1
 62
     2
  6
CONTINUOUS
 10
-0.041559
 20
0.555787
  0
VERTEX
  8
PLAN_1
 62
     2
  6
CONTINUOUS
 10
-0.043370
 20
0.553524
  0
VERTEX
  8
PLAN_1
 62
     2
  6
CONTINUOUS
 10
-0.044728
 20
0.550807
  0
VERTEX
  8
PLAN_1
 62
     2
  6
CONTINUOUS
 10
-0.045181
 20
0.548091
  0
VERTEX
  8
PLAN_1
 62
     2
  6
CONTINUOUS
 10
-0.045634
 20
0.545827
  0
VERTEX
  8
PLAN_1
 62
     2
  6
CONTINUOUS
 10
-0.046087
 20
0.543563
  0
VERTEX
  8
PLAN_1
 62
     2
  6
CONTINUOUS
 10
-0.054689
 20
0.543563
  0
VERTEX
  8
PLAN_1
 62
     2
  6
CONTINUOUS
 10
-0.054689
 20
0.547638
  0
VERTEX
  8
PLAN_1
 62
     2
  6
CONTINUOUS
 10
-0.053783
 20
0.551713
  0
VERTEX
  8
PLAN_1
 62
     2
  6
CONTINUOUS
 10
-0.052425
 20
0.555787
  0
VERTEX
  8
PLAN_1
 62
     2
  6
CONTINUOUS
 10
-0.050161
 20
0.559862
  0
VERTEX
  8
PLAN_1
 62
     2
  6
CONTINUOUS
 10
-0.048803
 20
0.561220
  0
VERTEX
  8
PLAN_1
 62
     2
  6
CONTINUOUS
 10
-0.046992
 20
0.563031
  0
VERTEX
  8
PLAN_1
 62
     2
  6
CONTINUOUS
 10
-0.045181
 20
0.564390
  0
VERTEX
  8
PLAN_1
 62
     2
  6
CONTINUOUS
 10
-0.042917
 20
0.565295
  0
VERTEX
  8
PLAN_1
 62
     2
  6
CONTINUOUS
 10
-0.040654
 20
0.566201
  0
VERTEX
  8
PLAN_1
 62
     2
  6
CONTINUOUS
 10
-0.037937
 20
0.567106
  0
VERTEX
  8
PLAN_1
 62
     2
  6
CONTINUOUS
 10
-0.034768
 20
0.567559
  0
VERTEX
  8
PLAN_1
 62
     2
  6
CONTINUOUS
 10
-0.031146
 20
0.567559
  0
VERTEX
  8
PLAN_1
 62
     2
  6
CONTINUOUS
 10
-0.026165
 20
0.567106
  0
VERTEX
  8
PLAN_1
 62
     2
  6
CONTINUOUS
 10
-0.021638
 20
0.566201
  0
VERTEX
  8
PLAN_1
 62
     2
  6
CONTINUOUS
 10
-0.018016
 20
0.564390
  0
VERTEX
  8
PLAN_1
 62
     2
  6
CONTINUOUS
 10
-0.014394
 20
0.562126
  0
VERTEX
  8
PLAN_1
 62
     2
  6
CONTINUOUS
 10
-0.012130
 20
0.559409
  0
VERTEX
  8
PLAN_1
 62
     2
  6
CONTINUOUS
 10
-0.010319
 20
0.556240
  0
VERTEX
  8
PLAN_1
 62
     2
  6
CONTINUOUS
 10
-0.008961
 20
0.552165
  0
VERTEX
  8
PLAN_1
 62
     2
  6
CONTINUOUS
 10
-0.008508
 20
0.548543
  0
VERTEX
  8
PLAN_1
 62
     2
  6
CONTINUOUS
 10
-0.008961
 20
0.544921
  0
VERTEX
  8
PLAN_1
 62
     2
  6
CONTINUOUS
 10
-0.009413
 20
0.542205
  0
VERTEX
  8
PLAN_1
 62
     2
  6
CONTINUOUS
 10
-0.010772
 20
0.539941
  0
VERTEX
  8
PLAN_1
 62
     2
  6
CONTINUOUS
 10
-0.011677
 20
0.537677
  0
VERTEX
  8
PLAN_1
 62
     2
  6
CONTINUOUS
 10
-0.013488
 20
0.536319
  0
VERTEX
  8
PLAN_1
 62
     2
  6
CONTINUOUS
 10
-0.014846
 20
0.534961
  0
VERTEX
  8
PLAN_1
 62
     2
  6
CONTINUOUS
 10
-0.016657
 20
0.534055
  0
VERTEX
  8
PLAN_1
 62
     2
  6
CONTINUOUS
 10
-0.018016
 20
0.533150
  0
VERTEX
  8
PLAN_1
 62
     2
  6
CONTINUOUS
 10
-0.015299
 20
0.532244
  0
VERTEX
  8
PLAN_1
 62
     2
  6
CONTINUOUS
 10
-0.013035
 20
0.530886
  0
VERTEX
  8
PLAN_1
 62
     2
  6
CONTINUOUS
 10
-0.011224
 20
0.529075
  0
VERTEX
  8
PLAN_1
 62
     2
  6
CONTINUOUS
 10
-0.009413
 20
0.527264
  0
VERTEX
  8
PLAN_1
 62
     2
  6
CONTINUOUS
 10
-0.007602
 20
0.525000
  0
VERTEX
  8
PLAN_1
 62
     2
  6
CONTINUOUS
 10
-0.006697
 20
0.522283
  0
VERTEX
  8
PLAN_1
 62
     2
  6
CONTINUOUS
 10
-0.006244
 20
0.519567
  0
VERTEX
  8
PLAN_1
 62
     2
  6
CONTINUOUS
 10
-0.005791
 20
0.515945
  0
VERTEX
  8
PLAN_1
 62
     2
  6
CONTINUOUS
 10
-0.006244
 20
0.511417
  0
VERTEX
  8
PLAN_1
 62
     2
  6
CONTINUOUS
 10
-0.007150
 20
0.507343
  0
VERTEX
  8
PLAN_1
 62
     2
  6
CONTINUOUS
 10
-0.008055
 20
0.505079
  0
VERTEX
  8
PLAN_1
 62
     2
  6
CONTINUOUS
 10
-0.009413
 20
0.503268
  0
VERTEX
  8
PLAN_1
 62
     2
  6
CONTINUOUS
 10
-0.010319
 20
0.501457
  0
VERTEX
  8
PLAN_1
 62
     2
  6
CONTINUOUS
 10
-0.012130
 20
0.499646
  0
VERTEX
  8
PLAN_1
 62
     2
  6
CONTINUOUS
 10
-0.013488
 20
0.498287
  0
VERTEX
  8
PLAN_1
 62
     2
  6
CONTINUOUS
 10
-0.015752
 20
0.496929
  0
VERTEX
  8
PLAN_1
 62
     2
  6
CONTINUOUS
 10
-0.017563
 20
0.495571
  0
VERTEX
  8
PLAN_1
 62
     2
  6
CONTINUOUS
 10
-0.020280
 20
0.494665
  0
VERTEX
  8
PLAN_1
 62
     2
  6
CONTINUOUS
 10
-0.022996
 20
0.493760
  0
VERTEX
  8
PLAN_1
 62
     2
  6
CONTINUOUS
 10
-0.025713
 20
0.492854
  0
VERTEX
  8
PLAN_1
 62
     2
  6
CONTINUOUS
 10
-0.028882
 20
0.492402
  0
VERTEX
  8
PLAN_1
 62
     2
  6
CONTINUOUS
 10
-0.032051
 20
0.492402
  0
VERTEX
  8
PLAN_1
 62
     2
  6
CONTINUOUS
 10
-0.034315
 20
0.492402
  0
VERTEX
  8
PLAN_1
 62
     2
  6
CONTINUOUS
 10
-0.036126
 20
0.492854
  0
VERTEX
  8
PLAN_1
 62
     2
  6
CONTINUOUS
 10
-0.037937
 20
0.492854
  0
VERTEX
  8
PLAN_1
 62
     2
  6
CONTINUOUS
 10
-0.039748
 20
0.493307
  0
VERTEX
  8
PLAN_1
 62
     2
  6
CONTINUOUS
 10
-0.041106
 20
0.493760
  0
VERTEX
  8
PLAN_1
 62
     2
  6
CONTINUOUS
 10
-0.042917
 20
0.494213
  0
VERTEX
  8
PLAN_1
 62
     2
  6
CONTINUOUS
 10
-0.044276
 20
0.495118
  0
VERTEX
  8
PLAN_1
 62
     2
  6
CONTINUOUS
 10
-0.045634
 20
0.495571
  0
VERTEX
  8
PLAN_1
 62
     2
  6
CONTINUOUS
 10
-0.048350
 20
0.497382
  0
VERTEX
  8
PLAN_1
 62
     2
  6
CONTINUOUS
 10
-0.050614
 20
0.499646
  0
VERTEX
  8
PLAN_1
 62
     2
  6
CONTINUOUS
 10
-0.052425
 20
0.501909
  0
VERTEX
  8
PLAN_1
 62
     2
  6
CONTINUOUS
 10
-0.053783
 20
0.504626
  0
VERTEX
  8
PLAN_1
 62
     2
  6
CONTINUOUS
 10
-0.055142
 20
0.507343
  0
VERTEX
  8
PLAN_1
 62
     2
  6
CONTINUOUS
 10
-0.055594
 20
0.510512
  0
VERTEX
  8
PLAN_1
 62
     2
  6
CONTINUOUS
 10
-0.056047
 20
0.513681
  0
VERTEX
  8
PLAN_1
 62
     2
  6
CONTINUOUS
 10
-0.056500
 20
0.516850
  0
VERTEX
  8
PLAN_1
 62
     2
  6
CONTINUOUS
 10
-0.046992
 20
0.516850
  0
VERTEX
  8
PLAN_1
 62
     2
  6
CONTINUOUS
 10
-0.046992
 20
0.514134
  0
VERTEX
  8
PLAN_1
 62
     2
  6
CONTINUOUS
 10
-0.046539
 20
0.511417
  0
VERTEX
  8
PLAN_1
 62
     2
  6
CONTINUOUS
 10
-0.045634
 20
0.508701
  0
VERTEX
  8
PLAN_1
 62
     2
  6
CONTINUOUS
 10
-0.044276
 20
0.505984
  0
VERTEX
  8
PLAN_1
 62
     2
  6
CONTINUOUS
 10
-0.042465
 20
0.504173
  0
VERTEX
  8
PLAN_1
 62
     2
  6
CONTINUOUS
 10
-0.039748
 20
0.502362
  0
VERTEX
  8
PLAN_1
 62
     2
  6
CONTINUOUS
 10
-0.037937
 20
0.501457
  0
VERTEX
  8
PLAN_1
 62
     2
  6
CONTINUOUS
 10
-0.036126
 20
0.501004
  0
VERTEX
  8
PLAN_1
 62
     2
  6
CONTINUOUS
 10
-0.033862
 20
0.501004
  0
VERTEX
  8
PLAN_1
 62
     2
  6
CONTINUOUS
 10
-0.031598
 20
0.500551
  0
VERTEX
  8
PLAN_1
 62
     2
  6
CONTINUOUS
 10
-0.027976
 20
0.501004
  0
VERTEX
  8
PLAN_1
 62
     2
  6
CONTINUOUS
 10
-0.025260
 20
0.501909
  0
VERTEX
  8
PLAN_1
 62
     2
  6
CONTINUOUS
 10
-0.022543
 20
0.502815
  0
VERTEX
  8
PLAN_1
 62
     2
  6
CONTINUOUS
 10
-0.019827
 20
0.504626
  0
VERTEX
  8
PLAN_1
 62
     2
  6
CONTINUOUS
 10
-0.018016
 20
0.506890
  0
VERTEX
  8
PLAN_1
 62
     2
  6
CONTINUOUS
 10
-0.016657
 20
0.509154
  0
VERTEX
  8
PLAN_1
 62
     2
  6
CONTINUOUS
 10
-0.015752
 20
0.511870
  0
VERTEX
  8
PLAN_1
 62
     2
  6
CONTINUOUS
 10
-0.015752
 20
0.515039
  0
VERTEX
  8
PLAN_1
 62
     2
  6
CONTINUOUS
 10
-0.015752
 20
0.516850
  0
VERTEX
  8
PLAN_1
 62
     2
  6
CONTINUOUS
 10
-0.016205
 20
0.519114
  0
VERTEX
  8
PLAN_1
 62
     2
  6
CONTINUOUS
 10
-0.016657
 20
0.520472
  0
VERTEX
  8
PLAN_1
 62
     2
  6
CONTINUOUS
 10
-0.017563
 20
0.522283
  0
VERTEX
  8
PLAN_1
 62
     2
  6
CONTINUOUS
 10
-0.019374
 20
0.524547
  0
VERTEX
  8
PLAN_1
 62
     2
  6
CONTINUOUS
 10
-0.021638
 20
0.526358
  0
VERTEX
  8
PLAN_1
 62
     2
  6
CONTINUOUS
 10
-0.024354
 20
0.527264
  0
VERTEX
  8
PLAN_1
 62
     2
  6
CONTINUOUS
 10
-0.027524
 20
0.527717
  0
VERTEX
  8
PLAN_1
 62
     2
  6
CONTINUOUS
 10
-0.030240
 20
0.528169
  0
VERTEX
  8
PLAN_1
 62
     2
  6
CONTINUOUS
 10
-0.032504
 20
0.528169
  0
VERTEX
  8
PLAN_1
 62
     2
  6
CONTINUOUS
 10
-0.032957
 20
0.528169
  0
VERTEX
  8
PLAN_1
 62
     2
  6
CONTINUOUS
 10
-0.033862
 20
0.528169
  0
VERTEX
  8
PLAN_1
 62
     2
  6
CONTINUOUS
 10
-0.034315
 20
0.528169
  0
VERTEX
  8
PLAN_1
 62
     2
  6
CONTINUOUS
 10
-0.034768
 20
0.528169
  0
VERTEX
  8
PLAN_1
 62
     2
  6
CONTINUOUS
 10
-0.035220
 20
0.528169
  0
VERTEX
  8
PLAN_1
 62
     2
  6
CONTINUOUS
 10
-0.035673
 20
0.528169
  0
VERTEX
  8
PLAN_1
 62
     2
  6
CONTINUOUS
 10
-0.036126
 20
0.528169
  0
VERTEX
  8
PLAN_1
 62
     2
  6
CONTINUOUS
 10
-0.037031
 20
0.528169
  0
VERTEX
  8
PLAN_1
 62
     2
  6
CONTINUOUS
 10
-0.037031
 20
0.535866
  0
SEQEND
  8
0
  0
SOLID
  8
PLAN_1
 62
     2
 10
-1.616673
 20
0.773559
 11
-1.562799
 21
0.744134
 12
-1.616673
 22
0.773559
 13
-1.555555
 23
0.774917
  0
POLYLINE
  8
PLAN_1
 62
     2
  6
CONTINUOUS
 66
     1
 40
0.003000
 41
0.003000
  0
VERTEX
  8
PLAN_1
 62
     2
  6
CONTINUOUS
 10
-1.616673
 20
0.773559
  0
VERTEX
  8
PLAN_1
 62
     2
  6
CONTINUOUS
 10
-1.562799
 20
0.744134
  0
VERTEX
  8
PLAN_1
 62
     2
  6
CONTINUOUS
 10
-1.555555
 20
0.774917
  0
VERTEX
  8
PLAN_1
 62
     2
  6
CONTINUOUS
 10
-1.616673
 20
0.773559
  0
SEQEND
  8
0
  0
POLYLINE
  8
PLAN_1
 62
     2
  6
CONTINUOUS
 66
     1
 40
0.004071
 41
0.004071
  0
VERTEX
  8
PLAN_1
 62
     2
  6
CONTINUOUS
 10
-1.580457
 20
0.764504
  0
VERTEX
  8
PLAN_1
 62
     2
  6
CONTINUOUS
 10
-0.863752
 20
0.595630
  0
VERTEX
  8
PLAN_1
 62
     2
  6
CONTINUOUS
 10
0.094720
 20
0.595630
  0
SEQEND
  8
0
  0
POLYLINE
  8
PLAN_1
 62
     2
  6
CONTINUOUS
 66
     1
 40
0.004071
 41
0.004071
  0
VERTEX
  8
PLAN_1
 62
     2
  6
CONTINUOUS
 10
-0.490685
 20
0.809780
  0
VERTEX
  8
PLAN_1
 62
     2
  6
CONTINUOUS
 10
-0.490685
 20
3.586949
  0
SEQEND
  8
0
  0
SOLID
  8
PLAN_1
 62
     2
 10
-0.490685
 20
3.616378
 11
-0.506531
 21
3.557520
 12
-0.490685
 22
3.616378
 13
-0.475291
 23
3.557520
  0
POLYLINE
  8
PLAN_1
 62
     2
  6
CONTINUOUS
 66
     1
 40
0.003000
 41
0.003000
  0
VERTEX
  8
PLAN_1
 62
     2
  6
CONTINUOUS
 10
-0.490685
 20
3.616378
  0
VERTEX
  8
PLAN_1
 62
     2
  6
CONTINUOUS
 10
-0.506531
 20
3.557520
  0
VERTEX
  8
PLAN_1
 62
     2
  6
CONTINUOUS
 10
-0.475291
 20
3.557520
  0
VERTEX
  8
PLAN_1
 62
     2
  6
CONTINUOUS
 10
-0.490685
 20
3.616378
  0
SEQEND
  8
0
  0
SOLID
  8
PLAN_1
 62
     2
 10
-0.490685
 20
0.779898
 11
-0.506531
 21
0.839209
 12
-0.490685
 22
0.779898
 13
-0.475291
 23
0.839209
  0
POLYLINE
  8
PLAN_1
 62
     2
  6
CONTINUOUS
 66
     1
 40
0.003000
 41
0.003000
  0
VERTEX
  8
PLAN_1
 62
     2
  6
CONTINUOUS
 10
-0.490685
 20
0.779898
  0
VERTEX
  8
PLAN_1
 62
     2
  6
CONTINUOUS
 10
-0.506531
 20
0.839209
  0
VERTEX
  8
PLAN_1
 62
     2
  6
CONTINUOUS
 10
-0.475291
 20
0.839209
  0
VERTEX
  8
PLAN_1
 62
     2
  6
CONTINUOUS
 10
-0.490685
 20
0.779898
  0
SEQEND
  8
0
  0
POLYLINE
  8
PLAN_1
 62
     2
  6
CONTINUOUS
 66
     1
 40
0.003000
 41
0.003000
  0
VERTEX
  8
PLAN_1
 62
     2
  6
CONTINUOUS
 10
-0.586217
 20
2.101024
  0
VERTEX
  8
PLAN_1
 62
     2
  6
CONTINUOUS
 10
-0.586217
 20
2.151280
  0
VERTEX
  8
PLAN_1
 62
     2
  6
CONTINUOUS
 10
-0.578067
 20
2.151280
  0
VERTEX
  8
PLAN_1
 62
     2
  6
CONTINUOUS
 10
-0.574445
 20
2.148110
  0
VERTEX
  8
PLAN_1
 62
     2
  6
CONTINUOUS
 10
-0.569465
 20
2.144488
  0
VERTEX
  8
PLAN_1
 62
     2
  6
CONTINUOUS
 10
-0.563126
 20
2.139961
  0
VERTEX
  8
PLAN_1
 62
     2
  6
CONTINUOUS
 10
-0.555882
 20
2.135886
  0
VERTEX
  8
PLAN_1
 62
     2
  6
CONTINUOUS
 10
-0.546827
 20
2.131358
  0
VERTEX
  8
PLAN_1
 62
     2
  6
CONTINUOUS
 10
-0.537319
 20
2.127283
  0
VERTEX
  8
PLAN_1
 62
     2
  6
CONTINUOUS
 10
-0.531886
 20
2.125472
  0
VERTEX
  8
PLAN_1
 62
     2
  6
CONTINUOUS
 10
-0.526453
 20
2.123661
  0
VERTEX
  8
PLAN_1
 62
     2
  6
CONTINUOUS
 10
-0.520567
 20
2.122303
  0
VERTEX
  8
PLAN_1
 62
     2
  6
CONTINUOUS
 10
-0.514681
 20
2.121398
  0
VERTEX
  8
PLAN_1
 62
     2
  6
CONTINUOUS
 10
-0.514681
 20
2.111437
  0
VERTEX
  8
PLAN_1
 62
     2
  6
CONTINUOUS
 10
-0.522378
 20
2.112795
  0
VERTEX
  8
PLAN_1
 62
     2
  6
CONTINUOUS
 10
-0.530528
 20
2.115059
  0
VERTEX
  8
PLAN_1
 62
     2
  6
CONTINUOUS
 10
-0.538677
 20
2.118228
  0
VERTEX
  8
PLAN_1
 62
     2
  6
CONTINUOUS
 10
-0.547280
 20
2.121850
  0
VERTEX
  8
PLAN_1
 62
     2
  6
CONTINUOUS
 10
-0.555429
 20
2.126378
  0
VERTEX
  8
PLAN_1
 62
     2
  6
CONTINUOUS
 10
-0.563126
 20
2.130906
  0
VERTEX
  8
PLAN_1
 62
     2
  6
CONTINUOUS
 10
-0.570370
 20
2.135886
  0
VERTEX
  8
PLAN_1
 62
     2
  6
CONTINUOUS
 10
-0.577161
 20
2.141319
  0
VERTEX
  8
PLAN_1
 62
     2
  6
CONTINUOUS
 10
-0.577161
 20
2.101024
  0
VERTEX
  8
PLAN_1
 62
     2
  6
CONTINUOUS
 10
-0.586217
 20
2.101024
  0
SEQEND
  8
0
  0
POLYLINE
  8
PLAN_1
 62
     2
  6
CONTINUOUS
 66
     1
 40
0.003000
 41
0.003000
  0
VERTEX
  8
PLAN_1
 62
     2
  6
CONTINUOUS
 10
-0.561315
 20
2.159429
  0
VERTEX
  8
PLAN_1
 62
     2
  6
CONTINUOUS
 10
-0.565843
 20
2.159882
  0
VERTEX
  8
PLAN_1
 62
     2
  6
CONTINUOUS
 10
-0.569465
 20
2.160335
  0
VERTEX
  8
PLAN_1
 62
     2
  6
CONTINUOUS
 10
-0.572634
 20
2.161240
  0
VERTEX
  8
PLAN_1
 62
     2
  6
CONTINUOUS
 10
-0.575350
 20
2.162146
  0
VERTEX
  8
PLAN_1
 62
     2
  6
CONTINUOUS
 10
-0.578067
 20
2.163957
  0
VERTEX
  8
PLAN_1
 62
     2
  6
CONTINUOUS
 10
-0.580331
 20
2.165315
  0
VERTEX
  8
PLAN_1
 62
     2
  6
CONTINUOUS
 10
-0.582142
 20
2.167126
  0
VERTEX
  8
PLAN_1
 62
     2
  6
CONTINUOUS
 10
-0.583500
 20
2.169390
  0
VERTEX
  8
PLAN_1
 62
     2
  6
CONTINUOUS
 10
-0.585764
 20
2.173465
  0
VERTEX
  8
PLAN_1
 62
     2
  6
CONTINUOUS
 10
-0.586669
 20
2.177539
  0
VERTEX
  8
PLAN_1
 62
     2
  6
CONTINUOUS
 10
-0.587575
 20
2.181614
  0
VERTEX
  8
PLAN_1
 62
     2
  6
CONTINUOUS
 10
-0.587575
 20
2.184783
  0
VERTEX
  8
PLAN_1
 62
     2
  6
CONTINUOUS
 10
-0.587122
 20
2.189311
  0
VERTEX
  8
PLAN_1
 62
     2
  6
CONTINUOUS
 10
-0.586217
 20
2.193839
  0
VERTEX
  8
PLAN_1
 62
     2
  6
CONTINUOUS
 10
-0.584406
 20
2.197461
  0
VERTEX
  8
PLAN_1
 62
     2
  6
CONTINUOUS
 10
-0.581689
 20
2.201083
  0
VERTEX
  8
PLAN_1
 62
     2
  6
CONTINUOUS
 10
-0.578520
 20
2.203799
  0
VERTEX
  8
PLAN_1
 62
     2
  6
CONTINUOUS
 10
-0.574898
 20
2.206063
  0
VERTEX
  8
PLAN_1
 62
     2
  6
CONTINUOUS
 10
-0.573087
 20
2.206516
  0
VERTEX
  8
PLAN_1
 62
     2
  6
CONTINUOUS
 10
-0.570823
 20
2.207421
  0
VERTEX
  8
PLAN_1
 62
     2
  6
CONTINUOUS
 10
-0.568106
 20
2.207421
  0
VERTEX
  8
PLAN_1
 62
     2
  6
CONTINUOUS
 10
-0.565843
 20
2.207874
  0
VERTEX
  8
PLAN_1
 62
     2
  6
CONTINUOUS
 10
-0.561315
 20
2.207421
  0
VERTEX
  8
PLAN_1
 62
     2
  6
CONTINUOUS
 10
-0.557240
 20
2.206063
  0
VERTEX
  8
PLAN_1
 62
     2
  6
CONTINUOUS
 10
-0.553618
 20
2.204252
  0
VERTEX
  8
PLAN_1
 62
     2
  6
CONTINUOUS
 10
-0.550902
 20
2.201988
  0
VERTEX
  8
PLAN_1
 62
     2
  6
CONTINUOUS
 10
-0.548185
 20
2.199272
  0
VERTEX
  8
PLAN_1
 62
     2
  6
CONTINUOUS
 10
-0.545921
 20
2.195650
  0
VERTEX
  8
PLAN_1
 62
     2
  6
CONTINUOUS
 10
-0.543657
 20
2.192028
  0
VERTEX
  8
PLAN_1
 62
     2
  6
CONTINUOUS
 10
-0.541394
 20
2.187953
  0
VERTEX
  8
PLAN_1
 62
     2
  6
CONTINUOUS
 10
-0.537319
 20
2.180709
  0
VERTEX
  8
PLAN_1
 62
     2
  6
CONTINUOUS
 10
-0.535055
 20
2.177087
  0
VERTEX
  8
PLAN_1
 62
     2
  6
CONTINUOUS
 10
-0.533244
 20
2.174370
  0
VERTEX
  8
PLAN_1
 62
     2
  6
CONTINUOUS
 10
-0.530980
 20
2.172106
  0
VERTEX
  8
PLAN_1
 62
     2
  6
CONTINUOUS
 10
-0.529169
 20
2.170748
  0
VERTEX
  8
PLAN_1
 62
     2
  6
CONTINUOUS
 10
-0.527358
 20
2.169390
  0
VERTEX
  8
PLAN_1
 62
     2
  6
CONTINUOUS
 10
-0.525547
 20
2.168484
  0
VERTEX
  8
PLAN_1
 62
     2
  6
CONTINUOUS
 10
-0.524189
 20
2.168031
  0
VERTEX
  8
PLAN_1
 62
     2
  6
CONTINUOUS
 10
-0.523283
 20
2.168031
  0
VERTEX
  8
PLAN_1
 62
     2
  6
CONTINUOUS
 10
-0.523283
 20
2.207874
  0
VERTEX
  8
PLAN_1
 62
     2
  6
CONTINUOUS
 10
-0.514681
 20
2.207874
  0
VERTEX
  8
PLAN_1
 62
     2
  6
CONTINUOUS
 10
-0.514681
 20
2.157618
  0
VERTEX
  8
PLAN_1
 62
     2
  6
CONTINUOUS
 10
-0.519661
 20
2.158071
  0
VERTEX
  8
PLAN_1
 62
     2
  6
CONTINUOUS
 10
-0.524642
 20
2.158976
  0
VERTEX
  8
PLAN_1
 62
     2
  6
CONTINUOUS
 10
-0.528717
 20
2.160787
  0
VERTEX
  8
PLAN_1
 62
     2
  6
CONTINUOUS
 10
-0.532339
 20
2.162598
  0
VERTEX
  8
PLAN_1
 62
     2
  6
CONTINUOUS
 10
-0.535961
 20
2.165315
  0
VERTEX
  8
PLAN_1
 62
     2
  6
CONTINUOUS
 10
-0.538677
 20
2.168031
  0
VERTEX
  8
PLAN_1
 62
     2
  6
CONTINUOUS
 10
-0.541394
 20
2.171201
  0
VERTEX
  8
PLAN_1
 62
     2
  6
CONTINUOUS
 10
-0.543657
 20
2.174823
  0
VERTEX
  8
PLAN_1
 62
     2
  6
CONTINUOUS
 10
-0.549091
 20
2.184331
  0
VERTEX
  8
PLAN_1
 62
     2
  6
CONTINUOUS
 10
-0.550902
 20
2.187500
  0
VERTEX
  8
PLAN_1
 62
     2
  6
CONTINUOUS
 10
-0.552260
 20
2.189764
  0
VERTEX
  8
PLAN_1
 62
     2
  6
CONTINUOUS
 10
-0.554071
 20
2.192028
  0
VERTEX
  8
PLAN_1
 62
     2
  6
CONTINUOUS
 10
-0.555882
 20
2.194291
  0
VERTEX
  8
PLAN_1
 62
     2
  6
CONTINUOUS
 10
-0.557693
 20
2.195650
  0
VERTEX
  8
PLAN_1
 62
     2
  6
CONTINUOUS
 10
-0.559957
 20
2.197008
  0
VERTEX
  8
PLAN_1
 62
     2
  6
CONTINUOUS
 10
-0.563126
 20
2.197461
  0
VERTEX
  8
PLAN_1
 62
     2
  6
CONTINUOUS
 10
-0.566295
 20
2.197913
  0
VERTEX
  8
PLAN_1
 62
     2
  6
CONTINUOUS
 10
-0.568559
 20
2.197913
  0
VERTEX
  8
PLAN_1
 62
     2
  6
CONTINUOUS
 10
-0.570823
 20
2.197008
  0
VERTEX
  8
PLAN_1
 62
     2
  6
CONTINUOUS
 10
-0.573087
 20
2.196102
  0
VERTEX
  8
PLAN_1
 62
     2
  6
CONTINUOUS
 10
-0.574898
 20
2.194744
  0
VERTEX
  8
PLAN_1
 62
     2
  6
CONTINUOUS
 10
-0.576709
 20
2.192933
  0
VERTEX
  8
PLAN_1
 62
     2
  6
CONTINUOUS
 10
-0.578067
 20
2.190217
  0
VERTEX
  8
PLAN_1
 62
     2
  6
CONTINUOUS
 10
-0.578972
 20
2.187047
  0
VERTEX
  8
PLAN_1
 62
     2
  6
CONTINUOUS
 10
-0.579425
 20
2.183425
  0
VERTEX
  8
PLAN_1
 62
     2
  6
CONTINUOUS
 10
-0.579425
 20
2.181161
  0
VERTEX
  8
PLAN_1
 62
     2
  6
CONTINUOUS
 10
-0.578972
 20
2.178898
  0
VERTEX
  8
PLAN_1
 62
     2
  6
CONTINUOUS
 10
-0.578067
 20
2.177087
  0
VERTEX
  8
PLAN_1
 62
     2
  6
CONTINUOUS
 10
-0.577161
 20
2.175276
  0
VERTEX
  8
PLAN_1
 62
     2
  6
CONTINUOUS
 10
-0.576256
 20
2.173917
  0
VERTEX
  8
PLAN_1
 62
     2
  6
CONTINUOUS
 10
-0.574898
 20
2.172559
  0
VERTEX
  8
PLAN_1
 62
     2
  6
CONTINUOUS
 10
-0.573539
 20
2.171654
  0
VERTEX
  8
PLAN_1
 62
     2
  6
CONTINUOUS
 10
-0.572181
 20
2.171201
  0
VERTEX
  8
PLAN_1
 62
     2
  6
CONTINUOUS
 10
-0.569465
 20
2.169843
  0
VERTEX
  8
PLAN_1
 62
     2
  6
CONTINUOUS
 10
-0.566295
 20
2.168937
  0
VERTEX
  8
PLAN_1
 62
     2
  6
CONTINUOUS
 10
-0.563579
 20
2.168937
  0
VERTEX
  8
PLAN_1
 62
     2
  6
CONTINUOUS
 10
-0.561315
 20
2.168484
  0
VERTEX
  8
PLAN_1
 62
     2
  6
CONTINUOUS
 10
-0.561315
 20
2.159429
  0
SEQEND
  8
0
  0
POLYLINE
  8
PLAN_1
 62
     2
  6
CONTINUOUS
 66
     1
 40
0.003000
 41
0.003000
  0
VERTEX
  8
PLAN_1
 62
     2
  6
CONTINUOUS
 10
-0.525547
 20
2.221909
  0
VERTEX
  8
PLAN_1
 62
     2
  6
CONTINUOUS
 10
-0.525547
 20
2.232776
  0
VERTEX
  8
PLAN_1
 62
     2
  6
CONTINUOUS
 10
-0.515134
 20
2.232776
  0
VERTEX
  8
PLAN_1
 62
     2
  6
CONTINUOUS
 10
-0.510606
 20
2.232323
  0
VERTEX
  8
PLAN_1
 62
     2
  6
CONTINUOUS
 10
-0.506984
 20
2.231417
  0
VERTEX
  8
PLAN_1
 62
     2
  6
CONTINUOUS
 10
-0.504268
 20
2.229606
  0
VERTEX
  8
PLAN_1
 62
     2
  6
CONTINUOUS
 10
-0.502004
 20
2.228248
  0
VERTEX
  8
PLAN_1
 62
     2
  6
CONTINUOUS
 10
-0.500646
 20
2.225984
  0
VERTEX
  8
PLAN_1
 62
     2
  6
CONTINUOUS
 10
-0.499740
 20
2.224626
  0
VERTEX
  8
PLAN_1
 62
     2
  6
CONTINUOUS
 10
-0.499287
 20
2.222815
  0
VERTEX
  8
PLAN_1
 62
     2
  6
CONTINUOUS
 10
-0.499287
 20
2.221909
  0
VERTEX
  8
PLAN_1
 62
     2
  6
CONTINUOUS
 10
-0.503815
 20
2.221909
  0
VERTEX
  8
PLAN_1
 62
     2
  6
CONTINUOUS
 10
-0.504268
 20
2.223268
  0
VERTEX
  8
PLAN_1
 62
     2
  6
CONTINUOUS
 10
-0.505173
 20
2.224626
  0
VERTEX
  8
PLAN_1
 62
     2
  6
CONTINUOUS
 10
-0.506079
 20
2.225531
  0
VERTEX
  8
PLAN_1
 62
     2
  6
CONTINUOUS
 10
-0.507437
 20
2.226437
  0
VERTEX
  8
PLAN_1
 62
     2
  6
CONTINUOUS
 10
-0.509248
 20
2.226890
  0
VERTEX
  8
PLAN_1
 62
     2
  6
CONTINUOUS
 10
-0.511059
 20
2.227343
  0
VERTEX
  8
PLAN_1
 62
     2
  6
CONTINUOUS
 10
-0.512870
 20
2.227343
  0
VERTEX
  8
PLAN_1
 62
     2
  6
CONTINUOUS
 10
-0.514681
 20
2.227343
  0
VERTEX
  8
PLAN_1
 62
     2
  6
CONTINUOUS
 10
-0.514681
 20
2.221909
  0
VERTEX
  8
PLAN_1
 62
     2
  6
CONTINUOUS
 10
-0.525547
 20
2.221909
  0
SEQEND
  8
0
  0
POLYLINE
  8
PLAN_1
 62
     2
  6
CONTINUOUS
 66
     1
 40
0.003000
 41
0.003000
  0
VERTEX
  8
PLAN_1
 62
     2
  6
CONTINUOUS
 10
-0.557240
 20
2.257224
  0
VERTEX
  8
PLAN_1
 62
     2
  6
CONTINUOUS
 10
-0.558146
 20
2.258130
  0
VERTEX
  8
PLAN_1
 62
     2
  6
CONTINUOUS
 10
-0.558598
 20
2.259488
  0
VERTEX
  8
PLAN_1
 62
     2
  6
CONTINUOUS
 10
-0.559504
 20
2.261299
  0
VERTEX
  8
PLAN_1
 62
     2
  6
CONTINUOUS
 10
-0.560409
 20
2.262657
  0
VERTEX
  8
PLAN_1
 62
     2
  6
CONTINUOUS
 10
-0.560862
 20
2.264465
  0
VERTEX
  8
PLAN_1
 62
     2
  6
CONTINUOUS
 10
-0.561315
 20
2.266728
  0
VERTEX
  8
PLAN_1
 62
     2
  6
CONTINUOUS
 10
-0.561315
 20
2.268992
  0
VERTEX
  8
PLAN_1
 62
     2
  6
CONTINUOUS
 10
-0.561768
 20
2.271256
  0
VERTEX
  8
PLAN_1
 62
     2
  6
CONTINUOUS
 10
-0.561315
 20
2.275783
  0
VERTEX
  8
PLAN_1
 62
     2
  6
CONTINUOUS
 10
-0.559957
 20
2.279858
  0
VERTEX
  8
PLAN_1
 62
     2
  6
CONTINUOUS
 10
-0.558146
 20
2.283933
  0
VERTEX
  8
PLAN_1
 62
     2
  6
CONTINUOUS
 10
-0.555429
 20
2.287555
  0
VERTEX
  8
PLAN_1
 62
     2
  6
CONTINUOUS
 10
-0.554071
 20
2.289366
  0
VERTEX
  8
PLAN_1
 62
     2
  6
CONTINUOUS
 10
-0.552260
 20
2.290724
  0
VERTEX
  8
PLAN_1
 62
     2
  6
CONTINUOUS
 10
-0.550449
 20
2.292083
  0
VERTEX
  8
PLAN_1
 62
     2
  6
CONTINUOUS
 10
-0.548185
 20
2.292988
  0
VERTEX
  8
PLAN_1
 62
     2
  6
CONTINUOUS
 10
-0.545921
 20
2.293894
  0
VERTEX
  8
PLAN_1
 62
     2
  6
CONTINUOUS
 10
-0.543657
 20
2.294799
  0
VERTEX
  8
PLAN_1
 62
     2
  6
CONTINUOUS
 10
-0.540941
 20
2.295252
  0
VERTEX
  8
PLAN_1
 62
     2
  6
CONTINUOUS
 10
-0.538224
 20
2.295252
  0
VERTEX
  8
PLAN_1
 62
     2
  6
CONTINUOUS
 10
-0.534602
 20
2.294799
  0
VERTEX
  8
PLAN_1
 62
     2
  6
CONTINUOUS
 10
-0.530980
 20
2.294346
  0
VERTEX
  8
PLAN_1
 62
     2
  6
CONTINUOUS
 10
-0.526453
 20
2.292988
  0
VERTEX
  8
PLAN_1
 62
     2
  6
CONTINUOUS
 10
-0.522378
 20
2.290724
  0
VERTEX
  8
PLAN_1
 62
     2
  6
CONTINUOUS
 10
-0.520567
 20
2.288913
  0
VERTEX
  8
PLAN_1
 62
     2
  6
CONTINUOUS
 10
-0.518303
 20
2.287102
  0
VERTEX
  8
PLAN_1
 62
     2
  6
CONTINUOUS
 10
-0.516945
 20
2.284839
  0
VERTEX
  8
PLAN_1
 62
     2
  6
CONTINUOUS
 10
-0.515587
 20
2.282575
  0
VERTEX
  8
PLAN_1
 62
     2
  6
CONTINUOUS
 10
-0.514228
 20
2.279858
  0
VERTEX
  8
PLAN_1
 62
     2
  6
CONTINUOUS
 10
-0.513323
 20
2.276236
  0
VERTEX
  8
PLAN_1
 62
     2
  6
CONTINUOUS
 10
-0.512870
 20
2.272614
  0
VERTEX
  8
PLAN_1
 62
     2
  6
CONTINUOUS
 10
-0.512417
 20
2.268539
  0
VERTEX
  8
PLAN_1
 62
     2
  6
CONTINUOUS
 10
-0.512870
 20
2.264917
  0
VERTEX
  8
PLAN_1
 62
     2
  6
CONTINUOUS
 10
-0.513323
 20
2.261299
  0
VERTEX
  8
PLAN_1
 62
     2
  6
CONTINUOUS
 10
-0.514681
 20
2.257677
  0
VERTEX
  8
PLAN_1
 62
     2
  6
CONTINUOUS
 10
-0.516492
 20
2.254055
  0
VERTEX
  8
PLAN_1
 62
     2
  6
CONTINUOUS
 10
-0.517850
 20
2.252244
  0
VERTEX
  8
PLAN_1
 62
     2
  6
CONTINUOUS
 10
-0.519209
 20
2.250886
  0
VERTEX
  8
PLAN_1
 62
     2
  6
CONTINUOUS
 10
-0.520567
 20
2.249528
  0
VERTEX
  8
PLAN_1
 62
     2
  6
CONTINUOUS
 10
-0.522831
 20
2.248169
  0
VERTEX
  8
PLAN_1
 62
     2
  6
CONTINUOUS
 10
-0.524642
 20
2.247264
  0
VERTEX
  8
PLAN_1
 62
     2
  6
CONTINUOUS
 10
-0.527358
 20
2.246358
  0
VERTEX
  8
PLAN_1
 62
     2
  6
CONTINUOUS
 10
-0.529622
 20
2.245453
  0
VERTEX
  8
PLAN_1
 62
     2
  6
CONTINUOUS
 10
-0.532791
 20
2.245000
  0
VERTEX
  8
PLAN_1
 62
     2
  6
CONTINUOUS
 10
-0.532791
 20
2.254508
  0
VERTEX
  8
PLAN_1
 62
     2
  6
CONTINUOUS
 10
-0.529622
 20
2.254961
  0
VERTEX
  8
PLAN_1
 62
     2
  6
CONTINUOUS
 10
-0.527358
 20
2.256319
  0
VERTEX
  8
PLAN_1
 62
     2
  6
CONTINUOUS
 10
-0.525094
 20
2.257677
  0
VERTEX
  8
PLAN_1
 62
     2
  6
CONTINUOUS
 10
-0.523283
 20
2.259488
  0
VERTEX
  8
PLAN_1
 62
     2
  6
CONTINUOUS
 10
-0.521925
 20
2.261752
  0
VERTEX
  8
PLAN_1
 62
     2
  6
CONTINUOUS
 10
-0.521020
 20
2.264465
  0
VERTEX
  8
PLAN_1
 62
     2
  6
CONTINUOUS
 10
-0.520567
 20
2.267181
  0
VERTEX
  8
PLAN_1
 62
     2
  6
CONTINUOUS
 10
-0.520567
 20
2.269898
  0
VERTEX
  8
PLAN_1
 62
     2
  6
CONTINUOUS
 10
-0.520567
 20
2.273520
  0
VERTEX
  8
PLAN_1
 62
     2
  6
CONTINUOUS
 10
-0.521925
 20
2.276236
  0
VERTEX
  8
PLAN_1
 62
     2
  6
CONTINUOUS
 10
-0.523283
 20
2.278953
  0
VERTEX
  8
PLAN_1
 62
     2
  6
CONTINUOUS
 10
-0.525547
 20
2.281217
  0
VERTEX
  8
PLAN_1
 62
     2
  6
CONTINUOUS
 10
-0.527811
 20
2.283028
  0
VERTEX
  8
PLAN_1
 62
     2
  6
CONTINUOUS
 10
-0.530528
 20
2.284386
  0
VERTEX
  8
PLAN_1
 62
     2
  6
CONTINUOUS
 10
-0.533697
 20
2.285291
  0
VERTEX
  8
PLAN_1
 62
     2
  6
CONTINUOUS
 10
-0.537319
 20
2.285291
  0
VERTEX
  8
PLAN_1
 62
     2
  6
CONTINUOUS
 10
-0.540941
 20
2.285291
  0
VERTEX
  8
PLAN_1
 62
     2
  6
CONTINUOUS
 10
-0.544110
 20
2.284386
  0
VERTEX
  8
PLAN_1
 62
     2
  6
CONTINUOUS
 10
-0.546827
 20
2.282575
  0
VERTEX
  8
PLAN_1
 62
     2
  6
CONTINUOUS
 10
-0.549091
 20
2.280764
  0
VERTEX
  8
PLAN_1
 62
     2
  6
CONTINUOUS
 10
-0.550902
 20
2.278500
  0
VERTEX
  8
PLAN_1
 62
     2
  6
CONTINUOUS
 10
-0.552260
 20
2.275783
  0
VERTEX
  8
PLAN_1
 62
     2
  6
CONTINUOUS
 10
-0.553165
 20
2.272614
  0
VERTEX
  8
PLAN_1
 62
     2
  6
CONTINUOUS
 10
-0.553618
 20
2.268992
  0
VERTEX
  8
PLAN_1
 62
     2
  6
CONTINUOUS
 10
-0.553165
 20
2.267181
  0
VERTEX
  8
PLAN_1
 62
     2
  6
CONTINUOUS
 10
-0.553165
 20
2.265370
  0
VERTEX
  8
PLAN_1
 62
     2
  6
CONTINUOUS
 10
-0.552260
 20
2.263563
  0
VERTEX
  8
PLAN_1
 62
     2
  6
CONTINUOUS
 10
-0.551807
 20
2.261752
  0
VERTEX
  8
PLAN_1
 62
     2
  6
CONTINUOUS
 10
-0.550449
 20
2.259941
  0
VERTEX
  8
PLAN_1
 62
     2
  6
CONTINUOUS
 10
-0.549543
 20
2.258583
  0
VERTEX
  8
PLAN_1
 62
     2
  6
CONTINUOUS
 10
-0.548185
 20
2.257224
  0
VERTEX
  8
PLAN_1
 62
     2
  6
CONTINUOUS
 10
-0.546374
 20
2.255866
  0
VERTEX
  8
PLAN_1
 62
     2
  6
CONTINUOUS
 10
-0.546827
 20
2.247717
  0
VERTEX
  8
PLAN_1
 62
     2
  6
CONTINUOUS
 10
-0.586217
 20
2.253150
  0
VERTEX
  8
PLAN_1
 62
     2
  6
CONTINUOUS
 10
-0.586217
 20
2.291177
  0
VERTEX
  8
PLAN_1
 62
     2
  6
CONTINUOUS
 10
-0.577161
 20
2.291177
  0
VERTEX
  8
PLAN_1
 62
     2
  6
CONTINUOUS
 10
-0.577161
 20
2.260394
  0
VERTEX
  8
PLAN_1
 62
     2
  6
CONTINUOUS
 10
-0.557240
 20
2.257224
  0
SEQEND
  8
0
  0
POLYLINE
  8
PLAN_1
 62
     2
  6
CONTINUOUS
 66
     1
 40
0.004071
 41
0.004071
  0
VERTEX
  8
PLAN_1
 62
     2
  6
CONTINUOUS
 10
-0.901783
 20
3.616378
  0
VERTEX
  8
PLAN_1
 62
     2
  6
CONTINUOUS
 10
-0.467142
 20
3.616378
  0
SEQEND
  8
0
  0
POLYLINE
  8
PLAN_1
 62
     2
  6
CONTINUOUS
 66
     1
 40
0.004071
 41
0.004071
  0
VERTEX
  8
PLAN_1
 62
     2
  6
CONTINUOUS
 10
-0.901783
 20
0.779898
  0
VERTEX
  8
PLAN_1
 62
     2
  6
CONTINUOUS
 10
-0.462614
 20
0.779898
  0
SEQEND
  8
0
  0
ENDSEC
  0
EOF
