  0
SECTION
  2
HEADER
  9
$ACADVER
  1
AC1006
  9
$EXTMIN
 10
-2.579000
 20
-4.067000
  9
$EXTMAX
 10
2.582657
 20
4.068000
  9
$LTSCALE
 40
0.000394
  9
$PDMODE
 70
    35
  9
$PDSIZE
 40
0.000315
  0
ENDSEC
  0
SECTION
  2
TABLES
  0
TABLE
  2
LTYPE
 70
     9
  0
LTYPE
  2
CONTINUOUS
 70
    64
  3
Solid line
 72
    65
 73
     0
 40
0.000000
  0
LTYPE
  2
DASHED
 70
    64
  3
__ __ __ __ __ __ __ __ __ __ __ __ __ __ __
 72
    65
 73
     2
 40
0.000003
 49
0.000002
 49
-0.000001
  0
LTYPE
  2
HIDDEN
 70
    64
  3
 _ _ _ _ _ _ _ _ _ _ _ _ _ _ _ _ _ _ _ _ _ _
 72
    65
 73
     2
 40
0.000001
 49
0.000001
 49
-0.000000
  0
LTYPE
  2
CENTER
 70
    64
  3
____ _ ____ _ ____ _ ____ _ ____ _ ____ _ ____
 72
    65
 73
     4
 40
0.000008
 49
0.000005
 49
-0.000001
 49
0.000001
 49
-0.000001
  0
LTYPE
  2
PHANTOM
 70
    64
  3
_____ _ _ _____ _ _ _____ _ _ _____ _ _ ____
 72
    65
 73
     6
 40
0.000010
 49
0.000005
 49
-0.000001
 49
0.000001
 49
-0.000001
 49
0.000001
 49
-0.000001
  0
LTYPE
  2
DOT
 70
    64
  3
...............................................
 72
    65
 73
     2
 40
0.000001
 49
0.000000
 49
-0.000001
  0
LTYPE
  2
DASHDOT
 70
    64
  3
__ . __ . __ . __ . __ . __ . __ . __ . __ . __
 72
    65
 73
     4
 40
0.000004
 49
0.000002
 49
-0.000001
 49
0.000000
 49
-0.000001
  0
LTYPE
  2
BORDER
 70
    64
  3
__ __ . __ __ . __ __ . __ __ . __ __ . __ __
 72
    65
 73
     6
 40
0.000007
 49
0.000002
 49
-0.000001
 49
0.000002
 49
-0.000001
 49
0.000000
 49
-0.000001
  0
LTYPE
  2
DIVIDE
 70
    64
  3
__ . . __ . . __ . . __ . . __ . . __ . . __
 72
    65
 73
     6
 40
0.000005
 49
0.000002
 49
-0.000001
 49
0.000000
 49
-0.000001
 49
0.000000
 49
-0.000001
  0
LTYPE
  2
DOTDOT
 70
    64
  3
 . .  . .  . .  . .  . .  . . 
 72
    65
 73
     5
 40
0.000002
 49
-0.000001
 49
0.000000
 49
-0.000001
 49
0.000000
 49
-0.000001
  0
ENDTAB
  0
TABLE
  2
STYLE
 70
     0
  0
ENDTAB
  0
TABLE
  2
LAYER
 70
     3
  0
LAYER
  2
FOREGROUND
 70
    64
 62
     7
  6
CONTINUOUS
  0
LAYER
  2
BACKGROUND
 70
    65
 62
    -7
  6
CONTINUOUS
  0
LAYER
  2
PLAN_1
 70
    64
 62
     7
  6
CONTINUOUS
  0
ENDTAB
  0
ENDSEC
  0
SECTION
  2
ENTITIES
  0
POLYLINE
  8
PLAN_1
  6
CONTINUOUS
 66
     1
 40
0.003000
 41
0.003000
  0
VERTEX
  8
PLAN_1
  6
CONTINUOUS
 10
0.768043
 20
-4.061917
  0
VERTEX
  8
PLAN_1
  6
CONTINUOUS
 10
0.611445
 20
-4.061917
  0
VERTEX
  8
PLAN_1
  6
CONTINUOUS
 10
0.611445
 20
-4.039035
  0
VERTEX
  8
PLAN_1
  6
CONTINUOUS
 10
0.733469
 20
-3.886504
  0
VERTEX
  8
PLAN_1
  6
CONTINUOUS
 10
0.620598
 20
-3.886504
  0
VERTEX
  8
PLAN_1
  6
CONTINUOUS
 10
0.620598
 20
-3.862610
  0
VERTEX
  8
PLAN_1
  6
CONTINUOUS
 10
0.768043
 20
-3.862610
  0
VERTEX
  8
PLAN_1
  6
CONTINUOUS
 10
0.768043
 20
-3.885488
  0
VERTEX
  8
PLAN_1
  6
CONTINUOUS
 10
0.645512
 20
-4.038020
  0
VERTEX
  8
PLAN_1
  6
CONTINUOUS
 10
0.768043
 20
-4.038020
  0
VERTEX
  8
PLAN_1
  6
CONTINUOUS
 10
0.768043
 20
-4.061917
  0
SEQEND
  8
0
  0
POLYLINE
  8
PLAN_1
  6
CONTINUOUS
 66
     1
 40
0.003000
 41
0.003000
  0
VERTEX
  8
PLAN_1
  6
CONTINUOUS
 10
0.935319
 20
-3.922602
  0
VERTEX
  8
PLAN_1
  6
CONTINUOUS
 10
0.933795
 20
-3.915996
  0
VERTEX
  8
PLAN_1
  6
CONTINUOUS
 10
0.931760
 20
-3.910402
  0
VERTEX
  8
PLAN_1
  6
CONTINUOUS
 10
0.929220
 20
-3.905319
  0
VERTEX
  8
PLAN_1
  6
CONTINUOUS
 10
0.926169
 20
-3.901248
  0
VERTEX
  8
PLAN_1
  6
CONTINUOUS
 10
0.923118
 20
-3.897181
  0
VERTEX
  8
PLAN_1
  6
CONTINUOUS
 10
0.919559
 20
-3.894130
  0
VERTEX
  8
PLAN_1
  6
CONTINUOUS
 10
0.916000
 20
-3.891083
  0
VERTEX
  8
PLAN_1
  6
CONTINUOUS
 10
0.911933
 20
-3.888539
  0
VERTEX
  8
PLAN_1
  6
CONTINUOUS
 10
0.907866
 20
-3.886504
  0
VERTEX
  8
PLAN_1
  6
CONTINUOUS
 10
0.903795
 20
-3.884980
  0
VERTEX
  8
PLAN_1
  6
CONTINUOUS
 10
0.899728
 20
-3.883453
  0
VERTEX
  8
PLAN_1
  6
CONTINUOUS
 10
0.895661
 20
-3.882437
  0
VERTEX
  8
PLAN_1
  6
CONTINUOUS
 10
0.887528
 20
-3.881421
  0
VERTEX
  8
PLAN_1
  6
CONTINUOUS
 10
0.879902
 20
-3.880913
  0
VERTEX
  8
PLAN_1
  6
CONTINUOUS
 10
0.872783
 20
-3.881421
  0
VERTEX
  8
PLAN_1
  6
CONTINUOUS
 10
0.866681
 20
-3.882437
  0
VERTEX
  8
PLAN_1
  6
CONTINUOUS
 10
0.860071
 20
-3.883965
  0
VERTEX
  8
PLAN_1
  6
CONTINUOUS
 10
0.854480
 20
-3.885996
  0
VERTEX
  8
PLAN_1
  6
CONTINUOUS
 10
0.848378
 20
-3.889047
  0
VERTEX
  8
PLAN_1
  6
CONTINUOUS
 10
0.843291
 20
-3.892098
  0
VERTEX
  8
PLAN_1
  6
CONTINUOUS
 10
0.838209
 20
-3.896165
  0
VERTEX
  8
PLAN_1
  6
CONTINUOUS
 10
0.833634
 20
-3.900740
  0
VERTEX
  8
PLAN_1
  6
CONTINUOUS
 10
0.829567
 20
-3.906335
  0
VERTEX
  8
PLAN_1
  6
CONTINUOUS
 10
0.825496
 20
-3.911925
  0
VERTEX
  8
PLAN_1
  6
CONTINUOUS
 10
0.822449
 20
-3.918535
  0
VERTEX
  8
PLAN_1
  6
CONTINUOUS
 10
0.819398
 20
-3.925654
  0
VERTEX
  8
PLAN_1
  6
CONTINUOUS
 10
0.817362
 20
-3.933280
  0
VERTEX
  8
PLAN_1
  6
CONTINUOUS
 10
0.815839
 20
-3.941417
  0
VERTEX
  8
PLAN_1
  6
CONTINUOUS
 10
0.814819
 20
-3.950567
  0
VERTEX
  8
PLAN_1
  6
CONTINUOUS
 10
0.814311
 20
-3.960228
  0
VERTEX
  8
PLAN_1
  6
CONTINUOUS
 10
0.814819
 20
-3.968870
  0
VERTEX
  8
PLAN_1
  6
CONTINUOUS
 10
0.815331
 20
-3.977008
  0
VERTEX
  8
PLAN_1
  6
CONTINUOUS
 10
0.816346
 20
-3.985142
  0
VERTEX
  8
PLAN_1
  6
CONTINUOUS
 10
0.817870
 20
-3.992768
  0
VERTEX
  8
PLAN_1
  6
CONTINUOUS
 10
0.819906
 20
-4.000394
  0
VERTEX
  8
PLAN_1
  6
CONTINUOUS
 10
0.822449
 20
-4.007004
  0
VERTEX
  8
PLAN_1
  6
CONTINUOUS
 10
0.825496
 20
-4.013614
  0
VERTEX
  8
PLAN_1
  6
CONTINUOUS
 10
0.829055
 20
-4.019209
  0
VERTEX
  8
PLAN_1
  6
CONTINUOUS
 10
0.833126
 20
-4.024291
  0
VERTEX
  8
PLAN_1
  6
CONTINUOUS
 10
0.837701
 20
-4.029374
  0
VERTEX
  8
PLAN_1
  6
CONTINUOUS
 10
0.843291
 20
-4.033445
  0
VERTEX
  8
PLAN_1
  6
CONTINUOUS
 10
0.849394
 20
-4.037004
  0
VERTEX
  8
PLAN_1
  6
CONTINUOUS
 10
0.856004
 20
-4.039543
  0
VERTEX
  8
PLAN_1
  6
CONTINUOUS
 10
0.863630
 20
-4.041579
  0
VERTEX
  8
PLAN_1
  6
CONTINUOUS
 10
0.871764
 20
-4.042594
  0
VERTEX
  8
PLAN_1
  6
CONTINUOUS
 10
0.880409
 20
-4.043102
  0
VERTEX
  8
PLAN_1
  6
CONTINUOUS
 10
0.887528
 20
-4.042594
  0
VERTEX
  8
PLAN_1
  6
CONTINUOUS
 10
0.895661
 20
-4.041071
  0
VERTEX
  8
PLAN_1
  6
CONTINUOUS
 10
0.899728
 20
-4.039543
  0
VERTEX
  8
PLAN_1
  6
CONTINUOUS
 10
0.903795
 20
-4.038020
  0
VERTEX
  8
PLAN_1
  6
CONTINUOUS
 10
0.907866
 20
-4.035984
  0
VERTEX
  8
PLAN_1
  6
CONTINUOUS
 10
0.911933
 20
-4.032933
  0
VERTEX
  8
PLAN_1
  6
CONTINUOUS
 10
0.916000
 20
-4.029886
  0
VERTEX
  8
PLAN_1
  6
CONTINUOUS
 10
0.920067
 20
-4.026327
  0
VERTEX
  8
PLAN_1
  6
CONTINUOUS
 10
0.923626
 20
-4.021748
  0
VERTEX
  8
PLAN_1
  6
CONTINUOUS
 10
0.927185
 20
-4.016665
  0
VERTEX
  8
PLAN_1
  6
CONTINUOUS
 10
0.930236
 20
-4.010563
  0
VERTEX
  8
PLAN_1
  6
CONTINUOUS
 10
0.933287
 20
-4.003953
  0
VERTEX
  8
PLAN_1
  6
CONTINUOUS
 10
0.935319
 20
-3.996835
  0
VERTEX
  8
PLAN_1
  6
CONTINUOUS
 10
0.937354
 20
-3.988193
  0
VERTEX
  8
PLAN_1
  6
CONTINUOUS
 10
0.963283
 20
-3.988193
  0
VERTEX
  8
PLAN_1
  6
CONTINUOUS
 10
0.962268
 20
-3.995311
  0
VERTEX
  8
PLAN_1
  6
CONTINUOUS
 10
0.960740
 20
-4.001921
  0
VERTEX
  8
PLAN_1
  6
CONTINUOUS
 10
0.959217
 20
-4.007512
  0
VERTEX
  8
PLAN_1
  6
CONTINUOUS
 10
0.957181
 20
-4.013614
  0
VERTEX
  8
PLAN_1
  6
CONTINUOUS
 10
0.955150
 20
-4.018697
  0
VERTEX
  8
PLAN_1
  6
CONTINUOUS
 10
0.952606
 20
-4.023783
  0
VERTEX
  8
PLAN_1
  6
CONTINUOUS
 10
0.950063
 20
-4.028358
  0
VERTEX
  8
PLAN_1
  6
CONTINUOUS
 10
0.947524
 20
-4.032425
  0
VERTEX
  8
PLAN_1
  6
CONTINUOUS
 10
0.944472
 20
-4.036492
  0
VERTEX
  8
PLAN_1
  6
CONTINUOUS
 10
0.941421
 20
-4.040051
  0
VERTEX
  8
PLAN_1
  6
CONTINUOUS
 10
0.938370
 20
-4.043102
  0
VERTEX
  8
PLAN_1
  6
CONTINUOUS
 10
0.934811
 20
-4.046154
  0
VERTEX
  8
PLAN_1
  6
CONTINUOUS
 10
0.928201
 20
-4.051748
  0
VERTEX
  8
PLAN_1
  6
CONTINUOUS
 10
0.921591
 20
-4.055815
  0
VERTEX
  8
PLAN_1
  6
CONTINUOUS
 10
0.914472
 20
-4.059374
  0
VERTEX
  8
PLAN_1
  6
CONTINUOUS
 10
0.907354
 20
-4.061917
  0
VERTEX
  8
PLAN_1
  6
CONTINUOUS
 10
0.900748
 20
-4.063949
  0
VERTEX
  8
PLAN_1
  6
CONTINUOUS
 10
0.894646
 20
-4.065476
  0
VERTEX
  8
PLAN_1
  6
CONTINUOUS
 10
0.883969
 20
-4.066492
  0
VERTEX
  8
PLAN_1
  6
CONTINUOUS
 10
0.876343
 20
-4.067000
  0
VERTEX
  8
PLAN_1
  6
CONTINUOUS
 10
0.867697
 20
-4.066492
  0
VERTEX
  8
PLAN_1
  6
CONTINUOUS
 10
0.859563
 20
-4.065476
  0
VERTEX
  8
PLAN_1
  6
CONTINUOUS
 10
0.851429
 20
-4.063949
  0
VERTEX
  8
PLAN_1
  6
CONTINUOUS
 10
0.843291
 20
-4.061406
  0
VERTEX
  8
PLAN_1
  6
CONTINUOUS
 10
0.835665
 20
-4.057846
  0
VERTEX
  8
PLAN_1
  6
CONTINUOUS
 10
0.828039
 20
-4.053780
  0
VERTEX
  8
PLAN_1
  6
CONTINUOUS
 10
0.820921
 20
-4.048697
  0
VERTEX
  8
PLAN_1
  6
CONTINUOUS
 10
0.814311
 20
-4.042594
  0
VERTEX
  8
PLAN_1
  6
CONTINUOUS
 10
0.811260
 20
-4.039543
  0
VERTEX
  8
PLAN_1
  6
CONTINUOUS
 10
0.808720
 20
-4.035984
  0
VERTEX
  8
PLAN_1
  6
CONTINUOUS
 10
0.805669
 20
-4.032425
  0
VERTEX
  8
PLAN_1
  6
CONTINUOUS
 10
0.803126
 20
-4.028358
  0
VERTEX
  8
PLAN_1
  6
CONTINUOUS
 10
0.800583
 20
-4.023783
  0
VERTEX
  8
PLAN_1
  6
CONTINUOUS
 10
0.798551
 20
-4.019717
  0
VERTEX
  8
PLAN_1
  6
CONTINUOUS
 10
0.796008
 20
-4.014630
  0
VERTEX
  8
PLAN_1
  6
CONTINUOUS
 10
0.794484
 20
-4.010055
  0
VERTEX
  8
PLAN_1
  6
CONTINUOUS
 10
0.792449
 20
-4.004461
  0
VERTEX
  8
PLAN_1
  6
CONTINUOUS
 10
0.790925
 20
-3.999378
  0
VERTEX
  8
PLAN_1
  6
CONTINUOUS
 10
0.789906
 20
-3.993276
  0
VERTEX
  8
PLAN_1
  6
CONTINUOUS
 10
0.788890
 20
-3.987685
  0
VERTEX
  8
PLAN_1
  6
CONTINUOUS
 10
0.787874
 20
-3.981075
  0
VERTEX
  8
PLAN_1
  6
CONTINUOUS
 10
0.787366
 20
-3.974972
  0
VERTEX
  8
PLAN_1
  6
CONTINUOUS
 10
0.786858
 20
-3.967854
  0
VERTEX
  8
PLAN_1
  6
CONTINUOUS
 10
0.786858
 20
-3.960736
  0
VERTEX
  8
PLAN_1
  6
CONTINUOUS
 10
0.786858
 20
-3.949551
  0
VERTEX
  8
PLAN_1
  6
CONTINUOUS
 10
0.788382
 20
-3.938874
  0
VERTEX
  8
PLAN_1
  6
CONTINUOUS
 10
0.790417
 20
-3.928705
  0
VERTEX
  8
PLAN_1
  6
CONTINUOUS
 10
0.792957
 20
-3.919043
  0
VERTEX
  8
PLAN_1
  6
CONTINUOUS
 10
0.796516
 20
-3.909894
  0
VERTEX
  8
PLAN_1
  6
CONTINUOUS
 10
0.800583
 20
-3.901248
  0
VERTEX
  8
PLAN_1
  6
CONTINUOUS
 10
0.805669
 20
-3.893114
  0
VERTEX
  8
PLAN_1
  6
CONTINUOUS
 10
0.811260
 20
-3.885996
  0
VERTEX
  8
PLAN_1
  6
CONTINUOUS
 10
0.817870
 20
-3.879386
  0
VERTEX
  8
PLAN_1
  6
CONTINUOUS
 10
0.824988
 20
-3.873795
  0
VERTEX
  8
PLAN_1
  6
CONTINUOUS
 10
0.828547
 20
-3.871252
  0
VERTEX
  8
PLAN_1
  6
CONTINUOUS
 10
0.832614
 20
-3.868709
  0
VERTEX
  8
PLAN_1
  6
CONTINUOUS
 10
0.836685
 20
-3.866677
  0
VERTEX
  8
PLAN_1
  6
CONTINUOUS
 10
0.840752
 20
-3.864642
  0
VERTEX
  8
PLAN_1
  6
CONTINUOUS
 10
0.844819
 20
-3.863118
  0
VERTEX
  8
PLAN_1
  6
CONTINUOUS
 10
0.849394
 20
-3.861591
  0
VERTEX
  8
PLAN_1
  6
CONTINUOUS
 10
0.853969
 20
-3.860067
  0
VERTEX
  8
PLAN_1
  6
CONTINUOUS
 10
0.859055
 20
-3.859047
  0
VERTEX
  8
PLAN_1
  6
CONTINUOUS
 10
0.869224
 20
-3.857524
  0
VERTEX
  8
PLAN_1
  6
CONTINUOUS
 10
0.879902
 20
-3.857016
  0
VERTEX
  8
PLAN_1
  6
CONTINUOUS
 10
0.889051
 20
-3.857524
  0
VERTEX
  8
PLAN_1
  6
CONTINUOUS
 10
0.897697
 20
-3.858539
  0
VERTEX
  8
PLAN_1
  6
CONTINUOUS
 10
0.905831
 20
-3.860067
  0
VERTEX
  8
PLAN_1
  6
CONTINUOUS
 10
0.913457
 20
-3.862610
  0
VERTEX
  8
PLAN_1
  6
CONTINUOUS
 10
0.920575
 20
-3.865657
  0
VERTEX
  8
PLAN_1
  6
CONTINUOUS
 10
0.927185
 20
-3.869217
  0
VERTEX
  8
PLAN_1
  6
CONTINUOUS
 10
0.933287
 20
-3.872776
  0
VERTEX
  8
PLAN_1
  6
CONTINUOUS
 10
0.938370
 20
-3.877354
  0
VERTEX
  8
PLAN_1
  6
CONTINUOUS
 10
0.943457
 20
-3.881929
  0
VERTEX
  8
PLAN_1
  6
CONTINUOUS
 10
0.947524
 20
-3.887012
  0
VERTEX
  8
PLAN_1
  6
CONTINUOUS
 10
0.951083
 20
-3.892606
  0
VERTEX
  8
PLAN_1
  6
CONTINUOUS
 10
0.954134
 20
-3.898201
  0
VERTEX
  8
PLAN_1
  6
CONTINUOUS
 10
0.957181
 20
-3.903791
  0
VERTEX
  8
PLAN_1
  6
CONTINUOUS
 10
0.959217
 20
-3.909894
  0
VERTEX
  8
PLAN_1
  6
CONTINUOUS
 10
0.960740
 20
-3.915996
  0
VERTEX
  8
PLAN_1
  6
CONTINUOUS
 10
0.961760
 20
-3.922602
  0
VERTEX
  8
PLAN_1
  6
CONTINUOUS
 10
0.935319
 20
-3.922602
  0
SEQEND
  8
0
  0
POLYLINE
  8
PLAN_1
  6
CONTINUOUS
 66
     1
 40
0.003000
 41
0.003000
  0
VERTEX
  8
PLAN_1
  6
CONTINUOUS
 10
1.022772
 20
-4.061917
  0
VERTEX
  8
PLAN_1
  6
CONTINUOUS
 10
0.996331
 20
-4.061917
  0
VERTEX
  8
PLAN_1
  6
CONTINUOUS
 10
0.996331
 20
-3.862610
  0
VERTEX
  8
PLAN_1
  6
CONTINUOUS
 10
1.022772
 20
-3.862610
  0
VERTEX
  8
PLAN_1
  6
CONTINUOUS
 10
1.022772
 20
-3.959213
  0
VERTEX
  8
PLAN_1
  6
CONTINUOUS
 10
1.119374
 20
-3.862610
  0
VERTEX
  8
PLAN_1
  6
CONTINUOUS
 10
1.157000
 20
-3.862610
  0
VERTEX
  8
PLAN_1
  6
CONTINUOUS
 10
1.073614
 20
-3.942941
  0
VERTEX
  8
PLAN_1
  6
CONTINUOUS
 10
1.159031
 20
-4.061917
  0
VERTEX
  8
PLAN_1
  6
CONTINUOUS
 10
1.123949
 20
-4.061917
  0
VERTEX
  8
PLAN_1
  6
CONTINUOUS
 10
1.054295
 20
-3.961752
  0
VERTEX
  8
PLAN_1
  6
CONTINUOUS
 10
1.022772
 20
-3.991752
  0
VERTEX
  8
PLAN_1
  6
CONTINUOUS
 10
1.022772
 20
-4.061917
  0
SEQEND
  8
0
  0
POLYLINE
  8
PLAN_1
  6
CONTINUOUS
 66
     1
 40
0.003000
 41
0.003000
  0
VERTEX
  8
PLAN_1
  6
CONTINUOUS
 10
1.190047
 20
-3.997343
  0
VERTEX
  8
PLAN_1
  6
CONTINUOUS
 10
1.190047
 20
-4.011579
  0
VERTEX
  8
PLAN_1
  6
CONTINUOUS
 10
1.190555
 20
-4.015650
  0
VERTEX
  8
PLAN_1
  6
CONTINUOUS
 10
1.190555
 20
-4.019717
  0
VERTEX
  8
PLAN_1
  6
CONTINUOUS
 10
1.191571
 20
-4.023276
  0
VERTEX
  8
PLAN_1
  6
CONTINUOUS
 10
1.192083
 20
-4.026835
  0
VERTEX
  8
PLAN_1
  6
CONTINUOUS
 10
1.193606
 20
-4.029374
  0
VERTEX
  8
PLAN_1
  6
CONTINUOUS
 10
1.194622
 20
-4.032425
  0
VERTEX
  8
PLAN_1
  6
CONTINUOUS
 10
1.196657
 20
-4.034461
  0
VERTEX
  8
PLAN_1
  6
CONTINUOUS
 10
1.198181
 20
-4.036492
  0
VERTEX
  8
PLAN_1
  6
CONTINUOUS
 10
1.200217
 20
-4.038528
  0
VERTEX
  8
PLAN_1
  6
CONTINUOUS
 10
1.202760
 20
-4.040051
  0
VERTEX
  8
PLAN_1
  6
CONTINUOUS
 10
1.204791
 20
-4.041071
  0
VERTEX
  8
PLAN_1
  6
CONTINUOUS
 10
1.207843
 20
-4.042087
  0
VERTEX
  8
PLAN_1
  6
CONTINUOUS
 10
1.213437
 20
-4.043610
  0
VERTEX
  8
PLAN_1
  6
CONTINUOUS
 10
1.220043
 20
-4.044122
  0
VERTEX
  8
PLAN_1
  6
CONTINUOUS
 10
1.224622
 20
-4.043610
  0
VERTEX
  8
PLAN_1
  6
CONTINUOUS
 10
1.228689
 20
-4.043102
  0
VERTEX
  8
PLAN_1
  6
CONTINUOUS
 10
1.232248
 20
-4.042594
  0
VERTEX
  8
PLAN_1
  6
CONTINUOUS
 10
1.235807
 20
-4.041071
  0
VERTEX
  8
PLAN_1
  6
CONTINUOUS
 10
1.238858
 20
-4.040051
  0
VERTEX
  8
PLAN_1
  6
CONTINUOUS
 10
1.241398
 20
-4.038020
  0
VERTEX
  8
PLAN_1
  6
CONTINUOUS
 10
1.243433
 20
-4.035984
  0
VERTEX
  8
PLAN_1
  6
CONTINUOUS
 10
1.245469
 20
-4.033953
  0
VERTEX
  8
PLAN_1
  6
CONTINUOUS
 10
1.246992
 20
-4.031409
  0
VERTEX
  8
PLAN_1
  6
CONTINUOUS
 10
1.248516
 20
-4.028866
  0
VERTEX
  8
PLAN_1
  6
CONTINUOUS
 10
1.249535
 20
-4.026327
  0
VERTEX
  8
PLAN_1
  6
CONTINUOUS
 10
1.250551
 20
-4.023276
  0
VERTEX
  8
PLAN_1
  6
CONTINUOUS
 10
1.251567
 20
-4.016665
  0
VERTEX
  8
PLAN_1
  6
CONTINUOUS
 10
1.252075
 20
-4.009547
  0
VERTEX
  8
PLAN_1
  6
CONTINUOUS
 10
1.252075
 20
-3.862610
  0
VERTEX
  8
PLAN_1
  6
CONTINUOUS
 10
1.279024
 20
-3.862610
  0
VERTEX
  8
PLAN_1
  6
CONTINUOUS
 10
1.279024
 20
-4.008020
  0
VERTEX
  8
PLAN_1
  6
CONTINUOUS
 10
1.278516
 20
-4.016157
  0
VERTEX
  8
PLAN_1
  6
CONTINUOUS
 10
1.277500
 20
-4.023783
  0
VERTEX
  8
PLAN_1
  6
CONTINUOUS
 10
1.275972
 20
-4.030902
  0
VERTEX
  8
PLAN_1
  6
CONTINUOUS
 10
1.273941
 20
-4.037004
  0
VERTEX
  8
PLAN_1
  6
CONTINUOUS
 10
1.271398
 20
-4.042087
  0
VERTEX
  8
PLAN_1
  6
CONTINUOUS
 10
1.267839
 20
-4.047169
  0
VERTEX
  8
PLAN_1
  6
CONTINUOUS
 10
1.264280
 20
-4.051240
  0
VERTEX
  8
PLAN_1
  6
CONTINUOUS
 10
1.260213
 20
-4.054799
  0
VERTEX
  8
PLAN_1
  6
CONTINUOUS
 10
1.256146
 20
-4.057846
  0
VERTEX
  8
PLAN_1
  6
CONTINUOUS
 10
1.251567
 20
-4.060390
  0
VERTEX
  8
PLAN_1
  6
CONTINUOUS
 10
1.246992
 20
-4.062933
  0
VERTEX
  8
PLAN_1
  6
CONTINUOUS
 10
1.241909
 20
-4.064457
  0
VERTEX
  8
PLAN_1
  6
CONTINUOUS
 10
1.236823
 20
-4.065476
  0
VERTEX
  8
PLAN_1
  6
CONTINUOUS
 10
1.231740
 20
-4.066492
  0
VERTEX
  8
PLAN_1
  6
CONTINUOUS
 10
1.226654
 20
-4.067000
  0
VERTEX
  8
PLAN_1
  6
CONTINUOUS
 10
1.221571
 20
-4.067000
  0
VERTEX
  8
PLAN_1
  6
CONTINUOUS
 10
1.213437
 20
-4.066492
  0
VERTEX
  8
PLAN_1
  6
CONTINUOUS
 10
1.205807
 20
-4.065476
  0
VERTEX
  8
PLAN_1
  6
CONTINUOUS
 10
1.199201
 20
-4.063949
  0
VERTEX
  8
PLAN_1
  6
CONTINUOUS
 10
1.193098
 20
-4.061917
  0
VERTEX
  8
PLAN_1
  6
CONTINUOUS
 10
1.188012
 20
-4.059374
  0
VERTEX
  8
PLAN_1
  6
CONTINUOUS
 10
1.183437
 20
-4.056323
  0
VERTEX
  8
PLAN_1
  6
CONTINUOUS
 10
1.179370
 20
-4.052764
  0
VERTEX
  8
PLAN_1
  6
CONTINUOUS
 10
1.175811
 20
-4.049205
  0
VERTEX
  8
PLAN_1
  6
CONTINUOUS
 10
1.173268
 20
-4.045138
  0
VERTEX
  8
PLAN_1
  6
CONTINUOUS
 10
1.170728
 20
-4.041071
  0
VERTEX
  8
PLAN_1
  6
CONTINUOUS
 10
1.168693
 20
-4.037004
  0
VERTEX
  8
PLAN_1
  6
CONTINUOUS
 10
1.167169
 20
-4.032933
  0
VERTEX
  8
PLAN_1
  6
CONTINUOUS
 10
1.166150
 20
-4.028866
  0
VERTEX
  8
PLAN_1
  6
CONTINUOUS
 10
1.165642
 20
-4.024799
  0
VERTEX
  8
PLAN_1
  6
CONTINUOUS
 10
1.165134
 20
-4.020732
  0
VERTEX
  8
PLAN_1
  6
CONTINUOUS
 10
1.165134
 20
-4.017173
  0
VERTEX
  8
PLAN_1
  6
CONTINUOUS
 10
1.165134
 20
-3.997343
  0
VERTEX
  8
PLAN_1
  6
CONTINUOUS
 10
1.190047
 20
-3.997343
  0
SEQEND
  8
0
  0
POLYLINE
  8
PLAN_1
  6
CONTINUOUS
 66
     1
 40
0.003000
 41
0.003000
  0
VERTEX
  8
PLAN_1
  6
CONTINUOUS
 10
1.415795
 20
-4.014122
  0
VERTEX
  8
PLAN_1
  6
CONTINUOUS
 10
1.415795
 20
-4.061917
  0
VERTEX
  8
PLAN_1
  6
CONTINUOUS
 10
1.391390
 20
-4.061917
  0
VERTEX
  8
PLAN_1
  6
CONTINUOUS
 10
1.391390
 20
-4.014122
  0
VERTEX
  8
PLAN_1
  6
CONTINUOUS
 10
1.305972
 20
-4.014122
  0
VERTEX
  8
PLAN_1
  6
CONTINUOUS
 10
1.305972
 20
-3.990224
  0
VERTEX
  8
PLAN_1
  6
CONTINUOUS
 10
1.395457
 20
-3.866677
  0
VERTEX
  8
PLAN_1
  6
CONTINUOUS
 10
1.415795
 20
-3.866677
  0
VERTEX
  8
PLAN_1
  6
CONTINUOUS
 10
1.415795
 20
-3.993276
  0
VERTEX
  8
PLAN_1
  6
CONTINUOUS
 10
1.444268
 20
-3.993276
  0
VERTEX
  8
PLAN_1
  6
CONTINUOUS
 10
1.444268
 20
-4.014122
  0
VERTEX
  8
PLAN_1
  6
CONTINUOUS
 10
1.415795
 20
-4.014122
  0
SEQEND
  8
0
  0
SOLID
  8
PLAN_1
 10
1.328343
 20
-3.993276
 11
1.391390
 21
-3.993276
 12
1.390882
 22
-3.904807
 13
1.391390
 23
-3.904807
  0
POLYLINE
  8
PLAN_1
  6
CONTINUOUS
 66
     1
 40
0.003000
 41
0.003000
  0
VERTEX
  8
PLAN_1
  6
CONTINUOUS
 10
1.328343
 20
-3.993276
  0
VERTEX
  8
PLAN_1
  6
CONTINUOUS
 10
1.391390
 20
-3.993276
  0
VERTEX
  8
PLAN_1
  6
CONTINUOUS
 10
1.391390
 20
-3.904807
  0
VERTEX
  8
PLAN_1
  6
CONTINUOUS
 10
1.390882
 20
-3.904807
  0
VERTEX
  8
PLAN_1
  6
CONTINUOUS
 10
1.328343
 20
-3.993276
  0
SEQEND
  8
0
  0
POLYLINE
  8
PLAN_1
  6
CONTINUOUS
 66
     1
 40
0.003000
 41
0.003000
  0
VERTEX
  8
PLAN_1
  6
CONTINUOUS
 10
1.553071
 20
-4.061917
  0
VERTEX
  8
PLAN_1
  6
CONTINUOUS
 10
1.527142
 20
-4.061917
  0
VERTEX
  8
PLAN_1
  6
CONTINUOUS
 10
1.527142
 20
-3.923114
  0
VERTEX
  8
PLAN_1
  6
CONTINUOUS
 10
1.481382
 20
-3.923114
  0
VERTEX
  8
PLAN_1
  6
CONTINUOUS
 10
1.481382
 20
-3.903791
  0
VERTEX
  8
PLAN_1
  6
CONTINUOUS
 10
1.492567
 20
-3.902776
  0
VERTEX
  8
PLAN_1
  6
CONTINUOUS
 10
1.502228
 20
-3.901760
  0
VERTEX
  8
PLAN_1
  6
CONTINUOUS
 10
1.506295
 20
-3.900740
  0
VERTEX
  8
PLAN_1
  6
CONTINUOUS
 10
1.509854
 20
-3.899217
  0
VERTEX
  8
PLAN_1
  6
CONTINUOUS
 10
1.513413
 20
-3.898201
  0
VERTEX
  8
PLAN_1
  6
CONTINUOUS
 10
1.516972
 20
-3.896165
  0
VERTEX
  8
PLAN_1
  6
CONTINUOUS
 10
1.519516
 20
-3.894130
  0
VERTEX
  8
PLAN_1
  6
CONTINUOUS
 10
1.522567
 20
-3.891591
  0
VERTEX
  8
PLAN_1
  6
CONTINUOUS
 10
1.524598
 20
-3.889047
  0
VERTEX
  8
PLAN_1
  6
CONTINUOUS
 10
1.527142
 20
-3.885488
  0
VERTEX
  8
PLAN_1
  6
CONTINUOUS
 10
1.529173
 20
-3.881929
  0
VERTEX
  8
PLAN_1
  6
CONTINUOUS
 10
1.530701
 20
-3.877354
  0
VERTEX
  8
PLAN_1
  6
CONTINUOUS
 10
1.532732
 20
-3.872268
  0
VERTEX
  8
PLAN_1
  6
CONTINUOUS
 10
1.534260
 20
-3.866677
  0
VERTEX
  8
PLAN_1
  6
CONTINUOUS
 10
1.553071
 20
-3.866677
  0
VERTEX
  8
PLAN_1
  6
CONTINUOUS
 10
1.553071
 20
-4.061917
  0
SEQEND
  8
0
  0
POLYLINE
  8
PLAN_1
  6
CONTINUOUS
 66
     1
 40
0.003000
 41
0.003000
  0
VERTEX
  8
PLAN_1
  6
CONTINUOUS
 10
1.685264
 20
-4.067000
  0
VERTEX
  8
PLAN_1
  6
CONTINUOUS
 10
1.680181
 20
-4.067000
  0
VERTEX
  8
PLAN_1
  6
CONTINUOUS
 10
1.675098
 20
-4.066492
  0
VERTEX
  8
PLAN_1
  6
CONTINUOUS
 10
1.670520
 20
-4.065476
  0
VERTEX
  8
PLAN_1
  6
CONTINUOUS
 10
1.665945
 20
-4.064457
  0
VERTEX
  8
PLAN_1
  6
CONTINUOUS
 10
1.661878
 20
-4.062933
  0
VERTEX
  8
PLAN_1
  6
CONTINUOUS
 10
1.658319
 20
-4.061406
  0
VERTEX
  8
PLAN_1
  6
CONTINUOUS
 10
1.654252
 20
-4.059374
  0
VERTEX
  8
PLAN_1
  6
CONTINUOUS
 10
1.651201
 20
-4.056831
  0
VERTEX
  8
PLAN_1
  6
CONTINUOUS
 10
1.647642
 20
-4.054799
  0
VERTEX
  8
PLAN_1
  6
CONTINUOUS
 10
1.644591
 20
-4.051748
  0
VERTEX
  8
PLAN_1
  6
CONTINUOUS
 10
1.642047
 20
-4.049205
  0
VERTEX
  8
PLAN_1
  6
CONTINUOUS
 10
1.639508
 20
-4.046154
  0
VERTEX
  8
PLAN_1
  6
CONTINUOUS
 10
1.634421
 20
-4.039543
  0
VERTEX
  8
PLAN_1
  6
CONTINUOUS
 10
1.630862
 20
-4.031917
  0
VERTEX
  8
PLAN_1
  6
CONTINUOUS
 10
1.627303
 20
-4.024291
  0
VERTEX
  8
PLAN_1
  6
CONTINUOUS
 10
1.624760
 20
-4.016157
  0
VERTEX
  8
PLAN_1
  6
CONTINUOUS
 10
1.622220
 20
-4.008020
  0
VERTEX
  8
PLAN_1
  6
CONTINUOUS
 10
1.620693
 20
-3.999378
  0
VERTEX
  8
PLAN_1
  6
CONTINUOUS
 10
1.619677
 20
-3.991244
  0
VERTEX
  8
PLAN_1
  6
CONTINUOUS
 10
1.618661
 20
-3.982598
  0
VERTEX
  8
PLAN_1
  6
CONTINUOUS
 10
1.618154
 20
-3.974465
  0
VERTEX
  8
PLAN_1
  6
CONTINUOUS
 10
1.618154
 20
-3.966839
  0
VERTEX
  8
PLAN_1
  6
CONTINUOUS
 10
1.618154
 20
-3.959213
  0
VERTEX
  8
PLAN_1
  6
CONTINUOUS
 10
1.618661
 20
-3.951075
  0
VERTEX
  8
PLAN_1
  6
CONTINUOUS
 10
1.619677
 20
-3.942433
  0
VERTEX
  8
PLAN_1
  6
CONTINUOUS
 10
1.620693
 20
-3.933791
  0
VERTEX
  8
PLAN_1
  6
CONTINUOUS
 10
1.622220
 20
-3.925654
  0
VERTEX
  8
PLAN_1
  6
CONTINUOUS
 10
1.624760
 20
-3.917520
  0
VERTEX
  8
PLAN_1
  6
CONTINUOUS
 10
1.627303
 20
-3.909386
  0
VERTEX
  8
PLAN_1
  6
CONTINUOUS
 10
1.630862
 20
-3.901248
  0
VERTEX
  8
PLAN_1
  6
CONTINUOUS
 10
1.634421
 20
-3.894130
  0
VERTEX
  8
PLAN_1
  6
CONTINUOUS
 10
1.639508
 20
-3.887524
  0
VERTEX
  8
PLAN_1
  6
CONTINUOUS
 10
1.642047
 20
-3.884472
  0
VERTEX
  8
PLAN_1
  6
CONTINUOUS
 10
1.644591
 20
-3.881421
  0
VERTEX
  8
PLAN_1
  6
CONTINUOUS
 10
1.647642
 20
-3.878878
  0
VERTEX
  8
PLAN_1
  6
CONTINUOUS
 10
1.651201
 20
-3.876335
  0
VERTEX
  8
PLAN_1
  6
CONTINUOUS
 10
1.654252
 20
-3.874303
  0
VERTEX
  8
PLAN_1
  6
CONTINUOUS
 10
1.658319
 20
-3.872268
  0
VERTEX
  8
PLAN_1
  6
CONTINUOUS
 10
1.661878
 20
-3.870744
  0
VERTEX
  8
PLAN_1
  6
CONTINUOUS
 10
1.665945
 20
-3.869217
  0
VERTEX
  8
PLAN_1
  6
CONTINUOUS
 10
1.670520
 20
-3.868201
  0
VERTEX
  8
PLAN_1
  6
CONTINUOUS
 10
1.675098
 20
-3.867185
  0
VERTEX
  8
PLAN_1
  6
CONTINUOUS
 10
1.680181
 20
-3.866677
  0
VERTEX
  8
PLAN_1
  6
CONTINUOUS
 10
1.685264
 20
-3.866677
  0
VERTEX
  8
PLAN_1
  6
CONTINUOUS
 10
1.690350
 20
-3.866677
  0
VERTEX
  8
PLAN_1
  6
CONTINUOUS
 10
1.694925
 20
-3.867185
  0
VERTEX
  8
PLAN_1
  6
CONTINUOUS
 10
1.699500
 20
-3.868201
  0
VERTEX
  8
PLAN_1
  6
CONTINUOUS
 10
1.704079
 20
-3.869217
  0
VERTEX
  8
PLAN_1
  6
CONTINUOUS
 10
1.708146
 20
-3.870744
  0
VERTEX
  8
PLAN_1
  6
CONTINUOUS
 10
1.712213
 20
-3.872268
  0
VERTEX
  8
PLAN_1
  6
CONTINUOUS
 10
1.715772
 20
-3.874303
  0
VERTEX
  8
PLAN_1
  6
CONTINUOUS
 10
1.719331
 20
-3.876335
  0
VERTEX
  8
PLAN_1
  6
CONTINUOUS
 10
1.722382
 20
-3.878878
  0
VERTEX
  8
PLAN_1
  6
CONTINUOUS
 10
1.725433
 20
-3.881421
  0
VERTEX
  8
PLAN_1
  6
CONTINUOUS
 10
1.728484
 20
-3.884472
  0
VERTEX
  8
PLAN_1
  6
CONTINUOUS
 10
1.731024
 20
-3.887524
  0
VERTEX
  8
PLAN_1
  6
CONTINUOUS
 10
1.735602
 20
-3.894130
  0
VERTEX
  8
PLAN_1
  6
CONTINUOUS
 10
1.739669
 20
-3.901248
  0
VERTEX
  8
PLAN_1
  6
CONTINUOUS
 10
1.742720
 20
-3.909386
  0
VERTEX
  8
PLAN_1
  6
CONTINUOUS
 10
1.745768
 20
-3.917520
  0
VERTEX
  8
PLAN_1
  6
CONTINUOUS
 10
1.747803
 20
-3.925654
  0
VERTEX
  8
PLAN_1
  6
CONTINUOUS
 10
1.749327
 20
-3.933791
  0
VERTEX
  8
PLAN_1
  6
CONTINUOUS
 10
1.750854
 20
-3.942433
  0
VERTEX
  8
PLAN_1
  6
CONTINUOUS
 10
1.751362
 20
-3.951075
  0
VERTEX
  8
PLAN_1
  6
CONTINUOUS
 10
1.751870
 20
-3.959213
  0
VERTEX
  8
PLAN_1
  6
CONTINUOUS
 10
1.751870
 20
-3.966839
  0
VERTEX
  8
PLAN_1
  6
CONTINUOUS
 10
1.751870
 20
-3.974465
  0
VERTEX
  8
PLAN_1
  6
CONTINUOUS
 10
1.751362
 20
-3.982598
  0
VERTEX
  8
PLAN_1
  6
CONTINUOUS
 10
1.750854
 20
-3.991244
  0
VERTEX
  8
PLAN_1
  6
CONTINUOUS
 10
1.749327
 20
-3.999378
  0
VERTEX
  8
PLAN_1
  6
CONTINUOUS
 10
1.747803
 20
-4.008020
  0
VERTEX
  8
PLAN_1
  6
CONTINUOUS
 10
1.745768
 20
-4.016157
  0
VERTEX
  8
PLAN_1
  6
CONTINUOUS
 10
1.742720
 20
-4.024291
  0
VERTEX
  8
PLAN_1
  6
CONTINUOUS
 10
1.739669
 20
-4.031917
  0
VERTEX
  8
PLAN_1
  6
CONTINUOUS
 10
1.735602
 20
-4.039543
  0
VERTEX
  8
PLAN_1
  6
CONTINUOUS
 10
1.731024
 20
-4.046154
  0
VERTEX
  8
PLAN_1
  6
CONTINUOUS
 10
1.728484
 20
-4.049205
  0
VERTEX
  8
PLAN_1
  6
CONTINUOUS
 10
1.725433
 20
-4.051748
  0
VERTEX
  8
PLAN_1
  6
CONTINUOUS
 10
1.722382
 20
-4.054799
  0
VERTEX
  8
PLAN_1
  6
CONTINUOUS
 10
1.719331
 20
-4.056831
  0
VERTEX
  8
PLAN_1
  6
CONTINUOUS
 10
1.715772
 20
-4.059374
  0
VERTEX
  8
PLAN_1
  6
CONTINUOUS
 10
1.712213
 20
-4.061406
  0
VERTEX
  8
PLAN_1
  6
CONTINUOUS
 10
1.708146
 20
-4.062933
  0
VERTEX
  8
PLAN_1
  6
CONTINUOUS
 10
1.704079
 20
-4.064457
  0
VERTEX
  8
PLAN_1
  6
CONTINUOUS
 10
1.699500
 20
-4.065476
  0
VERTEX
  8
PLAN_1
  6
CONTINUOUS
 10
1.694925
 20
-4.066492
  0
VERTEX
  8
PLAN_1
  6
CONTINUOUS
 10
1.690350
 20
-4.067000
  0
VERTEX
  8
PLAN_1
  6
CONTINUOUS
 10
1.685264
 20
-4.067000
  0
SEQEND
  8
0
  0
POLYLINE
  8
PLAN_1
  6
CONTINUOUS
 66
     1
 40
0.003000
 41
0.003000
  0
VERTEX
  8
PLAN_1
  6
CONTINUOUS
 10
1.685264
 20
-3.888539
  0
VERTEX
  8
PLAN_1
  6
CONTINUOUS
 10
1.680181
 20
-3.889047
  0
VERTEX
  8
PLAN_1
  6
CONTINUOUS
 10
1.675098
 20
-3.890063
  0
VERTEX
  8
PLAN_1
  6
CONTINUOUS
 10
1.671028
 20
-3.891591
  0
VERTEX
  8
PLAN_1
  6
CONTINUOUS
 10
1.666961
 20
-3.893622
  0
VERTEX
  8
PLAN_1
  6
CONTINUOUS
 10
1.663402
 20
-3.896673
  0
VERTEX
  8
PLAN_1
  6
CONTINUOUS
 10
1.659843
 20
-3.900232
  0
VERTEX
  8
PLAN_1
  6
CONTINUOUS
 10
1.656791
 20
-3.904807
  0
VERTEX
  8
PLAN_1
  6
CONTINUOUS
 10
1.654252
 20
-3.909386
  0
VERTEX
  8
PLAN_1
  6
CONTINUOUS
 10
1.651709
 20
-3.914469
  0
VERTEX
  8
PLAN_1
  6
CONTINUOUS
 10
1.649673
 20
-3.920571
  0
VERTEX
  8
PLAN_1
  6
CONTINUOUS
 10
1.648150
 20
-3.927181
  0
VERTEX
  8
PLAN_1
  6
CONTINUOUS
 10
1.646626
 20
-3.933791
  0
VERTEX
  8
PLAN_1
  6
CONTINUOUS
 10
1.645606
 20
-3.941417
  0
VERTEX
  8
PLAN_1
  6
CONTINUOUS
 10
1.645098
 20
-3.949551
  0
VERTEX
  8
PLAN_1
  6
CONTINUOUS
 10
1.644591
 20
-3.957685
  0
VERTEX
  8
PLAN_1
  6
CONTINUOUS
 10
1.644083
 20
-3.966839
  0
VERTEX
  8
PLAN_1
  6
CONTINUOUS
 10
1.644591
 20
-3.975480
  0
VERTEX
  8
PLAN_1
  6
CONTINUOUS
 10
1.645098
 20
-3.984126
  0
VERTEX
  8
PLAN_1
  6
CONTINUOUS
 10
1.645606
 20
-3.992260
  0
VERTEX
  8
PLAN_1
  6
CONTINUOUS
 10
1.646626
 20
-3.999378
  0
VERTEX
  8
PLAN_1
  6
CONTINUOUS
 10
1.648150
 20
-4.006496
  0
VERTEX
  8
PLAN_1
  6
CONTINUOUS
 10
1.649673
 20
-4.013106
  0
VERTEX
  8
PLAN_1
  6
CONTINUOUS
 10
1.651709
 20
-4.018697
  0
VERTEX
  8
PLAN_1
  6
CONTINUOUS
 10
1.654252
 20
-4.024291
  0
VERTEX
  8
PLAN_1
  6
CONTINUOUS
 10
1.656791
 20
-4.028866
  0
VERTEX
  8
PLAN_1
  6
CONTINUOUS
 10
1.659843
 20
-4.032933
  0
VERTEX
  8
PLAN_1
  6
CONTINUOUS
 10
1.663402
 20
-4.037004
  0
VERTEX
  8
PLAN_1
  6
CONTINUOUS
 10
1.666961
 20
-4.039543
  0
VERTEX
  8
PLAN_1
  6
CONTINUOUS
 10
1.671028
 20
-4.042087
  0
VERTEX
  8
PLAN_1
  6
CONTINUOUS
 10
1.675098
 20
-4.043610
  0
VERTEX
  8
PLAN_1
  6
CONTINUOUS
 10
1.680181
 20
-4.044630
  0
VERTEX
  8
PLAN_1
  6
CONTINUOUS
 10
1.685264
 20
-4.045138
  0
VERTEX
  8
PLAN_1
  6
CONTINUOUS
 10
1.690350
 20
-4.044630
  0
VERTEX
  8
PLAN_1
  6
CONTINUOUS
 10
1.694925
 20
-4.043610
  0
VERTEX
  8
PLAN_1
  6
CONTINUOUS
 10
1.699500
 20
-4.042087
  0
VERTEX
  8
PLAN_1
  6
CONTINUOUS
 10
1.703059
 20
-4.039543
  0
VERTEX
  8
PLAN_1
  6
CONTINUOUS
 10
1.707130
 20
-4.037004
  0
VERTEX
  8
PLAN_1
  6
CONTINUOUS
 10
1.710177
 20
-4.032933
  0
VERTEX
  8
PLAN_1
  6
CONTINUOUS
 10
1.713228
 20
-4.028866
  0
VERTEX
  8
PLAN_1
  6
CONTINUOUS
 10
1.715772
 20
-4.024291
  0
VERTEX
  8
PLAN_1
  6
CONTINUOUS
 10
1.718315
 20
-4.018697
  0
VERTEX
  8
PLAN_1
  6
CONTINUOUS
 10
1.720346
 20
-4.013106
  0
VERTEX
  8
PLAN_1
  6
CONTINUOUS
 10
1.721874
 20
-4.006496
  0
VERTEX
  8
PLAN_1
  6
CONTINUOUS
 10
1.723398
 20
-3.999378
  0
VERTEX
  8
PLAN_1
  6
CONTINUOUS
 10
1.724413
 20
-3.992260
  0
VERTEX
  8
PLAN_1
  6
CONTINUOUS
 10
1.725433
 20
-3.984126
  0
VERTEX
  8
PLAN_1
  6
CONTINUOUS
 10
1.725941
 20
-3.975480
  0
VERTEX
  8
PLAN_1
  6
CONTINUOUS
 10
1.725941
 20
-3.966839
  0
VERTEX
  8
PLAN_1
  6
CONTINUOUS
 10
1.725941
 20
-3.957685
  0
VERTEX
  8
PLAN_1
  6
CONTINUOUS
 10
1.725433
 20
-3.949551
  0
VERTEX
  8
PLAN_1
  6
CONTINUOUS
 10
1.724413
 20
-3.941417
  0
VERTEX
  8
PLAN_1
  6
CONTINUOUS
 10
1.723398
 20
-3.933791
  0
VERTEX
  8
PLAN_1
  6
CONTINUOUS
 10
1.721874
 20
-3.927181
  0
VERTEX
  8
PLAN_1
  6
CONTINUOUS
 10
1.720346
 20
-3.920571
  0
VERTEX
  8
PLAN_1
  6
CONTINUOUS
 10
1.718315
 20
-3.914469
  0
VERTEX
  8
PLAN_1
  6
CONTINUOUS
 10
1.715772
 20
-3.909386
  0
VERTEX
  8
PLAN_1
  6
CONTINUOUS
 10
1.713228
 20
-3.904807
  0
VERTEX
  8
PLAN_1
  6
CONTINUOUS
 10
1.710177
 20
-3.900232
  0
VERTEX
  8
PLAN_1
  6
CONTINUOUS
 10
1.707130
 20
-3.896673
  0
VERTEX
  8
PLAN_1
  6
CONTINUOUS
 10
1.703059
 20
-3.893622
  0
VERTEX
  8
PLAN_1
  6
CONTINUOUS
 10
1.699500
 20
-3.891591
  0
VERTEX
  8
PLAN_1
  6
CONTINUOUS
 10
1.694925
 20
-3.890063
  0
VERTEX
  8
PLAN_1
  6
CONTINUOUS
 10
1.690350
 20
-3.889047
  0
VERTEX
  8
PLAN_1
  6
CONTINUOUS
 10
1.685264
 20
-3.888539
  0
SEQEND
  8
0
  0
POLYLINE
  8
PLAN_1
  6
CONTINUOUS
 66
     1
 40
0.003000
 41
0.003000
  0
VERTEX
  8
PLAN_1
  6
CONTINUOUS
 10
1.813902
 20
-4.061917
  0
VERTEX
  8
PLAN_1
  6
CONTINUOUS
 10
1.786953
 20
-4.061917
  0
VERTEX
  8
PLAN_1
  6
CONTINUOUS
 10
1.786953
 20
-3.862610
  0
VERTEX
  8
PLAN_1
  6
CONTINUOUS
 10
1.878980
 20
-3.862610
  0
VERTEX
  8
PLAN_1
  6
CONTINUOUS
 10
1.885083
 20
-3.862610
  0
VERTEX
  8
PLAN_1
  6
CONTINUOUS
 10
1.891181
 20
-3.863118
  0
VERTEX
  8
PLAN_1
  6
CONTINUOUS
 10
1.897283
 20
-3.863626
  0
VERTEX
  8
PLAN_1
  6
CONTINUOUS
 10
1.902878
 20
-3.864642
  0
VERTEX
  8
PLAN_1
  6
CONTINUOUS
 10
1.908469
 20
-3.866169
  0
VERTEX
  8
PLAN_1
  6
CONTINUOUS
 10
1.914063
 20
-3.868201
  0
VERTEX
  8
PLAN_1
  6
CONTINUOUS
 10
1.919146
 20
-3.870744
  0
VERTEX
  8
PLAN_1
  6
CONTINUOUS
 10
1.923724
 20
-3.873287
  0
VERTEX
  8
PLAN_1
  6
CONTINUOUS
 10
1.928299
 20
-3.876846
  0
VERTEX
  8
PLAN_1
  6
CONTINUOUS
 10
1.932366
 20
-3.880406
  0
VERTEX
  8
PLAN_1
  6
CONTINUOUS
 10
1.935925
 20
-3.884980
  0
VERTEX
  8
PLAN_1
  6
CONTINUOUS
 10
1.938976
 20
-3.890063
  0
VERTEX
  8
PLAN_1
  6
CONTINUOUS
 10
1.941008
 20
-3.895150
  0
VERTEX
  8
PLAN_1
  6
CONTINUOUS
 10
1.943043
 20
-3.901760
  0
VERTEX
  8
PLAN_1
  6
CONTINUOUS
 10
1.944059
 20
-3.908366
  0
VERTEX
  8
PLAN_1
  6
CONTINUOUS
 10
1.944567
 20
-3.915996
  0
VERTEX
  8
PLAN_1
  6
CONTINUOUS
 10
1.944059
 20
-3.921079
  0
VERTEX
  8
PLAN_1
  6
CONTINUOUS
 10
1.943551
 20
-3.926161
  0
VERTEX
  8
PLAN_1
  6
CONTINUOUS
 10
1.943043
 20
-3.930740
  0
VERTEX
  8
PLAN_1
  6
CONTINUOUS
 10
1.942028
 20
-3.934807
  0
VERTEX
  8
PLAN_1
  6
CONTINUOUS
 10
1.940500
 20
-3.938366
  0
VERTEX
  8
PLAN_1
  6
CONTINUOUS
 10
1.938976
 20
-3.941925
  0
VERTEX
  8
PLAN_1
  6
CONTINUOUS
 10
1.937449
 20
-3.944976
  0
VERTEX
  8
PLAN_1
  6
CONTINUOUS
 10
1.935417
 20
-3.948028
  0
VERTEX
  8
PLAN_1
  6
CONTINUOUS
 10
1.930843
 20
-3.953110
  0
VERTEX
  8
PLAN_1
  6
CONTINUOUS
 10
1.926264
 20
-3.957177
  0
VERTEX
  8
PLAN_1
  6
CONTINUOUS
 10
1.921689
 20
-3.960736
  0
VERTEX
  8
PLAN_1
  6
CONTINUOUS
 10
1.916606
 20
-3.963787
  0
VERTEX
  8
PLAN_1
  6
CONTINUOUS
 10
1.921181
 20
-3.965311
  0
VERTEX
  8
PLAN_1
  6
CONTINUOUS
 10
1.925248
 20
-3.967854
  0
VERTEX
  8
PLAN_1
  6
CONTINUOUS
 10
1.928807
 20
-3.970398
  0
VERTEX
  8
PLAN_1
  6
CONTINUOUS
 10
1.932366
 20
-3.973957
  0
VERTEX
  8
PLAN_1
  6
CONTINUOUS
 10
1.933890
 20
-3.975988
  0
VERTEX
  8
PLAN_1
  6
CONTINUOUS
 10
1.935417
 20
-3.978531
  0
VERTEX
  8
PLAN_1
  6
CONTINUOUS
 10
1.936941
 20
-3.981075
  0
VERTEX
  8
PLAN_1
  6
CONTINUOUS
 10
1.937961
 20
-3.984126
  0
VERTEX
  8
PLAN_1
  6
CONTINUOUS
 10
1.938976
 20
-3.987685
  0
VERTEX
  8
PLAN_1
  6
CONTINUOUS
 10
1.939484
 20
-3.991752
  0
VERTEX
  8
PLAN_1
  6
CONTINUOUS
 10
1.939992
 20
-3.996327
  0
VERTEX
  8
PLAN_1
  6
CONTINUOUS
 10
1.940500
 20
-4.001413
  0
VERTEX
  8
PLAN_1
  6
CONTINUOUS
 10
1.942028
 20
-4.037512
  0
VERTEX
  8
PLAN_1
  6
CONTINUOUS
 10
1.942535
 20
-4.041071
  0
VERTEX
  8
PLAN_1
  6
CONTINUOUS
 10
1.942535
 20
-4.044630
  0
VERTEX
  8
PLAN_1
  6
CONTINUOUS
 10
1.943551
 20
-4.047169
  0
VERTEX
  8
PLAN_1
  6
CONTINUOUS
 10
1.944059
 20
-4.049713
  0
VERTEX
  8
PLAN_1
  6
CONTINUOUS
 10
1.945587
 20
-4.051748
  0
VERTEX
  8
PLAN_1
  6
CONTINUOUS
 10
1.947110
 20
-4.053780
  0
VERTEX
  8
PLAN_1
  6
CONTINUOUS
 10
1.949654
 20
-4.055307
  0
VERTEX
  8
PLAN_1
  6
CONTINUOUS
 10
1.952197
 20
-4.057339
  0
VERTEX
  8
PLAN_1
  6
CONTINUOUS
 10
1.952197
 20
-4.061917
  0
VERTEX
  8
PLAN_1
  6
CONTINUOUS
 10
1.919146
 20
-4.061917
  0
VERTEX
  8
PLAN_1
  6
CONTINUOUS
 10
1.917622
 20
-4.056323
  0
VERTEX
  8
PLAN_1
  6
CONTINUOUS
 10
1.916606
 20
-4.049713
  0
VERTEX
  8
PLAN_1
  6
CONTINUOUS
 10
1.916094
 20
-4.042594
  0
VERTEX
  8
PLAN_1
  6
CONTINUOUS
 10
1.915587
 20
-4.034969
  0
VERTEX
  8
PLAN_1
  6
CONTINUOUS
 10
1.915079
 20
-4.027850
  0
VERTEX
  8
PLAN_1
  6
CONTINUOUS
 10
1.914571
 20
-4.021240
  0
VERTEX
  8
PLAN_1
  6
CONTINUOUS
 10
1.914571
 20
-4.015650
  0
VERTEX
  8
PLAN_1
  6
CONTINUOUS
 10
1.914571
 20
-4.011579
  0
VERTEX
  8
PLAN_1
  6
CONTINUOUS
 10
1.914063
 20
-4.005480
  0
VERTEX
  8
PLAN_1
  6
CONTINUOUS
 10
1.913555
 20
-3.999378
  0
VERTEX
  8
PLAN_1
  6
CONTINUOUS
 10
1.912535
 20
-3.996327
  0
VERTEX
  8
PLAN_1
  6
CONTINUOUS
 10
1.911520
 20
-3.993276
  0
VERTEX
  8
PLAN_1
  6
CONTINUOUS
 10
1.910504
 20
-3.990736
  0
VERTEX
  8
PLAN_1
  6
CONTINUOUS
 10
1.908976
 20
-3.987685
  0
VERTEX
  8
PLAN_1
  6
CONTINUOUS
 10
1.906945
 20
-3.985142
  0
VERTEX
  8
PLAN_1
  6
CONTINUOUS
 10
1.904402
 20
-3.983106
  0
VERTEX
  8
PLAN_1
  6
CONTINUOUS
 10
1.901350
 20
-3.981075
  0
VERTEX
  8
PLAN_1
  6
CONTINUOUS
 10
1.898299
 20
-3.979547
  0
VERTEX
  8
PLAN_1
  6
CONTINUOUS
 10
1.894232
 20
-3.978024
  0
VERTEX
  8
PLAN_1
  6
CONTINUOUS
 10
1.889657
 20
-3.977008
  0
VERTEX
  8
PLAN_1
  6
CONTINUOUS
 10
1.884575
 20
-3.976500
  0
VERTEX
  8
PLAN_1
  6
CONTINUOUS
 10
1.878980
 20
-3.975988
  0
VERTEX
  8
PLAN_1
  6
CONTINUOUS
 10
1.813902
 20
-3.975988
  0
VERTEX
  8
PLAN_1
  6
CONTINUOUS
 10
1.813902
 20
-4.061917
  0
SEQEND
  8
0
  0
POLYLINE
  8
PLAN_1
  6
CONTINUOUS
 66
     1
 40
0.003000
 41
0.003000
  0
VERTEX
  8
PLAN_1
  6
CONTINUOUS
 10
1.813902
 20
-3.953110
  0
VERTEX
  8
PLAN_1
  6
CONTINUOUS
 10
1.875929
 20
-3.953110
  0
VERTEX
  8
PLAN_1
  6
CONTINUOUS
 10
1.883555
 20
-3.953110
  0
VERTEX
  8
PLAN_1
  6
CONTINUOUS
 10
1.890673
 20
-3.952094
  0
VERTEX
  8
PLAN_1
  6
CONTINUOUS
 10
1.894232
 20
-3.951075
  0
VERTEX
  8
PLAN_1
  6
CONTINUOUS
 10
1.897791
 20
-3.950059
  0
VERTEX
  8
PLAN_1
  6
CONTINUOUS
 10
1.900843
 20
-3.948535
  0
VERTEX
  8
PLAN_1
  6
CONTINUOUS
 10
1.903894
 20
-3.947008
  0
VERTEX
  8
PLAN_1
  6
CONTINUOUS
 10
1.906437
 20
-3.944976
  0
VERTEX
  8
PLAN_1
  6
CONTINUOUS
 10
1.908976
 20
-3.942433
  0
VERTEX
  8
PLAN_1
  6
CONTINUOUS
 10
1.911012
 20
-3.939890
  0
VERTEX
  8
PLAN_1
  6
CONTINUOUS
 10
1.913047
 20
-3.936331
  0
VERTEX
  8
PLAN_1
  6
CONTINUOUS
 10
1.914571
 20
-3.932772
  0
VERTEX
  8
PLAN_1
  6
CONTINUOUS
 10
1.915587
 20
-3.928705
  0
VERTEX
  8
PLAN_1
  6
CONTINUOUS
 10
1.916606
 20
-3.924130
  0
VERTEX
  8
PLAN_1
  6
CONTINUOUS
 10
1.916606
 20
-3.918535
  0
VERTEX
  8
PLAN_1
  6
CONTINUOUS
 10
1.916606
 20
-3.913453
  0
VERTEX
  8
PLAN_1
  6
CONTINUOUS
 10
1.915587
 20
-3.908366
  0
VERTEX
  8
PLAN_1
  6
CONTINUOUS
 10
1.914571
 20
-3.904299
  0
VERTEX
  8
PLAN_1
  6
CONTINUOUS
 10
1.913047
 20
-3.900740
  0
VERTEX
  8
PLAN_1
  6
CONTINUOUS
 10
1.911012
 20
-3.897181
  0
VERTEX
  8
PLAN_1
  6
CONTINUOUS
 10
1.908976
 20
-3.894642
  0
VERTEX
  8
PLAN_1
  6
CONTINUOUS
 10
1.906437
 20
-3.892606
  0
VERTEX
  8
PLAN_1
  6
CONTINUOUS
 10
1.903894
 20
-3.890571
  0
VERTEX
  8
PLAN_1
  6
CONTINUOUS
 10
1.900843
 20
-3.889047
  0
VERTEX
  8
PLAN_1
  6
CONTINUOUS
 10
1.898299
 20
-3.888031
  0
VERTEX
  8
PLAN_1
  6
CONTINUOUS
 10
1.895252
 20
-3.887012
  0
VERTEX
  8
PLAN_1
  6
CONTINUOUS
 10
1.892201
 20
-3.886504
  0
VERTEX
  8
PLAN_1
  6
CONTINUOUS
 10
1.886098
 20
-3.885488
  0
VERTEX
  8
PLAN_1
  6
CONTINUOUS
 10
1.881016
 20
-3.885488
  0
VERTEX
  8
PLAN_1
  6
CONTINUOUS
 10
1.813902
 20
-3.885488
  0
VERTEX
  8
PLAN_1
  6
CONTINUOUS
 10
1.813902
 20
-3.953110
  0
SEQEND
  8
0
  0
SOLID
  8
PLAN_1
 10
2.015748
 20
-4.061917
 11
1.986768
 21
-4.061917
 12
2.015748
 22
-4.032425
 13
1.986768
 23
-4.032425
  0
POLYLINE
  8
PLAN_1
  6
CONTINUOUS
 66
     1
 40
0.003000
 41
0.003000
  0
VERTEX
  8
PLAN_1
  6
CONTINUOUS
 10
2.015748
 20
-4.061917
  0
VERTEX
  8
PLAN_1
  6
CONTINUOUS
 10
1.986768
 20
-4.061917
  0
VERTEX
  8
PLAN_1
  6
CONTINUOUS
 10
1.986768
 20
-4.032425
  0
VERTEX
  8
PLAN_1
  6
CONTINUOUS
 10
2.015748
 20
-4.032425
  0
VERTEX
  8
PLAN_1
  6
CONTINUOUS
 10
2.015748
 20
-4.061917
  0
SEQEND
  8
0
  0
POLYLINE
  8
PLAN_1
  6
CONTINUOUS
 66
     1
 40
0.003000
 41
0.003000
  0
VERTEX
  8
PLAN_1
  6
CONTINUOUS
 10
2.210988
 20
-4.061917
  0
VERTEX
  8
PLAN_1
  6
CONTINUOUS
 10
2.064051
 20
-4.061917
  0
VERTEX
  8
PLAN_1
  6
CONTINUOUS
 10
2.064051
 20
-3.862610
  0
VERTEX
  8
PLAN_1
  6
CONTINUOUS
 10
2.208957
 20
-3.862610
  0
VERTEX
  8
PLAN_1
  6
CONTINUOUS
 10
2.208957
 20
-3.886504
  0
VERTEX
  8
PLAN_1
  6
CONTINUOUS
 10
2.091000
 20
-3.886504
  0
VERTEX
  8
PLAN_1
  6
CONTINUOUS
 10
2.091000
 20
-3.947516
  0
VERTEX
  8
PLAN_1
  6
CONTINUOUS
 10
2.199803
 20
-3.947516
  0
VERTEX
  8
PLAN_1
  6
CONTINUOUS
 10
2.199803
 20
-3.971413
  0
VERTEX
  8
PLAN_1
  6
CONTINUOUS
 10
2.091000
 20
-3.971413
  0
VERTEX
  8
PLAN_1
  6
CONTINUOUS
 10
2.091000
 20
-4.038020
  0
VERTEX
  8
PLAN_1
  6
CONTINUOUS
 10
2.210988
 20
-4.038020
  0
VERTEX
  8
PLAN_1
  6
CONTINUOUS
 10
2.210988
 20
-4.061917
  0
SEQEND
  8
0
  0
POLYLINE
  8
PLAN_1
  6
CONTINUOUS
 66
     1
 40
0.003000
 41
0.003000
  0
VERTEX
  8
PLAN_1
  6
CONTINUOUS
 10
2.276071
 20
-4.061917
  0
VERTEX
  8
PLAN_1
  6
CONTINUOUS
 10
2.249122
 20
-4.061917
  0
VERTEX
  8
PLAN_1
  6
CONTINUOUS
 10
2.249122
 20
-3.862610
  0
VERTEX
  8
PLAN_1
  6
CONTINUOUS
 10
2.338606
 20
-3.862610
  0
VERTEX
  8
PLAN_1
  6
CONTINUOUS
 10
2.345724
 20
-3.862610
  0
VERTEX
  8
PLAN_1
  6
CONTINUOUS
 10
2.351827
 20
-3.863626
  0
VERTEX
  8
PLAN_1
  6
CONTINUOUS
 10
2.357929
 20
-3.864642
  0
VERTEX
  8
PLAN_1
  6
CONTINUOUS
 10
2.363520
 20
-3.866677
  0
VERTEX
  8
PLAN_1
  6
CONTINUOUS
 10
2.369114
 20
-3.868709
  0
VERTEX
  8
PLAN_1
  6
CONTINUOUS
 10
2.373689
 20
-3.871760
  0
VERTEX
  8
PLAN_1
  6
CONTINUOUS
 10
2.378264
 20
-3.874811
  0
VERTEX
  8
PLAN_1
  6
CONTINUOUS
 10
2.382335
 20
-3.878370
  0
VERTEX
  8
PLAN_1
  6
CONTINUOUS
 10
2.385894
 20
-3.882437
  0
VERTEX
  8
PLAN_1
  6
CONTINUOUS
 10
2.388941
 20
-3.886504
  0
VERTEX
  8
PLAN_1
  6
CONTINUOUS
 10
2.391484
 20
-3.891083
  0
VERTEX
  8
PLAN_1
  6
CONTINUOUS
 10
2.394028
 20
-3.896165
  0
VERTEX
  8
PLAN_1
  6
CONTINUOUS
 10
2.395551
 20
-3.901248
  0
VERTEX
  8
PLAN_1
  6
CONTINUOUS
 10
2.397079
 20
-3.906843
  0
VERTEX
  8
PLAN_1
  6
CONTINUOUS
 10
2.397587
 20
-3.912437
  0
VERTEX
  8
PLAN_1
  6
CONTINUOUS
 10
2.398094
 20
-3.918535
  0
VERTEX
  8
PLAN_1
  6
CONTINUOUS
 10
2.397587
 20
-3.923622
  0
VERTEX
  8
PLAN_1
  6
CONTINUOUS
 10
2.397079
 20
-3.929213
  0
VERTEX
  8
PLAN_1
  6
CONTINUOUS
 10
2.396063
 20
-3.934299
  0
VERTEX
  8
PLAN_1
  6
CONTINUOUS
 10
2.395043
 20
-3.939382
  0
VERTEX
  8
PLAN_1
  6
CONTINUOUS
 10
2.393012
 20
-3.944469
  0
VERTEX
  8
PLAN_1
  6
CONTINUOUS
 10
2.390469
 20
-3.949551
  0
VERTEX
  8
PLAN_1
  6
CONTINUOUS
 10
2.387925
 20
-3.954126
  0
VERTEX
  8
PLAN_1
  6
CONTINUOUS
 10
2.384874
 20
-3.958705
  0
VERTEX
  8
PLAN_1
  6
CONTINUOUS
 10
2.380807
 20
-3.962772
  0
VERTEX
  8
PLAN_1
  6
CONTINUOUS
 10
2.376740
 20
-3.966331
  0
VERTEX
  8
PLAN_1
  6
CONTINUOUS
 10
2.371657
 20
-3.969382
  0
VERTEX
  8
PLAN_1
  6
CONTINUOUS
 10
2.366571
 20
-3.972429
  0
VERTEX
  8
PLAN_1
  6
CONTINUOUS
 10
2.360469
 20
-3.974465
  0
VERTEX
  8
PLAN_1
  6
CONTINUOUS
 10
2.353862
 20
-3.975988
  0
VERTEX
  8
PLAN_1
  6
CONTINUOUS
 10
2.346744
 20
-3.977008
  0
VERTEX
  8
PLAN_1
  6
CONTINUOUS
 10
2.338606
 20
-3.977516
  0
VERTEX
  8
PLAN_1
  6
CONTINUOUS
 10
2.276071
 20
-3.977516
  0
VERTEX
  8
PLAN_1
  6
CONTINUOUS
 10
2.276071
 20
-4.061917
  0
SEQEND
  8
0
  0
POLYLINE
  8
PLAN_1
  6
CONTINUOUS
 66
     1
 40
0.003000
 41
0.003000
  0
VERTEX
  8
PLAN_1
  6
CONTINUOUS
 10
2.276071
 20
-3.954634
  0
VERTEX
  8
PLAN_1
  6
CONTINUOUS
 10
2.329457
 20
-3.954634
  0
VERTEX
  8
PLAN_1
  6
CONTINUOUS
 10
2.334031
 20
-3.954634
  0
VERTEX
  8
PLAN_1
  6
CONTINUOUS
 10
2.338098
 20
-3.954126
  0
VERTEX
  8
PLAN_1
  6
CONTINUOUS
 10
2.342165
 20
-3.953618
  0
VERTEX
  8
PLAN_1
  6
CONTINUOUS
 10
2.346232
 20
-3.952602
  0
VERTEX
  8
PLAN_1
  6
CONTINUOUS
 10
2.349791
 20
-3.951587
  0
VERTEX
  8
PLAN_1
  6
CONTINUOUS
 10
2.352843
 20
-3.950567
  0
VERTEX
  8
PLAN_1
  6
CONTINUOUS
 10
2.356402
 20
-3.948535
  0
VERTEX
  8
PLAN_1
  6
CONTINUOUS
 10
2.358945
 20
-3.947008
  0
VERTEX
  8
PLAN_1
  6
CONTINUOUS
 10
2.361488
 20
-3.944469
  0
VERTEX
  8
PLAN_1
  6
CONTINUOUS
 10
2.363520
 20
-3.941925
  0
VERTEX
  8
PLAN_1
  6
CONTINUOUS
 10
2.365555
 20
-3.938874
  0
VERTEX
  8
PLAN_1
  6
CONTINUOUS
 10
2.367079
 20
-3.935823
  0
VERTEX
  8
PLAN_1
  6
CONTINUOUS
 10
2.368606
 20
-3.932264
  0
VERTEX
  8
PLAN_1
  6
CONTINUOUS
 10
2.369622
 20
-3.928197
  0
VERTEX
  8
PLAN_1
  6
CONTINUOUS
 10
2.370130
 20
-3.923622
  0
VERTEX
  8
PLAN_1
  6
CONTINUOUS
 10
2.370130
 20
-3.918535
  0
VERTEX
  8
PLAN_1
  6
CONTINUOUS
 10
2.370130
 20
-3.914469
  0
VERTEX
  8
PLAN_1
  6
CONTINUOUS
 10
2.369622
 20
-3.909894
  0
VERTEX
  8
PLAN_1
  6
CONTINUOUS
 10
2.368606
 20
-3.906335
  0
VERTEX
  8
PLAN_1
  6
CONTINUOUS
 10
2.367079
 20
-3.902776
  0
VERTEX
  8
PLAN_1
  6
CONTINUOUS
 10
2.365555
 20
-3.899724
  0
VERTEX
  8
PLAN_1
  6
CONTINUOUS
 10
2.363520
 20
-3.897181
  0
VERTEX
  8
PLAN_1
  6
CONTINUOUS
 10
2.361488
 20
-3.894642
  0
VERTEX
  8
PLAN_1
  6
CONTINUOUS
 10
2.358945
 20
-3.892606
  0
VERTEX
  8
PLAN_1
  6
CONTINUOUS
 10
2.355894
 20
-3.891083
  0
VERTEX
  8
PLAN_1
  6
CONTINUOUS
 10
2.352843
 20
-3.889555
  0
VERTEX
  8
PLAN_1
  6
CONTINUOUS
 10
2.349791
 20
-3.888031
  0
VERTEX
  8
PLAN_1
  6
CONTINUOUS
 10
2.346232
 20
-3.887012
  0
VERTEX
  8
PLAN_1
  6
CONTINUOUS
 10
2.338606
 20
-3.885996
  0
VERTEX
  8
PLAN_1
  6
CONTINUOUS
 10
2.330980
 20
-3.885488
  0
VERTEX
  8
PLAN_1
  6
CONTINUOUS
 10
2.276071
 20
-3.885488
  0
VERTEX
  8
PLAN_1
  6
CONTINUOUS
 10
2.276071
 20
-3.954634
  0
SEQEND
  8
0
  0
POLYLINE
  8
PLAN_1
  6
CONTINUOUS
 66
     1
 40
0.003000
 41
0.003000
  0
VERTEX
  8
PLAN_1
  6
CONTINUOUS
 10
2.551642
 20
-3.920571
  0
VERTEX
  8
PLAN_1
  6
CONTINUOUS
 10
2.551134
 20
-3.914976
  0
VERTEX
  8
PLAN_1
  6
CONTINUOUS
 10
2.550118
 20
-3.909894
  0
VERTEX
  8
PLAN_1
  6
CONTINUOUS
 10
2.548591
 20
-3.905319
  0
VERTEX
  8
PLAN_1
  6
CONTINUOUS
 10
2.546559
 20
-3.901248
  0
VERTEX
  8
PLAN_1
  6
CONTINUOUS
 10
2.544524
 20
-3.897689
  0
VERTEX
  8
PLAN_1
  6
CONTINUOUS
 10
2.541472
 20
-3.894130
  0
VERTEX
  8
PLAN_1
  6
CONTINUOUS
 10
2.538425
 20
-3.891591
  0
VERTEX
  8
PLAN_1
  6
CONTINUOUS
 10
2.534866
 20
-3.889047
  0
VERTEX
  8
PLAN_1
  6
CONTINUOUS
 10
2.531307
 20
-3.886504
  0
VERTEX
  8
PLAN_1
  6
CONTINUOUS
 10
2.527748
 20
-3.884980
  0
VERTEX
  8
PLAN_1
  6
CONTINUOUS
 10
2.523677
 20
-3.883453
  0
VERTEX
  8
PLAN_1
  6
CONTINUOUS
 10
2.519610
 20
-3.881929
  0
VERTEX
  8
PLAN_1
  6
CONTINUOUS
 10
2.515035
 20
-3.881421
  0
VERTEX
  8
PLAN_1
  6
CONTINUOUS
 10
2.510969
 20
-3.880913
  0
VERTEX
  8
PLAN_1
  6
CONTINUOUS
 10
2.506902
 20
-3.880406
  0
VERTEX
  8
PLAN_1
  6
CONTINUOUS
 10
2.502323
 20
-3.880406
  0
VERTEX
  8
PLAN_1
  6
CONTINUOUS
 10
2.495717
 20
-3.880406
  0
VERTEX
  8
PLAN_1
  6
CONTINUOUS
 10
2.488087
 20
-3.881421
  0
VERTEX
  8
PLAN_1
  6
CONTINUOUS
 10
2.484528
 20
-3.882437
  0
VERTEX
  8
PLAN_1
  6
CONTINUOUS
 10
2.480461
 20
-3.883453
  0
VERTEX
  8
PLAN_1
  6
CONTINUOUS
 10
2.476902
 20
-3.884472
  0
VERTEX
  8
PLAN_1
  6
CONTINUOUS
 10
2.473343
 20
-3.886504
  0
VERTEX
  8
PLAN_1
  6
CONTINUOUS
 10
2.469783
 20
-3.888539
  0
VERTEX
  8
PLAN_1
  6
CONTINUOUS
 10
2.466732
 20
-3.890571
  0
VERTEX
  8
PLAN_1
  6
CONTINUOUS
 10
2.464193
 20
-3.893622
  0
VERTEX
  8
PLAN_1
  6
CONTINUOUS
 10
2.461650
 20
-3.897181
  0
VERTEX
  8
PLAN_1
  6
CONTINUOUS
 10
2.459614
 20
-3.900740
  0
VERTEX
  8
PLAN_1
  6
CONTINUOUS
 10
2.458091
 20
-3.904807
  0
VERTEX
  8
PLAN_1
  6
CONTINUOUS
 10
2.457075
 20
-3.909894
  0
VERTEX
  8
PLAN_1
  6
CONTINUOUS
 10
2.457075
 20
-3.914976
  0
VERTEX
  8
PLAN_1
  6
CONTINUOUS
 10
2.457075
 20
-3.918028
  0
VERTEX
  8
PLAN_1
  6
CONTINUOUS
 10
2.457583
 20
-3.921079
  0
VERTEX
  8
PLAN_1
  6
CONTINUOUS
 10
2.458091
 20
-3.923622
  0
VERTEX
  8
PLAN_1
  6
CONTINUOUS
 10
2.459106
 20
-3.925654
  0
VERTEX
  8
PLAN_1
  6
CONTINUOUS
 10
2.460126
 20
-3.928197
  0
VERTEX
  8
PLAN_1
  6
CONTINUOUS
 10
2.461142
 20
-3.929720
  0
VERTEX
  8
PLAN_1
  6
CONTINUOUS
 10
2.462665
 20
-3.931756
  0
VERTEX
  8
PLAN_1
  6
CONTINUOUS
 10
2.464193
 20
-3.933280
  0
VERTEX
  8
PLAN_1
  6
CONTINUOUS
 10
2.467752
 20
-3.935823
  0
VERTEX
  8
PLAN_1
  6
CONTINUOUS
 10
2.471819
 20
-3.937858
  0
VERTEX
  8
PLAN_1
  6
CONTINUOUS
 10
2.475886
 20
-3.939382
  0
VERTEX
  8
PLAN_1
  6
CONTINUOUS
 10
2.480461
 20
-3.940398
  0
VERTEX
  8
PLAN_1
  6
CONTINUOUS
 10
2.537406
 20
-3.953618
  0
VERTEX
  8
PLAN_1
  6
CONTINUOUS
 10
2.541984
 20
-3.954634
  0
VERTEX
  8
PLAN_1
  6
CONTINUOUS
 10
2.546559
 20
-3.956161
  0
VERTEX
  8
PLAN_1
  6
CONTINUOUS
 10
2.551134
 20
-3.957685
  0
VERTEX
  8
PLAN_1
  6
CONTINUOUS
 10
2.555201
 20
-3.959720
  0
VERTEX
  8
PLAN_1
  6
CONTINUOUS
 10
2.559268
 20
-3.962264
  0
VERTEX
  8
PLAN_1
  6
CONTINUOUS
 10
2.562827
 20
-3.964803
  0
VERTEX
  8
PLAN_1
  6
CONTINUOUS
 10
2.566386
 20
-3.967346
  0
VERTEX
  8
PLAN_1
  6
CONTINUOUS
 10
2.569945
 20
-3.970398
  0
VERTEX
  8
PLAN_1
  6
CONTINUOUS
 10
2.572488
 20
-3.973957
  0
VERTEX
  8
PLAN_1
  6
CONTINUOUS
 10
2.575031
 20
-3.977516
  0
VERTEX
  8
PLAN_1
  6
CONTINUOUS
 10
2.577575
 20
-3.981583
  0
VERTEX
  8
PLAN_1
  6
CONTINUOUS
 10
2.579098
 20
-3.986157
  0
VERTEX
  8
PLAN_1
  6
CONTINUOUS
 10
2.580622
 20
-3.990736
  0
VERTEX
  8
PLAN_1
  6
CONTINUOUS
 10
2.581642
 20
-3.995819
  0
VERTEX
  8
PLAN_1
  6
CONTINUOUS
 10
2.582657
 20
-4.000902
  0
VERTEX
  8
PLAN_1
  6
CONTINUOUS
 10
2.582657
 20
-4.007004
  0
VERTEX
  8
PLAN_1
  6
CONTINUOUS
 10
2.582657
 20
-4.011071
  0
VERTEX
  8
PLAN_1
  6
CONTINUOUS
 10
2.582150
 20
-4.015138
  0
VERTEX
  8
PLAN_1
  6
CONTINUOUS
 10
2.581642
 20
-4.019209
  0
VERTEX
  8
PLAN_1
  6
CONTINUOUS
 10
2.580622
 20
-4.022768
  0
VERTEX
  8
PLAN_1
  6
CONTINUOUS
 10
2.578591
 20
-4.029886
  0
VERTEX
  8
PLAN_1
  6
CONTINUOUS
 10
2.575031
 20
-4.035984
  0
VERTEX
  8
PLAN_1
  6
CONTINUOUS
 10
2.571472
 20
-4.041579
  0
VERTEX
  8
PLAN_1
  6
CONTINUOUS
 10
2.566898
 20
-4.046661
  0
VERTEX
  8
PLAN_1
  6
CONTINUOUS
 10
2.561811
 20
-4.050728
  0
VERTEX
  8
PLAN_1
  6
CONTINUOUS
 10
2.556220
 20
-4.054799
  0
VERTEX
  8
PLAN_1
  6
CONTINUOUS
 10
2.550626
 20
-4.057846
  0
VERTEX
  8
PLAN_1
  6
CONTINUOUS
 10
2.544524
 20
-4.060390
  0
VERTEX
  8
PLAN_1
  6
CONTINUOUS
 10
2.537913
 20
-4.062425
  0
VERTEX
  8
PLAN_1
  6
CONTINUOUS
 10
2.531307
 20
-4.064457
  0
VERTEX
  8
PLAN_1
  6
CONTINUOUS
 10
2.524697
 20
-4.065476
  0
VERTEX
  8
PLAN_1
  6
CONTINUOUS
 10
2.517579
 20
-4.066492
  0
VERTEX
  8
PLAN_1
  6
CONTINUOUS
 10
2.510969
 20
-4.067000
  0
VERTEX
  8
PLAN_1
  6
CONTINUOUS
 10
2.504866
 20
-4.067000
  0
VERTEX
  8
PLAN_1
  6
CONTINUOUS
 10
2.497748
 20
-4.067000
  0
VERTEX
  8
PLAN_1
  6
CONTINUOUS
 10
2.491646
 20
-4.066492
  0
VERTEX
  8
PLAN_1
  6
CONTINUOUS
 10
2.486055
 20
-4.065984
  0
VERTEX
  8
PLAN_1
  6
CONTINUOUS
 10
2.480969
 20
-4.064965
  0
VERTEX
  8
PLAN_1
  6
CONTINUOUS
 10
2.471819
 20
-4.062933
  0
VERTEX
  8
PLAN_1
  6
CONTINUOUS
 10
2.464193
 20
-4.060390
  0
VERTEX
  8
PLAN_1
  6
CONTINUOUS
 10
2.457583
 20
-4.057339
  0
VERTEX
  8
PLAN_1
  6
CONTINUOUS
 10
2.452496
 20
-4.054287
  0
VERTEX
  8
PLAN_1
  6
CONTINUOUS
 10
2.447921
 20
-4.050728
  0
VERTEX
  8
PLAN_1
  6
CONTINUOUS
 10
2.444362
 20
-4.047681
  0
VERTEX
  8
PLAN_1
  6
CONTINUOUS
 10
2.438772
 20
-4.042087
  0
VERTEX
  8
PLAN_1
  6
CONTINUOUS
 10
2.434193
 20
-4.035984
  0
VERTEX
  8
PLAN_1
  6
CONTINUOUS
 10
2.430634
 20
-4.029886
  0
VERTEX
  8
PLAN_1
  6
CONTINUOUS
 10
2.428094
 20
-4.023783
  0
VERTEX
  8
PLAN_1
  6
CONTINUOUS
 10
2.426059
 20
-4.017681
  0
VERTEX
  8
PLAN_1
  6
CONTINUOUS
 10
2.425043
 20
-4.011071
  0
VERTEX
  8
PLAN_1
  6
CONTINUOUS
 10
2.424535
 20
-4.004461
  0
VERTEX
  8
PLAN_1
  6
CONTINUOUS
 10
2.424024
 20
-3.997343
  0
VERTEX
  8
PLAN_1
  6
CONTINUOUS
 10
2.449449
 20
-3.997343
  0
VERTEX
  8
PLAN_1
  6
CONTINUOUS
 10
2.449957
 20
-4.003953
  0
VERTEX
  8
PLAN_1
  6
CONTINUOUS
 10
2.450972
 20
-4.009547
  0
VERTEX
  8
PLAN_1
  6
CONTINUOUS
 10
2.452496
 20
-4.015138
  0
VERTEX
  8
PLAN_1
  6
CONTINUOUS
 10
2.454531
 20
-4.019717
  0
VERTEX
  8
PLAN_1
  6
CONTINUOUS
 10
2.457075
 20
-4.024291
  0
VERTEX
  8
PLAN_1
  6
CONTINUOUS
 10
2.460126
 20
-4.027850
  0
VERTEX
  8
PLAN_1
  6
CONTINUOUS
 10
2.463685
 20
-4.031409
  0
VERTEX
  8
PLAN_1
  6
CONTINUOUS
 10
2.467244
 20
-4.033953
  0
VERTEX
  8
PLAN_1
  6
CONTINUOUS
 10
2.471311
 20
-4.036492
  0
VERTEX
  8
PLAN_1
  6
CONTINUOUS
 10
2.475886
 20
-4.038528
  0
VERTEX
  8
PLAN_1
  6
CONTINUOUS
 10
2.480461
 20
-4.040563
  0
VERTEX
  8
PLAN_1
  6
CONTINUOUS
 10
2.485039
 20
-4.041579
  0
VERTEX
  8
PLAN_1
  6
CONTINUOUS
 10
2.489614
 20
-4.042594
  0
VERTEX
  8
PLAN_1
  6
CONTINUOUS
 10
2.494697
 20
-4.043610
  0
VERTEX
  8
PLAN_1
  6
CONTINUOUS
 10
2.499783
 20
-4.043610
  0
VERTEX
  8
PLAN_1
  6
CONTINUOUS
 10
2.504358
 20
-4.044122
  0
VERTEX
  8
PLAN_1
  6
CONTINUOUS
 10
2.511984
 20
-4.043610
  0
VERTEX
  8
PLAN_1
  6
CONTINUOUS
 10
2.520630
 20
-4.042594
  0
VERTEX
  8
PLAN_1
  6
CONTINUOUS
 10
2.525205
 20
-4.042087
  0
VERTEX
  8
PLAN_1
  6
CONTINUOUS
 10
2.529272
 20
-4.041071
  0
VERTEX
  8
PLAN_1
  6
CONTINUOUS
 10
2.533846
 20
-4.039543
  0
VERTEX
  8
PLAN_1
  6
CONTINUOUS
 10
2.537913
 20
-4.038020
  0
VERTEX
  8
PLAN_1
  6
CONTINUOUS
 10
2.541472
 20
-4.035984
  0
VERTEX
  8
PLAN_1
  6
CONTINUOUS
 10
2.545031
 20
-4.033445
  0
VERTEX
  8
PLAN_1
  6
CONTINUOUS
 10
2.548591
 20
-4.030902
  0
VERTEX
  8
PLAN_1
  6
CONTINUOUS
 10
2.551134
 20
-4.027850
  0
VERTEX
  8
PLAN_1
  6
CONTINUOUS
 10
2.553169
 20
-4.024291
  0
VERTEX
  8
PLAN_1
  6
CONTINUOUS
 10
2.555201
 20
-4.020224
  0
VERTEX
  8
PLAN_1
  6
CONTINUOUS
 10
2.556220
 20
-4.015650
  0
VERTEX
  8
PLAN_1
  6
CONTINUOUS
 10
2.556728
 20
-4.010563
  0
VERTEX
  8
PLAN_1
  6
CONTINUOUS
 10
2.556220
 20
-4.006496
  0
VERTEX
  8
PLAN_1
  6
CONTINUOUS
 10
2.556220
 20
-4.003445
  0
VERTEX
  8
PLAN_1
  6
CONTINUOUS
 10
2.555201
 20
-3.999886
  0
VERTEX
  8
PLAN_1
  6
CONTINUOUS
 10
2.554693
 20
-3.997343
  0
VERTEX
  8
PLAN_1
  6
CONTINUOUS
 10
2.553169
 20
-3.994295
  0
VERTEX
  8
PLAN_1
  6
CONTINUOUS
 10
2.551642
 20
-3.992260
  0
VERTEX
  8
PLAN_1
  6
CONTINUOUS
 10
2.549610
 20
-3.989717
  0
VERTEX
  8
PLAN_1
  6
CONTINUOUS
 10
2.547575
 20
-3.987685
  0
VERTEX
  8
PLAN_1
  6
CONTINUOUS
 10
2.545031
 20
-3.986157
  0
VERTEX
  8
PLAN_1
  6
CONTINUOUS
 10
2.541984
 20
-3.984126
  0
VERTEX
  8
PLAN_1
  6
CONTINUOUS
 10
2.538425
 20
-3.982598
  0
VERTEX
  8
PLAN_1
  6
CONTINUOUS
 10
2.534354
 20
-3.981075
  0
VERTEX
  8
PLAN_1
  6
CONTINUOUS
 10
2.525205
 20
-3.978024
  0
VERTEX
  8
PLAN_1
  6
CONTINUOUS
 10
2.514020
 20
-3.974972
  0
VERTEX
  8
PLAN_1
  6
CONTINUOUS
 10
2.473343
 20
-3.965823
  0
VERTEX
  8
PLAN_1
  6
CONTINUOUS
 10
2.467752
 20
-3.964295
  0
VERTEX
  8
PLAN_1
  6
CONTINUOUS
 10
2.461142
 20
-3.961752
  0
VERTEX
  8
PLAN_1
  6
CONTINUOUS
 10
2.457583
 20
-3.960228
  0
VERTEX
  8
PLAN_1
  6
CONTINUOUS
 10
2.454024
 20
-3.958705
  0
VERTEX
  8
PLAN_1
  6
CONTINUOUS
 10
2.450465
 20
-3.956669
  0
VERTEX
  8
PLAN_1
  6
CONTINUOUS
 10
2.446906
 20
-3.954126
  0
VERTEX
  8
PLAN_1
  6
CONTINUOUS
 10
2.443854
 20
-3.951075
  0
VERTEX
  8
PLAN_1
  6
CONTINUOUS
 10
2.440803
 20
-3.948028
  0
VERTEX
  8
PLAN_1
  6
CONTINUOUS
 10
2.438260
 20
-3.944469
  0
VERTEX
  8
PLAN_1
  6
CONTINUOUS
 10
2.435720
 20
-3.940398
  0
VERTEX
  8
PLAN_1
  6
CONTINUOUS
 10
2.433685
 20
-3.935823
  0
VERTEX
  8
PLAN_1
  6
CONTINUOUS
 10
2.432161
 20
-3.930740
  0
VERTEX
  8
PLAN_1
  6
CONTINUOUS
 10
2.431142
 20
-3.925146
  0
VERTEX
  8
PLAN_1
  6
CONTINUOUS
 10
2.430634
 20
-3.918535
  0
VERTEX
  8
PLAN_1
  6
CONTINUOUS
 10
2.431142
 20
-3.912945
  0
VERTEX
  8
PLAN_1
  6
CONTINUOUS
 10
2.431654
 20
-3.907350
  0
VERTEX
  8
PLAN_1
  6
CONTINUOUS
 10
2.433177
 20
-3.901760
  0
VERTEX
  8
PLAN_1
  6
CONTINUOUS
 10
2.434701
 20
-3.896165
  0
VERTEX
  8
PLAN_1
  6
CONTINUOUS
 10
2.436736
 20
-3.890571
  0
VERTEX
  8
PLAN_1
  6
CONTINUOUS
 10
2.439787
 20
-3.885488
  0
VERTEX
  8
PLAN_1
  6
CONTINUOUS
 10
2.443346
 20
-3.880913
  0
VERTEX
  8
PLAN_1
  6
CONTINUOUS
 10
2.446906
 20
-3.876335
  0
VERTEX
  8
PLAN_1
  6
CONTINUOUS
 10
2.451480
 20
-3.872268
  0
VERTEX
  8
PLAN_1
  6
CONTINUOUS
 10
2.456567
 20
-3.868201
  0
VERTEX
  8
PLAN_1
  6
CONTINUOUS
 10
2.462157
 20
-3.865150
  0
VERTEX
  8
PLAN_1
  6
CONTINUOUS
 10
2.468260
 20
-3.862610
  0
VERTEX
  8
PLAN_1
  6
CONTINUOUS
 10
2.474870
 20
-3.860067
  0
VERTEX
  8
PLAN_1
  6
CONTINUOUS
 10
2.482496
 20
-3.858539
  0
VERTEX
  8
PLAN_1
  6
CONTINUOUS
 10
2.490630
 20
-3.857524
  0
VERTEX
  8
PLAN_1
  6
CONTINUOUS
 10
2.499276
 20
-3.857016
  0
VERTEX
  8
PLAN_1
  6
CONTINUOUS
 10
2.511476
 20
-3.857524
  0
VERTEX
  8
PLAN_1
  6
CONTINUOUS
 10
2.522661
 20
-3.859047
  0
VERTEX
  8
PLAN_1
  6
CONTINUOUS
 10
2.532323
 20
-3.861083
  0
VERTEX
  8
PLAN_1
  6
CONTINUOUS
 10
2.540965
 20
-3.864134
  0
VERTEX
  8
PLAN_1
  6
CONTINUOUS
 10
2.548083
 20
-3.867693
  0
VERTEX
  8
PLAN_1
  6
CONTINUOUS
 10
2.554185
 20
-3.871252
  0
VERTEX
  8
PLAN_1
  6
CONTINUOUS
 10
2.559780
 20
-3.875827
  0
VERTEX
  8
PLAN_1
  6
CONTINUOUS
 10
2.563846
 20
-3.880913
  0
VERTEX
  8
PLAN_1
  6
CONTINUOUS
 10
2.567406
 20
-3.885996
  0
VERTEX
  8
PLAN_1
  6
CONTINUOUS
 10
2.570457
 20
-3.891083
  0
VERTEX
  8
PLAN_1
  6
CONTINUOUS
 10
2.572488
 20
-3.896165
  0
VERTEX
  8
PLAN_1
  6
CONTINUOUS
 10
2.574524
 20
-3.901760
  0
VERTEX
  8
PLAN_1
  6
CONTINUOUS
 10
2.575539
 20
-3.906843
  0
VERTEX
  8
PLAN_1
  6
CONTINUOUS
 10
2.576047
 20
-3.911925
  0
VERTEX
  8
PLAN_1
  6
CONTINUOUS
 10
2.576555
 20
-3.916504
  0
VERTEX
  8
PLAN_1
  6
CONTINUOUS
 10
2.577063
 20
-3.920571
  0
VERTEX
  8
PLAN_1
  6
CONTINUOUS
 10
2.551642
 20
-3.920571
  0
SEQEND
  8
0
  0
POLYLINE
  8
PLAN_1
  6
CONTINUOUS
 66
     1
 40
0.008134
 41
0.008134
  0
VERTEX
  8
PLAN_1
  6
CONTINUOUS
 10
0.080130
 20
2.545736
  0
VERTEX
  8
PLAN_1
  6
CONTINUOUS
 10
0.118768
 20
2.545736
  0
VERTEX
  8
PLAN_1
  6
CONTINUOUS
 10
0.118768
 20
3.043500
  0
VERTEX
  8
PLAN_1
  6
CONTINUOUS
 10
0.080130
 20
3.043500
  0
SEQEND
  8
0
  0
POLYLINE
  8
PLAN_1
  6
CONTINUOUS
 66
     1
 40
0.008134
 41
0.008134
  0
VERTEX
  8
PLAN_1
  6
CONTINUOUS
 10
0.080130
 20
0.180488
  0
VERTEX
  8
PLAN_1
  6
CONTINUOUS
 10
0.118768
 20
0.180488
  0
VERTEX
  8
PLAN_1
  6
CONTINUOUS
 10
0.118768
 20
0.539445
  0
VERTEX
  8
PLAN_1
  6
CONTINUOUS
 10
0.080130
 20
0.539445
  0
SEQEND
  8
0
  0
POLYLINE
  8
PLAN_1
  6
CONTINUOUS
 66
     1
 40
0.008134
 41
0.008134
  0
VERTEX
  8
PLAN_1
  6
CONTINUOUS
 10
0.080130
 20
4.063933
  0
VERTEX
  8
PLAN_1
  6
CONTINUOUS
 10
-1.403492
 20
4.063933
  0
VERTEX
  8
PLAN_1
  6
CONTINUOUS
 10
-1.662795
 20
4.022748
  0
VERTEX
  8
PLAN_1
  6
CONTINUOUS
 10
-1.662795
 20
3.968346
  0
VERTEX
  8
PLAN_1
  6
CONTINUOUS
 10
-1.724315
 20
3.967331
  0
VERTEX
  8
PLAN_1
  6
CONTINUOUS
 10
-1.724315
 20
3.292126
  0
VERTEX
  8
PLAN_1
  6
CONTINUOUS
 10
-1.662795
 20
3.291106
  0
VERTEX
  8
PLAN_1
  6
CONTINUOUS
 10
-1.662795
 20
3.243315
  0
VERTEX
  8
PLAN_1
  6
CONTINUOUS
 10
-1.403492
 20
3.204165
  0
VERTEX
  8
PLAN_1
  6
CONTINUOUS
 10
-1.291638
 20
3.204165
  0
VERTEX
  8
PLAN_1
  6
CONTINUOUS
 10
-1.291638
 20
2.649461
  0
VERTEX
  8
PLAN_1
  6
CONTINUOUS
 10
-1.413154
 20
2.649461
  0
VERTEX
  8
PLAN_1
  6
CONTINUOUS
 10
-1.413154
 20
-0.346764
  0
VERTEX
  8
PLAN_1
  6
CONTINUOUS
 10
0.080130
 20
-0.346764
  0
SEQEND
  8
0
  0
POLYLINE
  8
PLAN_1
  6
CONTINUOUS
 66
     1
 40
0.008134
 41
0.008134
  0
VERTEX
  8
PLAN_1
  6
CONTINUOUS
 10
0.080130
 20
-0.346764
  0
VERTEX
  8
PLAN_1
  6
CONTINUOUS
 10
0.080130
 20
-0.167283
  0
VERTEX
  8
PLAN_1
  6
CONTINUOUS
 10
0.080130
 20
0.327425
  0
VERTEX
  8
PLAN_1
  6
CONTINUOUS
 10
0.080130
 20
1.033138
  0
VERTEX
  8
PLAN_1
  6
CONTINUOUS
 10
0.080130
 20
1.845110
  0
VERTEX
  8
PLAN_1
  6
CONTINUOUS
 10
0.080130
 20
2.658610
  0
VERTEX
  8
PLAN_1
  6
CONTINUOUS
 10
0.080130
 20
3.369406
  0
VERTEX
  8
PLAN_1
  6
CONTINUOUS
 10
0.080130
 20
3.872760
  0
VERTEX
  8
PLAN_1
  6
CONTINUOUS
 10
0.080130
 20
4.063933
  0
SEQEND
  8
0
  0
POLYLINE
  8
PLAN_1
  6
CONTINUOUS
 66
     1
 40
0.008134
 41
0.008134
  0
VERTEX
  8
PLAN_1
  6
CONTINUOUS
 10
-1.252488
 20
0.522665
  0
VERTEX
  8
PLAN_1
  6
CONTINUOUS
 10
-1.387732
 20
0.522665
  0
VERTEX
  8
PLAN_1
  6
CONTINUOUS
 10
-1.387732
 20
0.171843
  0
VERTEX
  8
PLAN_1
  6
CONTINUOUS
 10
-1.252488
 20
0.171843
  0
SEQEND
  8
0
  0
POLYLINE
  8
PLAN_1
  6
CONTINUOUS
 66
     1
 40
0.008134
 41
0.008134
  0
VERTEX
  8
PLAN_1
  6
CONTINUOUS
 10
-1.387732
 20
0.205909
  0
VERTEX
  8
PLAN_1
  6
CONTINUOUS
 10
-1.316551
 20
0.205909
  0
VERTEX
  8
PLAN_1
  6
CONTINUOUS
 10
-1.316551
 20
0.234890
  0
VERTEX
  8
PLAN_1
  6
CONTINUOUS
 10
-1.387732
 20
0.234890
  0
SEQEND
  8
0
  0
POLYLINE
  8
PLAN_1
  6
CONTINUOUS
 66
     1
 40
0.008134
 41
0.008134
  0
VERTEX
  8
PLAN_1
  6
CONTINUOUS
 10
-1.412646
 20
0.145406
  0
VERTEX
  8
PLAN_1
  6
CONTINUOUS
 10
-1.251469
 20
0.145406
  0
VERTEX
  8
PLAN_1
  6
CONTINUOUS
 10
-1.251469
 20
0.551138
  0
VERTEX
  8
PLAN_1
  6
CONTINUOUS
 10
-1.412646
 20
0.551138
  0
SEQEND
  8
0
  0
POLYLINE
  8
PLAN_1
  6
CONTINUOUS
 66
     1
 40
0.008134
 41
0.008134
  0
VERTEX
  8
PLAN_1
  6
CONTINUOUS
 10
0.081654
 20
3.321106
  0
VERTEX
  8
PLAN_1
  6
CONTINUOUS
 10
-0.247815
 20
3.321106
  0
VERTEX
  8
PLAN_1
  6
CONTINUOUS
 10
-0.247815
 20
3.113154
  0
VERTEX
  8
PLAN_1
  6
CONTINUOUS
 10
-0.963185
 20
3.113154
  0
VERTEX
  8
PLAN_1
  6
CONTINUOUS
 10
-0.963185
 20
3.321106
  0
VERTEX
  8
PLAN_1
  6
CONTINUOUS
 10
-1.292654
 20
3.321106
  0
VERTEX
  8
PLAN_1
  6
CONTINUOUS
 10
-1.292654
 20
3.048583
  0
VERTEX
  8
PLAN_1
  6
CONTINUOUS
 10
0.080638
 20
3.048583
  0
VERTEX
  8
PLAN_1
  6
CONTINUOUS
 10
0.081654
 20
3.321106
  0
SEQEND
  8
0
  0
POLYLINE
  8
PLAN_1
  6
CONTINUOUS
 66
     1
 40
0.008134
 41
0.008134
  0
VERTEX
  8
PLAN_1
  6
CONTINUOUS
 10
-0.541181
 20
0.390472
  0
VERTEX
  8
PLAN_1
  6
CONTINUOUS
 10
-0.585417
 20
0.390472
  0
VERTEX
  8
PLAN_1
  6
CONTINUOUS
 10
-0.585417
 20
2.649461
  0
SEQEND
  8
0
  0
POLYLINE
  8
PLAN_1
  6
CONTINUOUS
 66
     1
 40
0.008134
 41
0.008134
  0
VERTEX
  8
PLAN_1
  6
CONTINUOUS
 10
-0.541181
 20
-0.345744
  0
VERTEX
  8
PLAN_1
  6
CONTINUOUS
 10
-0.541181
 20
2.649461
  0
VERTEX
  8
PLAN_1
  6
CONTINUOUS
 10
-1.291638
 20
2.649461
  0
SEQEND
  8
0
  0
POLYLINE
  8
PLAN_1
  6
CONTINUOUS
 66
     1
 40
0.008134
 41
0.008134
  0
VERTEX
  8
PLAN_1
  6
CONTINUOUS
 10
-0.877260
 20
2.649461
  0
VERTEX
  8
PLAN_1
  6
CONTINUOUS
 10
-0.877260
 20
3.043500
  0
SEQEND
  8
0
  0
POLYLINE
  8
PLAN_1
  6
CONTINUOUS
 66
     1
 40
0.008134
 41
0.008134
  0
VERTEX
  8
PLAN_1
  6
CONTINUOUS
 10
-2.225638
 20
3.492449
  0
VERTEX
  8
PLAN_1
  6
CONTINUOUS
 10
-2.247500
 20
3.507193
  0
VERTEX
  8
PLAN_1
  6
CONTINUOUS
 10
-2.247500
 20
3.738024
  0
VERTEX
  8
PLAN_1
  6
CONTINUOUS
 10
-2.225638
 20
3.757346
  0
VERTEX
  8
PLAN_1
  6
CONTINUOUS
 10
-1.725335
 20
3.757346
  0
VERTEX
  8
PLAN_1
  6
CONTINUOUS
 10
-1.725335
 20
3.492449
  0
VERTEX
  8
PLAN_1
  6
CONTINUOUS
 10
-2.225638
 20
3.492449
  0
SEQEND
  8
0
  0
POLYLINE
  8
PLAN_1
  6
CONTINUOUS
 66
     1
 40
0.008134
 41
0.008134
  0
VERTEX
  8
PLAN_1
  6
CONTINUOUS
 10
-2.246480
 20
3.739039
  0
VERTEX
  8
PLAN_1
  6
CONTINUOUS
 10
-1.728386
 20
3.739039
  0
SEQEND
  8
0
  0
POLYLINE
  8
PLAN_1
  6
CONTINUOUS
 66
     1
 40
0.007118
 41
0.007118
  0
VERTEX
  8
PLAN_1
  6
CONTINUOUS
 10
-2.225638
 20
3.757346
  0
VERTEX
  8
PLAN_1
  6
CONTINUOUS
 10
-2.225638
 20
3.492449
  0
SEQEND
  8
0
  0
POLYLINE
  8
PLAN_1
  6
CONTINUOUS
 66
     1
 40
0.008134
 41
0.008134
  0
VERTEX
  8
PLAN_1
  6
CONTINUOUS
 10
-1.291638
 20
4.063933
  0
VERTEX
  8
PLAN_1
  6
CONTINUOUS
 10
-1.291638
 20
3.204165
  0
SEQEND
  8
0
  0
POLYLINE
  8
PLAN_1
  6
CONTINUOUS
 66
     1
 40
0.008134
 41
0.008134
  0
VERTEX
  8
PLAN_1
  6
CONTINUOUS
 10
-1.409087
 20
4.063933
  0
VERTEX
  8
PLAN_1
  6
CONTINUOUS
 10
-1.409087
 20
3.205689
  0
SEQEND
  8
0
  0
POLYLINE
  8
PLAN_1
  6
CONTINUOUS
 66
     1
 40
0.008134
 41
0.008134
  0
VERTEX
  8
PLAN_1
  6
CONTINUOUS
 10
-1.662795
 20
3.968346
  0
VERTEX
  8
PLAN_1
  6
CONTINUOUS
 10
-1.662795
 20
3.291106
  0
SEQEND
  8
0
  0
POLYLINE
  8
PLAN_1
  6
CONTINUOUS
 66
     1
 40
0.008134
 41
0.008134
  0
VERTEX
  8
PLAN_1
  6
CONTINUOUS
 10
-1.724315
 20
3.394827
  0
VERTEX
  8
PLAN_1
  6
CONTINUOUS
 10
-1.724315
 20
3.858016
  0
VERTEX
  8
PLAN_1
  6
CONTINUOUS
 10
-1.834138
 20
3.858016
  0
VERTEX
  8
PLAN_1
  6
CONTINUOUS
 10
-1.834138
 20
3.394827
  0
VERTEX
  8
PLAN_1
  6
CONTINUOUS
 10
-1.724315
 20
3.394827
  0
SEQEND
  8
0
  0
POLYLINE
  8
PLAN_1
  6
CONTINUOUS
 66
     1
 40
0.007118
 41
0.007118
  0
VERTEX
  8
PLAN_1
  6
CONTINUOUS
 10
-1.833122
 20
3.739551
  0
VERTEX
  8
PLAN_1
  6
CONTINUOUS
 10
-1.727366
 20
3.739551
  0
SEQEND
  8
0
  0
POLYLINE
  8
PLAN_1
  6
CONTINUOUS
 66
     1
 40
0.007118
 41
0.007118
  0
VERTEX
  8
PLAN_1
  6
CONTINUOUS
 10
-1.833122
 20
3.512787
  0
VERTEX
  8
PLAN_1
  6
CONTINUOUS
 10
-1.727366
 20
3.512787
  0
SEQEND
  8
0
  0
POLYLINE
  8
PLAN_1
  6
CONTINUOUS
 66
     1
 40
0.008134
 41
0.008134
  0
VERTEX
  8
PLAN_1
  6
CONTINUOUS
 10
-1.820921
 20
3.857508
  0
VERTEX
  8
PLAN_1
  6
CONTINUOUS
 10
-1.821937
 20
3.854965
  0
VERTEX
  8
PLAN_1
  6
CONTINUOUS
 10
-1.824988
 20
3.847339
  0
VERTEX
  8
PLAN_1
  6
CONTINUOUS
 10
-1.827020
 20
3.841744
  0
VERTEX
  8
PLAN_1
  6
CONTINUOUS
 10
-1.829055
 20
3.835646
  0
VERTEX
  8
PLAN_1
  6
CONTINUOUS
 10
-1.830579
 20
3.828528
  0
VERTEX
  8
PLAN_1
  6
CONTINUOUS
 10
-1.832106
 20
3.820390
  0
VERTEX
  8
PLAN_1
  6
CONTINUOUS
 10
-1.833122
 20
3.811748
  0
VERTEX
  8
PLAN_1
  6
CONTINUOUS
 10
-1.834138
 20
3.802594
  0
VERTEX
  8
PLAN_1
  6
CONTINUOUS
 10
-1.833630
 20
3.792425
  0
VERTEX
  8
PLAN_1
  6
CONTINUOUS
 10
-1.833122
 20
3.782260
  0
VERTEX
  8
PLAN_1
  6
CONTINUOUS
 10
-1.832106
 20
3.777173
  0
VERTEX
  8
PLAN_1
  6
CONTINUOUS
 10
-1.831087
 20
3.772091
  0
VERTEX
  8
PLAN_1
  6
CONTINUOUS
 10
-1.829563
 20
3.766496
  0
VERTEX
  8
PLAN_1
  6
CONTINUOUS
 10
-1.828039
 20
3.761413
  0
VERTEX
  8
PLAN_1
  6
CONTINUOUS
 10
-1.826004
 20
3.755819
  0
VERTEX
  8
PLAN_1
  6
CONTINUOUS
 10
-1.823969
 20
3.750228
  0
VERTEX
  8
PLAN_1
  6
CONTINUOUS
 10
-1.821429
 20
3.744634
  0
VERTEX
  8
PLAN_1
  6
CONTINUOUS
 10
-1.818378
 20
3.739551
  0
VERTEX
  8
PLAN_1
  6
CONTINUOUS
 10
-1.819902
 20
3.734972
  0
VERTEX
  8
PLAN_1
  6
CONTINUOUS
 10
-1.822953
 20
3.723280
  0
VERTEX
  8
PLAN_1
  6
CONTINUOUS
 10
-1.824988
 20
3.714126
  0
VERTEX
  8
PLAN_1
  6
CONTINUOUS
 10
-1.827020
 20
3.703449
  0
VERTEX
  8
PLAN_1
  6
CONTINUOUS
 10
-1.829055
 20
3.690740
  0
VERTEX
  8
PLAN_1
  6
CONTINUOUS
 10
-1.831087
 20
3.677012
  0
VERTEX
  8
PLAN_1
  6
CONTINUOUS
 10
-1.832614
 20
3.661248
  0
VERTEX
  8
PLAN_1
  6
CONTINUOUS
 10
-1.833630
 20
3.643965
  0
VERTEX
  8
PLAN_1
  6
CONTINUOUS
 10
-1.834138
 20
3.625150
  0
VERTEX
  8
PLAN_1
  6
CONTINUOUS
 10
-1.833630
 20
3.605323
  0
VERTEX
  8
PLAN_1
  6
CONTINUOUS
 10
-1.832106
 20
3.583969
  0
VERTEX
  8
PLAN_1
  6
CONTINUOUS
 10
-1.829563
 20
3.561594
  0
VERTEX
  8
PLAN_1
  6
CONTINUOUS
 10
-1.828039
 20
3.549394
  0
VERTEX
  8
PLAN_1
  6
CONTINUOUS
 10
-1.826004
 20
3.537701
  0
VERTEX
  8
PLAN_1
  6
CONTINUOUS
 10
-1.823969
 20
3.525496
  0
VERTEX
  8
PLAN_1
  6
CONTINUOUS
 10
-1.821429
 20
3.512787
  0
VERTEX
  8
PLAN_1
  6
CONTINUOUS
 10
-1.822445
 20
3.510244
  0
VERTEX
  8
PLAN_1
  6
CONTINUOUS
 10
-1.825496
 20
3.502618
  0
VERTEX
  8
PLAN_1
  6
CONTINUOUS
 10
-1.827528
 20
3.497531
  0
VERTEX
  8
PLAN_1
  6
CONTINUOUS
 10
-1.829055
 20
3.491433
  0
VERTEX
  8
PLAN_1
  6
CONTINUOUS
 10
-1.831087
 20
3.484315
  0
VERTEX
  8
PLAN_1
  6
CONTINUOUS
 10
-1.832614
 20
3.476177
  0
VERTEX
  8
PLAN_1
  6
CONTINUOUS
 10
-1.833630
 20
3.467535
  0
VERTEX
  8
PLAN_1
  6
CONTINUOUS
 10
-1.834138
 20
3.458382
  0
VERTEX
  8
PLAN_1
  6
CONTINUOUS
 10
-1.834138
 20
3.449232
  0
VERTEX
  8
PLAN_1
  6
CONTINUOUS
 10
-1.833122
 20
3.439063
  0
VERTEX
  8
PLAN_1
  6
CONTINUOUS
 10
-1.832614
 20
3.433980
  0
VERTEX
  8
PLAN_1
  6
CONTINUOUS
 10
-1.831598
 20
3.428386
  0
VERTEX
  8
PLAN_1
  6
CONTINUOUS
 10
-1.830071
 20
3.423303
  0
VERTEX
  8
PLAN_1
  6
CONTINUOUS
 10
-1.828547
 20
3.417709
  0
VERTEX
  8
PLAN_1
  6
CONTINUOUS
 10
-1.826512
 20
3.412626
  0
VERTEX
  8
PLAN_1
  6
CONTINUOUS
 10
-1.824480
 20
3.407031
  0
VERTEX
  8
PLAN_1
  6
CONTINUOUS
 10
-1.821937
 20
3.401437
  0
VERTEX
  8
PLAN_1
  6
CONTINUOUS
 10
-1.818886
 20
3.396354
  0
SEQEND
  8
0
  0
POLYLINE
  8
PLAN_1
  6
CONTINUOUS
 66
     1
 40
0.008134
 41
0.008134
  0
VERTEX
  8
PLAN_1
  6
CONTINUOUS
 10
-2.246480
 20
3.505161
  0
VERTEX
  8
PLAN_1
  6
CONTINUOUS
 10
-1.728386
 20
3.505161
  0
SEQEND
  8
0
  0
POLYLINE
  8
PLAN_1
 62
     2
  6
CONTINUOUS
 66
     1
 40
0.003000
 41
0.003000
  0
VERTEX
  8
PLAN_1
 62
     2
  6
CONTINUOUS
 10
0.279945
 20
-0.579118
  0
VERTEX
  8
PLAN_1
 62
     2
  6
CONTINUOUS
 10
0.269776
 20
-0.579118
  0
VERTEX
  8
PLAN_1
 62
     2
  6
CONTINUOUS
 10
0.269776
 20
-0.527260
  0
VERTEX
  8
PLAN_1
 62
     2
  6
CONTINUOUS
 10
0.252996
 20
-0.527260
  0
VERTEX
  8
PLAN_1
 62
     2
  6
CONTINUOUS
 10
0.252996
 20
-0.520142
  0
VERTEX
  8
PLAN_1
 62
     2
  6
CONTINUOUS
 10
0.257063
 20
-0.519630
  0
VERTEX
  8
PLAN_1
 62
     2
  6
CONTINUOUS
 10
0.260622
 20
-0.519122
  0
VERTEX
  8
PLAN_1
 62
     2
  6
CONTINUOUS
 10
0.263673
 20
-0.518106
  0
VERTEX
  8
PLAN_1
 62
     2
  6
CONTINUOUS
 10
0.266217
 20
-0.517091
  0
VERTEX
  8
PLAN_1
 62
     2
  6
CONTINUOUS
 10
0.268252
 20
-0.515563
  0
VERTEX
  8
PLAN_1
 62
     2
  6
CONTINUOUS
 10
0.269776
 20
-0.513024
  0
VERTEX
  8
PLAN_1
 62
     2
  6
CONTINUOUS
 10
0.271299
 20
-0.509972
  0
VERTEX
  8
PLAN_1
 62
     2
  6
CONTINUOUS
 10
0.272319
 20
-0.505906
  0
VERTEX
  8
PLAN_1
 62
     2
  6
CONTINUOUS
 10
0.279945
 20
-0.505906
  0
VERTEX
  8
PLAN_1
 62
     2
  6
CONTINUOUS
 10
0.279945
 20
-0.579118
  0
SEQEND
  8
0
  0
POLYLINE
  8
PLAN_1
 62
     2
  6
CONTINUOUS
 66
     1
 40
0.003000
 41
0.003000
  0
VERTEX
  8
PLAN_1
 62
     2
  6
CONTINUOUS
 10
0.347059
 20
-0.532343
  0
VERTEX
  8
PLAN_1
 62
     2
  6
CONTINUOUS
 10
0.347059
 20
-0.567425
  0
VERTEX
  8
PLAN_1
 62
     2
  6
CONTINUOUS
 10
0.347567
 20
-0.568949
  0
VERTEX
  8
PLAN_1
 62
     2
  6
CONTINUOUS
 10
0.347567
 20
-0.569969
  0
VERTEX
  8
PLAN_1
 62
     2
  6
CONTINUOUS
 10
0.348583
 20
-0.570984
  0
VERTEX
  8
PLAN_1
 62
     2
  6
CONTINUOUS
 10
0.349091
 20
-0.571492
  0
VERTEX
  8
PLAN_1
 62
     2
  6
CONTINUOUS
 10
0.350110
 20
-0.571492
  0
VERTEX
  8
PLAN_1
 62
     2
  6
CONTINUOUS
 10
0.351126
 20
-0.572000
  0
VERTEX
  8
PLAN_1
 62
     2
  6
CONTINUOUS
 10
0.352142
 20
-0.572000
  0
VERTEX
  8
PLAN_1
 62
     2
  6
CONTINUOUS
 10
0.352650
 20
-0.572000
  0
VERTEX
  8
PLAN_1
 62
     2
  6
CONTINUOUS
 10
0.355701
 20
-0.572000
  0
VERTEX
  8
PLAN_1
 62
     2
  6
CONTINUOUS
 10
0.355701
 20
-0.579118
  0
VERTEX
  8
PLAN_1
 62
     2
  6
CONTINUOUS
 10
0.354685
 20
-0.579118
  0
VERTEX
  8
PLAN_1
 62
     2
  6
CONTINUOUS
 10
0.353669
 20
-0.579118
  0
VERTEX
  8
PLAN_1
 62
     2
  6
CONTINUOUS
 10
0.352650
 20
-0.579626
  0
VERTEX
  8
PLAN_1
 62
     2
  6
CONTINUOUS
 10
0.351634
 20
-0.579626
  0
VERTEX
  8
PLAN_1
 62
     2
  6
CONTINUOUS
 10
0.350618
 20
-0.579626
  0
VERTEX
  8
PLAN_1
 62
     2
  6
CONTINUOUS
 10
0.350110
 20
-0.579626
  0
VERTEX
  8
PLAN_1
 62
     2
  6
CONTINUOUS
 10
0.349598
 20
-0.579626
  0
VERTEX
  8
PLAN_1
 62
     2
  6
CONTINUOUS
 10
0.349091
 20
-0.579626
  0
VERTEX
  8
PLAN_1
 62
     2
  6
CONTINUOUS
 10
0.346039
 20
-0.579626
  0
VERTEX
  8
PLAN_1
 62
     2
  6
CONTINUOUS
 10
0.343500
 20
-0.579118
  0
VERTEX
  8
PLAN_1
 62
     2
  6
CONTINUOUS
 10
0.341465
 20
-0.578102
  0
VERTEX
  8
PLAN_1
 62
     2
  6
CONTINUOUS
 10
0.339941
 20
-0.576575
  0
VERTEX
  8
PLAN_1
 62
     2
  6
CONTINUOUS
 10
0.338921
 20
-0.574543
  0
VERTEX
  8
PLAN_1
 62
     2
  6
CONTINUOUS
 10
0.338413
 20
-0.572508
  0
VERTEX
  8
PLAN_1
 62
     2
  6
CONTINUOUS
 10
0.337906
 20
-0.570476
  0
VERTEX
  8
PLAN_1
 62
     2
  6
CONTINUOUS
 10
0.337906
 20
-0.567933
  0
VERTEX
  8
PLAN_1
 62
     2
  6
CONTINUOUS
 10
0.337906
 20
-0.532343
  0
VERTEX
  8
PLAN_1
 62
     2
  6
CONTINUOUS
 10
0.330787
 20
-0.532343
  0
VERTEX
  8
PLAN_1
 62
     2
  6
CONTINUOUS
 10
0.330787
 20
-0.524717
  0
VERTEX
  8
PLAN_1
 62
     2
  6
CONTINUOUS
 10
0.337906
 20
-0.524717
  0
VERTEX
  8
PLAN_1
 62
     2
  6
CONTINUOUS
 10
0.337906
 20
-0.509465
  0
VERTEX
  8
PLAN_1
 62
     2
  6
CONTINUOUS
 10
0.347059
 20
-0.509465
  0
VERTEX
  8
PLAN_1
 62
     2
  6
CONTINUOUS
 10
0.347059
 20
-0.524717
  0
VERTEX
  8
PLAN_1
 62
     2
  6
CONTINUOUS
 10
0.355701
 20
-0.524717
  0
VERTEX
  8
PLAN_1
 62
     2
  6
CONTINUOUS
 10
0.355701
 20
-0.532343
  0
VERTEX
  8
PLAN_1
 62
     2
  6
CONTINUOUS
 10
0.347059
 20
-0.532343
  0
SEQEND
  8
0
  0
POLYLINE
  8
PLAN_1
 62
     2
  6
CONTINUOUS
 66
     1
 40
0.003000
 41
0.003000
  0
VERTEX
  8
PLAN_1
 62
     2
  6
CONTINUOUS
 10
0.375531
 20
-0.579118
  0
VERTEX
  8
PLAN_1
 62
     2
  6
CONTINUOUS
 10
0.366378
 20
-0.579118
  0
VERTEX
  8
PLAN_1
 62
     2
  6
CONTINUOUS
 10
0.366378
 20
-0.524717
  0
VERTEX
  8
PLAN_1
 62
     2
  6
CONTINUOUS
 10
0.375024
 20
-0.524717
  0
VERTEX
  8
PLAN_1
 62
     2
  6
CONTINUOUS
 10
0.375024
 20
-0.533866
  0
VERTEX
  8
PLAN_1
 62
     2
  6
CONTINUOUS
 10
0.376547
 20
-0.531327
  0
VERTEX
  8
PLAN_1
 62
     2
  6
CONTINUOUS
 10
0.378071
 20
-0.529291
  0
VERTEX
  8
PLAN_1
 62
     2
  6
CONTINUOUS
 10
0.379598
 20
-0.527768
  0
VERTEX
  8
PLAN_1
 62
     2
  6
CONTINUOUS
 10
0.381630
 20
-0.526240
  0
VERTEX
  8
PLAN_1
 62
     2
  6
CONTINUOUS
 10
0.383157
 20
-0.524717
  0
VERTEX
  8
PLAN_1
 62
     2
  6
CONTINUOUS
 10
0.385701
 20
-0.523701
  0
VERTEX
  8
PLAN_1
 62
     2
  6
CONTINUOUS
 10
0.387732
 20
-0.523189
  0
VERTEX
  8
PLAN_1
 62
     2
  6
CONTINUOUS
 10
0.390276
 20
-0.523189
  0
VERTEX
  8
PLAN_1
 62
     2
  6
CONTINUOUS
 10
0.390783
 20
-0.523189
  0
VERTEX
  8
PLAN_1
 62
     2
  6
CONTINUOUS
 10
0.391291
 20
-0.523189
  0
VERTEX
  8
PLAN_1
 62
     2
  6
CONTINUOUS
 10
0.391799
 20
-0.523189
  0
VERTEX
  8
PLAN_1
 62
     2
  6
CONTINUOUS
 10
0.392307
 20
-0.523189
  0
VERTEX
  8
PLAN_1
 62
     2
  6
CONTINUOUS
 10
0.392819
 20
-0.523189
  0
VERTEX
  8
PLAN_1
 62
     2
  6
CONTINUOUS
 10
0.392819
 20
-0.532850
  0
VERTEX
  8
PLAN_1
 62
     2
  6
CONTINUOUS
 10
0.389260
 20
-0.532850
  0
VERTEX
  8
PLAN_1
 62
     2
  6
CONTINUOUS
 10
0.386209
 20
-0.533358
  0
VERTEX
  8
PLAN_1
 62
     2
  6
CONTINUOUS
 10
0.383665
 20
-0.533866
  0
VERTEX
  8
PLAN_1
 62
     2
  6
CONTINUOUS
 10
0.381122
 20
-0.535394
  0
VERTEX
  8
PLAN_1
 62
     2
  6
CONTINUOUS
 10
0.379091
 20
-0.537425
  0
VERTEX
  8
PLAN_1
 62
     2
  6
CONTINUOUS
 10
0.377563
 20
-0.539461
  0
VERTEX
  8
PLAN_1
 62
     2
  6
CONTINUOUS
 10
0.376039
 20
-0.542004
  0
VERTEX
  8
PLAN_1
 62
     2
  6
CONTINUOUS
 10
0.375531
 20
-0.544543
  0
VERTEX
  8
PLAN_1
 62
     2
  6
CONTINUOUS
 10
0.375531
 20
-0.547594
  0
VERTEX
  8
PLAN_1
 62
     2
  6
CONTINUOUS
 10
0.375531
 20
-0.579118
  0
SEQEND
  8
0
  0
POLYLINE
  8
PLAN_1
 62
     2
  6
CONTINUOUS
 66
     1
 40
0.003000
 41
0.003000
  0
VERTEX
  8
PLAN_1
 62
     2
  6
CONTINUOUS
 10
0.421799
 20
-0.523189
  0
VERTEX
  8
PLAN_1
 62
     2
  6
CONTINUOUS
 10
0.424850
 20
-0.523189
  0
VERTEX
  8
PLAN_1
 62
     2
  6
CONTINUOUS
 10
0.427898
 20
-0.523701
  0
VERTEX
  8
PLAN_1
 62
     2
  6
CONTINUOUS
 10
0.430441
 20
-0.524717
  0
VERTEX
  8
PLAN_1
 62
     2
  6
CONTINUOUS
 10
0.432984
 20
-0.525732
  0
VERTEX
  8
PLAN_1
 62
     2
  6
CONTINUOUS
 10
0.435528
 20
-0.526748
  0
VERTEX
  8
PLAN_1
 62
     2
  6
CONTINUOUS
 10
0.437559
 20
-0.528276
  0
VERTEX
  8
PLAN_1
 62
     2
  6
CONTINUOUS
 10
0.439087
 20
-0.530307
  0
VERTEX
  8
PLAN_1
 62
     2
  6
CONTINUOUS
 10
0.441118
 20
-0.532343
  0
VERTEX
  8
PLAN_1
 62
     2
  6
CONTINUOUS
 10
0.443661
 20
-0.536409
  0
VERTEX
  8
PLAN_1
 62
     2
  6
CONTINUOUS
 10
0.445693
 20
-0.541496
  0
VERTEX
  8
PLAN_1
 62
     2
  6
CONTINUOUS
 10
0.446713
 20
-0.546579
  0
VERTEX
  8
PLAN_1
 62
     2
  6
CONTINUOUS
 10
0.447220
 20
-0.551661
  0
VERTEX
  8
PLAN_1
 62
     2
  6
CONTINUOUS
 10
0.446713
 20
-0.557256
  0
VERTEX
  8
PLAN_1
 62
     2
  6
CONTINUOUS
 10
0.445693
 20
-0.562339
  0
VERTEX
  8
PLAN_1
 62
     2
  6
CONTINUOUS
 10
0.443661
 20
-0.566917
  0
VERTEX
  8
PLAN_1
 62
     2
  6
CONTINUOUS
 10
0.441118
 20
-0.571492
  0
VERTEX
  8
PLAN_1
 62
     2
  6
CONTINUOUS
 10
0.439087
 20
-0.573528
  0
VERTEX
  8
PLAN_1
 62
     2
  6
CONTINUOUS
 10
0.437559
 20
-0.575051
  0
VERTEX
  8
PLAN_1
 62
     2
  6
CONTINUOUS
 10
0.435528
 20
-0.576575
  0
VERTEX
  8
PLAN_1
 62
     2
  6
CONTINUOUS
 10
0.432984
 20
-0.578102
  0
VERTEX
  8
PLAN_1
 62
     2
  6
CONTINUOUS
 10
0.430441
 20
-0.579118
  0
VERTEX
  8
PLAN_1
 62
     2
  6
CONTINUOUS
 10
0.427898
 20
-0.580134
  0
VERTEX
  8
PLAN_1
 62
     2
  6
CONTINUOUS
 10
0.424850
 20
-0.580134
  0
VERTEX
  8
PLAN_1
 62
     2
  6
CONTINUOUS
 10
0.421799
 20
-0.580646
  0
VERTEX
  8
PLAN_1
 62
     2
  6
CONTINUOUS
 10
0.418748
 20
-0.580134
  0
VERTEX
  8
PLAN_1
 62
     2
  6
CONTINUOUS
 10
0.415697
 20
-0.580134
  0
VERTEX
  8
PLAN_1
 62
     2
  6
CONTINUOUS
 10
0.413154
 20
-0.579118
  0
VERTEX
  8
PLAN_1
 62
     2
  6
CONTINUOUS
 10
0.410614
 20
-0.578102
  0
VERTEX
  8
PLAN_1
 62
     2
  6
CONTINUOUS
 10
0.408071
 20
-0.576575
  0
VERTEX
  8
PLAN_1
 62
     2
  6
CONTINUOUS
 10
0.406035
 20
-0.575051
  0
VERTEX
  8
PLAN_1
 62
     2
  6
CONTINUOUS
 10
0.404004
 20
-0.573528
  0
VERTEX
  8
PLAN_1
 62
     2
  6
CONTINUOUS
 10
0.402476
 20
-0.571492
  0
VERTEX
  8
PLAN_1
 62
     2
  6
CONTINUOUS
 10
0.399937
 20
-0.566917
  0
VERTEX
  8
PLAN_1
 62
     2
  6
CONTINUOUS
 10
0.397902
 20
-0.562339
  0
VERTEX
  8
PLAN_1
 62
     2
  6
CONTINUOUS
 10
0.396886
 20
-0.557256
  0
VERTEX
  8
PLAN_1
 62
     2
  6
CONTINUOUS
 10
0.396378
 20
-0.551661
  0
VERTEX
  8
PLAN_1
 62
     2
  6
CONTINUOUS
 10
0.396886
 20
-0.546579
  0
VERTEX
  8
PLAN_1
 62
     2
  6
CONTINUOUS
 10
0.397902
 20
-0.541496
  0
VERTEX
  8
PLAN_1
 62
     2
  6
CONTINUOUS
 10
0.399937
 20
-0.536409
  0
VERTEX
  8
PLAN_1
 62
     2
  6
CONTINUOUS
 10
0.402476
 20
-0.532343
  0
VERTEX
  8
PLAN_1
 62
     2
  6
CONTINUOUS
 10
0.404004
 20
-0.530307
  0
VERTEX
  8
PLAN_1
 62
     2
  6
CONTINUOUS
 10
0.406035
 20
-0.528276
  0
VERTEX
  8
PLAN_1
 62
     2
  6
CONTINUOUS
 10
0.408071
 20
-0.526748
  0
VERTEX
  8
PLAN_1
 62
     2
  6
CONTINUOUS
 10
0.410614
 20
-0.525732
  0
VERTEX
  8
PLAN_1
 62
     2
  6
CONTINUOUS
 10
0.413154
 20
-0.524717
  0
VERTEX
  8
PLAN_1
 62
     2
  6
CONTINUOUS
 10
0.415697
 20
-0.523701
  0
VERTEX
  8
PLAN_1
 62
     2
  6
CONTINUOUS
 10
0.418748
 20
-0.523189
  0
VERTEX
  8
PLAN_1
 62
     2
  6
CONTINUOUS
 10
0.421799
 20
-0.523189
  0
SEQEND
  8
0
  0
POLYLINE
  8
PLAN_1
 62
     2
  6
CONTINUOUS
 66
     1
 40
0.003000
 41
0.003000
  0
VERTEX
  8
PLAN_1
 62
     2
  6
CONTINUOUS
 10
0.421799
 20
-0.572508
  0
VERTEX
  8
PLAN_1
 62
     2
  6
CONTINUOUS
 10
0.423831
 20
-0.572508
  0
VERTEX
  8
PLAN_1
 62
     2
  6
CONTINUOUS
 10
0.426374
 20
-0.572000
  0
VERTEX
  8
PLAN_1
 62
     2
  6
CONTINUOUS
 10
0.427898
 20
-0.571492
  0
VERTEX
  8
PLAN_1
 62
     2
  6
CONTINUOUS
 10
0.429933
 20
-0.570476
  0
VERTEX
  8
PLAN_1
 62
     2
  6
CONTINUOUS
 10
0.432476
 20
-0.567933
  0
VERTEX
  8
PLAN_1
 62
     2
  6
CONTINUOUS
 10
0.434508
 20
-0.564882
  0
VERTEX
  8
PLAN_1
 62
     2
  6
CONTINUOUS
 10
0.436035
 20
-0.561831
  0
VERTEX
  8
PLAN_1
 62
     2
  6
CONTINUOUS
 10
0.437051
 20
-0.558272
  0
VERTEX
  8
PLAN_1
 62
     2
  6
CONTINUOUS
 10
0.437559
 20
-0.554713
  0
VERTEX
  8
PLAN_1
 62
     2
  6
CONTINUOUS
 10
0.437559
 20
-0.551661
  0
VERTEX
  8
PLAN_1
 62
     2
  6
CONTINUOUS
 10
0.437559
 20
-0.548614
  0
VERTEX
  8
PLAN_1
 62
     2
  6
CONTINUOUS
 10
0.437051
 20
-0.545563
  0
VERTEX
  8
PLAN_1
 62
     2
  6
CONTINUOUS
 10
0.436035
 20
-0.542004
  0
VERTEX
  8
PLAN_1
 62
     2
  6
CONTINUOUS
 10
0.434508
 20
-0.538445
  0
VERTEX
  8
PLAN_1
 62
     2
  6
CONTINUOUS
 10
0.432476
 20
-0.535902
  0
VERTEX
  8
PLAN_1
 62
     2
  6
CONTINUOUS
 10
0.429933
 20
-0.533358
  0
VERTEX
  8
PLAN_1
 62
     2
  6
CONTINUOUS
 10
0.427898
 20
-0.532343
  0
VERTEX
  8
PLAN_1
 62
     2
  6
CONTINUOUS
 10
0.426374
 20
-0.531835
  0
VERTEX
  8
PLAN_1
 62
     2
  6
CONTINUOUS
 10
0.423831
 20
-0.531327
  0
VERTEX
  8
PLAN_1
 62
     2
  6
CONTINUOUS
 10
0.421799
 20
-0.530819
  0
VERTEX
  8
PLAN_1
 62
     2
  6
CONTINUOUS
 10
0.419256
 20
-0.531327
  0
VERTEX
  8
PLAN_1
 62
     2
  6
CONTINUOUS
 10
0.417220
 20
-0.531835
  0
VERTEX
  8
PLAN_1
 62
     2
  6
CONTINUOUS
 10
0.415189
 20
-0.532343
  0
VERTEX
  8
PLAN_1
 62
     2
  6
CONTINUOUS
 10
0.413661
 20
-0.533358
  0
VERTEX
  8
PLAN_1
 62
     2
  6
CONTINUOUS
 10
0.411122
 20
-0.535902
  0
VERTEX
  8
PLAN_1
 62
     2
  6
CONTINUOUS
 10
0.409087
 20
-0.538445
  0
VERTEX
  8
PLAN_1
 62
     2
  6
CONTINUOUS
 10
0.407563
 20
-0.542004
  0
VERTEX
  8
PLAN_1
 62
     2
  6
CONTINUOUS
 10
0.406543
 20
-0.545563
  0
VERTEX
  8
PLAN_1
 62
     2
  6
CONTINUOUS
 10
0.406035
 20
-0.548614
  0
VERTEX
  8
PLAN_1
 62
     2
  6
CONTINUOUS
 10
0.406035
 20
-0.551661
  0
VERTEX
  8
PLAN_1
 62
     2
  6
CONTINUOUS
 10
0.406035
 20
-0.554713
  0
VERTEX
  8
PLAN_1
 62
     2
  6
CONTINUOUS
 10
0.406543
 20
-0.558272
  0
VERTEX
  8
PLAN_1
 62
     2
  6
CONTINUOUS
 10
0.407563
 20
-0.561831
  0
VERTEX
  8
PLAN_1
 62
     2
  6
CONTINUOUS
 10
0.409087
 20
-0.564882
  0
VERTEX
  8
PLAN_1
 62
     2
  6
CONTINUOUS
 10
0.411122
 20
-0.567933
  0
VERTEX
  8
PLAN_1
 62
     2
  6
CONTINUOUS
 10
0.413661
 20
-0.570476
  0
VERTEX
  8
PLAN_1
 62
     2
  6
CONTINUOUS
 10
0.415189
 20
-0.571492
  0
VERTEX
  8
PLAN_1
 62
     2
  6
CONTINUOUS
 10
0.417220
 20
-0.572000
  0
VERTEX
  8
PLAN_1
 62
     2
  6
CONTINUOUS
 10
0.419256
 20
-0.572508
  0
VERTEX
  8
PLAN_1
 62
     2
  6
CONTINUOUS
 10
0.421799
 20
-0.572508
  0
SEQEND
  8
0
  0
POLYLINE
  8
PLAN_1
 62
     2
  6
CONTINUOUS
 66
     1
 40
0.003000
 41
0.003000
  0
VERTEX
  8
PLAN_1
 62
     2
  6
CONTINUOUS
 10
0.492980
 20
-0.579118
  0
VERTEX
  8
PLAN_1
 62
     2
  6
CONTINUOUS
 10
0.492980
 20
-0.570984
  0
VERTEX
  8
PLAN_1
 62
     2
  6
CONTINUOUS
 10
0.491453
 20
-0.573016
  0
VERTEX
  8
PLAN_1
 62
     2
  6
CONTINUOUS
 10
0.489421
 20
-0.575051
  0
VERTEX
  8
PLAN_1
 62
     2
  6
CONTINUOUS
 10
0.487894
 20
-0.576575
  0
VERTEX
  8
PLAN_1
 62
     2
  6
CONTINUOUS
 10
0.485862
 20
-0.578102
  0
VERTEX
  8
PLAN_1
 62
     2
  6
CONTINUOUS
 10
0.483827
 20
-0.579118
  0
VERTEX
  8
PLAN_1
 62
     2
  6
CONTINUOUS
 10
0.481283
 20
-0.580134
  0
VERTEX
  8
PLAN_1
 62
     2
  6
CONTINUOUS
 10
0.478744
 20
-0.580646
  0
VERTEX
  8
PLAN_1
 62
     2
  6
CONTINUOUS
 10
0.475693
 20
-0.580646
  0
VERTEX
  8
PLAN_1
 62
     2
  6
CONTINUOUS
 10
0.472642
 20
-0.580646
  0
VERTEX
  8
PLAN_1
 62
     2
  6
CONTINUOUS
 10
0.469083
 20
-0.579626
  0
VERTEX
  8
PLAN_1
 62
     2
  6
CONTINUOUS
 10
0.466539
 20
-0.578610
  0
VERTEX
  8
PLAN_1
 62
     2
  6
CONTINUOUS
 10
0.463488
 20
-0.577087
  0
VERTEX
  8
PLAN_1
 62
     2
  6
CONTINUOUS
 10
0.461457
 20
-0.575051
  0
VERTEX
  8
PLAN_1
 62
     2
  6
CONTINUOUS
 10
0.459421
 20
-0.572000
  0
VERTEX
  8
PLAN_1
 62
     2
  6
CONTINUOUS
 10
0.458406
 20
-0.568441
  0
VERTEX
  8
PLAN_1
 62
     2
  6
CONTINUOUS
 10
0.457898
 20
-0.563866
  0
VERTEX
  8
PLAN_1
 62
     2
  6
CONTINUOUS
 10
0.457898
 20
-0.524717
  0
VERTEX
  8
PLAN_1
 62
     2
  6
CONTINUOUS
 10
0.467047
 20
-0.524717
  0
VERTEX
  8
PLAN_1
 62
     2
  6
CONTINUOUS
 10
0.467047
 20
-0.560815
  0
VERTEX
  8
PLAN_1
 62
     2
  6
CONTINUOUS
 10
0.467047
 20
-0.563866
  0
VERTEX
  8
PLAN_1
 62
     2
  6
CONTINUOUS
 10
0.467559
 20
-0.566409
  0
VERTEX
  8
PLAN_1
 62
     2
  6
CONTINUOUS
 10
0.468575
 20
-0.568441
  0
VERTEX
  8
PLAN_1
 62
     2
  6
CONTINUOUS
 10
0.470098
 20
-0.569969
  0
VERTEX
  8
PLAN_1
 62
     2
  6
CONTINUOUS
 10
0.471626
 20
-0.571492
  0
VERTEX
  8
PLAN_1
 62
     2
  6
CONTINUOUS
 10
0.473150
 20
-0.572000
  0
VERTEX
  8
PLAN_1
 62
     2
  6
CONTINUOUS
 10
0.475185
 20
-0.572508
  0
VERTEX
  8
PLAN_1
 62
     2
  6
CONTINUOUS
 10
0.477217
 20
-0.572508
  0
VERTEX
  8
PLAN_1
 62
     2
  6
CONTINUOUS
 10
0.481283
 20
-0.572508
  0
VERTEX
  8
PLAN_1
 62
     2
  6
CONTINUOUS
 10
0.484843
 20
-0.570984
  0
VERTEX
  8
PLAN_1
 62
     2
  6
CONTINUOUS
 10
0.487386
 20
-0.568949
  0
VERTEX
  8
PLAN_1
 62
     2
  6
CONTINUOUS
 10
0.489421
 20
-0.566409
  0
VERTEX
  8
PLAN_1
 62
     2
  6
CONTINUOUS
 10
0.490945
 20
-0.563866
  0
VERTEX
  8
PLAN_1
 62
     2
  6
CONTINUOUS
 10
0.491961
 20
-0.560815
  0
VERTEX
  8
PLAN_1
 62
     2
  6
CONTINUOUS
 10
0.492472
 20
-0.557764
  0
VERTEX
  8
PLAN_1
 62
     2
  6
CONTINUOUS
 10
0.492472
 20
-0.554713
  0
VERTEX
  8
PLAN_1
 62
     2
  6
CONTINUOUS
 10
0.492472
 20
-0.524717
  0
VERTEX
  8
PLAN_1
 62
     2
  6
CONTINUOUS
 10
0.501622
 20
-0.524717
  0
VERTEX
  8
PLAN_1
 62
     2
  6
CONTINUOUS
 10
0.501622
 20
-0.579118
  0
VERTEX
  8
PLAN_1
 62
     2
  6
CONTINUOUS
 10
0.492980
 20
-0.579118
  0
SEQEND
  8
0
  0
POLYLINE
  8
PLAN_1
 62
     2
  6
CONTINUOUS
 66
     1
 40
0.003000
 41
0.003000
  0
VERTEX
  8
PLAN_1
 62
     2
  6
CONTINUOUS
 10
0.555516
 20
-0.532343
  0
VERTEX
  8
PLAN_1
 62
     2
  6
CONTINUOUS
 10
0.555516
 20
-0.567425
  0
VERTEX
  8
PLAN_1
 62
     2
  6
CONTINUOUS
 10
0.555516
 20
-0.568949
  0
VERTEX
  8
PLAN_1
 62
     2
  6
CONTINUOUS
 10
0.556028
 20
-0.569969
  0
VERTEX
  8
PLAN_1
 62
     2
  6
CONTINUOUS
 10
0.557043
 20
-0.570984
  0
VERTEX
  8
PLAN_1
 62
     2
  6
CONTINUOUS
 10
0.557551
 20
-0.571492
  0
VERTEX
  8
PLAN_1
 62
     2
  6
CONTINUOUS
 10
0.558567
 20
-0.571492
  0
VERTEX
  8
PLAN_1
 62
     2
  6
CONTINUOUS
 10
0.559587
 20
-0.572000
  0
VERTEX
  8
PLAN_1
 62
     2
  6
CONTINUOUS
 10
0.560094
 20
-0.572000
  0
VERTEX
  8
PLAN_1
 62
     2
  6
CONTINUOUS
 10
0.561110
 20
-0.572000
  0
VERTEX
  8
PLAN_1
 62
     2
  6
CONTINUOUS
 10
0.564161
 20
-0.572000
  0
VERTEX
  8
PLAN_1
 62
     2
  6
CONTINUOUS
 10
0.564161
 20
-0.579118
  0
VERTEX
  8
PLAN_1
 62
     2
  6
CONTINUOUS
 10
0.563146
 20
-0.579118
  0
VERTEX
  8
PLAN_1
 62
     2
  6
CONTINUOUS
 10
0.562126
 20
-0.579118
  0
VERTEX
  8
PLAN_1
 62
     2
  6
CONTINUOUS
 10
0.561110
 20
-0.579626
  0
VERTEX
  8
PLAN_1
 62
     2
  6
CONTINUOUS
 10
0.560094
 20
-0.579626
  0
VERTEX
  8
PLAN_1
 62
     2
  6
CONTINUOUS
 10
0.559075
 20
-0.579626
  0
VERTEX
  8
PLAN_1
 62
     2
  6
CONTINUOUS
 10
0.558567
 20
-0.579626
  0
VERTEX
  8
PLAN_1
 62
     2
  6
CONTINUOUS
 10
0.558059
 20
-0.579626
  0
VERTEX
  8
PLAN_1
 62
     2
  6
CONTINUOUS
 10
0.557551
 20
-0.579626
  0
VERTEX
  8
PLAN_1
 62
     2
  6
CONTINUOUS
 10
0.554500
 20
-0.579626
  0
VERTEX
  8
PLAN_1
 62
     2
  6
CONTINUOUS
 10
0.551957
 20
-0.579118
  0
VERTEX
  8
PLAN_1
 62
     2
  6
CONTINUOUS
 10
0.549925
 20
-0.578102
  0
VERTEX
  8
PLAN_1
 62
     2
  6
CONTINUOUS
 10
0.548398
 20
-0.576575
  0
VERTEX
  8
PLAN_1
 62
     2
  6
CONTINUOUS
 10
0.547382
 20
-0.574543
  0
VERTEX
  8
PLAN_1
 62
     2
  6
CONTINUOUS
 10
0.546874
 20
-0.572508
  0
VERTEX
  8
PLAN_1
 62
     2
  6
CONTINUOUS
 10
0.546366
 20
-0.570476
  0
VERTEX
  8
PLAN_1
 62
     2
  6
CONTINUOUS
 10
0.546366
 20
-0.567933
  0
VERTEX
  8
PLAN_1
 62
     2
  6
CONTINUOUS
 10
0.546366
 20
-0.532343
  0
VERTEX
  8
PLAN_1
 62
     2
  6
CONTINUOUS
 10
0.539248
 20
-0.532343
  0
VERTEX
  8
PLAN_1
 62
     2
  6
CONTINUOUS
 10
0.539248
 20
-0.524717
  0
VERTEX
  8
PLAN_1
 62
     2
  6
CONTINUOUS
 10
0.546366
 20
-0.524717
  0
VERTEX
  8
PLAN_1
 62
     2
  6
CONTINUOUS
 10
0.546366
 20
-0.509465
  0
VERTEX
  8
PLAN_1
 62
     2
  6
CONTINUOUS
 10
0.555516
 20
-0.509465
  0
VERTEX
  8
PLAN_1
 62
     2
  6
CONTINUOUS
 10
0.555516
 20
-0.524717
  0
VERTEX
  8
PLAN_1
 62
     2
  6
CONTINUOUS
 10
0.564161
 20
-0.524717
  0
VERTEX
  8
PLAN_1
 62
     2
  6
CONTINUOUS
 10
0.564161
 20
-0.532343
  0
VERTEX
  8
PLAN_1
 62
     2
  6
CONTINUOUS
 10
0.555516
 20
-0.532343
  0
SEQEND
  8
0
  0
POLYLINE
  8
PLAN_1
 62
     2
  6
CONTINUOUS
 66
     1
 40
0.003000
 41
0.003000
  0
VERTEX
  8
PLAN_1
 62
     2
  6
CONTINUOUS
 10
0.572803
 20
-0.540984
  0
VERTEX
  8
PLAN_1
 62
     2
  6
CONTINUOUS
 10
0.573311
 20
-0.536917
  0
VERTEX
  8
PLAN_1
 62
     2
  6
CONTINUOUS
 10
0.574839
 20
-0.532850
  0
VERTEX
  8
PLAN_1
 62
     2
  6
CONTINUOUS
 10
0.576870
 20
-0.529799
  0
VERTEX
  8
PLAN_1
 62
     2
  6
CONTINUOUS
 10
0.579413
 20
-0.527260
  0
VERTEX
  8
PLAN_1
 62
     2
  6
CONTINUOUS
 10
0.582465
 20
-0.525224
  0
VERTEX
  8
PLAN_1
 62
     2
  6
CONTINUOUS
 10
0.586531
 20
-0.524209
  0
VERTEX
  8
PLAN_1
 62
     2
  6
CONTINUOUS
 10
0.590598
 20
-0.523189
  0
VERTEX
  8
PLAN_1
 62
     2
  6
CONTINUOUS
 10
0.595177
 20
-0.523189
  0
VERTEX
  8
PLAN_1
 62
     2
  6
CONTINUOUS
 10
0.597717
 20
-0.523189
  0
VERTEX
  8
PLAN_1
 62
     2
  6
CONTINUOUS
 10
0.600260
 20
-0.523701
  0
VERTEX
  8
PLAN_1
 62
     2
  6
CONTINUOUS
 10
0.603819
 20
-0.524209
  0
VERTEX
  8
PLAN_1
 62
     2
  6
CONTINUOUS
 10
0.607378
 20
-0.525224
  0
VERTEX
  8
PLAN_1
 62
     2
  6
CONTINUOUS
 10
0.610429
 20
-0.527260
  0
VERTEX
  8
PLAN_1
 62
     2
  6
CONTINUOUS
 10
0.612972
 20
-0.529799
  0
VERTEX
  8
PLAN_1
 62
     2
  6
CONTINUOUS
 10
0.613988
 20
-0.531835
  0
VERTEX
  8
PLAN_1
 62
     2
  6
CONTINUOUS
 10
0.615004
 20
-0.533866
  0
VERTEX
  8
PLAN_1
 62
     2
  6
CONTINUOUS
 10
0.615512
 20
-0.535902
  0
VERTEX
  8
PLAN_1
 62
     2
  6
CONTINUOUS
 10
0.615512
 20
-0.538445
  0
VERTEX
  8
PLAN_1
 62
     2
  6
CONTINUOUS
 10
0.615512
 20
-0.569457
  0
VERTEX
  8
PLAN_1
 62
     2
  6
CONTINUOUS
 10
0.615512
 20
-0.570476
  0
VERTEX
  8
PLAN_1
 62
     2
  6
CONTINUOUS
 10
0.616020
 20
-0.570984
  0
VERTEX
  8
PLAN_1
 62
     2
  6
CONTINUOUS
 10
0.616020
 20
-0.571492
  0
VERTEX
  8
PLAN_1
 62
     2
  6
CONTINUOUS
 10
0.616531
 20
-0.572000
  0
VERTEX
  8
PLAN_1
 62
     2
  6
CONTINUOUS
 10
0.617039
 20
-0.572508
  0
VERTEX
  8
PLAN_1
 62
     2
  6
CONTINUOUS
 10
0.617547
 20
-0.572508
  0
VERTEX
  8
PLAN_1
 62
     2
  6
CONTINUOUS
 10
0.618055
 20
-0.573016
  0
VERTEX
  8
PLAN_1
 62
     2
  6
CONTINUOUS
 10
0.618563
 20
-0.573016
  0
VERTEX
  8
PLAN_1
 62
     2
  6
CONTINUOUS
 10
0.619071
 20
-0.573016
  0
VERTEX
  8
PLAN_1
 62
     2
  6
CONTINUOUS
 10
0.619579
 20
-0.573016
  0
VERTEX
  8
PLAN_1
 62
     2
  6
CONTINUOUS
 10
0.620091
 20
-0.572508
  0
VERTEX
  8
PLAN_1
 62
     2
  6
CONTINUOUS
 10
0.620598
 20
-0.572508
  0
VERTEX
  8
PLAN_1
 62
     2
  6
CONTINUOUS
 10
0.621106
 20
-0.572508
  0
VERTEX
  8
PLAN_1
 62
     2
  6
CONTINUOUS
 10
0.621614
 20
-0.572508
  0
VERTEX
  8
PLAN_1
 62
     2
  6
CONTINUOUS
 10
0.621614
 20
-0.579118
  0
VERTEX
  8
PLAN_1
 62
     2
  6
CONTINUOUS
 10
0.621106
 20
-0.579118
  0
VERTEX
  8
PLAN_1
 62
     2
  6
CONTINUOUS
 10
0.620598
 20
-0.579626
  0
VERTEX
  8
PLAN_1
 62
     2
  6
CONTINUOUS
 10
0.620091
 20
-0.579626
  0
VERTEX
  8
PLAN_1
 62
     2
  6
CONTINUOUS
 10
0.619579
 20
-0.579626
  0
VERTEX
  8
PLAN_1
 62
     2
  6
CONTINUOUS
 10
0.618563
 20
-0.580134
  0
VERTEX
  8
PLAN_1
 62
     2
  6
CONTINUOUS
 10
0.618055
 20
-0.580134
  0
VERTEX
  8
PLAN_1
 62
     2
  6
CONTINUOUS
 10
0.617547
 20
-0.580134
  0
VERTEX
  8
PLAN_1
 62
     2
  6
CONTINUOUS
 10
0.616531
 20
-0.580134
  0
VERTEX
  8
PLAN_1
 62
     2
  6
CONTINUOUS
 10
0.613988
 20
-0.580134
  0
VERTEX
  8
PLAN_1
 62
     2
  6
CONTINUOUS
 10
0.611953
 20
-0.579626
  0
VERTEX
  8
PLAN_1
 62
     2
  6
CONTINUOUS
 10
0.609921
 20
-0.578610
  0
VERTEX
  8
PLAN_1
 62
     2
  6
CONTINUOUS
 10
0.608902
 20
-0.577594
  0
VERTEX
  8
PLAN_1
 62
     2
  6
CONTINUOUS
 10
0.607886
 20
-0.576067
  0
VERTEX
  8
PLAN_1
 62
     2
  6
CONTINUOUS
 10
0.607378
 20
-0.575051
  0
VERTEX
  8
PLAN_1
 62
     2
  6
CONTINUOUS
 10
0.607378
 20
-0.573528
  0
VERTEX
  8
PLAN_1
 62
     2
  6
CONTINUOUS
 10
0.606870
 20
-0.572000
  0
VERTEX
  8
PLAN_1
 62
     2
  6
CONTINUOUS
 10
0.605343
 20
-0.573528
  0
VERTEX
  8
PLAN_1
 62
     2
  6
CONTINUOUS
 10
0.603819
 20
-0.575051
  0
VERTEX
  8
PLAN_1
 62
     2
  6
CONTINUOUS
 10
0.601783
 20
-0.576067
  0
VERTEX
  8
PLAN_1
 62
     2
  6
CONTINUOUS
 10
0.599752
 20
-0.577594
  0
VERTEX
  8
PLAN_1
 62
     2
  6
CONTINUOUS
 10
0.597209
 20
-0.579118
  0
VERTEX
  8
PLAN_1
 62
     2
  6
CONTINUOUS
 10
0.594157
 20
-0.579626
  0
VERTEX
  8
PLAN_1
 62
     2
  6
CONTINUOUS
 10
0.591106
 20
-0.580646
  0
VERTEX
  8
PLAN_1
 62
     2
  6
CONTINUOUS
 10
0.587039
 20
-0.580646
  0
VERTEX
  8
PLAN_1
 62
     2
  6
CONTINUOUS
 10
0.583480
 20
-0.580134
  0
VERTEX
  8
PLAN_1
 62
     2
  6
CONTINUOUS
 10
0.580429
 20
-0.579626
  0
VERTEX
  8
PLAN_1
 62
     2
  6
CONTINUOUS
 10
0.577382
 20
-0.578102
  0
VERTEX
  8
PLAN_1
 62
     2
  6
CONTINUOUS
 10
0.574839
 20
-0.576067
  0
VERTEX
  8
PLAN_1
 62
     2
  6
CONTINUOUS
 10
0.572803
 20
-0.574035
  0
VERTEX
  8
PLAN_1
 62
     2
  6
CONTINUOUS
 10
0.571280
 20
-0.571492
  0
VERTEX
  8
PLAN_1
 62
     2
  6
CONTINUOUS
 10
0.570772
 20
-0.568441
  0
VERTEX
  8
PLAN_1
 62
     2
  6
CONTINUOUS
 10
0.570264
 20
-0.564882
  0
VERTEX
  8
PLAN_1
 62
     2
  6
CONTINUOUS
 10
0.570264
 20
-0.562850
  0
VERTEX
  8
PLAN_1
 62
     2
  6
CONTINUOUS
 10
0.570772
 20
-0.560815
  0
VERTEX
  8
PLAN_1
 62
     2
  6
CONTINUOUS
 10
0.571280
 20
-0.558272
  0
VERTEX
  8
PLAN_1
 62
     2
  6
CONTINUOUS
 10
0.572803
 20
-0.555220
  0
VERTEX
  8
PLAN_1
 62
     2
  6
CONTINUOUS
 10
0.574839
 20
-0.552681
  0
VERTEX
  8
PLAN_1
 62
     2
  6
CONTINUOUS
 10
0.577890
 20
-0.550646
  0
VERTEX
  8
PLAN_1
 62
     2
  6
CONTINUOUS
 10
0.581449
 20
-0.549122
  0
VERTEX
  8
PLAN_1
 62
     2
  6
CONTINUOUS
 10
0.586531
 20
-0.548102
  0
VERTEX
  8
PLAN_1
 62
     2
  6
CONTINUOUS
 10
0.601783
 20
-0.546071
  0
VERTEX
  8
PLAN_1
 62
     2
  6
CONTINUOUS
 10
0.602803
 20
-0.546071
  0
VERTEX
  8
PLAN_1
 62
     2
  6
CONTINUOUS
 10
0.603311
 20
-0.545563
  0
VERTEX
  8
PLAN_1
 62
     2
  6
CONTINUOUS
 10
0.604327
 20
-0.545055
  0
VERTEX
  8
PLAN_1
 62
     2
  6
CONTINUOUS
 10
0.604835
 20
-0.544543
  0
VERTEX
  8
PLAN_1
 62
     2
  6
CONTINUOUS
 10
0.605854
 20
-0.544035
  0
VERTEX
  8
PLAN_1
 62
     2
  6
CONTINUOUS
 10
0.606362
 20
-0.543020
  0
VERTEX
  8
PLAN_1
 62
     2
  6
CONTINUOUS
 10
0.606362
 20
-0.541496
  0
VERTEX
  8
PLAN_1
 62
     2
  6
CONTINUOUS
 10
0.606870
 20
-0.539461
  0
VERTEX
  8
PLAN_1
 62
     2
  6
CONTINUOUS
 10
0.606362
 20
-0.537425
  0
VERTEX
  8
PLAN_1
 62
     2
  6
CONTINUOUS
 10
0.605854
 20
-0.535902
  0
VERTEX
  8
PLAN_1
 62
     2
  6
CONTINUOUS
 10
0.604835
 20
-0.534378
  0
VERTEX
  8
PLAN_1
 62
     2
  6
CONTINUOUS
 10
0.603311
 20
-0.532850
  0
VERTEX
  8
PLAN_1
 62
     2
  6
CONTINUOUS
 10
0.601783
 20
-0.531835
  0
VERTEX
  8
PLAN_1
 62
     2
  6
CONTINUOUS
 10
0.599244
 20
-0.531327
  0
VERTEX
  8
PLAN_1
 62
     2
  6
CONTINUOUS
 10
0.596701
 20
-0.530819
  0
VERTEX
  8
PLAN_1
 62
     2
  6
CONTINUOUS
 10
0.593650
 20
-0.530819
  0
VERTEX
  8
PLAN_1
 62
     2
  6
CONTINUOUS
 10
0.590598
 20
-0.530819
  0
VERTEX
  8
PLAN_1
 62
     2
  6
CONTINUOUS
 10
0.587547
 20
-0.531835
  0
VERTEX
  8
PLAN_1
 62
     2
  6
CONTINUOUS
 10
0.585516
 20
-0.532850
  0
VERTEX
  8
PLAN_1
 62
     2
  6
CONTINUOUS
 10
0.583988
 20
-0.534378
  0
VERTEX
  8
PLAN_1
 62
     2
  6
CONTINUOUS
 10
0.582972
 20
-0.535902
  0
VERTEX
  8
PLAN_1
 62
     2
  6
CONTINUOUS
 10
0.581957
 20
-0.537937
  0
VERTEX
  8
PLAN_1
 62
     2
  6
CONTINUOUS
 10
0.581449
 20
-0.539461
  0
VERTEX
  8
PLAN_1
 62
     2
  6
CONTINUOUS
 10
0.581449
 20
-0.540984
  0
VERTEX
  8
PLAN_1
 62
     2
  6
CONTINUOUS
 10
0.572803
 20
-0.540984
  0
SEQEND
  8
0
  0
POLYLINE
  8
PLAN_1
 62
     2
  6
CONTINUOUS
 66
     1
 40
0.003000
 41
0.003000
  0
VERTEX
  8
PLAN_1
 62
     2
  6
CONTINUOUS
 10
0.606362
 20
-0.551154
  0
VERTEX
  8
PLAN_1
 62
     2
  6
CONTINUOUS
 10
0.605854
 20
-0.551661
  0
VERTEX
  8
PLAN_1
 62
     2
  6
CONTINUOUS
 10
0.604835
 20
-0.552173
  0
VERTEX
  8
PLAN_1
 62
     2
  6
CONTINUOUS
 10
0.603819
 20
-0.552681
  0
VERTEX
  8
PLAN_1
 62
     2
  6
CONTINUOUS
 10
0.602803
 20
-0.552681
  0
VERTEX
  8
PLAN_1
 62
     2
  6
CONTINUOUS
 10
0.600768
 20
-0.553189
  0
VERTEX
  8
PLAN_1
 62
     2
  6
CONTINUOUS
 10
0.598224
 20
-0.553697
  0
VERTEX
  8
PLAN_1
 62
     2
  6
CONTINUOUS
 10
0.595177
 20
-0.554205
  0
VERTEX
  8
PLAN_1
 62
     2
  6
CONTINUOUS
 10
0.591106
 20
-0.554713
  0
VERTEX
  8
PLAN_1
 62
     2
  6
CONTINUOUS
 10
0.589583
 20
-0.555220
  0
VERTEX
  8
PLAN_1
 62
     2
  6
CONTINUOUS
 10
0.587547
 20
-0.555220
  0
VERTEX
  8
PLAN_1
 62
     2
  6
CONTINUOUS
 10
0.585516
 20
-0.556240
  0
VERTEX
  8
PLAN_1
 62
     2
  6
CONTINUOUS
 10
0.583988
 20
-0.556748
  0
VERTEX
  8
PLAN_1
 62
     2
  6
CONTINUOUS
 10
0.581957
 20
-0.557764
  0
VERTEX
  8
PLAN_1
 62
     2
  6
CONTINUOUS
 10
0.580941
 20
-0.559291
  0
VERTEX
  8
PLAN_1
 62
     2
  6
CONTINUOUS
 10
0.579921
 20
-0.561323
  0
VERTEX
  8
PLAN_1
 62
     2
  6
CONTINUOUS
 10
0.579921
 20
-0.563358
  0
VERTEX
  8
PLAN_1
 62
     2
  6
CONTINUOUS
 10
0.579921
 20
-0.565898
  0
VERTEX
  8
PLAN_1
 62
     2
  6
CONTINUOUS
 10
0.580429
 20
-0.567425
  0
VERTEX
  8
PLAN_1
 62
     2
  6
CONTINUOUS
 10
0.580941
 20
-0.568949
  0
VERTEX
  8
PLAN_1
 62
     2
  6
CONTINUOUS
 10
0.581957
 20
-0.570476
  0
VERTEX
  8
PLAN_1
 62
     2
  6
CONTINUOUS
 10
0.583480
 20
-0.571492
  0
VERTEX
  8
PLAN_1
 62
     2
  6
CONTINUOUS
 10
0.585008
 20
-0.572508
  0
VERTEX
  8
PLAN_1
 62
     2
  6
CONTINUOUS
 10
0.587039
 20
-0.573016
  0
VERTEX
  8
PLAN_1
 62
     2
  6
CONTINUOUS
 10
0.589583
 20
-0.573016
  0
VERTEX
  8
PLAN_1
 62
     2
  6
CONTINUOUS
 10
0.592634
 20
-0.573016
  0
VERTEX
  8
PLAN_1
 62
     2
  6
CONTINUOUS
 10
0.595685
 20
-0.572000
  0
VERTEX
  8
PLAN_1
 62
     2
  6
CONTINUOUS
 10
0.598736
 20
-0.570984
  0
VERTEX
  8
PLAN_1
 62
     2
  6
CONTINUOUS
 10
0.601276
 20
-0.569457
  0
VERTEX
  8
PLAN_1
 62
     2
  6
CONTINUOUS
 10
0.603311
 20
-0.567425
  0
VERTEX
  8
PLAN_1
 62
     2
  6
CONTINUOUS
 10
0.604835
 20
-0.565390
  0
VERTEX
  8
PLAN_1
 62
     2
  6
CONTINUOUS
 10
0.605854
 20
-0.562850
  0
VERTEX
  8
PLAN_1
 62
     2
  6
CONTINUOUS
 10
0.606362
 20
-0.560307
  0
VERTEX
  8
PLAN_1
 62
     2
  6
CONTINUOUS
 10
0.606362
 20
-0.551154
  0
SEQEND
  8
0
  0
POLYLINE
  8
PLAN_1
 62
     2
  6
CONTINUOUS
 66
     1
 40
0.003000
 41
0.003000
  0
VERTEX
  8
PLAN_1
 62
     2
  6
CONTINUOUS
 10
0.641445
 20
-0.579118
  0
VERTEX
  8
PLAN_1
 62
     2
  6
CONTINUOUS
 10
0.632291
 20
-0.579118
  0
VERTEX
  8
PLAN_1
 62
     2
  6
CONTINUOUS
 10
0.632291
 20
-0.524717
  0
VERTEX
  8
PLAN_1
 62
     2
  6
CONTINUOUS
 10
0.640933
 20
-0.524717
  0
VERTEX
  8
PLAN_1
 62
     2
  6
CONTINUOUS
 10
0.640933
 20
-0.533866
  0
VERTEX
  8
PLAN_1
 62
     2
  6
CONTINUOUS
 10
0.641445
 20
-0.533866
  0
VERTEX
  8
PLAN_1
 62
     2
  6
CONTINUOUS
 10
0.642461
 20
-0.531327
  0
VERTEX
  8
PLAN_1
 62
     2
  6
CONTINUOUS
 10
0.643984
 20
-0.529291
  0
VERTEX
  8
PLAN_1
 62
     2
  6
CONTINUOUS
 10
0.646020
 20
-0.527768
  0
VERTEX
  8
PLAN_1
 62
     2
  6
CONTINUOUS
 10
0.647543
 20
-0.526240
  0
VERTEX
  8
PLAN_1
 62
     2
  6
CONTINUOUS
 10
0.649579
 20
-0.524717
  0
VERTEX
  8
PLAN_1
 62
     2
  6
CONTINUOUS
 10
0.651610
 20
-0.523701
  0
VERTEX
  8
PLAN_1
 62
     2
  6
CONTINUOUS
 10
0.654154
 20
-0.523189
  0
VERTEX
  8
PLAN_1
 62
     2
  6
CONTINUOUS
 10
0.656697
 20
-0.523189
  0
VERTEX
  8
PLAN_1
 62
     2
  6
CONTINUOUS
 10
0.657205
 20
-0.523189
  0
VERTEX
  8
PLAN_1
 62
     2
  6
CONTINUOUS
 10
0.657713
 20
-0.523189
  0
VERTEX
  8
PLAN_1
 62
     2
  6
CONTINUOUS
 10
0.658220
 20
-0.523189
  0
VERTEX
  8
PLAN_1
 62
     2
  6
CONTINUOUS
 10
0.658728
 20
-0.523189
  0
VERTEX
  8
PLAN_1
 62
     2
  6
CONTINUOUS
 10
0.658728
 20
-0.532850
  0
VERTEX
  8
PLAN_1
 62
     2
  6
CONTINUOUS
 10
0.655681
 20
-0.532850
  0
VERTEX
  8
PLAN_1
 62
     2
  6
CONTINUOUS
 10
0.652630
 20
-0.533358
  0
VERTEX
  8
PLAN_1
 62
     2
  6
CONTINUOUS
 10
0.649579
 20
-0.533866
  0
VERTEX
  8
PLAN_1
 62
     2
  6
CONTINUOUS
 10
0.647543
 20
-0.535394
  0
VERTEX
  8
PLAN_1
 62
     2
  6
CONTINUOUS
 10
0.645512
 20
-0.537425
  0
VERTEX
  8
PLAN_1
 62
     2
  6
CONTINUOUS
 10
0.643476
 20
-0.539461
  0
VERTEX
  8
PLAN_1
 62
     2
  6
CONTINUOUS
 10
0.642461
 20
-0.542004
  0
VERTEX
  8
PLAN_1
 62
     2
  6
CONTINUOUS
 10
0.641953
 20
-0.544543
  0
VERTEX
  8
PLAN_1
 62
     2
  6
CONTINUOUS
 10
0.641445
 20
-0.547594
  0
VERTEX
  8
PLAN_1
 62
     2
  6
CONTINUOUS
 10
0.641445
 20
-0.579118
  0
SEQEND
  8
0
  0
POLYLINE
  8
PLAN_1
 62
     2
  6
CONTINUOUS
 66
     1
 40
0.003000
 41
0.003000
  0
VERTEX
  8
PLAN_1
 62
     2
  6
CONTINUOUS
 10
0.664323
 20
-0.540984
  0
VERTEX
  8
PLAN_1
 62
     2
  6
CONTINUOUS
 10
0.664831
 20
-0.536917
  0
VERTEX
  8
PLAN_1
 62
     2
  6
CONTINUOUS
 10
0.666358
 20
-0.532850
  0
VERTEX
  8
PLAN_1
 62
     2
  6
CONTINUOUS
 10
0.668390
 20
-0.529799
  0
VERTEX
  8
PLAN_1
 62
     2
  6
CONTINUOUS
 10
0.670933
 20
-0.527260
  0
VERTEX
  8
PLAN_1
 62
     2
  6
CONTINUOUS
 10
0.673984
 20
-0.525224
  0
VERTEX
  8
PLAN_1
 62
     2
  6
CONTINUOUS
 10
0.678051
 20
-0.524209
  0
VERTEX
  8
PLAN_1
 62
     2
  6
CONTINUOUS
 10
0.682118
 20
-0.523189
  0
VERTEX
  8
PLAN_1
 62
     2
  6
CONTINUOUS
 10
0.687201
 20
-0.523189
  0
VERTEX
  8
PLAN_1
 62
     2
  6
CONTINUOUS
 10
0.689236
 20
-0.523189
  0
VERTEX
  8
PLAN_1
 62
     2
  6
CONTINUOUS
 10
0.691780
 20
-0.523701
  0
VERTEX
  8
PLAN_1
 62
     2
  6
CONTINUOUS
 10
0.695339
 20
-0.524209
  0
VERTEX
  8
PLAN_1
 62
     2
  6
CONTINUOUS
 10
0.698898
 20
-0.525224
  0
VERTEX
  8
PLAN_1
 62
     2
  6
CONTINUOUS
 10
0.701949
 20
-0.527260
  0
VERTEX
  8
PLAN_1
 62
     2
  6
CONTINUOUS
 10
0.704488
 20
-0.529799
  0
VERTEX
  8
PLAN_1
 62
     2
  6
CONTINUOUS
 10
0.705508
 20
-0.531835
  0
VERTEX
  8
PLAN_1
 62
     2
  6
CONTINUOUS
 10
0.706524
 20
-0.533866
  0
VERTEX
  8
PLAN_1
 62
     2
  6
CONTINUOUS
 10
0.707031
 20
-0.535902
  0
VERTEX
  8
PLAN_1
 62
     2
  6
CONTINUOUS
 10
0.707031
 20
-0.538445
  0
VERTEX
  8
PLAN_1
 62
     2
  6
CONTINUOUS
 10
0.707031
 20
-0.569457
  0
VERTEX
  8
PLAN_1
 62
     2
  6
CONTINUOUS
 10
0.707031
 20
-0.570476
  0
VERTEX
  8
PLAN_1
 62
     2
  6
CONTINUOUS
 10
0.707539
 20
-0.570984
  0
VERTEX
  8
PLAN_1
 62
     2
  6
CONTINUOUS
 10
0.707539
 20
-0.571492
  0
VERTEX
  8
PLAN_1
 62
     2
  6
CONTINUOUS
 10
0.708047
 20
-0.572000
  0
VERTEX
  8
PLAN_1
 62
     2
  6
CONTINUOUS
 10
0.708555
 20
-0.572508
  0
VERTEX
  8
PLAN_1
 62
     2
  6
CONTINUOUS
 10
0.709067
 20
-0.572508
  0
VERTEX
  8
PLAN_1
 62
     2
  6
CONTINUOUS
 10
0.709575
 20
-0.573016
  0
VERTEX
  8
PLAN_1
 62
     2
  6
CONTINUOUS
 10
0.710083
 20
-0.573016
  0
VERTEX
  8
PLAN_1
 62
     2
  6
CONTINUOUS
 10
0.710591
 20
-0.573016
  0
VERTEX
  8
PLAN_1
 62
     2
  6
CONTINUOUS
 10
0.711098
 20
-0.573016
  0
VERTEX
  8
PLAN_1
 62
     2
  6
CONTINUOUS
 10
0.711606
 20
-0.572508
  0
VERTEX
  8
PLAN_1
 62
     2
  6
CONTINUOUS
 10
0.712114
 20
-0.572508
  0
VERTEX
  8
PLAN_1
 62
     2
  6
CONTINUOUS
 10
0.712626
 20
-0.572508
  0
VERTEX
  8
PLAN_1
 62
     2
  6
CONTINUOUS
 10
0.713134
 20
-0.572508
  0
VERTEX
  8
PLAN_1
 62
     2
  6
CONTINUOUS
 10
0.713134
 20
-0.579118
  0
VERTEX
  8
PLAN_1
 62
     2
  6
CONTINUOUS
 10
0.712626
 20
-0.579118
  0
VERTEX
  8
PLAN_1
 62
     2
  6
CONTINUOUS
 10
0.712114
 20
-0.579626
  0
VERTEX
  8
PLAN_1
 62
     2
  6
CONTINUOUS
 10
0.711606
 20
-0.579626
  0
VERTEX
  8
PLAN_1
 62
     2
  6
CONTINUOUS
 10
0.711098
 20
-0.579626
  0
VERTEX
  8
PLAN_1
 62
     2
  6
CONTINUOUS
 10
0.710083
 20
-0.580134
  0
VERTEX
  8
PLAN_1
 62
     2
  6
CONTINUOUS
 10
0.709575
 20
-0.580134
  0
VERTEX
  8
PLAN_1
 62
     2
  6
CONTINUOUS
 10
0.709067
 20
-0.580134
  0
VERTEX
  8
PLAN_1
 62
     2
  6
CONTINUOUS
 10
0.708047
 20
-0.580134
  0
VERTEX
  8
PLAN_1
 62
     2
  6
CONTINUOUS
 10
0.705508
 20
-0.580134
  0
VERTEX
  8
PLAN_1
 62
     2
  6
CONTINUOUS
 10
0.703472
 20
-0.579626
  0
VERTEX
  8
PLAN_1
 62
     2
  6
CONTINUOUS
 10
0.701437
 20
-0.578610
  0
VERTEX
  8
PLAN_1
 62
     2
  6
CONTINUOUS
 10
0.700421
 20
-0.577594
  0
VERTEX
  8
PLAN_1
 62
     2
  6
CONTINUOUS
 10
0.699406
 20
-0.576067
  0
VERTEX
  8
PLAN_1
 62
     2
  6
CONTINUOUS
 10
0.698898
 20
-0.575051
  0
VERTEX
  8
PLAN_1
 62
     2
  6
CONTINUOUS
 10
0.698898
 20
-0.573528
  0
VERTEX
  8
PLAN_1
 62
     2
  6
CONTINUOUS
 10
0.698390
 20
-0.572000
  0
VERTEX
  8
PLAN_1
 62
     2
  6
CONTINUOUS
 10
0.696862
 20
-0.573528
  0
VERTEX
  8
PLAN_1
 62
     2
  6
CONTINUOUS
 10
0.695339
 20
-0.575051
  0
VERTEX
  8
PLAN_1
 62
     2
  6
CONTINUOUS
 10
0.693303
 20
-0.576067
  0
VERTEX
  8
PLAN_1
 62
     2
  6
CONTINUOUS
 10
0.691272
 20
-0.577594
  0
VERTEX
  8
PLAN_1
 62
     2
  6
CONTINUOUS
 10
0.688728
 20
-0.579118
  0
VERTEX
  8
PLAN_1
 62
     2
  6
CONTINUOUS
 10
0.685677
 20
-0.579626
  0
VERTEX
  8
PLAN_1
 62
     2
  6
CONTINUOUS
 10
0.682626
 20
-0.580646
  0
VERTEX
  8
PLAN_1
 62
     2
  6
CONTINUOUS
 10
0.679067
 20
-0.580646
  0
VERTEX
  8
PLAN_1
 62
     2
  6
CONTINUOUS
 10
0.675000
 20
-0.580134
  0
VERTEX
  8
PLAN_1
 62
     2
  6
CONTINUOUS
 10
0.671949
 20
-0.579626
  0
VERTEX
  8
PLAN_1
 62
     2
  6
CONTINUOUS
 10
0.668898
 20
-0.578102
  0
VERTEX
  8
PLAN_1
 62
     2
  6
CONTINUOUS
 10
0.666358
 20
-0.576067
  0
VERTEX
  8
PLAN_1
 62
     2
  6
CONTINUOUS
 10
0.664323
 20
-0.574035
  0
VERTEX
  8
PLAN_1
 62
     2
  6
CONTINUOUS
 10
0.662799
 20
-0.571492
  0
VERTEX
  8
PLAN_1
 62
     2
  6
CONTINUOUS
 10
0.662287
 20
-0.568441
  0
VERTEX
  8
PLAN_1
 62
     2
  6
CONTINUOUS
 10
0.661780
 20
-0.564882
  0
VERTEX
  8
PLAN_1
 62
     2
  6
CONTINUOUS
 10
0.661780
 20
-0.562850
  0
VERTEX
  8
PLAN_1
 62
     2
  6
CONTINUOUS
 10
0.662287
 20
-0.560815
  0
VERTEX
  8
PLAN_1
 62
     2
  6
CONTINUOUS
 10
0.662799
 20
-0.558272
  0
VERTEX
  8
PLAN_1
 62
     2
  6
CONTINUOUS
 10
0.664323
 20
-0.555220
  0
VERTEX
  8
PLAN_1
 62
     2
  6
CONTINUOUS
 10
0.666358
 20
-0.552681
  0
VERTEX
  8
PLAN_1
 62
     2
  6
CONTINUOUS
 10
0.669406
 20
-0.550646
  0
VERTEX
  8
PLAN_1
 62
     2
  6
CONTINUOUS
 10
0.673476
 20
-0.549122
  0
VERTEX
  8
PLAN_1
 62
     2
  6
CONTINUOUS
 10
0.678559
 20
-0.548102
  0
VERTEX
  8
PLAN_1
 62
     2
  6
CONTINUOUS
 10
0.693303
 20
-0.546071
  0
VERTEX
  8
PLAN_1
 62
     2
  6
CONTINUOUS
 10
0.694319
 20
-0.546071
  0
VERTEX
  8
PLAN_1
 62
     2
  6
CONTINUOUS
 10
0.694831
 20
-0.545563
  0
VERTEX
  8
PLAN_1
 62
     2
  6
CONTINUOUS
 10
0.695846
 20
-0.545055
  0
VERTEX
  8
PLAN_1
 62
     2
  6
CONTINUOUS
 10
0.696862
 20
-0.544543
  0
VERTEX
  8
PLAN_1
 62
     2
  6
CONTINUOUS
 10
0.697370
 20
-0.544035
  0
VERTEX
  8
PLAN_1
 62
     2
  6
CONTINUOUS
 10
0.697878
 20
-0.543020
  0
VERTEX
  8
PLAN_1
 62
     2
  6
CONTINUOUS
 10
0.697878
 20
-0.541496
  0
VERTEX
  8
PLAN_1
 62
     2
  6
CONTINUOUS
 10
0.698390
 20
-0.539461
  0
VERTEX
  8
PLAN_1
 62
     2
  6
CONTINUOUS
 10
0.697878
 20
-0.537425
  0
VERTEX
  8
PLAN_1
 62
     2
  6
CONTINUOUS
 10
0.697370
 20
-0.535902
  0
VERTEX
  8
PLAN_1
 62
     2
  6
CONTINUOUS
 10
0.696354
 20
-0.534378
  0
VERTEX
  8
PLAN_1
 62
     2
  6
CONTINUOUS
 10
0.694831
 20
-0.532850
  0
VERTEX
  8
PLAN_1
 62
     2
  6
CONTINUOUS
 10
0.693303
 20
-0.531835
  0
VERTEX
  8
PLAN_1
 62
     2
  6
CONTINUOUS
 10
0.691272
 20
-0.531327
  0
VERTEX
  8
PLAN_1
 62
     2
  6
CONTINUOUS
 10
0.688220
 20
-0.530819
  0
VERTEX
  8
PLAN_1
 62
     2
  6
CONTINUOUS
 10
0.685169
 20
-0.530819
  0
VERTEX
  8
PLAN_1
 62
     2
  6
CONTINUOUS
 10
0.682118
 20
-0.530819
  0
VERTEX
  8
PLAN_1
 62
     2
  6
CONTINUOUS
 10
0.679067
 20
-0.531835
  0
VERTEX
  8
PLAN_1
 62
     2
  6
CONTINUOUS
 10
0.677035
 20
-0.532850
  0
VERTEX
  8
PLAN_1
 62
     2
  6
CONTINUOUS
 10
0.675508
 20
-0.534378
  0
VERTEX
  8
PLAN_1
 62
     2
  6
CONTINUOUS
 10
0.674492
 20
-0.535902
  0
VERTEX
  8
PLAN_1
 62
     2
  6
CONTINUOUS
 10
0.673476
 20
-0.537937
  0
VERTEX
  8
PLAN_1
 62
     2
  6
CONTINUOUS
 10
0.672965
 20
-0.539461
  0
VERTEX
  8
PLAN_1
 62
     2
  6
CONTINUOUS
 10
0.672965
 20
-0.540984
  0
VERTEX
  8
PLAN_1
 62
     2
  6
CONTINUOUS
 10
0.664323
 20
-0.540984
  0
SEQEND
  8
0
  0
POLYLINE
  8
PLAN_1
 62
     2
  6
CONTINUOUS
 66
     1
 40
0.003000
 41
0.003000
  0
VERTEX
  8
PLAN_1
 62
     2
  6
CONTINUOUS
 10
0.697878
 20
-0.551154
  0
VERTEX
  8
PLAN_1
 62
     2
  6
CONTINUOUS
 10
0.697370
 20
-0.551661
  0
VERTEX
  8
PLAN_1
 62
     2
  6
CONTINUOUS
 10
0.696354
 20
-0.552173
  0
VERTEX
  8
PLAN_1
 62
     2
  6
CONTINUOUS
 10
0.695339
 20
-0.552681
  0
VERTEX
  8
PLAN_1
 62
     2
  6
CONTINUOUS
 10
0.694319
 20
-0.552681
  0
VERTEX
  8
PLAN_1
 62
     2
  6
CONTINUOUS
 10
0.692287
 20
-0.553189
  0
VERTEX
  8
PLAN_1
 62
     2
  6
CONTINUOUS
 10
0.689744
 20
-0.553697
  0
VERTEX
  8
PLAN_1
 62
     2
  6
CONTINUOUS
 10
0.686693
 20
-0.554205
  0
VERTEX
  8
PLAN_1
 62
     2
  6
CONTINUOUS
 10
0.683134
 20
-0.554713
  0
VERTEX
  8
PLAN_1
 62
     2
  6
CONTINUOUS
 10
0.681102
 20
-0.555220
  0
VERTEX
  8
PLAN_1
 62
     2
  6
CONTINUOUS
 10
0.679067
 20
-0.555220
  0
VERTEX
  8
PLAN_1
 62
     2
  6
CONTINUOUS
 10
0.677035
 20
-0.556240
  0
VERTEX
  8
PLAN_1
 62
     2
  6
CONTINUOUS
 10
0.675508
 20
-0.556748
  0
VERTEX
  8
PLAN_1
 62
     2
  6
CONTINUOUS
 10
0.673984
 20
-0.557764
  0
VERTEX
  8
PLAN_1
 62
     2
  6
CONTINUOUS
 10
0.672457
 20
-0.559291
  0
VERTEX
  8
PLAN_1
 62
     2
  6
CONTINUOUS
 10
0.671441
 20
-0.561323
  0
VERTEX
  8
PLAN_1
 62
     2
  6
CONTINUOUS
 10
0.671441
 20
-0.563358
  0
VERTEX
  8
PLAN_1
 62
     2
  6
CONTINUOUS
 10
0.671441
 20
-0.565898
  0
VERTEX
  8
PLAN_1
 62
     2
  6
CONTINUOUS
 10
0.671949
 20
-0.567425
  0
VERTEX
  8
PLAN_1
 62
     2
  6
CONTINUOUS
 10
0.672457
 20
-0.568949
  0
VERTEX
  8
PLAN_1
 62
     2
  6
CONTINUOUS
 10
0.673476
 20
-0.570476
  0
VERTEX
  8
PLAN_1
 62
     2
  6
CONTINUOUS
 10
0.675000
 20
-0.571492
  0
VERTEX
  8
PLAN_1
 62
     2
  6
CONTINUOUS
 10
0.676524
 20
-0.572508
  0
VERTEX
  8
PLAN_1
 62
     2
  6
CONTINUOUS
 10
0.678559
 20
-0.573016
  0
VERTEX
  8
PLAN_1
 62
     2
  6
CONTINUOUS
 10
0.681102
 20
-0.573016
  0
VERTEX
  8
PLAN_1
 62
     2
  6
CONTINUOUS
 10
0.684154
 20
-0.573016
  0
VERTEX
  8
PLAN_1
 62
     2
  6
CONTINUOUS
 10
0.687201
 20
-0.572000
  0
VERTEX
  8
PLAN_1
 62
     2
  6
CONTINUOUS
 10
0.690252
 20
-0.570984
  0
VERTEX
  8
PLAN_1
 62
     2
  6
CONTINUOUS
 10
0.692795
 20
-0.569457
  0
VERTEX
  8
PLAN_1
 62
     2
  6
CONTINUOUS
 10
0.694831
 20
-0.567425
  0
VERTEX
  8
PLAN_1
 62
     2
  6
CONTINUOUS
 10
0.696354
 20
-0.565390
  0
VERTEX
  8
PLAN_1
 62
     2
  6
CONTINUOUS
 10
0.697370
 20
-0.562850
  0
VERTEX
  8
PLAN_1
 62
     2
  6
CONTINUOUS
 10
0.697878
 20
-0.560307
  0
VERTEX
  8
PLAN_1
 62
     2
  6
CONTINUOUS
 10
0.697878
 20
-0.551154
  0
SEQEND
  8
0
  0
POLYLINE
  8
PLAN_1
 62
     2
  6
CONTINUOUS
 66
     1
 40
0.003000
 41
0.003000
  0
VERTEX
  8
PLAN_1
 62
     2
  6
CONTINUOUS
 10
0.758382
 20
-0.579118
  0
VERTEX
  8
PLAN_1
 62
     2
  6
CONTINUOUS
 10
0.758382
 20
-0.570984
  0
VERTEX
  8
PLAN_1
 62
     2
  6
CONTINUOUS
 10
0.757874
 20
-0.570984
  0
VERTEX
  8
PLAN_1
 62
     2
  6
CONTINUOUS
 10
0.756350
 20
-0.573016
  0
VERTEX
  8
PLAN_1
 62
     2
  6
CONTINUOUS
 10
0.754823
 20
-0.575051
  0
VERTEX
  8
PLAN_1
 62
     2
  6
CONTINUOUS
 10
0.753299
 20
-0.576575
  0
VERTEX
  8
PLAN_1
 62
     2
  6
CONTINUOUS
 10
0.751264
 20
-0.578102
  0
VERTEX
  8
PLAN_1
 62
     2
  6
CONTINUOUS
 10
0.749232
 20
-0.579118
  0
VERTEX
  8
PLAN_1
 62
     2
  6
CONTINUOUS
 10
0.746689
 20
-0.580134
  0
VERTEX
  8
PLAN_1
 62
     2
  6
CONTINUOUS
 10
0.743638
 20
-0.580646
  0
VERTEX
  8
PLAN_1
 62
     2
  6
CONTINUOUS
 10
0.740587
 20
-0.580646
  0
VERTEX
  8
PLAN_1
 62
     2
  6
CONTINUOUS
 10
0.737539
 20
-0.580646
  0
VERTEX
  8
PLAN_1
 62
     2
  6
CONTINUOUS
 10
0.734488
 20
-0.579626
  0
VERTEX
  8
PLAN_1
 62
     2
  6
CONTINUOUS
 10
0.731437
 20
-0.578610
  0
VERTEX
  8
PLAN_1
 62
     2
  6
CONTINUOUS
 10
0.728894
 20
-0.577087
  0
VERTEX
  8
PLAN_1
 62
     2
  6
CONTINUOUS
 10
0.726350
 20
-0.575051
  0
VERTEX
  8
PLAN_1
 62
     2
  6
CONTINUOUS
 10
0.724827
 20
-0.572000
  0
VERTEX
  8
PLAN_1
 62
     2
  6
CONTINUOUS
 10
0.723303
 20
-0.568441
  0
VERTEX
  8
PLAN_1
 62
     2
  6
CONTINUOUS
 10
0.722791
 20
-0.563866
  0
VERTEX
  8
PLAN_1
 62
     2
  6
CONTINUOUS
 10
0.722791
 20
-0.524717
  0
VERTEX
  8
PLAN_1
 62
     2
  6
CONTINUOUS
 10
0.731945
 20
-0.524717
  0
VERTEX
  8
PLAN_1
 62
     2
  6
CONTINUOUS
 10
0.731945
 20
-0.560815
  0
VERTEX
  8
PLAN_1
 62
     2
  6
CONTINUOUS
 10
0.732453
 20
-0.563866
  0
VERTEX
  8
PLAN_1
 62
     2
  6
CONTINUOUS
 10
0.732961
 20
-0.566409
  0
VERTEX
  8
PLAN_1
 62
     2
  6
CONTINUOUS
 10
0.733980
 20
-0.568441
  0
VERTEX
  8
PLAN_1
 62
     2
  6
CONTINUOUS
 10
0.734996
 20
-0.569969
  0
VERTEX
  8
PLAN_1
 62
     2
  6
CONTINUOUS
 10
0.736520
 20
-0.571492
  0
VERTEX
  8
PLAN_1
 62
     2
  6
CONTINUOUS
 10
0.738555
 20
-0.572000
  0
VERTEX
  8
PLAN_1
 62
     2
  6
CONTINUOUS
 10
0.740587
 20
-0.572508
  0
VERTEX
  8
PLAN_1
 62
     2
  6
CONTINUOUS
 10
0.742622
 20
-0.572508
  0
VERTEX
  8
PLAN_1
 62
     2
  6
CONTINUOUS
 10
0.746689
 20
-0.572508
  0
VERTEX
  8
PLAN_1
 62
     2
  6
CONTINUOUS
 10
0.749740
 20
-0.570984
  0
VERTEX
  8
PLAN_1
 62
     2
  6
CONTINUOUS
 10
0.752283
 20
-0.568949
  0
VERTEX
  8
PLAN_1
 62
     2
  6
CONTINUOUS
 10
0.754315
 20
-0.566409
  0
VERTEX
  8
PLAN_1
 62
     2
  6
CONTINUOUS
 10
0.755843
 20
-0.563866
  0
VERTEX
  8
PLAN_1
 62
     2
  6
CONTINUOUS
 10
0.756858
 20
-0.560815
  0
VERTEX
  8
PLAN_1
 62
     2
  6
CONTINUOUS
 10
0.757366
 20
-0.557764
  0
VERTEX
  8
PLAN_1
 62
     2
  6
CONTINUOUS
 10
0.757874
 20
-0.554713
  0
VERTEX
  8
PLAN_1
 62
     2
  6
CONTINUOUS
 10
0.757874
 20
-0.524717
  0
VERTEX
  8
PLAN_1
 62
     2
  6
CONTINUOUS
 10
0.767028
 20
-0.524717
  0
VERTEX
  8
PLAN_1
 62
     2
  6
CONTINUOUS
 10
0.767028
 20
-0.579118
  0
VERTEX
  8
PLAN_1
 62
     2
  6
CONTINUOUS
 10
0.758382
 20
-0.579118
  0
SEQEND
  8
0
  0
POLYLINE
  8
PLAN_1
 62
     2
  6
CONTINUOUS
 66
     1
 40
0.003000
 41
0.003000
  0
VERTEX
  8
PLAN_1
 62
     2
  6
CONTINUOUS
 10
0.826008
 20
-0.579118
  0
VERTEX
  8
PLAN_1
 62
     2
  6
CONTINUOUS
 10
0.817362
 20
-0.579118
  0
VERTEX
  8
PLAN_1
 62
     2
  6
CONTINUOUS
 10
0.817362
 20
-0.571492
  0
VERTEX
  8
PLAN_1
 62
     2
  6
CONTINUOUS
 10
0.816854
 20
-0.571492
  0
VERTEX
  8
PLAN_1
 62
     2
  6
CONTINUOUS
 10
0.815331
 20
-0.574035
  0
VERTEX
  8
PLAN_1
 62
     2
  6
CONTINUOUS
 10
0.813803
 20
-0.576067
  0
VERTEX
  8
PLAN_1
 62
     2
  6
CONTINUOUS
 10
0.811772
 20
-0.577594
  0
VERTEX
  8
PLAN_1
 62
     2
  6
CONTINUOUS
 10
0.809736
 20
-0.579118
  0
VERTEX
  8
PLAN_1
 62
     2
  6
CONTINUOUS
 10
0.807701
 20
-0.579626
  0
VERTEX
  8
PLAN_1
 62
     2
  6
CONTINUOUS
 10
0.805669
 20
-0.580134
  0
VERTEX
  8
PLAN_1
 62
     2
  6
CONTINUOUS
 10
0.803634
 20
-0.580646
  0
VERTEX
  8
PLAN_1
 62
     2
  6
CONTINUOUS
 10
0.801602
 20
-0.580646
  0
VERTEX
  8
PLAN_1
 62
     2
  6
CONTINUOUS
 10
0.798043
 20
-0.580646
  0
VERTEX
  8
PLAN_1
 62
     2
  6
CONTINUOUS
 10
0.794992
 20
-0.579626
  0
VERTEX
  8
PLAN_1
 62
     2
  6
CONTINUOUS
 10
0.792449
 20
-0.579118
  0
VERTEX
  8
PLAN_1
 62
     2
  6
CONTINUOUS
 10
0.789906
 20
-0.577594
  0
VERTEX
  8
PLAN_1
 62
     2
  6
CONTINUOUS
 10
0.787874
 20
-0.576067
  0
VERTEX
  8
PLAN_1
 62
     2
  6
CONTINUOUS
 10
0.785839
 20
-0.574543
  0
VERTEX
  8
PLAN_1
 62
     2
  6
CONTINUOUS
 10
0.783807
 20
-0.572508
  0
VERTEX
  8
PLAN_1
 62
     2
  6
CONTINUOUS
 10
0.782280
 20
-0.570476
  0
VERTEX
  8
PLAN_1
 62
     2
  6
CONTINUOUS
 10
0.780248
 20
-0.565390
  0
VERTEX
  8
PLAN_1
 62
     2
  6
CONTINUOUS
 10
0.778720
 20
-0.560307
  0
VERTEX
  8
PLAN_1
 62
     2
  6
CONTINUOUS
 10
0.777705
 20
-0.555220
  0
VERTEX
  8
PLAN_1
 62
     2
  6
CONTINUOUS
 10
0.777705
 20
-0.550138
  0
VERTEX
  8
PLAN_1
 62
     2
  6
CONTINUOUS
 10
0.777705
 20
-0.544543
  0
VERTEX
  8
PLAN_1
 62
     2
  6
CONTINUOUS
 10
0.779228
 20
-0.539461
  0
VERTEX
  8
PLAN_1
 62
     2
  6
CONTINUOUS
 10
0.780756
 20
-0.534886
  0
VERTEX
  8
PLAN_1
 62
     2
  6
CONTINUOUS
 10
0.783299
 20
-0.530819
  0
VERTEX
  8
PLAN_1
 62
     2
  6
CONTINUOUS
 10
0.784823
 20
-0.529291
  0
VERTEX
  8
PLAN_1
 62
     2
  6
CONTINUOUS
 10
0.786858
 20
-0.527768
  0
VERTEX
  8
PLAN_1
 62
     2
  6
CONTINUOUS
 10
0.788382
 20
-0.526240
  0
VERTEX
  8
PLAN_1
 62
     2
  6
CONTINUOUS
 10
0.790417
 20
-0.525224
  0
VERTEX
  8
PLAN_1
 62
     2
  6
CONTINUOUS
 10
0.792449
 20
-0.524209
  0
VERTEX
  8
PLAN_1
 62
     2
  6
CONTINUOUS
 10
0.794992
 20
-0.523701
  0
VERTEX
  8
PLAN_1
 62
     2
  6
CONTINUOUS
 10
0.797535
 20
-0.523189
  0
VERTEX
  8
PLAN_1
 62
     2
  6
CONTINUOUS
 10
0.800075
 20
-0.523189
  0
VERTEX
  8
PLAN_1
 62
     2
  6
CONTINUOUS
 10
0.803634
 20
-0.523189
  0
VERTEX
  8
PLAN_1
 62
     2
  6
CONTINUOUS
 10
0.806685
 20
-0.524209
  0
VERTEX
  8
PLAN_1
 62
     2
  6
CONTINUOUS
 10
0.809228
 20
-0.525224
  0
VERTEX
  8
PLAN_1
 62
     2
  6
CONTINUOUS
 10
0.811260
 20
-0.526748
  0
VERTEX
  8
PLAN_1
 62
     2
  6
CONTINUOUS
 10
0.812787
 20
-0.528276
  0
VERTEX
  8
PLAN_1
 62
     2
  6
CONTINUOUS
 10
0.814311
 20
-0.529799
  0
VERTEX
  8
PLAN_1
 62
     2
  6
CONTINUOUS
 10
0.815331
 20
-0.531327
  0
VERTEX
  8
PLAN_1
 62
     2
  6
CONTINUOUS
 10
0.816346
 20
-0.532343
  0
VERTEX
  8
PLAN_1
 62
     2
  6
CONTINUOUS
 10
0.816346
 20
-0.531835
  0
VERTEX
  8
PLAN_1
 62
     2
  6
CONTINUOUS
 10
0.816346
 20
-0.504378
  0
VERTEX
  8
PLAN_1
 62
     2
  6
CONTINUOUS
 10
0.826008
 20
-0.504378
  0
VERTEX
  8
PLAN_1
 62
     2
  6
CONTINUOUS
 10
0.826008
 20
-0.579118
  0
SEQEND
  8
0
  0
POLYLINE
  8
PLAN_1
 62
     2
  6
CONTINUOUS
 66
     1
 40
0.003000
 41
0.003000
  0
VERTEX
  8
PLAN_1
 62
     2
  6
CONTINUOUS
 10
0.801602
 20
-0.572508
  0
VERTEX
  8
PLAN_1
 62
     2
  6
CONTINUOUS
 10
0.804142
 20
-0.572508
  0
VERTEX
  8
PLAN_1
 62
     2
  6
CONTINUOUS
 10
0.806177
 20
-0.572000
  0
VERTEX
  8
PLAN_1
 62
     2
  6
CONTINUOUS
 10
0.808720
 20
-0.570984
  0
VERTEX
  8
PLAN_1
 62
     2
  6
CONTINUOUS
 10
0.811260
 20
-0.568949
  0
VERTEX
  8
PLAN_1
 62
     2
  6
CONTINUOUS
 10
0.813295
 20
-0.566409
  0
VERTEX
  8
PLAN_1
 62
     2
  6
CONTINUOUS
 10
0.814819
 20
-0.563358
  0
VERTEX
  8
PLAN_1
 62
     2
  6
CONTINUOUS
 10
0.816346
 20
-0.559291
  0
VERTEX
  8
PLAN_1
 62
     2
  6
CONTINUOUS
 10
0.816346
 20
-0.554205
  0
VERTEX
  8
PLAN_1
 62
     2
  6
CONTINUOUS
 10
0.816346
 20
-0.551154
  0
VERTEX
  8
PLAN_1
 62
     2
  6
CONTINUOUS
 10
0.815839
 20
-0.547087
  0
VERTEX
  8
PLAN_1
 62
     2
  6
CONTINUOUS
 10
0.815331
 20
-0.543020
  0
VERTEX
  8
PLAN_1
 62
     2
  6
CONTINUOUS
 10
0.814311
 20
-0.539461
  0
VERTEX
  8
PLAN_1
 62
     2
  6
CONTINUOUS
 10
0.812280
 20
-0.536409
  0
VERTEX
  8
PLAN_1
 62
     2
  6
CONTINUOUS
 10
0.809736
 20
-0.533866
  0
VERTEX
  8
PLAN_1
 62
     2
  6
CONTINUOUS
 10
0.808213
 20
-0.532850
  0
VERTEX
  8
PLAN_1
 62
     2
  6
CONTINUOUS
 10
0.806177
 20
-0.531835
  0
VERTEX
  8
PLAN_1
 62
     2
  6
CONTINUOUS
 10
0.804142
 20
-0.531327
  0
VERTEX
  8
PLAN_1
 62
     2
  6
CONTINUOUS
 10
0.801602
 20
-0.531327
  0
VERTEX
  8
PLAN_1
 62
     2
  6
CONTINUOUS
 10
0.799567
 20
-0.531327
  0
VERTEX
  8
PLAN_1
 62
     2
  6
CONTINUOUS
 10
0.797024
 20
-0.531835
  0
VERTEX
  8
PLAN_1
 62
     2
  6
CONTINUOUS
 10
0.794992
 20
-0.532850
  0
VERTEX
  8
PLAN_1
 62
     2
  6
CONTINUOUS
 10
0.793465
 20
-0.533358
  0
VERTEX
  8
PLAN_1
 62
     2
  6
CONTINUOUS
 10
0.790925
 20
-0.535902
  0
VERTEX
  8
PLAN_1
 62
     2
  6
CONTINUOUS
 10
0.788890
 20
-0.538953
  0
VERTEX
  8
PLAN_1
 62
     2
  6
CONTINUOUS
 10
0.787874
 20
-0.542004
  0
VERTEX
  8
PLAN_1
 62
     2
  6
CONTINUOUS
 10
0.787366
 20
-0.545563
  0
VERTEX
  8
PLAN_1
 62
     2
  6
CONTINUOUS
 10
0.786858
 20
-0.548614
  0
VERTEX
  8
PLAN_1
 62
     2
  6
CONTINUOUS
 10
0.786858
 20
-0.551661
  0
VERTEX
  8
PLAN_1
 62
     2
  6
CONTINUOUS
 10
0.787366
 20
-0.556240
  0
VERTEX
  8
PLAN_1
 62
     2
  6
CONTINUOUS
 10
0.787874
 20
-0.560307
  0
VERTEX
  8
PLAN_1
 62
     2
  6
CONTINUOUS
 10
0.788890
 20
-0.563866
  0
VERTEX
  8
PLAN_1
 62
     2
  6
CONTINUOUS
 10
0.790417
 20
-0.566917
  0
VERTEX
  8
PLAN_1
 62
     2
  6
CONTINUOUS
 10
0.792449
 20
-0.569457
  0
VERTEX
  8
PLAN_1
 62
     2
  6
CONTINUOUS
 10
0.794992
 20
-0.570984
  0
VERTEX
  8
PLAN_1
 62
     2
  6
CONTINUOUS
 10
0.798043
 20
-0.572508
  0
VERTEX
  8
PLAN_1
 62
     2
  6
CONTINUOUS
 10
0.801602
 20
-0.572508
  0
SEQEND
  8
0
  0
SOLID
  8
PLAN_1
 62
     2
 10
0.863122
 20
-0.517598
 11
0.856004
 21
-0.517598
 12
0.876343
 22
-0.502854
 13
0.865157
 23
-0.502854
  0
POLYLINE
  8
PLAN_1
 62
     2
  6
CONTINUOUS
 66
     1
 40
0.003000
 41
0.003000
  0
VERTEX
  8
PLAN_1
 62
     2
  6
CONTINUOUS
 10
0.863122
 20
-0.517598
  0
VERTEX
  8
PLAN_1
 62
     2
  6
CONTINUOUS
 10
0.856004
 20
-0.517598
  0
VERTEX
  8
PLAN_1
 62
     2
  6
CONTINUOUS
 10
0.865157
 20
-0.502854
  0
VERTEX
  8
PLAN_1
 62
     2
  6
CONTINUOUS
 10
0.876343
 20
-0.502854
  0
VERTEX
  8
PLAN_1
 62
     2
  6
CONTINUOUS
 10
0.863122
 20
-0.517598
  0
SEQEND
  8
0
  0
POLYLINE
  8
PLAN_1
 62
     2
  6
CONTINUOUS
 66
     1
 40
0.003000
 41
0.003000
  0
VERTEX
  8
PLAN_1
 62
     2
  6
CONTINUOUS
 10
0.884476
 20
-0.561831
  0
VERTEX
  8
PLAN_1
 62
     2
  6
CONTINUOUS
 10
0.884476
 20
-0.563358
  0
VERTEX
  8
PLAN_1
 62
     2
  6
CONTINUOUS
 10
0.883969
 20
-0.564882
  0
VERTEX
  8
PLAN_1
 62
     2
  6
CONTINUOUS
 10
0.883461
 20
-0.566917
  0
VERTEX
  8
PLAN_1
 62
     2
  6
CONTINUOUS
 10
0.882441
 20
-0.568949
  0
VERTEX
  8
PLAN_1
 62
     2
  6
CONTINUOUS
 10
0.880917
 20
-0.570984
  0
VERTEX
  8
PLAN_1
 62
     2
  6
CONTINUOUS
 10
0.879394
 20
-0.573016
  0
VERTEX
  8
PLAN_1
 62
     2
  6
CONTINUOUS
 10
0.877358
 20
-0.575051
  0
VERTEX
  8
PLAN_1
 62
     2
  6
CONTINUOUS
 10
0.874815
 20
-0.577087
  0
VERTEX
  8
PLAN_1
 62
     2
  6
CONTINUOUS
 10
0.873799
 20
-0.577594
  0
VERTEX
  8
PLAN_1
 62
     2
  6
CONTINUOUS
 10
0.872783
 20
-0.578102
  0
VERTEX
  8
PLAN_1
 62
     2
  6
CONTINUOUS
 10
0.871764
 20
-0.578610
  0
VERTEX
  8
PLAN_1
 62
     2
  6
CONTINUOUS
 10
0.869732
 20
-0.579626
  0
VERTEX
  8
PLAN_1
 62
     2
  6
CONTINUOUS
 10
0.868205
 20
-0.580134
  0
VERTEX
  8
PLAN_1
 62
     2
  6
CONTINUOUS
 10
0.865665
 20
-0.580134
  0
VERTEX
  8
PLAN_1
 62
     2
  6
CONTINUOUS
 10
0.863122
 20
-0.580646
  0
VERTEX
  8
PLAN_1
 62
     2
  6
CONTINUOUS
 10
0.860071
 20
-0.580646
  0
VERTEX
  8
PLAN_1
 62
     2
  6
CONTINUOUS
 10
0.857528
 20
-0.580646
  0
VERTEX
  8
PLAN_1
 62
     2
  6
CONTINUOUS
 10
0.854988
 20
-0.580134
  0
VERTEX
  8
PLAN_1
 62
     2
  6
CONTINUOUS
 10
0.852445
 20
-0.579626
  0
VERTEX
  8
PLAN_1
 62
     2
  6
CONTINUOUS
 10
0.849902
 20
-0.578610
  0
VERTEX
  8
PLAN_1
 62
     2
  6
CONTINUOUS
 10
0.847870
 20
-0.577594
  0
VERTEX
  8
PLAN_1
 62
     2
  6
CONTINUOUS
 10
0.845835
 20
-0.576067
  0
VERTEX
  8
PLAN_1
 62
     2
  6
CONTINUOUS
 10
0.843803
 20
-0.574543
  0
VERTEX
  8
PLAN_1
 62
     2
  6
CONTINUOUS
 10
0.842276
 20
-0.573016
  0
VERTEX
  8
PLAN_1
 62
     2
  6
CONTINUOUS
 10
0.839732
 20
-0.568949
  0
VERTEX
  8
PLAN_1
 62
     2
  6
CONTINUOUS
 10
0.837701
 20
-0.564374
  0
VERTEX
  8
PLAN_1
 62
     2
  6
CONTINUOUS
 10
0.836173
 20
-0.559291
  0
VERTEX
  8
PLAN_1
 62
     2
  6
CONTINUOUS
 10
0.835665
 20
-0.553189
  0
VERTEX
  8
PLAN_1
 62
     2
  6
CONTINUOUS
 10
0.836173
 20
-0.547087
  0
VERTEX
  8
PLAN_1
 62
     2
  6
CONTINUOUS
 10
0.837193
 20
-0.541496
  0
VERTEX
  8
PLAN_1
 62
     2
  6
CONTINUOUS
 10
0.838209
 20
-0.538953
  0
VERTEX
  8
PLAN_1
 62
     2
  6
CONTINUOUS
 10
0.839224
 20
-0.536409
  0
VERTEX
  8
PLAN_1
 62
     2
  6
CONTINUOUS
 10
0.840752
 20
-0.533866
  0
VERTEX
  8
PLAN_1
 62
     2
  6
CONTINUOUS
 10
0.842276
 20
-0.531835
  0
VERTEX
  8
PLAN_1
 62
     2
  6
CONTINUOUS
 10
0.843803
 20
-0.529799
  0
VERTEX
  8
PLAN_1
 62
     2
  6
CONTINUOUS
 10
0.845835
 20
-0.528276
  0
VERTEX
  8
PLAN_1
 62
     2
  6
CONTINUOUS
 10
0.847870
 20
-0.526748
  0
VERTEX
  8
PLAN_1
 62
     2
  6
CONTINUOUS
 10
0.850409
 20
-0.525224
  0
VERTEX
  8
PLAN_1
 62
     2
  6
CONTINUOUS
 10
0.852953
 20
-0.524717
  0
VERTEX
  8
PLAN_1
 62
     2
  6
CONTINUOUS
 10
0.855496
 20
-0.523701
  0
VERTEX
  8
PLAN_1
 62
     2
  6
CONTINUOUS
 10
0.858547
 20
-0.523189
  0
VERTEX
  8
PLAN_1
 62
     2
  6
CONTINUOUS
 10
0.862106
 20
-0.523189
  0
VERTEX
  8
PLAN_1
 62
     2
  6
CONTINUOUS
 10
0.864646
 20
-0.523189
  0
VERTEX
  8
PLAN_1
 62
     2
  6
CONTINUOUS
 10
0.867697
 20
-0.523701
  0
VERTEX
  8
PLAN_1
 62
     2
  6
CONTINUOUS
 10
0.870240
 20
-0.524209
  0
VERTEX
  8
PLAN_1
 62
     2
  6
CONTINUOUS
 10
0.872276
 20
-0.525224
  0
VERTEX
  8
PLAN_1
 62
     2
  6
CONTINUOUS
 10
0.874307
 20
-0.526748
  0
VERTEX
  8
PLAN_1
 62
     2
  6
CONTINUOUS
 10
0.876343
 20
-0.528276
  0
VERTEX
  8
PLAN_1
 62
     2
  6
CONTINUOUS
 10
0.877866
 20
-0.529799
  0
VERTEX
  8
PLAN_1
 62
     2
  6
CONTINUOUS
 10
0.879394
 20
-0.531835
  0
VERTEX
  8
PLAN_1
 62
     2
  6
CONTINUOUS
 10
0.881933
 20
-0.536409
  0
VERTEX
  8
PLAN_1
 62
     2
  6
CONTINUOUS
 10
0.883969
 20
-0.542004
  0
VERTEX
  8
PLAN_1
 62
     2
  6
CONTINUOUS
 10
0.884984
 20
-0.548102
  0
VERTEX
  8
PLAN_1
 62
     2
  6
CONTINUOUS
 10
0.885492
 20
-0.554713
  0
VERTEX
  8
PLAN_1
 62
     2
  6
CONTINUOUS
 10
0.845835
 20
-0.554713
  0
VERTEX
  8
PLAN_1
 62
     2
  6
CONTINUOUS
 10
0.845835
 20
-0.558780
  0
VERTEX
  8
PLAN_1
 62
     2
  6
CONTINUOUS
 10
0.846850
 20
-0.562339
  0
VERTEX
  8
PLAN_1
 62
     2
  6
CONTINUOUS
 10
0.847870
 20
-0.565390
  0
VERTEX
  8
PLAN_1
 62
     2
  6
CONTINUOUS
 10
0.849394
 20
-0.567933
  0
VERTEX
  8
PLAN_1
 62
     2
  6
CONTINUOUS
 10
0.851937
 20
-0.569969
  0
VERTEX
  8
PLAN_1
 62
     2
  6
CONTINUOUS
 10
0.854480
 20
-0.571492
  0
VERTEX
  8
PLAN_1
 62
     2
  6
CONTINUOUS
 10
0.858039
 20
-0.572508
  0
VERTEX
  8
PLAN_1
 62
     2
  6
CONTINUOUS
 10
0.861598
 20
-0.572508
  0
VERTEX
  8
PLAN_1
 62
     2
  6
CONTINUOUS
 10
0.864646
 20
-0.572508
  0
VERTEX
  8
PLAN_1
 62
     2
  6
CONTINUOUS
 10
0.867189
 20
-0.571492
  0
VERTEX
  8
PLAN_1
 62
     2
  6
CONTINUOUS
 10
0.869732
 20
-0.570476
  0
VERTEX
  8
PLAN_1
 62
     2
  6
CONTINUOUS
 10
0.871764
 20
-0.568949
  0
VERTEX
  8
PLAN_1
 62
     2
  6
CONTINUOUS
 10
0.873291
 20
-0.567425
  0
VERTEX
  8
PLAN_1
 62
     2
  6
CONTINUOUS
 10
0.874307
 20
-0.565390
  0
VERTEX
  8
PLAN_1
 62
     2
  6
CONTINUOUS
 10
0.875323
 20
-0.563866
  0
VERTEX
  8
PLAN_1
 62
     2
  6
CONTINUOUS
 10
0.875323
 20
-0.561831
  0
VERTEX
  8
PLAN_1
 62
     2
  6
CONTINUOUS
 10
0.884476
 20
-0.561831
  0
SEQEND
  8
0
  0
POLYLINE
  8
PLAN_1
 62
     2
  6
CONTINUOUS
 66
     1
 40
0.003000
 41
0.003000
  0
VERTEX
  8
PLAN_1
 62
     2
  6
CONTINUOUS
 10
0.875835
 20
-0.547594
  0
VERTEX
  8
PLAN_1
 62
     2
  6
CONTINUOUS
 10
0.875835
 20
-0.544543
  0
VERTEX
  8
PLAN_1
 62
     2
  6
CONTINUOUS
 10
0.874815
 20
-0.541496
  0
VERTEX
  8
PLAN_1
 62
     2
  6
CONTINUOUS
 10
0.873799
 20
-0.538953
  0
VERTEX
  8
PLAN_1
 62
     2
  6
CONTINUOUS
 10
0.872276
 20
-0.536409
  0
VERTEX
  8
PLAN_1
 62
     2
  6
CONTINUOUS
 10
0.870240
 20
-0.534378
  0
VERTEX
  8
PLAN_1
 62
     2
  6
CONTINUOUS
 10
0.867697
 20
-0.532850
  0
VERTEX
  8
PLAN_1
 62
     2
  6
CONTINUOUS
 10
0.864646
 20
-0.531835
  0
VERTEX
  8
PLAN_1
 62
     2
  6
CONTINUOUS
 10
0.860579
 20
-0.531327
  0
VERTEX
  8
PLAN_1
 62
     2
  6
CONTINUOUS
 10
0.857528
 20
-0.531835
  0
VERTEX
  8
PLAN_1
 62
     2
  6
CONTINUOUS
 10
0.854988
 20
-0.532850
  0
VERTEX
  8
PLAN_1
 62
     2
  6
CONTINUOUS
 10
0.852445
 20
-0.534378
  0
VERTEX
  8
PLAN_1
 62
     2
  6
CONTINUOUS
 10
0.849902
 20
-0.536409
  0
VERTEX
  8
PLAN_1
 62
     2
  6
CONTINUOUS
 10
0.848378
 20
-0.538953
  0
VERTEX
  8
PLAN_1
 62
     2
  6
CONTINUOUS
 10
0.846850
 20
-0.541496
  0
VERTEX
  8
PLAN_1
 62
     2
  6
CONTINUOUS
 10
0.845835
 20
-0.544543
  0
VERTEX
  8
PLAN_1
 62
     2
  6
CONTINUOUS
 10
0.845835
 20
-0.547594
  0
VERTEX
  8
PLAN_1
 62
     2
  6
CONTINUOUS
 10
0.875835
 20
-0.547594
  0
SEQEND
  8
0
  0
POLYLINE
  8
PLAN_1
 62
     2
  6
CONTINUOUS
 66
     1
 40
0.003000
 41
0.003000
  0
VERTEX
  8
PLAN_1
 62
     2
  6
CONTINUOUS
 10
0.924642
 20
-0.524717
  0
VERTEX
  8
PLAN_1
 62
     2
  6
CONTINUOUS
 10
0.933287
 20
-0.524717
  0
VERTEX
  8
PLAN_1
 62
     2
  6
CONTINUOUS
 10
0.933287
 20
-0.532343
  0
VERTEX
  8
PLAN_1
 62
     2
  6
CONTINUOUS
 10
0.934303
 20
-0.531327
  0
VERTEX
  8
PLAN_1
 62
     2
  6
CONTINUOUS
 10
0.935319
 20
-0.529799
  0
VERTEX
  8
PLAN_1
 62
     2
  6
CONTINUOUS
 10
0.936846
 20
-0.528276
  0
VERTEX
  8
PLAN_1
 62
     2
  6
CONTINUOUS
 10
0.938878
 20
-0.526748
  0
VERTEX
  8
PLAN_1
 62
     2
  6
CONTINUOUS
 10
0.940913
 20
-0.525224
  0
VERTEX
  8
PLAN_1
 62
     2
  6
CONTINUOUS
 10
0.943457
 20
-0.524209
  0
VERTEX
  8
PLAN_1
 62
     2
  6
CONTINUOUS
 10
0.945996
 20
-0.523189
  0
VERTEX
  8
PLAN_1
 62
     2
  6
CONTINUOUS
 10
0.949555
 20
-0.523189
  0
VERTEX
  8
PLAN_1
 62
     2
  6
CONTINUOUS
 10
0.952098
 20
-0.523189
  0
VERTEX
  8
PLAN_1
 62
     2
  6
CONTINUOUS
 10
0.954642
 20
-0.523701
  0
VERTEX
  8
PLAN_1
 62
     2
  6
CONTINUOUS
 10
0.957181
 20
-0.524209
  0
VERTEX
  8
PLAN_1
 62
     2
  6
CONTINUOUS
 10
0.959217
 20
-0.525224
  0
VERTEX
  8
PLAN_1
 62
     2
  6
CONTINUOUS
 10
0.961252
 20
-0.526240
  0
VERTEX
  8
PLAN_1
 62
     2
  6
CONTINUOUS
 10
0.963283
 20
-0.527768
  0
VERTEX
  8
PLAN_1
 62
     2
  6
CONTINUOUS
 10
0.964811
 20
-0.529291
  0
VERTEX
  8
PLAN_1
 62
     2
  6
CONTINUOUS
 10
0.966335
 20
-0.530819
  0
VERTEX
  8
PLAN_1
 62
     2
  6
CONTINUOUS
 10
0.968878
 20
-0.534886
  0
VERTEX
  8
PLAN_1
 62
     2
  6
CONTINUOUS
 10
0.970909
 20
-0.539461
  0
VERTEX
  8
PLAN_1
 62
     2
  6
CONTINUOUS
 10
0.971929
 20
-0.544543
  0
VERTEX
  8
PLAN_1
 62
     2
  6
CONTINUOUS
 10
0.972437
 20
-0.550138
  0
VERTEX
  8
PLAN_1
 62
     2
  6
CONTINUOUS
 10
0.971929
 20
-0.555220
  0
VERTEX
  8
PLAN_1
 62
     2
  6
CONTINUOUS
 10
0.971417
 20
-0.560307
  0
VERTEX
  8
PLAN_1
 62
     2
  6
CONTINUOUS
 10
0.969894
 20
-0.565390
  0
VERTEX
  8
PLAN_1
 62
     2
  6
CONTINUOUS
 10
0.967350
 20
-0.570476
  0
VERTEX
  8
PLAN_1
 62
     2
  6
CONTINUOUS
 10
0.965827
 20
-0.572508
  0
VERTEX
  8
PLAN_1
 62
     2
  6
CONTINUOUS
 10
0.964299
 20
-0.574543
  0
VERTEX
  8
PLAN_1
 62
     2
  6
CONTINUOUS
 10
0.962268
 20
-0.576067
  0
VERTEX
  8
PLAN_1
 62
     2
  6
CONTINUOUS
 10
0.960232
 20
-0.577594
  0
VERTEX
  8
PLAN_1
 62
     2
  6
CONTINUOUS
 10
0.957693
 20
-0.579118
  0
VERTEX
  8
PLAN_1
 62
     2
  6
CONTINUOUS
 10
0.954642
 20
-0.579626
  0
VERTEX
  8
PLAN_1
 62
     2
  6
CONTINUOUS
 10
0.951591
 20
-0.580646
  0
VERTEX
  8
PLAN_1
 62
     2
  6
CONTINUOUS
 10
0.948539
 20
-0.580646
  0
VERTEX
  8
PLAN_1
 62
     2
  6
CONTINUOUS
 10
0.945996
 20
-0.580646
  0
VERTEX
  8
PLAN_1
 62
     2
  6
CONTINUOUS
 10
0.943457
 20
-0.580134
  0
VERTEX
  8
PLAN_1
 62
     2
  6
CONTINUOUS
 10
0.941421
 20
-0.579118
  0
VERTEX
  8
PLAN_1
 62
     2
  6
CONTINUOUS
 10
0.939386
 20
-0.578610
  0
VERTEX
  8
PLAN_1
 62
     2
  6
CONTINUOUS
 10
0.937862
 20
-0.577594
  0
VERTEX
  8
PLAN_1
 62
     2
  6
CONTINUOUS
 10
0.936339
 20
-0.576067
  0
VERTEX
  8
PLAN_1
 62
     2
  6
CONTINUOUS
 10
0.934811
 20
-0.574543
  0
VERTEX
  8
PLAN_1
 62
     2
  6
CONTINUOUS
 10
0.933795
 20
-0.573528
  0
VERTEX
  8
PLAN_1
 62
     2
  6
CONTINUOUS
 10
0.933795
 20
-0.600472
  0
VERTEX
  8
PLAN_1
 62
     2
  6
CONTINUOUS
 10
0.924642
 20
-0.600472
  0
VERTEX
  8
PLAN_1
 62
     2
  6
CONTINUOUS
 10
0.924642
 20
-0.524717
  0
SEQEND
  8
0
  0
POLYLINE
  8
PLAN_1
 62
     2
  6
CONTINUOUS
 66
     1
 40
0.003000
 41
0.003000
  0
VERTEX
  8
PLAN_1
 62
     2
  6
CONTINUOUS
 10
0.948031
 20
-0.572508
  0
VERTEX
  8
PLAN_1
 62
     2
  6
CONTINUOUS
 10
0.951591
 20
-0.572508
  0
VERTEX
  8
PLAN_1
 62
     2
  6
CONTINUOUS
 10
0.954642
 20
-0.570984
  0
VERTEX
  8
PLAN_1
 62
     2
  6
CONTINUOUS
 10
0.957181
 20
-0.569457
  0
VERTEX
  8
PLAN_1
 62
     2
  6
CONTINUOUS
 10
0.959217
 20
-0.566917
  0
VERTEX
  8
PLAN_1
 62
     2
  6
CONTINUOUS
 10
0.960740
 20
-0.563866
  0
VERTEX
  8
PLAN_1
 62
     2
  6
CONTINUOUS
 10
0.961760
 20
-0.560307
  0
VERTEX
  8
PLAN_1
 62
     2
  6
CONTINUOUS
 10
0.962776
 20
-0.556240
  0
VERTEX
  8
PLAN_1
 62
     2
  6
CONTINUOUS
 10
0.962776
 20
-0.551661
  0
VERTEX
  8
PLAN_1
 62
     2
  6
CONTINUOUS
 10
0.962776
 20
-0.548614
  0
VERTEX
  8
PLAN_1
 62
     2
  6
CONTINUOUS
 10
0.962776
 20
-0.545563
  0
VERTEX
  8
PLAN_1
 62
     2
  6
CONTINUOUS
 10
0.961760
 20
-0.542004
  0
VERTEX
  8
PLAN_1
 62
     2
  6
CONTINUOUS
 10
0.960740
 20
-0.538953
  0
VERTEX
  8
PLAN_1
 62
     2
  6
CONTINUOUS
 10
0.958709
 20
-0.535902
  0
VERTEX
  8
PLAN_1
 62
     2
  6
CONTINUOUS
 10
0.956165
 20
-0.533358
  0
VERTEX
  8
PLAN_1
 62
     2
  6
CONTINUOUS
 10
0.954642
 20
-0.532850
  0
VERTEX
  8
PLAN_1
 62
     2
  6
CONTINUOUS
 10
0.952606
 20
-0.531835
  0
VERTEX
  8
PLAN_1
 62
     2
  6
CONTINUOUS
 10
0.950575
 20
-0.531327
  0
VERTEX
  8
PLAN_1
 62
     2
  6
CONTINUOUS
 10
0.948031
 20
-0.531327
  0
VERTEX
  8
PLAN_1
 62
     2
  6
CONTINUOUS
 10
0.945488
 20
-0.531327
  0
VERTEX
  8
PLAN_1
 62
     2
  6
CONTINUOUS
 10
0.943457
 20
-0.531835
  0
VERTEX
  8
PLAN_1
 62
     2
  6
CONTINUOUS
 10
0.941929
 20
-0.532850
  0
VERTEX
  8
PLAN_1
 62
     2
  6
CONTINUOUS
 10
0.940406
 20
-0.533866
  0
VERTEX
  8
PLAN_1
 62
     2
  6
CONTINUOUS
 10
0.937354
 20
-0.536409
  0
VERTEX
  8
PLAN_1
 62
     2
  6
CONTINUOUS
 10
0.935827
 20
-0.539461
  0
VERTEX
  8
PLAN_1
 62
     2
  6
CONTINUOUS
 10
0.934303
 20
-0.543020
  0
VERTEX
  8
PLAN_1
 62
     2
  6
CONTINUOUS
 10
0.933795
 20
-0.547087
  0
VERTEX
  8
PLAN_1
 62
     2
  6
CONTINUOUS
 10
0.933287
 20
-0.551154
  0
VERTEX
  8
PLAN_1
 62
     2
  6
CONTINUOUS
 10
0.933287
 20
-0.554205
  0
VERTEX
  8
PLAN_1
 62
     2
  6
CONTINUOUS
 10
0.933795
 20
-0.559291
  0
VERTEX
  8
PLAN_1
 62
     2
  6
CONTINUOUS
 10
0.934811
 20
-0.563358
  0
VERTEX
  8
PLAN_1
 62
     2
  6
CONTINUOUS
 10
0.936339
 20
-0.566409
  0
VERTEX
  8
PLAN_1
 62
     2
  6
CONTINUOUS
 10
0.938370
 20
-0.568949
  0
VERTEX
  8
PLAN_1
 62
     2
  6
CONTINUOUS
 10
0.940913
 20
-0.570984
  0
VERTEX
  8
PLAN_1
 62
     2
  6
CONTINUOUS
 10
0.943457
 20
-0.572000
  0
VERTEX
  8
PLAN_1
 62
     2
  6
CONTINUOUS
 10
0.945996
 20
-0.572508
  0
VERTEX
  8
PLAN_1
 62
     2
  6
CONTINUOUS
 10
0.948031
 20
-0.572508
  0
SEQEND
  8
0
  0
POLYLINE
  8
PLAN_1
 62
     2
  6
CONTINUOUS
 66
     1
 40
0.003000
 41
0.003000
  0
VERTEX
  8
PLAN_1
 62
     2
  6
CONTINUOUS
 10
1.005484
 20
-0.523189
  0
VERTEX
  8
PLAN_1
 62
     2
  6
CONTINUOUS
 10
1.008535
 20
-0.523189
  0
VERTEX
  8
PLAN_1
 62
     2
  6
CONTINUOUS
 10
1.011587
 20
-0.523701
  0
VERTEX
  8
PLAN_1
 62
     2
  6
CONTINUOUS
 10
1.014126
 20
-0.524717
  0
VERTEX
  8
PLAN_1
 62
     2
  6
CONTINUOUS
 10
1.016669
 20
-0.525732
  0
VERTEX
  8
PLAN_1
 62
     2
  6
CONTINUOUS
 10
1.019213
 20
-0.526748
  0
VERTEX
  8
PLAN_1
 62
     2
  6
CONTINUOUS
 10
1.021244
 20
-0.528276
  0
VERTEX
  8
PLAN_1
 62
     2
  6
CONTINUOUS
 10
1.022772
 20
-0.530307
  0
VERTEX
  8
PLAN_1
 62
     2
  6
CONTINUOUS
 10
1.024803
 20
-0.532343
  0
VERTEX
  8
PLAN_1
 62
     2
  6
CONTINUOUS
 10
1.027346
 20
-0.536409
  0
VERTEX
  8
PLAN_1
 62
     2
  6
CONTINUOUS
 10
1.029382
 20
-0.541496
  0
VERTEX
  8
PLAN_1
 62
     2
  6
CONTINUOUS
 10
1.030398
 20
-0.546579
  0
VERTEX
  8
PLAN_1
 62
     2
  6
CONTINUOUS
 10
1.030906
 20
-0.551661
  0
VERTEX
  8
PLAN_1
 62
     2
  6
CONTINUOUS
 10
1.030398
 20
-0.557256
  0
VERTEX
  8
PLAN_1
 62
     2
  6
CONTINUOUS
 10
1.029382
 20
-0.562339
  0
VERTEX
  8
PLAN_1
 62
     2
  6
CONTINUOUS
 10
1.027346
 20
-0.566917
  0
VERTEX
  8
PLAN_1
 62
     2
  6
CONTINUOUS
 10
1.024803
 20
-0.571492
  0
VERTEX
  8
PLAN_1
 62
     2
  6
CONTINUOUS
 10
1.022772
 20
-0.573528
  0
VERTEX
  8
PLAN_1
 62
     2
  6
CONTINUOUS
 10
1.021244
 20
-0.575051
  0
VERTEX
  8
PLAN_1
 62
     2
  6
CONTINUOUS
 10
1.019213
 20
-0.576575
  0
VERTEX
  8
PLAN_1
 62
     2
  6
CONTINUOUS
 10
1.016669
 20
-0.578102
  0
VERTEX
  8
PLAN_1
 62
     2
  6
CONTINUOUS
 10
1.014126
 20
-0.579118
  0
VERTEX
  8
PLAN_1
 62
     2
  6
CONTINUOUS
 10
1.011587
 20
-0.580134
  0
VERTEX
  8
PLAN_1
 62
     2
  6
CONTINUOUS
 10
1.008535
 20
-0.580134
  0
VERTEX
  8
PLAN_1
 62
     2
  6
CONTINUOUS
 10
1.005484
 20
-0.580646
  0
VERTEX
  8
PLAN_1
 62
     2
  6
CONTINUOUS
 10
1.002433
 20
-0.580134
  0
VERTEX
  8
PLAN_1
 62
     2
  6
CONTINUOUS
 10
0.999382
 20
-0.580134
  0
VERTEX
  8
PLAN_1
 62
     2
  6
CONTINUOUS
 10
0.996843
 20
-0.579118
  0
VERTEX
  8
PLAN_1
 62
     2
  6
CONTINUOUS
 10
0.994299
 20
-0.578102
  0
VERTEX
  8
PLAN_1
 62
     2
  6
CONTINUOUS
 10
0.991756
 20
-0.576575
  0
VERTEX
  8
PLAN_1
 62
     2
  6
CONTINUOUS
 10
0.989724
 20
-0.575051
  0
VERTEX
  8
PLAN_1
 62
     2
  6
CONTINUOUS
 10
0.987689
 20
-0.573528
  0
VERTEX
  8
PLAN_1
 62
     2
  6
CONTINUOUS
 10
0.986165
 20
-0.571492
  0
VERTEX
  8
PLAN_1
 62
     2
  6
CONTINUOUS
 10
0.983622
 20
-0.566917
  0
VERTEX
  8
PLAN_1
 62
     2
  6
CONTINUOUS
 10
0.981587
 20
-0.562339
  0
VERTEX
  8
PLAN_1
 62
     2
  6
CONTINUOUS
 10
0.980571
 20
-0.557256
  0
VERTEX
  8
PLAN_1
 62
     2
  6
CONTINUOUS
 10
0.980063
 20
-0.551661
  0
VERTEX
  8
PLAN_1
 62
     2
  6
CONTINUOUS
 10
0.980571
 20
-0.546579
  0
VERTEX
  8
PLAN_1
 62
     2
  6
CONTINUOUS
 10
0.981587
 20
-0.541496
  0
VERTEX
  8
PLAN_1
 62
     2
  6
CONTINUOUS
 10
0.983622
 20
-0.536409
  0
VERTEX
  8
PLAN_1
 62
     2
  6
CONTINUOUS
 10
0.986165
 20
-0.532343
  0
VERTEX
  8
PLAN_1
 62
     2
  6
CONTINUOUS
 10
0.987689
 20
-0.530307
  0
VERTEX
  8
PLAN_1
 62
     2
  6
CONTINUOUS
 10
0.989724
 20
-0.528276
  0
VERTEX
  8
PLAN_1
 62
     2
  6
CONTINUOUS
 10
0.991756
 20
-0.526748
  0
VERTEX
  8
PLAN_1
 62
     2
  6
CONTINUOUS
 10
0.994299
 20
-0.525732
  0
VERTEX
  8
PLAN_1
 62
     2
  6
CONTINUOUS
 10
0.996843
 20
-0.524717
  0
VERTEX
  8
PLAN_1
 62
     2
  6
CONTINUOUS
 10
0.999382
 20
-0.523701
  0
VERTEX
  8
PLAN_1
 62
     2
  6
CONTINUOUS
 10
1.002433
 20
-0.523189
  0
VERTEX
  8
PLAN_1
 62
     2
  6
CONTINUOUS
 10
1.005484
 20
-0.523189
  0
SEQEND
  8
0
  0
POLYLINE
  8
PLAN_1
 62
     2
  6
CONTINUOUS
 66
     1
 40
0.003000
 41
0.003000
  0
VERTEX
  8
PLAN_1
 62
     2
  6
CONTINUOUS
 10
1.005484
 20
-0.572508
  0
VERTEX
  8
PLAN_1
 62
     2
  6
CONTINUOUS
 10
1.007520
 20
-0.572508
  0
VERTEX
  8
PLAN_1
 62
     2
  6
CONTINUOUS
 10
1.010059
 20
-0.572000
  0
VERTEX
  8
PLAN_1
 62
     2
  6
CONTINUOUS
 10
1.011587
 20
-0.571492
  0
VERTEX
  8
PLAN_1
 62
     2
  6
CONTINUOUS
 10
1.013618
 20
-0.570476
  0
VERTEX
  8
PLAN_1
 62
     2
  6
CONTINUOUS
 10
1.016161
 20
-0.567933
  0
VERTEX
  8
PLAN_1
 62
     2
  6
CONTINUOUS
 10
1.018197
 20
-0.564882
  0
VERTEX
  8
PLAN_1
 62
     2
  6
CONTINUOUS
 10
1.019720
 20
-0.561831
  0
VERTEX
  8
PLAN_1
 62
     2
  6
CONTINUOUS
 10
1.020736
 20
-0.558272
  0
VERTEX
  8
PLAN_1
 62
     2
  6
CONTINUOUS
 10
1.021244
 20
-0.554713
  0
VERTEX
  8
PLAN_1
 62
     2
  6
CONTINUOUS
 10
1.021244
 20
-0.551661
  0
VERTEX
  8
PLAN_1
 62
     2
  6
CONTINUOUS
 10
1.021244
 20
-0.548614
  0
VERTEX
  8
PLAN_1
 62
     2
  6
CONTINUOUS
 10
1.020736
 20
-0.545563
  0
VERTEX
  8
PLAN_1
 62
     2
  6
CONTINUOUS
 10
1.019720
 20
-0.542004
  0
VERTEX
  8
PLAN_1
 62
     2
  6
CONTINUOUS
 10
1.018197
 20
-0.538445
  0
VERTEX
  8
PLAN_1
 62
     2
  6
CONTINUOUS
 10
1.016161
 20
-0.535902
  0
VERTEX
  8
PLAN_1
 62
     2
  6
CONTINUOUS
 10
1.013618
 20
-0.533358
  0
VERTEX
  8
PLAN_1
 62
     2
  6
CONTINUOUS
 10
1.011587
 20
-0.532343
  0
VERTEX
  8
PLAN_1
 62
     2
  6
CONTINUOUS
 10
1.010059
 20
-0.531835
  0
VERTEX
  8
PLAN_1
 62
     2
  6
CONTINUOUS
 10
1.007520
 20
-0.531327
  0
VERTEX
  8
PLAN_1
 62
     2
  6
CONTINUOUS
 10
1.005484
 20
-0.530819
  0
VERTEX
  8
PLAN_1
 62
     2
  6
CONTINUOUS
 10
1.002941
 20
-0.531327
  0
VERTEX
  8
PLAN_1
 62
     2
  6
CONTINUOUS
 10
1.000909
 20
-0.531835
  0
VERTEX
  8
PLAN_1
 62
     2
  6
CONTINUOUS
 10
0.998874
 20
-0.532343
  0
VERTEX
  8
PLAN_1
 62
     2
  6
CONTINUOUS
 10
0.997350
 20
-0.533358
  0
VERTEX
  8
PLAN_1
 62
     2
  6
CONTINUOUS
 10
0.994807
 20
-0.535902
  0
VERTEX
  8
PLAN_1
 62
     2
  6
CONTINUOUS
 10
0.992772
 20
-0.538445
  0
VERTEX
  8
PLAN_1
 62
     2
  6
CONTINUOUS
 10
0.991248
 20
-0.542004
  0
VERTEX
  8
PLAN_1
 62
     2
  6
CONTINUOUS
 10
0.990232
 20
-0.545563
  0
VERTEX
  8
PLAN_1
 62
     2
  6
CONTINUOUS
 10
0.989724
 20
-0.548614
  0
VERTEX
  8
PLAN_1
 62
     2
  6
CONTINUOUS
 10
0.989724
 20
-0.551661
  0
VERTEX
  8
PLAN_1
 62
     2
  6
CONTINUOUS
 10
0.989724
 20
-0.554713
  0
VERTEX
  8
PLAN_1
 62
     2
  6
CONTINUOUS
 10
0.990232
 20
-0.558272
  0
VERTEX
  8
PLAN_1
 62
     2
  6
CONTINUOUS
 10
0.991248
 20
-0.561831
  0
VERTEX
  8
PLAN_1
 62
     2
  6
CONTINUOUS
 10
0.992772
 20
-0.564882
  0
VERTEX
  8
PLAN_1
 62
     2
  6
CONTINUOUS
 10
0.994807
 20
-0.567933
  0
VERTEX
  8
PLAN_1
 62
     2
  6
CONTINUOUS
 10
0.997350
 20
-0.570476
  0
VERTEX
  8
PLAN_1
 62
     2
  6
CONTINUOUS
 10
0.998874
 20
-0.571492
  0
VERTEX
  8
PLAN_1
 62
     2
  6
CONTINUOUS
 10
1.000909
 20
-0.572000
  0
VERTEX
  8
PLAN_1
 62
     2
  6
CONTINUOUS
 10
1.002941
 20
-0.572508
  0
VERTEX
  8
PLAN_1
 62
     2
  6
CONTINUOUS
 10
1.005484
 20
-0.572508
  0
SEQEND
  8
0
  0
POLYLINE
  8
PLAN_1
 62
     2
  6
CONTINUOUS
 66
     1
 40
0.003000
 41
0.003000
  0
VERTEX
  8
PLAN_1
 62
     2
  6
CONTINUOUS
 10
1.076665
 20
-0.579118
  0
VERTEX
  8
PLAN_1
 62
     2
  6
CONTINUOUS
 10
1.076665
 20
-0.570984
  0
VERTEX
  8
PLAN_1
 62
     2
  6
CONTINUOUS
 10
1.075142
 20
-0.573016
  0
VERTEX
  8
PLAN_1
 62
     2
  6
CONTINUOUS
 10
1.073106
 20
-0.575051
  0
VERTEX
  8
PLAN_1
 62
     2
  6
CONTINUOUS
 10
1.071583
 20
-0.576575
  0
VERTEX
  8
PLAN_1
 62
     2
  6
CONTINUOUS
 10
1.069547
 20
-0.578102
  0
VERTEX
  8
PLAN_1
 62
     2
  6
CONTINUOUS
 10
1.067516
 20
-0.579118
  0
VERTEX
  8
PLAN_1
 62
     2
  6
CONTINUOUS
 10
1.064972
 20
-0.580134
  0
VERTEX
  8
PLAN_1
 62
     2
  6
CONTINUOUS
 10
1.062429
 20
-0.580646
  0
VERTEX
  8
PLAN_1
 62
     2
  6
CONTINUOUS
 10
1.059378
 20
-0.580646
  0
VERTEX
  8
PLAN_1
 62
     2
  6
CONTINUOUS
 10
1.056327
 20
-0.580646
  0
VERTEX
  8
PLAN_1
 62
     2
  6
CONTINUOUS
 10
1.052768
 20
-0.579626
  0
VERTEX
  8
PLAN_1
 62
     2
  6
CONTINUOUS
 10
1.050228
 20
-0.578610
  0
VERTEX
  8
PLAN_1
 62
     2
  6
CONTINUOUS
 10
1.047177
 20
-0.577087
  0
VERTEX
  8
PLAN_1
 62
     2
  6
CONTINUOUS
 10
1.045142
 20
-0.575051
  0
VERTEX
  8
PLAN_1
 62
     2
  6
CONTINUOUS
 10
1.043110
 20
-0.572000
  0
VERTEX
  8
PLAN_1
 62
     2
  6
CONTINUOUS
 10
1.042091
 20
-0.568441
  0
VERTEX
  8
PLAN_1
 62
     2
  6
CONTINUOUS
 10
1.041583
 20
-0.563866
  0
VERTEX
  8
PLAN_1
 62
     2
  6
CONTINUOUS
 10
1.041583
 20
-0.524717
  0
VERTEX
  8
PLAN_1
 62
     2
  6
CONTINUOUS
 10
1.050736
 20
-0.524717
  0
VERTEX
  8
PLAN_1
 62
     2
  6
CONTINUOUS
 10
1.050736
 20
-0.560815
  0
VERTEX
  8
PLAN_1
 62
     2
  6
CONTINUOUS
 10
1.050736
 20
-0.563866
  0
VERTEX
  8
PLAN_1
 62
     2
  6
CONTINUOUS
 10
1.051244
 20
-0.566409
  0
VERTEX
  8
PLAN_1
 62
     2
  6
CONTINUOUS
 10
1.052260
 20
-0.568441
  0
VERTEX
  8
PLAN_1
 62
     2
  6
CONTINUOUS
 10
1.053787
 20
-0.569969
  0
VERTEX
  8
PLAN_1
 62
     2
  6
CONTINUOUS
 10
1.055311
 20
-0.571492
  0
VERTEX
  8
PLAN_1
 62
     2
  6
CONTINUOUS
 10
1.056839
 20
-0.572000
  0
VERTEX
  8
PLAN_1
 62
     2
  6
CONTINUOUS
 10
1.058870
 20
-0.572508
  0
VERTEX
  8
PLAN_1
 62
     2
  6
CONTINUOUS
 10
1.060906
 20
-0.572508
  0
VERTEX
  8
PLAN_1
 62
     2
  6
CONTINUOUS
 10
1.064972
 20
-0.572508
  0
VERTEX
  8
PLAN_1
 62
     2
  6
CONTINUOUS
 10
1.068531
 20
-0.570984
  0
VERTEX
  8
PLAN_1
 62
     2
  6
CONTINUOUS
 10
1.071075
 20
-0.568949
  0
VERTEX
  8
PLAN_1
 62
     2
  6
CONTINUOUS
 10
1.073106
 20
-0.566409
  0
VERTEX
  8
PLAN_1
 62
     2
  6
CONTINUOUS
 10
1.074634
 20
-0.563866
  0
VERTEX
  8
PLAN_1
 62
     2
  6
CONTINUOUS
 10
1.075142
 20
-0.560815
  0
VERTEX
  8
PLAN_1
 62
     2
  6
CONTINUOUS
 10
1.076157
 20
-0.557764
  0
VERTEX
  8
PLAN_1
 62
     2
  6
CONTINUOUS
 10
1.076157
 20
-0.554713
  0
VERTEX
  8
PLAN_1
 62
     2
  6
CONTINUOUS
 10
1.076157
 20
-0.524717
  0
VERTEX
  8
PLAN_1
 62
     2
  6
CONTINUOUS
 10
1.085311
 20
-0.524717
  0
VERTEX
  8
PLAN_1
 62
     2
  6
CONTINUOUS
 10
1.085311
 20
-0.579118
  0
VERTEX
  8
PLAN_1
 62
     2
  6
CONTINUOUS
 10
1.076665
 20
-0.579118
  0
SEQEND
  8
0
  0
POLYLINE
  8
PLAN_1
 62
     2
  6
CONTINUOUS
 66
     1
 40
0.003000
 41
0.003000
  0
VERTEX
  8
PLAN_1
 62
     2
  6
CONTINUOUS
 10
1.109205
 20
-0.579118
  0
VERTEX
  8
PLAN_1
 62
     2
  6
CONTINUOUS
 10
1.100055
 20
-0.579118
  0
VERTEX
  8
PLAN_1
 62
     2
  6
CONTINUOUS
 10
1.100055
 20
-0.524717
  0
VERTEX
  8
PLAN_1
 62
     2
  6
CONTINUOUS
 10
1.108697
 20
-0.524717
  0
VERTEX
  8
PLAN_1
 62
     2
  6
CONTINUOUS
 10
1.108697
 20
-0.533866
  0
VERTEX
  8
PLAN_1
 62
     2
  6
CONTINUOUS
 10
1.109205
 20
-0.533866
  0
VERTEX
  8
PLAN_1
 62
     2
  6
CONTINUOUS
 10
1.110732
 20
-0.531327
  0
VERTEX
  8
PLAN_1
 62
     2
  6
CONTINUOUS
 10
1.112256
 20
-0.529291
  0
VERTEX
  8
PLAN_1
 62
     2
  6
CONTINUOUS
 10
1.113783
 20
-0.527768
  0
VERTEX
  8
PLAN_1
 62
     2
  6
CONTINUOUS
 10
1.115815
 20
-0.526240
  0
VERTEX
  8
PLAN_1
 62
     2
  6
CONTINUOUS
 10
1.117343
 20
-0.524717
  0
VERTEX
  8
PLAN_1
 62
     2
  6
CONTINUOUS
 10
1.119882
 20
-0.523701
  0
VERTEX
  8
PLAN_1
 62
     2
  6
CONTINUOUS
 10
1.121917
 20
-0.523189
  0
VERTEX
  8
PLAN_1
 62
     2
  6
CONTINUOUS
 10
1.124461
 20
-0.523189
  0
VERTEX
  8
PLAN_1
 62
     2
  6
CONTINUOUS
 10
1.124969
 20
-0.523189
  0
VERTEX
  8
PLAN_1
 62
     2
  6
CONTINUOUS
 10
1.125476
 20
-0.523189
  0
VERTEX
  8
PLAN_1
 62
     2
  6
CONTINUOUS
 10
1.125984
 20
-0.523189
  0
VERTEX
  8
PLAN_1
 62
     2
  6
CONTINUOUS
 10
1.126492
 20
-0.523189
  0
VERTEX
  8
PLAN_1
 62
     2
  6
CONTINUOUS
 10
1.127000
 20
-0.523189
  0
VERTEX
  8
PLAN_1
 62
     2
  6
CONTINUOUS
 10
1.127000
 20
-0.532850
  0
VERTEX
  8
PLAN_1
 62
     2
  6
CONTINUOUS
 10
1.123441
 20
-0.532850
  0
VERTEX
  8
PLAN_1
 62
     2
  6
CONTINUOUS
 10
1.120390
 20
-0.533358
  0
VERTEX
  8
PLAN_1
 62
     2
  6
CONTINUOUS
 10
1.117850
 20
-0.533866
  0
VERTEX
  8
PLAN_1
 62
     2
  6
CONTINUOUS
 10
1.115307
 20
-0.535394
  0
VERTEX
  8
PLAN_1
 62
     2
  6
CONTINUOUS
 10
1.113272
 20
-0.537425
  0
VERTEX
  8
PLAN_1
 62
     2
  6
CONTINUOUS
 10
1.111748
 20
-0.539461
  0
VERTEX
  8
PLAN_1
 62
     2
  6
CONTINUOUS
 10
1.110224
 20
-0.542004
  0
VERTEX
  8
PLAN_1
 62
     2
  6
CONTINUOUS
 10
1.109713
 20
-0.544543
  0
VERTEX
  8
PLAN_1
 62
     2
  6
CONTINUOUS
 10
1.109205
 20
-0.547594
  0
VERTEX
  8
PLAN_1
 62
     2
  6
CONTINUOUS
 10
1.109205
 20
-0.579118
  0
SEQEND
  8
0
  0
POLYLINE
  8
PLAN_1
 62
     2
  6
CONTINUOUS
 66
     1
 40
0.003000
 41
0.003000
  0
VERTEX
  8
PLAN_1
 62
     2
  6
CONTINUOUS
 10
0.248421
 20
-0.649791
  0
VERTEX
  8
PLAN_1
 62
     2
  6
CONTINUOUS
 10
0.257063
 20
-0.649791
  0
VERTEX
  8
PLAN_1
 62
     2
  6
CONTINUOUS
 10
0.257063
 20
-0.657417
  0
VERTEX
  8
PLAN_1
 62
     2
  6
CONTINUOUS
 10
0.258083
 20
-0.655894
  0
VERTEX
  8
PLAN_1
 62
     2
  6
CONTINUOUS
 10
0.259098
 20
-0.654366
  0
VERTEX
  8
PLAN_1
 62
     2
  6
CONTINUOUS
 10
0.260622
 20
-0.652843
  0
VERTEX
  8
PLAN_1
 62
     2
  6
CONTINUOUS
 10
0.262657
 20
-0.651319
  0
VERTEX
  8
PLAN_1
 62
     2
  6
CONTINUOUS
 10
0.264693
 20
-0.650299
  0
VERTEX
  8
PLAN_1
 62
     2
  6
CONTINUOUS
 10
0.267232
 20
-0.649283
  0
VERTEX
  8
PLAN_1
 62
     2
  6
CONTINUOUS
 10
0.269776
 20
-0.648268
  0
VERTEX
  8
PLAN_1
 62
     2
  6
CONTINUOUS
 10
0.273335
 20
-0.648268
  0
VERTEX
  8
PLAN_1
 62
     2
  6
CONTINUOUS
 10
0.275878
 20
-0.648268
  0
VERTEX
  8
PLAN_1
 62
     2
  6
CONTINUOUS
 10
0.278417
 20
-0.648776
  0
VERTEX
  8
PLAN_1
 62
     2
  6
CONTINUOUS
 10
0.280961
 20
-0.649283
  0
VERTEX
  8
PLAN_1
 62
     2
  6
CONTINUOUS
 10
0.282996
 20
-0.650299
  0
VERTEX
  8
PLAN_1
 62
     2
  6
CONTINUOUS
 10
0.285028
 20
-0.651319
  0
VERTEX
  8
PLAN_1
 62
     2
  6
CONTINUOUS
 10
0.287063
 20
-0.652843
  0
VERTEX
  8
PLAN_1
 62
     2
  6
CONTINUOUS
 10
0.288587
 20
-0.654366
  0
VERTEX
  8
PLAN_1
 62
     2
  6
CONTINUOUS
 10
0.290114
 20
-0.655894
  0
VERTEX
  8
PLAN_1
 62
     2
  6
CONTINUOUS
 10
0.292654
 20
-0.659961
  0
VERTEX
  8
PLAN_1
 62
     2
  6
CONTINUOUS
 10
0.294689
 20
-0.664535
  0
VERTEX
  8
PLAN_1
 62
     2
  6
CONTINUOUS
 10
0.295705
 20
-0.669622
  0
VERTEX
  8
PLAN_1
 62
     2
  6
CONTINUOUS
 10
0.296213
 20
-0.675213
  0
VERTEX
  8
PLAN_1
 62
     2
  6
CONTINUOUS
 10
0.295705
 20
-0.680299
  0
VERTEX
  8
PLAN_1
 62
     2
  6
CONTINUOUS
 10
0.295197
 20
-0.685382
  0
VERTEX
  8
PLAN_1
 62
     2
  6
CONTINUOUS
 10
0.293673
 20
-0.690469
  0
VERTEX
  8
PLAN_1
 62
     2
  6
CONTINUOUS
 10
0.291130
 20
-0.695551
  0
VERTEX
  8
PLAN_1
 62
     2
  6
CONTINUOUS
 10
0.289606
 20
-0.697587
  0
VERTEX
  8
PLAN_1
 62
     2
  6
CONTINUOUS
 10
0.288079
 20
-0.699618
  0
VERTEX
  8
PLAN_1
 62
     2
  6
CONTINUOUS
 10
0.286047
 20
-0.701146
  0
VERTEX
  8
PLAN_1
 62
     2
  6
CONTINUOUS
 10
0.284012
 20
-0.702669
  0
VERTEX
  8
PLAN_1
 62
     2
  6
CONTINUOUS
 10
0.281469
 20
-0.704193
  0
VERTEX
  8
PLAN_1
 62
     2
  6
CONTINUOUS
 10
0.278417
 20
-0.704705
  0
VERTEX
  8
PLAN_1
 62
     2
  6
CONTINUOUS
 10
0.275370
 20
-0.705213
  0
VERTEX
  8
PLAN_1
 62
     2
  6
CONTINUOUS
 10
0.272319
 20
-0.705720
  0
VERTEX
  8
PLAN_1
 62
     2
  6
CONTINUOUS
 10
0.269776
 20
-0.705720
  0
VERTEX
  8
PLAN_1
 62
     2
  6
CONTINUOUS
 10
0.267232
 20
-0.705213
  0
VERTEX
  8
PLAN_1
 62
     2
  6
CONTINUOUS
 10
0.265201
 20
-0.704193
  0
VERTEX
  8
PLAN_1
 62
     2
  6
CONTINUOUS
 10
0.263165
 20
-0.703685
  0
VERTEX
  8
PLAN_1
 62
     2
  6
CONTINUOUS
 10
0.261642
 20
-0.702161
  0
VERTEX
  8
PLAN_1
 62
     2
  6
CONTINUOUS
 10
0.260114
 20
-0.701146
  0
VERTEX
  8
PLAN_1
 62
     2
  6
CONTINUOUS
 10
0.258591
 20
-0.699618
  0
VERTEX
  8
PLAN_1
 62
     2
  6
CONTINUOUS
 10
0.257575
 20
-0.698602
  0
VERTEX
  8
PLAN_1
 62
     2
  6
CONTINUOUS
 10
0.257575
 20
-0.725547
  0
VERTEX
  8
PLAN_1
 62
     2
  6
CONTINUOUS
 10
0.248421
 20
-0.725547
  0
VERTEX
  8
PLAN_1
 62
     2
  6
CONTINUOUS
 10
0.248421
 20
-0.649791
  0
SEQEND
  8
0
  0
POLYLINE
  8
PLAN_1
 62
     2
  6
CONTINUOUS
 66
     1
 40
0.003000
 41
0.003000
  0
VERTEX
  8
PLAN_1
 62
     2
  6
CONTINUOUS
 10
0.271811
 20
-0.697587
  0
VERTEX
  8
PLAN_1
 62
     2
  6
CONTINUOUS
 10
0.275370
 20
-0.697075
  0
VERTEX
  8
PLAN_1
 62
     2
  6
CONTINUOUS
 10
0.278417
 20
-0.696059
  0
VERTEX
  8
PLAN_1
 62
     2
  6
CONTINUOUS
 10
0.280961
 20
-0.694028
  0
VERTEX
  8
PLAN_1
 62
     2
  6
CONTINUOUS
 10
0.282996
 20
-0.691484
  0
VERTEX
  8
PLAN_1
 62
     2
  6
CONTINUOUS
 10
0.284520
 20
-0.688433
  0
VERTEX
  8
PLAN_1
 62
     2
  6
CONTINUOUS
 10
0.286047
 20
-0.684874
  0
VERTEX
  8
PLAN_1
 62
     2
  6
CONTINUOUS
 10
0.286555
 20
-0.680807
  0
VERTEX
  8
PLAN_1
 62
     2
  6
CONTINUOUS
 10
0.286555
 20
-0.676740
  0
VERTEX
  8
PLAN_1
 62
     2
  6
CONTINUOUS
 10
0.286555
 20
-0.673689
  0
VERTEX
  8
PLAN_1
 62
     2
  6
CONTINUOUS
 10
0.286555
 20
-0.670638
  0
VERTEX
  8
PLAN_1
 62
     2
  6
CONTINUOUS
 10
0.285535
 20
-0.667079
  0
VERTEX
  8
PLAN_1
 62
     2
  6
CONTINUOUS
 10
0.284520
 20
-0.664028
  0
VERTEX
  8
PLAN_1
 62
     2
  6
CONTINUOUS
 10
0.282488
 20
-0.660976
  0
VERTEX
  8
PLAN_1
 62
     2
  6
CONTINUOUS
 10
0.279945
 20
-0.658437
  0
VERTEX
  8
PLAN_1
 62
     2
  6
CONTINUOUS
 10
0.278417
 20
-0.657417
  0
VERTEX
  8
PLAN_1
 62
     2
  6
CONTINUOUS
 10
0.276386
 20
-0.656909
  0
VERTEX
  8
PLAN_1
 62
     2
  6
CONTINUOUS
 10
0.274350
 20
-0.656402
  0
VERTEX
  8
PLAN_1
 62
     2
  6
CONTINUOUS
 10
0.271811
 20
-0.656402
  0
VERTEX
  8
PLAN_1
 62
     2
  6
CONTINUOUS
 10
0.269268
 20
-0.656402
  0
VERTEX
  8
PLAN_1
 62
     2
  6
CONTINUOUS
 10
0.267232
 20
-0.656909
  0
VERTEX
  8
PLAN_1
 62
     2
  6
CONTINUOUS
 10
0.265709
 20
-0.657925
  0
VERTEX
  8
PLAN_1
 62
     2
  6
CONTINUOUS
 10
0.264181
 20
-0.658437
  0
VERTEX
  8
PLAN_1
 62
     2
  6
CONTINUOUS
 10
0.261134
 20
-0.661484
  0
VERTEX
  8
PLAN_1
 62
     2
  6
CONTINUOUS
 10
0.259606
 20
-0.664535
  0
VERTEX
  8
PLAN_1
 62
     2
  6
CONTINUOUS
 10
0.258083
 20
-0.668094
  0
VERTEX
  8
PLAN_1
 62
     2
  6
CONTINUOUS
 10
0.257575
 20
-0.672161
  0
VERTEX
  8
PLAN_1
 62
     2
  6
CONTINUOUS
 10
0.257063
 20
-0.675720
  0
VERTEX
  8
PLAN_1
 62
     2
  6
CONTINUOUS
 10
0.257063
 20
-0.679280
  0
VERTEX
  8
PLAN_1
 62
     2
  6
CONTINUOUS
 10
0.257575
 20
-0.684366
  0
VERTEX
  8
PLAN_1
 62
     2
  6
CONTINUOUS
 10
0.258591
 20
-0.688433
  0
VERTEX
  8
PLAN_1
 62
     2
  6
CONTINUOUS
 10
0.260114
 20
-0.691484
  0
VERTEX
  8
PLAN_1
 62
     2
  6
CONTINUOUS
 10
0.262150
 20
-0.694028
  0
VERTEX
  8
PLAN_1
 62
     2
  6
CONTINUOUS
 10
0.264693
 20
-0.695551
  0
VERTEX
  8
PLAN_1
 62
     2
  6
CONTINUOUS
 10
0.267232
 20
-0.697075
  0
VERTEX
  8
PLAN_1
 62
     2
  6
CONTINUOUS
 10
0.269776
 20
-0.697587
  0
VERTEX
  8
PLAN_1
 62
     2
  6
CONTINUOUS
 10
0.271811
 20
-0.697587
  0
SEQEND
  8
0
  0
POLYLINE
  8
PLAN_1
 62
     2
  6
CONTINUOUS
 66
     1
 40
0.003000
 41
0.003000
  0
VERTEX
  8
PLAN_1
 62
     2
  6
CONTINUOUS
 10
0.317567
 20
-0.704193
  0
VERTEX
  8
PLAN_1
 62
     2
  6
CONTINUOUS
 10
0.308417
 20
-0.704193
  0
VERTEX
  8
PLAN_1
 62
     2
  6
CONTINUOUS
 10
0.308417
 20
-0.649791
  0
VERTEX
  8
PLAN_1
 62
     2
  6
CONTINUOUS
 10
0.317059
 20
-0.649791
  0
VERTEX
  8
PLAN_1
 62
     2
  6
CONTINUOUS
 10
0.317059
 20
-0.658945
  0
VERTEX
  8
PLAN_1
 62
     2
  6
CONTINUOUS
 10
0.318587
 20
-0.656402
  0
VERTEX
  8
PLAN_1
 62
     2
  6
CONTINUOUS
 10
0.320110
 20
-0.654366
  0
VERTEX
  8
PLAN_1
 62
     2
  6
CONTINUOUS
 10
0.321638
 20
-0.652335
  0
VERTEX
  8
PLAN_1
 62
     2
  6
CONTINUOUS
 10
0.323669
 20
-0.650807
  0
VERTEX
  8
PLAN_1
 62
     2
  6
CONTINUOUS
 10
0.325705
 20
-0.649791
  0
VERTEX
  8
PLAN_1
 62
     2
  6
CONTINUOUS
 10
0.327736
 20
-0.648776
  0
VERTEX
  8
PLAN_1
 62
     2
  6
CONTINUOUS
 10
0.329772
 20
-0.648268
  0
VERTEX
  8
PLAN_1
 62
     2
  6
CONTINUOUS
 10
0.332315
 20
-0.648268
  0
VERTEX
  8
PLAN_1
 62
     2
  6
CONTINUOUS
 10
0.332823
 20
-0.648268
  0
VERTEX
  8
PLAN_1
 62
     2
  6
CONTINUOUS
 10
0.333331
 20
-0.648268
  0
VERTEX
  8
PLAN_1
 62
     2
  6
CONTINUOUS
 10
0.333839
 20
-0.648268
  0
VERTEX
  8
PLAN_1
 62
     2
  6
CONTINUOUS
 10
0.334346
 20
-0.648268
  0
VERTEX
  8
PLAN_1
 62
     2
  6
CONTINUOUS
 10
0.334854
 20
-0.648268
  0
VERTEX
  8
PLAN_1
 62
     2
  6
CONTINUOUS
 10
0.334854
 20
-0.657925
  0
VERTEX
  8
PLAN_1
 62
     2
  6
CONTINUOUS
 10
0.331295
 20
-0.657925
  0
VERTEX
  8
PLAN_1
 62
     2
  6
CONTINUOUS
 10
0.328244
 20
-0.657925
  0
VERTEX
  8
PLAN_1
 62
     2
  6
CONTINUOUS
 10
0.325705
 20
-0.658945
  0
VERTEX
  8
PLAN_1
 62
     2
  6
CONTINUOUS
 10
0.323161
 20
-0.660469
  0
VERTEX
  8
PLAN_1
 62
     2
  6
CONTINUOUS
 10
0.321126
 20
-0.661996
  0
VERTEX
  8
PLAN_1
 62
     2
  6
CONTINUOUS
 10
0.319602
 20
-0.664535
  0
VERTEX
  8
PLAN_1
 62
     2
  6
CONTINUOUS
 10
0.318587
 20
-0.667079
  0
VERTEX
  8
PLAN_1
 62
     2
  6
CONTINUOUS
 10
0.317567
 20
-0.669622
  0
VERTEX
  8
PLAN_1
 62
     2
  6
CONTINUOUS
 10
0.317567
 20
-0.672673
  0
VERTEX
  8
PLAN_1
 62
     2
  6
CONTINUOUS
 10
0.317567
 20
-0.704193
  0
SEQEND
  8
0
  0
POLYLINE
  8
PLAN_1
 62
     2
  6
CONTINUOUS
 66
     1
 40
0.003000
 41
0.003000
  0
VERTEX
  8
PLAN_1
 62
     2
  6
CONTINUOUS
 10
0.387732
 20
-0.686909
  0
VERTEX
  8
PLAN_1
 62
     2
  6
CONTINUOUS
 10
0.387732
 20
-0.688433
  0
VERTEX
  8
PLAN_1
 62
     2
  6
CONTINUOUS
 10
0.387224
 20
-0.689957
  0
VERTEX
  8
PLAN_1
 62
     2
  6
CONTINUOUS
 10
0.386717
 20
-0.691484
  0
VERTEX
  8
PLAN_1
 62
     2
  6
CONTINUOUS
 10
0.385701
 20
-0.693516
  0
VERTEX
  8
PLAN_1
 62
     2
  6
CONTINUOUS
 10
0.384173
 20
-0.696059
  0
VERTEX
  8
PLAN_1
 62
     2
  6
CONTINUOUS
 10
0.382650
 20
-0.698094
  0
VERTEX
  8
PLAN_1
 62
     2
  6
CONTINUOUS
 10
0.380614
 20
-0.700126
  0
VERTEX
  8
PLAN_1
 62
     2
  6
CONTINUOUS
 10
0.378071
 20
-0.701654
  0
VERTEX
  8
PLAN_1
 62
     2
  6
CONTINUOUS
 10
0.377055
 20
-0.702669
  0
VERTEX
  8
PLAN_1
 62
     2
  6
CONTINUOUS
 10
0.376039
 20
-0.703177
  0
VERTEX
  8
PLAN_1
 62
     2
  6
CONTINUOUS
 10
0.374512
 20
-0.703685
  0
VERTEX
  8
PLAN_1
 62
     2
  6
CONTINUOUS
 10
0.372988
 20
-0.704193
  0
VERTEX
  8
PLAN_1
 62
     2
  6
CONTINUOUS
 10
0.371465
 20
-0.704705
  0
VERTEX
  8
PLAN_1
 62
     2
  6
CONTINUOUS
 10
0.368921
 20
-0.705213
  0
VERTEX
  8
PLAN_1
 62
     2
  6
CONTINUOUS
 10
0.366378
 20
-0.705720
  0
VERTEX
  8
PLAN_1
 62
     2
  6
CONTINUOUS
 10
0.363327
 20
-0.705720
  0
VERTEX
  8
PLAN_1
 62
     2
  6
CONTINUOUS
 10
0.360787
 20
-0.705720
  0
VERTEX
  8
PLAN_1
 62
     2
  6
CONTINUOUS
 10
0.358244
 20
-0.705213
  0
VERTEX
  8
PLAN_1
 62
     2
  6
CONTINUOUS
 10
0.355701
 20
-0.704705
  0
VERTEX
  8
PLAN_1
 62
     2
  6
CONTINUOUS
 10
0.353157
 20
-0.703685
  0
VERTEX
  8
PLAN_1
 62
     2
  6
CONTINUOUS
 10
0.351126
 20
-0.702669
  0
VERTEX
  8
PLAN_1
 62
     2
  6
CONTINUOUS
 10
0.349091
 20
-0.701146
  0
VERTEX
  8
PLAN_1
 62
     2
  6
CONTINUOUS
 10
0.347059
 20
-0.699618
  0
VERTEX
  8
PLAN_1
 62
     2
  6
CONTINUOUS
 10
0.345531
 20
-0.698094
  0
VERTEX
  8
PLAN_1
 62
     2
  6
CONTINUOUS
 10
0.342992
 20
-0.694028
  0
VERTEX
  8
PLAN_1
 62
     2
  6
CONTINUOUS
 10
0.340957
 20
-0.689449
  0
VERTEX
  8
PLAN_1
 62
     2
  6
CONTINUOUS
 10
0.339433
 20
-0.683858
  0
VERTEX
  8
PLAN_1
 62
     2
  6
CONTINUOUS
 10
0.338921
 20
-0.678264
  0
VERTEX
  8
PLAN_1
 62
     2
  6
CONTINUOUS
 10
0.339433
 20
-0.672161
  0
VERTEX
  8
PLAN_1
 62
     2
  6
CONTINUOUS
 10
0.340449
 20
-0.666571
  0
VERTEX
  8
PLAN_1
 62
     2
  6
CONTINUOUS
 10
0.341465
 20
-0.664028
  0
VERTEX
  8
PLAN_1
 62
     2
  6
CONTINUOUS
 10
0.342480
 20
-0.661484
  0
VERTEX
  8
PLAN_1
 62
     2
  6
CONTINUOUS
 10
0.344008
 20
-0.658945
  0
VERTEX
  8
PLAN_1
 62
     2
  6
CONTINUOUS
 10
0.345531
 20
-0.656909
  0
VERTEX
  8
PLAN_1
 62
     2
  6
CONTINUOUS
 10
0.347059
 20
-0.654878
  0
VERTEX
  8
PLAN_1
 62
     2
  6
CONTINUOUS
 10
0.349091
 20
-0.653350
  0
VERTEX
  8
PLAN_1
 62
     2
  6
CONTINUOUS
 10
0.351126
 20
-0.651827
  0
VERTEX
  8
PLAN_1
 62
     2
  6
CONTINUOUS
 10
0.353669
 20
-0.650299
  0
VERTEX
  8
PLAN_1
 62
     2
  6
CONTINUOUS
 10
0.356209
 20
-0.649283
  0
VERTEX
  8
PLAN_1
 62
     2
  6
CONTINUOUS
 10
0.358752
 20
-0.648776
  0
VERTEX
  8
PLAN_1
 62
     2
  6
CONTINUOUS
 10
0.361803
 20
-0.648268
  0
VERTEX
  8
PLAN_1
 62
     2
  6
CONTINUOUS
 10
0.365362
 20
-0.648268
  0
VERTEX
  8
PLAN_1
 62
     2
  6
CONTINUOUS
 10
0.367906
 20
-0.648268
  0
VERTEX
  8
PLAN_1
 62
     2
  6
CONTINUOUS
 10
0.370953
 20
-0.648776
  0
VERTEX
  8
PLAN_1
 62
     2
  6
CONTINUOUS
 10
0.372988
 20
-0.649283
  0
VERTEX
  8
PLAN_1
 62
     2
  6
CONTINUOUS
 10
0.375531
 20
-0.650299
  0
VERTEX
  8
PLAN_1
 62
     2
  6
CONTINUOUS
 10
0.377563
 20
-0.651827
  0
VERTEX
  8
PLAN_1
 62
     2
  6
CONTINUOUS
 10
0.379598
 20
-0.652843
  0
VERTEX
  8
PLAN_1
 62
     2
  6
CONTINUOUS
 10
0.381122
 20
-0.654878
  0
VERTEX
  8
PLAN_1
 62
     2
  6
CONTINUOUS
 10
0.382650
 20
-0.656909
  0
VERTEX
  8
PLAN_1
 62
     2
  6
CONTINUOUS
 10
0.385189
 20
-0.661484
  0
VERTEX
  8
PLAN_1
 62
     2
  6
CONTINUOUS
 10
0.387224
 20
-0.666571
  0
VERTEX
  8
PLAN_1
 62
     2
  6
CONTINUOUS
 10
0.388240
 20
-0.673181
  0
VERTEX
  8
PLAN_1
 62
     2
  6
CONTINUOUS
 10
0.388748
 20
-0.679791
  0
VERTEX
  8
PLAN_1
 62
     2
  6
CONTINUOUS
 10
0.349091
 20
-0.679791
  0
VERTEX
  8
PLAN_1
 62
     2
  6
CONTINUOUS
 10
0.349091
 20
-0.683858
  0
VERTEX
  8
PLAN_1
 62
     2
  6
CONTINUOUS
 10
0.350110
 20
-0.687417
  0
VERTEX
  8
PLAN_1
 62
     2
  6
CONTINUOUS
 10
0.351126
 20
-0.690469
  0
VERTEX
  8
PLAN_1
 62
     2
  6
CONTINUOUS
 10
0.352650
 20
-0.693008
  0
VERTEX
  8
PLAN_1
 62
     2
  6
CONTINUOUS
 10
0.355193
 20
-0.695043
  0
VERTEX
  8
PLAN_1
 62
     2
  6
CONTINUOUS
 10
0.357736
 20
-0.696567
  0
VERTEX
  8
PLAN_1
 62
     2
  6
CONTINUOUS
 10
0.360787
 20
-0.697587
  0
VERTEX
  8
PLAN_1
 62
     2
  6
CONTINUOUS
 10
0.364854
 20
-0.697587
  0
VERTEX
  8
PLAN_1
 62
     2
  6
CONTINUOUS
 10
0.367906
 20
-0.697587
  0
VERTEX
  8
PLAN_1
 62
     2
  6
CONTINUOUS
 10
0.370445
 20
-0.696567
  0
VERTEX
  8
PLAN_1
 62
     2
  6
CONTINUOUS
 10
0.372988
 20
-0.695551
  0
VERTEX
  8
PLAN_1
 62
     2
  6
CONTINUOUS
 10
0.375024
 20
-0.694028
  0
VERTEX
  8
PLAN_1
 62
     2
  6
CONTINUOUS
 10
0.376547
 20
-0.691992
  0
VERTEX
  8
PLAN_1
 62
     2
  6
CONTINUOUS
 10
0.377563
 20
-0.690469
  0
VERTEX
  8
PLAN_1
 62
     2
  6
CONTINUOUS
 10
0.378583
 20
-0.688433
  0
VERTEX
  8
PLAN_1
 62
     2
  6
CONTINUOUS
 10
0.378583
 20
-0.686909
  0
VERTEX
  8
PLAN_1
 62
     2
  6
CONTINUOUS
 10
0.387732
 20
-0.686909
  0
SEQEND
  8
0
  0
POLYLINE
  8
PLAN_1
 62
     2
  6
CONTINUOUS
 66
     1
 40
0.003000
 41
0.003000
  0
VERTEX
  8
PLAN_1
 62
     2
  6
CONTINUOUS
 10
0.379091
 20
-0.672673
  0
VERTEX
  8
PLAN_1
 62
     2
  6
CONTINUOUS
 10
0.378583
 20
-0.669622
  0
VERTEX
  8
PLAN_1
 62
     2
  6
CONTINUOUS
 10
0.378071
 20
-0.666571
  0
VERTEX
  8
PLAN_1
 62
     2
  6
CONTINUOUS
 10
0.377055
 20
-0.663520
  0
VERTEX
  8
PLAN_1
 62
     2
  6
CONTINUOUS
 10
0.375531
 20
-0.661484
  0
VERTEX
  8
PLAN_1
 62
     2
  6
CONTINUOUS
 10
0.373496
 20
-0.659453
  0
VERTEX
  8
PLAN_1
 62
     2
  6
CONTINUOUS
 10
0.370953
 20
-0.657417
  0
VERTEX
  8
PLAN_1
 62
     2
  6
CONTINUOUS
 10
0.367906
 20
-0.656909
  0
VERTEX
  8
PLAN_1
 62
     2
  6
CONTINUOUS
 10
0.363835
 20
-0.656402
  0
VERTEX
  8
PLAN_1
 62
     2
  6
CONTINUOUS
 10
0.360787
 20
-0.656909
  0
VERTEX
  8
PLAN_1
 62
     2
  6
CONTINUOUS
 10
0.358244
 20
-0.657417
  0
VERTEX
  8
PLAN_1
 62
     2
  6
CONTINUOUS
 10
0.355701
 20
-0.659453
  0
VERTEX
  8
PLAN_1
 62
     2
  6
CONTINUOUS
 10
0.353157
 20
-0.661484
  0
VERTEX
  8
PLAN_1
 62
     2
  6
CONTINUOUS
 10
0.351634
 20
-0.663520
  0
VERTEX
  8
PLAN_1
 62
     2
  6
CONTINUOUS
 10
0.350110
 20
-0.666571
  0
VERTEX
  8
PLAN_1
 62
     2
  6
CONTINUOUS
 10
0.349091
 20
-0.669622
  0
VERTEX
  8
PLAN_1
 62
     2
  6
CONTINUOUS
 10
0.349091
 20
-0.672673
  0
VERTEX
  8
PLAN_1
 62
     2
  6
CONTINUOUS
 10
0.379091
 20
-0.672673
  0
SEQEND
  8
0
  0
POLYLINE
  8
PLAN_1
 62
     2
  6
CONTINUOUS
 66
     1
 40
0.003000
 41
0.003000
  0
VERTEX
  8
PLAN_1
 62
     2
  6
CONTINUOUS
 10
0.430441
 20
-0.665043
  0
VERTEX
  8
PLAN_1
 62
     2
  6
CONTINUOUS
 10
0.430441
 20
-0.664028
  0
VERTEX
  8
PLAN_1
 62
     2
  6
CONTINUOUS
 10
0.429933
 20
-0.662504
  0
VERTEX
  8
PLAN_1
 62
     2
  6
CONTINUOUS
 10
0.429425
 20
-0.660976
  0
VERTEX
  8
PLAN_1
 62
     2
  6
CONTINUOUS
 10
0.428409
 20
-0.659453
  0
VERTEX
  8
PLAN_1
 62
     2
  6
CONTINUOUS
 10
0.426882
 20
-0.657925
  0
VERTEX
  8
PLAN_1
 62
     2
  6
CONTINUOUS
 10
0.424339
 20
-0.656909
  0
VERTEX
  8
PLAN_1
 62
     2
  6
CONTINUOUS
 10
0.421291
 20
-0.656402
  0
VERTEX
  8
PLAN_1
 62
     2
  6
CONTINUOUS
 10
0.417732
 20
-0.655894
  0
VERTEX
  8
PLAN_1
 62
     2
  6
CONTINUOUS
 10
0.416205
 20
-0.655894
  0
VERTEX
  8
PLAN_1
 62
     2
  6
CONTINUOUS
 10
0.414681
 20
-0.656402
  0
VERTEX
  8
PLAN_1
 62
     2
  6
CONTINUOUS
 10
0.413154
 20
-0.656909
  0
VERTEX
  8
PLAN_1
 62
     2
  6
CONTINUOUS
 10
0.411122
 20
-0.657417
  0
VERTEX
  8
PLAN_1
 62
     2
  6
CONTINUOUS
 10
0.409594
 20
-0.658437
  0
VERTEX
  8
PLAN_1
 62
     2
  6
CONTINUOUS
 10
0.408071
 20
-0.659453
  0
VERTEX
  8
PLAN_1
 62
     2
  6
CONTINUOUS
 10
0.407055
 20
-0.661484
  0
VERTEX
  8
PLAN_1
 62
     2
  6
CONTINUOUS
 10
0.406543
 20
-0.663520
  0
VERTEX
  8
PLAN_1
 62
     2
  6
CONTINUOUS
 10
0.407055
 20
-0.665043
  0
VERTEX
  8
PLAN_1
 62
     2
  6
CONTINUOUS
 10
0.407563
 20
-0.666571
  0
VERTEX
  8
PLAN_1
 62
     2
  6
CONTINUOUS
 10
0.408071
 20
-0.667587
  0
VERTEX
  8
PLAN_1
 62
     2
  6
CONTINUOUS
 10
0.409087
 20
-0.668602
  0
VERTEX
  8
PLAN_1
 62
     2
  6
CONTINUOUS
 10
0.410614
 20
-0.669114
  0
VERTEX
  8
PLAN_1
 62
     2
  6
CONTINUOUS
 10
0.412138
 20
-0.669622
  0
VERTEX
  8
PLAN_1
 62
     2
  6
CONTINUOUS
 10
0.414173
 20
-0.670130
  0
VERTEX
  8
PLAN_1
 62
     2
  6
CONTINUOUS
 10
0.416713
 20
-0.671146
  0
VERTEX
  8
PLAN_1
 62
     2
  6
CONTINUOUS
 10
0.425866
 20
-0.673181
  0
VERTEX
  8
PLAN_1
 62
     2
  6
CONTINUOUS
 10
0.429933
 20
-0.674197
  0
VERTEX
  8
PLAN_1
 62
     2
  6
CONTINUOUS
 10
0.432984
 20
-0.675720
  0
VERTEX
  8
PLAN_1
 62
     2
  6
CONTINUOUS
 10
0.435528
 20
-0.677248
  0
VERTEX
  8
PLAN_1
 62
     2
  6
CONTINUOUS
 10
0.437559
 20
-0.678772
  0
VERTEX
  8
PLAN_1
 62
     2
  6
CONTINUOUS
 10
0.439087
 20
-0.680807
  0
VERTEX
  8
PLAN_1
 62
     2
  6
CONTINUOUS
 10
0.440102
 20
-0.682839
  0
VERTEX
  8
PLAN_1
 62
     2
  6
CONTINUOUS
 10
0.441118
 20
-0.684874
  0
VERTEX
  8
PLAN_1
 62
     2
  6
CONTINUOUS
 10
0.441118
 20
-0.687417
  0
VERTEX
  8
PLAN_1
 62
     2
  6
CONTINUOUS
 10
0.440610
 20
-0.691484
  0
VERTEX
  8
PLAN_1
 62
     2
  6
CONTINUOUS
 10
0.439594
 20
-0.695043
  0
VERTEX
  8
PLAN_1
 62
     2
  6
CONTINUOUS
 10
0.437559
 20
-0.698094
  0
VERTEX
  8
PLAN_1
 62
     2
  6
CONTINUOUS
 10
0.435016
 20
-0.700634
  0
VERTEX
  8
PLAN_1
 62
     2
  6
CONTINUOUS
 10
0.431969
 20
-0.702669
  0
VERTEX
  8
PLAN_1
 62
     2
  6
CONTINUOUS
 10
0.427898
 20
-0.704193
  0
VERTEX
  8
PLAN_1
 62
     2
  6
CONTINUOUS
 10
0.423831
 20
-0.705213
  0
VERTEX
  8
PLAN_1
 62
     2
  6
CONTINUOUS
 10
0.419764
 20
-0.705720
  0
VERTEX
  8
PLAN_1
 62
     2
  6
CONTINUOUS
 10
0.415697
 20
-0.705720
  0
VERTEX
  8
PLAN_1
 62
     2
  6
CONTINUOUS
 10
0.412646
 20
-0.705213
  0
VERTEX
  8
PLAN_1
 62
     2
  6
CONTINUOUS
 10
0.409594
 20
-0.704193
  0
VERTEX
  8
PLAN_1
 62
     2
  6
CONTINUOUS
 10
0.407055
 20
-0.703685
  0
VERTEX
  8
PLAN_1
 62
     2
  6
CONTINUOUS
 10
0.404512
 20
-0.702669
  0
VERTEX
  8
PLAN_1
 62
     2
  6
CONTINUOUS
 10
0.402984
 20
-0.701146
  0
VERTEX
  8
PLAN_1
 62
     2
  6
CONTINUOUS
 10
0.400953
 20
-0.700126
  0
VERTEX
  8
PLAN_1
 62
     2
  6
CONTINUOUS
 10
0.399937
 20
-0.698602
  0
VERTEX
  8
PLAN_1
 62
     2
  6
CONTINUOUS
 10
0.397902
 20
-0.695551
  0
VERTEX
  8
PLAN_1
 62
     2
  6
CONTINUOUS
 10
0.396886
 20
-0.692500
  0
VERTEX
  8
PLAN_1
 62
     2
  6
CONTINUOUS
 10
0.396378
 20
-0.689449
  0
VERTEX
  8
PLAN_1
 62
     2
  6
CONTINUOUS
 10
0.396378
 20
-0.686398
  0
VERTEX
  8
PLAN_1
 62
     2
  6
CONTINUOUS
 10
0.405020
 20
-0.686398
  0
VERTEX
  8
PLAN_1
 62
     2
  6
CONTINUOUS
 10
0.405020
 20
-0.688433
  0
VERTEX
  8
PLAN_1
 62
     2
  6
CONTINUOUS
 10
0.405528
 20
-0.689957
  0
VERTEX
  8
PLAN_1
 62
     2
  6
CONTINUOUS
 10
0.406543
 20
-0.691992
  0
VERTEX
  8
PLAN_1
 62
     2
  6
CONTINUOUS
 10
0.407563
 20
-0.693516
  0
VERTEX
  8
PLAN_1
 62
     2
  6
CONTINUOUS
 10
0.409087
 20
-0.695551
  0
VERTEX
  8
PLAN_1
 62
     2
  6
CONTINUOUS
 10
0.411630
 20
-0.696567
  0
VERTEX
  8
PLAN_1
 62
     2
  6
CONTINUOUS
 10
0.415189
 20
-0.697587
  0
VERTEX
  8
PLAN_1
 62
     2
  6
CONTINUOUS
 10
0.419256
 20
-0.697587
  0
VERTEX
  8
PLAN_1
 62
     2
  6
CONTINUOUS
 10
0.421799
 20
-0.697587
  0
VERTEX
  8
PLAN_1
 62
     2
  6
CONTINUOUS
 10
0.424339
 20
-0.697075
  0
VERTEX
  8
PLAN_1
 62
     2
  6
CONTINUOUS
 10
0.426374
 20
-0.696567
  0
VERTEX
  8
PLAN_1
 62
     2
  6
CONTINUOUS
 10
0.428409
 20
-0.695551
  0
VERTEX
  8
PLAN_1
 62
     2
  6
CONTINUOUS
 10
0.429933
 20
-0.694535
  0
VERTEX
  8
PLAN_1
 62
     2
  6
CONTINUOUS
 10
0.430949
 20
-0.693008
  0
VERTEX
  8
PLAN_1
 62
     2
  6
CONTINUOUS
 10
0.431457
 20
-0.690976
  0
VERTEX
  8
PLAN_1
 62
     2
  6
CONTINUOUS
 10
0.431969
 20
-0.688941
  0
VERTEX
  8
PLAN_1
 62
     2
  6
CONTINUOUS
 10
0.431969
 20
-0.687417
  0
VERTEX
  8
PLAN_1
 62
     2
  6
CONTINUOUS
 10
0.431457
 20
-0.686398
  0
VERTEX
  8
PLAN_1
 62
     2
  6
CONTINUOUS
 10
0.430441
 20
-0.685382
  0
VERTEX
  8
PLAN_1
 62
     2
  6
CONTINUOUS
 10
0.429425
 20
-0.684366
  0
VERTEX
  8
PLAN_1
 62
     2
  6
CONTINUOUS
 10
0.427898
 20
-0.683350
  0
VERTEX
  8
PLAN_1
 62
     2
  6
CONTINUOUS
 10
0.425866
 20
-0.682839
  0
VERTEX
  8
PLAN_1
 62
     2
  6
CONTINUOUS
 10
0.423831
 20
-0.681823
  0
VERTEX
  8
PLAN_1
 62
     2
  6
CONTINUOUS
 10
0.421291
 20
-0.681315
  0
VERTEX
  8
PLAN_1
 62
     2
  6
CONTINUOUS
 10
0.410614
 20
-0.678772
  0
VERTEX
  8
PLAN_1
 62
     2
  6
CONTINUOUS
 10
0.407563
 20
-0.677756
  0
VERTEX
  8
PLAN_1
 62
     2
  6
CONTINUOUS
 10
0.405528
 20
-0.676740
  0
VERTEX
  8
PLAN_1
 62
     2
  6
CONTINUOUS
 10
0.402984
 20
-0.675720
  0
VERTEX
  8
PLAN_1
 62
     2
  6
CONTINUOUS
 10
0.401461
 20
-0.674197
  0
VERTEX
  8
PLAN_1
 62
     2
  6
CONTINUOUS
 10
0.399937
 20
-0.672673
  0
VERTEX
  8
PLAN_1
 62
     2
  6
CONTINUOUS
 10
0.398917
 20
-0.670638
  0
VERTEX
  8
PLAN_1
 62
     2
  6
CONTINUOUS
 10
0.398409
 20
-0.668094
  0
VERTEX
  8
PLAN_1
 62
     2
  6
CONTINUOUS
 10
0.397902
 20
-0.665555
  0
VERTEX
  8
PLAN_1
 62
     2
  6
CONTINUOUS
 10
0.398409
 20
-0.661484
  0
VERTEX
  8
PLAN_1
 62
     2
  6
CONTINUOUS
 10
0.399425
 20
-0.657925
  0
VERTEX
  8
PLAN_1
 62
     2
  6
CONTINUOUS
 10
0.401461
 20
-0.654878
  0
VERTEX
  8
PLAN_1
 62
     2
  6
CONTINUOUS
 10
0.404004
 20
-0.652335
  0
VERTEX
  8
PLAN_1
 62
     2
  6
CONTINUOUS
 10
0.407055
 20
-0.650299
  0
VERTEX
  8
PLAN_1
 62
     2
  6
CONTINUOUS
 10
0.410614
 20
-0.649283
  0
VERTEX
  8
PLAN_1
 62
     2
  6
CONTINUOUS
 10
0.414681
 20
-0.648268
  0
VERTEX
  8
PLAN_1
 62
     2
  6
CONTINUOUS
 10
0.418748
 20
-0.648268
  0
VERTEX
  8
PLAN_1
 62
     2
  6
CONTINUOUS
 10
0.421799
 20
-0.648268
  0
VERTEX
  8
PLAN_1
 62
     2
  6
CONTINUOUS
 10
0.424850
 20
-0.648776
  0
VERTEX
  8
PLAN_1
 62
     2
  6
CONTINUOUS
 10
0.427898
 20
-0.649283
  0
VERTEX
  8
PLAN_1
 62
     2
  6
CONTINUOUS
 10
0.429933
 20
-0.650299
  0
VERTEX
  8
PLAN_1
 62
     2
  6
CONTINUOUS
 10
0.431969
 20
-0.651319
  0
VERTEX
  8
PLAN_1
 62
     2
  6
CONTINUOUS
 10
0.433492
 20
-0.652843
  0
VERTEX
  8
PLAN_1
 62
     2
  6
CONTINUOUS
 10
0.435016
 20
-0.654366
  0
VERTEX
  8
PLAN_1
 62
     2
  6
CONTINUOUS
 10
0.436035
 20
-0.655386
  0
VERTEX
  8
PLAN_1
 62
     2
  6
CONTINUOUS
 10
0.438067
 20
-0.658437
  0
VERTEX
  8
PLAN_1
 62
     2
  6
CONTINUOUS
 10
0.438575
 20
-0.661484
  0
VERTEX
  8
PLAN_1
 62
     2
  6
CONTINUOUS
 10
0.439087
 20
-0.663520
  0
VERTEX
  8
PLAN_1
 62
     2
  6
CONTINUOUS
 10
0.439594
 20
-0.665043
  0
VERTEX
  8
PLAN_1
 62
     2
  6
CONTINUOUS
 10
0.430441
 20
-0.665043
  0
SEQEND
  8
0
  0
POLYLINE
  8
PLAN_1
 62
     2
  6
CONTINUOUS
 66
     1
 40
0.003000
 41
0.003000
  0
VERTEX
  8
PLAN_1
 62
     2
  6
CONTINUOUS
 10
0.482811
 20
-0.665043
  0
VERTEX
  8
PLAN_1
 62
     2
  6
CONTINUOUS
 10
0.482303
 20
-0.664028
  0
VERTEX
  8
PLAN_1
 62
     2
  6
CONTINUOUS
 10
0.482303
 20
-0.662504
  0
VERTEX
  8
PLAN_1
 62
     2
  6
CONTINUOUS
 10
0.481283
 20
-0.660976
  0
VERTEX
  8
PLAN_1
 62
     2
  6
CONTINUOUS
 10
0.480268
 20
-0.659453
  0
VERTEX
  8
PLAN_1
 62
     2
  6
CONTINUOUS
 10
0.478744
 20
-0.657925
  0
VERTEX
  8
PLAN_1
 62
     2
  6
CONTINUOUS
 10
0.476709
 20
-0.656909
  0
VERTEX
  8
PLAN_1
 62
     2
  6
CONTINUOUS
 10
0.473657
 20
-0.656402
  0
VERTEX
  8
PLAN_1
 62
     2
  6
CONTINUOUS
 10
0.469591
 20
-0.655894
  0
VERTEX
  8
PLAN_1
 62
     2
  6
CONTINUOUS
 10
0.468575
 20
-0.655894
  0
VERTEX
  8
PLAN_1
 62
     2
  6
CONTINUOUS
 10
0.466539
 20
-0.656402
  0
VERTEX
  8
PLAN_1
 62
     2
  6
CONTINUOUS
 10
0.465016
 20
-0.656909
  0
VERTEX
  8
PLAN_1
 62
     2
  6
CONTINUOUS
 10
0.462980
 20
-0.657417
  0
VERTEX
  8
PLAN_1
 62
     2
  6
CONTINUOUS
 10
0.461457
 20
-0.658437
  0
VERTEX
  8
PLAN_1
 62
     2
  6
CONTINUOUS
 10
0.459929
 20
-0.659453
  0
VERTEX
  8
PLAN_1
 62
     2
  6
CONTINUOUS
 10
0.459421
 20
-0.661484
  0
VERTEX
  8
PLAN_1
 62
     2
  6
CONTINUOUS
 10
0.458913
 20
-0.663520
  0
VERTEX
  8
PLAN_1
 62
     2
  6
CONTINUOUS
 10
0.458913
 20
-0.665043
  0
VERTEX
  8
PLAN_1
 62
     2
  6
CONTINUOUS
 10
0.459421
 20
-0.666571
  0
VERTEX
  8
PLAN_1
 62
     2
  6
CONTINUOUS
 10
0.459929
 20
-0.667587
  0
VERTEX
  8
PLAN_1
 62
     2
  6
CONTINUOUS
 10
0.460949
 20
-0.668602
  0
VERTEX
  8
PLAN_1
 62
     2
  6
CONTINUOUS
 10
0.462472
 20
-0.669114
  0
VERTEX
  8
PLAN_1
 62
     2
  6
CONTINUOUS
 10
0.464000
 20
-0.669622
  0
VERTEX
  8
PLAN_1
 62
     2
  6
CONTINUOUS
 10
0.466031
 20
-0.670130
  0
VERTEX
  8
PLAN_1
 62
     2
  6
CONTINUOUS
 10
0.468575
 20
-0.671146
  0
VERTEX
  8
PLAN_1
 62
     2
  6
CONTINUOUS
 10
0.477724
 20
-0.673181
  0
VERTEX
  8
PLAN_1
 62
     2
  6
CONTINUOUS
 10
0.481795
 20
-0.674197
  0
VERTEX
  8
PLAN_1
 62
     2
  6
CONTINUOUS
 10
0.484843
 20
-0.675720
  0
VERTEX
  8
PLAN_1
 62
     2
  6
CONTINUOUS
 10
0.487894
 20
-0.677248
  0
VERTEX
  8
PLAN_1
 62
     2
  6
CONTINUOUS
 10
0.489929
 20
-0.678772
  0
VERTEX
  8
PLAN_1
 62
     2
  6
CONTINUOUS
 10
0.491453
 20
-0.680807
  0
VERTEX
  8
PLAN_1
 62
     2
  6
CONTINUOUS
 10
0.492472
 20
-0.682839
  0
VERTEX
  8
PLAN_1
 62
     2
  6
CONTINUOUS
 10
0.492980
 20
-0.684874
  0
VERTEX
  8
PLAN_1
 62
     2
  6
CONTINUOUS
 10
0.492980
 20
-0.687417
  0
VERTEX
  8
PLAN_1
 62
     2
  6
CONTINUOUS
 10
0.492980
 20
-0.691484
  0
VERTEX
  8
PLAN_1
 62
     2
  6
CONTINUOUS
 10
0.491453
 20
-0.695043
  0
VERTEX
  8
PLAN_1
 62
     2
  6
CONTINUOUS
 10
0.489421
 20
-0.698094
  0
VERTEX
  8
PLAN_1
 62
     2
  6
CONTINUOUS
 10
0.486878
 20
-0.700634
  0
VERTEX
  8
PLAN_1
 62
     2
  6
CONTINUOUS
 10
0.483827
 20
-0.702669
  0
VERTEX
  8
PLAN_1
 62
     2
  6
CONTINUOUS
 10
0.480268
 20
-0.704193
  0
VERTEX
  8
PLAN_1
 62
     2
  6
CONTINUOUS
 10
0.476201
 20
-0.705213
  0
VERTEX
  8
PLAN_1
 62
     2
  6
CONTINUOUS
 10
0.471626
 20
-0.705720
  0
VERTEX
  8
PLAN_1
 62
     2
  6
CONTINUOUS
 10
0.468067
 20
-0.705720
  0
VERTEX
  8
PLAN_1
 62
     2
  6
CONTINUOUS
 10
0.464508
 20
-0.705213
  0
VERTEX
  8
PLAN_1
 62
     2
  6
CONTINUOUS
 10
0.461457
 20
-0.704193
  0
VERTEX
  8
PLAN_1
 62
     2
  6
CONTINUOUS
 10
0.458913
 20
-0.703685
  0
VERTEX
  8
PLAN_1
 62
     2
  6
CONTINUOUS
 10
0.456882
 20
-0.702669
  0
VERTEX
  8
PLAN_1
 62
     2
  6
CONTINUOUS
 10
0.454846
 20
-0.701146
  0
VERTEX
  8
PLAN_1
 62
     2
  6
CONTINUOUS
 10
0.453323
 20
-0.700126
  0
VERTEX
  8
PLAN_1
 62
     2
  6
CONTINUOUS
 10
0.451795
 20
-0.698602
  0
VERTEX
  8
PLAN_1
 62
     2
  6
CONTINUOUS
 10
0.450272
 20
-0.695551
  0
VERTEX
  8
PLAN_1
 62
     2
  6
CONTINUOUS
 10
0.449252
 20
-0.692500
  0
VERTEX
  8
PLAN_1
 62
     2
  6
CONTINUOUS
 10
0.448236
 20
-0.689449
  0
VERTEX
  8
PLAN_1
 62
     2
  6
CONTINUOUS
 10
0.448236
 20
-0.686398
  0
VERTEX
  8
PLAN_1
 62
     2
  6
CONTINUOUS
 10
0.456882
 20
-0.686398
  0
VERTEX
  8
PLAN_1
 62
     2
  6
CONTINUOUS
 10
0.457390
 20
-0.688433
  0
VERTEX
  8
PLAN_1
 62
     2
  6
CONTINUOUS
 10
0.457898
 20
-0.689957
  0
VERTEX
  8
PLAN_1
 62
     2
  6
CONTINUOUS
 10
0.458406
 20
-0.691992
  0
VERTEX
  8
PLAN_1
 62
     2
  6
CONTINUOUS
 10
0.459421
 20
-0.693516
  0
VERTEX
  8
PLAN_1
 62
     2
  6
CONTINUOUS
 10
0.461457
 20
-0.695551
  0
VERTEX
  8
PLAN_1
 62
     2
  6
CONTINUOUS
 10
0.464000
 20
-0.696567
  0
VERTEX
  8
PLAN_1
 62
     2
  6
CONTINUOUS
 10
0.467047
 20
-0.697587
  0
VERTEX
  8
PLAN_1
 62
     2
  6
CONTINUOUS
 10
0.471626
 20
-0.697587
  0
VERTEX
  8
PLAN_1
 62
     2
  6
CONTINUOUS
 10
0.474165
 20
-0.697587
  0
VERTEX
  8
PLAN_1
 62
     2
  6
CONTINUOUS
 10
0.476201
 20
-0.697075
  0
VERTEX
  8
PLAN_1
 62
     2
  6
CONTINUOUS
 10
0.478236
 20
-0.696567
  0
VERTEX
  8
PLAN_1
 62
     2
  6
CONTINUOUS
 10
0.480268
 20
-0.695551
  0
VERTEX
  8
PLAN_1
 62
     2
  6
CONTINUOUS
 10
0.481795
 20
-0.694535
  0
VERTEX
  8
PLAN_1
 62
     2
  6
CONTINUOUS
 10
0.482811
 20
-0.693008
  0
VERTEX
  8
PLAN_1
 62
     2
  6
CONTINUOUS
 10
0.483827
 20
-0.690976
  0
VERTEX
  8
PLAN_1
 62
     2
  6
CONTINUOUS
 10
0.483827
 20
-0.688941
  0
VERTEX
  8
PLAN_1
 62
     2
  6
CONTINUOUS
 10
0.483827
 20
-0.687417
  0
VERTEX
  8
PLAN_1
 62
     2
  6
CONTINUOUS
 10
0.483319
 20
-0.686398
  0
VERTEX
  8
PLAN_1
 62
     2
  6
CONTINUOUS
 10
0.482811
 20
-0.685382
  0
VERTEX
  8
PLAN_1
 62
     2
  6
CONTINUOUS
 10
0.481795
 20
-0.684366
  0
VERTEX
  8
PLAN_1
 62
     2
  6
CONTINUOUS
 10
0.480268
 20
-0.683350
  0
VERTEX
  8
PLAN_1
 62
     2
  6
CONTINUOUS
 10
0.478236
 20
-0.682839
  0
VERTEX
  8
PLAN_1
 62
     2
  6
CONTINUOUS
 10
0.475693
 20
-0.681823
  0
VERTEX
  8
PLAN_1
 62
     2
  6
CONTINUOUS
 10
0.473150
 20
-0.681315
  0
VERTEX
  8
PLAN_1
 62
     2
  6
CONTINUOUS
 10
0.462472
 20
-0.678772
  0
VERTEX
  8
PLAN_1
 62
     2
  6
CONTINUOUS
 10
0.459929
 20
-0.677756
  0
VERTEX
  8
PLAN_1
 62
     2
  6
CONTINUOUS
 10
0.457390
 20
-0.676740
  0
VERTEX
  8
PLAN_1
 62
     2
  6
CONTINUOUS
 10
0.455354
 20
-0.675720
  0
VERTEX
  8
PLAN_1
 62
     2
  6
CONTINUOUS
 10
0.453323
 20
-0.674197
  0
VERTEX
  8
PLAN_1
 62
     2
  6
CONTINUOUS
 10
0.451795
 20
-0.672673
  0
VERTEX
  8
PLAN_1
 62
     2
  6
CONTINUOUS
 10
0.450780
 20
-0.670638
  0
VERTEX
  8
PLAN_1
 62
     2
  6
CONTINUOUS
 10
0.450272
 20
-0.668094
  0
VERTEX
  8
PLAN_1
 62
     2
  6
CONTINUOUS
 10
0.449764
 20
-0.665555
  0
VERTEX
  8
PLAN_1
 62
     2
  6
CONTINUOUS
 10
0.450272
 20
-0.661484
  0
VERTEX
  8
PLAN_1
 62
     2
  6
CONTINUOUS
 10
0.451795
 20
-0.657925
  0
VERTEX
  8
PLAN_1
 62
     2
  6
CONTINUOUS
 10
0.453831
 20
-0.654878
  0
VERTEX
  8
PLAN_1
 62
     2
  6
CONTINUOUS
 10
0.456370
 20
-0.652335
  0
VERTEX
  8
PLAN_1
 62
     2
  6
CONTINUOUS
 10
0.459421
 20
-0.650299
  0
VERTEX
  8
PLAN_1
 62
     2
  6
CONTINUOUS
 10
0.462980
 20
-0.649283
  0
VERTEX
  8
PLAN_1
 62
     2
  6
CONTINUOUS
 10
0.466539
 20
-0.648268
  0
VERTEX
  8
PLAN_1
 62
     2
  6
CONTINUOUS
 10
0.470606
 20
-0.648268
  0
VERTEX
  8
PLAN_1
 62
     2
  6
CONTINUOUS
 10
0.474165
 20
-0.648268
  0
VERTEX
  8
PLAN_1
 62
     2
  6
CONTINUOUS
 10
0.477217
 20
-0.648776
  0
VERTEX
  8
PLAN_1
 62
     2
  6
CONTINUOUS
 10
0.479760
 20
-0.649283
  0
VERTEX
  8
PLAN_1
 62
     2
  6
CONTINUOUS
 10
0.482303
 20
-0.650299
  0
VERTEX
  8
PLAN_1
 62
     2
  6
CONTINUOUS
 10
0.483827
 20
-0.651319
  0
VERTEX
  8
PLAN_1
 62
     2
  6
CONTINUOUS
 10
0.485862
 20
-0.652843
  0
VERTEX
  8
PLAN_1
 62
     2
  6
CONTINUOUS
 10
0.487386
 20
-0.654366
  0
VERTEX
  8
PLAN_1
 62
     2
  6
CONTINUOUS
 10
0.488402
 20
-0.655386
  0
VERTEX
  8
PLAN_1
 62
     2
  6
CONTINUOUS
 10
0.489929
 20
-0.658437
  0
VERTEX
  8
PLAN_1
 62
     2
  6
CONTINUOUS
 10
0.490945
 20
-0.661484
  0
VERTEX
  8
PLAN_1
 62
     2
  6
CONTINUOUS
 10
0.491453
 20
-0.663520
  0
VERTEX
  8
PLAN_1
 62
     2
  6
CONTINUOUS
 10
0.491453
 20
-0.665043
  0
VERTEX
  8
PLAN_1
 62
     2
  6
CONTINUOUS
 10
0.482811
 20
-0.665043
  0
SEQEND
  8
0
  0
POLYLINE
  8
PLAN_1
 62
     2
  6
CONTINUOUS
 66
     1
 40
0.003000
 41
0.003000
  0
VERTEX
  8
PLAN_1
 62
     2
  6
CONTINUOUS
 10
0.549925
 20
-0.686909
  0
VERTEX
  8
PLAN_1
 62
     2
  6
CONTINUOUS
 10
0.549925
 20
-0.688433
  0
VERTEX
  8
PLAN_1
 62
     2
  6
CONTINUOUS
 10
0.549417
 20
-0.689957
  0
VERTEX
  8
PLAN_1
 62
     2
  6
CONTINUOUS
 10
0.548398
 20
-0.691484
  0
VERTEX
  8
PLAN_1
 62
     2
  6
CONTINUOUS
 10
0.547382
 20
-0.693516
  0
VERTEX
  8
PLAN_1
 62
     2
  6
CONTINUOUS
 10
0.546366
 20
-0.696059
  0
VERTEX
  8
PLAN_1
 62
     2
  6
CONTINUOUS
 10
0.544839
 20
-0.698094
  0
VERTEX
  8
PLAN_1
 62
     2
  6
CONTINUOUS
 10
0.542807
 20
-0.700126
  0
VERTEX
  8
PLAN_1
 62
     2
  6
CONTINUOUS
 10
0.540264
 20
-0.701654
  0
VERTEX
  8
PLAN_1
 62
     2
  6
CONTINUOUS
 10
0.539248
 20
-0.702669
  0
VERTEX
  8
PLAN_1
 62
     2
  6
CONTINUOUS
 10
0.538232
 20
-0.703177
  0
VERTEX
  8
PLAN_1
 62
     2
  6
CONTINUOUS
 10
0.536705
 20
-0.703685
  0
VERTEX
  8
PLAN_1
 62
     2
  6
CONTINUOUS
 10
0.535181
 20
-0.704193
  0
VERTEX
  8
PLAN_1
 62
     2
  6
CONTINUOUS
 10
0.533146
 20
-0.704705
  0
VERTEX
  8
PLAN_1
 62
     2
  6
CONTINUOUS
 10
0.531114
 20
-0.705213
  0
VERTEX
  8
PLAN_1
 62
     2
  6
CONTINUOUS
 10
0.528571
 20
-0.705720
  0
VERTEX
  8
PLAN_1
 62
     2
  6
CONTINUOUS
 10
0.525520
 20
-0.705720
  0
VERTEX
  8
PLAN_1
 62
     2
  6
CONTINUOUS
 10
0.522469
 20
-0.705720
  0
VERTEX
  8
PLAN_1
 62
     2
  6
CONTINUOUS
 10
0.519925
 20
-0.705213
  0
VERTEX
  8
PLAN_1
 62
     2
  6
CONTINUOUS
 10
0.517386
 20
-0.704705
  0
VERTEX
  8
PLAN_1
 62
     2
  6
CONTINUOUS
 10
0.515350
 20
-0.703685
  0
VERTEX
  8
PLAN_1
 62
     2
  6
CONTINUOUS
 10
0.513319
 20
-0.702669
  0
VERTEX
  8
PLAN_1
 62
     2
  6
CONTINUOUS
 10
0.511283
 20
-0.701146
  0
VERTEX
  8
PLAN_1
 62
     2
  6
CONTINUOUS
 10
0.509248
 20
-0.699618
  0
VERTEX
  8
PLAN_1
 62
     2
  6
CONTINUOUS
 10
0.507724
 20
-0.698094
  0
VERTEX
  8
PLAN_1
 62
     2
  6
CONTINUOUS
 10
0.504673
 20
-0.694028
  0
VERTEX
  8
PLAN_1
 62
     2
  6
CONTINUOUS
 10
0.502638
 20
-0.689449
  0
VERTEX
  8
PLAN_1
 62
     2
  6
CONTINUOUS
 10
0.501622
 20
-0.683858
  0
VERTEX
  8
PLAN_1
 62
     2
  6
CONTINUOUS
 10
0.501114
 20
-0.678264
  0
VERTEX
  8
PLAN_1
 62
     2
  6
CONTINUOUS
 10
0.501622
 20
-0.672161
  0
VERTEX
  8
PLAN_1
 62
     2
  6
CONTINUOUS
 10
0.502638
 20
-0.666571
  0
VERTEX
  8
PLAN_1
 62
     2
  6
CONTINUOUS
 10
0.503657
 20
-0.664028
  0
VERTEX
  8
PLAN_1
 62
     2
  6
CONTINUOUS
 10
0.504673
 20
-0.661484
  0
VERTEX
  8
PLAN_1
 62
     2
  6
CONTINUOUS
 10
0.506197
 20
-0.658945
  0
VERTEX
  8
PLAN_1
 62
     2
  6
CONTINUOUS
 10
0.507217
 20
-0.656909
  0
VERTEX
  8
PLAN_1
 62
     2
  6
CONTINUOUS
 10
0.509248
 20
-0.654878
  0
VERTEX
  8
PLAN_1
 62
     2
  6
CONTINUOUS
 10
0.511283
 20
-0.653350
  0
VERTEX
  8
PLAN_1
 62
     2
  6
CONTINUOUS
 10
0.513319
 20
-0.651827
  0
VERTEX
  8
PLAN_1
 62
     2
  6
CONTINUOUS
 10
0.515350
 20
-0.650299
  0
VERTEX
  8
PLAN_1
 62
     2
  6
CONTINUOUS
 10
0.518402
 20
-0.649283
  0
VERTEX
  8
PLAN_1
 62
     2
  6
CONTINUOUS
 10
0.520945
 20
-0.648776
  0
VERTEX
  8
PLAN_1
 62
     2
  6
CONTINUOUS
 10
0.523996
 20
-0.648268
  0
VERTEX
  8
PLAN_1
 62
     2
  6
CONTINUOUS
 10
0.527043
 20
-0.648268
  0
VERTEX
  8
PLAN_1
 62
     2
  6
CONTINUOUS
 10
0.530094
 20
-0.648268
  0
VERTEX
  8
PLAN_1
 62
     2
  6
CONTINUOUS
 10
0.532638
 20
-0.648776
  0
VERTEX
  8
PLAN_1
 62
     2
  6
CONTINUOUS
 10
0.535181
 20
-0.649283
  0
VERTEX
  8
PLAN_1
 62
     2
  6
CONTINUOUS
 10
0.537720
 20
-0.650299
  0
VERTEX
  8
PLAN_1
 62
     2
  6
CONTINUOUS
 10
0.539756
 20
-0.651827
  0
VERTEX
  8
PLAN_1
 62
     2
  6
CONTINUOUS
 10
0.541791
 20
-0.652843
  0
VERTEX
  8
PLAN_1
 62
     2
  6
CONTINUOUS
 10
0.543315
 20
-0.654878
  0
VERTEX
  8
PLAN_1
 62
     2
  6
CONTINUOUS
 10
0.544839
 20
-0.656909
  0
VERTEX
  8
PLAN_1
 62
     2
  6
CONTINUOUS
 10
0.547382
 20
-0.661484
  0
VERTEX
  8
PLAN_1
 62
     2
  6
CONTINUOUS
 10
0.549417
 20
-0.666571
  0
VERTEX
  8
PLAN_1
 62
     2
  6
CONTINUOUS
 10
0.550433
 20
-0.673181
  0
VERTEX
  8
PLAN_1
 62
     2
  6
CONTINUOUS
 10
0.550433
 20
-0.679791
  0
VERTEX
  8
PLAN_1
 62
     2
  6
CONTINUOUS
 10
0.510776
 20
-0.679791
  0
VERTEX
  8
PLAN_1
 62
     2
  6
CONTINUOUS
 10
0.511283
 20
-0.683858
  0
VERTEX
  8
PLAN_1
 62
     2
  6
CONTINUOUS
 10
0.511791
 20
-0.687417
  0
VERTEX
  8
PLAN_1
 62
     2
  6
CONTINUOUS
 10
0.513319
 20
-0.690469
  0
VERTEX
  8
PLAN_1
 62
     2
  6
CONTINUOUS
 10
0.514843
 20
-0.693008
  0
VERTEX
  8
PLAN_1
 62
     2
  6
CONTINUOUS
 10
0.516878
 20
-0.695043
  0
VERTEX
  8
PLAN_1
 62
     2
  6
CONTINUOUS
 10
0.519925
 20
-0.696567
  0
VERTEX
  8
PLAN_1
 62
     2
  6
CONTINUOUS
 10
0.522976
 20
-0.697587
  0
VERTEX
  8
PLAN_1
 62
     2
  6
CONTINUOUS
 10
0.526535
 20
-0.697587
  0
VERTEX
  8
PLAN_1
 62
     2
  6
CONTINUOUS
 10
0.529587
 20
-0.697587
  0
VERTEX
  8
PLAN_1
 62
     2
  6
CONTINUOUS
 10
0.532638
 20
-0.696567
  0
VERTEX
  8
PLAN_1
 62
     2
  6
CONTINUOUS
 10
0.534673
 20
-0.695551
  0
VERTEX
  8
PLAN_1
 62
     2
  6
CONTINUOUS
 10
0.536705
 20
-0.694028
  0
VERTEX
  8
PLAN_1
 62
     2
  6
CONTINUOUS
 10
0.538232
 20
-0.691992
  0
VERTEX
  8
PLAN_1
 62
     2
  6
CONTINUOUS
 10
0.539756
 20
-0.690469
  0
VERTEX
  8
PLAN_1
 62
     2
  6
CONTINUOUS
 10
0.540264
 20
-0.688433
  0
VERTEX
  8
PLAN_1
 62
     2
  6
CONTINUOUS
 10
0.540772
 20
-0.686909
  0
VERTEX
  8
PLAN_1
 62
     2
  6
CONTINUOUS
 10
0.549925
 20
-0.686909
  0
SEQEND
  8
0
  0
POLYLINE
  8
PLAN_1
 62
     2
  6
CONTINUOUS
 66
     1
 40
0.003000
 41
0.003000
  0
VERTEX
  8
PLAN_1
 62
     2
  6
CONTINUOUS
 10
0.541280
 20
-0.672673
  0
VERTEX
  8
PLAN_1
 62
     2
  6
CONTINUOUS
 10
0.540772
 20
-0.669622
  0
VERTEX
  8
PLAN_1
 62
     2
  6
CONTINUOUS
 10
0.540264
 20
-0.666571
  0
VERTEX
  8
PLAN_1
 62
     2
  6
CONTINUOUS
 10
0.539248
 20
-0.663520
  0
VERTEX
  8
PLAN_1
 62
     2
  6
CONTINUOUS
 10
0.537720
 20
-0.661484
  0
VERTEX
  8
PLAN_1
 62
     2
  6
CONTINUOUS
 10
0.535689
 20
-0.659453
  0
VERTEX
  8
PLAN_1
 62
     2
  6
CONTINUOUS
 10
0.533146
 20
-0.657417
  0
VERTEX
  8
PLAN_1
 62
     2
  6
CONTINUOUS
 10
0.529587
 20
-0.656909
  0
VERTEX
  8
PLAN_1
 62
     2
  6
CONTINUOUS
 10
0.526028
 20
-0.656402
  0
VERTEX
  8
PLAN_1
 62
     2
  6
CONTINUOUS
 10
0.522976
 20
-0.656909
  0
VERTEX
  8
PLAN_1
 62
     2
  6
CONTINUOUS
 10
0.519925
 20
-0.657417
  0
VERTEX
  8
PLAN_1
 62
     2
  6
CONTINUOUS
 10
0.517386
 20
-0.659453
  0
VERTEX
  8
PLAN_1
 62
     2
  6
CONTINUOUS
 10
0.515350
 20
-0.661484
  0
VERTEX
  8
PLAN_1
 62
     2
  6
CONTINUOUS
 10
0.513319
 20
-0.663520
  0
VERTEX
  8
PLAN_1
 62
     2
  6
CONTINUOUS
 10
0.512299
 20
-0.666571
  0
VERTEX
  8
PLAN_1
 62
     2
  6
CONTINUOUS
 10
0.511283
 20
-0.669622
  0
VERTEX
  8
PLAN_1
 62
     2
  6
CONTINUOUS
 10
0.510776
 20
-0.672673
  0
VERTEX
  8
PLAN_1
 62
     2
  6
CONTINUOUS
 10
0.541280
 20
-0.672673
  0
SEQEND
  8
0
  0
SOLID
  8
PLAN_1
 62
     2
 10
0.585008
 20
-0.679791
 11
0.559587
 21
-0.679791
 12
0.585008
 22
-0.670638
 13
0.559587
 23
-0.670638
  0
POLYLINE
  8
PLAN_1
 62
     2
  6
CONTINUOUS
 66
     1
 40
0.003000
 41
0.003000
  0
VERTEX
  8
PLAN_1
 62
     2
  6
CONTINUOUS
 10
0.585008
 20
-0.679791
  0
VERTEX
  8
PLAN_1
 62
     2
  6
CONTINUOUS
 10
0.559587
 20
-0.679791
  0
VERTEX
  8
PLAN_1
 62
     2
  6
CONTINUOUS
 10
0.559587
 20
-0.670638
  0
VERTEX
  8
PLAN_1
 62
     2
  6
CONTINUOUS
 10
0.585008
 20
-0.670638
  0
VERTEX
  8
PLAN_1
 62
     2
  6
CONTINUOUS
 10
0.585008
 20
-0.679791
  0
SEQEND
  8
0
  0
SOLID
  8
PLAN_1
 62
     2
 10
0.621106
 20
-0.642165
 11
0.613988
 21
-0.642165
 12
0.634327
 22
-0.627929
 13
0.623138
 23
-0.627929
  0
POLYLINE
  8
PLAN_1
 62
     2
  6
CONTINUOUS
 66
     1
 40
0.003000
 41
0.003000
  0
VERTEX
  8
PLAN_1
 62
     2
  6
CONTINUOUS
 10
0.621106
 20
-0.642165
  0
VERTEX
  8
PLAN_1
 62
     2
  6
CONTINUOUS
 10
0.613988
 20
-0.642165
  0
VERTEX
  8
PLAN_1
 62
     2
  6
CONTINUOUS
 10
0.623138
 20
-0.627929
  0
VERTEX
  8
PLAN_1
 62
     2
  6
CONTINUOUS
 10
0.634327
 20
-0.627929
  0
VERTEX
  8
PLAN_1
 62
     2
  6
CONTINUOUS
 10
0.621106
 20
-0.642165
  0
SEQEND
  8
0
  0
POLYLINE
  8
PLAN_1
 62
     2
  6
CONTINUOUS
 66
     1
 40
0.003000
 41
0.003000
  0
VERTEX
  8
PLAN_1
 62
     2
  6
CONTINUOUS
 10
0.642461
 20
-0.686909
  0
VERTEX
  8
PLAN_1
 62
     2
  6
CONTINUOUS
 10
0.642461
 20
-0.688433
  0
VERTEX
  8
PLAN_1
 62
     2
  6
CONTINUOUS
 10
0.641953
 20
-0.689957
  0
VERTEX
  8
PLAN_1
 62
     2
  6
CONTINUOUS
 10
0.640933
 20
-0.691484
  0
VERTEX
  8
PLAN_1
 62
     2
  6
CONTINUOUS
 10
0.639917
 20
-0.693516
  0
VERTEX
  8
PLAN_1
 62
     2
  6
CONTINUOUS
 10
0.638902
 20
-0.696059
  0
VERTEX
  8
PLAN_1
 62
     2
  6
CONTINUOUS
 10
0.637374
 20
-0.698094
  0
VERTEX
  8
PLAN_1
 62
     2
  6
CONTINUOUS
 10
0.635343
 20
-0.700126
  0
VERTEX
  8
PLAN_1
 62
     2
  6
CONTINUOUS
 10
0.632799
 20
-0.701654
  0
VERTEX
  8
PLAN_1
 62
     2
  6
CONTINUOUS
 10
0.631783
 20
-0.702669
  0
VERTEX
  8
PLAN_1
 62
     2
  6
CONTINUOUS
 10
0.630768
 20
-0.703177
  0
VERTEX
  8
PLAN_1
 62
     2
  6
CONTINUOUS
 10
0.629240
 20
-0.703685
  0
VERTEX
  8
PLAN_1
 62
     2
  6
CONTINUOUS
 10
0.627717
 20
-0.704193
  0
VERTEX
  8
PLAN_1
 62
     2
  6
CONTINUOUS
 10
0.625681
 20
-0.704705
  0
VERTEX
  8
PLAN_1
 62
     2
  6
CONTINUOUS
 10
0.623650
 20
-0.705213
  0
VERTEX
  8
PLAN_1
 62
     2
  6
CONTINUOUS
 10
0.621106
 20
-0.705720
  0
VERTEX
  8
PLAN_1
 62
     2
  6
CONTINUOUS
 10
0.618055
 20
-0.705720
  0
VERTEX
  8
PLAN_1
 62
     2
  6
CONTINUOUS
 10
0.615512
 20
-0.705720
  0
VERTEX
  8
PLAN_1
 62
     2
  6
CONTINUOUS
 10
0.612461
 20
-0.705213
  0
VERTEX
  8
PLAN_1
 62
     2
  6
CONTINUOUS
 10
0.609921
 20
-0.704705
  0
VERTEX
  8
PLAN_1
 62
     2
  6
CONTINUOUS
 10
0.607886
 20
-0.703685
  0
VERTEX
  8
PLAN_1
 62
     2
  6
CONTINUOUS
 10
0.605854
 20
-0.702669
  0
VERTEX
  8
PLAN_1
 62
     2
  6
CONTINUOUS
 10
0.603819
 20
-0.701146
  0
VERTEX
  8
PLAN_1
 62
     2
  6
CONTINUOUS
 10
0.601783
 20
-0.699618
  0
VERTEX
  8
PLAN_1
 62
     2
  6
CONTINUOUS
 10
0.600260
 20
-0.698094
  0
VERTEX
  8
PLAN_1
 62
     2
  6
CONTINUOUS
 10
0.597209
 20
-0.694028
  0
VERTEX
  8
PLAN_1
 62
     2
  6
CONTINUOUS
 10
0.595177
 20
-0.689449
  0
VERTEX
  8
PLAN_1
 62
     2
  6
CONTINUOUS
 10
0.594157
 20
-0.683858
  0
VERTEX
  8
PLAN_1
 62
     2
  6
CONTINUOUS
 10
0.593650
 20
-0.678264
  0
VERTEX
  8
PLAN_1
 62
     2
  6
CONTINUOUS
 10
0.594157
 20
-0.672161
  0
VERTEX
  8
PLAN_1
 62
     2
  6
CONTINUOUS
 10
0.595177
 20
-0.666571
  0
VERTEX
  8
PLAN_1
 62
     2
  6
CONTINUOUS
 10
0.596193
 20
-0.664028
  0
VERTEX
  8
PLAN_1
 62
     2
  6
CONTINUOUS
 10
0.597209
 20
-0.661484
  0
VERTEX
  8
PLAN_1
 62
     2
  6
CONTINUOUS
 10
0.598736
 20
-0.658945
  0
VERTEX
  8
PLAN_1
 62
     2
  6
CONTINUOUS
 10
0.600260
 20
-0.656909
  0
VERTEX
  8
PLAN_1
 62
     2
  6
CONTINUOUS
 10
0.601783
 20
-0.654878
  0
VERTEX
  8
PLAN_1
 62
     2
  6
CONTINUOUS
 10
0.603819
 20
-0.653350
  0
VERTEX
  8
PLAN_1
 62
     2
  6
CONTINUOUS
 10
0.605854
 20
-0.651827
  0
VERTEX
  8
PLAN_1
 62
     2
  6
CONTINUOUS
 10
0.608394
 20
-0.650299
  0
VERTEX
  8
PLAN_1
 62
     2
  6
CONTINUOUS
 10
0.610937
 20
-0.649283
  0
VERTEX
  8
PLAN_1
 62
     2
  6
CONTINUOUS
 10
0.613480
 20
-0.648776
  0
VERTEX
  8
PLAN_1
 62
     2
  6
CONTINUOUS
 10
0.616531
 20
-0.648268
  0
VERTEX
  8
PLAN_1
 62
     2
  6
CONTINUOUS
 10
0.619579
 20
-0.648268
  0
VERTEX
  8
PLAN_1
 62
     2
  6
CONTINUOUS
 10
0.622630
 20
-0.648268
  0
VERTEX
  8
PLAN_1
 62
     2
  6
CONTINUOUS
 10
0.625173
 20
-0.648776
  0
VERTEX
  8
PLAN_1
 62
     2
  6
CONTINUOUS
 10
0.627717
 20
-0.649283
  0
VERTEX
  8
PLAN_1
 62
     2
  6
CONTINUOUS
 10
0.630256
 20
-0.650299
  0
VERTEX
  8
PLAN_1
 62
     2
  6
CONTINUOUS
 10
0.632291
 20
-0.651827
  0
VERTEX
  8
PLAN_1
 62
     2
  6
CONTINUOUS
 10
0.634327
 20
-0.652843
  0
VERTEX
  8
PLAN_1
 62
     2
  6
CONTINUOUS
 10
0.635850
 20
-0.654878
  0
VERTEX
  8
PLAN_1
 62
     2
  6
CONTINUOUS
 10
0.637374
 20
-0.656909
  0
VERTEX
  8
PLAN_1
 62
     2
  6
CONTINUOUS
 10
0.639917
 20
-0.661484
  0
VERTEX
  8
PLAN_1
 62
     2
  6
CONTINUOUS
 10
0.641953
 20
-0.666571
  0
VERTEX
  8
PLAN_1
 62
     2
  6
CONTINUOUS
 10
0.642969
 20
-0.673181
  0
VERTEX
  8
PLAN_1
 62
     2
  6
CONTINUOUS
 10
0.643476
 20
-0.679791
  0
VERTEX
  8
PLAN_1
 62
     2
  6
CONTINUOUS
 10
0.603311
 20
-0.679791
  0
VERTEX
  8
PLAN_1
 62
     2
  6
CONTINUOUS
 10
0.603819
 20
-0.683858
  0
VERTEX
  8
PLAN_1
 62
     2
  6
CONTINUOUS
 10
0.604327
 20
-0.687417
  0
VERTEX
  8
PLAN_1
 62
     2
  6
CONTINUOUS
 10
0.605854
 20
-0.690469
  0
VERTEX
  8
PLAN_1
 62
     2
  6
CONTINUOUS
 10
0.607378
 20
-0.693008
  0
VERTEX
  8
PLAN_1
 62
     2
  6
CONTINUOUS
 10
0.609921
 20
-0.695043
  0
VERTEX
  8
PLAN_1
 62
     2
  6
CONTINUOUS
 10
0.612461
 20
-0.696567
  0
VERTEX
  8
PLAN_1
 62
     2
  6
CONTINUOUS
 10
0.615512
 20
-0.697587
  0
VERTEX
  8
PLAN_1
 62
     2
  6
CONTINUOUS
 10
0.619071
 20
-0.697587
  0
VERTEX
  8
PLAN_1
 62
     2
  6
CONTINUOUS
 10
0.622630
 20
-0.697587
  0
VERTEX
  8
PLAN_1
 62
     2
  6
CONTINUOUS
 10
0.625173
 20
-0.696567
  0
VERTEX
  8
PLAN_1
 62
     2
  6
CONTINUOUS
 10
0.627209
 20
-0.695551
  0
VERTEX
  8
PLAN_1
 62
     2
  6
CONTINUOUS
 10
0.629240
 20
-0.694028
  0
VERTEX
  8
PLAN_1
 62
     2
  6
CONTINUOUS
 10
0.631276
 20
-0.691992
  0
VERTEX
  8
PLAN_1
 62
     2
  6
CONTINUOUS
 10
0.632291
 20
-0.690469
  0
VERTEX
  8
PLAN_1
 62
     2
  6
CONTINUOUS
 10
0.632799
 20
-0.688433
  0
VERTEX
  8
PLAN_1
 62
     2
  6
CONTINUOUS
 10
0.633307
 20
-0.686909
  0
VERTEX
  8
PLAN_1
 62
     2
  6
CONTINUOUS
 10
0.642461
 20
-0.686909
  0
SEQEND
  8
0
  0
POLYLINE
  8
PLAN_1
 62
     2
  6
CONTINUOUS
 66
     1
 40
0.003000
 41
0.003000
  0
VERTEX
  8
PLAN_1
 62
     2
  6
CONTINUOUS
 10
0.633815
 20
-0.672673
  0
VERTEX
  8
PLAN_1
 62
     2
  6
CONTINUOUS
 10
0.633307
 20
-0.669622
  0
VERTEX
  8
PLAN_1
 62
     2
  6
CONTINUOUS
 10
0.632799
 20
-0.666571
  0
VERTEX
  8
PLAN_1
 62
     2
  6
CONTINUOUS
 10
0.631783
 20
-0.663520
  0
VERTEX
  8
PLAN_1
 62
     2
  6
CONTINUOUS
 10
0.630256
 20
-0.661484
  0
VERTEX
  8
PLAN_1
 62
     2
  6
CONTINUOUS
 10
0.628224
 20
-0.659453
  0
VERTEX
  8
PLAN_1
 62
     2
  6
CONTINUOUS
 10
0.625681
 20
-0.657417
  0
VERTEX
  8
PLAN_1
 62
     2
  6
CONTINUOUS
 10
0.622630
 20
-0.656909
  0
VERTEX
  8
PLAN_1
 62
     2
  6
CONTINUOUS
 10
0.618563
 20
-0.656402
  0
VERTEX
  8
PLAN_1
 62
     2
  6
CONTINUOUS
 10
0.615512
 20
-0.656909
  0
VERTEX
  8
PLAN_1
 62
     2
  6
CONTINUOUS
 10
0.612461
 20
-0.657417
  0
VERTEX
  8
PLAN_1
 62
     2
  6
CONTINUOUS
 10
0.609921
 20
-0.659453
  0
VERTEX
  8
PLAN_1
 62
     2
  6
CONTINUOUS
 10
0.607886
 20
-0.661484
  0
VERTEX
  8
PLAN_1
 62
     2
  6
CONTINUOUS
 10
0.605854
 20
-0.663520
  0
VERTEX
  8
PLAN_1
 62
     2
  6
CONTINUOUS
 10
0.604835
 20
-0.666571
  0
VERTEX
  8
PLAN_1
 62
     2
  6
CONTINUOUS
 10
0.603819
 20
-0.669622
  0
VERTEX
  8
PLAN_1
 62
     2
  6
CONTINUOUS
 10
0.603311
 20
-0.672673
  0
VERTEX
  8
PLAN_1
 62
     2
  6
CONTINUOUS
 10
0.633815
 20
-0.672673
  0
SEQEND
  8
0
  0
POLYLINE
  8
PLAN_1
 62
     2
  6
CONTINUOUS
 66
     1
 40
0.003000
 41
0.003000
  0
VERTEX
  8
PLAN_1
 62
     2
  6
CONTINUOUS
 10
0.665339
 20
-0.657417
  0
VERTEX
  8
PLAN_1
 62
     2
  6
CONTINUOUS
 10
0.665339
 20
-0.692500
  0
VERTEX
  8
PLAN_1
 62
     2
  6
CONTINUOUS
 10
0.665846
 20
-0.694028
  0
VERTEX
  8
PLAN_1
 62
     2
  6
CONTINUOUS
 10
0.665846
 20
-0.695043
  0
VERTEX
  8
PLAN_1
 62
     2
  6
CONTINUOUS
 10
0.666866
 20
-0.696059
  0
VERTEX
  8
PLAN_1
 62
     2
  6
CONTINUOUS
 10
0.667374
 20
-0.696567
  0
VERTEX
  8
PLAN_1
 62
     2
  6
CONTINUOUS
 10
0.668390
 20
-0.696567
  0
VERTEX
  8
PLAN_1
 62
     2
  6
CONTINUOUS
 10
0.669406
 20
-0.697075
  0
VERTEX
  8
PLAN_1
 62
     2
  6
CONTINUOUS
 10
0.670425
 20
-0.697075
  0
VERTEX
  8
PLAN_1
 62
     2
  6
CONTINUOUS
 10
0.670933
 20
-0.697075
  0
VERTEX
  8
PLAN_1
 62
     2
  6
CONTINUOUS
 10
0.673984
 20
-0.697075
  0
VERTEX
  8
PLAN_1
 62
     2
  6
CONTINUOUS
 10
0.673984
 20
-0.704193
  0
VERTEX
  8
PLAN_1
 62
     2
  6
CONTINUOUS
 10
0.672965
 20
-0.704193
  0
VERTEX
  8
PLAN_1
 62
     2
  6
CONTINUOUS
 10
0.671949
 20
-0.704193
  0
VERTEX
  8
PLAN_1
 62
     2
  6
CONTINUOUS
 10
0.670933
 20
-0.704193
  0
VERTEX
  8
PLAN_1
 62
     2
  6
CONTINUOUS
 10
0.669917
 20
-0.704705
  0
VERTEX
  8
PLAN_1
 62
     2
  6
CONTINUOUS
 10
0.668898
 20
-0.704705
  0
VERTEX
  8
PLAN_1
 62
     2
  6
CONTINUOUS
 10
0.668390
 20
-0.704705
  0
VERTEX
  8
PLAN_1
 62
     2
  6
CONTINUOUS
 10
0.667882
 20
-0.704705
  0
VERTEX
  8
PLAN_1
 62
     2
  6
CONTINUOUS
 10
0.667374
 20
-0.704705
  0
VERTEX
  8
PLAN_1
 62
     2
  6
CONTINUOUS
 10
0.664323
 20
-0.704705
  0
VERTEX
  8
PLAN_1
 62
     2
  6
CONTINUOUS
 10
0.661780
 20
-0.703685
  0
VERTEX
  8
PLAN_1
 62
     2
  6
CONTINUOUS
 10
0.659748
 20
-0.702669
  0
VERTEX
  8
PLAN_1
 62
     2
  6
CONTINUOUS
 10
0.658220
 20
-0.701654
  0
VERTEX
  8
PLAN_1
 62
     2
  6
CONTINUOUS
 10
0.657205
 20
-0.699618
  0
VERTEX
  8
PLAN_1
 62
     2
  6
CONTINUOUS
 10
0.656697
 20
-0.697587
  0
VERTEX
  8
PLAN_1
 62
     2
  6
CONTINUOUS
 10
0.656189
 20
-0.695551
  0
VERTEX
  8
PLAN_1
 62
     2
  6
CONTINUOUS
 10
0.656189
 20
-0.693008
  0
VERTEX
  8
PLAN_1
 62
     2
  6
CONTINUOUS
 10
0.656189
 20
-0.657417
  0
VERTEX
  8
PLAN_1
 62
     2
  6
CONTINUOUS
 10
0.649071
 20
-0.657417
  0
VERTEX
  8
PLAN_1
 62
     2
  6
CONTINUOUS
 10
0.649071
 20
-0.649791
  0
VERTEX
  8
PLAN_1
 62
     2
  6
CONTINUOUS
 10
0.656189
 20
-0.649791
  0
VERTEX
  8
PLAN_1
 62
     2
  6
CONTINUOUS
 10
0.656189
 20
-0.634539
  0
VERTEX
  8
PLAN_1
 62
     2
  6
CONTINUOUS
 10
0.665339
 20
-0.634539
  0
VERTEX
  8
PLAN_1
 62
     2
  6
CONTINUOUS
 10
0.665339
 20
-0.649791
  0
VERTEX
  8
PLAN_1
 62
     2
  6
CONTINUOUS
 10
0.673984
 20
-0.649791
  0
VERTEX
  8
PLAN_1
 62
     2
  6
CONTINUOUS
 10
0.673984
 20
-0.657417
  0
VERTEX
  8
PLAN_1
 62
     2
  6
CONTINUOUS
 10
0.665339
 20
-0.657417
  0
SEQEND
  8
0
  0
POLYLINE
  8
PLAN_1
 62
     2
  6
CONTINUOUS
 66
     1
 40
0.003000
 41
0.003000
  0
VERTEX
  8
PLAN_1
 62
     2
  6
CONTINUOUS
 10
0.705508
 20
-0.648268
  0
VERTEX
  8
PLAN_1
 62
     2
  6
CONTINUOUS
 10
0.708555
 20
-0.648268
  0
VERTEX
  8
PLAN_1
 62
     2
  6
CONTINUOUS
 10
0.711606
 20
-0.648776
  0
VERTEX
  8
PLAN_1
 62
     2
  6
CONTINUOUS
 10
0.714150
 20
-0.649791
  0
VERTEX
  8
PLAN_1
 62
     2
  6
CONTINUOUS
 10
0.716693
 20
-0.650807
  0
VERTEX
  8
PLAN_1
 62
     2
  6
CONTINUOUS
 10
0.718724
 20
-0.651827
  0
VERTEX
  8
PLAN_1
 62
     2
  6
CONTINUOUS
 10
0.720760
 20
-0.653350
  0
VERTEX
  8
PLAN_1
 62
     2
  6
CONTINUOUS
 10
0.722791
 20
-0.655386
  0
VERTEX
  8
PLAN_1
 62
     2
  6
CONTINUOUS
 10
0.724319
 20
-0.657417
  0
VERTEX
  8
PLAN_1
 62
     2
  6
CONTINUOUS
 10
0.727370
 20
-0.661484
  0
VERTEX
  8
PLAN_1
 62
     2
  6
CONTINUOUS
 10
0.728894
 20
-0.666571
  0
VERTEX
  8
PLAN_1
 62
     2
  6
CONTINUOUS
 10
0.730421
 20
-0.671654
  0
VERTEX
  8
PLAN_1
 62
     2
  6
CONTINUOUS
 10
0.730421
 20
-0.676740
  0
VERTEX
  8
PLAN_1
 62
     2
  6
CONTINUOUS
 10
0.730421
 20
-0.682331
  0
VERTEX
  8
PLAN_1
 62
     2
  6
CONTINUOUS
 10
0.728894
 20
-0.687417
  0
VERTEX
  8
PLAN_1
 62
     2
  6
CONTINUOUS
 10
0.727370
 20
-0.691992
  0
VERTEX
  8
PLAN_1
 62
     2
  6
CONTINUOUS
 10
0.724319
 20
-0.696567
  0
VERTEX
  8
PLAN_1
 62
     2
  6
CONTINUOUS
 10
0.722791
 20
-0.698602
  0
VERTEX
  8
PLAN_1
 62
     2
  6
CONTINUOUS
 10
0.720760
 20
-0.700126
  0
VERTEX
  8
PLAN_1
 62
     2
  6
CONTINUOUS
 10
0.718724
 20
-0.701654
  0
VERTEX
  8
PLAN_1
 62
     2
  6
CONTINUOUS
 10
0.716693
 20
-0.703177
  0
VERTEX
  8
PLAN_1
 62
     2
  6
CONTINUOUS
 10
0.714150
 20
-0.704193
  0
VERTEX
  8
PLAN_1
 62
     2
  6
CONTINUOUS
 10
0.711606
 20
-0.704705
  0
VERTEX
  8
PLAN_1
 62
     2
  6
CONTINUOUS
 10
0.708555
 20
-0.705213
  0
VERTEX
  8
PLAN_1
 62
     2
  6
CONTINUOUS
 10
0.705508
 20
-0.705720
  0
VERTEX
  8
PLAN_1
 62
     2
  6
CONTINUOUS
 10
0.701949
 20
-0.705213
  0
VERTEX
  8
PLAN_1
 62
     2
  6
CONTINUOUS
 10
0.699406
 20
-0.704705
  0
VERTEX
  8
PLAN_1
 62
     2
  6
CONTINUOUS
 10
0.696354
 20
-0.704193
  0
VERTEX
  8
PLAN_1
 62
     2
  6
CONTINUOUS
 10
0.693811
 20
-0.703177
  0
VERTEX
  8
PLAN_1
 62
     2
  6
CONTINUOUS
 10
0.691780
 20
-0.701654
  0
VERTEX
  8
PLAN_1
 62
     2
  6
CONTINUOUS
 10
0.689744
 20
-0.700126
  0
VERTEX
  8
PLAN_1
 62
     2
  6
CONTINUOUS
 10
0.687713
 20
-0.698602
  0
VERTEX
  8
PLAN_1
 62
     2
  6
CONTINUOUS
 10
0.686185
 20
-0.696567
  0
VERTEX
  8
PLAN_1
 62
     2
  6
CONTINUOUS
 10
0.683642
 20
-0.691992
  0
VERTEX
  8
PLAN_1
 62
     2
  6
CONTINUOUS
 10
0.681610
 20
-0.687417
  0
VERTEX
  8
PLAN_1
 62
     2
  6
CONTINUOUS
 10
0.680594
 20
-0.682331
  0
VERTEX
  8
PLAN_1
 62
     2
  6
CONTINUOUS
 10
0.680083
 20
-0.676740
  0
VERTEX
  8
PLAN_1
 62
     2
  6
CONTINUOUS
 10
0.680594
 20
-0.671654
  0
VERTEX
  8
PLAN_1
 62
     2
  6
CONTINUOUS
 10
0.681610
 20
-0.666571
  0
VERTEX
  8
PLAN_1
 62
     2
  6
CONTINUOUS
 10
0.683642
 20
-0.661484
  0
VERTEX
  8
PLAN_1
 62
     2
  6
CONTINUOUS
 10
0.686185
 20
-0.657417
  0
VERTEX
  8
PLAN_1
 62
     2
  6
CONTINUOUS
 10
0.687713
 20
-0.655386
  0
VERTEX
  8
PLAN_1
 62
     2
  6
CONTINUOUS
 10
0.689744
 20
-0.653350
  0
VERTEX
  8
PLAN_1
 62
     2
  6
CONTINUOUS
 10
0.691780
 20
-0.651827
  0
VERTEX
  8
PLAN_1
 62
     2
  6
CONTINUOUS
 10
0.693811
 20
-0.650807
  0
VERTEX
  8
PLAN_1
 62
     2
  6
CONTINUOUS
 10
0.696354
 20
-0.649791
  0
VERTEX
  8
PLAN_1
 62
     2
  6
CONTINUOUS
 10
0.699406
 20
-0.648776
  0
VERTEX
  8
PLAN_1
 62
     2
  6
CONTINUOUS
 10
0.701949
 20
-0.648268
  0
VERTEX
  8
PLAN_1
 62
     2
  6
CONTINUOUS
 10
0.705508
 20
-0.648268
  0
SEQEND
  8
0
  0
POLYLINE
  8
PLAN_1
 62
     2
  6
CONTINUOUS
 66
     1
 40
0.003000
 41
0.003000
  0
VERTEX
  8
PLAN_1
 62
     2
  6
CONTINUOUS
 10
0.705508
 20
-0.697587
  0
VERTEX
  8
PLAN_1
 62
     2
  6
CONTINUOUS
 10
0.707539
 20
-0.697587
  0
VERTEX
  8
PLAN_1
 62
     2
  6
CONTINUOUS
 10
0.709575
 20
-0.697075
  0
VERTEX
  8
PLAN_1
 62
     2
  6
CONTINUOUS
 10
0.711606
 20
-0.696567
  0
VERTEX
  8
PLAN_1
 62
     2
  6
CONTINUOUS
 10
0.713134
 20
-0.695551
  0
VERTEX
  8
PLAN_1
 62
     2
  6
CONTINUOUS
 10
0.716185
 20
-0.693008
  0
VERTEX
  8
PLAN_1
 62
     2
  6
CONTINUOUS
 10
0.718217
 20
-0.689957
  0
VERTEX
  8
PLAN_1
 62
     2
  6
CONTINUOUS
 10
0.719744
 20
-0.686398
  0
VERTEX
  8
PLAN_1
 62
     2
  6
CONTINUOUS
 10
0.720252
 20
-0.683350
  0
VERTEX
  8
PLAN_1
 62
     2
  6
CONTINUOUS
 10
0.720760
 20
-0.679791
  0
VERTEX
  8
PLAN_1
 62
     2
  6
CONTINUOUS
 10
0.721268
 20
-0.676740
  0
VERTEX
  8
PLAN_1
 62
     2
  6
CONTINUOUS
 10
0.720760
 20
-0.673689
  0
VERTEX
  8
PLAN_1
 62
     2
  6
CONTINUOUS
 10
0.720252
 20
-0.670638
  0
VERTEX
  8
PLAN_1
 62
     2
  6
CONTINUOUS
 10
0.719744
 20
-0.667079
  0
VERTEX
  8
PLAN_1
 62
     2
  6
CONTINUOUS
 10
0.718217
 20
-0.663520
  0
VERTEX
  8
PLAN_1
 62
     2
  6
CONTINUOUS
 10
0.716185
 20
-0.660469
  0
VERTEX
  8
PLAN_1
 62
     2
  6
CONTINUOUS
 10
0.713134
 20
-0.658437
  0
VERTEX
  8
PLAN_1
 62
     2
  6
CONTINUOUS
 10
0.711606
 20
-0.657417
  0
VERTEX
  8
PLAN_1
 62
     2
  6
CONTINUOUS
 10
0.709575
 20
-0.656402
  0
VERTEX
  8
PLAN_1
 62
     2
  6
CONTINUOUS
 10
0.707539
 20
-0.656402
  0
VERTEX
  8
PLAN_1
 62
     2
  6
CONTINUOUS
 10
0.705508
 20
-0.655894
  0
VERTEX
  8
PLAN_1
 62
     2
  6
CONTINUOUS
 10
0.702965
 20
-0.656402
  0
VERTEX
  8
PLAN_1
 62
     2
  6
CONTINUOUS
 10
0.700929
 20
-0.656402
  0
VERTEX
  8
PLAN_1
 62
     2
  6
CONTINUOUS
 10
0.698898
 20
-0.657417
  0
VERTEX
  8
PLAN_1
 62
     2
  6
CONTINUOUS
 10
0.697370
 20
-0.658437
  0
VERTEX
  8
PLAN_1
 62
     2
  6
CONTINUOUS
 10
0.694319
 20
-0.660469
  0
VERTEX
  8
PLAN_1
 62
     2
  6
CONTINUOUS
 10
0.692287
 20
-0.663520
  0
VERTEX
  8
PLAN_1
 62
     2
  6
CONTINUOUS
 10
0.691272
 20
-0.667079
  0
VERTEX
  8
PLAN_1
 62
     2
  6
CONTINUOUS
 10
0.690252
 20
-0.670638
  0
VERTEX
  8
PLAN_1
 62
     2
  6
CONTINUOUS
 10
0.689744
 20
-0.673689
  0
VERTEX
  8
PLAN_1
 62
     2
  6
CONTINUOUS
 10
0.689744
 20
-0.676740
  0
VERTEX
  8
PLAN_1
 62
     2
  6
CONTINUOUS
 10
0.689744
 20
-0.679791
  0
VERTEX
  8
PLAN_1
 62
     2
  6
CONTINUOUS
 10
0.690252
 20
-0.683350
  0
VERTEX
  8
PLAN_1
 62
     2
  6
CONTINUOUS
 10
0.691272
 20
-0.686398
  0
VERTEX
  8
PLAN_1
 62
     2
  6
CONTINUOUS
 10
0.692287
 20
-0.689957
  0
VERTEX
  8
PLAN_1
 62
     2
  6
CONTINUOUS
 10
0.694319
 20
-0.693008
  0
VERTEX
  8
PLAN_1
 62
     2
  6
CONTINUOUS
 10
0.697370
 20
-0.695551
  0
VERTEX
  8
PLAN_1
 62
     2
  6
CONTINUOUS
 10
0.698898
 20
-0.696567
  0
VERTEX
  8
PLAN_1
 62
     2
  6
CONTINUOUS
 10
0.700929
 20
-0.697075
  0
VERTEX
  8
PLAN_1
 62
     2
  6
CONTINUOUS
 10
0.702965
 20
-0.697587
  0
VERTEX
  8
PLAN_1
 62
     2
  6
CONTINUOUS
 10
0.705508
 20
-0.697587
  0
SEQEND
  8
0
  0
POLYLINE
  8
PLAN_1
 62
     2
  6
CONTINUOUS
 66
     1
 40
0.003000
 41
0.003000
  0
VERTEX
  8
PLAN_1
 62
     2
  6
CONTINUOUS
 10
0.776689
 20
-0.704193
  0
VERTEX
  8
PLAN_1
 62
     2
  6
CONTINUOUS
 10
0.776689
 20
-0.696059
  0
VERTEX
  8
PLAN_1
 62
     2
  6
CONTINUOUS
 10
0.776177
 20
-0.696059
  0
VERTEX
  8
PLAN_1
 62
     2
  6
CONTINUOUS
 10
0.774654
 20
-0.698094
  0
VERTEX
  8
PLAN_1
 62
     2
  6
CONTINUOUS
 10
0.773130
 20
-0.700126
  0
VERTEX
  8
PLAN_1
 62
     2
  6
CONTINUOUS
 10
0.771602
 20
-0.701654
  0
VERTEX
  8
PLAN_1
 62
     2
  6
CONTINUOUS
 10
0.769571
 20
-0.703177
  0
VERTEX
  8
PLAN_1
 62
     2
  6
CONTINUOUS
 10
0.767535
 20
-0.704193
  0
VERTEX
  8
PLAN_1
 62
     2
  6
CONTINUOUS
 10
0.764992
 20
-0.705213
  0
VERTEX
  8
PLAN_1
 62
     2
  6
CONTINUOUS
 10
0.761941
 20
-0.705720
  0
VERTEX
  8
PLAN_1
 62
     2
  6
CONTINUOUS
 10
0.758894
 20
-0.705720
  0
VERTEX
  8
PLAN_1
 62
     2
  6
CONTINUOUS
 10
0.755843
 20
-0.705213
  0
VERTEX
  8
PLAN_1
 62
     2
  6
CONTINUOUS
 10
0.752791
 20
-0.704705
  0
VERTEX
  8
PLAN_1
 62
     2
  6
CONTINUOUS
 10
0.749740
 20
-0.703685
  0
VERTEX
  8
PLAN_1
 62
     2
  6
CONTINUOUS
 10
0.747197
 20
-0.702161
  0
VERTEX
  8
PLAN_1
 62
     2
  6
CONTINUOUS
 10
0.744657
 20
-0.699618
  0
VERTEX
  8
PLAN_1
 62
     2
  6
CONTINUOUS
 10
0.743130
 20
-0.697075
  0
VERTEX
  8
PLAN_1
 62
     2
  6
CONTINUOUS
 10
0.741606
 20
-0.693008
  0
VERTEX
  8
PLAN_1
 62
     2
  6
CONTINUOUS
 10
0.741606
 20
-0.688941
  0
VERTEX
  8
PLAN_1
 62
     2
  6
CONTINUOUS
 10
0.741606
 20
-0.649791
  0
VERTEX
  8
PLAN_1
 62
     2
  6
CONTINUOUS
 10
0.750756
 20
-0.649791
  0
VERTEX
  8
PLAN_1
 62
     2
  6
CONTINUOUS
 10
0.750756
 20
-0.685890
  0
VERTEX
  8
PLAN_1
 62
     2
  6
CONTINUOUS
 10
0.750756
 20
-0.688941
  0
VERTEX
  8
PLAN_1
 62
     2
  6
CONTINUOUS
 10
0.751264
 20
-0.691484
  0
VERTEX
  8
PLAN_1
 62
     2
  6
CONTINUOUS
 10
0.752283
 20
-0.693516
  0
VERTEX
  8
PLAN_1
 62
     2
  6
CONTINUOUS
 10
0.753299
 20
-0.695043
  0
VERTEX
  8
PLAN_1
 62
     2
  6
CONTINUOUS
 10
0.755335
 20
-0.696059
  0
VERTEX
  8
PLAN_1
 62
     2
  6
CONTINUOUS
 10
0.756858
 20
-0.697075
  0
VERTEX
  8
PLAN_1
 62
     2
  6
CONTINUOUS
 10
0.758894
 20
-0.697587
  0
VERTEX
  8
PLAN_1
 62
     2
  6
CONTINUOUS
 10
0.760925
 20
-0.697587
  0
VERTEX
  8
PLAN_1
 62
     2
  6
CONTINUOUS
 10
0.764992
 20
-0.697075
  0
VERTEX
  8
PLAN_1
 62
     2
  6
CONTINUOUS
 10
0.768043
 20
-0.696059
  0
VERTEX
  8
PLAN_1
 62
     2
  6
CONTINUOUS
 10
0.770587
 20
-0.694028
  0
VERTEX
  8
PLAN_1
 62
     2
  6
CONTINUOUS
 10
0.772618
 20
-0.691484
  0
VERTEX
  8
PLAN_1
 62
     2
  6
CONTINUOUS
 10
0.774146
 20
-0.688941
  0
VERTEX
  8
PLAN_1
 62
     2
  6
CONTINUOUS
 10
0.775161
 20
-0.685890
  0
VERTEX
  8
PLAN_1
 62
     2
  6
CONTINUOUS
 10
0.775669
 20
-0.682839
  0
VERTEX
  8
PLAN_1
 62
     2
  6
CONTINUOUS
 10
0.776177
 20
-0.679791
  0
VERTEX
  8
PLAN_1
 62
     2
  6
CONTINUOUS
 10
0.776177
 20
-0.649791
  0
VERTEX
  8
PLAN_1
 62
     2
  6
CONTINUOUS
 10
0.785331
 20
-0.649791
  0
VERTEX
  8
PLAN_1
 62
     2
  6
CONTINUOUS
 10
0.785331
 20
-0.704193
  0
VERTEX
  8
PLAN_1
 62
     2
  6
CONTINUOUS
 10
0.776689
 20
-0.704193
  0
SEQEND
  8
0
  0
POLYLINE
  8
PLAN_1
 62
     2
  6
CONTINUOUS
 66
     1
 40
0.003000
 41
0.003000
  0
VERTEX
  8
PLAN_1
 62
     2
  6
CONTINUOUS
 10
0.798043
 20
-0.649791
  0
VERTEX
  8
PLAN_1
 62
     2
  6
CONTINUOUS
 10
0.806685
 20
-0.649791
  0
VERTEX
  8
PLAN_1
 62
     2
  6
CONTINUOUS
 10
0.806685
 20
-0.657417
  0
VERTEX
  8
PLAN_1
 62
     2
  6
CONTINUOUS
 10
0.807193
 20
-0.657417
  0
VERTEX
  8
PLAN_1
 62
     2
  6
CONTINUOUS
 10
0.808213
 20
-0.655894
  0
VERTEX
  8
PLAN_1
 62
     2
  6
CONTINUOUS
 10
0.809228
 20
-0.654366
  0
VERTEX
  8
PLAN_1
 62
     2
  6
CONTINUOUS
 10
0.810752
 20
-0.652843
  0
VERTEX
  8
PLAN_1
 62
     2
  6
CONTINUOUS
 10
0.812280
 20
-0.651319
  0
VERTEX
  8
PLAN_1
 62
     2
  6
CONTINUOUS
 10
0.814311
 20
-0.650299
  0
VERTEX
  8
PLAN_1
 62
     2
  6
CONTINUOUS
 10
0.816854
 20
-0.649283
  0
VERTEX
  8
PLAN_1
 62
     2
  6
CONTINUOUS
 10
0.819906
 20
-0.648268
  0
VERTEX
  8
PLAN_1
 62
     2
  6
CONTINUOUS
 10
0.823465
 20
-0.648268
  0
VERTEX
  8
PLAN_1
 62
     2
  6
CONTINUOUS
 10
0.826008
 20
-0.648268
  0
VERTEX
  8
PLAN_1
 62
     2
  6
CONTINUOUS
 10
0.828547
 20
-0.648776
  0
VERTEX
  8
PLAN_1
 62
     2
  6
CONTINUOUS
 10
0.830583
 20
-0.649283
  0
VERTEX
  8
PLAN_1
 62
     2
  6
CONTINUOUS
 10
0.833126
 20
-0.650299
  0
VERTEX
  8
PLAN_1
 62
     2
  6
CONTINUOUS
 10
0.835157
 20
-0.651319
  0
VERTEX
  8
PLAN_1
 62
     2
  6
CONTINUOUS
 10
0.836685
 20
-0.652843
  0
VERTEX
  8
PLAN_1
 62
     2
  6
CONTINUOUS
 10
0.838717
 20
-0.654366
  0
VERTEX
  8
PLAN_1
 62
     2
  6
CONTINUOUS
 10
0.840244
 20
-0.655894
  0
VERTEX
  8
PLAN_1
 62
     2
  6
CONTINUOUS
 10
0.842783
 20
-0.659961
  0
VERTEX
  8
PLAN_1
 62
     2
  6
CONTINUOUS
 10
0.844311
 20
-0.664535
  0
VERTEX
  8
PLAN_1
 62
     2
  6
CONTINUOUS
 10
0.845835
 20
-0.669622
  0
VERTEX
  8
PLAN_1
 62
     2
  6
CONTINUOUS
 10
0.845835
 20
-0.675213
  0
VERTEX
  8
PLAN_1
 62
     2
  6
CONTINUOUS
 10
0.845835
 20
-0.680299
  0
VERTEX
  8
PLAN_1
 62
     2
  6
CONTINUOUS
 10
0.844819
 20
-0.685382
  0
VERTEX
  8
PLAN_1
 62
     2
  6
CONTINUOUS
 10
0.843291
 20
-0.690469
  0
VERTEX
  8
PLAN_1
 62
     2
  6
CONTINUOUS
 10
0.840752
 20
-0.695551
  0
VERTEX
  8
PLAN_1
 62
     2
  6
CONTINUOUS
 10
0.839224
 20
-0.697587
  0
VERTEX
  8
PLAN_1
 62
     2
  6
CONTINUOUS
 10
0.837701
 20
-0.699618
  0
VERTEX
  8
PLAN_1
 62
     2
  6
CONTINUOUS
 10
0.835665
 20
-0.701146
  0
VERTEX
  8
PLAN_1
 62
     2
  6
CONTINUOUS
 10
0.833634
 20
-0.702669
  0
VERTEX
  8
PLAN_1
 62
     2
  6
CONTINUOUS
 10
0.831091
 20
-0.704193
  0
VERTEX
  8
PLAN_1
 62
     2
  6
CONTINUOUS
 10
0.828547
 20
-0.704705
  0
VERTEX
  8
PLAN_1
 62
     2
  6
CONTINUOUS
 10
0.825496
 20
-0.705213
  0
VERTEX
  8
PLAN_1
 62
     2
  6
CONTINUOUS
 10
0.821937
 20
-0.705720
  0
VERTEX
  8
PLAN_1
 62
     2
  6
CONTINUOUS
 10
0.819398
 20
-0.705720
  0
VERTEX
  8
PLAN_1
 62
     2
  6
CONTINUOUS
 10
0.816854
 20
-0.705213
  0
VERTEX
  8
PLAN_1
 62
     2
  6
CONTINUOUS
 10
0.814819
 20
-0.704193
  0
VERTEX
  8
PLAN_1
 62
     2
  6
CONTINUOUS
 10
0.812787
 20
-0.703685
  0
VERTEX
  8
PLAN_1
 62
     2
  6
CONTINUOUS
 10
0.811260
 20
-0.702161
  0
VERTEX
  8
PLAN_1
 62
     2
  6
CONTINUOUS
 10
0.809736
 20
-0.701146
  0
VERTEX
  8
PLAN_1
 62
     2
  6
CONTINUOUS
 10
0.808720
 20
-0.699618
  0
VERTEX
  8
PLAN_1
 62
     2
  6
CONTINUOUS
 10
0.807701
 20
-0.698602
  0
VERTEX
  8
PLAN_1
 62
     2
  6
CONTINUOUS
 10
0.807193
 20
-0.698602
  0
VERTEX
  8
PLAN_1
 62
     2
  6
CONTINUOUS
 10
0.807193
 20
-0.725547
  0
VERTEX
  8
PLAN_1
 62
     2
  6
CONTINUOUS
 10
0.798043
 20
-0.725547
  0
VERTEX
  8
PLAN_1
 62
     2
  6
CONTINUOUS
 10
0.798043
 20
-0.649791
  0
SEQEND
  8
0
  0
POLYLINE
  8
PLAN_1
 62
     2
  6
CONTINUOUS
 66
     1
 40
0.003000
 41
0.003000
  0
VERTEX
  8
PLAN_1
 62
     2
  6
CONTINUOUS
 10
0.821937
 20
-0.697587
  0
VERTEX
  8
PLAN_1
 62
     2
  6
CONTINUOUS
 10
0.825496
 20
-0.697075
  0
VERTEX
  8
PLAN_1
 62
     2
  6
CONTINUOUS
 10
0.828547
 20
-0.696059
  0
VERTEX
  8
PLAN_1
 62
     2
  6
CONTINUOUS
 10
0.831091
 20
-0.694028
  0
VERTEX
  8
PLAN_1
 62
     2
  6
CONTINUOUS
 10
0.833126
 20
-0.691484
  0
VERTEX
  8
PLAN_1
 62
     2
  6
CONTINUOUS
 10
0.834650
 20
-0.688433
  0
VERTEX
  8
PLAN_1
 62
     2
  6
CONTINUOUS
 10
0.835665
 20
-0.684874
  0
VERTEX
  8
PLAN_1
 62
     2
  6
CONTINUOUS
 10
0.836173
 20
-0.680807
  0
VERTEX
  8
PLAN_1
 62
     2
  6
CONTINUOUS
 10
0.836685
 20
-0.676740
  0
VERTEX
  8
PLAN_1
 62
     2
  6
CONTINUOUS
 10
0.836685
 20
-0.673689
  0
VERTEX
  8
PLAN_1
 62
     2
  6
CONTINUOUS
 10
0.836173
 20
-0.670638
  0
VERTEX
  8
PLAN_1
 62
     2
  6
CONTINUOUS
 10
0.835665
 20
-0.667079
  0
VERTEX
  8
PLAN_1
 62
     2
  6
CONTINUOUS
 10
0.834142
 20
-0.664028
  0
VERTEX
  8
PLAN_1
 62
     2
  6
CONTINUOUS
 10
0.832614
 20
-0.660976
  0
VERTEX
  8
PLAN_1
 62
     2
  6
CONTINUOUS
 10
0.830075
 20
-0.658437
  0
VERTEX
  8
PLAN_1
 62
     2
  6
CONTINUOUS
 10
0.828039
 20
-0.657417
  0
VERTEX
  8
PLAN_1
 62
     2
  6
CONTINUOUS
 10
0.826516
 20
-0.656909
  0
VERTEX
  8
PLAN_1
 62
     2
  6
CONTINUOUS
 10
0.823972
 20
-0.656402
  0
VERTEX
  8
PLAN_1
 62
     2
  6
CONTINUOUS
 10
0.821429
 20
-0.656402
  0
VERTEX
  8
PLAN_1
 62
     2
  6
CONTINUOUS
 10
0.819398
 20
-0.656402
  0
VERTEX
  8
PLAN_1
 62
     2
  6
CONTINUOUS
 10
0.817362
 20
-0.656909
  0
VERTEX
  8
PLAN_1
 62
     2
  6
CONTINUOUS
 10
0.815331
 20
-0.657925
  0
VERTEX
  8
PLAN_1
 62
     2
  6
CONTINUOUS
 10
0.813803
 20
-0.658437
  0
VERTEX
  8
PLAN_1
 62
     2
  6
CONTINUOUS
 10
0.811260
 20
-0.661484
  0
VERTEX
  8
PLAN_1
 62
     2
  6
CONTINUOUS
 10
0.809228
 20
-0.664535
  0
VERTEX
  8
PLAN_1
 62
     2
  6
CONTINUOUS
 10
0.808213
 20
-0.668094
  0
VERTEX
  8
PLAN_1
 62
     2
  6
CONTINUOUS
 10
0.807193
 20
-0.672161
  0
VERTEX
  8
PLAN_1
 62
     2
  6
CONTINUOUS
 10
0.807193
 20
-0.675720
  0
VERTEX
  8
PLAN_1
 62
     2
  6
CONTINUOUS
 10
0.807193
 20
-0.679280
  0
VERTEX
  8
PLAN_1
 62
     2
  6
CONTINUOUS
 10
0.807193
 20
-0.684366
  0
VERTEX
  8
PLAN_1
 62
     2
  6
CONTINUOUS
 10
0.808720
 20
-0.688433
  0
VERTEX
  8
PLAN_1
 62
     2
  6
CONTINUOUS
 10
0.810244
 20
-0.691484
  0
VERTEX
  8
PLAN_1
 62
     2
  6
CONTINUOUS
 10
0.812280
 20
-0.694028
  0
VERTEX
  8
PLAN_1
 62
     2
  6
CONTINUOUS
 10
0.814819
 20
-0.695551
  0
VERTEX
  8
PLAN_1
 62
     2
  6
CONTINUOUS
 10
0.816854
 20
-0.697075
  0
VERTEX
  8
PLAN_1
 62
     2
  6
CONTINUOUS
 10
0.819398
 20
-0.697587
  0
VERTEX
  8
PLAN_1
 62
     2
  6
CONTINUOUS
 10
0.821937
 20
-0.697587
  0
SEQEND
  8
0
  0
POLYLINE
  8
PLAN_1
 62
     2
  6
CONTINUOUS
 66
     1
 40
0.003000
 41
0.003000
  0
VERTEX
  8
PLAN_1
 62
     2
  6
CONTINUOUS
 10
0.903287
 20
-0.686909
  0
VERTEX
  8
PLAN_1
 62
     2
  6
CONTINUOUS
 10
0.902780
 20
-0.688433
  0
VERTEX
  8
PLAN_1
 62
     2
  6
CONTINUOUS
 10
0.902272
 20
-0.689957
  0
VERTEX
  8
PLAN_1
 62
     2
  6
CONTINUOUS
 10
0.901764
 20
-0.691484
  0
VERTEX
  8
PLAN_1
 62
     2
  6
CONTINUOUS
 10
0.900748
 20
-0.693516
  0
VERTEX
  8
PLAN_1
 62
     2
  6
CONTINUOUS
 10
0.899220
 20
-0.696059
  0
VERTEX
  8
PLAN_1
 62
     2
  6
CONTINUOUS
 10
0.897697
 20
-0.698094
  0
VERTEX
  8
PLAN_1
 62
     2
  6
CONTINUOUS
 10
0.895661
 20
-0.700126
  0
VERTEX
  8
PLAN_1
 62
     2
  6
CONTINUOUS
 10
0.893630
 20
-0.701654
  0
VERTEX
  8
PLAN_1
 62
     2
  6
CONTINUOUS
 10
0.892610
 20
-0.702669
  0
VERTEX
  8
PLAN_1
 62
     2
  6
CONTINUOUS
 10
0.891087
 20
-0.703177
  0
VERTEX
  8
PLAN_1
 62
     2
  6
CONTINUOUS
 10
0.890071
 20
-0.703685
  0
VERTEX
  8
PLAN_1
 62
     2
  6
CONTINUOUS
 10
0.888543
 20
-0.704193
  0
VERTEX
  8
PLAN_1
 62
     2
  6
CONTINUOUS
 10
0.886512
 20
-0.704705
  0
VERTEX
  8
PLAN_1
 62
     2
  6
CONTINUOUS
 10
0.884476
 20
-0.705213
  0
VERTEX
  8
PLAN_1
 62
     2
  6
CONTINUOUS
 10
0.881425
 20
-0.705720
  0
VERTEX
  8
PLAN_1
 62
     2
  6
CONTINUOUS
 10
0.878374
 20
-0.705720
  0
VERTEX
  8
PLAN_1
 62
     2
  6
CONTINUOUS
 10
0.875835
 20
-0.705720
  0
VERTEX
  8
PLAN_1
 62
     2
  6
CONTINUOUS
 10
0.873291
 20
-0.705213
  0
VERTEX
  8
PLAN_1
 62
     2
  6
CONTINUOUS
 10
0.870748
 20
-0.704705
  0
VERTEX
  8
PLAN_1
 62
     2
  6
CONTINUOUS
 10
0.868205
 20
-0.703685
  0
VERTEX
  8
PLAN_1
 62
     2
  6
CONTINUOUS
 10
0.866173
 20
-0.702669
  0
VERTEX
  8
PLAN_1
 62
     2
  6
CONTINUOUS
 10
0.864138
 20
-0.701146
  0
VERTEX
  8
PLAN_1
 62
     2
  6
CONTINUOUS
 10
0.862106
 20
-0.699618
  0
VERTEX
  8
PLAN_1
 62
     2
  6
CONTINUOUS
 10
0.860579
 20
-0.698094
  0
VERTEX
  8
PLAN_1
 62
     2
  6
CONTINUOUS
 10
0.858039
 20
-0.694028
  0
VERTEX
  8
PLAN_1
 62
     2
  6
CONTINUOUS
 10
0.856004
 20
-0.689449
  0
VERTEX
  8
PLAN_1
 62
     2
  6
CONTINUOUS
 10
0.854480
 20
-0.683858
  0
VERTEX
  8
PLAN_1
 62
     2
  6
CONTINUOUS
 10
0.854480
 20
-0.678264
  0
VERTEX
  8
PLAN_1
 62
     2
  6
CONTINUOUS
 10
0.854480
 20
-0.672161
  0
VERTEX
  8
PLAN_1
 62
     2
  6
CONTINUOUS
 10
0.856004
 20
-0.666571
  0
VERTEX
  8
PLAN_1
 62
     2
  6
CONTINUOUS
 10
0.856512
 20
-0.664028
  0
VERTEX
  8
PLAN_1
 62
     2
  6
CONTINUOUS
 10
0.857528
 20
-0.661484
  0
VERTEX
  8
PLAN_1
 62
     2
  6
CONTINUOUS
 10
0.859055
 20
-0.658945
  0
VERTEX
  8
PLAN_1
 62
     2
  6
CONTINUOUS
 10
0.860579
 20
-0.656909
  0
VERTEX
  8
PLAN_1
 62
     2
  6
CONTINUOUS
 10
0.862106
 20
-0.654878
  0
VERTEX
  8
PLAN_1
 62
     2
  6
CONTINUOUS
 10
0.864138
 20
-0.653350
  0
VERTEX
  8
PLAN_1
 62
     2
  6
CONTINUOUS
 10
0.866173
 20
-0.651827
  0
VERTEX
  8
PLAN_1
 62
     2
  6
CONTINUOUS
 10
0.868717
 20
-0.650299
  0
VERTEX
  8
PLAN_1
 62
     2
  6
CONTINUOUS
 10
0.871256
 20
-0.649283
  0
VERTEX
  8
PLAN_1
 62
     2
  6
CONTINUOUS
 10
0.874307
 20
-0.648776
  0
VERTEX
  8
PLAN_1
 62
     2
  6
CONTINUOUS
 10
0.877358
 20
-0.648268
  0
VERTEX
  8
PLAN_1
 62
     2
  6
CONTINUOUS
 10
0.880409
 20
-0.648268
  0
VERTEX
  8
PLAN_1
 62
     2
  6
CONTINUOUS
 10
0.883461
 20
-0.648268
  0
VERTEX
  8
PLAN_1
 62
     2
  6
CONTINUOUS
 10
0.886000
 20
-0.648776
  0
VERTEX
  8
PLAN_1
 62
     2
  6
CONTINUOUS
 10
0.888543
 20
-0.649283
  0
VERTEX
  8
PLAN_1
 62
     2
  6
CONTINUOUS
 10
0.890579
 20
-0.650299
  0
VERTEX
  8
PLAN_1
 62
     2
  6
CONTINUOUS
 10
0.892610
 20
-0.651827
  0
VERTEX
  8
PLAN_1
 62
     2
  6
CONTINUOUS
 10
0.894646
 20
-0.652843
  0
VERTEX
  8
PLAN_1
 62
     2
  6
CONTINUOUS
 10
0.896169
 20
-0.654878
  0
VERTEX
  8
PLAN_1
 62
     2
  6
CONTINUOUS
 10
0.898205
 20
-0.656909
  0
VERTEX
  8
PLAN_1
 62
     2
  6
CONTINUOUS
 10
0.900748
 20
-0.661484
  0
VERTEX
  8
PLAN_1
 62
     2
  6
CONTINUOUS
 10
0.902272
 20
-0.666571
  0
VERTEX
  8
PLAN_1
 62
     2
  6
CONTINUOUS
 10
0.903287
 20
-0.673181
  0
VERTEX
  8
PLAN_1
 62
     2
  6
CONTINUOUS
 10
0.903795
 20
-0.679791
  0
VERTEX
  8
PLAN_1
 62
     2
  6
CONTINUOUS
 10
0.864138
 20
-0.679791
  0
VERTEX
  8
PLAN_1
 62
     2
  6
CONTINUOUS
 10
0.864138
 20
-0.683858
  0
VERTEX
  8
PLAN_1
 62
     2
  6
CONTINUOUS
 10
0.865157
 20
-0.687417
  0
VERTEX
  8
PLAN_1
 62
     2
  6
CONTINUOUS
 10
0.866173
 20
-0.690469
  0
VERTEX
  8
PLAN_1
 62
     2
  6
CONTINUOUS
 10
0.868205
 20
-0.693008
  0
VERTEX
  8
PLAN_1
 62
     2
  6
CONTINUOUS
 10
0.870240
 20
-0.695043
  0
VERTEX
  8
PLAN_1
 62
     2
  6
CONTINUOUS
 10
0.872783
 20
-0.696567
  0
VERTEX
  8
PLAN_1
 62
     2
  6
CONTINUOUS
 10
0.876343
 20
-0.697587
  0
VERTEX
  8
PLAN_1
 62
     2
  6
CONTINUOUS
 10
0.879902
 20
-0.697587
  0
VERTEX
  8
PLAN_1
 62
     2
  6
CONTINUOUS
 10
0.882953
 20
-0.697587
  0
VERTEX
  8
PLAN_1
 62
     2
  6
CONTINUOUS
 10
0.885492
 20
-0.696567
  0
VERTEX
  8
PLAN_1
 62
     2
  6
CONTINUOUS
 10
0.888035
 20
-0.695551
  0
VERTEX
  8
PLAN_1
 62
     2
  6
CONTINUOUS
 10
0.890071
 20
-0.694028
  0
VERTEX
  8
PLAN_1
 62
     2
  6
CONTINUOUS
 10
0.891594
 20
-0.691992
  0
VERTEX
  8
PLAN_1
 62
     2
  6
CONTINUOUS
 10
0.892610
 20
-0.690469
  0
VERTEX
  8
PLAN_1
 62
     2
  6
CONTINUOUS
 10
0.893630
 20
-0.688433
  0
VERTEX
  8
PLAN_1
 62
     2
  6
CONTINUOUS
 10
0.894138
 20
-0.686909
  0
VERTEX
  8
PLAN_1
 62
     2
  6
CONTINUOUS
 10
0.903287
 20
-0.686909
  0
SEQEND
  8
0
  0
POLYLINE
  8
PLAN_1
 62
     2
  6
CONTINUOUS
 66
     1
 40
0.003000
 41
0.003000
  0
VERTEX
  8
PLAN_1
 62
     2
  6
CONTINUOUS
 10
0.894138
 20
-0.672673
  0
VERTEX
  8
PLAN_1
 62
     2
  6
CONTINUOUS
 10
0.894138
 20
-0.669622
  0
VERTEX
  8
PLAN_1
 62
     2
  6
CONTINUOUS
 10
0.893118
 20
-0.666571
  0
VERTEX
  8
PLAN_1
 62
     2
  6
CONTINUOUS
 10
0.892102
 20
-0.663520
  0
VERTEX
  8
PLAN_1
 62
     2
  6
CONTINUOUS
 10
0.890579
 20
-0.661484
  0
VERTEX
  8
PLAN_1
 62
     2
  6
CONTINUOUS
 10
0.888543
 20
-0.659453
  0
VERTEX
  8
PLAN_1
 62
     2
  6
CONTINUOUS
 10
0.886000
 20
-0.657417
  0
VERTEX
  8
PLAN_1
 62
     2
  6
CONTINUOUS
 10
0.882953
 20
-0.656909
  0
VERTEX
  8
PLAN_1
 62
     2
  6
CONTINUOUS
 10
0.878882
 20
-0.656402
  0
VERTEX
  8
PLAN_1
 62
     2
  6
CONTINUOUS
 10
0.875835
 20
-0.656909
  0
VERTEX
  8
PLAN_1
 62
     2
  6
CONTINUOUS
 10
0.873291
 20
-0.657417
  0
VERTEX
  8
PLAN_1
 62
     2
  6
CONTINUOUS
 10
0.870748
 20
-0.659453
  0
VERTEX
  8
PLAN_1
 62
     2
  6
CONTINUOUS
 10
0.868205
 20
-0.661484
  0
VERTEX
  8
PLAN_1
 62
     2
  6
CONTINUOUS
 10
0.866681
 20
-0.663520
  0
VERTEX
  8
PLAN_1
 62
     2
  6
CONTINUOUS
 10
0.865157
 20
-0.666571
  0
VERTEX
  8
PLAN_1
 62
     2
  6
CONTINUOUS
 10
0.864138
 20
-0.669622
  0
VERTEX
  8
PLAN_1
 62
     2
  6
CONTINUOUS
 10
0.864138
 20
-0.672673
  0
VERTEX
  8
PLAN_1
 62
     2
  6
CONTINUOUS
 10
0.894138
 20
-0.672673
  0
SEQEND
  8
0
  0
POLYLINE
  8
PLAN_1
 62
     2
  6
CONTINUOUS
 66
     1
 40
0.003000
 41
0.003000
  0
VERTEX
  8
PLAN_1
 62
     2
  6
CONTINUOUS
 10
0.974469
 20
-0.704193
  0
VERTEX
  8
PLAN_1
 62
     2
  6
CONTINUOUS
 10
0.964299
 20
-0.704193
  0
VERTEX
  8
PLAN_1
 62
     2
  6
CONTINUOUS
 10
0.964299
 20
-0.652335
  0
VERTEX
  8
PLAN_1
 62
     2
  6
CONTINUOUS
 10
0.947524
 20
-0.652335
  0
VERTEX
  8
PLAN_1
 62
     2
  6
CONTINUOUS
 10
0.947524
 20
-0.644709
  0
VERTEX
  8
PLAN_1
 62
     2
  6
CONTINUOUS
 10
0.951591
 20
-0.644709
  0
VERTEX
  8
PLAN_1
 62
     2
  6
CONTINUOUS
 10
0.955150
 20
-0.644201
  0
VERTEX
  8
PLAN_1
 62
     2
  6
CONTINUOUS
 10
0.958201
 20
-0.643181
  0
VERTEX
  8
PLAN_1
 62
     2
  6
CONTINUOUS
 10
0.960740
 20
-0.642165
  0
VERTEX
  8
PLAN_1
 62
     2
  6
CONTINUOUS
 10
0.962776
 20
-0.640130
  0
VERTEX
  8
PLAN_1
 62
     2
  6
CONTINUOUS
 10
0.964299
 20
-0.638098
  0
VERTEX
  8
PLAN_1
 62
     2
  6
CONTINUOUS
 10
0.965827
 20
-0.635047
  0
VERTEX
  8
PLAN_1
 62
     2
  6
CONTINUOUS
 10
0.967350
 20
-0.630980
  0
VERTEX
  8
PLAN_1
 62
     2
  6
CONTINUOUS
 10
0.974469
 20
-0.630980
  0
VERTEX
  8
PLAN_1
 62
     2
  6
CONTINUOUS
 10
0.974469
 20
-0.704193
  0
SEQEND
  8
0
  0
POLYLINE
  8
PLAN_1
 62
     2
  6
CONTINUOUS
 66
     1
 40
0.003000
 41
0.003000
  0
VERTEX
  8
PLAN_1
 62
     2
  6
CONTINUOUS
 10
1.018197
 20
-0.662504
  0
VERTEX
  8
PLAN_1
 62
     2
  6
CONTINUOUS
 10
1.018705
 20
-0.662504
  0
VERTEX
  8
PLAN_1
 62
     2
  6
CONTINUOUS
 10
1.019213
 20
-0.662504
  0
VERTEX
  8
PLAN_1
 62
     2
  6
CONTINUOUS
 10
1.019720
 20
-0.662504
  0
VERTEX
  8
PLAN_1
 62
     2
  6
CONTINUOUS
 10
1.020736
 20
-0.662504
  0
VERTEX
  8
PLAN_1
 62
     2
  6
CONTINUOUS
 10
1.021244
 20
-0.662504
  0
VERTEX
  8
PLAN_1
 62
     2
  6
CONTINUOUS
 10
1.021756
 20
-0.662504
  0
VERTEX
  8
PLAN_1
 62
     2
  6
CONTINUOUS
 10
1.022264
 20
-0.662504
  0
VERTEX
  8
PLAN_1
 62
     2
  6
CONTINUOUS
 10
1.022772
 20
-0.662504
  0
VERTEX
  8
PLAN_1
 62
     2
  6
CONTINUOUS
 10
1.025315
 20
-0.662504
  0
VERTEX
  8
PLAN_1
 62
     2
  6
CONTINUOUS
 10
1.027854
 20
-0.661996
  0
VERTEX
  8
PLAN_1
 62
     2
  6
CONTINUOUS
 10
1.030398
 20
-0.661484
  0
VERTEX
  8
PLAN_1
 62
     2
  6
CONTINUOUS
 10
1.032433
 20
-0.659961
  0
VERTEX
  8
PLAN_1
 62
     2
  6
CONTINUOUS
 10
1.034465
 20
-0.658437
  0
VERTEX
  8
PLAN_1
 62
     2
  6
CONTINUOUS
 10
1.035480
 20
-0.656402
  0
VERTEX
  8
PLAN_1
 62
     2
  6
CONTINUOUS
 10
1.036500
 20
-0.653858
  0
VERTEX
  8
PLAN_1
 62
     2
  6
CONTINUOUS
 10
1.037008
 20
-0.650807
  0
VERTEX
  8
PLAN_1
 62
     2
  6
CONTINUOUS
 10
1.036500
 20
-0.648776
  0
VERTEX
  8
PLAN_1
 62
     2
  6
CONTINUOUS
 10
1.036500
 20
-0.647248
  0
VERTEX
  8
PLAN_1
 62
     2
  6
CONTINUOUS
 10
1.035480
 20
-0.645217
  0
VERTEX
  8
PLAN_1
 62
     2
  6
CONTINUOUS
 10
1.033957
 20
-0.643181
  0
VERTEX
  8
PLAN_1
 62
     2
  6
CONTINUOUS
 10
1.032433
 20
-0.641657
  0
VERTEX
  8
PLAN_1
 62
     2
  6
CONTINUOUS
 10
1.029890
 20
-0.640130
  0
VERTEX
  8
PLAN_1
 62
     2
  6
CONTINUOUS
 10
1.026839
 20
-0.639622
  0
VERTEX
  8
PLAN_1
 62
     2
  6
CONTINUOUS
 10
1.023280
 20
-0.639114
  0
VERTEX
  8
PLAN_1
 62
     2
  6
CONTINUOUS
 10
1.019213
 20
-0.639622
  0
VERTEX
  8
PLAN_1
 62
     2
  6
CONTINUOUS
 10
1.015654
 20
-0.640642
  0
VERTEX
  8
PLAN_1
 62
     2
  6
CONTINUOUS
 10
1.013110
 20
-0.642673
  0
VERTEX
  8
PLAN_1
 62
     2
  6
CONTINUOUS
 10
1.011587
 20
-0.645217
  0
VERTEX
  8
PLAN_1
 62
     2
  6
CONTINUOUS
 10
1.010567
 20
-0.647760
  0
VERTEX
  8
PLAN_1
 62
     2
  6
CONTINUOUS
 10
1.009551
 20
-0.650299
  0
VERTEX
  8
PLAN_1
 62
     2
  6
CONTINUOUS
 10
1.009043
 20
-0.652843
  0
VERTEX
  8
PLAN_1
 62
     2
  6
CONTINUOUS
 10
1.009043
 20
-0.654878
  0
VERTEX
  8
PLAN_1
 62
     2
  6
CONTINUOUS
 10
1.000402
 20
-0.654878
  0
VERTEX
  8
PLAN_1
 62
     2
  6
CONTINUOUS
 10
1.000402
 20
-0.650807
  0
VERTEX
  8
PLAN_1
 62
     2
  6
CONTINUOUS
 10
1.000909
 20
-0.646740
  0
VERTEX
  8
PLAN_1
 62
     2
  6
CONTINUOUS
 10
1.002433
 20
-0.642673
  0
VERTEX
  8
PLAN_1
 62
     2
  6
CONTINUOUS
 10
1.004976
 20
-0.639114
  0
VERTEX
  8
PLAN_1
 62
     2
  6
CONTINUOUS
 10
1.005992
 20
-0.637083
  0
VERTEX
  8
PLAN_1
 62
     2
  6
CONTINUOUS
 10
1.008028
 20
-0.635555
  0
VERTEX
  8
PLAN_1
 62
     2
  6
CONTINUOUS
 10
1.009551
 20
-0.634539
  0
VERTEX
  8
PLAN_1
 62
     2
  6
CONTINUOUS
 10
1.012094
 20
-0.633012
  0
VERTEX
  8
PLAN_1
 62
     2
  6
CONTINUOUS
 10
1.014638
 20
-0.631996
  0
VERTEX
  8
PLAN_1
 62
     2
  6
CONTINUOUS
 10
1.017177
 20
-0.631488
  0
VERTEX
  8
PLAN_1
 62
     2
  6
CONTINUOUS
 10
1.020228
 20
-0.630980
  0
VERTEX
  8
PLAN_1
 62
     2
  6
CONTINUOUS
 10
1.023787
 20
-0.630980
  0
VERTEX
  8
PLAN_1
 62
     2
  6
CONTINUOUS
 10
1.028874
 20
-0.631488
  0
VERTEX
  8
PLAN_1
 62
     2
  6
CONTINUOUS
 10
1.033449
 20
-0.632504
  0
VERTEX
  8
PLAN_1
 62
     2
  6
CONTINUOUS
 10
1.037008
 20
-0.634031
  0
VERTEX
  8
PLAN_1
 62
     2
  6
CONTINUOUS
 10
1.040567
 20
-0.636571
  0
VERTEX
  8
PLAN_1
 62
     2
  6
CONTINUOUS
 10
1.043110
 20
-0.639114
  0
VERTEX
  8
PLAN_1
 62
     2
  6
CONTINUOUS
 10
1.044634
 20
-0.642673
  0
VERTEX
  8
PLAN_1
 62
     2
  6
CONTINUOUS
 10
1.046157
 20
-0.646232
  0
VERTEX
  8
PLAN_1
 62
     2
  6
CONTINUOUS
 10
1.046157
 20
-0.650299
  0
VERTEX
  8
PLAN_1
 62
     2
  6
CONTINUOUS
 10
1.046157
 20
-0.653350
  0
VERTEX
  8
PLAN_1
 62
     2
  6
CONTINUOUS
 10
1.045650
 20
-0.656402
  0
VERTEX
  8
PLAN_1
 62
     2
  6
CONTINUOUS
 10
1.044634
 20
-0.658945
  0
VERTEX
  8
PLAN_1
 62
     2
  6
CONTINUOUS
 10
1.043110
 20
-0.660976
  0
VERTEX
  8
PLAN_1
 62
     2
  6
CONTINUOUS
 10
1.041583
 20
-0.662504
  0
VERTEX
  8
PLAN_1
 62
     2
  6
CONTINUOUS
 10
1.040059
 20
-0.663520
  0
VERTEX
  8
PLAN_1
 62
     2
  6
CONTINUOUS
 10
1.038531
 20
-0.664535
  0
VERTEX
  8
PLAN_1
 62
     2
  6
CONTINUOUS
 10
1.037008
 20
-0.665043
  0
VERTEX
  8
PLAN_1
 62
     2
  6
CONTINUOUS
 10
1.037008
 20
-0.665555
  0
VERTEX
  8
PLAN_1
 62
     2
  6
CONTINUOUS
 10
1.039551
 20
-0.666571
  0
VERTEX
  8
PLAN_1
 62
     2
  6
CONTINUOUS
 10
1.042091
 20
-0.667587
  0
VERTEX
  8
PLAN_1
 62
     2
  6
CONTINUOUS
 10
1.044126
 20
-0.669114
  0
VERTEX
  8
PLAN_1
 62
     2
  6
CONTINUOUS
 10
1.045650
 20
-0.671146
  0
VERTEX
  8
PLAN_1
 62
     2
  6
CONTINUOUS
 10
1.047177
 20
-0.673689
  0
VERTEX
  8
PLAN_1
 62
     2
  6
CONTINUOUS
 10
1.048193
 20
-0.676232
  0
VERTEX
  8
PLAN_1
 62
     2
  6
CONTINUOUS
 10
1.048701
 20
-0.679280
  0
VERTEX
  8
PLAN_1
 62
     2
  6
CONTINUOUS
 10
1.049209
 20
-0.682331
  0
VERTEX
  8
PLAN_1
 62
     2
  6
CONTINUOUS
 10
1.048701
 20
-0.686909
  0
VERTEX
  8
PLAN_1
 62
     2
  6
CONTINUOUS
 10
1.047685
 20
-0.691484
  0
VERTEX
  8
PLAN_1
 62
     2
  6
CONTINUOUS
 10
1.045650
 20
-0.695043
  0
VERTEX
  8
PLAN_1
 62
     2
  6
CONTINUOUS
 10
1.043110
 20
-0.698602
  0
VERTEX
  8
PLAN_1
 62
     2
  6
CONTINUOUS
 10
1.041075
 20
-0.700126
  0
VERTEX
  8
PLAN_1
 62
     2
  6
CONTINUOUS
 10
1.039551
 20
-0.701654
  0
VERTEX
  8
PLAN_1
 62
     2
  6
CONTINUOUS
 10
1.037008
 20
-0.703177
  0
VERTEX
  8
PLAN_1
 62
     2
  6
CONTINUOUS
 10
1.034972
 20
-0.704193
  0
VERTEX
  8
PLAN_1
 62
     2
  6
CONTINUOUS
 10
1.031921
 20
-0.704705
  0
VERTEX
  8
PLAN_1
 62
     2
  6
CONTINUOUS
 10
1.029382
 20
-0.705720
  0
VERTEX
  8
PLAN_1
 62
     2
  6
CONTINUOUS
 10
1.026331
 20
-0.705720
  0
VERTEX
  8
PLAN_1
 62
     2
  6
CONTINUOUS
 10
1.022772
 20
-0.706228
  0
VERTEX
  8
PLAN_1
 62
     2
  6
CONTINUOUS
 10
1.020736
 20
-0.706228
  0
VERTEX
  8
PLAN_1
 62
     2
  6
CONTINUOUS
 10
1.018705
 20
-0.705720
  0
VERTEX
  8
PLAN_1
 62
     2
  6
CONTINUOUS
 10
1.017177
 20
-0.705720
  0
VERTEX
  8
PLAN_1
 62
     2
  6
CONTINUOUS
 10
1.015146
 20
-0.705213
  0
VERTEX
  8
PLAN_1
 62
     2
  6
CONTINUOUS
 10
1.013618
 20
-0.704705
  0
VERTEX
  8
PLAN_1
 62
     2
  6
CONTINUOUS
 10
1.012094
 20
-0.704193
  0
VERTEX
  8
PLAN_1
 62
     2
  6
CONTINUOUS
 10
1.010567
 20
-0.703685
  0
VERTEX
  8
PLAN_1
 62
     2
  6
CONTINUOUS
 10
1.009551
 20
-0.702669
  0
VERTEX
  8
PLAN_1
 62
     2
  6
CONTINUOUS
 10
1.006500
 20
-0.701146
  0
VERTEX
  8
PLAN_1
 62
     2
  6
CONTINUOUS
 10
1.004469
 20
-0.699110
  0
VERTEX
  8
PLAN_1
 62
     2
  6
CONTINUOUS
 10
1.002433
 20
-0.696567
  0
VERTEX
  8
PLAN_1
 62
     2
  6
CONTINUOUS
 10
1.000909
 20
-0.694028
  0
VERTEX
  8
PLAN_1
 62
     2
  6
CONTINUOUS
 10
0.999890
 20
-0.690976
  0
VERTEX
  8
PLAN_1
 62
     2
  6
CONTINUOUS
 10
0.999382
 20
-0.687925
  0
VERTEX
  8
PLAN_1
 62
     2
  6
CONTINUOUS
 10
0.998874
 20
-0.684874
  0
VERTEX
  8
PLAN_1
 62
     2
  6
CONTINUOUS
 10
0.998366
 20
-0.681823
  0
VERTEX
  8
PLAN_1
 62
     2
  6
CONTINUOUS
 10
1.008028
 20
-0.681823
  0
VERTEX
  8
PLAN_1
 62
     2
  6
CONTINUOUS
 10
1.008028
 20
-0.684366
  0
VERTEX
  8
PLAN_1
 62
     2
  6
CONTINUOUS
 10
1.008535
 20
-0.686909
  0
VERTEX
  8
PLAN_1
 62
     2
  6
CONTINUOUS
 10
1.009551
 20
-0.689957
  0
VERTEX
  8
PLAN_1
 62
     2
  6
CONTINUOUS
 10
1.010567
 20
-0.692500
  0
VERTEX
  8
PLAN_1
 62
     2
  6
CONTINUOUS
 10
1.012602
 20
-0.694535
  0
VERTEX
  8
PLAN_1
 62
     2
  6
CONTINUOUS
 10
1.015146
 20
-0.696059
  0
VERTEX
  8
PLAN_1
 62
     2
  6
CONTINUOUS
 10
1.018705
 20
-0.697587
  0
VERTEX
  8
PLAN_1
 62
     2
  6
CONTINUOUS
 10
1.023280
 20
-0.697587
  0
VERTEX
  8
PLAN_1
 62
     2
  6
CONTINUOUS
 10
1.026839
 20
-0.697587
  0
VERTEX
  8
PLAN_1
 62
     2
  6
CONTINUOUS
 10
1.029890
 20
-0.696567
  0
VERTEX
  8
PLAN_1
 62
     2
  6
CONTINUOUS
 10
1.032433
 20
-0.695551
  0
VERTEX
  8
PLAN_1
 62
     2
  6
CONTINUOUS
 10
1.034972
 20
-0.694028
  0
VERTEX
  8
PLAN_1
 62
     2
  6
CONTINUOUS
 10
1.037008
 20
-0.691992
  0
VERTEX
  8
PLAN_1
 62
     2
  6
CONTINUOUS
 10
1.038024
 20
-0.689449
  0
VERTEX
  8
PLAN_1
 62
     2
  6
CONTINUOUS
 10
1.039039
 20
-0.686909
  0
VERTEX
  8
PLAN_1
 62
     2
  6
CONTINUOUS
 10
1.039551
 20
-0.683858
  0
VERTEX
  8
PLAN_1
 62
     2
  6
CONTINUOUS
 10
1.039039
 20
-0.681315
  0
VERTEX
  8
PLAN_1
 62
     2
  6
CONTINUOUS
 10
1.039039
 20
-0.679791
  0
VERTEX
  8
PLAN_1
 62
     2
  6
CONTINUOUS
 10
1.038531
 20
-0.677756
  0
VERTEX
  8
PLAN_1
 62
     2
  6
CONTINUOUS
 10
1.037516
 20
-0.676232
  0
VERTEX
  8
PLAN_1
 62
     2
  6
CONTINUOUS
 10
1.035480
 20
-0.674197
  0
VERTEX
  8
PLAN_1
 62
     2
  6
CONTINUOUS
 10
1.032941
 20
-0.672161
  0
VERTEX
  8
PLAN_1
 62
     2
  6
CONTINUOUS
 10
1.030398
 20
-0.671146
  0
VERTEX
  8
PLAN_1
 62
     2
  6
CONTINUOUS
 10
1.027346
 20
-0.670638
  0
VERTEX
  8
PLAN_1
 62
     2
  6
CONTINUOUS
 10
1.024803
 20
-0.670130
  0
VERTEX
  8
PLAN_1
 62
     2
  6
CONTINUOUS
 10
1.022264
 20
-0.670130
  0
VERTEX
  8
PLAN_1
 62
     2
  6
CONTINUOUS
 10
1.021756
 20
-0.670130
  0
VERTEX
  8
PLAN_1
 62
     2
  6
CONTINUOUS
 10
1.021244
 20
-0.670130
  0
VERTEX
  8
PLAN_1
 62
     2
  6
CONTINUOUS
 10
1.020736
 20
-0.670130
  0
VERTEX
  8
PLAN_1
 62
     2
  6
CONTINUOUS
 10
1.020228
 20
-0.670130
  0
VERTEX
  8
PLAN_1
 62
     2
  6
CONTINUOUS
 10
1.019720
 20
-0.670130
  0
VERTEX
  8
PLAN_1
 62
     2
  6
CONTINUOUS
 10
1.019213
 20
-0.670130
  0
VERTEX
  8
PLAN_1
 62
     2
  6
CONTINUOUS
 10
1.018705
 20
-0.670130
  0
VERTEX
  8
PLAN_1
 62
     2
  6
CONTINUOUS
 10
1.018197
 20
-0.670130
  0
VERTEX
  8
PLAN_1
 62
     2
  6
CONTINUOUS
 10
1.018197
 20
-0.662504
  0
SEQEND
  8
0
  0
SOLID
  8
PLAN_1
 62
     2
 10
-0.386110
 20
-0.394555
 11
-0.335776
 21
-0.429638
 12
-0.386110
 22
-0.394555
 13
-0.325098
 23
-0.400150
  0
POLYLINE
  8
PLAN_1
 62
     2
  6
CONTINUOUS
 66
     1
 40
0.003000
 41
0.003000
  0
VERTEX
  8
PLAN_1
 62
     2
  6
CONTINUOUS
 10
-0.386110
 20
-0.394555
  0
VERTEX
  8
PLAN_1
 62
     2
  6
CONTINUOUS
 10
-0.335776
 20
-0.429638
  0
VERTEX
  8
PLAN_1
 62
     2
  6
CONTINUOUS
 10
-0.325098
 20
-0.400150
  0
VERTEX
  8
PLAN_1
 62
     2
  6
CONTINUOUS
 10
-0.386110
 20
-0.394555
  0
SEQEND
  8
0
  0
POLYLINE
  8
PLAN_1
 62
     2
  6
CONTINUOUS
 66
     1
 40
0.004067
 41
0.004067
  0
VERTEX
  8
PLAN_1
 62
     2
  6
CONTINUOUS
 10
-0.351028
 20
-0.407268
  0
VERTEX
  8
PLAN_1
 62
     2
  6
CONTINUOUS
 10
0.190969
 20
-0.602508
  0
VERTEX
  8
PLAN_1
 62
     2
  6
CONTINUOUS
 10
1.149882
 20
-0.602508
  0
SEQEND
  8
0
  0
POLYLINE
  8
PLAN_1
 62
     2
  6
CONTINUOUS
 66
     1
 40
0.004067
 41
0.004067
  0
VERTEX
  8
PLAN_1
 62
     2
  6
CONTINUOUS
 10
0.118768
 20
0.157098
  0
VERTEX
  8
PLAN_1
 62
     2
  6
CONTINUOUS
 10
0.118768
 20
-0.549122
  0
SEQEND
  8
0
  0
POLYLINE
  8
PLAN_1
 62
     2
  6
CONTINUOUS
 66
     1
 40
0.004067
 41
0.004067
  0
VERTEX
  8
PLAN_1
 62
     2
  6
CONTINUOUS
 10
-1.383154
 20
-0.676232
  0
VERTEX
  8
PLAN_1
 62
     2
  6
CONTINUOUS
 10
0.089280
 20
-0.676232
  0
SEQEND
  8
0
  0
SOLID
  8
PLAN_1
 62
     2
 10
0.118768
 20
-0.676232
 11
0.059791
 21
-0.660469
 12
0.118768
 22
-0.676232
 13
0.059791
 23
-0.691992
  0
POLYLINE
  8
PLAN_1
 62
     2
  6
CONTINUOUS
 66
     1
 40
0.003000
 41
0.003000
  0
VERTEX
  8
PLAN_1
 62
     2
  6
CONTINUOUS
 10
0.118768
 20
-0.676232
  0
VERTEX
  8
PLAN_1
 62
     2
  6
CONTINUOUS
 10
0.059791
 20
-0.660469
  0
VERTEX
  8
PLAN_1
 62
     2
  6
CONTINUOUS
 10
0.059791
 20
-0.691992
  0
VERTEX
  8
PLAN_1
 62
     2
  6
CONTINUOUS
 10
0.118768
 20
-0.676232
  0
SEQEND
  8
0
  0
SOLID
  8
PLAN_1
 62
     2
 10
-1.413154
 20
-0.676232
 11
-1.353665
 21
-0.660469
 12
-1.413154
 22
-0.676232
 13
-1.353665
 23
-0.691992
  0
POLYLINE
  8
PLAN_1
 62
     2
  6
CONTINUOUS
 66
     1
 40
0.003000
 41
0.003000
  0
VERTEX
  8
PLAN_1
 62
     2
  6
CONTINUOUS
 10
-1.413154
 20
-0.676232
  0
VERTEX
  8
PLAN_1
 62
     2
  6
CONTINUOUS
 10
-1.353665
 20
-0.660469
  0
VERTEX
  8
PLAN_1
 62
     2
  6
CONTINUOUS
 10
-1.353665
 20
-0.691992
  0
VERTEX
  8
PLAN_1
 62
     2
  6
CONTINUOUS
 10
-1.413154
 20
-0.676232
  0
SEQEND
  8
0
  0
POLYLINE
  8
PLAN_1
 62
     2
  6
CONTINUOUS
 66
     1
 40
0.003000
 41
0.003000
  0
VERTEX
  8
PLAN_1
 62
     2
  6
CONTINUOUS
 10
-0.682528
 20
-0.611150
  0
VERTEX
  8
PLAN_1
 62
     2
  6
CONTINUOUS
 10
-0.681512
 20
-0.611150
  0
VERTEX
  8
PLAN_1
 62
     2
  6
CONTINUOUS
 10
-0.681004
 20
-0.611150
  0
VERTEX
  8
PLAN_1
 62
     2
  6
CONTINUOUS
 10
-0.680496
 20
-0.611150
  0
VERTEX
  8
PLAN_1
 62
     2
  6
CONTINUOUS
 10
-0.679984
 20
-0.611150
  0
VERTEX
  8
PLAN_1
 62
     2
  6
CONTINUOUS
 10
-0.679476
 20
-0.611150
  0
VERTEX
  8
PLAN_1
 62
     2
  6
CONTINUOUS
 10
-0.678969
 20
-0.611150
  0
VERTEX
  8
PLAN_1
 62
     2
  6
CONTINUOUS
 10
-0.677953
 20
-0.611657
  0
VERTEX
  8
PLAN_1
 62
     2
  6
CONTINUOUS
 10
-0.677445
 20
-0.611657
  0
VERTEX
  8
PLAN_1
 62
     2
  6
CONTINUOUS
 10
-0.674902
 20
-0.611150
  0
VERTEX
  8
PLAN_1
 62
     2
  6
CONTINUOUS
 10
-0.672358
 20
-0.610642
  0
VERTEX
  8
PLAN_1
 62
     2
  6
CONTINUOUS
 10
-0.669819
 20
-0.610134
  0
VERTEX
  8
PLAN_1
 62
     2
  6
CONTINUOUS
 10
-0.667783
 20
-0.609118
  0
VERTEX
  8
PLAN_1
 62
     2
  6
CONTINUOUS
 10
-0.666260
 20
-0.607083
  0
VERTEX
  8
PLAN_1
 62
     2
  6
CONTINUOUS
 10
-0.664732
 20
-0.605047
  0
VERTEX
  8
PLAN_1
 62
     2
  6
CONTINUOUS
 10
-0.663717
 20
-0.602508
  0
VERTEX
  8
PLAN_1
 62
     2
  6
CONTINUOUS
 10
-0.663717
 20
-0.599457
  0
VERTEX
  8
PLAN_1
 62
     2
  6
CONTINUOUS
 10
-0.663717
 20
-0.597929
  0
VERTEX
  8
PLAN_1
 62
     2
  6
CONTINUOUS
 10
-0.664224
 20
-0.595898
  0
VERTEX
  8
PLAN_1
 62
     2
  6
CONTINUOUS
 10
-0.665240
 20
-0.593862
  0
VERTEX
  8
PLAN_1
 62
     2
  6
CONTINUOUS
 10
-0.666260
 20
-0.591831
  0
VERTEX
  8
PLAN_1
 62
     2
  6
CONTINUOUS
 10
-0.668291
 20
-0.590303
  0
VERTEX
  8
PLAN_1
 62
     2
  6
CONTINUOUS
 10
-0.670327
 20
-0.589287
  0
VERTEX
  8
PLAN_1
 62
     2
  6
CONTINUOUS
 10
-0.673378
 20
-0.588272
  0
VERTEX
  8
PLAN_1
 62
     2
  6
CONTINUOUS
 10
-0.676937
 20
-0.587764
  0
VERTEX
  8
PLAN_1
 62
     2
  6
CONTINUOUS
 10
-0.681512
 20
-0.588272
  0
VERTEX
  8
PLAN_1
 62
     2
  6
CONTINUOUS
 10
-0.684563
 20
-0.589795
  0
VERTEX
  8
PLAN_1
 62
     2
  6
CONTINUOUS
 10
-0.687102
 20
-0.591323
  0
VERTEX
  8
PLAN_1
 62
     2
  6
CONTINUOUS
 10
-0.689138
 20
-0.593862
  0
VERTEX
  8
PLAN_1
 62
     2
  6
CONTINUOUS
 10
-0.690154
 20
-0.596406
  0
VERTEX
  8
PLAN_1
 62
     2
  6
CONTINUOUS
 10
-0.690661
 20
-0.598949
  0
VERTEX
  8
PLAN_1
 62
     2
  6
CONTINUOUS
 10
-0.691173
 20
-0.601488
  0
VERTEX
  8
PLAN_1
 62
     2
  6
CONTINUOUS
 10
-0.691173
 20
-0.603524
  0
VERTEX
  8
PLAN_1
 62
     2
  6
CONTINUOUS
 10
-0.700323
 20
-0.603524
  0
VERTEX
  8
PLAN_1
 62
     2
  6
CONTINUOUS
 10
-0.700323
 20
-0.599457
  0
VERTEX
  8
PLAN_1
 62
     2
  6
CONTINUOUS
 10
-0.699307
 20
-0.595390
  0
VERTEX
  8
PLAN_1
 62
     2
  6
CONTINUOUS
 10
-0.697780
 20
-0.591323
  0
VERTEX
  8
PLAN_1
 62
     2
  6
CONTINUOUS
 10
-0.695748
 20
-0.587764
  0
VERTEX
  8
PLAN_1
 62
     2
  6
CONTINUOUS
 10
-0.694220
 20
-0.585728
  0
VERTEX
  8
PLAN_1
 62
     2
  6
CONTINUOUS
 10
-0.692697
 20
-0.584205
  0
VERTEX
  8
PLAN_1
 62
     2
  6
CONTINUOUS
 10
-0.690661
 20
-0.583185
  0
VERTEX
  8
PLAN_1
 62
     2
  6
CONTINUOUS
 10
-0.688630
 20
-0.582169
  0
VERTEX
  8
PLAN_1
 62
     2
  6
CONTINUOUS
 10
-0.686087
 20
-0.581154
  0
VERTEX
  8
PLAN_1
 62
     2
  6
CONTINUOUS
 10
-0.683035
 20
-0.580134
  0
VERTEX
  8
PLAN_1
 62
     2
  6
CONTINUOUS
 10
-0.679984
 20
-0.579626
  0
VERTEX
  8
PLAN_1
 62
     2
  6
CONTINUOUS
 10
-0.676937
 20
-0.579626
  0
VERTEX
  8
PLAN_1
 62
     2
  6
CONTINUOUS
 10
-0.671850
 20
-0.580134
  0
VERTEX
  8
PLAN_1
 62
     2
  6
CONTINUOUS
 10
-0.667276
 20
-0.581154
  0
VERTEX
  8
PLAN_1
 62
     2
  6
CONTINUOUS
 10
-0.663209
 20
-0.582677
  0
VERTEX
  8
PLAN_1
 62
     2
  6
CONTINUOUS
 10
-0.660157
 20
-0.585220
  0
VERTEX
  8
PLAN_1
 62
     2
  6
CONTINUOUS
 10
-0.657614
 20
-0.587764
  0
VERTEX
  8
PLAN_1
 62
     2
  6
CONTINUOUS
 10
-0.655583
 20
-0.591323
  0
VERTEX
  8
PLAN_1
 62
     2
  6
CONTINUOUS
 10
-0.654563
 20
-0.594882
  0
VERTEX
  8
PLAN_1
 62
     2
  6
CONTINUOUS
 10
-0.654055
 20
-0.598949
  0
VERTEX
  8
PLAN_1
 62
     2
  6
CONTINUOUS
 10
-0.654563
 20
-0.602000
  0
VERTEX
  8
PLAN_1
 62
     2
  6
CONTINUOUS
 10
-0.655071
 20
-0.605047
  0
VERTEX
  8
PLAN_1
 62
     2
  6
CONTINUOUS
 10
-0.656091
 20
-0.607591
  0
VERTEX
  8
PLAN_1
 62
     2
  6
CONTINUOUS
 10
-0.657106
 20
-0.609626
  0
VERTEX
  8
PLAN_1
 62
     2
  6
CONTINUOUS
 10
-0.658630
 20
-0.611150
  0
VERTEX
  8
PLAN_1
 62
     2
  6
CONTINUOUS
 10
-0.660157
 20
-0.612677
  0
VERTEX
  8
PLAN_1
 62
     2
  6
CONTINUOUS
 10
-0.662189
 20
-0.613185
  0
VERTEX
  8
PLAN_1
 62
     2
  6
CONTINUOUS
 10
-0.663717
 20
-0.614201
  0
VERTEX
  8
PLAN_1
 62
     2
  6
CONTINUOUS
 10
-0.661173
 20
-0.615217
  0
VERTEX
  8
PLAN_1
 62
     2
  6
CONTINUOUS
 10
-0.658630
 20
-0.616236
  0
VERTEX
  8
PLAN_1
 62
     2
  6
CONTINUOUS
 10
-0.656598
 20
-0.618268
  0
VERTEX
  8
PLAN_1
 62
     2
  6
CONTINUOUS
 10
-0.654563
 20
-0.619795
  0
VERTEX
  8
PLAN_1
 62
     2
  6
CONTINUOUS
 10
-0.653547
 20
-0.622335
  0
VERTEX
  8
PLAN_1
 62
     2
  6
CONTINUOUS
 10
-0.652024
 20
-0.624878
  0
VERTEX
  8
PLAN_1
 62
     2
  6
CONTINUOUS
 10
-0.651512
 20
-0.627929
  0
VERTEX
  8
PLAN_1
 62
     2
  6
CONTINUOUS
 10
-0.651512
 20
-0.631488
  0
VERTEX
  8
PLAN_1
 62
     2
  6
CONTINUOUS
 10
-0.651512
 20
-0.635555
  0
VERTEX
  8
PLAN_1
 62
     2
  6
CONTINUOUS
 10
-0.653039
 20
-0.640130
  0
VERTEX
  8
PLAN_1
 62
     2
  6
CONTINUOUS
 10
-0.654563
 20
-0.644201
  0
VERTEX
  8
PLAN_1
 62
     2
  6
CONTINUOUS
 10
-0.657614
 20
-0.647760
  0
VERTEX
  8
PLAN_1
 62
     2
  6
CONTINUOUS
 10
-0.659142
 20
-0.649283
  0
VERTEX
  8
PLAN_1
 62
     2
  6
CONTINUOUS
 10
-0.661173
 20
-0.650299
  0
VERTEX
  8
PLAN_1
 62
     2
  6
CONTINUOUS
 10
-0.663209
 20
-0.651827
  0
VERTEX
  8
PLAN_1
 62
     2
  6
CONTINUOUS
 10
-0.665748
 20
-0.652843
  0
VERTEX
  8
PLAN_1
 62
     2
  6
CONTINUOUS
 10
-0.668291
 20
-0.653858
  0
VERTEX
  8
PLAN_1
 62
     2
  6
CONTINUOUS
 10
-0.671343
 20
-0.654366
  0
VERTEX
  8
PLAN_1
 62
     2
  6
CONTINUOUS
 10
-0.674394
 20
-0.654878
  0
VERTEX
  8
PLAN_1
 62
     2
  6
CONTINUOUS
 10
-0.677445
 20
-0.654878
  0
VERTEX
  8
PLAN_1
 62
     2
  6
CONTINUOUS
 10
-0.679476
 20
-0.654878
  0
VERTEX
  8
PLAN_1
 62
     2
  6
CONTINUOUS
 10
-0.681512
 20
-0.654366
  0
VERTEX
  8
PLAN_1
 62
     2
  6
CONTINUOUS
 10
-0.683543
 20
-0.654366
  0
VERTEX
  8
PLAN_1
 62
     2
  6
CONTINUOUS
 10
-0.685071
 20
-0.653858
  0
VERTEX
  8
PLAN_1
 62
     2
  6
CONTINUOUS
 10
-0.686594
 20
-0.653350
  0
VERTEX
  8
PLAN_1
 62
     2
  6
CONTINUOUS
 10
-0.688122
 20
-0.652843
  0
VERTEX
  8
PLAN_1
 62
     2
  6
CONTINUOUS
 10
-0.689646
 20
-0.652335
  0
VERTEX
  8
PLAN_1
 62
     2
  6
CONTINUOUS
 10
-0.691173
 20
-0.651827
  0
VERTEX
  8
PLAN_1
 62
     2
  6
CONTINUOUS
 10
-0.693713
 20
-0.649791
  0
VERTEX
  8
PLAN_1
 62
     2
  6
CONTINUOUS
 10
-0.696256
 20
-0.647760
  0
VERTEX
  8
PLAN_1
 62
     2
  6
CONTINUOUS
 10
-0.697780
 20
-0.645217
  0
VERTEX
  8
PLAN_1
 62
     2
  6
CONTINUOUS
 10
-0.699307
 20
-0.642673
  0
VERTEX
  8
PLAN_1
 62
     2
  6
CONTINUOUS
 10
-0.700323
 20
-0.639622
  0
VERTEX
  8
PLAN_1
 62
     2
  6
CONTINUOUS
 10
-0.701339
 20
-0.636571
  0
VERTEX
  8
PLAN_1
 62
     2
  6
CONTINUOUS
 10
-0.701850
 20
-0.633520
  0
VERTEX
  8
PLAN_1
 62
     2
  6
CONTINUOUS
 10
-0.701850
 20
-0.630472
  0
VERTEX
  8
PLAN_1
 62
     2
  6
CONTINUOUS
 10
-0.692697
 20
-0.630472
  0
VERTEX
  8
PLAN_1
 62
     2
  6
CONTINUOUS
 10
-0.692189
 20
-0.633012
  0
VERTEX
  8
PLAN_1
 62
     2
  6
CONTINUOUS
 10
-0.692189
 20
-0.636063
  0
VERTEX
  8
PLAN_1
 62
     2
  6
CONTINUOUS
 10
-0.691173
 20
-0.638606
  0
VERTEX
  8
PLAN_1
 62
     2
  6
CONTINUOUS
 10
-0.689646
 20
-0.641150
  0
VERTEX
  8
PLAN_1
 62
     2
  6
CONTINUOUS
 10
-0.688122
 20
-0.643181
  0
VERTEX
  8
PLAN_1
 62
     2
  6
CONTINUOUS
 10
-0.685071
 20
-0.645217
  0
VERTEX
  8
PLAN_1
 62
     2
  6
CONTINUOUS
 10
-0.681512
 20
-0.646232
  0
VERTEX
  8
PLAN_1
 62
     2
  6
CONTINUOUS
 10
-0.676937
 20
-0.646740
  0
VERTEX
  8
PLAN_1
 62
     2
  6
CONTINUOUS
 10
-0.673886
 20
-0.646232
  0
VERTEX
  8
PLAN_1
 62
     2
  6
CONTINUOUS
 10
-0.670835
 20
-0.645724
  0
VERTEX
  8
PLAN_1
 62
     2
  6
CONTINUOUS
 10
-0.667783
 20
-0.644201
  0
VERTEX
  8
PLAN_1
 62
     2
  6
CONTINUOUS
 10
-0.665748
 20
-0.642673
  0
VERTEX
  8
PLAN_1
 62
     2
  6
CONTINUOUS
 10
-0.663717
 20
-0.640642
  0
VERTEX
  8
PLAN_1
 62
     2
  6
CONTINUOUS
 10
-0.662189
 20
-0.638098
  0
VERTEX
  8
PLAN_1
 62
     2
  6
CONTINUOUS
 10
-0.661173
 20
-0.635555
  0
VERTEX
  8
PLAN_1
 62
     2
  6
CONTINUOUS
 10
-0.661173
 20
-0.632504
  0
VERTEX
  8
PLAN_1
 62
     2
  6
CONTINUOUS
 10
-0.661173
 20
-0.630472
  0
VERTEX
  8
PLAN_1
 62
     2
  6
CONTINUOUS
 10
-0.661681
 20
-0.628437
  0
VERTEX
  8
PLAN_1
 62
     2
  6
CONTINUOUS
 10
-0.662189
 20
-0.626402
  0
VERTEX
  8
PLAN_1
 62
     2
  6
CONTINUOUS
 10
-0.662701
 20
-0.625386
  0
VERTEX
  8
PLAN_1
 62
     2
  6
CONTINUOUS
 10
-0.664732
 20
-0.622843
  0
VERTEX
  8
PLAN_1
 62
     2
  6
CONTINUOUS
 10
-0.667276
 20
-0.621319
  0
VERTEX
  8
PLAN_1
 62
     2
  6
CONTINUOUS
 10
-0.669819
 20
-0.619795
  0
VERTEX
  8
PLAN_1
 62
     2
  6
CONTINUOUS
 10
-0.672866
 20
-0.619283
  0
VERTEX
  8
PLAN_1
 62
     2
  6
CONTINUOUS
 10
-0.675409
 20
-0.619283
  0
VERTEX
  8
PLAN_1
 62
     2
  6
CONTINUOUS
 10
-0.677953
 20
-0.618776
  0
VERTEX
  8
PLAN_1
 62
     2
  6
CONTINUOUS
 10
-0.678461
 20
-0.618776
  0
VERTEX
  8
PLAN_1
 62
     2
  6
CONTINUOUS
 10
-0.678969
 20
-0.618776
  0
VERTEX
  8
PLAN_1
 62
     2
  6
CONTINUOUS
 10
-0.679476
 20
-0.619283
  0
VERTEX
  8
PLAN_1
 62
     2
  6
CONTINUOUS
 10
-0.680496
 20
-0.619283
  0
VERTEX
  8
PLAN_1
 62
     2
  6
CONTINUOUS
 10
-0.681004
 20
-0.619283
  0
VERTEX
  8
PLAN_1
 62
     2
  6
CONTINUOUS
 10
-0.681512
 20
-0.619283
  0
VERTEX
  8
PLAN_1
 62
     2
  6
CONTINUOUS
 10
-0.682020
 20
-0.619283
  0
VERTEX
  8
PLAN_1
 62
     2
  6
CONTINUOUS
 10
-0.682528
 20
-0.619283
  0
VERTEX
  8
PLAN_1
 62
     2
  6
CONTINUOUS
 10
-0.682528
 20
-0.611150
  0
SEQEND
  8
0
  0
POLYLINE
  8
PLAN_1
 62
     2
  6
CONTINUOUS
 66
     1
 40
0.003000
 41
0.003000
  0
VERTEX
  8
PLAN_1
 62
     2
  6
CONTINUOUS
 10
-0.604228
 20
-0.598949
  0
VERTEX
  8
PLAN_1
 62
     2
  6
CONTINUOUS
 10
-0.604736
 20
-0.596913
  0
VERTEX
  8
PLAN_1
 62
     2
  6
CONTINUOUS
 10
-0.605756
 20
-0.594882
  0
VERTEX
  8
PLAN_1
 62
     2
  6
CONTINUOUS
 10
-0.606772
 20
-0.592846
  0
VERTEX
  8
PLAN_1
 62
     2
  6
CONTINUOUS
 10
-0.608295
 20
-0.591323
  0
VERTEX
  8
PLAN_1
 62
     2
  6
CONTINUOUS
 10
-0.609823
 20
-0.589795
  0
VERTEX
  8
PLAN_1
 62
     2
  6
CONTINUOUS
 10
-0.611854
 20
-0.588780
  0
VERTEX
  8
PLAN_1
 62
     2
  6
CONTINUOUS
 10
-0.614398
 20
-0.588272
  0
VERTEX
  8
PLAN_1
 62
     2
  6
CONTINUOUS
 10
-0.616941
 20
-0.587764
  0
VERTEX
  8
PLAN_1
 62
     2
  6
CONTINUOUS
 10
-0.619480
 20
-0.588272
  0
VERTEX
  8
PLAN_1
 62
     2
  6
CONTINUOUS
 10
-0.622024
 20
-0.588780
  0
VERTEX
  8
PLAN_1
 62
     2
  6
CONTINUOUS
 10
-0.624059
 20
-0.589795
  0
VERTEX
  8
PLAN_1
 62
     2
  6
CONTINUOUS
 10
-0.625583
 20
-0.590811
  0
VERTEX
  8
PLAN_1
 62
     2
  6
CONTINUOUS
 10
-0.627110
 20
-0.592846
  0
VERTEX
  8
PLAN_1
 62
     2
  6
CONTINUOUS
 10
-0.628634
 20
-0.594370
  0
VERTEX
  8
PLAN_1
 62
     2
  6
CONTINUOUS
 10
-0.630157
 20
-0.596406
  0
VERTEX
  8
PLAN_1
 62
     2
  6
CONTINUOUS
 10
-0.631177
 20
-0.598441
  0
VERTEX
  8
PLAN_1
 62
     2
  6
CONTINUOUS
 10
-0.632701
 20
-0.603016
  0
VERTEX
  8
PLAN_1
 62
     2
  6
CONTINUOUS
 10
-0.633717
 20
-0.607591
  0
VERTEX
  8
PLAN_1
 62
     2
  6
CONTINUOUS
 10
-0.634228
 20
-0.611657
  0
VERTEX
  8
PLAN_1
 62
     2
  6
CONTINUOUS
 10
-0.634228
 20
-0.614709
  0
VERTEX
  8
PLAN_1
 62
     2
  6
CONTINUOUS
 10
-0.634228
 20
-0.615217
  0
VERTEX
  8
PLAN_1
 62
     2
  6
CONTINUOUS
 10
-0.633209
 20
-0.613693
  0
VERTEX
  8
PLAN_1
 62
     2
  6
CONTINUOUS
 10
-0.631685
 20
-0.612165
  0
VERTEX
  8
PLAN_1
 62
     2
  6
CONTINUOUS
 10
-0.630157
 20
-0.610642
  0
VERTEX
  8
PLAN_1
 62
     2
  6
CONTINUOUS
 10
-0.628126
 20
-0.609118
  0
VERTEX
  8
PLAN_1
 62
     2
  6
CONTINUOUS
 10
-0.626091
 20
-0.608098
  0
VERTEX
  8
PLAN_1
 62
     2
  6
CONTINUOUS
 10
-0.623551
 20
-0.607083
  0
VERTEX
  8
PLAN_1
 62
     2
  6
CONTINUOUS
 10
-0.620500
 20
-0.606575
  0
VERTEX
  8
PLAN_1
 62
     2
  6
CONTINUOUS
 10
-0.616941
 20
-0.606067
  0
VERTEX
  8
PLAN_1
 62
     2
  6
CONTINUOUS
 10
-0.613382
 20
-0.606575
  0
VERTEX
  8
PLAN_1
 62
     2
  6
CONTINUOUS
 10
-0.609315
 20
-0.607591
  0
VERTEX
  8
PLAN_1
 62
     2
  6
CONTINUOUS
 10
-0.605756
 20
-0.609118
  0
VERTEX
  8
PLAN_1
 62
     2
  6
CONTINUOUS
 10
-0.601685
 20
-0.611150
  0
VERTEX
  8
PLAN_1
 62
     2
  6
CONTINUOUS
 10
-0.600161
 20
-0.612677
  0
VERTEX
  8
PLAN_1
 62
     2
  6
CONTINUOUS
 10
-0.598638
 20
-0.614201
  0
VERTEX
  8
PLAN_1
 62
     2
  6
CONTINUOUS
 10
-0.597110
 20
-0.616236
  0
VERTEX
  8
PLAN_1
 62
     2
  6
CONTINUOUS
 10
-0.596094
 20
-0.618268
  0
VERTEX
  8
PLAN_1
 62
     2
  6
CONTINUOUS
 10
-0.595079
 20
-0.620811
  0
VERTEX
  8
PLAN_1
 62
     2
  6
CONTINUOUS
 10
-0.594567
 20
-0.623354
  0
VERTEX
  8
PLAN_1
 62
     2
  6
CONTINUOUS
 10
-0.594059
 20
-0.626402
  0
VERTEX
  8
PLAN_1
 62
     2
  6
CONTINUOUS
 10
-0.594059
 20
-0.629453
  0
VERTEX
  8
PLAN_1
 62
     2
  6
CONTINUOUS
 10
-0.594059
 20
-0.631996
  0
VERTEX
  8
PLAN_1
 62
     2
  6
CONTINUOUS
 10
-0.594059
 20
-0.634539
  0
VERTEX
  8
PLAN_1
 62
     2
  6
CONTINUOUS
 10
-0.594567
 20
-0.637083
  0
VERTEX
  8
PLAN_1
 62
     2
  6
CONTINUOUS
 10
-0.595587
 20
-0.639114
  0
VERTEX
  8
PLAN_1
 62
     2
  6
CONTINUOUS
 10
-0.596602
 20
-0.641657
  0
VERTEX
  8
PLAN_1
 62
     2
  6
CONTINUOUS
 10
-0.597618
 20
-0.643689
  0
VERTEX
  8
PLAN_1
 62
     2
  6
CONTINUOUS
 10
-0.599146
 20
-0.645724
  0
VERTEX
  8
PLAN_1
 62
     2
  6
CONTINUOUS
 10
-0.600669
 20
-0.647760
  0
VERTEX
  8
PLAN_1
 62
     2
  6
CONTINUOUS
 10
-0.602197
 20
-0.649283
  0
VERTEX
  8
PLAN_1
 62
     2
  6
CONTINUOUS
 10
-0.603720
 20
-0.650807
  0
VERTEX
  8
PLAN_1
 62
     2
  6
CONTINUOUS
 10
-0.605756
 20
-0.651827
  0
VERTEX
  8
PLAN_1
 62
     2
  6
CONTINUOUS
 10
-0.607787
 20
-0.652843
  0
VERTEX
  8
PLAN_1
 62
     2
  6
CONTINUOUS
 10
-0.609823
 20
-0.653858
  0
VERTEX
  8
PLAN_1
 62
     2
  6
CONTINUOUS
 10
-0.612874
 20
-0.654366
  0
VERTEX
  8
PLAN_1
 62
     2
  6
CONTINUOUS
 10
-0.615921
 20
-0.654878
  0
VERTEX
  8
PLAN_1
 62
     2
  6
CONTINUOUS
 10
-0.619480
 20
-0.654878
  0
VERTEX
  8
PLAN_1
 62
     2
  6
CONTINUOUS
 10
-0.621516
 20
-0.654878
  0
VERTEX
  8
PLAN_1
 62
     2
  6
CONTINUOUS
 10
-0.624059
 20
-0.654366
  0
VERTEX
  8
PLAN_1
 62
     2
  6
CONTINUOUS
 10
-0.626598
 20
-0.653350
  0
VERTEX
  8
PLAN_1
 62
     2
  6
CONTINUOUS
 10
-0.629142
 20
-0.652335
  0
VERTEX
  8
PLAN_1
 62
     2
  6
CONTINUOUS
 10
-0.631177
 20
-0.651319
  0
VERTEX
  8
PLAN_1
 62
     2
  6
CONTINUOUS
 10
-0.633717
 20
-0.649283
  0
VERTEX
  8
PLAN_1
 62
     2
  6
CONTINUOUS
 10
-0.636260
 20
-0.646740
  0
VERTEX
  8
PLAN_1
 62
     2
  6
CONTINUOUS
 10
-0.638295
 20
-0.644201
  0
VERTEX
  8
PLAN_1
 62
     2
  6
CONTINUOUS
 10
-0.639819
 20
-0.641657
  0
VERTEX
  8
PLAN_1
 62
     2
  6
CONTINUOUS
 10
-0.640835
 20
-0.638606
  0
VERTEX
  8
PLAN_1
 62
     2
  6
CONTINUOUS
 10
-0.641854
 20
-0.635555
  0
VERTEX
  8
PLAN_1
 62
     2
  6
CONTINUOUS
 10
-0.642362
 20
-0.632504
  0
VERTEX
  8
PLAN_1
 62
     2
  6
CONTINUOUS
 10
-0.643378
 20
-0.629453
  0
VERTEX
  8
PLAN_1
 62
     2
  6
CONTINUOUS
 10
-0.643378
 20
-0.625894
  0
VERTEX
  8
PLAN_1
 62
     2
  6
CONTINUOUS
 10
-0.643886
 20
-0.622335
  0
VERTEX
  8
PLAN_1
 62
     2
  6
CONTINUOUS
 10
-0.643886
 20
-0.618776
  0
VERTEX
  8
PLAN_1
 62
     2
  6
CONTINUOUS
 10
-0.643378
 20
-0.612677
  0
VERTEX
  8
PLAN_1
 62
     2
  6
CONTINUOUS
 10
-0.642870
 20
-0.606067
  0
VERTEX
  8
PLAN_1
 62
     2
  6
CONTINUOUS
 10
-0.640835
 20
-0.599457
  0
VERTEX
  8
PLAN_1
 62
     2
  6
CONTINUOUS
 10
-0.638295
 20
-0.593354
  0
VERTEX
  8
PLAN_1
 62
     2
  6
CONTINUOUS
 10
-0.636768
 20
-0.590303
  0
VERTEX
  8
PLAN_1
 62
     2
  6
CONTINUOUS
 10
-0.634736
 20
-0.587764
  0
VERTEX
  8
PLAN_1
 62
     2
  6
CONTINUOUS
 10
-0.632701
 20
-0.585728
  0
VERTEX
  8
PLAN_1
 62
     2
  6
CONTINUOUS
 10
-0.630157
 20
-0.583693
  0
VERTEX
  8
PLAN_1
 62
     2
  6
CONTINUOUS
 10
-0.627110
 20
-0.582169
  0
VERTEX
  8
PLAN_1
 62
     2
  6
CONTINUOUS
 10
-0.624059
 20
-0.580646
  0
VERTEX
  8
PLAN_1
 62
     2
  6
CONTINUOUS
 10
-0.620500
 20
-0.580134
  0
VERTEX
  8
PLAN_1
 62
     2
  6
CONTINUOUS
 10
-0.616941
 20
-0.579626
  0
VERTEX
  8
PLAN_1
 62
     2
  6
CONTINUOUS
 10
-0.613382
 20
-0.580134
  0
VERTEX
  8
PLAN_1
 62
     2
  6
CONTINUOUS
 10
-0.609823
 20
-0.580646
  0
VERTEX
  8
PLAN_1
 62
     2
  6
CONTINUOUS
 10
-0.606772
 20
-0.582169
  0
VERTEX
  8
PLAN_1
 62
     2
  6
CONTINUOUS
 10
-0.603213
 20
-0.583693
  0
VERTEX
  8
PLAN_1
 62
     2
  6
CONTINUOUS
 10
-0.600161
 20
-0.586236
  0
VERTEX
  8
PLAN_1
 62
     2
  6
CONTINUOUS
 10
-0.598126
 20
-0.589795
  0
VERTEX
  8
PLAN_1
 62
     2
  6
CONTINUOUS
 10
-0.597110
 20
-0.591831
  0
VERTEX
  8
PLAN_1
 62
     2
  6
CONTINUOUS
 10
-0.596094
 20
-0.593862
  0
VERTEX
  8
PLAN_1
 62
     2
  6
CONTINUOUS
 10
-0.595587
 20
-0.596406
  0
VERTEX
  8
PLAN_1
 62
     2
  6
CONTINUOUS
 10
-0.595587
 20
-0.598949
  0
VERTEX
  8
PLAN_1
 62
     2
  6
CONTINUOUS
 10
-0.604228
 20
-0.598949
  0
SEQEND
  8
0
  0
POLYLINE
  8
PLAN_1
 62
     2
  6
CONTINUOUS
 66
     1
 40
0.003000
 41
0.003000
  0
VERTEX
  8
PLAN_1
 62
     2
  6
CONTINUOUS
 10
-0.617449
 20
-0.646740
  0
VERTEX
  8
PLAN_1
 62
     2
  6
CONTINUOUS
 10
-0.614398
 20
-0.646232
  0
VERTEX
  8
PLAN_1
 62
     2
  6
CONTINUOUS
 10
-0.611854
 20
-0.645217
  0
VERTEX
  8
PLAN_1
 62
     2
  6
CONTINUOUS
 10
-0.609315
 20
-0.643689
  0
VERTEX
  8
PLAN_1
 62
     2
  6
CONTINUOUS
 10
-0.607280
 20
-0.642165
  0
VERTEX
  8
PLAN_1
 62
     2
  6
CONTINUOUS
 10
-0.605756
 20
-0.639622
  0
VERTEX
  8
PLAN_1
 62
     2
  6
CONTINUOUS
 10
-0.604228
 20
-0.636571
  0
VERTEX
  8
PLAN_1
 62
     2
  6
CONTINUOUS
 10
-0.603720
 20
-0.633520
  0
VERTEX
  8
PLAN_1
 62
     2
  6
CONTINUOUS
 10
-0.603213
 20
-0.629961
  0
VERTEX
  8
PLAN_1
 62
     2
  6
CONTINUOUS
 10
-0.603720
 20
-0.627421
  0
VERTEX
  8
PLAN_1
 62
     2
  6
CONTINUOUS
 10
-0.604228
 20
-0.624878
  0
VERTEX
  8
PLAN_1
 62
     2
  6
CONTINUOUS
 10
-0.605244
 20
-0.622335
  0
VERTEX
  8
PLAN_1
 62
     2
  6
CONTINUOUS
 10
-0.606264
 20
-0.619795
  0
VERTEX
  8
PLAN_1
 62
     2
  6
CONTINUOUS
 10
-0.608295
 20
-0.617760
  0
VERTEX
  8
PLAN_1
 62
     2
  6
CONTINUOUS
 10
-0.610839
 20
-0.615724
  0
VERTEX
  8
PLAN_1
 62
     2
  6
CONTINUOUS
 10
-0.614398
 20
-0.614709
  0
VERTEX
  8
PLAN_1
 62
     2
  6
CONTINUOUS
 10
-0.617957
 20
-0.614201
  0
VERTEX
  8
PLAN_1
 62
     2
  6
CONTINUOUS
 10
-0.621516
 20
-0.614709
  0
VERTEX
  8
PLAN_1
 62
     2
  6
CONTINUOUS
 10
-0.624567
 20
-0.615724
  0
VERTEX
  8
PLAN_1
 62
     2
  6
CONTINUOUS
 10
-0.627110
 20
-0.617252
  0
VERTEX
  8
PLAN_1
 62
     2
  6
CONTINUOUS
 10
-0.629142
 20
-0.619283
  0
VERTEX
  8
PLAN_1
 62
     2
  6
CONTINUOUS
 10
-0.631177
 20
-0.621319
  0
VERTEX
  8
PLAN_1
 62
     2
  6
CONTINUOUS
 10
-0.632193
 20
-0.624370
  0
VERTEX
  8
PLAN_1
 62
     2
  6
CONTINUOUS
 10
-0.632701
 20
-0.627421
  0
VERTEX
  8
PLAN_1
 62
     2
  6
CONTINUOUS
 10
-0.633209
 20
-0.630472
  0
VERTEX
  8
PLAN_1
 62
     2
  6
CONTINUOUS
 10
-0.632701
 20
-0.633520
  0
VERTEX
  8
PLAN_1
 62
     2
  6
CONTINUOUS
 10
-0.632193
 20
-0.636063
  0
VERTEX
  8
PLAN_1
 62
     2
  6
CONTINUOUS
 10
-0.631177
 20
-0.639114
  0
VERTEX
  8
PLAN_1
 62
     2
  6
CONTINUOUS
 10
-0.629142
 20
-0.641150
  0
VERTEX
  8
PLAN_1
 62
     2
  6
CONTINUOUS
 10
-0.627110
 20
-0.643689
  0
VERTEX
  8
PLAN_1
 62
     2
  6
CONTINUOUS
 10
-0.624567
 20
-0.645217
  0
VERTEX
  8
PLAN_1
 62
     2
  6
CONTINUOUS
 10
-0.621516
 20
-0.646232
  0
VERTEX
  8
PLAN_1
 62
     2
  6
CONTINUOUS
 10
-0.617449
 20
-0.646740
  0
SEQEND
  8
0
  0
POLYLINE
  8
PLAN_1
 62
     2
  6
CONTINUOUS
 66
     1
 40
0.004067
 41
0.004067
  0
VERTEX
  8
PLAN_1
 62
     2
  6
CONTINUOUS
 10
-2.216992
 20
-0.833846
  0
VERTEX
  8
PLAN_1
 62
     2
  6
CONTINUOUS
 10
0.089280
 20
-0.833846
  0
SEQEND
  8
0
  0
SOLID
  8
PLAN_1
 62
     2
 10
0.118768
 20
-0.833846
 11
0.059791
 21
-0.818083
 12
0.118768
 22
-0.833846
 13
0.059791
 23
-0.849606
  0
POLYLINE
  8
PLAN_1
 62
     2
  6
CONTINUOUS
 66
     1
 40
0.003000
 41
0.003000
  0
VERTEX
  8
PLAN_1
 62
     2
  6
CONTINUOUS
 10
0.118768
 20
-0.833846
  0
VERTEX
  8
PLAN_1
 62
     2
  6
CONTINUOUS
 10
0.059791
 20
-0.818083
  0
VERTEX
  8
PLAN_1
 62
     2
  6
CONTINUOUS
 10
0.059791
 20
-0.849606
  0
VERTEX
  8
PLAN_1
 62
     2
  6
CONTINUOUS
 10
0.118768
 20
-0.833846
  0
SEQEND
  8
0
  0
SOLID
  8
PLAN_1
 62
     2
 10
-2.246480
 20
-0.833846
 11
-2.187504
 21
-0.818083
 12
-2.246480
 22
-0.833846
 13
-2.187504
 23
-0.849606
  0
POLYLINE
  8
PLAN_1
 62
     2
  6
CONTINUOUS
 66
     1
 40
0.003000
 41
0.003000
  0
VERTEX
  8
PLAN_1
 62
     2
  6
CONTINUOUS
 10
-2.246480
 20
-0.833846
  0
VERTEX
  8
PLAN_1
 62
     2
  6
CONTINUOUS
 10
-2.187504
 20
-0.818083
  0
VERTEX
  8
PLAN_1
 62
     2
  6
CONTINUOUS
 10
-2.187504
 20
-0.849606
  0
VERTEX
  8
PLAN_1
 62
     2
  6
CONTINUOUS
 10
-2.246480
 20
-0.833846
  0
SEQEND
  8
0
  0
POLYLINE
  8
PLAN_1
 62
     2
  6
CONTINUOUS
 66
     1
 40
0.003000
 41
0.003000
  0
VERTEX
  8
PLAN_1
 62
     2
  6
CONTINUOUS
 10
-1.078602
 20
-0.756563
  0
VERTEX
  8
PLAN_1
 62
     2
  6
CONTINUOUS
 10
-1.079110
 20
-0.754020
  0
VERTEX
  8
PLAN_1
 62
     2
  6
CONTINUOUS
 10
-1.079618
 20
-0.751988
  0
VERTEX
  8
PLAN_1
 62
     2
  6
CONTINUOUS
 10
-1.080634
 20
-0.750461
  0
VERTEX
  8
PLAN_1
 62
     2
  6
CONTINUOUS
 10
-1.082161
 20
-0.748429
  0
VERTEX
  8
PLAN_1
 62
     2
  6
CONTINUOUS
 10
-1.083685
 20
-0.747413
  0
VERTEX
  8
PLAN_1
 62
     2
  6
CONTINUOUS
 10
-1.085720
 20
-0.746394
  0
VERTEX
  8
PLAN_1
 62
     2
  6
CONTINUOUS
 10
-1.088260
 20
-0.745378
  0
VERTEX
  8
PLAN_1
 62
     2
  6
CONTINUOUS
 10
-1.090803
 20
-0.745378
  0
VERTEX
  8
PLAN_1
 62
     2
  6
CONTINUOUS
 10
-1.093346
 20
-0.745378
  0
VERTEX
  8
PLAN_1
 62
     2
  6
CONTINUOUS
 10
-1.095886
 20
-0.746394
  0
VERTEX
  8
PLAN_1
 62
     2
  6
CONTINUOUS
 10
-1.097921
 20
-0.747413
  0
VERTEX
  8
PLAN_1
 62
     2
  6
CONTINUOUS
 10
-1.099957
 20
-0.748429
  0
VERTEX
  8
PLAN_1
 62
     2
  6
CONTINUOUS
 10
-1.101480
 20
-0.749953
  0
VERTEX
  8
PLAN_1
 62
     2
  6
CONTINUOUS
 10
-1.103008
 20
-0.751988
  0
VERTEX
  8
PLAN_1
 62
     2
  6
CONTINUOUS
 10
-1.104024
 20
-0.754020
  0
VERTEX
  8
PLAN_1
 62
     2
  6
CONTINUOUS
 10
-1.105039
 20
-0.756055
  0
VERTEX
  8
PLAN_1
 62
     2
  6
CONTINUOUS
 10
-1.106567
 20
-0.760630
  0
VERTEX
  8
PLAN_1
 62
     2
  6
CONTINUOUS
 10
-1.107583
 20
-0.764697
  0
VERTEX
  8
PLAN_1
 62
     2
  6
CONTINUOUS
 10
-1.108091
 20
-0.769276
  0
VERTEX
  8
PLAN_1
 62
     2
  6
CONTINUOUS
 10
-1.108598
 20
-0.772327
  0
VERTEX
  8
PLAN_1
 62
     2
  6
CONTINUOUS
 10
-1.108091
 20
-0.772835
  0
VERTEX
  8
PLAN_1
 62
     2
  6
CONTINUOUS
 10
-1.107075
 20
-0.771307
  0
VERTEX
  8
PLAN_1
 62
     2
  6
CONTINUOUS
 10
-1.106055
 20
-0.769783
  0
VERTEX
  8
PLAN_1
 62
     2
  6
CONTINUOUS
 10
-1.104531
 20
-0.768256
  0
VERTEX
  8
PLAN_1
 62
     2
  6
CONTINUOUS
 10
-1.102496
 20
-0.766732
  0
VERTEX
  8
PLAN_1
 62
     2
  6
CONTINUOUS
 10
-1.099957
 20
-0.765717
  0
VERTEX
  8
PLAN_1
 62
     2
  6
CONTINUOUS
 10
-1.097413
 20
-0.764697
  0
VERTEX
  8
PLAN_1
 62
     2
  6
CONTINUOUS
 10
-1.094362
 20
-0.763681
  0
VERTEX
  8
PLAN_1
 62
     2
  6
CONTINUOUS
 10
-1.090803
 20
-0.763681
  0
VERTEX
  8
PLAN_1
 62
     2
  6
CONTINUOUS
 10
-1.087244
 20
-0.764189
  0
VERTEX
  8
PLAN_1
 62
     2
  6
CONTINUOUS
 10
-1.083685
 20
-0.764697
  0
VERTEX
  8
PLAN_1
 62
     2
  6
CONTINUOUS
 10
-1.079618
 20
-0.766224
  0
VERTEX
  8
PLAN_1
 62
     2
  6
CONTINUOUS
 10
-1.076059
 20
-0.768768
  0
VERTEX
  8
PLAN_1
 62
     2
  6
CONTINUOUS
 10
-1.074531
 20
-0.770291
  0
VERTEX
  8
PLAN_1
 62
     2
  6
CONTINUOUS
 10
-1.073008
 20
-0.771815
  0
VERTEX
  8
PLAN_1
 62
     2
  6
CONTINUOUS
 10
-1.071484
 20
-0.773850
  0
VERTEX
  8
PLAN_1
 62
     2
  6
CONTINUOUS
 10
-1.070465
 20
-0.775886
  0
VERTEX
  8
PLAN_1
 62
     2
  6
CONTINUOUS
 10
-1.069449
 20
-0.778425
  0
VERTEX
  8
PLAN_1
 62
     2
  6
CONTINUOUS
 10
-1.068433
 20
-0.780969
  0
VERTEX
  8
PLAN_1
 62
     2
  6
CONTINUOUS
 10
-1.067925
 20
-0.783512
  0
VERTEX
  8
PLAN_1
 62
     2
  6
CONTINUOUS
 10
-1.067925
 20
-0.787071
  0
VERTEX
  8
PLAN_1
 62
     2
  6
CONTINUOUS
 10
-1.067925
 20
-0.789610
  0
VERTEX
  8
PLAN_1
 62
     2
  6
CONTINUOUS
 10
-1.068433
 20
-0.792154
  0
VERTEX
  8
PLAN_1
 62
     2
  6
CONTINUOUS
 10
-1.068941
 20
-0.794697
  0
VERTEX
  8
PLAN_1
 62
     2
  6
CONTINUOUS
 10
-1.069449
 20
-0.796728
  0
VERTEX
  8
PLAN_1
 62
     2
  6
CONTINUOUS
 10
-1.070465
 20
-0.798764
  0
VERTEX
  8
PLAN_1
 62
     2
  6
CONTINUOUS
 10
-1.071484
 20
-0.801307
  0
VERTEX
  8
PLAN_1
 62
     2
  6
CONTINUOUS
 10
-1.073008
 20
-0.803339
  0
VERTEX
  8
PLAN_1
 62
     2
  6
CONTINUOUS
 10
-1.075043
 20
-0.805374
  0
VERTEX
  8
PLAN_1
 62
     2
  6
CONTINUOUS
 10
-1.076567
 20
-0.806898
  0
VERTEX
  8
PLAN_1
 62
     2
  6
CONTINUOUS
 10
-1.078091
 20
-0.807917
  0
VERTEX
  8
PLAN_1
 62
     2
  6
CONTINUOUS
 10
-1.079618
 20
-0.809441
  0
VERTEX
  8
PLAN_1
 62
     2
  6
CONTINUOUS
 10
-1.081650
 20
-0.810457
  0
VERTEX
  8
PLAN_1
 62
     2
  6
CONTINUOUS
 10
-1.084193
 20
-0.810965
  0
VERTEX
  8
PLAN_1
 62
     2
  6
CONTINUOUS
 10
-1.086736
 20
-0.811984
  0
VERTEX
  8
PLAN_1
 62
     2
  6
CONTINUOUS
 10
-1.089787
 20
-0.811984
  0
VERTEX
  8
PLAN_1
 62
     2
  6
CONTINUOUS
 10
-1.093346
 20
-0.812492
  0
VERTEX
  8
PLAN_1
 62
     2
  6
CONTINUOUS
 10
-1.095378
 20
-0.811984
  0
VERTEX
  8
PLAN_1
 62
     2
  6
CONTINUOUS
 10
-1.097921
 20
-0.811984
  0
VERTEX
  8
PLAN_1
 62
     2
  6
CONTINUOUS
 10
-1.100465
 20
-0.810965
  0
VERTEX
  8
PLAN_1
 62
     2
  6
CONTINUOUS
 10
-1.103008
 20
-0.809949
  0
VERTEX
  8
PLAN_1
 62
     2
  6
CONTINUOUS
 10
-1.105547
 20
-0.808425
  0
VERTEX
  8
PLAN_1
 62
     2
  6
CONTINUOUS
 10
-1.108091
 20
-0.806898
  0
VERTEX
  8
PLAN_1
 62
     2
  6
CONTINUOUS
 10
-1.110126
 20
-0.804358
  0
VERTEX
  8
PLAN_1
 62
     2
  6
CONTINUOUS
 10
-1.112157
 20
-0.801815
  0
VERTEX
  8
PLAN_1
 62
     2
  6
CONTINUOUS
 10
-1.113685
 20
-0.798764
  0
VERTEX
  8
PLAN_1
 62
     2
  6
CONTINUOUS
 10
-1.114701
 20
-0.796220
  0
VERTEX
  8
PLAN_1
 62
     2
  6
CONTINUOUS
 10
-1.115717
 20
-0.793169
  0
VERTEX
  8
PLAN_1
 62
     2
  6
CONTINUOUS
 10
-1.116732
 20
-0.790122
  0
VERTEX
  8
PLAN_1
 62
     2
  6
CONTINUOUS
 10
-1.117244
 20
-0.786563
  0
VERTEX
  8
PLAN_1
 62
     2
  6
CONTINUOUS
 10
-1.117752
 20
-0.783512
  0
VERTEX
  8
PLAN_1
 62
     2
  6
CONTINUOUS
 10
-1.117752
 20
-0.779953
  0
VERTEX
  8
PLAN_1
 62
     2
  6
CONTINUOUS
 10
-1.117752
 20
-0.776394
  0
VERTEX
  8
PLAN_1
 62
     2
  6
CONTINUOUS
 10
-1.117752
 20
-0.769783
  0
VERTEX
  8
PLAN_1
 62
     2
  6
CONTINUOUS
 10
-1.116732
 20
-0.763173
  0
VERTEX
  8
PLAN_1
 62
     2
  6
CONTINUOUS
 10
-1.115209
 20
-0.757071
  0
VERTEX
  8
PLAN_1
 62
     2
  6
CONTINUOUS
 10
-1.112665
 20
-0.750461
  0
VERTEX
  8
PLAN_1
 62
     2
  6
CONTINUOUS
 10
-1.110634
 20
-0.747921
  0
VERTEX
  8
PLAN_1
 62
     2
  6
CONTINUOUS
 10
-1.109106
 20
-0.745378
  0
VERTEX
  8
PLAN_1
 62
     2
  6
CONTINUOUS
 10
-1.106567
 20
-0.742835
  0
VERTEX
  8
PLAN_1
 62
     2
  6
CONTINUOUS
 10
-1.104024
 20
-0.740803
  0
VERTEX
  8
PLAN_1
 62
     2
  6
CONTINUOUS
 10
-1.101480
 20
-0.739276
  0
VERTEX
  8
PLAN_1
 62
     2
  6
CONTINUOUS
 10
-1.098429
 20
-0.738260
  0
VERTEX
  8
PLAN_1
 62
     2
  6
CONTINUOUS
 10
-1.094870
 20
-0.737244
  0
VERTEX
  8
PLAN_1
 62
     2
  6
CONTINUOUS
 10
-1.090803
 20
-0.737244
  0
VERTEX
  8
PLAN_1
 62
     2
  6
CONTINUOUS
 10
-1.087752
 20
-0.737244
  0
VERTEX
  8
PLAN_1
 62
     2
  6
CONTINUOUS
 10
-1.084193
 20
-0.738260
  0
VERTEX
  8
PLAN_1
 62
     2
  6
CONTINUOUS
 10
-1.080634
 20
-0.739276
  0
VERTEX
  8
PLAN_1
 62
     2
  6
CONTINUOUS
 10
-1.077075
 20
-0.741311
  0
VERTEX
  8
PLAN_1
 62
     2
  6
CONTINUOUS
 10
-1.074531
 20
-0.743854
  0
VERTEX
  8
PLAN_1
 62
     2
  6
CONTINUOUS
 10
-1.071992
 20
-0.747413
  0
VERTEX
  8
PLAN_1
 62
     2
  6
CONTINUOUS
 10
-1.070972
 20
-0.749445
  0
VERTEX
  8
PLAN_1
 62
     2
  6
CONTINUOUS
 10
-1.070465
 20
-0.751480
  0
VERTEX
  8
PLAN_1
 62
     2
  6
CONTINUOUS
 10
-1.069957
 20
-0.754020
  0
VERTEX
  8
PLAN_1
 62
     2
  6
CONTINUOUS
 10
-1.069449
 20
-0.756563
  0
VERTEX
  8
PLAN_1
 62
     2
  6
CONTINUOUS
 10
-1.078602
 20
-0.756563
  0
SEQEND
  8
0
  0
POLYLINE
  8
PLAN_1
 62
     2
  6
CONTINUOUS
 66
     1
 40
0.003000
 41
0.003000
  0
VERTEX
  8
PLAN_1
 62
     2
  6
CONTINUOUS
 10
-1.091819
 20
-0.803846
  0
VERTEX
  8
PLAN_1
 62
     2
  6
CONTINUOUS
 10
-1.088768
 20
-0.803846
  0
VERTEX
  8
PLAN_1
 62
     2
  6
CONTINUOUS
 10
-1.085720
 20
-0.802831
  0
VERTEX
  8
PLAN_1
 62
     2
  6
CONTINUOUS
 10
-1.083177
 20
-0.801307
  0
VERTEX
  8
PLAN_1
 62
     2
  6
CONTINUOUS
 10
-1.081142
 20
-0.799272
  0
VERTEX
  8
PLAN_1
 62
     2
  6
CONTINUOUS
 10
-1.079618
 20
-0.796728
  0
VERTEX
  8
PLAN_1
 62
     2
  6
CONTINUOUS
 10
-1.078602
 20
-0.794189
  0
VERTEX
  8
PLAN_1
 62
     2
  6
CONTINUOUS
 10
-1.077583
 20
-0.790630
  0
VERTEX
  8
PLAN_1
 62
     2
  6
CONTINUOUS
 10
-1.077583
 20
-0.787071
  0
VERTEX
  8
PLAN_1
 62
     2
  6
CONTINUOUS
 10
-1.077583
 20
-0.785035
  0
VERTEX
  8
PLAN_1
 62
     2
  6
CONTINUOUS
 10
-1.078091
 20
-0.781984
  0
VERTEX
  8
PLAN_1
 62
     2
  6
CONTINUOUS
 10
-1.079110
 20
-0.779445
  0
VERTEX
  8
PLAN_1
 62
     2
  6
CONTINUOUS
 10
-1.080634
 20
-0.777409
  0
VERTEX
  8
PLAN_1
 62
     2
  6
CONTINUOUS
 10
-1.082669
 20
-0.774866
  0
VERTEX
  8
PLAN_1
 62
     2
  6
CONTINUOUS
 10
-1.085209
 20
-0.773343
  0
VERTEX
  8
PLAN_1
 62
     2
  6
CONTINUOUS
 10
-1.088260
 20
-0.772327
  0
VERTEX
  8
PLAN_1
 62
     2
  6
CONTINUOUS
 10
-1.092327
 20
-0.771815
  0
VERTEX
  8
PLAN_1
 62
     2
  6
CONTINUOUS
 10
-1.095886
 20
-0.772327
  0
VERTEX
  8
PLAN_1
 62
     2
  6
CONTINUOUS
 10
-1.098937
 20
-0.773343
  0
VERTEX
  8
PLAN_1
 62
     2
  6
CONTINUOUS
 10
-1.101480
 20
-0.774866
  0
VERTEX
  8
PLAN_1
 62
     2
  6
CONTINUOUS
 10
-1.103516
 20
-0.776394
  0
VERTEX
  8
PLAN_1
 62
     2
  6
CONTINUOUS
 10
-1.105039
 20
-0.778933
  0
VERTEX
  8
PLAN_1
 62
     2
  6
CONTINUOUS
 10
-1.106055
 20
-0.781476
  0
VERTEX
  8
PLAN_1
 62
     2
  6
CONTINUOUS
 10
-1.107075
 20
-0.784528
  0
VERTEX
  8
PLAN_1
 62
     2
  6
CONTINUOUS
 10
-1.107075
 20
-0.787579
  0
VERTEX
  8
PLAN_1
 62
     2
  6
CONTINUOUS
 10
-1.107075
 20
-0.790630
  0
VERTEX
  8
PLAN_1
 62
     2
  6
CONTINUOUS
 10
-1.106055
 20
-0.793681
  0
VERTEX
  8
PLAN_1
 62
     2
  6
CONTINUOUS
 10
-1.105039
 20
-0.796220
  0
VERTEX
  8
PLAN_1
 62
     2
  6
CONTINUOUS
 10
-1.103516
 20
-0.798764
  0
VERTEX
  8
PLAN_1
 62
     2
  6
CONTINUOUS
 10
-1.101480
 20
-0.800799
  0
VERTEX
  8
PLAN_1
 62
     2
  6
CONTINUOUS
 10
-1.098429
 20
-0.802831
  0
VERTEX
  8
PLAN_1
 62
     2
  6
CONTINUOUS
 10
-1.095378
 20
-0.803846
  0
VERTEX
  8
PLAN_1
 62
     2
  6
CONTINUOUS
 10
-1.091819
 20
-0.803846
  0
SEQEND
  8
0
  0
POLYLINE
  8
PLAN_1
 62
     2
  6
CONTINUOUS
 66
     1
 40
0.003000
 41
0.003000
  0
VERTEX
  8
PLAN_1
 62
     2
  6
CONTINUOUS
 10
-1.034874
 20
-0.812492
  0
VERTEX
  8
PLAN_1
 62
     2
  6
CONTINUOUS
 10
-1.038941
 20
-0.811984
  0
VERTEX
  8
PLAN_1
 62
     2
  6
CONTINUOUS
 10
-1.041992
 20
-0.811476
  0
VERTEX
  8
PLAN_1
 62
     2
  6
CONTINUOUS
 10
-1.045043
 20
-0.809949
  0
VERTEX
  8
PLAN_1
 62
     2
  6
CONTINUOUS
 10
-1.047587
 20
-0.808425
  0
VERTEX
  8
PLAN_1
 62
     2
  6
CONTINUOUS
 10
-1.050130
 20
-0.806390
  0
VERTEX
  8
PLAN_1
 62
     2
  6
CONTINUOUS
 10
-1.052161
 20
-0.804358
  0
VERTEX
  8
PLAN_1
 62
     2
  6
CONTINUOUS
 10
-1.053689
 20
-0.801815
  0
VERTEX
  8
PLAN_1
 62
     2
  6
CONTINUOUS
 10
-1.055213
 20
-0.799272
  0
VERTEX
  8
PLAN_1
 62
     2
  6
CONTINUOUS
 10
-1.057756
 20
-0.793169
  0
VERTEX
  8
PLAN_1
 62
     2
  6
CONTINUOUS
 10
-1.059280
 20
-0.787071
  0
VERTEX
  8
PLAN_1
 62
     2
  6
CONTINUOUS
 10
-1.059787
 20
-0.780461
  0
VERTEX
  8
PLAN_1
 62
     2
  6
CONTINUOUS
 10
-1.060295
 20
-0.774866
  0
VERTEX
  8
PLAN_1
 62
     2
  6
CONTINUOUS
 10
-1.059787
 20
-0.768768
  0
VERTEX
  8
PLAN_1
 62
     2
  6
CONTINUOUS
 10
-1.059280
 20
-0.762665
  0
VERTEX
  8
PLAN_1
 62
     2
  6
CONTINUOUS
 10
-1.057756
 20
-0.756055
  0
VERTEX
  8
PLAN_1
 62
     2
  6
CONTINUOUS
 10
-1.055213
 20
-0.750461
  0
VERTEX
  8
PLAN_1
 62
     2
  6
CONTINUOUS
 10
-1.053689
 20
-0.747413
  0
VERTEX
  8
PLAN_1
 62
     2
  6
CONTINUOUS
 10
-1.052161
 20
-0.744870
  0
VERTEX
  8
PLAN_1
 62
     2
  6
CONTINUOUS
 10
-1.050130
 20
-0.742835
  0
VERTEX
  8
PLAN_1
 62
     2
  6
CONTINUOUS
 10
-1.047587
 20
-0.740803
  0
VERTEX
  8
PLAN_1
 62
     2
  6
CONTINUOUS
 10
-1.045043
 20
-0.739276
  0
VERTEX
  8
PLAN_1
 62
     2
  6
CONTINUOUS
 10
-1.041992
 20
-0.738260
  0
VERTEX
  8
PLAN_1
 62
     2
  6
CONTINUOUS
 10
-1.038941
 20
-0.737244
  0
VERTEX
  8
PLAN_1
 62
     2
  6
CONTINUOUS
 10
-1.034874
 20
-0.737244
  0
VERTEX
  8
PLAN_1
 62
     2
  6
CONTINUOUS
 10
-1.031315
 20
-0.737244
  0
VERTEX
  8
PLAN_1
 62
     2
  6
CONTINUOUS
 10
-1.027756
 20
-0.738260
  0
VERTEX
  8
PLAN_1
 62
     2
  6
CONTINUOUS
 10
-1.024705
 20
-0.739276
  0
VERTEX
  8
PLAN_1
 62
     2
  6
CONTINUOUS
 10
-1.022165
 20
-0.740803
  0
VERTEX
  8
PLAN_1
 62
     2
  6
CONTINUOUS
 10
-1.019622
 20
-0.742835
  0
VERTEX
  8
PLAN_1
 62
     2
  6
CONTINUOUS
 10
-1.017587
 20
-0.744870
  0
VERTEX
  8
PLAN_1
 62
     2
  6
CONTINUOUS
 10
-1.016063
 20
-0.747413
  0
VERTEX
  8
PLAN_1
 62
     2
  6
CONTINUOUS
 10
-1.014539
 20
-0.750461
  0
VERTEX
  8
PLAN_1
 62
     2
  6
CONTINUOUS
 10
-1.012504
 20
-0.756055
  0
VERTEX
  8
PLAN_1
 62
     2
  6
CONTINUOUS
 10
-1.010980
 20
-0.762665
  0
VERTEX
  8
PLAN_1
 62
     2
  6
CONTINUOUS
 10
-1.009961
 20
-0.768768
  0
VERTEX
  8
PLAN_1
 62
     2
  6
CONTINUOUS
 10
-1.009961
 20
-0.774866
  0
VERTEX
  8
PLAN_1
 62
     2
  6
CONTINUOUS
 10
-1.009961
 20
-0.780461
  0
VERTEX
  8
PLAN_1
 62
     2
  6
CONTINUOUS
 10
-1.010980
 20
-0.787071
  0
VERTEX
  8
PLAN_1
 62
     2
  6
CONTINUOUS
 10
-1.012504
 20
-0.793169
  0
VERTEX
  8
PLAN_1
 62
     2
  6
CONTINUOUS
 10
-1.014539
 20
-0.799272
  0
VERTEX
  8
PLAN_1
 62
     2
  6
CONTINUOUS
 10
-1.016063
 20
-0.801815
  0
VERTEX
  8
PLAN_1
 62
     2
  6
CONTINUOUS
 10
-1.017587
 20
-0.804358
  0
VERTEX
  8
PLAN_1
 62
     2
  6
CONTINUOUS
 10
-1.019622
 20
-0.806390
  0
VERTEX
  8
PLAN_1
 62
     2
  6
CONTINUOUS
 10
-1.022165
 20
-0.808425
  0
VERTEX
  8
PLAN_1
 62
     2
  6
CONTINUOUS
 10
-1.024705
 20
-0.809949
  0
VERTEX
  8
PLAN_1
 62
     2
  6
CONTINUOUS
 10
-1.027756
 20
-0.811476
  0
VERTEX
  8
PLAN_1
 62
     2
  6
CONTINUOUS
 10
-1.031315
 20
-0.811984
  0
VERTEX
  8
PLAN_1
 62
     2
  6
CONTINUOUS
 10
-1.034874
 20
-0.812492
  0
SEQEND
  8
0
  0
POLYLINE
  8
PLAN_1
 62
     2
  6
CONTINUOUS
 66
     1
 40
0.003000
 41
0.003000
  0
VERTEX
  8
PLAN_1
 62
     2
  6
CONTINUOUS
 10
-1.034874
 20
-0.745378
  0
VERTEX
  8
PLAN_1
 62
     2
  6
CONTINUOUS
 10
-1.036909
 20
-0.745378
  0
VERTEX
  8
PLAN_1
 62
     2
  6
CONTINUOUS
 10
-1.038433
 20
-0.745886
  0
VERTEX
  8
PLAN_1
 62
     2
  6
CONTINUOUS
 10
-1.040469
 20
-0.746394
  0
VERTEX
  8
PLAN_1
 62
     2
  6
CONTINUOUS
 10
-1.041992
 20
-0.747413
  0
VERTEX
  8
PLAN_1
 62
     2
  6
CONTINUOUS
 10
-1.044535
 20
-0.749953
  0
VERTEX
  8
PLAN_1
 62
     2
  6
CONTINUOUS
 10
-1.046571
 20
-0.753004
  0
VERTEX
  8
PLAN_1
 62
     2
  6
CONTINUOUS
 10
-1.048094
 20
-0.757579
  0
VERTEX
  8
PLAN_1
 62
     2
  6
CONTINUOUS
 10
-1.049110
 20
-0.762157
  0
VERTEX
  8
PLAN_1
 62
     2
  6
CONTINUOUS
 10
-1.050130
 20
-0.768256
  0
VERTEX
  8
PLAN_1
 62
     2
  6
CONTINUOUS
 10
-1.050130
 20
-0.774866
  0
VERTEX
  8
PLAN_1
 62
     2
  6
CONTINUOUS
 10
-1.050130
 20
-0.781476
  0
VERTEX
  8
PLAN_1
 62
     2
  6
CONTINUOUS
 10
-1.049110
 20
-0.787071
  0
VERTEX
  8
PLAN_1
 62
     2
  6
CONTINUOUS
 10
-1.048094
 20
-0.792154
  0
VERTEX
  8
PLAN_1
 62
     2
  6
CONTINUOUS
 10
-1.046571
 20
-0.796220
  0
VERTEX
  8
PLAN_1
 62
     2
  6
CONTINUOUS
 10
-1.044535
 20
-0.799780
  0
VERTEX
  8
PLAN_1
 62
     2
  6
CONTINUOUS
 10
-1.041992
 20
-0.801815
  0
VERTEX
  8
PLAN_1
 62
     2
  6
CONTINUOUS
 10
-1.040469
 20
-0.802831
  0
VERTEX
  8
PLAN_1
 62
     2
  6
CONTINUOUS
 10
-1.038433
 20
-0.803339
  0
VERTEX
  8
PLAN_1
 62
     2
  6
CONTINUOUS
 10
-1.036909
 20
-0.803846
  0
VERTEX
  8
PLAN_1
 62
     2
  6
CONTINUOUS
 10
-1.034874
 20
-0.803846
  0
VERTEX
  8
PLAN_1
 62
     2
  6
CONTINUOUS
 10
-1.032843
 20
-0.803846
  0
VERTEX
  8
PLAN_1
 62
     2
  6
CONTINUOUS
 10
-1.031315
 20
-0.803339
  0
VERTEX
  8
PLAN_1
 62
     2
  6
CONTINUOUS
 10
-1.029791
 20
-0.802831
  0
VERTEX
  8
PLAN_1
 62
     2
  6
CONTINUOUS
 10
-1.028264
 20
-0.801815
  0
VERTEX
  8
PLAN_1
 62
     2
  6
CONTINUOUS
 10
-1.025724
 20
-0.799780
  0
VERTEX
  8
PLAN_1
 62
     2
  6
CONTINUOUS
 10
-1.023181
 20
-0.796220
  0
VERTEX
  8
PLAN_1
 62
     2
  6
CONTINUOUS
 10
-1.021657
 20
-0.792154
  0
VERTEX
  8
PLAN_1
 62
     2
  6
CONTINUOUS
 10
-1.020638
 20
-0.787071
  0
VERTEX
  8
PLAN_1
 62
     2
  6
CONTINUOUS
 10
-1.020130
 20
-0.781476
  0
VERTEX
  8
PLAN_1
 62
     2
  6
CONTINUOUS
 10
-1.019622
 20
-0.774866
  0
VERTEX
  8
PLAN_1
 62
     2
  6
CONTINUOUS
 10
-1.020130
 20
-0.768256
  0
VERTEX
  8
PLAN_1
 62
     2
  6
CONTINUOUS
 10
-1.020638
 20
-0.762157
  0
VERTEX
  8
PLAN_1
 62
     2
  6
CONTINUOUS
 10
-1.021657
 20
-0.757579
  0
VERTEX
  8
PLAN_1
 62
     2
  6
CONTINUOUS
 10
-1.023181
 20
-0.753004
  0
VERTEX
  8
PLAN_1
 62
     2
  6
CONTINUOUS
 10
-1.025724
 20
-0.749953
  0
VERTEX
  8
PLAN_1
 62
     2
  6
CONTINUOUS
 10
-1.028264
 20
-0.747413
  0
VERTEX
  8
PLAN_1
 62
     2
  6
CONTINUOUS
 10
-1.029791
 20
-0.746394
  0
VERTEX
  8
PLAN_1
 62
     2
  6
CONTINUOUS
 10
-1.031315
 20
-0.745886
  0
VERTEX
  8
PLAN_1
 62
     2
  6
CONTINUOUS
 10
-1.032843
 20
-0.745378
  0
VERTEX
  8
PLAN_1
 62
     2
  6
CONTINUOUS
 10
-1.034874
 20
-0.745378
  0
SEQEND
  8
0
  0
POLYLINE
  8
PLAN_1
 62
     2
  6
CONTINUOUS
 66
     1
 40
0.004067
 41
0.004067
  0
VERTEX
  8
PLAN_1
 62
     2
  6
CONTINUOUS
 10
-1.413154
 20
-0.370150
  0
VERTEX
  8
PLAN_1
 62
     2
  6
CONTINUOUS
 10
-1.413154
 20
-0.700126
  0
SEQEND
  8
0
  0
POLYLINE
  8
PLAN_1
 62
     2
  6
CONTINUOUS
 66
     1
 40
0.004067
 41
0.004067
  0
VERTEX
  8
PLAN_1
 62
     2
  6
CONTINUOUS
 10
0.118768
 20
-0.619795
  0
VERTEX
  8
PLAN_1
 62
     2
  6
CONTINUOUS
 10
0.118768
 20
-0.857744
  0
SEQEND
  8
0
  0
POLYLINE
  8
PLAN_1
 62
     2
  6
CONTINUOUS
 66
     1
 40
0.004067
 41
0.004067
  0
VERTEX
  8
PLAN_1
 62
     2
  6
CONTINUOUS
 10
-2.246480
 20
3.481772
  0
VERTEX
  8
PLAN_1
 62
     2
  6
CONTINUOUS
 10
-2.246480
 20
-0.857744
  0
SEQEND
  8
0
  0
POLYLINE
  8
PLAN_1
 62
     2
  6
CONTINUOUS
 66
     1
 40
0.004067
 41
0.004067
  0
VERTEX
  8
PLAN_1
 62
     2
  6
CONTINUOUS
 10
0.268252
 20
-0.317272
  0
VERTEX
  8
PLAN_1
 62
     2
  6
CONTINUOUS
 10
0.268252
 20
4.034445
  0
SEQEND
  8
0
  0
SOLID
  8
PLAN_1
 62
     2
 10
0.268252
 20
4.063933
 11
0.252488
 21
4.004953
 12
0.268252
 22
4.063933
 13
0.284012
 23
4.004953
  0
POLYLINE
  8
PLAN_1
 62
     2
  6
CONTINUOUS
 66
     1
 40
0.003000
 41
0.003000
  0
VERTEX
  8
PLAN_1
 62
     2
  6
CONTINUOUS
 10
0.268252
 20
4.063933
  0
VERTEX
  8
PLAN_1
 62
     2
  6
CONTINUOUS
 10
0.252488
 20
4.004953
  0
VERTEX
  8
PLAN_1
 62
     2
  6
CONTINUOUS
 10
0.284012
 20
4.004953
  0
VERTEX
  8
PLAN_1
 62
     2
  6
CONTINUOUS
 10
0.268252
 20
4.063933
  0
SEQEND
  8
0
  0
SOLID
  8
PLAN_1
 62
     2
 10
0.268252
 20
-0.346764
 11
0.252488
 21
-0.287783
 12
0.268252
 22
-0.346764
 13
0.284012
 23
-0.287783
  0
POLYLINE
  8
PLAN_1
 62
     2
  6
CONTINUOUS
 66
     1
 40
0.003000
 41
0.003000
  0
VERTEX
  8
PLAN_1
 62
     2
  6
CONTINUOUS
 10
0.268252
 20
-0.346764
  0
VERTEX
  8
PLAN_1
 62
     2
  6
CONTINUOUS
 10
0.252488
 20
-0.287783
  0
VERTEX
  8
PLAN_1
 62
     2
  6
CONTINUOUS
 10
0.284012
 20
-0.287783
  0
VERTEX
  8
PLAN_1
 62
     2
  6
CONTINUOUS
 10
0.268252
 20
-0.346764
  0
SEQEND
  8
0
  0
POLYLINE
  8
PLAN_1
 62
     2
  6
CONTINUOUS
 66
     1
 40
0.003000
 41
0.003000
  0
VERTEX
  8
PLAN_1
 62
     2
  6
CONTINUOUS
 10
0.244354
 20
1.809012
  0
VERTEX
  8
PLAN_1
 62
     2
  6
CONTINUOUS
 10
0.244354
 20
1.799350
  0
VERTEX
  8
PLAN_1
 62
     2
  6
CONTINUOUS
 10
0.192492
 20
1.799350
  0
VERTEX
  8
PLAN_1
 62
     2
  6
CONTINUOUS
 10
0.192492
 20
1.782063
  0
VERTEX
  8
PLAN_1
 62
     2
  6
CONTINUOUS
 10
0.185374
 20
1.782063
  0
VERTEX
  8
PLAN_1
 62
     2
  6
CONTINUOUS
 10
0.184866
 20
1.786642
  0
VERTEX
  8
PLAN_1
 62
     2
  6
CONTINUOUS
 10
0.184358
 20
1.789693
  0
VERTEX
  8
PLAN_1
 62
     2
  6
CONTINUOUS
 10
0.183343
 20
1.792744
  0
VERTEX
  8
PLAN_1
 62
     2
  6
CONTINUOUS
 10
0.182323
 20
1.795283
  0
VERTEX
  8
PLAN_1
 62
     2
  6
CONTINUOUS
 10
0.180799
 20
1.797319
  0
VERTEX
  8
PLAN_1
 62
     2
  6
CONTINUOUS
 10
0.178256
 20
1.799350
  0
VERTEX
  8
PLAN_1
 62
     2
  6
CONTINUOUS
 10
0.175205
 20
1.800878
  0
VERTEX
  8
PLAN_1
 62
     2
  6
CONTINUOUS
 10
0.171138
 20
1.801894
  0
VERTEX
  8
PLAN_1
 62
     2
  6
CONTINUOUS
 10
0.171138
 20
1.809012
  0
VERTEX
  8
PLAN_1
 62
     2
  6
CONTINUOUS
 10
0.244354
 20
1.809012
  0
SEQEND
  8
0
  0
POLYLINE
  8
PLAN_1
 62
     2
  6
CONTINUOUS
 66
     1
 40
0.003000
 41
0.003000
  0
VERTEX
  8
PLAN_1
 62
     2
  6
CONTINUOUS
 10
0.246386
 20
1.858331
  0
VERTEX
  8
PLAN_1
 62
     2
  6
CONTINUOUS
 10
0.245878
 20
1.854772
  0
VERTEX
  8
PLAN_1
 62
     2
  6
CONTINUOUS
 10
0.245370
 20
1.851213
  0
VERTEX
  8
PLAN_1
 62
     2
  6
CONTINUOUS
 10
0.244354
 20
1.848669
  0
VERTEX
  8
PLAN_1
 62
     2
  6
CONTINUOUS
 10
0.242827
 20
1.845618
  0
VERTEX
  8
PLAN_1
 62
     2
  6
CONTINUOUS
 10
0.240795
 20
1.843587
  0
VERTEX
  8
PLAN_1
 62
     2
  6
CONTINUOUS
 10
0.238252
 20
1.841551
  0
VERTEX
  8
PLAN_1
 62
     2
  6
CONTINUOUS
 10
0.236217
 20
1.839520
  0
VERTEX
  8
PLAN_1
 62
     2
  6
CONTINUOUS
 10
0.233169
 20
1.837992
  0
VERTEX
  8
PLAN_1
 62
     2
  6
CONTINUOUS
 10
0.227575
 20
1.835961
  0
VERTEX
  8
PLAN_1
 62
     2
  6
CONTINUOUS
 10
0.220965
 20
1.834433
  0
VERTEX
  8
PLAN_1
 62
     2
  6
CONTINUOUS
 10
0.214862
 20
1.833925
  0
VERTEX
  8
PLAN_1
 62
     2
  6
CONTINUOUS
 10
0.208764
 20
1.833417
  0
VERTEX
  8
PLAN_1
 62
     2
  6
CONTINUOUS
 10
0.202661
 20
1.833925
  0
VERTEX
  8
PLAN_1
 62
     2
  6
CONTINUOUS
 10
0.196559
 20
1.834433
  0
VERTEX
  8
PLAN_1
 62
     2
  6
CONTINUOUS
 10
0.190461
 20
1.835961
  0
VERTEX
  8
PLAN_1
 62
     2
  6
CONTINUOUS
 10
0.184358
 20
1.837992
  0
VERTEX
  8
PLAN_1
 62
     2
  6
CONTINUOUS
 10
0.181815
 20
1.839520
  0
VERTEX
  8
PLAN_1
 62
     2
  6
CONTINUOUS
 10
0.179272
 20
1.841551
  0
VERTEX
  8
PLAN_1
 62
     2
  6
CONTINUOUS
 10
0.176732
 20
1.843587
  0
VERTEX
  8
PLAN_1
 62
     2
  6
CONTINUOUS
 10
0.175205
 20
1.845618
  0
VERTEX
  8
PLAN_1
 62
     2
  6
CONTINUOUS
 10
0.173173
 20
1.848669
  0
VERTEX
  8
PLAN_1
 62
     2
  6
CONTINUOUS
 10
0.172154
 20
1.851213
  0
VERTEX
  8
PLAN_1
 62
     2
  6
CONTINUOUS
 10
0.171646
 20
1.854772
  0
VERTEX
  8
PLAN_1
 62
     2
  6
CONTINUOUS
 10
0.171138
 20
1.858331
  0
VERTEX
  8
PLAN_1
 62
     2
  6
CONTINUOUS
 10
0.171646
 20
1.862398
  0
VERTEX
  8
PLAN_1
 62
     2
  6
CONTINUOUS
 10
0.172154
 20
1.865449
  0
VERTEX
  8
PLAN_1
 62
     2
  6
CONTINUOUS
 10
0.173173
 20
1.868500
  0
VERTEX
  8
PLAN_1
 62
     2
  6
CONTINUOUS
 10
0.175205
 20
1.871551
  0
VERTEX
  8
PLAN_1
 62
     2
  6
CONTINUOUS
 10
0.176732
 20
1.873583
  0
VERTEX
  8
PLAN_1
 62
     2
  6
CONTINUOUS
 10
0.179272
 20
1.875618
  0
VERTEX
  8
PLAN_1
 62
     2
  6
CONTINUOUS
 10
0.181815
 20
1.877650
  0
VERTEX
  8
PLAN_1
 62
     2
  6
CONTINUOUS
 10
0.184358
 20
1.879177
  0
VERTEX
  8
PLAN_1
 62
     2
  6
CONTINUOUS
 10
0.190461
 20
1.881209
  0
VERTEX
  8
PLAN_1
 62
     2
  6
CONTINUOUS
 10
0.196559
 20
1.882736
  0
VERTEX
  8
PLAN_1
 62
     2
  6
CONTINUOUS
 10
0.202661
 20
1.883244
  0
VERTEX
  8
PLAN_1
 62
     2
  6
CONTINUOUS
 10
0.208764
 20
1.883752
  0
VERTEX
  8
PLAN_1
 62
     2
  6
CONTINUOUS
 10
0.214862
 20
1.883244
  0
VERTEX
  8
PLAN_1
 62
     2
  6
CONTINUOUS
 10
0.220965
 20
1.882736
  0
VERTEX
  8
PLAN_1
 62
     2
  6
CONTINUOUS
 10
0.227575
 20
1.881209
  0
VERTEX
  8
PLAN_1
 62
     2
  6
CONTINUOUS
 10
0.233169
 20
1.879177
  0
VERTEX
  8
PLAN_1
 62
     2
  6
CONTINUOUS
 10
0.236217
 20
1.877650
  0
VERTEX
  8
PLAN_1
 62
     2
  6
CONTINUOUS
 10
0.238252
 20
1.875618
  0
VERTEX
  8
PLAN_1
 62
     2
  6
CONTINUOUS
 10
0.240795
 20
1.873583
  0
VERTEX
  8
PLAN_1
 62
     2
  6
CONTINUOUS
 10
0.242827
 20
1.871551
  0
VERTEX
  8
PLAN_1
 62
     2
  6
CONTINUOUS
 10
0.244354
 20
1.868500
  0
VERTEX
  8
PLAN_1
 62
     2
  6
CONTINUOUS
 10
0.245370
 20
1.865449
  0
VERTEX
  8
PLAN_1
 62
     2
  6
CONTINUOUS
 10
0.245878
 20
1.862398
  0
VERTEX
  8
PLAN_1
 62
     2
  6
CONTINUOUS
 10
0.246386
 20
1.858331
  0
SEQEND
  8
0
  0
POLYLINE
  8
PLAN_1
 62
     2
  6
CONTINUOUS
 66
     1
 40
0.003000
 41
0.003000
  0
VERTEX
  8
PLAN_1
 62
     2
  6
CONTINUOUS
 10
0.179272
 20
1.858331
  0
VERTEX
  8
PLAN_1
 62
     2
  6
CONTINUOUS
 10
0.179783
 20
1.856807
  0
VERTEX
  8
PLAN_1
 62
     2
  6
CONTINUOUS
 10
0.179783
 20
1.854772
  0
VERTEX
  8
PLAN_1
 62
     2
  6
CONTINUOUS
 10
0.180799
 20
1.853248
  0
VERTEX
  8
PLAN_1
 62
     2
  6
CONTINUOUS
 10
0.181307
 20
1.851720
  0
VERTEX
  8
PLAN_1
 62
     2
  6
CONTINUOUS
 10
0.183850
 20
1.849177
  0
VERTEX
  8
PLAN_1
 62
     2
  6
CONTINUOUS
 10
0.187409
 20
1.847146
  0
VERTEX
  8
PLAN_1
 62
     2
  6
CONTINUOUS
 10
0.191476
 20
1.845110
  0
VERTEX
  8
PLAN_1
 62
     2
  6
CONTINUOUS
 10
0.196559
 20
1.844094
  0
VERTEX
  8
PLAN_1
 62
     2
  6
CONTINUOUS
 10
0.202154
 20
1.843587
  0
VERTEX
  8
PLAN_1
 62
     2
  6
CONTINUOUS
 10
0.208764
 20
1.843079
  0
VERTEX
  8
PLAN_1
 62
     2
  6
CONTINUOUS
 10
0.215374
 20
1.843587
  0
VERTEX
  8
PLAN_1
 62
     2
  6
CONTINUOUS
 10
0.220965
 20
1.844094
  0
VERTEX
  8
PLAN_1
 62
     2
  6
CONTINUOUS
 10
0.226051
 20
1.845110
  0
VERTEX
  8
PLAN_1
 62
     2
  6
CONTINUOUS
 10
0.230118
 20
1.847146
  0
VERTEX
  8
PLAN_1
 62
     2
  6
CONTINUOUS
 10
0.233677
 20
1.849177
  0
VERTEX
  8
PLAN_1
 62
     2
  6
CONTINUOUS
 10
0.236217
 20
1.851720
  0
VERTEX
  8
PLAN_1
 62
     2
  6
CONTINUOUS
 10
0.237236
 20
1.853248
  0
VERTEX
  8
PLAN_1
 62
     2
  6
CONTINUOUS
 10
0.237744
 20
1.854772
  0
VERTEX
  8
PLAN_1
 62
     2
  6
CONTINUOUS
 10
0.238252
 20
1.856807
  0
VERTEX
  8
PLAN_1
 62
     2
  6
CONTINUOUS
 10
0.238252
 20
1.858331
  0
VERTEX
  8
PLAN_1
 62
     2
  6
CONTINUOUS
 10
0.238252
 20
1.860366
  0
VERTEX
  8
PLAN_1
 62
     2
  6
CONTINUOUS
 10
0.237744
 20
1.862398
  0
VERTEX
  8
PLAN_1
 62
     2
  6
CONTINUOUS
 10
0.237236
 20
1.863925
  0
VERTEX
  8
PLAN_1
 62
     2
  6
CONTINUOUS
 10
0.236217
 20
1.865449
  0
VERTEX
  8
PLAN_1
 62
     2
  6
CONTINUOUS
 10
0.233677
 20
1.867992
  0
VERTEX
  8
PLAN_1
 62
     2
  6
CONTINUOUS
 10
0.230118
 20
1.870024
  0
VERTEX
  8
PLAN_1
 62
     2
  6
CONTINUOUS
 10
0.226051
 20
1.871551
  0
VERTEX
  8
PLAN_1
 62
     2
  6
CONTINUOUS
 10
0.220965
 20
1.873075
  0
VERTEX
  8
PLAN_1
 62
     2
  6
CONTINUOUS
 10
0.215374
 20
1.873583
  0
VERTEX
  8
PLAN_1
 62
     2
  6
CONTINUOUS
 10
0.208764
 20
1.874091
  0
VERTEX
  8
PLAN_1
 62
     2
  6
CONTINUOUS
 10
0.202154
 20
1.873583
  0
VERTEX
  8
PLAN_1
 62
     2
  6
CONTINUOUS
 10
0.196559
 20
1.873075
  0
VERTEX
  8
PLAN_1
 62
     2
  6
CONTINUOUS
 10
0.191476
 20
1.871551
  0
VERTEX
  8
PLAN_1
 62
     2
  6
CONTINUOUS
 10
0.187409
 20
1.870024
  0
VERTEX
  8
PLAN_1
 62
     2
  6
CONTINUOUS
 10
0.183850
 20
1.867992
  0
VERTEX
  8
PLAN_1
 62
     2
  6
CONTINUOUS
 10
0.181307
 20
1.865449
  0
VERTEX
  8
PLAN_1
 62
     2
  6
CONTINUOUS
 10
0.180799
 20
1.863925
  0
VERTEX
  8
PLAN_1
 62
     2
  6
CONTINUOUS
 10
0.179783
 20
1.862398
  0
VERTEX
  8
PLAN_1
 62
     2
  6
CONTINUOUS
 10
0.179783
 20
1.860366
  0
VERTEX
  8
PLAN_1
 62
     2
  6
CONTINUOUS
 10
0.179272
 20
1.858331
  0
SEQEND
  8
0
  0
POLYLINE
  8
PLAN_1
 62
     2
  6
CONTINUOUS
 66
     1
 40
0.003000
 41
0.003000
  0
VERTEX
  8
PLAN_1
 62
     2
  6
CONTINUOUS
 10
0.196559
 20
1.891886
  0
VERTEX
  8
PLAN_1
 62
     2
  6
CONTINUOUS
 10
0.191476
 20
1.892398
  0
VERTEX
  8
PLAN_1
 62
     2
  6
CONTINUOUS
 10
0.186902
 20
1.893413
  0
VERTEX
  8
PLAN_1
 62
     2
  6
CONTINUOUS
 10
0.182323
 20
1.895445
  0
VERTEX
  8
PLAN_1
 62
     2
  6
CONTINUOUS
 10
0.178764
 20
1.897988
  0
VERTEX
  8
PLAN_1
 62
     2
  6
CONTINUOUS
 10
0.177240
 20
1.899516
  0
VERTEX
  8
PLAN_1
 62
     2
  6
CONTINUOUS
 10
0.175713
 20
1.901039
  0
VERTEX
  8
PLAN_1
 62
     2
  6
CONTINUOUS
 10
0.174189
 20
1.903075
  0
VERTEX
  8
PLAN_1
 62
     2
  6
CONTINUOUS
 10
0.173173
 20
1.905106
  0
VERTEX
  8
PLAN_1
 62
     2
  6
CONTINUOUS
 10
0.172665
 20
1.907650
  0
VERTEX
  8
PLAN_1
 62
     2
  6
CONTINUOUS
 10
0.171646
 20
1.910193
  0
VERTEX
  8
PLAN_1
 62
     2
  6
CONTINUOUS
 10
0.171646
 20
1.912732
  0
VERTEX
  8
PLAN_1
 62
     2
  6
CONTINUOUS
 10
0.171138
 20
1.915276
  0
VERTEX
  8
PLAN_1
 62
     2
  6
CONTINUOUS
 10
0.171646
 20
1.919343
  0
VERTEX
  8
PLAN_1
 62
     2
  6
CONTINUOUS
 10
0.172154
 20
1.923409
  0
VERTEX
  8
PLAN_1
 62
     2
  6
CONTINUOUS
 10
0.173173
 20
1.926461
  0
VERTEX
  8
PLAN_1
 62
     2
  6
CONTINUOUS
 10
0.174697
 20
1.929512
  0
VERTEX
  8
PLAN_1
 62
     2
  6
CONTINUOUS
 10
0.176732
 20
1.931547
  0
VERTEX
  8
PLAN_1
 62
     2
  6
CONTINUOUS
 10
0.178764
 20
1.933579
  0
VERTEX
  8
PLAN_1
 62
     2
  6
CONTINUOUS
 10
0.181307
 20
1.935614
  0
VERTEX
  8
PLAN_1
 62
     2
  6
CONTINUOUS
 10
0.183850
 20
1.937138
  0
VERTEX
  8
PLAN_1
 62
     2
  6
CONTINUOUS
 10
0.189441
 20
1.939173
  0
VERTEX
  8
PLAN_1
 62
     2
  6
CONTINUOUS
 10
0.195035
 20
1.940189
  0
VERTEX
  8
PLAN_1
 62
     2
  6
CONTINUOUS
 10
0.200118
 20
1.940697
  0
VERTEX
  8
PLAN_1
 62
     2
  6
CONTINUOUS
 10
0.205205
 20
1.941205
  0
VERTEX
  8
PLAN_1
 62
     2
  6
CONTINUOUS
 10
0.209272
 20
1.940697
  0
VERTEX
  8
PLAN_1
 62
     2
  6
CONTINUOUS
 10
0.214862
 20
1.940189
  0
VERTEX
  8
PLAN_1
 62
     2
  6
CONTINUOUS
 10
0.221472
 20
1.939173
  0
VERTEX
  8
PLAN_1
 62
     2
  6
CONTINUOUS
 10
0.228591
 20
1.937138
  0
VERTEX
  8
PLAN_1
 62
     2
  6
CONTINUOUS
 10
0.232150
 20
1.935614
  0
VERTEX
  8
PLAN_1
 62
     2
  6
CONTINUOUS
 10
0.235201
 20
1.934087
  0
VERTEX
  8
PLAN_1
 62
     2
  6
CONTINUOUS
 10
0.238252
 20
1.932055
  0
VERTEX
  8
PLAN_1
 62
     2
  6
CONTINUOUS
 10
0.240795
 20
1.929512
  0
VERTEX
  8
PLAN_1
 62
     2
  6
CONTINUOUS
 10
0.243339
 20
1.926461
  0
VERTEX
  8
PLAN_1
 62
     2
  6
CONTINUOUS
 10
0.244862
 20
1.922902
  0
VERTEX
  8
PLAN_1
 62
     2
  6
CONTINUOUS
 10
0.245878
 20
1.918835
  0
VERTEX
  8
PLAN_1
 62
     2
  6
CONTINUOUS
 10
0.246386
 20
1.914260
  0
VERTEX
  8
PLAN_1
 62
     2
  6
CONTINUOUS
 10
0.246386
 20
1.911209
  0
VERTEX
  8
PLAN_1
 62
     2
  6
CONTINUOUS
 10
0.245878
 20
1.908665
  0
VERTEX
  8
PLAN_1
 62
     2
  6
CONTINUOUS
 10
0.245370
 20
1.906122
  0
VERTEX
  8
PLAN_1
 62
     2
  6
CONTINUOUS
 10
0.244354
 20
1.904091
  0
VERTEX
  8
PLAN_1
 62
     2
  6
CONTINUOUS
 10
0.241811
 20
1.900024
  0
VERTEX
  8
PLAN_1
 62
     2
  6
CONTINUOUS
 10
0.239268
 20
1.896972
  0
VERTEX
  8
PLAN_1
 62
     2
  6
CONTINUOUS
 10
0.236217
 20
1.894937
  0
VERTEX
  8
PLAN_1
 62
     2
  6
CONTINUOUS
 10
0.232657
 20
1.893921
  0
VERTEX
  8
PLAN_1
 62
     2
  6
CONTINUOUS
 10
0.229610
 20
1.892906
  0
VERTEX
  8
PLAN_1
 62
     2
  6
CONTINUOUS
 10
0.227067
 20
1.892906
  0
VERTEX
  8
PLAN_1
 62
     2
  6
CONTINUOUS
 10
0.227067
 20
1.902055
  0
VERTEX
  8
PLAN_1
 62
     2
  6
CONTINUOUS
 10
0.229610
 20
1.902055
  0
VERTEX
  8
PLAN_1
 62
     2
  6
CONTINUOUS
 10
0.231642
 20
1.903075
  0
VERTEX
  8
PLAN_1
 62
     2
  6
CONTINUOUS
 10
0.233677
 20
1.904091
  0
VERTEX
  8
PLAN_1
 62
     2
  6
CONTINUOUS
 10
0.235709
 20
1.905614
  0
VERTEX
  8
PLAN_1
 62
     2
  6
CONTINUOUS
 10
0.236728
 20
1.907142
  0
VERTEX
  8
PLAN_1
 62
     2
  6
CONTINUOUS
 10
0.237744
 20
1.909173
  0
VERTEX
  8
PLAN_1
 62
     2
  6
CONTINUOUS
 10
0.238760
 20
1.911717
  0
VERTEX
  8
PLAN_1
 62
     2
  6
CONTINUOUS
 10
0.238760
 20
1.914260
  0
VERTEX
  8
PLAN_1
 62
     2
  6
CONTINUOUS
 10
0.238252
 20
1.917819
  0
VERTEX
  8
PLAN_1
 62
     2
  6
CONTINUOUS
 10
0.237236
 20
1.920870
  0
VERTEX
  8
PLAN_1
 62
     2
  6
CONTINUOUS
 10
0.235201
 20
1.923409
  0
VERTEX
  8
PLAN_1
 62
     2
  6
CONTINUOUS
 10
0.232150
 20
1.925953
  0
VERTEX
  8
PLAN_1
 62
     2
  6
CONTINUOUS
 10
0.228591
 20
1.927988
  0
VERTEX
  8
PLAN_1
 62
     2
  6
CONTINUOUS
 10
0.223508
 20
1.929512
  0
VERTEX
  8
PLAN_1
 62
     2
  6
CONTINUOUS
 10
0.217913
 20
1.931035
  0
VERTEX
  8
PLAN_1
 62
     2
  6
CONTINUOUS
 10
0.211303
 20
1.932055
  0
VERTEX
  8
PLAN_1
 62
     2
  6
CONTINUOUS
 10
0.211303
 20
1.931547
  0
VERTEX
  8
PLAN_1
 62
     2
  6
CONTINUOUS
 10
0.213339
 20
1.930528
  0
VERTEX
  8
PLAN_1
 62
     2
  6
CONTINUOUS
 10
0.214862
 20
1.929004
  0
VERTEX
  8
PLAN_1
 62
     2
  6
CONTINUOUS
 10
0.216390
 20
1.926969
  0
VERTEX
  8
PLAN_1
 62
     2
  6
CONTINUOUS
 10
0.217913
 20
1.924937
  0
VERTEX
  8
PLAN_1
 62
     2
  6
CONTINUOUS
 10
0.218421
 20
1.922394
  0
VERTEX
  8
PLAN_1
 62
     2
  6
CONTINUOUS
 10
0.219441
 20
1.919850
  0
VERTEX
  8
PLAN_1
 62
     2
  6
CONTINUOUS
 10
0.219949
 20
1.917311
  0
VERTEX
  8
PLAN_1
 62
     2
  6
CONTINUOUS
 10
0.219949
 20
1.914768
  0
VERTEX
  8
PLAN_1
 62
     2
  6
CONTINUOUS
 10
0.219441
 20
1.910193
  0
VERTEX
  8
PLAN_1
 62
     2
  6
CONTINUOUS
 10
0.218421
 20
1.905614
  0
VERTEX
  8
PLAN_1
 62
     2
  6
CONTINUOUS
 10
0.216390
 20
1.901547
  0
VERTEX
  8
PLAN_1
 62
     2
  6
CONTINUOUS
 10
0.213846
 20
1.898496
  0
VERTEX
  8
PLAN_1
 62
     2
  6
CONTINUOUS
 10
0.210287
 20
1.895445
  0
VERTEX
  8
PLAN_1
 62
     2
  6
CONTINUOUS
 10
0.206220
 20
1.893413
  0
VERTEX
  8
PLAN_1
 62
     2
  6
CONTINUOUS
 10
0.201646
 20
1.892398
  0
VERTEX
  8
PLAN_1
 62
     2
  6
CONTINUOUS
 10
0.196559
 20
1.891886
  0
SEQEND
  8
0
  0
POLYLINE
  8
PLAN_1
 62
     2
  6
CONTINUOUS
 66
     1
 40
0.003000
 41
0.003000
  0
VERTEX
  8
PLAN_1
 62
     2
  6
CONTINUOUS
 10
0.195035
 20
1.930528
  0
VERTEX
  8
PLAN_1
 62
     2
  6
CONTINUOUS
 10
0.191984
 20
1.930020
  0
VERTEX
  8
PLAN_1
 62
     2
  6
CONTINUOUS
 10
0.188933
 20
1.929512
  0
VERTEX
  8
PLAN_1
 62
     2
  6
CONTINUOUS
 10
0.186390
 20
1.928496
  0
VERTEX
  8
PLAN_1
 62
     2
  6
CONTINUOUS
 10
0.184358
 20
1.926969
  0
VERTEX
  8
PLAN_1
 62
     2
  6
CONTINUOUS
 10
0.182323
 20
1.924937
  0
VERTEX
  8
PLAN_1
 62
     2
  6
CONTINUOUS
 10
0.180799
 20
1.922394
  0
VERTEX
  8
PLAN_1
 62
     2
  6
CONTINUOUS
 10
0.179783
 20
1.919343
  0
VERTEX
  8
PLAN_1
 62
     2
  6
CONTINUOUS
 10
0.179272
 20
1.915783
  0
VERTEX
  8
PLAN_1
 62
     2
  6
CONTINUOUS
 10
0.179783
 20
1.912732
  0
VERTEX
  8
PLAN_1
 62
     2
  6
CONTINUOUS
 10
0.180799
 20
1.909681
  0
VERTEX
  8
PLAN_1
 62
     2
  6
CONTINUOUS
 10
0.182323
 20
1.907142
  0
VERTEX
  8
PLAN_1
 62
     2
  6
CONTINUOUS
 10
0.183850
 20
1.905106
  0
VERTEX
  8
PLAN_1
 62
     2
  6
CONTINUOUS
 10
0.186390
 20
1.903583
  0
VERTEX
  8
PLAN_1
 62
     2
  6
CONTINUOUS
 10
0.189441
 20
1.902563
  0
VERTEX
  8
PLAN_1
 62
     2
  6
CONTINUOUS
 10
0.192492
 20
1.901547
  0
VERTEX
  8
PLAN_1
 62
     2
  6
CONTINUOUS
 10
0.196051
 20
1.901547
  0
VERTEX
  8
PLAN_1
 62
     2
  6
CONTINUOUS
 10
0.200626
 20
1.901547
  0
VERTEX
  8
PLAN_1
 62
     2
  6
CONTINUOUS
 10
0.204185
 20
1.903075
  0
VERTEX
  8
PLAN_1
 62
     2
  6
CONTINUOUS
 10
0.207236
 20
1.904598
  0
VERTEX
  8
PLAN_1
 62
     2
  6
CONTINUOUS
 10
0.209272
 20
1.906634
  0
VERTEX
  8
PLAN_1
 62
     2
  6
CONTINUOUS
 10
0.210287
 20
1.908665
  0
VERTEX
  8
PLAN_1
 62
     2
  6
CONTINUOUS
 10
0.211303
 20
1.911209
  0
VERTEX
  8
PLAN_1
 62
     2
  6
CONTINUOUS
 10
0.211815
 20
1.913752
  0
VERTEX
  8
PLAN_1
 62
     2
  6
CONTINUOUS
 10
0.211815
 20
1.916291
  0
VERTEX
  8
PLAN_1
 62
     2
  6
CONTINUOUS
 10
0.211815
 20
1.918327
  0
VERTEX
  8
PLAN_1
 62
     2
  6
CONTINUOUS
 10
0.211303
 20
1.920358
  0
VERTEX
  8
PLAN_1
 62
     2
  6
CONTINUOUS
 10
0.210287
 20
1.922902
  0
VERTEX
  8
PLAN_1
 62
     2
  6
CONTINUOUS
 10
0.208764
 20
1.924937
  0
VERTEX
  8
PLAN_1
 62
     2
  6
CONTINUOUS
 10
0.206728
 20
1.926969
  0
VERTEX
  8
PLAN_1
 62
     2
  6
CONTINUOUS
 10
0.203677
 20
1.929004
  0
VERTEX
  8
PLAN_1
 62
     2
  6
CONTINUOUS
 10
0.200118
 20
1.930020
  0
VERTEX
  8
PLAN_1
 62
     2
  6
CONTINUOUS
 10
0.195035
 20
1.930528
  0
SEQEND
  8
0
  0
SOLID
  8
PLAN_1
 62
     2
 10
-2.134626
 20
3.767004
 11
-2.165130
 21
3.819882
 12
-2.134626
 22
3.767004
 13
-2.187504
 23
3.798020
  0
POLYLINE
  8
PLAN_1
 62
     2
  6
CONTINUOUS
 66
     1
 40
0.003000
 41
0.003000
  0
VERTEX
  8
PLAN_1
 62
     2
  6
CONTINUOUS
 10
-2.134626
 20
3.767004
  0
VERTEX
  8
PLAN_1
 62
     2
  6
CONTINUOUS
 10
-2.165130
 20
3.819882
  0
VERTEX
  8
PLAN_1
 62
     2
  6
CONTINUOUS
 10
-2.187504
 20
3.798020
  0
VERTEX
  8
PLAN_1
 62
     2
  6
CONTINUOUS
 10
-2.134626
 20
3.767004
  0
SEQEND
  8
0
  0
POLYLINE
  8
PLAN_1
 62
     2
  6
CONTINUOUS
 66
     1
 40
0.004067
 41
0.004067
  0
VERTEX
  8
PLAN_1
 62
     2
  6
CONTINUOUS
 10
-2.161063
 20
3.793445
  0
VERTEX
  8
PLAN_1
 62
     2
  6
CONTINUOUS
 10
-2.290717
 20
3.918012
  0
VERTEX
  8
PLAN_1
 62
     2
  6
CONTINUOUS
 10
-2.579000
 20
3.918012
  0
SEQEND
  8
0
  0
POLYLINE
  8
PLAN_1
 62
     2
  6
CONTINUOUS
 66
     1
 40
0.003000
 41
0.003000
  0
VERTEX
  8
PLAN_1
 62
     2
  6
CONTINUOUS
 10
-2.456976
 20
3.941909
  0
VERTEX
  8
PLAN_1
 62
     2
  6
CONTINUOUS
 10
-2.456976
 20
3.986142
  0
VERTEX
  8
PLAN_1
 62
     2
  6
CONTINUOUS
 10
-2.456976
 20
3.987157
  0
VERTEX
  8
PLAN_1
 62
     2
  6
CONTINUOUS
 10
-2.456976
 20
3.988685
  0
VERTEX
  8
PLAN_1
 62
     2
  6
CONTINUOUS
 10
-2.456976
 20
3.991224
  0
VERTEX
  8
PLAN_1
 62
     2
  6
CONTINUOUS
 10
-2.456976
 20
3.993260
  0
VERTEX
  8
PLAN_1
 62
     2
  6
CONTINUOUS
 10
-2.456976
 20
3.996311
  0
VERTEX
  8
PLAN_1
 62
     2
  6
CONTINUOUS
 10
-2.456976
 20
3.998854
  0
VERTEX
  8
PLAN_1
 62
     2
  6
CONTINUOUS
 10
-2.456976
 20
4.001902
  0
VERTEX
  8
PLAN_1
 62
     2
  6
CONTINUOUS
 10
-2.456976
 20
4.004445
  0
VERTEX
  8
PLAN_1
 62
     2
  6
CONTINUOUS
 10
-2.477823
 20
3.941909
  0
VERTEX
  8
PLAN_1
 62
     2
  6
CONTINUOUS
 10
-2.487988
 20
3.941909
  0
VERTEX
  8
PLAN_1
 62
     2
  6
CONTINUOUS
 10
-2.508835
 20
4.004445
  0
VERTEX
  8
PLAN_1
 62
     2
  6
CONTINUOUS
 10
-2.509343
 20
4.004445
  0
VERTEX
  8
PLAN_1
 62
     2
  6
CONTINUOUS
 10
-2.509343
 20
4.001902
  0
VERTEX
  8
PLAN_1
 62
     2
  6
CONTINUOUS
 10
-2.509343
 20
3.998854
  0
VERTEX
  8
PLAN_1
 62
     2
  6
CONTINUOUS
 10
-2.509343
 20
3.996311
  0
VERTEX
  8
PLAN_1
 62
     2
  6
CONTINUOUS
 10
-2.508835
 20
3.993260
  0
VERTEX
  8
PLAN_1
 62
     2
  6
CONTINUOUS
 10
-2.508835
 20
3.991224
  0
VERTEX
  8
PLAN_1
 62
     2
  6
CONTINUOUS
 10
-2.508835
 20
3.988685
  0
VERTEX
  8
PLAN_1
 62
     2
  6
CONTINUOUS
 10
-2.508835
 20
3.987157
  0
VERTEX
  8
PLAN_1
 62
     2
  6
CONTINUOUS
 10
-2.508835
 20
3.986142
  0
VERTEX
  8
PLAN_1
 62
     2
  6
CONTINUOUS
 10
-2.508835
 20
3.941909
  0
VERTEX
  8
PLAN_1
 62
     2
  6
CONTINUOUS
 10
-2.518496
 20
3.941909
  0
VERTEX
  8
PLAN_1
 62
     2
  6
CONTINUOUS
 10
-2.518496
 20
4.016650
  0
VERTEX
  8
PLAN_1
 62
     2
  6
CONTINUOUS
 10
-2.504260
 20
4.016650
  0
VERTEX
  8
PLAN_1
 62
     2
  6
CONTINUOUS
 10
-2.482906
 20
3.953602
  0
VERTEX
  8
PLAN_1
 62
     2
  6
CONTINUOUS
 10
-2.461551
 20
4.016650
  0
VERTEX
  8
PLAN_1
 62
     2
  6
CONTINUOUS
 10
-2.447315
 20
4.016650
  0
VERTEX
  8
PLAN_1
 62
     2
  6
CONTINUOUS
 10
-2.447315
 20
3.941909
  0
VERTEX
  8
PLAN_1
 62
     2
  6
CONTINUOUS
 10
-2.456976
 20
3.941909
  0
SEQEND
  8
0
  0
POLYLINE
  8
PLAN_1
 62
     2
  6
CONTINUOUS
 66
     1
 40
0.003000
 41
0.003000
  0
VERTEX
  8
PLAN_1
 62
     2
  6
CONTINUOUS
 10
-2.395961
 20
3.995803
  0
VERTEX
  8
PLAN_1
 62
     2
  6
CONTINUOUS
 10
-2.396980
 20
3.997835
  0
VERTEX
  8
PLAN_1
 62
     2
  6
CONTINUOUS
 10
-2.397488
 20
3.999870
  0
VERTEX
  8
PLAN_1
 62
     2
  6
CONTINUOUS
 10
-2.398504
 20
4.001902
  0
VERTEX
  8
PLAN_1
 62
     2
  6
CONTINUOUS
 10
-2.400031
 20
4.003429
  0
VERTEX
  8
PLAN_1
 62
     2
  6
CONTINUOUS
 10
-2.401555
 20
4.004953
  0
VERTEX
  8
PLAN_1
 62
     2
  6
CONTINUOUS
 10
-2.403591
 20
4.005972
  0
VERTEX
  8
PLAN_1
 62
     2
  6
CONTINUOUS
 10
-2.406130
 20
4.006480
  0
VERTEX
  8
PLAN_1
 62
     2
  6
CONTINUOUS
 10
-2.408673
 20
4.006988
  0
VERTEX
  8
PLAN_1
 62
     2
  6
CONTINUOUS
 10
-2.411217
 20
4.006480
  0
VERTEX
  8
PLAN_1
 62
     2
  6
CONTINUOUS
 10
-2.413756
 20
4.005972
  0
VERTEX
  8
PLAN_1
 62
     2
  6
CONTINUOUS
 10
-2.415791
 20
4.004953
  0
VERTEX
  8
PLAN_1
 62
     2
  6
CONTINUOUS
 10
-2.417315
 20
4.003429
  0
VERTEX
  8
PLAN_1
 62
     2
  6
CONTINUOUS
 10
-2.419350
 20
4.001902
  0
VERTEX
  8
PLAN_1
 62
     2
  6
CONTINUOUS
 10
-2.420366
 20
4.000378
  0
VERTEX
  8
PLAN_1
 62
     2
  6
CONTINUOUS
 10
-2.421894
 20
3.998343
  0
VERTEX
  8
PLAN_1
 62
     2
  6
CONTINUOUS
 10
-2.422909
 20
3.996311
  0
VERTEX
  8
PLAN_1
 62
     2
  6
CONTINUOUS
 10
-2.424433
 20
3.991736
  0
VERTEX
  8
PLAN_1
 62
     2
  6
CONTINUOUS
 10
-2.425453
 20
3.987157
  0
VERTEX
  8
PLAN_1
 62
     2
  6
CONTINUOUS
 10
-2.425961
 20
3.983091
  0
VERTEX
  8
PLAN_1
 62
     2
  6
CONTINUOUS
 10
-2.425961
 20
3.979531
  0
VERTEX
  8
PLAN_1
 62
     2
  6
CONTINUOUS
 10
-2.424945
 20
3.981059
  0
VERTEX
  8
PLAN_1
 62
     2
  6
CONTINUOUS
 10
-2.423925
 20
3.982583
  0
VERTEX
  8
PLAN_1
 62
     2
  6
CONTINUOUS
 10
-2.421894
 20
3.984106
  0
VERTEX
  8
PLAN_1
 62
     2
  6
CONTINUOUS
 10
-2.420366
 20
3.985634
  0
VERTEX
  8
PLAN_1
 62
     2
  6
CONTINUOUS
 10
-2.417827
 20
3.986650
  0
VERTEX
  8
PLAN_1
 62
     2
  6
CONTINUOUS
 10
-2.415283
 20
3.987665
  0
VERTEX
  8
PLAN_1
 62
     2
  6
CONTINUOUS
 10
-2.412232
 20
3.988177
  0
VERTEX
  8
PLAN_1
 62
     2
  6
CONTINUOUS
 10
-2.408673
 20
3.988685
  0
VERTEX
  8
PLAN_1
 62
     2
  6
CONTINUOUS
 10
-2.405114
 20
3.988177
  0
VERTEX
  8
PLAN_1
 62
     2
  6
CONTINUOUS
 10
-2.401047
 20
3.987157
  0
VERTEX
  8
PLAN_1
 62
     2
  6
CONTINUOUS
 10
-2.397488
 20
3.985634
  0
VERTEX
  8
PLAN_1
 62
     2
  6
CONTINUOUS
 10
-2.393929
 20
3.983598
  0
VERTEX
  8
PLAN_1
 62
     2
  6
CONTINUOUS
 10
-2.391894
 20
3.982075
  0
VERTEX
  8
PLAN_1
 62
     2
  6
CONTINUOUS
 10
-2.390370
 20
3.980039
  0
VERTEX
  8
PLAN_1
 62
     2
  6
CONTINUOUS
 10
-2.389354
 20
3.978516
  0
VERTEX
  8
PLAN_1
 62
     2
  6
CONTINUOUS
 10
-2.387827
 20
3.976480
  0
VERTEX
  8
PLAN_1
 62
     2
  6
CONTINUOUS
 10
-2.386811
 20
3.973941
  0
VERTEX
  8
PLAN_1
 62
     2
  6
CONTINUOUS
 10
-2.386303
 20
3.971398
  0
VERTEX
  8
PLAN_1
 62
     2
  6
CONTINUOUS
 10
-2.385795
 20
3.968346
  0
VERTEX
  8
PLAN_1
 62
     2
  6
CONTINUOUS
 10
-2.385795
 20
3.965295
  0
VERTEX
  8
PLAN_1
 62
     2
  6
CONTINUOUS
 10
-2.385795
 20
3.962752
  0
VERTEX
  8
PLAN_1
 62
     2
  6
CONTINUOUS
 10
-2.386303
 20
3.960213
  0
VERTEX
  8
PLAN_1
 62
     2
  6
CONTINUOUS
 10
-2.386811
 20
3.957669
  0
VERTEX
  8
PLAN_1
 62
     2
  6
CONTINUOUS
 10
-2.387319
 20
3.955126
  0
VERTEX
  8
PLAN_1
 62
     2
  6
CONTINUOUS
 10
-2.388335
 20
3.953094
  0
VERTEX
  8
PLAN_1
 62
     2
  6
CONTINUOUS
 10
-2.389354
 20
3.951059
  0
VERTEX
  8
PLAN_1
 62
     2
  6
CONTINUOUS
 10
-2.390878
 20
3.949028
  0
VERTEX
  8
PLAN_1
 62
     2
  6
CONTINUOUS
 10
-2.392913
 20
3.946992
  0
VERTEX
  8
PLAN_1
 62
     2
  6
CONTINUOUS
 10
-2.393929
 20
3.945469
  0
VERTEX
  8
PLAN_1
 62
     2
  6
CONTINUOUS
 10
-2.395961
 20
3.943941
  0
VERTEX
  8
PLAN_1
 62
     2
  6
CONTINUOUS
 10
-2.397488
 20
3.942925
  0
VERTEX
  8
PLAN_1
 62
     2
  6
CONTINUOUS
 10
-2.399520
 20
3.941909
  0
VERTEX
  8
PLAN_1
 62
     2
  6
CONTINUOUS
 10
-2.402063
 20
3.940890
  0
VERTEX
  8
PLAN_1
 62
     2
  6
CONTINUOUS
 10
-2.404606
 20
3.940382
  0
VERTEX
  8
PLAN_1
 62
     2
  6
CONTINUOUS
 10
-2.407657
 20
3.939874
  0
VERTEX
  8
PLAN_1
 62
     2
  6
CONTINUOUS
 10
-2.411217
 20
3.939874
  0
VERTEX
  8
PLAN_1
 62
     2
  6
CONTINUOUS
 10
-2.413248
 20
3.939874
  0
VERTEX
  8
PLAN_1
 62
     2
  6
CONTINUOUS
 10
-2.415791
 20
3.940382
  0
VERTEX
  8
PLAN_1
 62
     2
  6
CONTINUOUS
 10
-2.418335
 20
3.940890
  0
VERTEX
  8
PLAN_1
 62
     2
  6
CONTINUOUS
 10
-2.420874
 20
3.941909
  0
VERTEX
  8
PLAN_1
 62
     2
  6
CONTINUOUS
 10
-2.423417
 20
3.943433
  0
VERTEX
  8
PLAN_1
 62
     2
  6
CONTINUOUS
 10
-2.425453
 20
3.945469
  0
VERTEX
  8
PLAN_1
 62
     2
  6
CONTINUOUS
 10
-2.427992
 20
3.947500
  0
VERTEX
  8
PLAN_1
 62
     2
  6
CONTINUOUS
 10
-2.430028
 20
3.950551
  0
VERTEX
  8
PLAN_1
 62
     2
  6
CONTINUOUS
 10
-2.431551
 20
3.953094
  0
VERTEX
  8
PLAN_1
 62
     2
  6
CONTINUOUS
 10
-2.432571
 20
3.956146
  0
VERTEX
  8
PLAN_1
 62
     2
  6
CONTINUOUS
 10
-2.433587
 20
3.959193
  0
VERTEX
  8
PLAN_1
 62
     2
  6
CONTINUOUS
 10
-2.434602
 20
3.962244
  0
VERTEX
  8
PLAN_1
 62
     2
  6
CONTINUOUS
 10
-2.435110
 20
3.965295
  0
VERTEX
  8
PLAN_1
 62
     2
  6
CONTINUOUS
 10
-2.435622
 20
3.968854
  0
VERTEX
  8
PLAN_1
 62
     2
  6
CONTINUOUS
 10
-2.435622
 20
3.972413
  0
VERTEX
  8
PLAN_1
 62
     2
  6
CONTINUOUS
 10
-2.435622
 20
3.975972
  0
VERTEX
  8
PLAN_1
 62
     2
  6
CONTINUOUS
 10
-2.435622
 20
3.982075
  0
VERTEX
  8
PLAN_1
 62
     2
  6
CONTINUOUS
 10
-2.434602
 20
3.988685
  0
VERTEX
  8
PLAN_1
 62
     2
  6
CONTINUOUS
 10
-2.433079
 20
3.995295
  0
VERTEX
  8
PLAN_1
 62
     2
  6
CONTINUOUS
 10
-2.430535
 20
4.001394
  0
VERTEX
  8
PLAN_1
 62
     2
  6
CONTINUOUS
 10
-2.428504
 20
4.004445
  0
VERTEX
  8
PLAN_1
 62
     2
  6
CONTINUOUS
 10
-2.426976
 20
4.006988
  0
VERTEX
  8
PLAN_1
 62
     2
  6
CONTINUOUS
 10
-2.424433
 20
4.009020
  0
VERTEX
  8
PLAN_1
 62
     2
  6
CONTINUOUS
 10
-2.421894
 20
4.011055
  0
VERTEX
  8
PLAN_1
 62
     2
  6
CONTINUOUS
 10
-2.419350
 20
4.012579
  0
VERTEX
  8
PLAN_1
 62
     2
  6
CONTINUOUS
 10
-2.415791
 20
4.014106
  0
VERTEX
  8
PLAN_1
 62
     2
  6
CONTINUOUS
 10
-2.412740
 20
4.014614
  0
VERTEX
  8
PLAN_1
 62
     2
  6
CONTINUOUS
 10
-2.408673
 20
4.015122
  0
VERTEX
  8
PLAN_1
 62
     2
  6
CONTINUOUS
 10
-2.405114
 20
4.014614
  0
VERTEX
  8
PLAN_1
 62
     2
  6
CONTINUOUS
 10
-2.402063
 20
4.014106
  0
VERTEX
  8
PLAN_1
 62
     2
  6
CONTINUOUS
 10
-2.398504
 20
4.012579
  0
VERTEX
  8
PLAN_1
 62
     2
  6
CONTINUOUS
 10
-2.394945
 20
4.011055
  0
VERTEX
  8
PLAN_1
 62
     2
  6
CONTINUOUS
 10
-2.392402
 20
4.008004
  0
VERTEX
  8
PLAN_1
 62
     2
  6
CONTINUOUS
 10
-2.389862
 20
4.004953
  0
VERTEX
  8
PLAN_1
 62
     2
  6
CONTINUOUS
 10
-2.388843
 20
4.002921
  0
VERTEX
  8
PLAN_1
 62
     2
  6
CONTINUOUS
 10
-2.388335
 20
4.000886
  0
VERTEX
  8
PLAN_1
 62
     2
  6
CONTINUOUS
 10
-2.387319
 20
3.998343
  0
VERTEX
  8
PLAN_1
 62
     2
  6
CONTINUOUS
 10
-2.387319
 20
3.995803
  0
VERTEX
  8
PLAN_1
 62
     2
  6
CONTINUOUS
 10
-2.395961
 20
3.995803
  0
SEQEND
  8
0
  0
POLYLINE
  8
PLAN_1
 62
     2
  6
CONTINUOUS
 66
     1
 40
0.003000
 41
0.003000
  0
VERTEX
  8
PLAN_1
 62
     2
  6
CONTINUOUS
 10
-2.409689
 20
3.948008
  0
VERTEX
  8
PLAN_1
 62
     2
  6
CONTINUOUS
 10
-2.406638
 20
3.948516
  0
VERTEX
  8
PLAN_1
 62
     2
  6
CONTINUOUS
 10
-2.403591
 20
3.949535
  0
VERTEX
  8
PLAN_1
 62
     2
  6
CONTINUOUS
 10
-2.401047
 20
3.950551
  0
VERTEX
  8
PLAN_1
 62
     2
  6
CONTINUOUS
 10
-2.399012
 20
3.952587
  0
VERTEX
  8
PLAN_1
 62
     2
  6
CONTINUOUS
 10
-2.397488
 20
3.955126
  0
VERTEX
  8
PLAN_1
 62
     2
  6
CONTINUOUS
 10
-2.395961
 20
3.958177
  0
VERTEX
  8
PLAN_1
 62
     2
  6
CONTINUOUS
 10
-2.395453
 20
3.961228
  0
VERTEX
  8
PLAN_1
 62
     2
  6
CONTINUOUS
 10
-2.394945
 20
3.964787
  0
VERTEX
  8
PLAN_1
 62
     2
  6
CONTINUOUS
 10
-2.395453
 20
3.967331
  0
VERTEX
  8
PLAN_1
 62
     2
  6
CONTINUOUS
 10
-2.395961
 20
3.969870
  0
VERTEX
  8
PLAN_1
 62
     2
  6
CONTINUOUS
 10
-2.396980
 20
3.972413
  0
VERTEX
  8
PLAN_1
 62
     2
  6
CONTINUOUS
 10
-2.398504
 20
3.974957
  0
VERTEX
  8
PLAN_1
 62
     2
  6
CONTINUOUS
 10
-2.400031
 20
3.976988
  0
VERTEX
  8
PLAN_1
 62
     2
  6
CONTINUOUS
 10
-2.403079
 20
3.978516
  0
VERTEX
  8
PLAN_1
 62
     2
  6
CONTINUOUS
 10
-2.406130
 20
3.980039
  0
VERTEX
  8
PLAN_1
 62
     2
  6
CONTINUOUS
 10
-2.409689
 20
3.980039
  0
VERTEX
  8
PLAN_1
 62
     2
  6
CONTINUOUS
 10
-2.413248
 20
3.980039
  0
VERTEX
  8
PLAN_1
 62
     2
  6
CONTINUOUS
 10
-2.416299
 20
3.979024
  0
VERTEX
  8
PLAN_1
 62
     2
  6
CONTINUOUS
 10
-2.419350
 20
3.977500
  0
VERTEX
  8
PLAN_1
 62
     2
  6
CONTINUOUS
 10
-2.421386
 20
3.975465
  0
VERTEX
  8
PLAN_1
 62
     2
  6
CONTINUOUS
 10
-2.422909
 20
3.972921
  0
VERTEX
  8
PLAN_1
 62
     2
  6
CONTINUOUS
 10
-2.423925
 20
3.970382
  0
VERTEX
  8
PLAN_1
 62
     2
  6
CONTINUOUS
 10
-2.424945
 20
3.967331
  0
VERTEX
  8
PLAN_1
 62
     2
  6
CONTINUOUS
 10
-2.424945
 20
3.964280
  0
VERTEX
  8
PLAN_1
 62
     2
  6
CONTINUOUS
 10
-2.424945
 20
3.961228
  0
VERTEX
  8
PLAN_1
 62
     2
  6
CONTINUOUS
 10
-2.423925
 20
3.958685
  0
VERTEX
  8
PLAN_1
 62
     2
  6
CONTINUOUS
 10
-2.422909
 20
3.955634
  0
VERTEX
  8
PLAN_1
 62
     2
  6
CONTINUOUS
 10
-2.421386
 20
3.953094
  0
VERTEX
  8
PLAN_1
 62
     2
  6
CONTINUOUS
 10
-2.419350
 20
3.951059
  0
VERTEX
  8
PLAN_1
 62
     2
  6
CONTINUOUS
 10
-2.416299
 20
3.949535
  0
VERTEX
  8
PLAN_1
 62
     2
  6
CONTINUOUS
 10
-2.413248
 20
3.948516
  0
VERTEX
  8
PLAN_1
 62
     2
  6
CONTINUOUS
 10
-2.409689
 20
3.948008
  0
SEQEND
  8
0
  0
POLYLINE
  8
PLAN_1
 62
     2
  6
CONTINUOUS
 66
     1
 40
0.004067
 41
0.004067
  0
VERTEX
  8
PLAN_1
 62
     2
  6
CONTINUOUS
 10
0.268252
 20
-0.346764
  0
VERTEX
  8
PLAN_1
 62
     2
  6
CONTINUOUS
 10
0.151311
 20
-0.346764
  0
SEQEND
  8
0
  0
POLYLINE
  8
PLAN_1
 62
     2
  6
CONTINUOUS
 66
     1
 40
0.004067
 41
0.004067
  0
VERTEX
  8
PLAN_1
 62
     2
  6
CONTINUOUS
 10
0.291638
 20
4.063933
  0
VERTEX
  8
PLAN_1
 62
     2
  6
CONTINUOUS
 10
0.104024
 20
4.063933
  0
SEQEND
  8
0
  0
ENDSEC
  0
EOF
