  0
SECTION
  2
HEADER
  9
$ACADVER
  1
AC1006
  9
$EXTMIN
 10
-2.441764
 20
-3.824000
  9
$EXTMAX
 10
2.434713
 20
3.822000
  9
$LTSCALE
 40
0.000394
  9
$PDMODE
 70
    35
  9
$PDSIZE
 40
0.000315
  0
ENDSEC
  0
SECTION
  2
TABLES
  0
TABLE
  2
LTYPE
 70
     9
  0
LTYPE
  2
CONTINUOUS
 70
    64
  3
Solid line
 72
    65
 73
     0
 40
0.000000
  0
LTYPE
  2
DASHED
 70
    64
  3
__ __ __ __ __ __ __ __ __ __ __ __ __ __ __
 72
    65
 73
     2
 40
0.000003
 49
0.000002
 49
-0.000001
  0
LTYPE
  2
HIDDEN
 70
    64
  3
 _ _ _ _ _ _ _ _ _ _ _ _ _ _ _ _ _ _ _ _ _ _
 72
    65
 73
     2
 40
0.000001
 49
0.000001
 49
-0.000000
  0
LTYPE
  2
CENTER
 70
    64
  3
____ _ ____ _ ____ _ ____ _ ____ _ ____ _ ____
 72
    65
 73
     4
 40
0.000008
 49
0.000005
 49
-0.000001
 49
0.000001
 49
-0.000001
  0
LTYPE
  2
PHANTOM
 70
    64
  3
_____ _ _ _____ _ _ _____ _ _ _____ _ _ ____
 72
    65
 73
     6
 40
0.000010
 49
0.000005
 49
-0.000001
 49
0.000001
 49
-0.000001
 49
0.000001
 49
-0.000001
  0
LTYPE
  2
DOT
 70
    64
  3
...............................................
 72
    65
 73
     2
 40
0.000001
 49
0.000000
 49
-0.000001
  0
LTYPE
  2
DASHDOT
 70
    64
  3
__ . __ . __ . __ . __ . __ . __ . __ . __ . __
 72
    65
 73
     4
 40
0.000004
 49
0.000002
 49
-0.000001
 49
0.000000
 49
-0.000001
  0
LTYPE
  2
BORDER
 70
    64
  3
__ __ . __ __ . __ __ . __ __ . __ __ . __ __
 72
    65
 73
     6
 40
0.000007
 49
0.000002
 49
-0.000001
 49
0.000002
 49
-0.000001
 49
0.000000
 49
-0.000001
  0
LTYPE
  2
DIVIDE
 70
    64
  3
__ . . __ . . __ . . __ . . __ . . __ . . __
 72
    65
 73
     6
 40
0.000005
 49
0.000002
 49
-0.000001
 49
0.000000
 49
-0.000001
 49
0.000000
 49
-0.000001
  0
LTYPE
  2
DOTDOT
 70
    64
  3
 . .  . .  . .  . .  . .  . . 
 72
    65
 73
     5
 40
0.000002
 49
-0.000001
 49
0.000000
 49
-0.000001
 49
0.000000
 49
-0.000001
  0
ENDTAB
  0
TABLE
  2
STYLE
 70
     0
  0
ENDTAB
  0
TABLE
  2
LAYER
 70
     3
  0
LAYER
  2
FOREGROUND
 70
    64
 62
     7
  6
CONTINUOUS
  0
LAYER
  2
BACKGROUND
 70
    65
 62
    -7
  6
CONTINUOUS
  0
LAYER
  2
PLAN_1
 70
    64
 62
     7
  6
CONTINUOUS
  0
ENDTAB
  0
ENDSEC
  0
SECTION
  2
ENTITIES
  0
POLYLINE
  8
PLAN_1
  6
CONTINUOUS
 66
     1
 40
0.003000
 41
0.003000
  0
VERTEX
  8
PLAN_1
  6
CONTINUOUS
 10
0.365039
 20
-3.818744
  0
VERTEX
  8
PLAN_1
  6
CONTINUOUS
 10
0.208295
 20
-3.818744
  0
VERTEX
  8
PLAN_1
  6
CONTINUOUS
 10
0.208295
 20
-3.796283
  0
VERTEX
  8
PLAN_1
  6
CONTINUOUS
 10
0.330630
 20
-3.643362
  0
VERTEX
  8
PLAN_1
  6
CONTINUOUS
 10
0.217374
 20
-3.643362
  0
VERTEX
  8
PLAN_1
  6
CONTINUOUS
 10
0.217374
 20
-3.619469
  0
VERTEX
  8
PLAN_1
  6
CONTINUOUS
 10
0.365039
 20
-3.619469
  0
VERTEX
  8
PLAN_1
  6
CONTINUOUS
 10
0.365039
 20
-3.642886
  0
VERTEX
  8
PLAN_1
  6
CONTINUOUS
 10
0.242701
 20
-3.794850
  0
VERTEX
  8
PLAN_1
  6
CONTINUOUS
 10
0.365039
 20
-3.794850
  0
VERTEX
  8
PLAN_1
  6
CONTINUOUS
 10
0.365039
 20
-3.818744
  0
SEQEND
  8
0
  0
POLYLINE
  8
PLAN_1
  6
CONTINUOUS
 66
     1
 40
0.003000
 41
0.003000
  0
VERTEX
  8
PLAN_1
  6
CONTINUOUS
 10
0.532772
 20
-3.679205
  0
VERTEX
  8
PLAN_1
  6
CONTINUOUS
 10
0.530862
 20
-3.672992
  0
VERTEX
  8
PLAN_1
  6
CONTINUOUS
 10
0.528949
 20
-3.667736
  0
VERTEX
  8
PLAN_1
  6
CONTINUOUS
 10
0.526559
 20
-3.662476
  0
VERTEX
  8
PLAN_1
  6
CONTINUOUS
 10
0.523693
 20
-3.658177
  0
VERTEX
  8
PLAN_1
  6
CONTINUOUS
 10
0.520346
 20
-3.654354
  0
VERTEX
  8
PLAN_1
  6
CONTINUOUS
 10
0.517004
 20
-3.651008
  0
VERTEX
  8
PLAN_1
  6
CONTINUOUS
 10
0.513177
 20
-3.648142
  0
VERTEX
  8
PLAN_1
  6
CONTINUOUS
 10
0.509354
 20
-3.645752
  0
VERTEX
  8
PLAN_1
  6
CONTINUOUS
 10
0.505055
 20
-3.643362
  0
VERTEX
  8
PLAN_1
  6
CONTINUOUS
 10
0.500756
 20
-3.641929
  0
VERTEX
  8
PLAN_1
  6
CONTINUOUS
 10
0.496933
 20
-3.640496
  0
VERTEX
  8
PLAN_1
  6
CONTINUOUS
 10
0.492630
 20
-3.639539
  0
VERTEX
  8
PLAN_1
  6
CONTINUOUS
 10
0.484508
 20
-3.638583
  0
VERTEX
  8
PLAN_1
  6
CONTINUOUS
 10
0.476862
 20
-3.638106
  0
VERTEX
  8
PLAN_1
  6
CONTINUOUS
 10
0.470169
 20
-3.638106
  0
VERTEX
  8
PLAN_1
  6
CONTINUOUS
 10
0.463957
 20
-3.639063
  0
VERTEX
  8
PLAN_1
  6
CONTINUOUS
 10
0.457268
 20
-3.640972
  0
VERTEX
  8
PLAN_1
  6
CONTINUOUS
 10
0.451531
 20
-3.642886
  0
VERTEX
  8
PLAN_1
  6
CONTINUOUS
 10
0.445799
 20
-3.645752
  0
VERTEX
  8
PLAN_1
  6
CONTINUOUS
 10
0.440543
 20
-3.649098
  0
VERTEX
  8
PLAN_1
  6
CONTINUOUS
 10
0.435283
 20
-3.653398
  0
VERTEX
  8
PLAN_1
  6
CONTINUOUS
 10
0.430984
 20
-3.657701
  0
VERTEX
  8
PLAN_1
  6
CONTINUOUS
 10
0.426685
 20
-3.662957
  0
VERTEX
  8
PLAN_1
  6
CONTINUOUS
 10
0.422862
 20
-3.669169
  0
VERTEX
  8
PLAN_1
  6
CONTINUOUS
 10
0.419516
 20
-3.675382
  0
VERTEX
  8
PLAN_1
  6
CONTINUOUS
 10
0.416650
 20
-3.682547
  0
VERTEX
  8
PLAN_1
  6
CONTINUOUS
 10
0.414736
 20
-3.690197
  0
VERTEX
  8
PLAN_1
  6
CONTINUOUS
 10
0.412827
 20
-3.698795
  0
VERTEX
  8
PLAN_1
  6
CONTINUOUS
 10
0.411870
 20
-3.707398
  0
VERTEX
  8
PLAN_1
  6
CONTINUOUS
 10
0.411870
 20
-3.716957
  0
VERTEX
  8
PLAN_1
  6
CONTINUOUS
 10
0.411870
 20
-3.726035
  0
VERTEX
  8
PLAN_1
  6
CONTINUOUS
 10
0.412346
 20
-3.734157
  0
VERTEX
  8
PLAN_1
  6
CONTINUOUS
 10
0.413303
 20
-3.742283
  0
VERTEX
  8
PLAN_1
  6
CONTINUOUS
 10
0.415217
 20
-3.749929
  0
VERTEX
  8
PLAN_1
  6
CONTINUOUS
 10
0.417126
 20
-3.757098
  0
VERTEX
  8
PLAN_1
  6
CONTINUOUS
 10
0.419516
 20
-3.763787
  0
VERTEX
  8
PLAN_1
  6
CONTINUOUS
 10
0.422382
 20
-3.770476
  0
VERTEX
  8
PLAN_1
  6
CONTINUOUS
 10
0.426205
 20
-3.776213
  0
VERTEX
  8
PLAN_1
  6
CONTINUOUS
 10
0.430508
 20
-3.781469
  0
VERTEX
  8
PLAN_1
  6
CONTINUOUS
 10
0.435283
 20
-3.786248
  0
VERTEX
  8
PLAN_1
  6
CONTINUOUS
 10
0.440543
 20
-3.790547
  0
VERTEX
  8
PLAN_1
  6
CONTINUOUS
 10
0.446756
 20
-3.793894
  0
VERTEX
  8
PLAN_1
  6
CONTINUOUS
 10
0.453445
 20
-3.796283
  0
VERTEX
  8
PLAN_1
  6
CONTINUOUS
 10
0.460614
 20
-3.798673
  0
VERTEX
  8
PLAN_1
  6
CONTINUOUS
 10
0.468736
 20
-3.799630
  0
VERTEX
  8
PLAN_1
  6
CONTINUOUS
 10
0.477815
 20
-3.800106
  0
VERTEX
  8
PLAN_1
  6
CONTINUOUS
 10
0.481161
 20
-3.800106
  0
VERTEX
  8
PLAN_1
  6
CONTINUOUS
 10
0.484984
 20
-3.799630
  0
VERTEX
  8
PLAN_1
  6
CONTINUOUS
 10
0.488807
 20
-3.799150
  0
VERTEX
  8
PLAN_1
  6
CONTINUOUS
 10
0.492630
 20
-3.798193
  0
VERTEX
  8
PLAN_1
  6
CONTINUOUS
 10
0.496933
 20
-3.796760
  0
VERTEX
  8
PLAN_1
  6
CONTINUOUS
 10
0.501232
 20
-3.794850
  0
VERTEX
  8
PLAN_1
  6
CONTINUOUS
 10
0.505055
 20
-3.792937
  0
VERTEX
  8
PLAN_1
  6
CONTINUOUS
 10
0.509354
 20
-3.790071
  0
VERTEX
  8
PLAN_1
  6
CONTINUOUS
 10
0.513177
 20
-3.786724
  0
VERTEX
  8
PLAN_1
  6
CONTINUOUS
 10
0.517004
 20
-3.782902
  0
VERTEX
  8
PLAN_1
  6
CONTINUOUS
 10
0.520827
 20
-3.778602
  0
VERTEX
  8
PLAN_1
  6
CONTINUOUS
 10
0.524169
 20
-3.773346
  0
VERTEX
  8
PLAN_1
  6
CONTINUOUS
 10
0.527516
 20
-3.767610
  0
VERTEX
  8
PLAN_1
  6
CONTINUOUS
 10
0.530382
 20
-3.760921
  0
VERTEX
  8
PLAN_1
  6
CONTINUOUS
 10
0.532772
 20
-3.753752
  0
VERTEX
  8
PLAN_1
  6
CONTINUOUS
 10
0.534685
 20
-3.745630
  0
VERTEX
  8
PLAN_1
  6
CONTINUOUS
 10
0.560965
 20
-3.745630
  0
VERTEX
  8
PLAN_1
  6
CONTINUOUS
 10
0.559531
 20
-3.752319
  0
VERTEX
  8
PLAN_1
  6
CONTINUOUS
 10
0.558098
 20
-3.758531
  0
VERTEX
  8
PLAN_1
  6
CONTINUOUS
 10
0.556189
 20
-3.764744
  0
VERTEX
  8
PLAN_1
  6
CONTINUOUS
 10
0.554276
 20
-3.770476
  0
VERTEX
  8
PLAN_1
  6
CONTINUOUS
 10
0.552366
 20
-3.775736
  0
VERTEX
  8
PLAN_1
  6
CONTINUOUS
 10
0.549976
 20
-3.780512
  0
VERTEX
  8
PLAN_1
  6
CONTINUOUS
 10
0.547106
 20
-3.785291
  0
VERTEX
  8
PLAN_1
  6
CONTINUOUS
 10
0.544720
 20
-3.789594
  0
VERTEX
  8
PLAN_1
  6
CONTINUOUS
 10
0.541850
 20
-3.793417
  0
VERTEX
  8
PLAN_1
  6
CONTINUOUS
 10
0.538508
 20
-3.797240
  0
VERTEX
  8
PLAN_1
  6
CONTINUOUS
 10
0.535638
 20
-3.800106
  0
VERTEX
  8
PLAN_1
  6
CONTINUOUS
 10
0.532295
 20
-3.803453
  0
VERTEX
  8
PLAN_1
  6
CONTINUOUS
 10
0.525602
 20
-3.808709
  0
VERTEX
  8
PLAN_1
  6
CONTINUOUS
 10
0.518437
 20
-3.813008
  0
VERTEX
  8
PLAN_1
  6
CONTINUOUS
 10
0.511744
 20
-3.816354
  0
VERTEX
  8
PLAN_1
  6
CONTINUOUS
 10
0.504579
 20
-3.819220
  0
VERTEX
  8
PLAN_1
  6
CONTINUOUS
 10
0.498366
 20
-3.821134
  0
VERTEX
  8
PLAN_1
  6
CONTINUOUS
 10
0.492154
 20
-3.822087
  0
VERTEX
  8
PLAN_1
  6
CONTINUOUS
 10
0.481161
 20
-3.823524
  0
VERTEX
  8
PLAN_1
  6
CONTINUOUS
 10
0.473516
 20
-3.824000
  0
VERTEX
  8
PLAN_1
  6
CONTINUOUS
 10
0.464913
 20
-3.823524
  0
VERTEX
  8
PLAN_1
  6
CONTINUOUS
 10
0.456791
 20
-3.822567
  0
VERTEX
  8
PLAN_1
  6
CONTINUOUS
 10
0.448665
 20
-3.820654
  0
VERTEX
  8
PLAN_1
  6
CONTINUOUS
 10
0.440543
 20
-3.818264
  0
VERTEX
  8
PLAN_1
  6
CONTINUOUS
 10
0.432898
 20
-3.814921
  0
VERTEX
  8
PLAN_1
  6
CONTINUOUS
 10
0.425248
 20
-3.810618
  0
VERTEX
  8
PLAN_1
  6
CONTINUOUS
 10
0.421906
 20
-3.808228
  0
VERTEX
  8
PLAN_1
  6
CONTINUOUS
 10
0.418083
 20
-3.805843
  0
VERTEX
  8
PLAN_1
  6
CONTINUOUS
 10
0.415217
 20
-3.802972
  0
VERTEX
  8
PLAN_1
  6
CONTINUOUS
 10
0.411870
 20
-3.799630
  0
VERTEX
  8
PLAN_1
  6
CONTINUOUS
 10
0.408524
 20
-3.796283
  0
VERTEX
  8
PLAN_1
  6
CONTINUOUS
 10
0.405657
 20
-3.792937
  0
VERTEX
  8
PLAN_1
  6
CONTINUOUS
 10
0.402791
 20
-3.789114
  0
VERTEX
  8
PLAN_1
  6
CONTINUOUS
 10
0.400402
 20
-3.785291
  0
VERTEX
  8
PLAN_1
  6
CONTINUOUS
 10
0.398012
 20
-3.780992
  0
VERTEX
  8
PLAN_1
  6
CONTINUOUS
 10
0.395622
 20
-3.776689
  0
VERTEX
  8
PLAN_1
  6
CONTINUOUS
 10
0.393709
 20
-3.771913
  0
VERTEX
  8
PLAN_1
  6
CONTINUOUS
 10
0.391319
 20
-3.766654
  0
VERTEX
  8
PLAN_1
  6
CONTINUOUS
 10
0.389886
 20
-3.761878
  0
VERTEX
  8
PLAN_1
  6
CONTINUOUS
 10
0.388453
 20
-3.756142
  0
VERTEX
  8
PLAN_1
  6
CONTINUOUS
 10
0.387020
 20
-3.750406
  0
VERTEX
  8
PLAN_1
  6
CONTINUOUS
 10
0.386063
 20
-3.744673
  0
VERTEX
  8
PLAN_1
  6
CONTINUOUS
 10
0.385110
 20
-3.738461
  0
VERTEX
  8
PLAN_1
  6
CONTINUOUS
 10
0.384630
 20
-3.731772
  0
VERTEX
  8
PLAN_1
  6
CONTINUOUS
 10
0.384154
 20
-3.725079
  0
VERTEX
  8
PLAN_1
  6
CONTINUOUS
 10
0.384154
 20
-3.717913
  0
VERTEX
  8
PLAN_1
  6
CONTINUOUS
 10
0.384154
 20
-3.706921
  0
VERTEX
  8
PLAN_1
  6
CONTINUOUS
 10
0.385587
 20
-3.695929
  0
VERTEX
  8
PLAN_1
  6
CONTINUOUS
 10
0.387496
 20
-3.685417
  0
VERTEX
  8
PLAN_1
  6
CONTINUOUS
 10
0.390366
 20
-3.675858
  0
VERTEX
  8
PLAN_1
  6
CONTINUOUS
 10
0.393709
 20
-3.666780
  0
VERTEX
  8
PLAN_1
  6
CONTINUOUS
 10
0.398012
 20
-3.658177
  0
VERTEX
  8
PLAN_1
  6
CONTINUOUS
 10
0.400402
 20
-3.654354
  0
VERTEX
  8
PLAN_1
  6
CONTINUOUS
 10
0.402791
 20
-3.650055
  0
VERTEX
  8
PLAN_1
  6
CONTINUOUS
 10
0.405657
 20
-3.646709
  0
VERTEX
  8
PLAN_1
  6
CONTINUOUS
 10
0.408524
 20
-3.642886
  0
VERTEX
  8
PLAN_1
  6
CONTINUOUS
 10
0.411870
 20
-3.639539
  0
VERTEX
  8
PLAN_1
  6
CONTINUOUS
 10
0.415217
 20
-3.636673
  0
VERTEX
  8
PLAN_1
  6
CONTINUOUS
 10
0.418559
 20
-3.633807
  0
VERTEX
  8
PLAN_1
  6
CONTINUOUS
 10
0.421906
 20
-3.630937
  0
VERTEX
  8
PLAN_1
  6
CONTINUOUS
 10
0.425728
 20
-3.628071
  0
VERTEX
  8
PLAN_1
  6
CONTINUOUS
 10
0.429551
 20
-3.625681
  0
VERTEX
  8
PLAN_1
  6
CONTINUOUS
 10
0.433850
 20
-3.623772
  0
VERTEX
  8
PLAN_1
  6
CONTINUOUS
 10
0.437673
 20
-3.621858
  0
VERTEX
  8
PLAN_1
  6
CONTINUOUS
 10
0.442453
 20
-3.619949
  0
VERTEX
  8
PLAN_1
  6
CONTINUOUS
 10
0.446756
 20
-3.618512
  0
VERTEX
  8
PLAN_1
  6
CONTINUOUS
 10
0.451531
 20
-3.617079
  0
VERTEX
  8
PLAN_1
  6
CONTINUOUS
 10
0.456311
 20
-3.616126
  0
VERTEX
  8
PLAN_1
  6
CONTINUOUS
 10
0.461091
 20
-3.615169
  0
VERTEX
  8
PLAN_1
  6
CONTINUOUS
 10
0.466346
 20
-3.614689
  0
VERTEX
  8
PLAN_1
  6
CONTINUOUS
 10
0.471602
 20
-3.614213
  0
VERTEX
  8
PLAN_1
  6
CONTINUOUS
 10
0.476862
 20
-3.614213
  0
VERTEX
  8
PLAN_1
  6
CONTINUOUS
 10
0.486417
 20
-3.614689
  0
VERTEX
  8
PLAN_1
  6
CONTINUOUS
 10
0.495020
 20
-3.615646
  0
VERTEX
  8
PLAN_1
  6
CONTINUOUS
 10
0.503142
 20
-3.617559
  0
VERTEX
  8
PLAN_1
  6
CONTINUOUS
 10
0.510791
 20
-3.619469
  0
VERTEX
  8
PLAN_1
  6
CONTINUOUS
 10
0.517957
 20
-3.622815
  0
VERTEX
  8
PLAN_1
  6
CONTINUOUS
 10
0.524169
 20
-3.626161
  0
VERTEX
  8
PLAN_1
  6
CONTINUOUS
 10
0.530382
 20
-3.629984
  0
VERTEX
  8
PLAN_1
  6
CONTINUOUS
 10
0.535638
 20
-3.634283
  0
VERTEX
  8
PLAN_1
  6
CONTINUOUS
 10
0.540417
 20
-3.639063
  0
VERTEX
  8
PLAN_1
  6
CONTINUOUS
 10
0.544720
 20
-3.644319
  0
VERTEX
  8
PLAN_1
  6
CONTINUOUS
 10
0.548543
 20
-3.649575
  0
VERTEX
  8
PLAN_1
  6
CONTINUOUS
 10
0.551409
 20
-3.655311
  0
VERTEX
  8
PLAN_1
  6
CONTINUOUS
 10
0.554276
 20
-3.661043
  0
VERTEX
  8
PLAN_1
  6
CONTINUOUS
 10
0.556189
 20
-3.667256
  0
VERTEX
  8
PLAN_1
  6
CONTINUOUS
 10
0.557622
 20
-3.672992
  0
VERTEX
  8
PLAN_1
  6
CONTINUOUS
 10
0.558579
 20
-3.679205
  0
VERTEX
  8
PLAN_1
  6
CONTINUOUS
 10
0.532772
 20
-3.679205
  0
SEQEND
  8
0
  0
POLYLINE
  8
PLAN_1
  6
CONTINUOUS
 66
     1
 40
0.003000
 41
0.003000
  0
VERTEX
  8
PLAN_1
  6
CONTINUOUS
 10
0.620224
 20
-3.818744
  0
VERTEX
  8
PLAN_1
  6
CONTINUOUS
 10
0.593461
 20
-3.818744
  0
VERTEX
  8
PLAN_1
  6
CONTINUOUS
 10
0.593461
 20
-3.619469
  0
VERTEX
  8
PLAN_1
  6
CONTINUOUS
 10
0.620224
 20
-3.619469
  0
VERTEX
  8
PLAN_1
  6
CONTINUOUS
 10
0.620224
 20
-3.716000
  0
VERTEX
  8
PLAN_1
  6
CONTINUOUS
 10
0.716752
 20
-3.619469
  0
VERTEX
  8
PLAN_1
  6
CONTINUOUS
 10
0.754028
 20
-3.619469
  0
VERTEX
  8
PLAN_1
  6
CONTINUOUS
 10
0.670878
 20
-3.699752
  0
VERTEX
  8
PLAN_1
  6
CONTINUOUS
 10
0.756417
 20
-3.818744
  0
VERTEX
  8
PLAN_1
  6
CONTINUOUS
 10
0.721055
 20
-3.818744
  0
VERTEX
  8
PLAN_1
  6
CONTINUOUS
 10
0.651764
 20
-3.718866
  0
VERTEX
  8
PLAN_1
  6
CONTINUOUS
 10
0.620224
 20
-3.748972
  0
VERTEX
  8
PLAN_1
  6
CONTINUOUS
 10
0.620224
 20
-3.818744
  0
SEQEND
  8
0
  0
POLYLINE
  8
PLAN_1
  6
CONTINUOUS
 66
     1
 40
0.003000
 41
0.003000
  0
VERTEX
  8
PLAN_1
  6
CONTINUOUS
 10
0.787480
 20
-3.754709
  0
VERTEX
  8
PLAN_1
  6
CONTINUOUS
 10
0.787480
 20
-3.768567
  0
VERTEX
  8
PLAN_1
  6
CONTINUOUS
 10
0.787480
 20
-3.772866
  0
VERTEX
  8
PLAN_1
  6
CONTINUOUS
 10
0.787957
 20
-3.776689
  0
VERTEX
  8
PLAN_1
  6
CONTINUOUS
 10
0.788433
 20
-3.780512
  0
VERTEX
  8
PLAN_1
  6
CONTINUOUS
 10
0.789390
 20
-3.783858
  0
VERTEX
  8
PLAN_1
  6
CONTINUOUS
 10
0.790823
 20
-3.786724
  0
VERTEX
  8
PLAN_1
  6
CONTINUOUS
 10
0.791780
 20
-3.789114
  0
VERTEX
  8
PLAN_1
  6
CONTINUOUS
 10
0.793693
 20
-3.791504
  0
VERTEX
  8
PLAN_1
  6
CONTINUOUS
 10
0.795602
 20
-3.793894
  0
VERTEX
  8
PLAN_1
  6
CONTINUOUS
 10
0.797516
 20
-3.795327
  0
VERTEX
  8
PLAN_1
  6
CONTINUOUS
 10
0.799906
 20
-3.796760
  0
VERTEX
  8
PLAN_1
  6
CONTINUOUS
 10
0.802295
 20
-3.798193
  0
VERTEX
  8
PLAN_1
  6
CONTINUOUS
 10
0.804681
 20
-3.799150
  0
VERTEX
  8
PLAN_1
  6
CONTINUOUS
 10
0.807551
 20
-3.800106
  0
VERTEX
  8
PLAN_1
  6
CONTINUOUS
 10
0.810894
 20
-3.800583
  0
VERTEX
  8
PLAN_1
  6
CONTINUOUS
 10
0.813764
 20
-3.801063
  0
VERTEX
  8
PLAN_1
  6
CONTINUOUS
 10
0.817587
 20
-3.801063
  0
VERTEX
  8
PLAN_1
  6
CONTINUOUS
 10
0.821886
 20
-3.800583
  0
VERTEX
  8
PLAN_1
  6
CONTINUOUS
 10
0.825709
 20
-3.800106
  0
VERTEX
  8
PLAN_1
  6
CONTINUOUS
 10
0.829531
 20
-3.799630
  0
VERTEX
  8
PLAN_1
  6
CONTINUOUS
 10
0.832878
 20
-3.798193
  0
VERTEX
  8
PLAN_1
  6
CONTINUOUS
 10
0.835744
 20
-3.796760
  0
VERTEX
  8
PLAN_1
  6
CONTINUOUS
 10
0.838610
 20
-3.795327
  0
VERTEX
  8
PLAN_1
  6
CONTINUOUS
 10
0.840524
 20
-3.793417
  0
VERTEX
  8
PLAN_1
  6
CONTINUOUS
 10
0.842913
 20
-3.791028
  0
VERTEX
  8
PLAN_1
  6
CONTINUOUS
 10
0.844346
 20
-3.788638
  0
VERTEX
  8
PLAN_1
  6
CONTINUOUS
 10
0.845780
 20
-3.785772
  0
VERTEX
  8
PLAN_1
  6
CONTINUOUS
 10
0.846736
 20
-3.783382
  0
VERTEX
  8
PLAN_1
  6
CONTINUOUS
 10
0.847693
 20
-3.780035
  0
VERTEX
  8
PLAN_1
  6
CONTINUOUS
 10
0.849126
 20
-3.773823
  0
VERTEX
  8
PLAN_1
  6
CONTINUOUS
 10
0.849126
 20
-3.766654
  0
VERTEX
  8
PLAN_1
  6
CONTINUOUS
 10
0.849126
 20
-3.619469
  0
VERTEX
  8
PLAN_1
  6
CONTINUOUS
 10
0.876362
 20
-3.619469
  0
VERTEX
  8
PLAN_1
  6
CONTINUOUS
 10
0.876362
 20
-3.764744
  0
VERTEX
  8
PLAN_1
  6
CONTINUOUS
 10
0.875886
 20
-3.773346
  0
VERTEX
  8
PLAN_1
  6
CONTINUOUS
 10
0.874929
 20
-3.780992
  0
VERTEX
  8
PLAN_1
  6
CONTINUOUS
 10
0.873020
 20
-3.787681
  0
VERTEX
  8
PLAN_1
  6
CONTINUOUS
 10
0.871106
 20
-3.793894
  0
VERTEX
  8
PLAN_1
  6
CONTINUOUS
 10
0.868240
 20
-3.799150
  0
VERTEX
  8
PLAN_1
  6
CONTINUOUS
 10
0.865374
 20
-3.803929
  0
VERTEX
  8
PLAN_1
  6
CONTINUOUS
 10
0.861551
 20
-3.808228
  0
VERTEX
  8
PLAN_1
  6
CONTINUOUS
 10
0.857728
 20
-3.812051
  0
VERTEX
  8
PLAN_1
  6
CONTINUOUS
 10
0.853425
 20
-3.814921
  0
VERTEX
  8
PLAN_1
  6
CONTINUOUS
 10
0.848646
 20
-3.817787
  0
VERTEX
  8
PLAN_1
  6
CONTINUOUS
 10
0.843870
 20
-3.819701
  0
VERTEX
  8
PLAN_1
  6
CONTINUOUS
 10
0.839091
 20
-3.821134
  0
VERTEX
  8
PLAN_1
  6
CONTINUOUS
 10
0.834311
 20
-3.822567
  0
VERTEX
  8
PLAN_1
  6
CONTINUOUS
 10
0.829055
 20
-3.823524
  0
VERTEX
  8
PLAN_1
  6
CONTINUOUS
 10
0.823799
 20
-3.824000
  0
VERTEX
  8
PLAN_1
  6
CONTINUOUS
 10
0.819020
 20
-3.824000
  0
VERTEX
  8
PLAN_1
  6
CONTINUOUS
 10
0.810417
 20
-3.823524
  0
VERTEX
  8
PLAN_1
  6
CONTINUOUS
 10
0.803248
 20
-3.822567
  0
VERTEX
  8
PLAN_1
  6
CONTINUOUS
 10
0.796559
 20
-3.821134
  0
VERTEX
  8
PLAN_1
  6
CONTINUOUS
 10
0.790346
 20
-3.818744
  0
VERTEX
  8
PLAN_1
  6
CONTINUOUS
 10
0.785091
 20
-3.816354
  0
VERTEX
  8
PLAN_1
  6
CONTINUOUS
 10
0.780311
 20
-3.813008
  0
VERTEX
  8
PLAN_1
  6
CONTINUOUS
 10
0.776488
 20
-3.809665
  0
VERTEX
  8
PLAN_1
  6
CONTINUOUS
 10
0.773142
 20
-3.806319
  0
VERTEX
  8
PLAN_1
  6
CONTINUOUS
 10
0.770276
 20
-3.802016
  0
VERTEX
  8
PLAN_1
  6
CONTINUOUS
 10
0.767886
 20
-3.798193
  0
VERTEX
  8
PLAN_1
  6
CONTINUOUS
 10
0.765976
 20
-3.793894
  0
VERTEX
  8
PLAN_1
  6
CONTINUOUS
 10
0.764539
 20
-3.790071
  0
VERTEX
  8
PLAN_1
  6
CONTINUOUS
 10
0.763587
 20
-3.785772
  0
VERTEX
  8
PLAN_1
  6
CONTINUOUS
 10
0.762630
 20
-3.781949
  0
VERTEX
  8
PLAN_1
  6
CONTINUOUS
 10
0.762154
 20
-3.778122
  0
VERTEX
  8
PLAN_1
  6
CONTINUOUS
 10
0.762154
 20
-3.774299
  0
VERTEX
  8
PLAN_1
  6
CONTINUOUS
 10
0.762154
 20
-3.754709
  0
VERTEX
  8
PLAN_1
  6
CONTINUOUS
 10
0.787480
 20
-3.754709
  0
SEQEND
  8
0
  0
POLYLINE
  8
PLAN_1
  6
CONTINUOUS
 66
     1
 40
0.003000
 41
0.003000
  0
VERTEX
  8
PLAN_1
  6
CONTINUOUS
 10
1.079937
 20
-3.664390
  0
VERTEX
  8
PLAN_1
  6
CONTINUOUS
 10
1.099055
 20
-3.664390
  0
VERTEX
  8
PLAN_1
  6
CONTINUOUS
 10
1.094752
 20
-3.679205
  0
VERTEX
  8
PLAN_1
  6
CONTINUOUS
 10
1.090453
 20
-3.694020
  0
VERTEX
  8
PLAN_1
  6
CONTINUOUS
 10
1.086630
 20
-3.708354
  0
VERTEX
  8
PLAN_1
  6
CONTINUOUS
 10
1.082327
 20
-3.721256
  0
VERTEX
  8
PLAN_1
  6
CONTINUOUS
 10
1.078984
 20
-3.733205
  0
VERTEX
  8
PLAN_1
  6
CONTINUOUS
 10
1.076594
 20
-3.743240
  0
VERTEX
  8
PLAN_1
  6
CONTINUOUS
 10
1.074681
 20
-3.750406
  0
VERTEX
  8
PLAN_1
  6
CONTINUOUS
 10
1.074205
 20
-3.754709
  0
VERTEX
  8
PLAN_1
  6
CONTINUOUS
 10
1.074205
 20
-3.756618
  0
VERTEX
  8
PLAN_1
  6
CONTINUOUS
 10
1.074205
 20
-3.758531
  0
VERTEX
  8
PLAN_1
  6
CONTINUOUS
 10
1.074681
 20
-3.759965
  0
VERTEX
  8
PLAN_1
  6
CONTINUOUS
 10
1.075161
 20
-3.760921
  0
VERTEX
  8
PLAN_1
  6
CONTINUOUS
 10
1.076114
 20
-3.761878
  0
VERTEX
  8
PLAN_1
  6
CONTINUOUS
 10
1.077071
 20
-3.762354
  0
VERTEX
  8
PLAN_1
  6
CONTINUOUS
 10
1.078504
 20
-3.762831
  0
VERTEX
  8
PLAN_1
  6
CONTINUOUS
 10
1.079937
 20
-3.762831
  0
VERTEX
  8
PLAN_1
  6
CONTINUOUS
 10
1.083283
 20
-3.762354
  0
VERTEX
  8
PLAN_1
  6
CONTINUOUS
 10
1.087106
 20
-3.761398
  0
VERTEX
  8
PLAN_1
  6
CONTINUOUS
 10
1.090453
 20
-3.759965
  0
VERTEX
  8
PLAN_1
  6
CONTINUOUS
 10
1.093795
 20
-3.757575
  0
VERTEX
  8
PLAN_1
  6
CONTINUOUS
 10
1.097142
 20
-3.755185
  0
VERTEX
  8
PLAN_1
  6
CONTINUOUS
 10
1.100488
 20
-3.751843
  0
VERTEX
  8
PLAN_1
  6
CONTINUOUS
 10
1.103831
 20
-3.748020
  0
VERTEX
  8
PLAN_1
  6
CONTINUOUS
 10
1.106701
 20
-3.744193
  0
VERTEX
  8
PLAN_1
  6
CONTINUOUS
 10
1.109091
 20
-3.739894
  0
VERTEX
  8
PLAN_1
  6
CONTINUOUS
 10
1.111957
 20
-3.735114
  0
VERTEX
  8
PLAN_1
  6
CONTINUOUS
 10
1.113866
 20
-3.729858
  0
VERTEX
  8
PLAN_1
  6
CONTINUOUS
 10
1.115780
 20
-3.725079
  0
VERTEX
  8
PLAN_1
  6
CONTINUOUS
 10
1.117213
 20
-3.719346
  0
VERTEX
  8
PLAN_1
  6
CONTINUOUS
 10
1.118169
 20
-3.714091
  0
VERTEX
  8
PLAN_1
  6
CONTINUOUS
 10
1.119126
 20
-3.708354
  0
VERTEX
  8
PLAN_1
  6
CONTINUOUS
 10
1.119126
 20
-3.703098
  0
VERTEX
  8
PLAN_1
  6
CONTINUOUS
 10
1.118646
 20
-3.694972
  0
VERTEX
  8
PLAN_1
  6
CONTINUOUS
 10
1.117689
 20
-3.687327
  0
VERTEX
  8
PLAN_1
  6
CONTINUOUS
 10
1.115780
 20
-3.679681
  0
VERTEX
  8
PLAN_1
  6
CONTINUOUS
 10
1.112913
 20
-3.672992
  0
VERTEX
  8
PLAN_1
  6
CONTINUOUS
 10
1.109567
 20
-3.666780
  0
VERTEX
  8
PLAN_1
  6
CONTINUOUS
 10
1.105744
 20
-3.661043
  0
VERTEX
  8
PLAN_1
  6
CONTINUOUS
 10
1.101445
 20
-3.655311
  0
VERTEX
  8
PLAN_1
  6
CONTINUOUS
 10
1.096185
 20
-3.650531
  0
VERTEX
  8
PLAN_1
  6
CONTINUOUS
 10
1.090453
 20
-3.646232
  0
VERTEX
  8
PLAN_1
  6
CONTINUOUS
 10
1.084717
 20
-3.642406
  0
VERTEX
  8
PLAN_1
  6
CONTINUOUS
 10
1.078504
 20
-3.639063
  0
VERTEX
  8
PLAN_1
  6
CONTINUOUS
 10
1.071339
 20
-3.636197
  0
VERTEX
  8
PLAN_1
  6
CONTINUOUS
 10
1.064646
 20
-3.634283
  0
VERTEX
  8
PLAN_1
  6
CONTINUOUS
 10
1.057000
 20
-3.632850
  0
VERTEX
  8
PLAN_1
  6
CONTINUOUS
 10
1.049354
 20
-3.631894
  0
VERTEX
  8
PLAN_1
  6
CONTINUOUS
 10
1.041709
 20
-3.631417
  0
VERTEX
  8
PLAN_1
  6
CONTINUOUS
 10
1.032630
 20
-3.631894
  0
VERTEX
  8
PLAN_1
  6
CONTINUOUS
 10
1.024028
 20
-3.633327
  0
VERTEX
  8
PLAN_1
  6
CONTINUOUS
 10
1.015425
 20
-3.635240
  0
VERTEX
  8
PLAN_1
  6
CONTINUOUS
 10
1.007780
 20
-3.638106
  0
VERTEX
  8
PLAN_1
  6
CONTINUOUS
 10
1.000134
 20
-3.641929
  0
VERTEX
  8
PLAN_1
  6
CONTINUOUS
 10
0.993445
 20
-3.646709
  0
VERTEX
  8
PLAN_1
  6
CONTINUOUS
 10
0.986752
 20
-3.651488
  0
VERTEX
  8
PLAN_1
  6
CONTINUOUS
 10
0.981020
 20
-3.657220
  0
VERTEX
  8
PLAN_1
  6
CONTINUOUS
 10
0.975764
 20
-3.663433
  0
VERTEX
  8
PLAN_1
  6
CONTINUOUS
 10
0.970984
 20
-3.670602
  0
VERTEX
  8
PLAN_1
  6
CONTINUOUS
 10
0.967161
 20
-3.677772
  0
VERTEX
  8
PLAN_1
  6
CONTINUOUS
 10
0.963815
 20
-3.685417
  0
VERTEX
  8
PLAN_1
  6
CONTINUOUS
 10
0.960949
 20
-3.693539
  0
VERTEX
  8
PLAN_1
  6
CONTINUOUS
 10
0.959035
 20
-3.702142
  0
VERTEX
  8
PLAN_1
  6
CONTINUOUS
 10
0.957602
 20
-3.711220
  0
VERTEX
  8
PLAN_1
  6
CONTINUOUS
 10
0.957602
 20
-3.720299
  0
VERTEX
  8
PLAN_1
  6
CONTINUOUS
 10
0.957602
 20
-3.729382
  0
VERTEX
  8
PLAN_1
  6
CONTINUOUS
 10
0.959035
 20
-3.737984
  0
VERTEX
  8
PLAN_1
  6
CONTINUOUS
 10
0.960949
 20
-3.746583
  0
VERTEX
  8
PLAN_1
  6
CONTINUOUS
 10
0.963815
 20
-3.754228
  0
VERTEX
  8
PLAN_1
  6
CONTINUOUS
 10
0.967638
 20
-3.761878
  0
VERTEX
  8
PLAN_1
  6
CONTINUOUS
 10
0.971937
 20
-3.769043
  0
VERTEX
  8
PLAN_1
  6
CONTINUOUS
 10
0.976717
 20
-3.775736
  0
VERTEX
  8
PLAN_1
  6
CONTINUOUS
 10
0.982453
 20
-3.781949
  0
VERTEX
  8
PLAN_1
  6
CONTINUOUS
 10
0.988185
 20
-3.787205
  0
VERTEX
  8
PLAN_1
  6
CONTINUOUS
 10
0.994878
 20
-3.792461
  0
VERTEX
  8
PLAN_1
  6
CONTINUOUS
 10
1.002043
 20
-3.796760
  0
VERTEX
  8
PLAN_1
  6
CONTINUOUS
 10
1.009693
 20
-3.800106
  0
VERTEX
  8
PLAN_1
  6
CONTINUOUS
 10
1.017815
 20
-3.802972
  0
VERTEX
  8
PLAN_1
  6
CONTINUOUS
 10
1.025937
 20
-3.804886
  0
VERTEX
  8
PLAN_1
  6
CONTINUOUS
 10
1.034539
 20
-3.806319
  0
VERTEX
  8
PLAN_1
  6
CONTINUOUS
 10
1.043622
 20
-3.806795
  0
VERTEX
  8
PLAN_1
  6
CONTINUOUS
 10
1.048398
 20
-3.806795
  0
VERTEX
  8
PLAN_1
  6
CONTINUOUS
 10
1.053177
 20
-3.806319
  0
VERTEX
  8
PLAN_1
  6
CONTINUOUS
 10
1.057957
 20
-3.805362
  0
VERTEX
  8
PLAN_1
  6
CONTINUOUS
 10
1.062736
 20
-3.804406
  0
VERTEX
  8
PLAN_1
  6
CONTINUOUS
 10
1.067516
 20
-3.803453
  0
VERTEX
  8
PLAN_1
  6
CONTINUOUS
 10
1.072291
 20
-3.802016
  0
VERTEX
  8
PLAN_1
  6
CONTINUOUS
 10
1.076594
 20
-3.800106
  0
VERTEX
  8
PLAN_1
  6
CONTINUOUS
 10
1.081374
 20
-3.798193
  0
VERTEX
  8
PLAN_1
  6
CONTINUOUS
 10
1.085673
 20
-3.796283
  0
VERTEX
  8
PLAN_1
  6
CONTINUOUS
 10
1.089496
 20
-3.793894
  0
VERTEX
  8
PLAN_1
  6
CONTINUOUS
 10
1.093795
 20
-3.791028
  0
VERTEX
  8
PLAN_1
  6
CONTINUOUS
 10
1.097622
 20
-3.788157
  0
VERTEX
  8
PLAN_1
  6
CONTINUOUS
 10
1.101445
 20
-3.785291
  0
VERTEX
  8
PLAN_1
  6
CONTINUOUS
 10
1.104787
 20
-3.781949
  0
VERTEX
  8
PLAN_1
  6
CONTINUOUS
 10
1.108134
 20
-3.778602
  0
VERTEX
  8
PLAN_1
  6
CONTINUOUS
 10
1.111000
 20
-3.775256
  0
VERTEX
  8
PLAN_1
  6
CONTINUOUS
 10
1.129638
 20
-3.775256
  0
VERTEX
  8
PLAN_1
  6
CONTINUOUS
 10
1.126291
 20
-3.780512
  0
VERTEX
  8
PLAN_1
  6
CONTINUOUS
 10
1.122469
 20
-3.785772
  0
VERTEX
  8
PLAN_1
  6
CONTINUOUS
 10
1.118169
 20
-3.791028
  0
VERTEX
  8
PLAN_1
  6
CONTINUOUS
 10
1.113390
 20
-3.795327
  0
VERTEX
  8
PLAN_1
  6
CONTINUOUS
 10
1.108610
 20
-3.800106
  0
VERTEX
  8
PLAN_1
  6
CONTINUOUS
 10
1.103831
 20
-3.803929
  0
VERTEX
  8
PLAN_1
  6
CONTINUOUS
 10
1.098575
 20
-3.807752
  0
VERTEX
  8
PLAN_1
  6
CONTINUOUS
 10
1.092843
 20
-3.811098
  0
VERTEX
  8
PLAN_1
  6
CONTINUOUS
 10
1.087106
 20
-3.813965
  0
VERTEX
  8
PLAN_1
  6
CONTINUOUS
 10
1.081374
 20
-3.816354
  0
VERTEX
  8
PLAN_1
  6
CONTINUOUS
 10
1.075161
 20
-3.818744
  0
VERTEX
  8
PLAN_1
  6
CONTINUOUS
 10
1.068949
 20
-3.820654
  0
VERTEX
  8
PLAN_1
  6
CONTINUOUS
 10
1.062736
 20
-3.822087
  0
VERTEX
  8
PLAN_1
  6
CONTINUOUS
 10
1.056524
 20
-3.823043
  0
VERTEX
  8
PLAN_1
  6
CONTINUOUS
 10
1.049831
 20
-3.824000
  0
VERTEX
  8
PLAN_1
  6
CONTINUOUS
 10
1.043142
 20
-3.824000
  0
VERTEX
  8
PLAN_1
  6
CONTINUOUS
 10
1.037409
 20
-3.824000
  0
VERTEX
  8
PLAN_1
  6
CONTINUOUS
 10
1.032150
 20
-3.823524
  0
VERTEX
  8
PLAN_1
  6
CONTINUOUS
 10
1.026894
 20
-3.823043
  0
VERTEX
  8
PLAN_1
  6
CONTINUOUS
 10
1.021638
 20
-3.822087
  0
VERTEX
  8
PLAN_1
  6
CONTINUOUS
 10
1.016382
 20
-3.820654
  0
VERTEX
  8
PLAN_1
  6
CONTINUOUS
 10
1.011126
 20
-3.819220
  0
VERTEX
  8
PLAN_1
  6
CONTINUOUS
 10
1.006346
 20
-3.817787
  0
VERTEX
  8
PLAN_1
  6
CONTINUOUS
 10
1.001567
 20
-3.815878
  0
VERTEX
  8
PLAN_1
  6
CONTINUOUS
 10
0.996787
 20
-3.813965
  0
VERTEX
  8
PLAN_1
  6
CONTINUOUS
 10
0.992008
 20
-3.811575
  0
VERTEX
  8
PLAN_1
  6
CONTINUOUS
 10
0.987709
 20
-3.808709
  0
VERTEX
  8
PLAN_1
  6
CONTINUOUS
 10
0.983409
 20
-3.806319
  0
VERTEX
  8
PLAN_1
  6
CONTINUOUS
 10
0.979587
 20
-3.803453
  0
VERTEX
  8
PLAN_1
  6
CONTINUOUS
 10
0.975283
 20
-3.800106
  0
VERTEX
  8
PLAN_1
  6
CONTINUOUS
 10
0.971461
 20
-3.796760
  0
VERTEX
  8
PLAN_1
  6
CONTINUOUS
 10
0.967638
 20
-3.793417
  0
VERTEX
  8
PLAN_1
  6
CONTINUOUS
 10
0.964291
 20
-3.789594
  0
VERTEX
  8
PLAN_1
  6
CONTINUOUS
 10
0.960949
 20
-3.785772
  0
VERTEX
  8
PLAN_1
  6
CONTINUOUS
 10
0.958079
 20
-3.781949
  0
VERTEX
  8
PLAN_1
  6
CONTINUOUS
 10
0.955213
 20
-3.777646
  0
VERTEX
  8
PLAN_1
  6
CONTINUOUS
 10
0.952346
 20
-3.773823
  0
VERTEX
  8
PLAN_1
  6
CONTINUOUS
 10
0.949957
 20
-3.769043
  0
VERTEX
  8
PLAN_1
  6
CONTINUOUS
 10
0.947567
 20
-3.764744
  0
VERTEX
  8
PLAN_1
  6
CONTINUOUS
 10
0.945177
 20
-3.759965
  0
VERTEX
  8
PLAN_1
  6
CONTINUOUS
 10
0.943268
 20
-3.755185
  0
VERTEX
  8
PLAN_1
  6
CONTINUOUS
 10
0.941835
 20
-3.750406
  0
VERTEX
  8
PLAN_1
  6
CONTINUOUS
 10
0.940398
 20
-3.745150
  0
VERTEX
  8
PLAN_1
  6
CONTINUOUS
 10
0.939445
 20
-3.739894
  0
VERTEX
  8
PLAN_1
  6
CONTINUOUS
 10
0.938488
 20
-3.734638
  0
VERTEX
  8
PLAN_1
  6
CONTINUOUS
 10
0.937531
 20
-3.729382
  0
VERTEX
  8
PLAN_1
  6
CONTINUOUS
 10
0.937055
 20
-3.724126
  0
VERTEX
  8
PLAN_1
  6
CONTINUOUS
 10
0.937055
 20
-3.718390
  0
VERTEX
  8
PLAN_1
  6
CONTINUOUS
 10
0.937055
 20
-3.713134
  0
VERTEX
  8
PLAN_1
  6
CONTINUOUS
 10
0.937531
 20
-3.707878
  0
VERTEX
  8
PLAN_1
  6
CONTINUOUS
 10
0.938488
 20
-3.702618
  0
VERTEX
  8
PLAN_1
  6
CONTINUOUS
 10
0.939445
 20
-3.697362
  0
VERTEX
  8
PLAN_1
  6
CONTINUOUS
 10
0.940398
 20
-3.692106
  0
VERTEX
  8
PLAN_1
  6
CONTINUOUS
 10
0.941835
 20
-3.687327
  0
VERTEX
  8
PLAN_1
  6
CONTINUOUS
 10
0.943744
 20
-3.682547
  0
VERTEX
  8
PLAN_1
  6
CONTINUOUS
 10
0.945657
 20
-3.677772
  0
VERTEX
  8
PLAN_1
  6
CONTINUOUS
 10
0.947567
 20
-3.672992
  0
VERTEX
  8
PLAN_1
  6
CONTINUOUS
 10
0.949957
 20
-3.668689
  0
VERTEX
  8
PLAN_1
  6
CONTINUOUS
 10
0.952346
 20
-3.664390
  0
VERTEX
  8
PLAN_1
  6
CONTINUOUS
 10
0.955213
 20
-3.660091
  0
VERTEX
  8
PLAN_1
  6
CONTINUOUS
 10
0.958079
 20
-3.655787
  0
VERTEX
  8
PLAN_1
  6
CONTINUOUS
 10
0.961425
 20
-3.651965
  0
VERTEX
  8
PLAN_1
  6
CONTINUOUS
 10
0.964291
 20
-3.648142
  0
VERTEX
  8
PLAN_1
  6
CONTINUOUS
 10
0.968114
 20
-3.644795
  0
VERTEX
  8
PLAN_1
  6
CONTINUOUS
 10
0.975283
 20
-3.638106
  0
VERTEX
  8
PLAN_1
  6
CONTINUOUS
 10
0.983409
 20
-3.631894
  0
VERTEX
  8
PLAN_1
  6
CONTINUOUS
 10
0.987709
 20
-3.629028
  0
VERTEX
  8
PLAN_1
  6
CONTINUOUS
 10
0.992008
 20
-3.626638
  0
VERTEX
  8
PLAN_1
  6
CONTINUOUS
 10
0.996787
 20
-3.624248
  0
VERTEX
  8
PLAN_1
  6
CONTINUOUS
 10
1.001091
 20
-3.622339
  0
VERTEX
  8
PLAN_1
  6
CONTINUOUS
 10
1.005866
 20
-3.620425
  0
VERTEX
  8
PLAN_1
  6
CONTINUOUS
 10
1.010646
 20
-3.618992
  0
VERTEX
  8
PLAN_1
  6
CONTINUOUS
 10
1.015902
 20
-3.617559
  0
VERTEX
  8
PLAN_1
  6
CONTINUOUS
 10
1.020681
 20
-3.616126
  0
VERTEX
  8
PLAN_1
  6
CONTINUOUS
 10
1.025937
 20
-3.615169
  0
VERTEX
  8
PLAN_1
  6
CONTINUOUS
 10
1.031197
 20
-3.614689
  0
VERTEX
  8
PLAN_1
  6
CONTINUOUS
 10
1.036453
 20
-3.614213
  0
VERTEX
  8
PLAN_1
  6
CONTINUOUS
 10
1.041709
 20
-3.614213
  0
VERTEX
  8
PLAN_1
  6
CONTINUOUS
 10
1.051268
 20
-3.614689
  0
VERTEX
  8
PLAN_1
  6
CONTINUOUS
 10
1.060823
 20
-3.615646
  0
VERTEX
  8
PLAN_1
  6
CONTINUOUS
 10
1.069425
 20
-3.618035
  0
VERTEX
  8
PLAN_1
  6
CONTINUOUS
 10
1.078504
 20
-3.620425
  0
VERTEX
  8
PLAN_1
  6
CONTINUOUS
 10
1.086630
 20
-3.624248
  0
VERTEX
  8
PLAN_1
  6
CONTINUOUS
 10
1.094752
 20
-3.628071
  0
VERTEX
  8
PLAN_1
  6
CONTINUOUS
 10
1.101921
 20
-3.632850
  0
VERTEX
  8
PLAN_1
  6
CONTINUOUS
 10
1.108610
 20
-3.638583
  0
VERTEX
  8
PLAN_1
  6
CONTINUOUS
 10
1.114823
 20
-3.644795
  0
VERTEX
  8
PLAN_1
  6
CONTINUOUS
 10
1.120559
 20
-3.651008
  0
VERTEX
  8
PLAN_1
  6
CONTINUOUS
 10
1.125339
 20
-3.658177
  0
VERTEX
  8
PLAN_1
  6
CONTINUOUS
 10
1.129638
 20
-3.665823
  0
VERTEX
  8
PLAN_1
  6
CONTINUOUS
 10
1.131071
 20
-3.670126
  0
VERTEX
  8
PLAN_1
  6
CONTINUOUS
 10
1.132984
 20
-3.673949
  0
VERTEX
  8
PLAN_1
  6
CONTINUOUS
 10
1.133937
 20
-3.678248
  0
VERTEX
  8
PLAN_1
  6
CONTINUOUS
 10
1.135374
 20
-3.682547
  0
VERTEX
  8
PLAN_1
  6
CONTINUOUS
 10
1.136327
 20
-3.686850
  0
VERTEX
  8
PLAN_1
  6
CONTINUOUS
 10
1.136807
 20
-3.691630
  0
VERTEX
  8
PLAN_1
  6
CONTINUOUS
 10
1.137283
 20
-3.695929
  0
VERTEX
  8
PLAN_1
  6
CONTINUOUS
 10
1.137283
 20
-3.700709
  0
VERTEX
  8
PLAN_1
  6
CONTINUOUS
 10
1.136807
 20
-3.709787
  0
VERTEX
  8
PLAN_1
  6
CONTINUOUS
 10
1.135374
 20
-3.718866
  0
VERTEX
  8
PLAN_1
  6
CONTINUOUS
 10
1.133461
 20
-3.726992
  0
VERTEX
  8
PLAN_1
  6
CONTINUOUS
 10
1.130594
 20
-3.734638
  0
VERTEX
  8
PLAN_1
  6
CONTINUOUS
 10
1.126772
 20
-3.741807
  0
VERTEX
  8
PLAN_1
  6
CONTINUOUS
 10
1.122949
 20
-3.748020
  0
VERTEX
  8
PLAN_1
  6
CONTINUOUS
 10
1.118169
 20
-3.754228
  0
VERTEX
  8
PLAN_1
  6
CONTINUOUS
 10
1.113390
 20
-3.759488
  0
VERTEX
  8
PLAN_1
  6
CONTINUOUS
 10
1.108134
 20
-3.764744
  0
VERTEX
  8
PLAN_1
  6
CONTINUOUS
 10
1.102878
 20
-3.769043
  0
VERTEX
  8
PLAN_1
  6
CONTINUOUS
 10
1.097142
 20
-3.772390
  0
VERTEX
  8
PLAN_1
  6
CONTINUOUS
 10
1.091886
 20
-3.775736
  0
VERTEX
  8
PLAN_1
  6
CONTINUOUS
 10
1.086150
 20
-3.777646
  0
VERTEX
  8
PLAN_1
  6
CONTINUOUS
 10
1.080894
 20
-3.779559
  0
VERTEX
  8
PLAN_1
  6
CONTINUOUS
 10
1.075638
 20
-3.780512
  0
VERTEX
  8
PLAN_1
  6
CONTINUOUS
 10
1.070858
 20
-3.780992
  0
VERTEX
  8
PLAN_1
  6
CONTINUOUS
 10
1.067516
 20
-3.780512
  0
VERTEX
  8
PLAN_1
  6
CONTINUOUS
 10
1.064169
 20
-3.780035
  0
VERTEX
  8
PLAN_1
  6
CONTINUOUS
 10
1.061303
 20
-3.778602
  0
VERTEX
  8
PLAN_1
  6
CONTINUOUS
 10
1.058913
 20
-3.776689
  0
VERTEX
  8
PLAN_1
  6
CONTINUOUS
 10
1.056524
 20
-3.774299
  0
VERTEX
  8
PLAN_1
  6
CONTINUOUS
 10
1.054610
 20
-3.771433
  0
VERTEX
  8
PLAN_1
  6
CONTINUOUS
 10
1.053657
 20
-3.767610
  0
VERTEX
  8
PLAN_1
  6
CONTINUOUS
 10
1.053177
 20
-3.763311
  0
VERTEX
  8
PLAN_1
  6
CONTINUOUS
 10
1.052701
 20
-3.763787
  0
VERTEX
  8
PLAN_1
  6
CONTINUOUS
 10
1.049354
 20
-3.767134
  0
VERTEX
  8
PLAN_1
  6
CONTINUOUS
 10
1.046008
 20
-3.770000
  0
VERTEX
  8
PLAN_1
  6
CONTINUOUS
 10
1.042185
 20
-3.772866
  0
VERTEX
  8
PLAN_1
  6
CONTINUOUS
 10
1.037886
 20
-3.775736
  0
VERTEX
  8
PLAN_1
  6
CONTINUOUS
 10
1.033587
 20
-3.777646
  0
VERTEX
  8
PLAN_1
  6
CONTINUOUS
 10
1.028807
 20
-3.779559
  0
VERTEX
  8
PLAN_1
  6
CONTINUOUS
 10
1.024028
 20
-3.780512
  0
VERTEX
  8
PLAN_1
  6
CONTINUOUS
 10
1.019248
 20
-3.780992
  0
VERTEX
  8
PLAN_1
  6
CONTINUOUS
 10
1.014949
 20
-3.780512
  0
VERTEX
  8
PLAN_1
  6
CONTINUOUS
 10
1.010646
 20
-3.780035
  0
VERTEX
  8
PLAN_1
  6
CONTINUOUS
 10
1.006823
 20
-3.779079
  0
VERTEX
  8
PLAN_1
  6
CONTINUOUS
 10
1.003000
 20
-3.777646
  0
VERTEX
  8
PLAN_1
  6
CONTINUOUS
 10
0.999177
 20
-3.775736
  0
VERTEX
  8
PLAN_1
  6
CONTINUOUS
 10
0.995835
 20
-3.773346
  0
VERTEX
  8
PLAN_1
  6
CONTINUOUS
 10
0.992965
 20
-3.770476
  0
VERTEX
  8
PLAN_1
  6
CONTINUOUS
 10
0.990098
 20
-3.767610
  0
VERTEX
  8
PLAN_1
  6
CONTINUOUS
 10
0.987232
 20
-3.764744
  0
VERTEX
  8
PLAN_1
  6
CONTINUOUS
 10
0.985319
 20
-3.761398
  0
VERTEX
  8
PLAN_1
  6
CONTINUOUS
 10
0.982929
 20
-3.757575
  0
VERTEX
  8
PLAN_1
  6
CONTINUOUS
 10
0.981496
 20
-3.753752
  0
VERTEX
  8
PLAN_1
  6
CONTINUOUS
 10
0.980063
 20
-3.749453
  0
VERTEX
  8
PLAN_1
  6
CONTINUOUS
 10
0.979106
 20
-3.745630
  0
VERTEX
  8
PLAN_1
  6
CONTINUOUS
 10
0.978630
 20
-3.740850
  0
VERTEX
  8
PLAN_1
  6
CONTINUOUS
 10
0.978630
 20
-3.736547
  0
VERTEX
  8
PLAN_1
  6
CONTINUOUS
 10
0.978630
 20
-3.729382
  0
VERTEX
  8
PLAN_1
  6
CONTINUOUS
 10
0.979587
 20
-3.722689
  0
VERTEX
  8
PLAN_1
  6
CONTINUOUS
 10
0.981020
 20
-3.715524
  0
VERTEX
  8
PLAN_1
  6
CONTINUOUS
 10
0.982929
 20
-3.708831
  0
VERTEX
  8
PLAN_1
  6
CONTINUOUS
 10
0.985799
 20
-3.702142
  0
VERTEX
  8
PLAN_1
  6
CONTINUOUS
 10
0.988665
 20
-3.695929
  0
VERTEX
  8
PLAN_1
  6
CONTINUOUS
 10
0.992008
 20
-3.689717
  0
VERTEX
  8
PLAN_1
  6
CONTINUOUS
 10
0.996311
 20
-3.683984
  0
VERTEX
  8
PLAN_1
  6
CONTINUOUS
 10
1.000610
 20
-3.679205
  0
VERTEX
  8
PLAN_1
  6
CONTINUOUS
 10
1.005390
 20
-3.674425
  0
VERTEX
  8
PLAN_1
  6
CONTINUOUS
 10
1.010646
 20
-3.670126
  0
VERTEX
  8
PLAN_1
  6
CONTINUOUS
 10
1.016382
 20
-3.666780
  0
VERTEX
  8
PLAN_1
  6
CONTINUOUS
 10
1.022114
 20
-3.663913
  0
VERTEX
  8
PLAN_1
  6
CONTINUOUS
 10
1.028807
 20
-3.661524
  0
VERTEX
  8
PLAN_1
  6
CONTINUOUS
 10
1.035496
 20
-3.660567
  0
VERTEX
  8
PLAN_1
  6
CONTINUOUS
 10
1.042665
 20
-3.660091
  0
VERTEX
  8
PLAN_1
  6
CONTINUOUS
 10
1.047445
 20
-3.660091
  0
VERTEX
  8
PLAN_1
  6
CONTINUOUS
 10
1.052220
 20
-3.661043
  0
VERTEX
  8
PLAN_1
  6
CONTINUOUS
 10
1.056524
 20
-3.662476
  0
VERTEX
  8
PLAN_1
  6
CONTINUOUS
 10
1.060823
 20
-3.664866
  0
VERTEX
  8
PLAN_1
  6
CONTINUOUS
 10
1.064646
 20
-3.667736
  0
VERTEX
  8
PLAN_1
  6
CONTINUOUS
 10
1.068469
 20
-3.671559
  0
VERTEX
  8
PLAN_1
  6
CONTINUOUS
 10
1.071815
 20
-3.676335
  0
VERTEX
  8
PLAN_1
  6
CONTINUOUS
 10
1.074681
 20
-3.681594
  0
VERTEX
  8
PLAN_1
  6
CONTINUOUS
 10
1.079937
 20
-3.664390
  0
SEQEND
  8
0
  0
POLYLINE
  8
PLAN_1
  6
CONTINUOUS
 66
     1
 40
0.003000
 41
0.003000
  0
VERTEX
  8
PLAN_1
  6
CONTINUOUS
 10
1.043142
 20
-3.680161
  0
VERTEX
  8
PLAN_1
  6
CONTINUOUS
 10
1.038843
 20
-3.680161
  0
VERTEX
  8
PLAN_1
  6
CONTINUOUS
 10
1.034063
 20
-3.681114
  0
VERTEX
  8
PLAN_1
  6
CONTINUOUS
 10
1.030240
 20
-3.683028
  0
VERTEX
  8
PLAN_1
  6
CONTINUOUS
 10
1.026417
 20
-3.684937
  0
VERTEX
  8
PLAN_1
  6
CONTINUOUS
 10
1.022594
 20
-3.687807
  0
VERTEX
  8
PLAN_1
  6
CONTINUOUS
 10
1.019248
 20
-3.691150
  0
VERTEX
  8
PLAN_1
  6
CONTINUOUS
 10
1.015902
 20
-3.694496
  0
VERTEX
  8
PLAN_1
  6
CONTINUOUS
 10
1.013035
 20
-3.698319
  0
VERTEX
  8
PLAN_1
  6
CONTINUOUS
 10
1.010169
 20
-3.702618
  0
VERTEX
  8
PLAN_1
  6
CONTINUOUS
 10
1.007780
 20
-3.706921
  0
VERTEX
  8
PLAN_1
  6
CONTINUOUS
 10
1.005866
 20
-3.711220
  0
VERTEX
  8
PLAN_1
  6
CONTINUOUS
 10
1.004433
 20
-3.716000
  0
VERTEX
  8
PLAN_1
  6
CONTINUOUS
 10
1.003000
 20
-3.720299
  0
VERTEX
  8
PLAN_1
  6
CONTINUOUS
 10
1.002043
 20
-3.725079
  0
VERTEX
  8
PLAN_1
  6
CONTINUOUS
 10
1.001567
 20
-3.729858
  0
VERTEX
  8
PLAN_1
  6
CONTINUOUS
 10
1.001091
 20
-3.734157
  0
VERTEX
  8
PLAN_1
  6
CONTINUOUS
 10
1.001567
 20
-3.739894
  0
VERTEX
  8
PLAN_1
  6
CONTINUOUS
 10
1.003000
 20
-3.745150
  0
VERTEX
  8
PLAN_1
  6
CONTINUOUS
 10
1.004913
 20
-3.749453
  0
VERTEX
  8
PLAN_1
  6
CONTINUOUS
 10
1.007780
 20
-3.753276
  0
VERTEX
  8
PLAN_1
  6
CONTINUOUS
 10
1.009213
 20
-3.755185
  0
VERTEX
  8
PLAN_1
  6
CONTINUOUS
 10
1.011126
 20
-3.756618
  0
VERTEX
  8
PLAN_1
  6
CONTINUOUS
 10
1.013035
 20
-3.758055
  0
VERTEX
  8
PLAN_1
  6
CONTINUOUS
 10
1.014949
 20
-3.759008
  0
VERTEX
  8
PLAN_1
  6
CONTINUOUS
 10
1.017339
 20
-3.759965
  0
VERTEX
  8
PLAN_1
  6
CONTINUOUS
 10
1.019728
 20
-3.760441
  0
VERTEX
  8
PLAN_1
  6
CONTINUOUS
 10
1.022114
 20
-3.760921
  0
VERTEX
  8
PLAN_1
  6
CONTINUOUS
 10
1.024504
 20
-3.760921
  0
VERTEX
  8
PLAN_1
  6
CONTINUOUS
 10
1.028807
 20
-3.760441
  0
VERTEX
  8
PLAN_1
  6
CONTINUOUS
 10
1.033106
 20
-3.759488
  0
VERTEX
  8
PLAN_1
  6
CONTINUOUS
 10
1.036929
 20
-3.757575
  0
VERTEX
  8
PLAN_1
  6
CONTINUOUS
 10
1.040752
 20
-3.755665
  0
VERTEX
  8
PLAN_1
  6
CONTINUOUS
 10
1.044575
 20
-3.752795
  0
VERTEX
  8
PLAN_1
  6
CONTINUOUS
 10
1.047921
 20
-3.749453
  0
VERTEX
  8
PLAN_1
  6
CONTINUOUS
 10
1.051268
 20
-3.745630
  0
VERTEX
  8
PLAN_1
  6
CONTINUOUS
 10
1.054134
 20
-3.741327
  0
VERTEX
  8
PLAN_1
  6
CONTINUOUS
 10
1.056524
 20
-3.737504
  0
VERTEX
  8
PLAN_1
  6
CONTINUOUS
 10
1.058913
 20
-3.732724
  0
VERTEX
  8
PLAN_1
  6
CONTINUOUS
 10
1.061303
 20
-3.728425
  0
VERTEX
  8
PLAN_1
  6
CONTINUOUS
 10
1.062736
 20
-3.723646
  0
VERTEX
  8
PLAN_1
  6
CONTINUOUS
 10
1.064169
 20
-3.718866
  0
VERTEX
  8
PLAN_1
  6
CONTINUOUS
 10
1.065126
 20
-3.714091
  0
VERTEX
  8
PLAN_1
  6
CONTINUOUS
 10
1.065602
 20
-3.709787
  0
VERTEX
  8
PLAN_1
  6
CONTINUOUS
 10
1.066079
 20
-3.705488
  0
VERTEX
  8
PLAN_1
  6
CONTINUOUS
 10
1.065602
 20
-3.700709
  0
VERTEX
  8
PLAN_1
  6
CONTINUOUS
 10
1.064169
 20
-3.695929
  0
VERTEX
  8
PLAN_1
  6
CONTINUOUS
 10
1.061780
 20
-3.691630
  0
VERTEX
  8
PLAN_1
  6
CONTINUOUS
 10
1.058913
 20
-3.687807
  0
VERTEX
  8
PLAN_1
  6
CONTINUOUS
 10
1.055567
 20
-3.684461
  0
VERTEX
  8
PLAN_1
  6
CONTINUOUS
 10
1.051744
 20
-3.682071
  0
VERTEX
  8
PLAN_1
  6
CONTINUOUS
 10
1.049831
 20
-3.681114
  0
VERTEX
  8
PLAN_1
  6
CONTINUOUS
 10
1.047445
 20
-3.680638
  0
VERTEX
  8
PLAN_1
  6
CONTINUOUS
 10
1.045531
 20
-3.680161
  0
VERTEX
  8
PLAN_1
  6
CONTINUOUS
 10
1.043142
 20
-3.680161
  0
SEQEND
  8
0
  0
POLYLINE
  8
PLAN_1
  6
CONTINUOUS
 66
     1
 40
0.003000
 41
0.003000
  0
VERTEX
  8
PLAN_1
  6
CONTINUOUS
 10
1.277780
 20
-3.818744
  0
VERTEX
  8
PLAN_1
  6
CONTINUOUS
 10
1.251972
 20
-3.818744
  0
VERTEX
  8
PLAN_1
  6
CONTINUOUS
 10
1.251972
 20
-3.680161
  0
VERTEX
  8
PLAN_1
  6
CONTINUOUS
 10
1.206098
 20
-3.680161
  0
VERTEX
  8
PLAN_1
  6
CONTINUOUS
 10
1.206098
 20
-3.660567
  0
VERTEX
  8
PLAN_1
  6
CONTINUOUS
 10
1.217091
 20
-3.660091
  0
VERTEX
  8
PLAN_1
  6
CONTINUOUS
 10
1.226646
 20
-3.658654
  0
VERTEX
  8
PLAN_1
  6
CONTINUOUS
 10
1.230949
 20
-3.657701
  0
VERTEX
  8
PLAN_1
  6
CONTINUOUS
 10
1.234772
 20
-3.656268
  0
VERTEX
  8
PLAN_1
  6
CONTINUOUS
 10
1.238114
 20
-3.654831
  0
VERTEX
  8
PLAN_1
  6
CONTINUOUS
 10
1.241461
 20
-3.653398
  0
VERTEX
  8
PLAN_1
  6
CONTINUOUS
 10
1.244327
 20
-3.651488
  0
VERTEX
  8
PLAN_1
  6
CONTINUOUS
 10
1.247197
 20
-3.648618
  0
VERTEX
  8
PLAN_1
  6
CONTINUOUS
 10
1.249583
 20
-3.645752
  0
VERTEX
  8
PLAN_1
  6
CONTINUOUS
 10
1.251496
 20
-3.642406
  0
VERTEX
  8
PLAN_1
  6
CONTINUOUS
 10
1.253886
 20
-3.638583
  0
VERTEX
  8
PLAN_1
  6
CONTINUOUS
 10
1.255319
 20
-3.634283
  0
VERTEX
  8
PLAN_1
  6
CONTINUOUS
 10
1.257232
 20
-3.629028
  0
VERTEX
  8
PLAN_1
  6
CONTINUOUS
 10
1.258665
 20
-3.623772
  0
VERTEX
  8
PLAN_1
  6
CONTINUOUS
 10
1.277780
 20
-3.623772
  0
VERTEX
  8
PLAN_1
  6
CONTINUOUS
 10
1.277780
 20
-3.818744
  0
SEQEND
  8
0
  0
POLYLINE
  8
PLAN_1
  6
CONTINUOUS
 66
     1
 40
0.003000
 41
0.003000
  0
VERTEX
  8
PLAN_1
  6
CONTINUOUS
 10
1.516240
 20
-3.664390
  0
VERTEX
  8
PLAN_1
  6
CONTINUOUS
 10
1.535354
 20
-3.664390
  0
VERTEX
  8
PLAN_1
  6
CONTINUOUS
 10
1.531051
 20
-3.679205
  0
VERTEX
  8
PLAN_1
  6
CONTINUOUS
 10
1.526752
 20
-3.694020
  0
VERTEX
  8
PLAN_1
  6
CONTINUOUS
 10
1.522453
 20
-3.708354
  0
VERTEX
  8
PLAN_1
  6
CONTINUOUS
 10
1.518630
 20
-3.721256
  0
VERTEX
  8
PLAN_1
  6
CONTINUOUS
 10
1.515283
 20
-3.733205
  0
VERTEX
  8
PLAN_1
  6
CONTINUOUS
 10
1.512417
 20
-3.743240
  0
VERTEX
  8
PLAN_1
  6
CONTINUOUS
 10
1.510980
 20
-3.750406
  0
VERTEX
  8
PLAN_1
  6
CONTINUOUS
 10
1.510028
 20
-3.754709
  0
VERTEX
  8
PLAN_1
  6
CONTINUOUS
 10
1.510504
 20
-3.756618
  0
VERTEX
  8
PLAN_1
  6
CONTINUOUS
 10
1.510504
 20
-3.758531
  0
VERTEX
  8
PLAN_1
  6
CONTINUOUS
 10
1.510980
 20
-3.759965
  0
VERTEX
  8
PLAN_1
  6
CONTINUOUS
 10
1.511461
 20
-3.760921
  0
VERTEX
  8
PLAN_1
  6
CONTINUOUS
 10
1.512417
 20
-3.761878
  0
VERTEX
  8
PLAN_1
  6
CONTINUOUS
 10
1.513370
 20
-3.762354
  0
VERTEX
  8
PLAN_1
  6
CONTINUOUS
 10
1.514327
 20
-3.762831
  0
VERTEX
  8
PLAN_1
  6
CONTINUOUS
 10
1.516240
 20
-3.762831
  0
VERTEX
  8
PLAN_1
  6
CONTINUOUS
 10
1.519583
 20
-3.762354
  0
VERTEX
  8
PLAN_1
  6
CONTINUOUS
 10
1.523406
 20
-3.761398
  0
VERTEX
  8
PLAN_1
  6
CONTINUOUS
 10
1.526752
 20
-3.759965
  0
VERTEX
  8
PLAN_1
  6
CONTINUOUS
 10
1.530098
 20
-3.757575
  0
VERTEX
  8
PLAN_1
  6
CONTINUOUS
 10
1.533441
 20
-3.755185
  0
VERTEX
  8
PLAN_1
  6
CONTINUOUS
 10
1.536787
 20
-3.751843
  0
VERTEX
  8
PLAN_1
  6
CONTINUOUS
 10
1.540134
 20
-3.748020
  0
VERTEX
  8
PLAN_1
  6
CONTINUOUS
 10
1.543000
 20
-3.744193
  0
VERTEX
  8
PLAN_1
  6
CONTINUOUS
 10
1.545390
 20
-3.739894
  0
VERTEX
  8
PLAN_1
  6
CONTINUOUS
 10
1.547780
 20
-3.735114
  0
VERTEX
  8
PLAN_1
  6
CONTINUOUS
 10
1.550169
 20
-3.729858
  0
VERTEX
  8
PLAN_1
  6
CONTINUOUS
 10
1.552079
 20
-3.725079
  0
VERTEX
  8
PLAN_1
  6
CONTINUOUS
 10
1.553512
 20
-3.719346
  0
VERTEX
  8
PLAN_1
  6
CONTINUOUS
 10
1.554469
 20
-3.714091
  0
VERTEX
  8
PLAN_1
  6
CONTINUOUS
 10
1.555425
 20
-3.708354
  0
VERTEX
  8
PLAN_1
  6
CONTINUOUS
 10
1.555425
 20
-3.703098
  0
VERTEX
  8
PLAN_1
  6
CONTINUOUS
 10
1.554945
 20
-3.694972
  0
VERTEX
  8
PLAN_1
  6
CONTINUOUS
 10
1.553992
 20
-3.687327
  0
VERTEX
  8
PLAN_1
  6
CONTINUOUS
 10
1.552079
 20
-3.679681
  0
VERTEX
  8
PLAN_1
  6
CONTINUOUS
 10
1.549213
 20
-3.672992
  0
VERTEX
  8
PLAN_1
  6
CONTINUOUS
 10
1.545866
 20
-3.666780
  0
VERTEX
  8
PLAN_1
  6
CONTINUOUS
 10
1.542043
 20
-3.661043
  0
VERTEX
  8
PLAN_1
  6
CONTINUOUS
 10
1.537744
 20
-3.655311
  0
VERTEX
  8
PLAN_1
  6
CONTINUOUS
 10
1.532488
 20
-3.650531
  0
VERTEX
  8
PLAN_1
  6
CONTINUOUS
 10
1.526752
 20
-3.646232
  0
VERTEX
  8
PLAN_1
  6
CONTINUOUS
 10
1.521016
 20
-3.642406
  0
VERTEX
  8
PLAN_1
  6
CONTINUOUS
 10
1.514327
 20
-3.639063
  0
VERTEX
  8
PLAN_1
  6
CONTINUOUS
 10
1.507638
 20
-3.636197
  0
VERTEX
  8
PLAN_1
  6
CONTINUOUS
 10
1.500945
 20
-3.634283
  0
VERTEX
  8
PLAN_1
  6
CONTINUOUS
 10
1.493299
 20
-3.632850
  0
VERTEX
  8
PLAN_1
  6
CONTINUOUS
 10
1.485654
 20
-3.631894
  0
VERTEX
  8
PLAN_1
  6
CONTINUOUS
 10
1.478008
 20
-3.631417
  0
VERTEX
  8
PLAN_1
  6
CONTINUOUS
 10
1.468929
 20
-3.631894
  0
VERTEX
  8
PLAN_1
  6
CONTINUOUS
 10
1.460327
 20
-3.633327
  0
VERTEX
  8
PLAN_1
  6
CONTINUOUS
 10
1.451724
 20
-3.635240
  0
VERTEX
  8
PLAN_1
  6
CONTINUOUS
 10
1.444079
 20
-3.638106
  0
VERTEX
  8
PLAN_1
  6
CONTINUOUS
 10
1.436433
 20
-3.641929
  0
VERTEX
  8
PLAN_1
  6
CONTINUOUS
 10
1.429744
 20
-3.646709
  0
VERTEX
  8
PLAN_1
  6
CONTINUOUS
 10
1.423051
 20
-3.651488
  0
VERTEX
  8
PLAN_1
  6
CONTINUOUS
 10
1.417319
 20
-3.657220
  0
VERTEX
  8
PLAN_1
  6
CONTINUOUS
 10
1.412063
 20
-3.663433
  0
VERTEX
  8
PLAN_1
  6
CONTINUOUS
 10
1.407283
 20
-3.670602
  0
VERTEX
  8
PLAN_1
  6
CONTINUOUS
 10
1.403461
 20
-3.677772
  0
VERTEX
  8
PLAN_1
  6
CONTINUOUS
 10
1.400114
 20
-3.685417
  0
VERTEX
  8
PLAN_1
  6
CONTINUOUS
 10
1.397248
 20
-3.693539
  0
VERTEX
  8
PLAN_1
  6
CONTINUOUS
 10
1.395335
 20
-3.702142
  0
VERTEX
  8
PLAN_1
  6
CONTINUOUS
 10
1.393902
 20
-3.711220
  0
VERTEX
  8
PLAN_1
  6
CONTINUOUS
 10
1.393425
 20
-3.720299
  0
VERTEX
  8
PLAN_1
  6
CONTINUOUS
 10
1.393902
 20
-3.729382
  0
VERTEX
  8
PLAN_1
  6
CONTINUOUS
 10
1.395335
 20
-3.737984
  0
VERTEX
  8
PLAN_1
  6
CONTINUOUS
 10
1.397248
 20
-3.746583
  0
VERTEX
  8
PLAN_1
  6
CONTINUOUS
 10
1.400114
 20
-3.754228
  0
VERTEX
  8
PLAN_1
  6
CONTINUOUS
 10
1.403937
 20
-3.761878
  0
VERTEX
  8
PLAN_1
  6
CONTINUOUS
 10
1.408240
 20
-3.769043
  0
VERTEX
  8
PLAN_1
  6
CONTINUOUS
 10
1.413016
 20
-3.775736
  0
VERTEX
  8
PLAN_1
  6
CONTINUOUS
 10
1.418752
 20
-3.781949
  0
VERTEX
  8
PLAN_1
  6
CONTINUOUS
 10
1.424488
 20
-3.787205
  0
VERTEX
  8
PLAN_1
  6
CONTINUOUS
 10
1.431177
 20
-3.792461
  0
VERTEX
  8
PLAN_1
  6
CONTINUOUS
 10
1.438346
 20
-3.796760
  0
VERTEX
  8
PLAN_1
  6
CONTINUOUS
 10
1.445992
 20
-3.800106
  0
VERTEX
  8
PLAN_1
  6
CONTINUOUS
 10
1.454114
 20
-3.802972
  0
VERTEX
  8
PLAN_1
  6
CONTINUOUS
 10
1.462240
 20
-3.804886
  0
VERTEX
  8
PLAN_1
  6
CONTINUOUS
 10
1.470839
 20
-3.806319
  0
VERTEX
  8
PLAN_1
  6
CONTINUOUS
 10
1.479921
 20
-3.806795
  0
VERTEX
  8
PLAN_1
  6
CONTINUOUS
 10
1.484701
 20
-3.806795
  0
VERTEX
  8
PLAN_1
  6
CONTINUOUS
 10
1.489476
 20
-3.806319
  0
VERTEX
  8
PLAN_1
  6
CONTINUOUS
 10
1.494256
 20
-3.805362
  0
VERTEX
  8
PLAN_1
  6
CONTINUOUS
 10
1.499035
 20
-3.804406
  0
VERTEX
  8
PLAN_1
  6
CONTINUOUS
 10
1.503815
 20
-3.803453
  0
VERTEX
  8
PLAN_1
  6
CONTINUOUS
 10
1.508594
 20
-3.802016
  0
VERTEX
  8
PLAN_1
  6
CONTINUOUS
 10
1.512894
 20
-3.800106
  0
VERTEX
  8
PLAN_1
  6
CONTINUOUS
 10
1.517673
 20
-3.798193
  0
VERTEX
  8
PLAN_1
  6
CONTINUOUS
 10
1.521972
 20
-3.796283
  0
VERTEX
  8
PLAN_1
  6
CONTINUOUS
 10
1.525795
 20
-3.793894
  0
VERTEX
  8
PLAN_1
  6
CONTINUOUS
 10
1.530098
 20
-3.791028
  0
VERTEX
  8
PLAN_1
  6
CONTINUOUS
 10
1.533921
 20
-3.788157
  0
VERTEX
  8
PLAN_1
  6
CONTINUOUS
 10
1.537744
 20
-3.785291
  0
VERTEX
  8
PLAN_1
  6
CONTINUOUS
 10
1.541087
 20
-3.781949
  0
VERTEX
  8
PLAN_1
  6
CONTINUOUS
 10
1.544433
 20
-3.778602
  0
VERTEX
  8
PLAN_1
  6
CONTINUOUS
 10
1.547299
 20
-3.775256
  0
VERTEX
  8
PLAN_1
  6
CONTINUOUS
 10
1.565937
 20
-3.775256
  0
VERTEX
  8
PLAN_1
  6
CONTINUOUS
 10
1.562591
 20
-3.780512
  0
VERTEX
  8
PLAN_1
  6
CONTINUOUS
 10
1.558768
 20
-3.785772
  0
VERTEX
  8
PLAN_1
  6
CONTINUOUS
 10
1.554469
 20
-3.791028
  0
VERTEX
  8
PLAN_1
  6
CONTINUOUS
 10
1.549689
 20
-3.795327
  0
VERTEX
  8
PLAN_1
  6
CONTINUOUS
 10
1.544909
 20
-3.800106
  0
VERTEX
  8
PLAN_1
  6
CONTINUOUS
 10
1.540134
 20
-3.803929
  0
VERTEX
  8
PLAN_1
  6
CONTINUOUS
 10
1.534874
 20
-3.807752
  0
VERTEX
  8
PLAN_1
  6
CONTINUOUS
 10
1.529142
 20
-3.811098
  0
VERTEX
  8
PLAN_1
  6
CONTINUOUS
 10
1.523406
 20
-3.813965
  0
VERTEX
  8
PLAN_1
  6
CONTINUOUS
 10
1.517673
 20
-3.816354
  0
VERTEX
  8
PLAN_1
  6
CONTINUOUS
 10
1.511461
 20
-3.818744
  0
VERTEX
  8
PLAN_1
  6
CONTINUOUS
 10
1.505248
 20
-3.820654
  0
VERTEX
  8
PLAN_1
  6
CONTINUOUS
 10
1.499035
 20
-3.822087
  0
VERTEX
  8
PLAN_1
  6
CONTINUOUS
 10
1.492823
 20
-3.823043
  0
VERTEX
  8
PLAN_1
  6
CONTINUOUS
 10
1.486134
 20
-3.824000
  0
VERTEX
  8
PLAN_1
  6
CONTINUOUS
 10
1.479441
 20
-3.824000
  0
VERTEX
  8
PLAN_1
  6
CONTINUOUS
 10
1.473709
 20
-3.824000
  0
VERTEX
  8
PLAN_1
  6
CONTINUOUS
 10
1.468453
 20
-3.823524
  0
VERTEX
  8
PLAN_1
  6
CONTINUOUS
 10
1.463193
 20
-3.823043
  0
VERTEX
  8
PLAN_1
  6
CONTINUOUS
 10
1.457937
 20
-3.822087
  0
VERTEX
  8
PLAN_1
  6
CONTINUOUS
 10
1.452681
 20
-3.820654
  0
VERTEX
  8
PLAN_1
  6
CONTINUOUS
 10
1.447425
 20
-3.819220
  0
VERTEX
  8
PLAN_1
  6
CONTINUOUS
 10
1.442646
 20
-3.817787
  0
VERTEX
  8
PLAN_1
  6
CONTINUOUS
 10
1.437866
 20
-3.815878
  0
VERTEX
  8
PLAN_1
  6
CONTINUOUS
 10
1.433087
 20
-3.813965
  0
VERTEX
  8
PLAN_1
  6
CONTINUOUS
 10
1.428311
 20
-3.811575
  0
VERTEX
  8
PLAN_1
  6
CONTINUOUS
 10
1.424008
 20
-3.808709
  0
VERTEX
  8
PLAN_1
  6
CONTINUOUS
 10
1.419709
 20
-3.806319
  0
VERTEX
  8
PLAN_1
  6
CONTINUOUS
 10
1.415406
 20
-3.803453
  0
VERTEX
  8
PLAN_1
  6
CONTINUOUS
 10
1.411583
 20
-3.800106
  0
VERTEX
  8
PLAN_1
  6
CONTINUOUS
 10
1.407760
 20
-3.796760
  0
VERTEX
  8
PLAN_1
  6
CONTINUOUS
 10
1.403937
 20
-3.793417
  0
VERTEX
  8
PLAN_1
  6
CONTINUOUS
 10
1.400594
 20
-3.789594
  0
VERTEX
  8
PLAN_1
  6
CONTINUOUS
 10
1.397248
 20
-3.785772
  0
VERTEX
  8
PLAN_1
  6
CONTINUOUS
 10
1.394382
 20
-3.781949
  0
VERTEX
  8
PLAN_1
  6
CONTINUOUS
 10
1.391035
 20
-3.777646
  0
VERTEX
  8
PLAN_1
  6
CONTINUOUS
 10
1.388646
 20
-3.773823
  0
VERTEX
  8
PLAN_1
  6
CONTINUOUS
 10
1.385780
 20
-3.769043
  0
VERTEX
  8
PLAN_1
  6
CONTINUOUS
 10
1.383866
 20
-3.764744
  0
VERTEX
  8
PLAN_1
  6
CONTINUOUS
 10
1.381476
 20
-3.759965
  0
VERTEX
  8
PLAN_1
  6
CONTINUOUS
 10
1.379567
 20
-3.755185
  0
VERTEX
  8
PLAN_1
  6
CONTINUOUS
 10
1.378134
 20
-3.750406
  0
VERTEX
  8
PLAN_1
  6
CONTINUOUS
 10
1.376701
 20
-3.745150
  0
VERTEX
  8
PLAN_1
  6
CONTINUOUS
 10
1.375744
 20
-3.739894
  0
VERTEX
  8
PLAN_1
  6
CONTINUOUS
 10
1.374787
 20
-3.734638
  0
VERTEX
  8
PLAN_1
  6
CONTINUOUS
 10
1.373831
 20
-3.729382
  0
VERTEX
  8
PLAN_1
  6
CONTINUOUS
 10
1.373354
 20
-3.724126
  0
VERTEX
  8
PLAN_1
  6
CONTINUOUS
 10
1.373354
 20
-3.718390
  0
VERTEX
  8
PLAN_1
  6
CONTINUOUS
 10
1.373354
 20
-3.713134
  0
VERTEX
  8
PLAN_1
  6
CONTINUOUS
 10
1.373831
 20
-3.707878
  0
VERTEX
  8
PLAN_1
  6
CONTINUOUS
 10
1.374787
 20
-3.702618
  0
VERTEX
  8
PLAN_1
  6
CONTINUOUS
 10
1.375744
 20
-3.697362
  0
VERTEX
  8
PLAN_1
  6
CONTINUOUS
 10
1.376701
 20
-3.692106
  0
VERTEX
  8
PLAN_1
  6
CONTINUOUS
 10
1.378134
 20
-3.687327
  0
VERTEX
  8
PLAN_1
  6
CONTINUOUS
 10
1.379567
 20
-3.682547
  0
VERTEX
  8
PLAN_1
  6
CONTINUOUS
 10
1.381476
 20
-3.677772
  0
VERTEX
  8
PLAN_1
  6
CONTINUOUS
 10
1.383866
 20
-3.672992
  0
VERTEX
  8
PLAN_1
  6
CONTINUOUS
 10
1.386256
 20
-3.668689
  0
VERTEX
  8
PLAN_1
  6
CONTINUOUS
 10
1.388646
 20
-3.664390
  0
VERTEX
  8
PLAN_1
  6
CONTINUOUS
 10
1.391512
 20
-3.660091
  0
VERTEX
  8
PLAN_1
  6
CONTINUOUS
 10
1.394382
 20
-3.655787
  0
VERTEX
  8
PLAN_1
  6
CONTINUOUS
 10
1.397248
 20
-3.651965
  0
VERTEX
  8
PLAN_1
  6
CONTINUOUS
 10
1.400594
 20
-3.648142
  0
VERTEX
  8
PLAN_1
  6
CONTINUOUS
 10
1.404417
 20
-3.644795
  0
VERTEX
  8
PLAN_1
  6
CONTINUOUS
 10
1.411583
 20
-3.638106
  0
VERTEX
  8
PLAN_1
  6
CONTINUOUS
 10
1.419709
 20
-3.631894
  0
VERTEX
  8
PLAN_1
  6
CONTINUOUS
 10
1.424008
 20
-3.629028
  0
VERTEX
  8
PLAN_1
  6
CONTINUOUS
 10
1.428311
 20
-3.626638
  0
VERTEX
  8
PLAN_1
  6
CONTINUOUS
 10
1.433087
 20
-3.624248
  0
VERTEX
  8
PLAN_1
  6
CONTINUOUS
 10
1.437390
 20
-3.622339
  0
VERTEX
  8
PLAN_1
  6
CONTINUOUS
 10
1.442169
 20
-3.620425
  0
VERTEX
  8
PLAN_1
  6
CONTINUOUS
 10
1.446945
 20
-3.618992
  0
VERTEX
  8
PLAN_1
  6
CONTINUOUS
 10
1.452205
 20
-3.617559
  0
VERTEX
  8
PLAN_1
  6
CONTINUOUS
 10
1.456980
 20
-3.616126
  0
VERTEX
  8
PLAN_1
  6
CONTINUOUS
 10
1.462240
 20
-3.615169
  0
VERTEX
  8
PLAN_1
  6
CONTINUOUS
 10
1.467496
 20
-3.614689
  0
VERTEX
  8
PLAN_1
  6
CONTINUOUS
 10
1.472752
 20
-3.614213
  0
VERTEX
  8
PLAN_1
  6
CONTINUOUS
 10
1.478008
 20
-3.614213
  0
VERTEX
  8
PLAN_1
  6
CONTINUOUS
 10
1.487567
 20
-3.614689
  0
VERTEX
  8
PLAN_1
  6
CONTINUOUS
 10
1.496646
 20
-3.615646
  0
VERTEX
  8
PLAN_1
  6
CONTINUOUS
 10
1.505724
 20
-3.618035
  0
VERTEX
  8
PLAN_1
  6
CONTINUOUS
 10
1.514803
 20
-3.620425
  0
VERTEX
  8
PLAN_1
  6
CONTINUOUS
 10
1.522929
 20
-3.624248
  0
VERTEX
  8
PLAN_1
  6
CONTINUOUS
 10
1.530575
 20
-3.628071
  0
VERTEX
  8
PLAN_1
  6
CONTINUOUS
 10
1.538220
 20
-3.632850
  0
VERTEX
  8
PLAN_1
  6
CONTINUOUS
 10
1.544909
 20
-3.638583
  0
VERTEX
  8
PLAN_1
  6
CONTINUOUS
 10
1.551122
 20
-3.644795
  0
VERTEX
  8
PLAN_1
  6
CONTINUOUS
 10
1.556858
 20
-3.651008
  0
VERTEX
  8
PLAN_1
  6
CONTINUOUS
 10
1.561638
 20
-3.658177
  0
VERTEX
  8
PLAN_1
  6
CONTINUOUS
 10
1.565937
 20
-3.665823
  0
VERTEX
  8
PLAN_1
  6
CONTINUOUS
 10
1.567370
 20
-3.670126
  0
VERTEX
  8
PLAN_1
  6
CONTINUOUS
 10
1.569283
 20
-3.673949
  0
VERTEX
  8
PLAN_1
  6
CONTINUOUS
 10
1.570240
 20
-3.678248
  0
VERTEX
  8
PLAN_1
  6
CONTINUOUS
 10
1.571673
 20
-3.682547
  0
VERTEX
  8
PLAN_1
  6
CONTINUOUS
 10
1.572626
 20
-3.686850
  0
VERTEX
  8
PLAN_1
  6
CONTINUOUS
 10
1.573106
 20
-3.691630
  0
VERTEX
  8
PLAN_1
  6
CONTINUOUS
 10
1.573583
 20
-3.695929
  0
VERTEX
  8
PLAN_1
  6
CONTINUOUS
 10
1.573583
 20
-3.700709
  0
VERTEX
  8
PLAN_1
  6
CONTINUOUS
 10
1.573106
 20
-3.709787
  0
VERTEX
  8
PLAN_1
  6
CONTINUOUS
 10
1.571673
 20
-3.718866
  0
VERTEX
  8
PLAN_1
  6
CONTINUOUS
 10
1.569283
 20
-3.726992
  0
VERTEX
  8
PLAN_1
  6
CONTINUOUS
 10
1.566417
 20
-3.734638
  0
VERTEX
  8
PLAN_1
  6
CONTINUOUS
 10
1.563071
 20
-3.741807
  0
VERTEX
  8
PLAN_1
  6
CONTINUOUS
 10
1.559248
 20
-3.748020
  0
VERTEX
  8
PLAN_1
  6
CONTINUOUS
 10
1.554469
 20
-3.754228
  0
VERTEX
  8
PLAN_1
  6
CONTINUOUS
 10
1.549689
 20
-3.759488
  0
VERTEX
  8
PLAN_1
  6
CONTINUOUS
 10
1.544433
 20
-3.764744
  0
VERTEX
  8
PLAN_1
  6
CONTINUOUS
 10
1.539177
 20
-3.769043
  0
VERTEX
  8
PLAN_1
  6
CONTINUOUS
 10
1.533441
 20
-3.772390
  0
VERTEX
  8
PLAN_1
  6
CONTINUOUS
 10
1.528185
 20
-3.775736
  0
VERTEX
  8
PLAN_1
  6
CONTINUOUS
 10
1.522453
 20
-3.777646
  0
VERTEX
  8
PLAN_1
  6
CONTINUOUS
 10
1.517193
 20
-3.779559
  0
VERTEX
  8
PLAN_1
  6
CONTINUOUS
 10
1.511937
 20
-3.780512
  0
VERTEX
  8
PLAN_1
  6
CONTINUOUS
 10
1.507157
 20
-3.780992
  0
VERTEX
  8
PLAN_1
  6
CONTINUOUS
 10
1.503815
 20
-3.780512
  0
VERTEX
  8
PLAN_1
  6
CONTINUOUS
 10
1.500469
 20
-3.780035
  0
VERTEX
  8
PLAN_1
  6
CONTINUOUS
 10
1.497602
 20
-3.778602
  0
VERTEX
  8
PLAN_1
  6
CONTINUOUS
 10
1.494732
 20
-3.776689
  0
VERTEX
  8
PLAN_1
  6
CONTINUOUS
 10
1.492823
 20
-3.774299
  0
VERTEX
  8
PLAN_1
  6
CONTINUOUS
 10
1.490909
 20
-3.771433
  0
VERTEX
  8
PLAN_1
  6
CONTINUOUS
 10
1.489957
 20
-3.767610
  0
VERTEX
  8
PLAN_1
  6
CONTINUOUS
 10
1.489476
 20
-3.763311
  0
VERTEX
  8
PLAN_1
  6
CONTINUOUS
 10
1.489000
 20
-3.763787
  0
VERTEX
  8
PLAN_1
  6
CONTINUOUS
 10
1.485654
 20
-3.767134
  0
VERTEX
  8
PLAN_1
  6
CONTINUOUS
 10
1.482311
 20
-3.770000
  0
VERTEX
  8
PLAN_1
  6
CONTINUOUS
 10
1.478008
 20
-3.772866
  0
VERTEX
  8
PLAN_1
  6
CONTINUOUS
 10
1.474185
 20
-3.775736
  0
VERTEX
  8
PLAN_1
  6
CONTINUOUS
 10
1.469886
 20
-3.777646
  0
VERTEX
  8
PLAN_1
  6
CONTINUOUS
 10
1.465106
 20
-3.779559
  0
VERTEX
  8
PLAN_1
  6
CONTINUOUS
 10
1.460327
 20
-3.780512
  0
VERTEX
  8
PLAN_1
  6
CONTINUOUS
 10
1.455547
 20
-3.780992
  0
VERTEX
  8
PLAN_1
  6
CONTINUOUS
 10
1.451248
 20
-3.780512
  0
VERTEX
  8
PLAN_1
  6
CONTINUOUS
 10
1.446945
 20
-3.780035
  0
VERTEX
  8
PLAN_1
  6
CONTINUOUS
 10
1.443122
 20
-3.779079
  0
VERTEX
  8
PLAN_1
  6
CONTINUOUS
 10
1.439299
 20
-3.777646
  0
VERTEX
  8
PLAN_1
  6
CONTINUOUS
 10
1.435476
 20
-3.775736
  0
VERTEX
  8
PLAN_1
  6
CONTINUOUS
 10
1.432134
 20
-3.773346
  0
VERTEX
  8
PLAN_1
  6
CONTINUOUS
 10
1.429264
 20
-3.770476
  0
VERTEX
  8
PLAN_1
  6
CONTINUOUS
 10
1.426398
 20
-3.767610
  0
VERTEX
  8
PLAN_1
  6
CONTINUOUS
 10
1.423531
 20
-3.764744
  0
VERTEX
  8
PLAN_1
  6
CONTINUOUS
 10
1.421142
 20
-3.761398
  0
VERTEX
  8
PLAN_1
  6
CONTINUOUS
 10
1.419228
 20
-3.757575
  0
VERTEX
  8
PLAN_1
  6
CONTINUOUS
 10
1.417795
 20
-3.753752
  0
VERTEX
  8
PLAN_1
  6
CONTINUOUS
 10
1.416362
 20
-3.749453
  0
VERTEX
  8
PLAN_1
  6
CONTINUOUS
 10
1.415406
 20
-3.745630
  0
VERTEX
  8
PLAN_1
  6
CONTINUOUS
 10
1.414929
 20
-3.740850
  0
VERTEX
  8
PLAN_1
  6
CONTINUOUS
 10
1.414929
 20
-3.736547
  0
VERTEX
  8
PLAN_1
  6
CONTINUOUS
 10
1.414929
 20
-3.729382
  0
VERTEX
  8
PLAN_1
  6
CONTINUOUS
 10
1.415886
 20
-3.722689
  0
VERTEX
  8
PLAN_1
  6
CONTINUOUS
 10
1.417319
 20
-3.715524
  0
VERTEX
  8
PLAN_1
  6
CONTINUOUS
 10
1.419228
 20
-3.708831
  0
VERTEX
  8
PLAN_1
  6
CONTINUOUS
 10
1.421618
 20
-3.702142
  0
VERTEX
  8
PLAN_1
  6
CONTINUOUS
 10
1.424965
 20
-3.695929
  0
VERTEX
  8
PLAN_1
  6
CONTINUOUS
 10
1.428311
 20
-3.689717
  0
VERTEX
  8
PLAN_1
  6
CONTINUOUS
 10
1.432134
 20
-3.683984
  0
VERTEX
  8
PLAN_1
  6
CONTINUOUS
 10
1.436909
 20
-3.679205
  0
VERTEX
  8
PLAN_1
  6
CONTINUOUS
 10
1.441689
 20
-3.674425
  0
VERTEX
  8
PLAN_1
  6
CONTINUOUS
 10
1.446945
 20
-3.670126
  0
VERTEX
  8
PLAN_1
  6
CONTINUOUS
 10
1.452681
 20
-3.666780
  0
VERTEX
  8
PLAN_1
  6
CONTINUOUS
 10
1.458417
 20
-3.663913
  0
VERTEX
  8
PLAN_1
  6
CONTINUOUS
 10
1.465106
 20
-3.661524
  0
VERTEX
  8
PLAN_1
  6
CONTINUOUS
 10
1.471795
 20
-3.660567
  0
VERTEX
  8
PLAN_1
  6
CONTINUOUS
 10
1.478965
 20
-3.660091
  0
VERTEX
  8
PLAN_1
  6
CONTINUOUS
 10
1.483744
 20
-3.660091
  0
VERTEX
  8
PLAN_1
  6
CONTINUOUS
 10
1.488524
 20
-3.661043
  0
VERTEX
  8
PLAN_1
  6
CONTINUOUS
 10
1.492823
 20
-3.662476
  0
VERTEX
  8
PLAN_1
  6
CONTINUOUS
 10
1.497122
 20
-3.664866
  0
VERTEX
  8
PLAN_1
  6
CONTINUOUS
 10
1.500945
 20
-3.667736
  0
VERTEX
  8
PLAN_1
  6
CONTINUOUS
 10
1.504768
 20
-3.671559
  0
VERTEX
  8
PLAN_1
  6
CONTINUOUS
 10
1.508114
 20
-3.676335
  0
VERTEX
  8
PLAN_1
  6
CONTINUOUS
 10
1.510980
 20
-3.681594
  0
VERTEX
  8
PLAN_1
  6
CONTINUOUS
 10
1.516240
 20
-3.664390
  0
SEQEND
  8
0
  0
POLYLINE
  8
PLAN_1
  6
CONTINUOUS
 66
     1
 40
0.003000
 41
0.003000
  0
VERTEX
  8
PLAN_1
  6
CONTINUOUS
 10
1.479441
 20
-3.680161
  0
VERTEX
  8
PLAN_1
  6
CONTINUOUS
 10
1.474665
 20
-3.680161
  0
VERTEX
  8
PLAN_1
  6
CONTINUOUS
 10
1.470362
 20
-3.681114
  0
VERTEX
  8
PLAN_1
  6
CONTINUOUS
 10
1.466539
 20
-3.683028
  0
VERTEX
  8
PLAN_1
  6
CONTINUOUS
 10
1.462240
 20
-3.684937
  0
VERTEX
  8
PLAN_1
  6
CONTINUOUS
 10
1.458894
 20
-3.687807
  0
VERTEX
  8
PLAN_1
  6
CONTINUOUS
 10
1.455071
 20
-3.691150
  0
VERTEX
  8
PLAN_1
  6
CONTINUOUS
 10
1.452205
 20
-3.694496
  0
VERTEX
  8
PLAN_1
  6
CONTINUOUS
 10
1.449335
 20
-3.698319
  0
VERTEX
  8
PLAN_1
  6
CONTINUOUS
 10
1.446469
 20
-3.702618
  0
VERTEX
  8
PLAN_1
  6
CONTINUOUS
 10
1.444079
 20
-3.706921
  0
VERTEX
  8
PLAN_1
  6
CONTINUOUS
 10
1.442169
 20
-3.711220
  0
VERTEX
  8
PLAN_1
  6
CONTINUOUS
 10
1.440736
 20
-3.716000
  0
VERTEX
  8
PLAN_1
  6
CONTINUOUS
 10
1.439299
 20
-3.720299
  0
VERTEX
  8
PLAN_1
  6
CONTINUOUS
 10
1.438346
 20
-3.725079
  0
VERTEX
  8
PLAN_1
  6
CONTINUOUS
 10
1.437866
 20
-3.729858
  0
VERTEX
  8
PLAN_1
  6
CONTINUOUS
 10
1.437390
 20
-3.734157
  0
VERTEX
  8
PLAN_1
  6
CONTINUOUS
 10
1.437866
 20
-3.739894
  0
VERTEX
  8
PLAN_1
  6
CONTINUOUS
 10
1.439299
 20
-3.745150
  0
VERTEX
  8
PLAN_1
  6
CONTINUOUS
 10
1.441213
 20
-3.749453
  0
VERTEX
  8
PLAN_1
  6
CONTINUOUS
 10
1.444079
 20
-3.753276
  0
VERTEX
  8
PLAN_1
  6
CONTINUOUS
 10
1.445512
 20
-3.755185
  0
VERTEX
  8
PLAN_1
  6
CONTINUOUS
 10
1.447425
 20
-3.756618
  0
VERTEX
  8
PLAN_1
  6
CONTINUOUS
 10
1.449335
 20
-3.758055
  0
VERTEX
  8
PLAN_1
  6
CONTINUOUS
 10
1.451248
 20
-3.759008
  0
VERTEX
  8
PLAN_1
  6
CONTINUOUS
 10
1.453638
 20
-3.759965
  0
VERTEX
  8
PLAN_1
  6
CONTINUOUS
 10
1.456028
 20
-3.760441
  0
VERTEX
  8
PLAN_1
  6
CONTINUOUS
 10
1.458417
 20
-3.760921
  0
VERTEX
  8
PLAN_1
  6
CONTINUOUS
 10
1.460803
 20
-3.760921
  0
VERTEX
  8
PLAN_1
  6
CONTINUOUS
 10
1.465106
 20
-3.760441
  0
VERTEX
  8
PLAN_1
  6
CONTINUOUS
 10
1.469406
 20
-3.759488
  0
VERTEX
  8
PLAN_1
  6
CONTINUOUS
 10
1.473228
 20
-3.757575
  0
VERTEX
  8
PLAN_1
  6
CONTINUOUS
 10
1.477051
 20
-3.755665
  0
VERTEX
  8
PLAN_1
  6
CONTINUOUS
 10
1.480874
 20
-3.752795
  0
VERTEX
  8
PLAN_1
  6
CONTINUOUS
 10
1.484220
 20
-3.749453
  0
VERTEX
  8
PLAN_1
  6
CONTINUOUS
 10
1.487567
 20
-3.745630
  0
VERTEX
  8
PLAN_1
  6
CONTINUOUS
 10
1.490433
 20
-3.741327
  0
VERTEX
  8
PLAN_1
  6
CONTINUOUS
 10
1.492823
 20
-3.737504
  0
VERTEX
  8
PLAN_1
  6
CONTINUOUS
 10
1.495213
 20
-3.732724
  0
VERTEX
  8
PLAN_1
  6
CONTINUOUS
 10
1.497122
 20
-3.728425
  0
VERTEX
  8
PLAN_1
  6
CONTINUOUS
 10
1.499035
 20
-3.723646
  0
VERTEX
  8
PLAN_1
  6
CONTINUOUS
 10
1.500469
 20
-3.718866
  0
VERTEX
  8
PLAN_1
  6
CONTINUOUS
 10
1.501425
 20
-3.714091
  0
VERTEX
  8
PLAN_1
  6
CONTINUOUS
 10
1.501902
 20
-3.709787
  0
VERTEX
  8
PLAN_1
  6
CONTINUOUS
 10
1.502382
 20
-3.705488
  0
VERTEX
  8
PLAN_1
  6
CONTINUOUS
 10
1.501902
 20
-3.700709
  0
VERTEX
  8
PLAN_1
  6
CONTINUOUS
 10
1.500469
 20
-3.695929
  0
VERTEX
  8
PLAN_1
  6
CONTINUOUS
 10
1.498079
 20
-3.691630
  0
VERTEX
  8
PLAN_1
  6
CONTINUOUS
 10
1.495213
 20
-3.687807
  0
VERTEX
  8
PLAN_1
  6
CONTINUOUS
 10
1.491866
 20
-3.684461
  0
VERTEX
  8
PLAN_1
  6
CONTINUOUS
 10
1.488043
 20
-3.682071
  0
VERTEX
  8
PLAN_1
  6
CONTINUOUS
 10
1.486134
 20
-3.681114
  0
VERTEX
  8
PLAN_1
  6
CONTINUOUS
 10
1.483744
 20
-3.680638
  0
VERTEX
  8
PLAN_1
  6
CONTINUOUS
 10
1.481831
 20
-3.680161
  0
VERTEX
  8
PLAN_1
  6
CONTINUOUS
 10
1.479441
 20
-3.680161
  0
SEQEND
  8
0
  0
POLYLINE
  8
PLAN_1
  6
CONTINUOUS
 66
     1
 40
0.003000
 41
0.003000
  0
VERTEX
  8
PLAN_1
  6
CONTINUOUS
 10
1.665815
 20
-3.818744
  0
VERTEX
  8
PLAN_1
  6
CONTINUOUS
 10
1.639051
 20
-3.818744
  0
VERTEX
  8
PLAN_1
  6
CONTINUOUS
 10
1.639051
 20
-3.619469
  0
VERTEX
  8
PLAN_1
  6
CONTINUOUS
 10
1.730803
 20
-3.619469
  0
VERTEX
  8
PLAN_1
  6
CONTINUOUS
 10
1.737016
 20
-3.619469
  0
VERTEX
  8
PLAN_1
  6
CONTINUOUS
 10
1.743228
 20
-3.619949
  0
VERTEX
  8
PLAN_1
  6
CONTINUOUS
 10
1.749441
 20
-3.620902
  0
VERTEX
  8
PLAN_1
  6
CONTINUOUS
 10
1.755177
 20
-3.621858
  0
VERTEX
  8
PLAN_1
  6
CONTINUOUS
 10
1.760909
 20
-3.623291
  0
VERTEX
  8
PLAN_1
  6
CONTINUOUS
 10
1.766165
 20
-3.625205
  0
VERTEX
  8
PLAN_1
  6
CONTINUOUS
 10
1.771425
 20
-3.627594
  0
VERTEX
  8
PLAN_1
  6
CONTINUOUS
 10
1.776201
 20
-3.630461
  0
VERTEX
  8
PLAN_1
  6
CONTINUOUS
 10
1.780504
 20
-3.633807
  0
VERTEX
  8
PLAN_1
  6
CONTINUOUS
 10
1.784327
 20
-3.637630
  0
VERTEX
  8
PLAN_1
  6
CONTINUOUS
 10
1.788150
 20
-3.641929
  0
VERTEX
  8
PLAN_1
  6
CONTINUOUS
 10
1.791016
 20
-3.646709
  0
VERTEX
  8
PLAN_1
  6
CONTINUOUS
 10
1.793406
 20
-3.652441
  0
VERTEX
  8
PLAN_1
  6
CONTINUOUS
 10
1.794839
 20
-3.658654
  0
VERTEX
  8
PLAN_1
  6
CONTINUOUS
 10
1.796272
 20
-3.665346
  0
VERTEX
  8
PLAN_1
  6
CONTINUOUS
 10
1.796752
 20
-3.672992
  0
VERTEX
  8
PLAN_1
  6
CONTINUOUS
 10
1.796272
 20
-3.678248
  0
VERTEX
  8
PLAN_1
  6
CONTINUOUS
 10
1.795795
 20
-3.683028
  0
VERTEX
  8
PLAN_1
  6
CONTINUOUS
 10
1.794839
 20
-3.687807
  0
VERTEX
  8
PLAN_1
  6
CONTINUOUS
 10
1.793886
 20
-3.691630
  0
VERTEX
  8
PLAN_1
  6
CONTINUOUS
 10
1.792449
 20
-3.695453
  0
VERTEX
  8
PLAN_1
  6
CONTINUOUS
 10
1.791016
 20
-3.699276
  0
VERTEX
  8
PLAN_1
  6
CONTINUOUS
 10
1.789583
 20
-3.702142
  0
VERTEX
  8
PLAN_1
  6
CONTINUOUS
 10
1.787673
 20
-3.705008
  0
VERTEX
  8
PLAN_1
  6
CONTINUOUS
 10
1.783370
 20
-3.710264
  0
VERTEX
  8
PLAN_1
  6
CONTINUOUS
 10
1.778591
 20
-3.714091
  0
VERTEX
  8
PLAN_1
  6
CONTINUOUS
 10
1.773815
 20
-3.717913
  0
VERTEX
  8
PLAN_1
  6
CONTINUOUS
 10
1.768555
 20
-3.720780
  0
VERTEX
  8
PLAN_1
  6
CONTINUOUS
 10
1.772858
 20
-3.722689
  0
VERTEX
  8
PLAN_1
  6
CONTINUOUS
 10
1.777157
 20
-3.724602
  0
VERTEX
  8
PLAN_1
  6
CONTINUOUS
 10
1.780980
 20
-3.727469
  0
VERTEX
  8
PLAN_1
  6
CONTINUOUS
 10
1.784803
 20
-3.730815
  0
VERTEX
  8
PLAN_1
  6
CONTINUOUS
 10
1.786236
 20
-3.733205
  0
VERTEX
  8
PLAN_1
  6
CONTINUOUS
 10
1.787673
 20
-3.735594
  0
VERTEX
  8
PLAN_1
  6
CONTINUOUS
 10
1.789106
 20
-3.737984
  0
VERTEX
  8
PLAN_1
  6
CONTINUOUS
 10
1.790059
 20
-3.741327
  0
VERTEX
  8
PLAN_1
  6
CONTINUOUS
 10
1.791016
 20
-3.744673
  0
VERTEX
  8
PLAN_1
  6
CONTINUOUS
 10
1.791972
 20
-3.748972
  0
VERTEX
  8
PLAN_1
  6
CONTINUOUS
 10
1.792449
 20
-3.753276
  0
VERTEX
  8
PLAN_1
  6
CONTINUOUS
 10
1.792449
 20
-3.758055
  0
VERTEX
  8
PLAN_1
  6
CONTINUOUS
 10
1.794362
 20
-3.794370
  0
VERTEX
  8
PLAN_1
  6
CONTINUOUS
 10
1.794362
 20
-3.798193
  0
VERTEX
  8
PLAN_1
  6
CONTINUOUS
 10
1.794839
 20
-3.801539
  0
VERTEX
  8
PLAN_1
  6
CONTINUOUS
 10
1.795319
 20
-3.804406
  0
VERTEX
  8
PLAN_1
  6
CONTINUOUS
 10
1.796272
 20
-3.806795
  0
VERTEX
  8
PLAN_1
  6
CONTINUOUS
 10
1.797709
 20
-3.808709
  0
VERTEX
  8
PLAN_1
  6
CONTINUOUS
 10
1.799142
 20
-3.810618
  0
VERTEX
  8
PLAN_1
  6
CONTINUOUS
 10
1.801531
 20
-3.812531
  0
VERTEX
  8
PLAN_1
  6
CONTINUOUS
 10
1.804398
 20
-3.814441
  0
VERTEX
  8
PLAN_1
  6
CONTINUOUS
 10
1.804398
 20
-3.818744
  0
VERTEX
  8
PLAN_1
  6
CONTINUOUS
 10
1.771425
 20
-3.818744
  0
VERTEX
  8
PLAN_1
  6
CONTINUOUS
 10
1.769992
 20
-3.813488
  0
VERTEX
  8
PLAN_1
  6
CONTINUOUS
 10
1.769035
 20
-3.806795
  0
VERTEX
  8
PLAN_1
  6
CONTINUOUS
 10
1.768079
 20
-3.799630
  0
VERTEX
  8
PLAN_1
  6
CONTINUOUS
 10
1.767602
 20
-3.791984
  0
VERTEX
  8
PLAN_1
  6
CONTINUOUS
 10
1.767122
 20
-3.784815
  0
VERTEX
  8
PLAN_1
  6
CONTINUOUS
 10
1.766646
 20
-3.778122
  0
VERTEX
  8
PLAN_1
  6
CONTINUOUS
 10
1.766646
 20
-3.772390
  0
VERTEX
  8
PLAN_1
  6
CONTINUOUS
 10
1.766646
 20
-3.768567
  0
VERTEX
  8
PLAN_1
  6
CONTINUOUS
 10
1.766165
 20
-3.762354
  0
VERTEX
  8
PLAN_1
  6
CONTINUOUS
 10
1.765689
 20
-3.756142
  0
VERTEX
  8
PLAN_1
  6
CONTINUOUS
 10
1.764732
 20
-3.753276
  0
VERTEX
  8
PLAN_1
  6
CONTINUOUS
 10
1.763780
 20
-3.750406
  0
VERTEX
  8
PLAN_1
  6
CONTINUOUS
 10
1.762343
 20
-3.747539
  0
VERTEX
  8
PLAN_1
  6
CONTINUOUS
 10
1.760909
 20
-3.744673
  0
VERTEX
  8
PLAN_1
  6
CONTINUOUS
 10
1.759000
 20
-3.742283
  0
VERTEX
  8
PLAN_1
  6
CONTINUOUS
 10
1.756610
 20
-3.740370
  0
VERTEX
  8
PLAN_1
  6
CONTINUOUS
 10
1.753744
 20
-3.737984
  0
VERTEX
  8
PLAN_1
  6
CONTINUOUS
 10
1.750398
 20
-3.736547
  0
VERTEX
  8
PLAN_1
  6
CONTINUOUS
 10
1.746098
 20
-3.735114
  0
VERTEX
  8
PLAN_1
  6
CONTINUOUS
 10
1.741795
 20
-3.734157
  0
VERTEX
  8
PLAN_1
  6
CONTINUOUS
 10
1.736539
 20
-3.733681
  0
VERTEX
  8
PLAN_1
  6
CONTINUOUS
 10
1.730803
 20
-3.733205
  0
VERTEX
  8
PLAN_1
  6
CONTINUOUS
 10
1.665815
 20
-3.733205
  0
VERTEX
  8
PLAN_1
  6
CONTINUOUS
 10
1.665815
 20
-3.818744
  0
SEQEND
  8
0
  0
POLYLINE
  8
PLAN_1
  6
CONTINUOUS
 66
     1
 40
0.003000
 41
0.003000
  0
VERTEX
  8
PLAN_1
  6
CONTINUOUS
 10
1.665815
 20
-3.710264
  0
VERTEX
  8
PLAN_1
  6
CONTINUOUS
 10
1.728413
 20
-3.710264
  0
VERTEX
  8
PLAN_1
  6
CONTINUOUS
 10
1.735583
 20
-3.709787
  0
VERTEX
  8
PLAN_1
  6
CONTINUOUS
 10
1.742752
 20
-3.708831
  0
VERTEX
  8
PLAN_1
  6
CONTINUOUS
 10
1.746575
 20
-3.708354
  0
VERTEX
  8
PLAN_1
  6
CONTINUOUS
 10
1.749921
 20
-3.706921
  0
VERTEX
  8
PLAN_1
  6
CONTINUOUS
 10
1.752787
 20
-3.705488
  0
VERTEX
  8
PLAN_1
  6
CONTINUOUS
 10
1.756130
 20
-3.704055
  0
VERTEX
  8
PLAN_1
  6
CONTINUOUS
 10
1.758520
 20
-3.702142
  0
VERTEX
  8
PLAN_1
  6
CONTINUOUS
 10
1.761390
 20
-3.699752
  0
VERTEX
  8
PLAN_1
  6
CONTINUOUS
 10
1.763299
 20
-3.696886
  0
VERTEX
  8
PLAN_1
  6
CONTINUOUS
 10
1.765213
 20
-3.693539
  0
VERTEX
  8
PLAN_1
  6
CONTINUOUS
 10
1.766646
 20
-3.689717
  0
VERTEX
  8
PLAN_1
  6
CONTINUOUS
 10
1.768079
 20
-3.685894
  0
VERTEX
  8
PLAN_1
  6
CONTINUOUS
 10
1.768555
 20
-3.681114
  0
VERTEX
  8
PLAN_1
  6
CONTINUOUS
 10
1.768555
 20
-3.675858
  0
VERTEX
  8
PLAN_1
  6
CONTINUOUS
 10
1.768555
 20
-3.670126
  0
VERTEX
  8
PLAN_1
  6
CONTINUOUS
 10
1.767602
 20
-3.665346
  0
VERTEX
  8
PLAN_1
  6
CONTINUOUS
 10
1.766646
 20
-3.661043
  0
VERTEX
  8
PLAN_1
  6
CONTINUOUS
 10
1.765213
 20
-3.657701
  0
VERTEX
  8
PLAN_1
  6
CONTINUOUS
 10
1.763299
 20
-3.654354
  0
VERTEX
  8
PLAN_1
  6
CONTINUOUS
 10
1.760909
 20
-3.651488
  0
VERTEX
  8
PLAN_1
  6
CONTINUOUS
 10
1.758520
 20
-3.649575
  0
VERTEX
  8
PLAN_1
  6
CONTINUOUS
 10
1.755654
 20
-3.647665
  0
VERTEX
  8
PLAN_1
  6
CONTINUOUS
 10
1.753264
 20
-3.646232
  0
VERTEX
  8
PLAN_1
  6
CONTINUOUS
 10
1.749921
 20
-3.644795
  0
VERTEX
  8
PLAN_1
  6
CONTINUOUS
 10
1.747051
 20
-3.643843
  0
VERTEX
  8
PLAN_1
  6
CONTINUOUS
 10
1.744185
 20
-3.643362
  0
VERTEX
  8
PLAN_1
  6
CONTINUOUS
 10
1.738449
 20
-3.642406
  0
VERTEX
  8
PLAN_1
  6
CONTINUOUS
 10
1.733193
 20
-3.642406
  0
VERTEX
  8
PLAN_1
  6
CONTINUOUS
 10
1.665815
 20
-3.642406
  0
VERTEX
  8
PLAN_1
  6
CONTINUOUS
 10
1.665815
 20
-3.710264
  0
SEQEND
  8
0
  0
SOLID
  8
PLAN_1
 10
1.867953
 20
-3.818744
 11
1.839283
 21
-3.818744
 12
1.867953
 22
-3.789114
 13
1.839283
 23
-3.789114
  0
POLYLINE
  8
PLAN_1
  6
CONTINUOUS
 66
     1
 40
0.003000
 41
0.003000
  0
VERTEX
  8
PLAN_1
  6
CONTINUOUS
 10
1.867953
 20
-3.818744
  0
VERTEX
  8
PLAN_1
  6
CONTINUOUS
 10
1.839283
 20
-3.818744
  0
VERTEX
  8
PLAN_1
  6
CONTINUOUS
 10
1.839283
 20
-3.789114
  0
VERTEX
  8
PLAN_1
  6
CONTINUOUS
 10
1.867953
 20
-3.789114
  0
VERTEX
  8
PLAN_1
  6
CONTINUOUS
 10
1.867953
 20
-3.818744
  0
SEQEND
  8
0
  0
POLYLINE
  8
PLAN_1
  6
CONTINUOUS
 66
     1
 40
0.003000
 41
0.003000
  0
VERTEX
  8
PLAN_1
  6
CONTINUOUS
 10
2.062929
 20
-3.818744
  0
VERTEX
  8
PLAN_1
  6
CONTINUOUS
 10
1.916220
 20
-3.818744
  0
VERTEX
  8
PLAN_1
  6
CONTINUOUS
 10
1.916220
 20
-3.619469
  0
VERTEX
  8
PLAN_1
  6
CONTINUOUS
 10
2.061016
 20
-3.619469
  0
VERTEX
  8
PLAN_1
  6
CONTINUOUS
 10
2.061016
 20
-3.643362
  0
VERTEX
  8
PLAN_1
  6
CONTINUOUS
 10
1.942980
 20
-3.643362
  0
VERTEX
  8
PLAN_1
  6
CONTINUOUS
 10
1.942980
 20
-3.704531
  0
VERTEX
  8
PLAN_1
  6
CONTINUOUS
 10
2.051937
 20
-3.704531
  0
VERTEX
  8
PLAN_1
  6
CONTINUOUS
 10
2.051937
 20
-3.728425
  0
VERTEX
  8
PLAN_1
  6
CONTINUOUS
 10
1.942980
 20
-3.728425
  0
VERTEX
  8
PLAN_1
  6
CONTINUOUS
 10
1.942980
 20
-3.794850
  0
VERTEX
  8
PLAN_1
  6
CONTINUOUS
 10
2.062929
 20
-3.794850
  0
VERTEX
  8
PLAN_1
  6
CONTINUOUS
 10
2.062929
 20
-3.818744
  0
SEQEND
  8
0
  0
POLYLINE
  8
PLAN_1
  6
CONTINUOUS
 66
     1
 40
0.003000
 41
0.003000
  0
VERTEX
  8
PLAN_1
  6
CONTINUOUS
 10
2.128398
 20
-3.818744
  0
VERTEX
  8
PLAN_1
  6
CONTINUOUS
 10
2.101157
 20
-3.818744
  0
VERTEX
  8
PLAN_1
  6
CONTINUOUS
 10
2.101157
 20
-3.619469
  0
VERTEX
  8
PLAN_1
  6
CONTINUOUS
 10
2.191000
 20
-3.619469
  0
VERTEX
  8
PLAN_1
  6
CONTINUOUS
 10
2.197689
 20
-3.619469
  0
VERTEX
  8
PLAN_1
  6
CONTINUOUS
 10
2.203902
 20
-3.620425
  0
VERTEX
  8
PLAN_1
  6
CONTINUOUS
 10
2.210114
 20
-3.621858
  0
VERTEX
  8
PLAN_1
  6
CONTINUOUS
 10
2.215846
 20
-3.623772
  0
VERTEX
  8
PLAN_1
  6
CONTINUOUS
 10
2.221102
 20
-3.626161
  0
VERTEX
  8
PLAN_1
  6
CONTINUOUS
 10
2.225882
 20
-3.628547
  0
VERTEX
  8
PLAN_1
  6
CONTINUOUS
 10
2.230185
 20
-3.631894
  0
VERTEX
  8
PLAN_1
  6
CONTINUOUS
 10
2.234484
 20
-3.635240
  0
VERTEX
  8
PLAN_1
  6
CONTINUOUS
 10
2.237831
 20
-3.639539
  0
VERTEX
  8
PLAN_1
  6
CONTINUOUS
 10
2.241173
 20
-3.643843
  0
VERTEX
  8
PLAN_1
  6
CONTINUOUS
 10
2.243563
 20
-3.648142
  0
VERTEX
  8
PLAN_1
  6
CONTINUOUS
 10
2.245953
 20
-3.652921
  0
VERTEX
  8
PLAN_1
  6
CONTINUOUS
 10
2.247866
 20
-3.658177
  0
VERTEX
  8
PLAN_1
  6
CONTINUOUS
 10
2.248823
 20
-3.663913
  0
VERTEX
  8
PLAN_1
  6
CONTINUOUS
 10
2.249776
 20
-3.669646
  0
VERTEX
  8
PLAN_1
  6
CONTINUOUS
 10
2.250256
 20
-3.675382
  0
VERTEX
  8
PLAN_1
  6
CONTINUOUS
 10
2.249776
 20
-3.680638
  0
VERTEX
  8
PLAN_1
  6
CONTINUOUS
 10
2.249299
 20
-3.685894
  0
VERTEX
  8
PLAN_1
  6
CONTINUOUS
 10
2.248343
 20
-3.691150
  0
VERTEX
  8
PLAN_1
  6
CONTINUOUS
 10
2.246909
 20
-3.696406
  0
VERTEX
  8
PLAN_1
  6
CONTINUOUS
 10
2.244996
 20
-3.701665
  0
VERTEX
  8
PLAN_1
  6
CONTINUOUS
 10
2.242610
 20
-3.706441
  0
VERTEX
  8
PLAN_1
  6
CONTINUOUS
 10
2.239740
 20
-3.711220
  0
VERTEX
  8
PLAN_1
  6
CONTINUOUS
 10
2.236874
 20
-3.715524
  0
VERTEX
  8
PLAN_1
  6
CONTINUOUS
 10
2.233051
 20
-3.719346
  0
VERTEX
  8
PLAN_1
  6
CONTINUOUS
 10
2.228752
 20
-3.723169
  0
VERTEX
  8
PLAN_1
  6
CONTINUOUS
 10
2.223972
 20
-3.726512
  0
VERTEX
  8
PLAN_1
  6
CONTINUOUS
 10
2.218236
 20
-3.729382
  0
VERTEX
  8
PLAN_1
  6
CONTINUOUS
 10
2.212504
 20
-3.731772
  0
VERTEX
  8
PLAN_1
  6
CONTINUOUS
 10
2.205811
 20
-3.733205
  0
VERTEX
  8
PLAN_1
  6
CONTINUOUS
 10
2.198646
 20
-3.734157
  0
VERTEX
  8
PLAN_1
  6
CONTINUOUS
 10
2.191000
 20
-3.734638
  0
VERTEX
  8
PLAN_1
  6
CONTINUOUS
 10
2.128398
 20
-3.734638
  0
VERTEX
  8
PLAN_1
  6
CONTINUOUS
 10
2.128398
 20
-3.818744
  0
SEQEND
  8
0
  0
POLYLINE
  8
PLAN_1
  6
CONTINUOUS
 66
     1
 40
0.003000
 41
0.003000
  0
VERTEX
  8
PLAN_1
  6
CONTINUOUS
 10
2.128398
 20
-3.711701
  0
VERTEX
  8
PLAN_1
  6
CONTINUOUS
 10
2.181917
 20
-3.711701
  0
VERTEX
  8
PLAN_1
  6
CONTINUOUS
 10
2.186220
 20
-3.711701
  0
VERTEX
  8
PLAN_1
  6
CONTINUOUS
 10
2.190520
 20
-3.711220
  0
VERTEX
  8
PLAN_1
  6
CONTINUOUS
 10
2.194343
 20
-3.710744
  0
VERTEX
  8
PLAN_1
  6
CONTINUOUS
 10
2.198165
 20
-3.709787
  0
VERTEX
  8
PLAN_1
  6
CONTINUOUS
 10
2.201988
 20
-3.708831
  0
VERTEX
  8
PLAN_1
  6
CONTINUOUS
 10
2.205335
 20
-3.707398
  0
VERTEX
  8
PLAN_1
  6
CONTINUOUS
 10
2.208201
 20
-3.705488
  0
VERTEX
  8
PLAN_1
  6
CONTINUOUS
 10
2.211067
 20
-3.703575
  0
VERTEX
  8
PLAN_1
  6
CONTINUOUS
 10
2.213457
 20
-3.701665
  0
VERTEX
  8
PLAN_1
  6
CONTINUOUS
 10
2.215846
 20
-3.698795
  0
VERTEX
  8
PLAN_1
  6
CONTINUOUS
 10
2.217760
 20
-3.695929
  0
VERTEX
  8
PLAN_1
  6
CONTINUOUS
 10
2.219193
 20
-3.692583
  0
VERTEX
  8
PLAN_1
  6
CONTINUOUS
 10
2.220626
 20
-3.689240
  0
VERTEX
  8
PLAN_1
  6
CONTINUOUS
 10
2.221583
 20
-3.684937
  0
VERTEX
  8
PLAN_1
  6
CONTINUOUS
 10
2.222059
 20
-3.680638
  0
VERTEX
  8
PLAN_1
  6
CONTINUOUS
 10
2.222059
 20
-3.675858
  0
VERTEX
  8
PLAN_1
  6
CONTINUOUS
 10
2.222059
 20
-3.671079
  0
VERTEX
  8
PLAN_1
  6
CONTINUOUS
 10
2.221583
 20
-3.667256
  0
VERTEX
  8
PLAN_1
  6
CONTINUOUS
 10
2.220626
 20
-3.663433
  0
VERTEX
  8
PLAN_1
  6
CONTINUOUS
 10
2.219193
 20
-3.660091
  0
VERTEX
  8
PLAN_1
  6
CONTINUOUS
 10
2.217760
 20
-3.656744
  0
VERTEX
  8
PLAN_1
  6
CONTINUOUS
 10
2.215846
 20
-3.654354
  0
VERTEX
  8
PLAN_1
  6
CONTINUOUS
 10
2.213457
 20
-3.651965
  0
VERTEX
  8
PLAN_1
  6
CONTINUOUS
 10
2.211067
 20
-3.649575
  0
VERTEX
  8
PLAN_1
  6
CONTINUOUS
 10
2.208201
 20
-3.647665
  0
VERTEX
  8
PLAN_1
  6
CONTINUOUS
 10
2.204858
 20
-3.646232
  0
VERTEX
  8
PLAN_1
  6
CONTINUOUS
 10
2.201988
 20
-3.645276
  0
VERTEX
  8
PLAN_1
  6
CONTINUOUS
 10
2.198165
 20
-3.644319
  0
VERTEX
  8
PLAN_1
  6
CONTINUOUS
 10
2.191000
 20
-3.642886
  0
VERTEX
  8
PLAN_1
  6
CONTINUOUS
 10
2.182874
 20
-3.642406
  0
VERTEX
  8
PLAN_1
  6
CONTINUOUS
 10
2.128398
 20
-3.642406
  0
VERTEX
  8
PLAN_1
  6
CONTINUOUS
 10
2.128398
 20
-3.711701
  0
SEQEND
  8
0
  0
POLYLINE
  8
PLAN_1
  6
CONTINUOUS
 66
     1
 40
0.003000
 41
0.003000
  0
VERTEX
  8
PLAN_1
  6
CONTINUOUS
 10
2.404130
 20
-3.677772
  0
VERTEX
  8
PLAN_1
  6
CONTINUOUS
 10
2.403173
 20
-3.672035
  0
VERTEX
  8
PLAN_1
  6
CONTINUOUS
 10
2.402220
 20
-3.667256
  0
VERTEX
  8
PLAN_1
  6
CONTINUOUS
 10
2.400783
 20
-3.662476
  0
VERTEX
  8
PLAN_1
  6
CONTINUOUS
 10
2.398874
 20
-3.658177
  0
VERTEX
  8
PLAN_1
  6
CONTINUOUS
 10
2.396484
 20
-3.654831
  0
VERTEX
  8
PLAN_1
  6
CONTINUOUS
 10
2.393618
 20
-3.651488
  0
VERTEX
  8
PLAN_1
  6
CONTINUOUS
 10
2.390272
 20
-3.648618
  0
VERTEX
  8
PLAN_1
  6
CONTINUOUS
 10
2.386925
 20
-3.645752
  0
VERTEX
  8
PLAN_1
  6
CONTINUOUS
 10
2.383583
 20
-3.643843
  0
VERTEX
  8
PLAN_1
  6
CONTINUOUS
 10
2.379760
 20
-3.641929
  0
VERTEX
  8
PLAN_1
  6
CONTINUOUS
 10
2.375457
 20
-3.640496
  0
VERTEX
  8
PLAN_1
  6
CONTINUOUS
 10
2.371634
 20
-3.639063
  0
VERTEX
  8
PLAN_1
  6
CONTINUOUS
 10
2.367335
 20
-3.638106
  0
VERTEX
  8
PLAN_1
  6
CONTINUOUS
 10
2.363031
 20
-3.637630
  0
VERTEX
  8
PLAN_1
  6
CONTINUOUS
 10
2.358732
 20
-3.637150
  0
VERTEX
  8
PLAN_1
  6
CONTINUOUS
 10
2.354433
 20
-3.637150
  0
VERTEX
  8
PLAN_1
  6
CONTINUOUS
 10
2.347740
 20
-3.637630
  0
VERTEX
  8
PLAN_1
  6
CONTINUOUS
 10
2.340094
 20
-3.638583
  0
VERTEX
  8
PLAN_1
  6
CONTINUOUS
 10
2.336272
 20
-3.639063
  0
VERTEX
  8
PLAN_1
  6
CONTINUOUS
 10
2.332449
 20
-3.640496
  0
VERTEX
  8
PLAN_1
  6
CONTINUOUS
 10
2.329102
 20
-3.641453
  0
VERTEX
  8
PLAN_1
  6
CONTINUOUS
 10
2.325280
 20
-3.643362
  0
VERTEX
  8
PLAN_1
  6
CONTINUOUS
 10
2.321937
 20
-3.645276
  0
VERTEX
  8
PLAN_1
  6
CONTINUOUS
 10
2.319067
 20
-3.647665
  0
VERTEX
  8
PLAN_1
  6
CONTINUOUS
 10
2.316201
 20
-3.650531
  0
VERTEX
  8
PLAN_1
  6
CONTINUOUS
 10
2.313811
 20
-3.653878
  0
VERTEX
  8
PLAN_1
  6
CONTINUOUS
 10
2.311902
 20
-3.657701
  0
VERTEX
  8
PLAN_1
  6
CONTINUOUS
 10
2.310469
 20
-3.662000
  0
VERTEX
  8
PLAN_1
  6
CONTINUOUS
 10
2.309512
 20
-3.666780
  0
VERTEX
  8
PLAN_1
  6
CONTINUOUS
 10
2.309031
 20
-3.672035
  0
VERTEX
  8
PLAN_1
  6
CONTINUOUS
 10
2.309031
 20
-3.675382
  0
VERTEX
  8
PLAN_1
  6
CONTINUOUS
 10
2.309512
 20
-3.677772
  0
VERTEX
  8
PLAN_1
  6
CONTINUOUS
 10
2.309988
 20
-3.680638
  0
VERTEX
  8
PLAN_1
  6
CONTINUOUS
 10
2.310945
 20
-3.683028
  0
VERTEX
  8
PLAN_1
  6
CONTINUOUS
 10
2.311902
 20
-3.684937
  0
VERTEX
  8
PLAN_1
  6
CONTINUOUS
 10
2.313335
 20
-3.686850
  0
VERTEX
  8
PLAN_1
  6
CONTINUOUS
 10
2.314768
 20
-3.688760
  0
VERTEX
  8
PLAN_1
  6
CONTINUOUS
 10
2.316201
 20
-3.690197
  0
VERTEX
  8
PLAN_1
  6
CONTINUOUS
 10
2.320024
 20
-3.692583
  0
VERTEX
  8
PLAN_1
  6
CONTINUOUS
 10
2.323846
 20
-3.694496
  0
VERTEX
  8
PLAN_1
  6
CONTINUOUS
 10
2.328150
 20
-3.696406
  0
VERTEX
  8
PLAN_1
  6
CONTINUOUS
 10
2.332449
 20
-3.697362
  0
VERTEX
  8
PLAN_1
  6
CONTINUOUS
 10
2.389315
 20
-3.710264
  0
VERTEX
  8
PLAN_1
  6
CONTINUOUS
 10
2.394094
 20
-3.711701
  0
VERTEX
  8
PLAN_1
  6
CONTINUOUS
 10
2.398874
 20
-3.713134
  0
VERTEX
  8
PLAN_1
  6
CONTINUOUS
 10
2.403173
 20
-3.715043
  0
VERTEX
  8
PLAN_1
  6
CONTINUOUS
 10
2.407476
 20
-3.716957
  0
VERTEX
  8
PLAN_1
  6
CONTINUOUS
 10
2.411299
 20
-3.719346
  0
VERTEX
  8
PLAN_1
  6
CONTINUOUS
 10
2.415122
 20
-3.721736
  0
VERTEX
  8
PLAN_1
  6
CONTINUOUS
 10
2.418469
 20
-3.724602
  0
VERTEX
  8
PLAN_1
  6
CONTINUOUS
 10
2.421811
 20
-3.727469
  0
VERTEX
  8
PLAN_1
  6
CONTINUOUS
 10
2.424677
 20
-3.730815
  0
VERTEX
  8
PLAN_1
  6
CONTINUOUS
 10
2.427067
 20
-3.734638
  0
VERTEX
  8
PLAN_1
  6
CONTINUOUS
 10
2.429457
 20
-3.738461
  0
VERTEX
  8
PLAN_1
  6
CONTINUOUS
 10
2.431370
 20
-3.742760
  0
VERTEX
  8
PLAN_1
  6
CONTINUOUS
 10
2.432803
 20
-3.747539
  0
VERTEX
  8
PLAN_1
  6
CONTINUOUS
 10
2.433760
 20
-3.752795
  0
VERTEX
  8
PLAN_1
  6
CONTINUOUS
 10
2.434713
 20
-3.758055
  0
VERTEX
  8
PLAN_1
  6
CONTINUOUS
 10
2.434713
 20
-3.763787
  0
VERTEX
  8
PLAN_1
  6
CONTINUOUS
 10
2.434713
 20
-3.768087
  0
VERTEX
  8
PLAN_1
  6
CONTINUOUS
 10
2.434236
 20
-3.772390
  0
VERTEX
  8
PLAN_1
  6
CONTINUOUS
 10
2.433760
 20
-3.776213
  0
VERTEX
  8
PLAN_1
  6
CONTINUOUS
 10
2.432803
 20
-3.780035
  0
VERTEX
  8
PLAN_1
  6
CONTINUOUS
 10
2.431846
 20
-3.783382
  0
VERTEX
  8
PLAN_1
  6
CONTINUOUS
 10
2.430413
 20
-3.786724
  0
VERTEX
  8
PLAN_1
  6
CONTINUOUS
 10
2.428980
 20
-3.790071
  0
VERTEX
  8
PLAN_1
  6
CONTINUOUS
 10
2.427547
 20
-3.792937
  0
VERTEX
  8
PLAN_1
  6
CONTINUOUS
 10
2.423724
 20
-3.798673
  0
VERTEX
  8
PLAN_1
  6
CONTINUOUS
 10
2.418945
 20
-3.803453
  0
VERTEX
  8
PLAN_1
  6
CONTINUOUS
 10
2.414165
 20
-3.807752
  0
VERTEX
  8
PLAN_1
  6
CONTINUOUS
 10
2.408433
 20
-3.811575
  0
VERTEX
  8
PLAN_1
  6
CONTINUOUS
 10
2.402697
 20
-3.814921
  0
VERTEX
  8
PLAN_1
  6
CONTINUOUS
 10
2.396484
 20
-3.817311
  0
VERTEX
  8
PLAN_1
  6
CONTINUOUS
 10
2.389795
 20
-3.819701
  0
VERTEX
  8
PLAN_1
  6
CONTINUOUS
 10
2.383102
 20
-3.821134
  0
VERTEX
  8
PLAN_1
  6
CONTINUOUS
 10
2.376413
 20
-3.822567
  0
VERTEX
  8
PLAN_1
  6
CONTINUOUS
 10
2.369724
 20
-3.823524
  0
VERTEX
  8
PLAN_1
  6
CONTINUOUS
 10
2.363031
 20
-3.824000
  0
VERTEX
  8
PLAN_1
  6
CONTINUOUS
 10
2.356819
 20
-3.824000
  0
VERTEX
  8
PLAN_1
  6
CONTINUOUS
 10
2.350130
 20
-3.824000
  0
VERTEX
  8
PLAN_1
  6
CONTINUOUS
 10
2.343917
 20
-3.823524
  0
VERTEX
  8
PLAN_1
  6
CONTINUOUS
 10
2.338185
 20
-3.823043
  0
VERTEX
  8
PLAN_1
  6
CONTINUOUS
 10
2.332925
 20
-3.822087
  0
VERTEX
  8
PLAN_1
  6
CONTINUOUS
 10
2.323846
 20
-3.820177
  0
VERTEX
  8
PLAN_1
  6
CONTINUOUS
 10
2.316201
 20
-3.817311
  0
VERTEX
  8
PLAN_1
  6
CONTINUOUS
 10
2.309512
 20
-3.814441
  0
VERTEX
  8
PLAN_1
  6
CONTINUOUS
 10
2.304256
 20
-3.811098
  0
VERTEX
  8
PLAN_1
  6
CONTINUOUS
 10
2.299953
 20
-3.807752
  0
VERTEX
  8
PLAN_1
  6
CONTINUOUS
 10
2.296610
 20
-3.804886
  0
VERTEX
  8
PLAN_1
  6
CONTINUOUS
 10
2.293264
 20
-3.802016
  0
VERTEX
  8
PLAN_1
  6
CONTINUOUS
 10
2.290874
 20
-3.799150
  0
VERTEX
  8
PLAN_1
  6
CONTINUOUS
 10
2.288484
 20
-3.796283
  0
VERTEX
  8
PLAN_1
  6
CONTINUOUS
 10
2.286094
 20
-3.792937
  0
VERTEX
  8
PLAN_1
  6
CONTINUOUS
 10
2.282752
 20
-3.787205
  0
VERTEX
  8
PLAN_1
  6
CONTINUOUS
 10
2.279882
 20
-3.780992
  0
VERTEX
  8
PLAN_1
  6
CONTINUOUS
 10
2.277972
 20
-3.774299
  0
VERTEX
  8
PLAN_1
  6
CONTINUOUS
 10
2.277016
 20
-3.768087
  0
VERTEX
  8
PLAN_1
  6
CONTINUOUS
 10
2.276539
 20
-3.761398
  0
VERTEX
  8
PLAN_1
  6
CONTINUOUS
 10
2.276059
 20
-3.754228
  0
VERTEX
  8
PLAN_1
  6
CONTINUOUS
 10
2.301386
 20
-3.754228
  0
VERTEX
  8
PLAN_1
  6
CONTINUOUS
 10
2.301866
 20
-3.760921
  0
VERTEX
  8
PLAN_1
  6
CONTINUOUS
 10
2.302819
 20
-3.766654
  0
VERTEX
  8
PLAN_1
  6
CONTINUOUS
 10
2.304256
 20
-3.771913
  0
VERTEX
  8
PLAN_1
  6
CONTINUOUS
 10
2.306646
 20
-3.776689
  0
VERTEX
  8
PLAN_1
  6
CONTINUOUS
 10
2.309031
 20
-3.780992
  0
VERTEX
  8
PLAN_1
  6
CONTINUOUS
 10
2.311902
 20
-3.784815
  0
VERTEX
  8
PLAN_1
  6
CONTINUOUS
 10
2.315724
 20
-3.788157
  0
VERTEX
  8
PLAN_1
  6
CONTINUOUS
 10
2.319547
 20
-3.791028
  0
VERTEX
  8
PLAN_1
  6
CONTINUOUS
 10
2.323370
 20
-3.793417
  0
VERTEX
  8
PLAN_1
  6
CONTINUOUS
 10
2.327669
 20
-3.795807
  0
VERTEX
  8
PLAN_1
  6
CONTINUOUS
 10
2.332449
 20
-3.797240
  0
VERTEX
  8
PLAN_1
  6
CONTINUOUS
 10
2.337228
 20
-3.798673
  0
VERTEX
  8
PLAN_1
  6
CONTINUOUS
 10
2.342008
 20
-3.799630
  0
VERTEX
  8
PLAN_1
  6
CONTINUOUS
 10
2.346783
 20
-3.800583
  0
VERTEX
  8
PLAN_1
  6
CONTINUOUS
 10
2.351563
 20
-3.801063
  0
VERTEX
  8
PLAN_1
  6
CONTINUOUS
 10
2.356343
 20
-3.801063
  0
VERTEX
  8
PLAN_1
  6
CONTINUOUS
 10
2.364469
 20
-3.800583
  0
VERTEX
  8
PLAN_1
  6
CONTINUOUS
 10
2.372591
 20
-3.799630
  0
VERTEX
  8
PLAN_1
  6
CONTINUOUS
 10
2.377370
 20
-3.799150
  0
VERTEX
  8
PLAN_1
  6
CONTINUOUS
 10
2.381669
 20
-3.797717
  0
VERTEX
  8
PLAN_1
  6
CONTINUOUS
 10
2.385492
 20
-3.796760
  0
VERTEX
  8
PLAN_1
  6
CONTINUOUS
 10
2.389795
 20
-3.794850
  0
VERTEX
  8
PLAN_1
  6
CONTINUOUS
 10
2.393618
 20
-3.792937
  0
VERTEX
  8
PLAN_1
  6
CONTINUOUS
 10
2.397441
 20
-3.790547
  0
VERTEX
  8
PLAN_1
  6
CONTINUOUS
 10
2.400307
 20
-3.787681
  0
VERTEX
  8
PLAN_1
  6
CONTINUOUS
 10
2.403173
 20
-3.784815
  0
VERTEX
  8
PLAN_1
  6
CONTINUOUS
 10
2.405563
 20
-3.780992
  0
VERTEX
  8
PLAN_1
  6
CONTINUOUS
 10
2.406996
 20
-3.777169
  0
VERTEX
  8
PLAN_1
  6
CONTINUOUS
 10
2.408433
 20
-3.772390
  0
VERTEX
  8
PLAN_1
  6
CONTINUOUS
 10
2.408433
 20
-3.767134
  0
VERTEX
  8
PLAN_1
  6
CONTINUOUS
 10
2.408433
 20
-3.763787
  0
VERTEX
  8
PLAN_1
  6
CONTINUOUS
 10
2.407953
 20
-3.759965
  0
VERTEX
  8
PLAN_1
  6
CONTINUOUS
 10
2.407476
 20
-3.757098
  0
VERTEX
  8
PLAN_1
  6
CONTINUOUS
 10
2.406520
 20
-3.754228
  0
VERTEX
  8
PLAN_1
  6
CONTINUOUS
 10
2.405563
 20
-3.751362
  0
VERTEX
  8
PLAN_1
  6
CONTINUOUS
 10
2.403654
 20
-3.748972
  0
VERTEX
  8
PLAN_1
  6
CONTINUOUS
 10
2.401740
 20
-3.747063
  0
VERTEX
  8
PLAN_1
  6
CONTINUOUS
 10
2.399831
 20
-3.744673
  0
VERTEX
  8
PLAN_1
  6
CONTINUOUS
 10
2.396961
 20
-3.742760
  0
VERTEX
  8
PLAN_1
  6
CONTINUOUS
 10
2.394094
 20
-3.741327
  0
VERTEX
  8
PLAN_1
  6
CONTINUOUS
 10
2.390272
 20
-3.739417
  0
VERTEX
  8
PLAN_1
  6
CONTINUOUS
 10
2.386449
 20
-3.737984
  0
VERTEX
  8
PLAN_1
  6
CONTINUOUS
 10
2.377370
 20
-3.735114
  0
VERTEX
  8
PLAN_1
  6
CONTINUOUS
 10
2.366378
 20
-3.732248
  0
VERTEX
  8
PLAN_1
  6
CONTINUOUS
 10
2.325280
 20
-3.722689
  0
VERTEX
  8
PLAN_1
  6
CONTINUOUS
 10
2.319547
 20
-3.721256
  0
VERTEX
  8
PLAN_1
  6
CONTINUOUS
 10
2.313335
 20
-3.718866
  0
VERTEX
  8
PLAN_1
  6
CONTINUOUS
 10
2.309512
 20
-3.717433
  0
VERTEX
  8
PLAN_1
  6
CONTINUOUS
 10
2.306165
 20
-3.715524
  0
VERTEX
  8
PLAN_1
  6
CONTINUOUS
 10
2.302819
 20
-3.713610
  0
VERTEX
  8
PLAN_1
  6
CONTINUOUS
 10
2.298996
 20
-3.711220
  0
VERTEX
  8
PLAN_1
  6
CONTINUOUS
 10
2.296130
 20
-3.708354
  0
VERTEX
  8
PLAN_1
  6
CONTINUOUS
 10
2.292787
 20
-3.705008
  0
VERTEX
  8
PLAN_1
  6
CONTINUOUS
 10
2.289917
 20
-3.701185
  0
VERTEX
  8
PLAN_1
  6
CONTINUOUS
 10
2.287528
 20
-3.697362
  0
VERTEX
  8
PLAN_1
  6
CONTINUOUS
 10
2.285618
 20
-3.692583
  0
VERTEX
  8
PLAN_1
  6
CONTINUOUS
 10
2.284185
 20
-3.687807
  0
VERTEX
  8
PLAN_1
  6
CONTINUOUS
 10
2.283228
 20
-3.682071
  0
VERTEX
  8
PLAN_1
  6
CONTINUOUS
 10
2.282752
 20
-3.675858
  0
VERTEX
  8
PLAN_1
  6
CONTINUOUS
 10
2.283228
 20
-3.670126
  0
VERTEX
  8
PLAN_1
  6
CONTINUOUS
 10
2.283705
 20
-3.664390
  0
VERTEX
  8
PLAN_1
  6
CONTINUOUS
 10
2.285138
 20
-3.658654
  0
VERTEX
  8
PLAN_1
  6
CONTINUOUS
 10
2.286575
 20
-3.652921
  0
VERTEX
  8
PLAN_1
  6
CONTINUOUS
 10
2.288961
 20
-3.647665
  0
VERTEX
  8
PLAN_1
  6
CONTINUOUS
 10
2.291831
 20
-3.642406
  0
VERTEX
  8
PLAN_1
  6
CONTINUOUS
 10
2.295173
 20
-3.637630
  0
VERTEX
  8
PLAN_1
  6
CONTINUOUS
 10
2.298996
 20
-3.633327
  0
VERTEX
  8
PLAN_1
  6
CONTINUOUS
 10
2.303299
 20
-3.629028
  0
VERTEX
  8
PLAN_1
  6
CONTINUOUS
 10
2.308555
 20
-3.625681
  0
VERTEX
  8
PLAN_1
  6
CONTINUOUS
 10
2.314291
 20
-3.622339
  0
VERTEX
  8
PLAN_1
  6
CONTINUOUS
 10
2.320504
 20
-3.619469
  0
VERTEX
  8
PLAN_1
  6
CONTINUOUS
 10
2.327193
 20
-3.617079
  0
VERTEX
  8
PLAN_1
  6
CONTINUOUS
 10
2.334839
 20
-3.615646
  0
VERTEX
  8
PLAN_1
  6
CONTINUOUS
 10
2.342484
 20
-3.614689
  0
VERTEX
  8
PLAN_1
  6
CONTINUOUS
 10
2.351563
 20
-3.614213
  0
VERTEX
  8
PLAN_1
  6
CONTINUOUS
 10
2.357776
 20
-3.614213
  0
VERTEX
  8
PLAN_1
  6
CONTINUOUS
 10
2.363988
 20
-3.614689
  0
VERTEX
  8
PLAN_1
  6
CONTINUOUS
 10
2.369244
 20
-3.615169
  0
VERTEX
  8
PLAN_1
  6
CONTINUOUS
 10
2.374504
 20
-3.616126
  0
VERTEX
  8
PLAN_1
  6
CONTINUOUS
 10
2.379760
 20
-3.617079
  0
VERTEX
  8
PLAN_1
  6
CONTINUOUS
 10
2.384539
 20
-3.618035
  0
VERTEX
  8
PLAN_1
  6
CONTINUOUS
 10
2.388839
 20
-3.619469
  0
VERTEX
  8
PLAN_1
  6
CONTINUOUS
 10
2.392661
 20
-3.620902
  0
VERTEX
  8
PLAN_1
  6
CONTINUOUS
 10
2.396484
 20
-3.622815
  0
VERTEX
  8
PLAN_1
  6
CONTINUOUS
 10
2.400307
 20
-3.624724
  0
VERTEX
  8
PLAN_1
  6
CONTINUOUS
 10
2.403173
 20
-3.626638
  0
VERTEX
  8
PLAN_1
  6
CONTINUOUS
 10
2.406520
 20
-3.628547
  0
VERTEX
  8
PLAN_1
  6
CONTINUOUS
 10
2.411776
 20
-3.632850
  0
VERTEX
  8
PLAN_1
  6
CONTINUOUS
 10
2.416079
 20
-3.637630
  0
VERTEX
  8
PLAN_1
  6
CONTINUOUS
 10
2.419421
 20
-3.642886
  0
VERTEX
  8
PLAN_1
  6
CONTINUOUS
 10
2.422291
 20
-3.648142
  0
VERTEX
  8
PLAN_1
  6
CONTINUOUS
 10
2.424677
 20
-3.653398
  0
VERTEX
  8
PLAN_1
  6
CONTINUOUS
 10
2.426114
 20
-3.658654
  0
VERTEX
  8
PLAN_1
  6
CONTINUOUS
 10
2.427547
 20
-3.663913
  0
VERTEX
  8
PLAN_1
  6
CONTINUOUS
 10
2.428500
 20
-3.668689
  0
VERTEX
  8
PLAN_1
  6
CONTINUOUS
 10
2.428980
 20
-3.673469
  0
VERTEX
  8
PLAN_1
  6
CONTINUOUS
 10
2.428980
 20
-3.677772
  0
VERTEX
  8
PLAN_1
  6
CONTINUOUS
 10
2.404130
 20
-3.677772
  0
SEQEND
  8
0
  0
POLYLINE
  8
PLAN_1
  6
CONTINUOUS
 66
     1
 40
0.008122
 41
0.008122
  0
VERTEX
  8
PLAN_1
  6
CONTINUOUS
 10
-1.053772
 20
2.942709
  0
VERTEX
  8
PLAN_1
  6
CONTINUOUS
 10
-1.019843
 20
2.942709
  0
VERTEX
  8
PLAN_1
  6
CONTINUOUS
 10
-1.019843
 20
3.403858
  0
VERTEX
  8
PLAN_1
  6
CONTINUOUS
 10
-1.054252
 20
3.403858
  0
SEQEND
  8
0
  0
POLYLINE
  8
PLAN_1
  6
CONTINUOUS
 66
     1
 40
0.008122
 41
0.008122
  0
VERTEX
  8
PLAN_1
  6
CONTINUOUS
 10
-1.053772
 20
0.719634
  0
VERTEX
  8
PLAN_1
  6
CONTINUOUS
 10
-1.019843
 20
0.719634
  0
VERTEX
  8
PLAN_1
  6
CONTINUOUS
 10
-1.019843
 20
1.051760
  0
VERTEX
  8
PLAN_1
  6
CONTINUOUS
 10
-1.053772
 20
1.051760
  0
SEQEND
  8
0
  0
POLYLINE
  8
PLAN_1
  6
CONTINUOUS
 66
     1
 40
0.008122
 41
0.008122
  0
VERTEX
  8
PLAN_1
  6
CONTINUOUS
 10
-2.326354
 20
3.038764
  0
VERTEX
  8
PLAN_1
  6
CONTINUOUS
 10
-2.437701
 20
3.038764
  0
VERTEX
  8
PLAN_1
  6
CONTINUOUS
 10
-2.437701
 20
0.231724
  0
VERTEX
  8
PLAN_1
  6
CONTINUOUS
 10
-1.054252
 20
0.231724
  0
SEQEND
  8
0
  0
POLYLINE
  8
PLAN_1
  6
CONTINUOUS
 66
     1
 40
0.008122
 41
0.008122
  0
VERTEX
  8
PLAN_1
  6
CONTINUOUS
 10
-1.054252
 20
0.231724
  0
VERTEX
  8
PLAN_1
  6
CONTINUOUS
 10
-1.054252
 20
0.357886
  0
VERTEX
  8
PLAN_1
  6
CONTINUOUS
 10
-1.054252
 20
0.712469
  0
VERTEX
  8
PLAN_1
  6
CONTINUOUS
 10
-1.054252
 20
1.219972
  0
VERTEX
  8
PLAN_1
  6
CONTINUOUS
 10
-1.054252
 20
1.803933
  0
VERTEX
  8
PLAN_1
  6
CONTINUOUS
 10
-1.054252
 20
2.389807
  0
VERTEX
  8
PLAN_1
  6
CONTINUOUS
 10
-1.054252
 20
2.901614
  0
VERTEX
  8
PLAN_1
  6
CONTINUOUS
 10
-1.054252
 20
3.263843
  0
VERTEX
  8
PLAN_1
  6
CONTINUOUS
 10
-1.054252
 20
3.401469
  0
SEQEND
  8
0
  0
POLYLINE
  8
PLAN_1
  6
CONTINUOUS
 66
     1
 40
0.008122
 41
0.008122
  0
VERTEX
  8
PLAN_1
  6
CONTINUOUS
 10
-1.054252
 20
3.401469
  0
VERTEX
  8
PLAN_1
  6
CONTINUOUS
 10
-2.326354
 20
3.401469
  0
VERTEX
  8
PLAN_1
  6
CONTINUOUS
 10
-2.326354
 20
3.038764
  0
SEQEND
  8
0
  0
POLYLINE
  8
PLAN_1
  6
CONTINUOUS
 66
     1
 40
0.008122
 41
0.008122
  0
VERTEX
  8
PLAN_1
  6
CONTINUOUS
 10
-2.289079
 20
1.035988
  0
VERTEX
  8
PLAN_1
  6
CONTINUOUS
 10
-2.414283
 20
1.035988
  0
VERTEX
  8
PLAN_1
  6
CONTINUOUS
 10
-2.414283
 20
0.711512
  0
VERTEX
  8
PLAN_1
  6
CONTINUOUS
 10
-2.289079
 20
0.711512
  0
SEQEND
  8
0
  0
POLYLINE
  8
PLAN_1
  6
CONTINUOUS
 66
     1
 40
0.008122
 41
0.008122
  0
VERTEX
  8
PLAN_1
  6
CONTINUOUS
 10
-2.414283
 20
0.743051
  0
VERTEX
  8
PLAN_1
  6
CONTINUOUS
 10
-2.348335
 20
0.743051
  0
VERTEX
  8
PLAN_1
  6
CONTINUOUS
 10
-2.348335
 20
0.769811
  0
VERTEX
  8
PLAN_1
  6
CONTINUOUS
 10
-2.414283
 20
0.769811
  0
SEQEND
  8
0
  0
POLYLINE
  8
PLAN_1
  6
CONTINUOUS
 66
     1
 40
0.008122
 41
0.008122
  0
VERTEX
  8
PLAN_1
  6
CONTINUOUS
 10
-2.437701
 20
0.687142
  0
VERTEX
  8
PLAN_1
  6
CONTINUOUS
 10
-2.288602
 20
0.687142
  0
VERTEX
  8
PLAN_1
  6
CONTINUOUS
 10
-2.288602
 20
1.062748
  0
VERTEX
  8
PLAN_1
  6
CONTINUOUS
 10
-2.437701
 20
1.062748
  0
SEQEND
  8
0
  0
POLYLINE
  8
PLAN_1
  6
CONTINUOUS
 66
     1
 40
0.008122
 41
0.008122
  0
VERTEX
  8
PLAN_1
  6
CONTINUOUS
 10
-1.054252
 20
3.619382
  0
VERTEX
  8
PLAN_1
  6
CONTINUOUS
 10
-1.359134
 20
3.619382
  0
VERTEX
  8
PLAN_1
  6
CONTINUOUS
 10
-1.359134
 20
3.427276
  0
VERTEX
  8
PLAN_1
  6
CONTINUOUS
 10
-2.021469
 20
3.427276
  0
VERTEX
  8
PLAN_1
  6
CONTINUOUS
 10
-2.021469
 20
3.619382
  0
VERTEX
  8
PLAN_1
  6
CONTINUOUS
 10
-2.326354
 20
3.619382
  0
VERTEX
  8
PLAN_1
  6
CONTINUOUS
 10
-2.326354
 20
3.402425
  0
VERTEX
  8
PLAN_1
  6
CONTINUOUS
 10
-1.054728
 20
3.402425
  0
VERTEX
  8
PLAN_1
  6
CONTINUOUS
 10
-1.054252
 20
3.619382
  0
SEQEND
  8
0
  0
POLYLINE
  8
PLAN_1
  6
CONTINUOUS
 66
     1
 40
0.008122
 41
0.008122
  0
VERTEX
  8
PLAN_1
  6
CONTINUOUS
 10
-1.631047
 20
0.914130
  0
VERTEX
  8
PLAN_1
  6
CONTINUOUS
 10
-1.671665
 20
0.914130
  0
VERTEX
  8
PLAN_1
  6
CONTINUOUS
 10
-1.671665
 20
3.038764
  0
SEQEND
  8
0
  0
POLYLINE
  8
PLAN_1
  6
CONTINUOUS
 66
     1
 40
0.008122
 41
0.008122
  0
VERTEX
  8
PLAN_1
  6
CONTINUOUS
 10
-1.630567
 20
0.232681
  0
VERTEX
  8
PLAN_1
  6
CONTINUOUS
 10
-1.630567
 20
3.038764
  0
VERTEX
  8
PLAN_1
  6
CONTINUOUS
 10
-2.326354
 20
3.038764
  0
SEQEND
  8
0
  0
POLYLINE
  8
PLAN_1
  6
CONTINUOUS
 66
     1
 40
0.008122
 41
0.008122
  0
VERTEX
  8
PLAN_1
  6
CONTINUOUS
 10
-1.942142
 20
3.038764
  0
VERTEX
  8
PLAN_1
  6
CONTINUOUS
 10
-1.942142
 20
3.403858
  0
SEQEND
  8
0
  0
POLYLINE
  8
PLAN_1
 62
     2
  6
CONTINUOUS
 66
     1
 40
0.003000
 41
0.003000
  0
VERTEX
  8
PLAN_1
 62
     2
  6
CONTINUOUS
 10
-0.830126
 20
0.012858
  0
VERTEX
  8
PLAN_1
 62
     2
  6
CONTINUOUS
 10
-0.839685
 20
0.012858
  0
VERTEX
  8
PLAN_1
 62
     2
  6
CONTINUOUS
 10
-0.839685
 20
0.064945
  0
VERTEX
  8
PLAN_1
 62
     2
  6
CONTINUOUS
 10
-0.856890
 20
0.064945
  0
VERTEX
  8
PLAN_1
 62
     2
  6
CONTINUOUS
 10
-0.856890
 20
0.072114
  0
VERTEX
  8
PLAN_1
 62
     2
  6
CONTINUOUS
 10
-0.853067
 20
0.072594
  0
VERTEX
  8
PLAN_1
 62
     2
  6
CONTINUOUS
 10
-0.849244
 20
0.073071
  0
VERTEX
  8
PLAN_1
 62
     2
  6
CONTINUOUS
 10
-0.846374
 20
0.074028
  0
VERTEX
  8
PLAN_1
 62
     2
  6
CONTINUOUS
 10
-0.843984
 20
0.074980
  0
VERTEX
  8
PLAN_1
 62
     2
  6
CONTINUOUS
 10
-0.841598
 20
0.076894
  0
VERTEX
  8
PLAN_1
 62
     2
  6
CONTINUOUS
 10
-0.840161
 20
0.079283
  0
VERTEX
  8
PLAN_1
 62
     2
  6
CONTINUOUS
 10
-0.838728
 20
0.082150
  0
VERTEX
  8
PLAN_1
 62
     2
  6
CONTINUOUS
 10
-0.837295
 20
0.085972
  0
VERTEX
  8
PLAN_1
 62
     2
  6
CONTINUOUS
 10
-0.830126
 20
0.085972
  0
VERTEX
  8
PLAN_1
 62
     2
  6
CONTINUOUS
 10
-0.830126
 20
0.012858
  0
SEQEND
  8
0
  0
POLYLINE
  8
PLAN_1
 62
     2
  6
CONTINUOUS
 66
     1
 40
0.003000
 41
0.003000
  0
VERTEX
  8
PLAN_1
 62
     2
  6
CONTINUOUS
 10
-0.762748
 20
0.059689
  0
VERTEX
  8
PLAN_1
 62
     2
  6
CONTINUOUS
 10
-0.762748
 20
0.024327
  0
VERTEX
  8
PLAN_1
 62
     2
  6
CONTINUOUS
 10
-0.762268
 20
0.022894
  0
VERTEX
  8
PLAN_1
 62
     2
  6
CONTINUOUS
 10
-0.762268
 20
0.021937
  0
VERTEX
  8
PLAN_1
 62
     2
  6
CONTINUOUS
 10
-0.761315
 20
0.021461
  0
VERTEX
  8
PLAN_1
 62
     2
  6
CONTINUOUS
 10
-0.760358
 20
0.020980
  0
VERTEX
  8
PLAN_1
 62
     2
  6
CONTINUOUS
 10
-0.759882
 20
0.020504
  0
VERTEX
  8
PLAN_1
 62
     2
  6
CONTINUOUS
 10
-0.758925
 20
0.020504
  0
VERTEX
  8
PLAN_1
 62
     2
  6
CONTINUOUS
 10
-0.757969
 20
0.020028
  0
VERTEX
  8
PLAN_1
 62
     2
  6
CONTINUOUS
 10
-0.757012
 20
0.020028
  0
VERTEX
  8
PLAN_1
 62
     2
  6
CONTINUOUS
 10
-0.753669
 20
0.020028
  0
VERTEX
  8
PLAN_1
 62
     2
  6
CONTINUOUS
 10
-0.753669
 20
0.012858
  0
VERTEX
  8
PLAN_1
 62
     2
  6
CONTINUOUS
 10
-0.755102
 20
0.012858
  0
VERTEX
  8
PLAN_1
 62
     2
  6
CONTINUOUS
 10
-0.756055
 20
0.012858
  0
VERTEX
  8
PLAN_1
 62
     2
  6
CONTINUOUS
 10
-0.757492
 20
0.012858
  0
VERTEX
  8
PLAN_1
 62
     2
  6
CONTINUOUS
 10
-0.758445
 20
0.012382
  0
VERTEX
  8
PLAN_1
 62
     2
  6
CONTINUOUS
 10
-0.758925
 20
0.012382
  0
VERTEX
  8
PLAN_1
 62
     2
  6
CONTINUOUS
 10
-0.759882
 20
0.012382
  0
VERTEX
  8
PLAN_1
 62
     2
  6
CONTINUOUS
 10
-0.760358
 20
0.012382
  0
VERTEX
  8
PLAN_1
 62
     2
  6
CONTINUOUS
 10
-0.760835
 20
0.012382
  0
VERTEX
  8
PLAN_1
 62
     2
  6
CONTINUOUS
 10
-0.763705
 20
0.012382
  0
VERTEX
  8
PLAN_1
 62
     2
  6
CONTINUOUS
 10
-0.766091
 20
0.013335
  0
VERTEX
  8
PLAN_1
 62
     2
  6
CONTINUOUS
 10
-0.768004
 20
0.014291
  0
VERTEX
  8
PLAN_1
 62
     2
  6
CONTINUOUS
 10
-0.769917
 20
0.015724
  0
VERTEX
  8
PLAN_1
 62
     2
  6
CONTINUOUS
 10
-0.770870
 20
0.017638
  0
VERTEX
  8
PLAN_1
 62
     2
  6
CONTINUOUS
 10
-0.771350
 20
0.019547
  0
VERTEX
  8
PLAN_1
 62
     2
  6
CONTINUOUS
 10
-0.771827
 20
0.021461
  0
VERTEX
  8
PLAN_1
 62
     2
  6
CONTINUOUS
 10
-0.771827
 20
0.023850
  0
VERTEX
  8
PLAN_1
 62
     2
  6
CONTINUOUS
 10
-0.771827
 20
0.059689
  0
VERTEX
  8
PLAN_1
 62
     2
  6
CONTINUOUS
 10
-0.778996
 20
0.059689
  0
VERTEX
  8
PLAN_1
 62
     2
  6
CONTINUOUS
 10
-0.778996
 20
0.067335
  0
VERTEX
  8
PLAN_1
 62
     2
  6
CONTINUOUS
 10
-0.771827
 20
0.067335
  0
VERTEX
  8
PLAN_1
 62
     2
  6
CONTINUOUS
 10
-0.771827
 20
0.082630
  0
VERTEX
  8
PLAN_1
 62
     2
  6
CONTINUOUS
 10
-0.762748
 20
0.082630
  0
VERTEX
  8
PLAN_1
 62
     2
  6
CONTINUOUS
 10
-0.762748
 20
0.067335
  0
VERTEX
  8
PLAN_1
 62
     2
  6
CONTINUOUS
 10
-0.753669
 20
0.067335
  0
VERTEX
  8
PLAN_1
 62
     2
  6
CONTINUOUS
 10
-0.753669
 20
0.059689
  0
VERTEX
  8
PLAN_1
 62
     2
  6
CONTINUOUS
 10
-0.762748
 20
0.059689
  0
SEQEND
  8
0
  0
POLYLINE
  8
PLAN_1
 62
     2
  6
CONTINUOUS
 66
     1
 40
0.003000
 41
0.003000
  0
VERTEX
  8
PLAN_1
 62
     2
  6
CONTINUOUS
 10
-0.734551
 20
0.012858
  0
VERTEX
  8
PLAN_1
 62
     2
  6
CONTINUOUS
 10
-0.743634
 20
0.012858
  0
VERTEX
  8
PLAN_1
 62
     2
  6
CONTINUOUS
 10
-0.743634
 20
0.067335
  0
VERTEX
  8
PLAN_1
 62
     2
  6
CONTINUOUS
 10
-0.735031
 20
0.067335
  0
VERTEX
  8
PLAN_1
 62
     2
  6
CONTINUOUS
 10
-0.735031
 20
0.058256
  0
VERTEX
  8
PLAN_1
 62
     2
  6
CONTINUOUS
 10
-0.733598
 20
0.060646
  0
VERTEX
  8
PLAN_1
 62
     2
  6
CONTINUOUS
 10
-0.731685
 20
0.062559
  0
VERTEX
  8
PLAN_1
 62
     2
  6
CONTINUOUS
 10
-0.730252
 20
0.064469
  0
VERTEX
  8
PLAN_1
 62
     2
  6
CONTINUOUS
 10
-0.728339
 20
0.065902
  0
VERTEX
  8
PLAN_1
 62
     2
  6
CONTINUOUS
 10
-0.726429
 20
0.067335
  0
VERTEX
  8
PLAN_1
 62
     2
  6
CONTINUOUS
 10
-0.724516
 20
0.068291
  0
VERTEX
  8
PLAN_1
 62
     2
  6
CONTINUOUS
 10
-0.722126
 20
0.068772
  0
VERTEX
  8
PLAN_1
 62
     2
  6
CONTINUOUS
 10
-0.719740
 20
0.069248
  0
VERTEX
  8
PLAN_1
 62
     2
  6
CONTINUOUS
 10
-0.719260
 20
0.069248
  0
VERTEX
  8
PLAN_1
 62
     2
  6
CONTINUOUS
 10
-0.718783
 20
0.068772
  0
VERTEX
  8
PLAN_1
 62
     2
  6
CONTINUOUS
 10
-0.718303
 20
0.068772
  0
VERTEX
  8
PLAN_1
 62
     2
  6
CONTINUOUS
 10
-0.717827
 20
0.068772
  0
VERTEX
  8
PLAN_1
 62
     2
  6
CONTINUOUS
 10
-0.717350
 20
0.068772
  0
VERTEX
  8
PLAN_1
 62
     2
  6
CONTINUOUS
 10
-0.717350
 20
0.059213
  0
VERTEX
  8
PLAN_1
 62
     2
  6
CONTINUOUS
 10
-0.720693
 20
0.059213
  0
VERTEX
  8
PLAN_1
 62
     2
  6
CONTINUOUS
 10
-0.723563
 20
0.058736
  0
VERTEX
  8
PLAN_1
 62
     2
  6
CONTINUOUS
 10
-0.726429
 20
0.058256
  0
VERTEX
  8
PLAN_1
 62
     2
  6
CONTINUOUS
 10
-0.728819
 20
0.056823
  0
VERTEX
  8
PLAN_1
 62
     2
  6
CONTINUOUS
 10
-0.730728
 20
0.054909
  0
VERTEX
  8
PLAN_1
 62
     2
  6
CONTINUOUS
 10
-0.732161
 20
0.052524
  0
VERTEX
  8
PLAN_1
 62
     2
  6
CONTINUOUS
 10
-0.733598
 20
0.050134
  0
VERTEX
  8
PLAN_1
 62
     2
  6
CONTINUOUS
 10
-0.734075
 20
0.047744
  0
VERTEX
  8
PLAN_1
 62
     2
  6
CONTINUOUS
 10
-0.734551
 20
0.044878
  0
VERTEX
  8
PLAN_1
 62
     2
  6
CONTINUOUS
 10
-0.734551
 20
0.012858
  0
SEQEND
  8
0
  0
POLYLINE
  8
PLAN_1
 62
     2
  6
CONTINUOUS
 66
     1
 40
0.003000
 41
0.003000
  0
VERTEX
  8
PLAN_1
 62
     2
  6
CONTINUOUS
 10
-0.688197
 20
0.069248
  0
VERTEX
  8
PLAN_1
 62
     2
  6
CONTINUOUS
 10
-0.684854
 20
0.068772
  0
VERTEX
  8
PLAN_1
 62
     2
  6
CONTINUOUS
 10
-0.681988
 20
0.068291
  0
VERTEX
  8
PLAN_1
 62
     2
  6
CONTINUOUS
 10
-0.679118
 20
0.067335
  0
VERTEX
  8
PLAN_1
 62
     2
  6
CONTINUOUS
 10
-0.676728
 20
0.066382
  0
VERTEX
  8
PLAN_1
 62
     2
  6
CONTINUOUS
 10
-0.674339
 20
0.064945
  0
VERTEX
  8
PLAN_1
 62
     2
  6
CONTINUOUS
 10
-0.672429
 20
0.063512
  0
VERTEX
  8
PLAN_1
 62
     2
  6
CONTINUOUS
 10
-0.670516
 20
0.062079
  0
VERTEX
  8
PLAN_1
 62
     2
  6
CONTINUOUS
 10
-0.669083
 20
0.059689
  0
VERTEX
  8
PLAN_1
 62
     2
  6
CONTINUOUS
 10
-0.666217
 20
0.055390
  0
VERTEX
  8
PLAN_1
 62
     2
  6
CONTINUOUS
 10
-0.664303
 20
0.050610
  0
VERTEX
  8
PLAN_1
 62
     2
  6
CONTINUOUS
 10
-0.663350
 20
0.045354
  0
VERTEX
  8
PLAN_1
 62
     2
  6
CONTINUOUS
 10
-0.662870
 20
0.040098
  0
VERTEX
  8
PLAN_1
 62
     2
  6
CONTINUOUS
 10
-0.663350
 20
0.034843
  0
VERTEX
  8
PLAN_1
 62
     2
  6
CONTINUOUS
 10
-0.664303
 20
0.030063
  0
VERTEX
  8
PLAN_1
 62
     2
  6
CONTINUOUS
 10
-0.666217
 20
0.024807
  0
VERTEX
  8
PLAN_1
 62
     2
  6
CONTINUOUS
 10
-0.669083
 20
0.020504
  0
VERTEX
  8
PLAN_1
 62
     2
  6
CONTINUOUS
 10
-0.670516
 20
0.018594
  0
VERTEX
  8
PLAN_1
 62
     2
  6
CONTINUOUS
 10
-0.672429
 20
0.017157
  0
VERTEX
  8
PLAN_1
 62
     2
  6
CONTINUOUS
 10
-0.674339
 20
0.015248
  0
VERTEX
  8
PLAN_1
 62
     2
  6
CONTINUOUS
 10
-0.676728
 20
0.014291
  0
VERTEX
  8
PLAN_1
 62
     2
  6
CONTINUOUS
 10
-0.679118
 20
0.012858
  0
VERTEX
  8
PLAN_1
 62
     2
  6
CONTINUOUS
 10
-0.681988
 20
0.012382
  0
VERTEX
  8
PLAN_1
 62
     2
  6
CONTINUOUS
 10
-0.684854
 20
0.011902
  0
VERTEX
  8
PLAN_1
 62
     2
  6
CONTINUOUS
 10
-0.688197
 20
0.011425
  0
VERTEX
  8
PLAN_1
 62
     2
  6
CONTINUOUS
 10
-0.691067
 20
0.011902
  0
VERTEX
  8
PLAN_1
 62
     2
  6
CONTINUOUS
 10
-0.694409
 20
0.012382
  0
VERTEX
  8
PLAN_1
 62
     2
  6
CONTINUOUS
 10
-0.696799
 20
0.012858
  0
VERTEX
  8
PLAN_1
 62
     2
  6
CONTINUOUS
 10
-0.699189
 20
0.014291
  0
VERTEX
  8
PLAN_1
 62
     2
  6
CONTINUOUS
 10
-0.701579
 20
0.015248
  0
VERTEX
  8
PLAN_1
 62
     2
  6
CONTINUOUS
 10
-0.703969
 20
0.017157
  0
VERTEX
  8
PLAN_1
 62
     2
  6
CONTINUOUS
 10
-0.705402
 20
0.018594
  0
VERTEX
  8
PLAN_1
 62
     2
  6
CONTINUOUS
 10
-0.707315
 20
0.020504
  0
VERTEX
  8
PLAN_1
 62
     2
  6
CONTINUOUS
 10
-0.710181
 20
0.024807
  0
VERTEX
  8
PLAN_1
 62
     2
  6
CONTINUOUS
 10
-0.712091
 20
0.030063
  0
VERTEX
  8
PLAN_1
 62
     2
  6
CONTINUOUS
 10
-0.713047
 20
0.034843
  0
VERTEX
  8
PLAN_1
 62
     2
  6
CONTINUOUS
 10
-0.713528
 20
0.040098
  0
VERTEX
  8
PLAN_1
 62
     2
  6
CONTINUOUS
 10
-0.713047
 20
0.045354
  0
VERTEX
  8
PLAN_1
 62
     2
  6
CONTINUOUS
 10
-0.712091
 20
0.050610
  0
VERTEX
  8
PLAN_1
 62
     2
  6
CONTINUOUS
 10
-0.710181
 20
0.055390
  0
VERTEX
  8
PLAN_1
 62
     2
  6
CONTINUOUS
 10
-0.707315
 20
0.059689
  0
VERTEX
  8
PLAN_1
 62
     2
  6
CONTINUOUS
 10
-0.705402
 20
0.062079
  0
VERTEX
  8
PLAN_1
 62
     2
  6
CONTINUOUS
 10
-0.703969
 20
0.063512
  0
VERTEX
  8
PLAN_1
 62
     2
  6
CONTINUOUS
 10
-0.701579
 20
0.064945
  0
VERTEX
  8
PLAN_1
 62
     2
  6
CONTINUOUS
 10
-0.699189
 20
0.066382
  0
VERTEX
  8
PLAN_1
 62
     2
  6
CONTINUOUS
 10
-0.696799
 20
0.067335
  0
VERTEX
  8
PLAN_1
 62
     2
  6
CONTINUOUS
 10
-0.694409
 20
0.068291
  0
VERTEX
  8
PLAN_1
 62
     2
  6
CONTINUOUS
 10
-0.691067
 20
0.068772
  0
VERTEX
  8
PLAN_1
 62
     2
  6
CONTINUOUS
 10
-0.688197
 20
0.069248
  0
SEQEND
  8
0
  0
POLYLINE
  8
PLAN_1
 62
     2
  6
CONTINUOUS
 66
     1
 40
0.003000
 41
0.003000
  0
VERTEX
  8
PLAN_1
 62
     2
  6
CONTINUOUS
 10
-0.688197
 20
0.019547
  0
VERTEX
  8
PLAN_1
 62
     2
  6
CONTINUOUS
 10
-0.685811
 20
0.019547
  0
VERTEX
  8
PLAN_1
 62
     2
  6
CONTINUOUS
 10
-0.683898
 20
0.020028
  0
VERTEX
  8
PLAN_1
 62
     2
  6
CONTINUOUS
 10
-0.681988
 20
0.020980
  0
VERTEX
  8
PLAN_1
 62
     2
  6
CONTINUOUS
 10
-0.680075
 20
0.021937
  0
VERTEX
  8
PLAN_1
 62
     2
  6
CONTINUOUS
 10
-0.677209
 20
0.024327
  0
VERTEX
  8
PLAN_1
 62
     2
  6
CONTINUOUS
 10
-0.675295
 20
0.027193
  0
VERTEX
  8
PLAN_1
 62
     2
  6
CONTINUOUS
 10
-0.673862
 20
0.030539
  0
VERTEX
  8
PLAN_1
 62
     2
  6
CONTINUOUS
 10
-0.672906
 20
0.033886
  0
VERTEX
  8
PLAN_1
 62
     2
  6
CONTINUOUS
 10
-0.672429
 20
0.037228
  0
VERTEX
  8
PLAN_1
 62
     2
  6
CONTINUOUS
 10
-0.672429
 20
0.040098
  0
VERTEX
  8
PLAN_1
 62
     2
  6
CONTINUOUS
 10
-0.672429
 20
0.043441
  0
VERTEX
  8
PLAN_1
 62
     2
  6
CONTINUOUS
 10
-0.672906
 20
0.046787
  0
VERTEX
  8
PLAN_1
 62
     2
  6
CONTINUOUS
 10
-0.673862
 20
0.050134
  0
VERTEX
  8
PLAN_1
 62
     2
  6
CONTINUOUS
 10
-0.675295
 20
0.053476
  0
VERTEX
  8
PLAN_1
 62
     2
  6
CONTINUOUS
 10
-0.677209
 20
0.056346
  0
VERTEX
  8
PLAN_1
 62
     2
  6
CONTINUOUS
 10
-0.680075
 20
0.058736
  0
VERTEX
  8
PLAN_1
 62
     2
  6
CONTINUOUS
 10
-0.681988
 20
0.059689
  0
VERTEX
  8
PLAN_1
 62
     2
  6
CONTINUOUS
 10
-0.683898
 20
0.060646
  0
VERTEX
  8
PLAN_1
 62
     2
  6
CONTINUOUS
 10
-0.685811
 20
0.061122
  0
VERTEX
  8
PLAN_1
 62
     2
  6
CONTINUOUS
 10
-0.688197
 20
0.061122
  0
VERTEX
  8
PLAN_1
 62
     2
  6
CONTINUOUS
 10
-0.690587
 20
0.061122
  0
VERTEX
  8
PLAN_1
 62
     2
  6
CONTINUOUS
 10
-0.692500
 20
0.060646
  0
VERTEX
  8
PLAN_1
 62
     2
  6
CONTINUOUS
 10
-0.694409
 20
0.059689
  0
VERTEX
  8
PLAN_1
 62
     2
  6
CONTINUOUS
 10
-0.696323
 20
0.058736
  0
VERTEX
  8
PLAN_1
 62
     2
  6
CONTINUOUS
 10
-0.698713
 20
0.056346
  0
VERTEX
  8
PLAN_1
 62
     2
  6
CONTINUOUS
 10
-0.701102
 20
0.053476
  0
VERTEX
  8
PLAN_1
 62
     2
  6
CONTINUOUS
 10
-0.702535
 20
0.050134
  0
VERTEX
  8
PLAN_1
 62
     2
  6
CONTINUOUS
 10
-0.703492
 20
0.046787
  0
VERTEX
  8
PLAN_1
 62
     2
  6
CONTINUOUS
 10
-0.703969
 20
0.043441
  0
VERTEX
  8
PLAN_1
 62
     2
  6
CONTINUOUS
 10
-0.703969
 20
0.040098
  0
VERTEX
  8
PLAN_1
 62
     2
  6
CONTINUOUS
 10
-0.703969
 20
0.037228
  0
VERTEX
  8
PLAN_1
 62
     2
  6
CONTINUOUS
 10
-0.703492
 20
0.033886
  0
VERTEX
  8
PLAN_1
 62
     2
  6
CONTINUOUS
 10
-0.702535
 20
0.030539
  0
VERTEX
  8
PLAN_1
 62
     2
  6
CONTINUOUS
 10
-0.701102
 20
0.027193
  0
VERTEX
  8
PLAN_1
 62
     2
  6
CONTINUOUS
 10
-0.698713
 20
0.024327
  0
VERTEX
  8
PLAN_1
 62
     2
  6
CONTINUOUS
 10
-0.696323
 20
0.021937
  0
VERTEX
  8
PLAN_1
 62
     2
  6
CONTINUOUS
 10
-0.694409
 20
0.020980
  0
VERTEX
  8
PLAN_1
 62
     2
  6
CONTINUOUS
 10
-0.692500
 20
0.020028
  0
VERTEX
  8
PLAN_1
 62
     2
  6
CONTINUOUS
 10
-0.690587
 20
0.019547
  0
VERTEX
  8
PLAN_1
 62
     2
  6
CONTINUOUS
 10
-0.688197
 20
0.019547
  0
SEQEND
  8
0
  0
POLYLINE
  8
PLAN_1
 62
     2
  6
CONTINUOUS
 66
     1
 40
0.003000
 41
0.003000
  0
VERTEX
  8
PLAN_1
 62
     2
  6
CONTINUOUS
 10
-0.616996
 20
0.012858
  0
VERTEX
  8
PLAN_1
 62
     2
  6
CONTINUOUS
 10
-0.616996
 20
0.020980
  0
VERTEX
  8
PLAN_1
 62
     2
  6
CONTINUOUS
 10
-0.618429
 20
0.019071
  0
VERTEX
  8
PLAN_1
 62
     2
  6
CONTINUOUS
 10
-0.620339
 20
0.017157
  0
VERTEX
  8
PLAN_1
 62
     2
  6
CONTINUOUS
 10
-0.621776
 20
0.015248
  0
VERTEX
  8
PLAN_1
 62
     2
  6
CONTINUOUS
 10
-0.623685
 20
0.013815
  0
VERTEX
  8
PLAN_1
 62
     2
  6
CONTINUOUS
 10
-0.626075
 20
0.012858
  0
VERTEX
  8
PLAN_1
 62
     2
  6
CONTINUOUS
 10
-0.628465
 20
0.011902
  0
VERTEX
  8
PLAN_1
 62
     2
  6
CONTINUOUS
 10
-0.631331
 20
0.011425
  0
VERTEX
  8
PLAN_1
 62
     2
  6
CONTINUOUS
 10
-0.634201
 20
0.011425
  0
VERTEX
  8
PLAN_1
 62
     2
  6
CONTINUOUS
 10
-0.637543
 20
0.011902
  0
VERTEX
  8
PLAN_1
 62
     2
  6
CONTINUOUS
 10
-0.640409
 20
0.012382
  0
VERTEX
  8
PLAN_1
 62
     2
  6
CONTINUOUS
 10
-0.643280
 20
0.013335
  0
VERTEX
  8
PLAN_1
 62
     2
  6
CONTINUOUS
 10
-0.646146
 20
0.015248
  0
VERTEX
  8
PLAN_1
 62
     2
  6
CONTINUOUS
 10
-0.648535
 20
0.017157
  0
VERTEX
  8
PLAN_1
 62
     2
  6
CONTINUOUS
 10
-0.650445
 20
0.020028
  0
VERTEX
  8
PLAN_1
 62
     2
  6
CONTINUOUS
 10
-0.651882
 20
0.023850
  0
VERTEX
  8
PLAN_1
 62
     2
  6
CONTINUOUS
 10
-0.651882
 20
0.028150
  0
VERTEX
  8
PLAN_1
 62
     2
  6
CONTINUOUS
 10
-0.651882
 20
0.067335
  0
VERTEX
  8
PLAN_1
 62
     2
  6
CONTINUOUS
 10
-0.642799
 20
0.067335
  0
VERTEX
  8
PLAN_1
 62
     2
  6
CONTINUOUS
 10
-0.642799
 20
0.031496
  0
VERTEX
  8
PLAN_1
 62
     2
  6
CONTINUOUS
 10
-0.642799
 20
0.028150
  0
VERTEX
  8
PLAN_1
 62
     2
  6
CONTINUOUS
 10
-0.642323
 20
0.025760
  0
VERTEX
  8
PLAN_1
 62
     2
  6
CONTINUOUS
 10
-0.641366
 20
0.023850
  0
VERTEX
  8
PLAN_1
 62
     2
  6
CONTINUOUS
 10
-0.639933
 20
0.021937
  0
VERTEX
  8
PLAN_1
 62
     2
  6
CONTINUOUS
 10
-0.638500
 20
0.020980
  0
VERTEX
  8
PLAN_1
 62
     2
  6
CONTINUOUS
 10
-0.636587
 20
0.020028
  0
VERTEX
  8
PLAN_1
 62
     2
  6
CONTINUOUS
 10
-0.634677
 20
0.019547
  0
VERTEX
  8
PLAN_1
 62
     2
  6
CONTINUOUS
 10
-0.632287
 20
0.019547
  0
VERTEX
  8
PLAN_1
 62
     2
  6
CONTINUOUS
 10
-0.630374
 20
0.019547
  0
VERTEX
  8
PLAN_1
 62
     2
  6
CONTINUOUS
 10
-0.628465
 20
0.020028
  0
VERTEX
  8
PLAN_1
 62
     2
  6
CONTINUOUS
 10
-0.626551
 20
0.020504
  0
VERTEX
  8
PLAN_1
 62
     2
  6
CONTINUOUS
 10
-0.625118
 20
0.020980
  0
VERTEX
  8
PLAN_1
 62
     2
  6
CONTINUOUS
 10
-0.622728
 20
0.022894
  0
VERTEX
  8
PLAN_1
 62
     2
  6
CONTINUOUS
 10
-0.620819
 20
0.025283
  0
VERTEX
  8
PLAN_1
 62
     2
  6
CONTINUOUS
 10
-0.618906
 20
0.028150
  0
VERTEX
  8
PLAN_1
 62
     2
  6
CONTINUOUS
 10
-0.617953
 20
0.031496
  0
VERTEX
  8
PLAN_1
 62
     2
  6
CONTINUOUS
 10
-0.617472
 20
0.034362
  0
VERTEX
  8
PLAN_1
 62
     2
  6
CONTINUOUS
 10
-0.617472
 20
0.037709
  0
VERTEX
  8
PLAN_1
 62
     2
  6
CONTINUOUS
 10
-0.617472
 20
0.067335
  0
VERTEX
  8
PLAN_1
 62
     2
  6
CONTINUOUS
 10
-0.608394
 20
0.067335
  0
VERTEX
  8
PLAN_1
 62
     2
  6
CONTINUOUS
 10
-0.608394
 20
0.012858
  0
VERTEX
  8
PLAN_1
 62
     2
  6
CONTINUOUS
 10
-0.616996
 20
0.012858
  0
SEQEND
  8
0
  0
POLYLINE
  8
PLAN_1
 62
     2
  6
CONTINUOUS
 66
     1
 40
0.003000
 41
0.003000
  0
VERTEX
  8
PLAN_1
 62
     2
  6
CONTINUOUS
 10
-0.554394
 20
0.059689
  0
VERTEX
  8
PLAN_1
 62
     2
  6
CONTINUOUS
 10
-0.554394
 20
0.024327
  0
VERTEX
  8
PLAN_1
 62
     2
  6
CONTINUOUS
 10
-0.554394
 20
0.022894
  0
VERTEX
  8
PLAN_1
 62
     2
  6
CONTINUOUS
 10
-0.553917
 20
0.021937
  0
VERTEX
  8
PLAN_1
 62
     2
  6
CONTINUOUS
 10
-0.552961
 20
0.021461
  0
VERTEX
  8
PLAN_1
 62
     2
  6
CONTINUOUS
 10
-0.552480
 20
0.020980
  0
VERTEX
  8
PLAN_1
 62
     2
  6
CONTINUOUS
 10
-0.551528
 20
0.020504
  0
VERTEX
  8
PLAN_1
 62
     2
  6
CONTINUOUS
 10
-0.550571
 20
0.020504
  0
VERTEX
  8
PLAN_1
 62
     2
  6
CONTINUOUS
 10
-0.549614
 20
0.020028
  0
VERTEX
  8
PLAN_1
 62
     2
  6
CONTINUOUS
 10
-0.548657
 20
0.020028
  0
VERTEX
  8
PLAN_1
 62
     2
  6
CONTINUOUS
 10
-0.545791
 20
0.020028
  0
VERTEX
  8
PLAN_1
 62
     2
  6
CONTINUOUS
 10
-0.545791
 20
0.012858
  0
VERTEX
  8
PLAN_1
 62
     2
  6
CONTINUOUS
 10
-0.546748
 20
0.012858
  0
VERTEX
  8
PLAN_1
 62
     2
  6
CONTINUOUS
 10
-0.547705
 20
0.012858
  0
VERTEX
  8
PLAN_1
 62
     2
  6
CONTINUOUS
 10
-0.549138
 20
0.012858
  0
VERTEX
  8
PLAN_1
 62
     2
  6
CONTINUOUS
 10
-0.550094
 20
0.012382
  0
VERTEX
  8
PLAN_1
 62
     2
  6
CONTINUOUS
 10
-0.550571
 20
0.012382
  0
VERTEX
  8
PLAN_1
 62
     2
  6
CONTINUOUS
 10
-0.551528
 20
0.012382
  0
VERTEX
  8
PLAN_1
 62
     2
  6
CONTINUOUS
 10
-0.552004
 20
0.012382
  0
VERTEX
  8
PLAN_1
 62
     2
  6
CONTINUOUS
 10
-0.552480
 20
0.012382
  0
VERTEX
  8
PLAN_1
 62
     2
  6
CONTINUOUS
 10
-0.555350
 20
0.012382
  0
VERTEX
  8
PLAN_1
 62
     2
  6
CONTINUOUS
 10
-0.558217
 20
0.013335
  0
VERTEX
  8
PLAN_1
 62
     2
  6
CONTINUOUS
 10
-0.560130
 20
0.014291
  0
VERTEX
  8
PLAN_1
 62
     2
  6
CONTINUOUS
 10
-0.561563
 20
0.015724
  0
VERTEX
  8
PLAN_1
 62
     2
  6
CONTINUOUS
 10
-0.562516
 20
0.017638
  0
VERTEX
  8
PLAN_1
 62
     2
  6
CONTINUOUS
 10
-0.562996
 20
0.019547
  0
VERTEX
  8
PLAN_1
 62
     2
  6
CONTINUOUS
 10
-0.563472
 20
0.021461
  0
VERTEX
  8
PLAN_1
 62
     2
  6
CONTINUOUS
 10
-0.563472
 20
0.023850
  0
VERTEX
  8
PLAN_1
 62
     2
  6
CONTINUOUS
 10
-0.563472
 20
0.059689
  0
VERTEX
  8
PLAN_1
 62
     2
  6
CONTINUOUS
 10
-0.570642
 20
0.059689
  0
VERTEX
  8
PLAN_1
 62
     2
  6
CONTINUOUS
 10
-0.570642
 20
0.067335
  0
VERTEX
  8
PLAN_1
 62
     2
  6
CONTINUOUS
 10
-0.563472
 20
0.067335
  0
VERTEX
  8
PLAN_1
 62
     2
  6
CONTINUOUS
 10
-0.563472
 20
0.082630
  0
VERTEX
  8
PLAN_1
 62
     2
  6
CONTINUOUS
 10
-0.554394
 20
0.082630
  0
VERTEX
  8
PLAN_1
 62
     2
  6
CONTINUOUS
 10
-0.554394
 20
0.067335
  0
VERTEX
  8
PLAN_1
 62
     2
  6
CONTINUOUS
 10
-0.545791
 20
0.067335
  0
VERTEX
  8
PLAN_1
 62
     2
  6
CONTINUOUS
 10
-0.545791
 20
0.059689
  0
VERTEX
  8
PLAN_1
 62
     2
  6
CONTINUOUS
 10
-0.554394
 20
0.059689
  0
SEQEND
  8
0
  0
POLYLINE
  8
PLAN_1
 62
     2
  6
CONTINUOUS
 66
     1
 40
0.003000
 41
0.003000
  0
VERTEX
  8
PLAN_1
 62
     2
  6
CONTINUOUS
 10
-0.536713
 20
0.051087
  0
VERTEX
  8
PLAN_1
 62
     2
  6
CONTINUOUS
 10
-0.536236
 20
0.055390
  0
VERTEX
  8
PLAN_1
 62
     2
  6
CONTINUOUS
 10
-0.535280
 20
0.059213
  0
VERTEX
  8
PLAN_1
 62
     2
  6
CONTINUOUS
 10
-0.533366
 20
0.062559
  0
VERTEX
  8
PLAN_1
 62
     2
  6
CONTINUOUS
 10
-0.530500
 20
0.064945
  0
VERTEX
  8
PLAN_1
 62
     2
  6
CONTINUOUS
 10
-0.527154
 20
0.066858
  0
VERTEX
  8
PLAN_1
 62
     2
  6
CONTINUOUS
 10
-0.523811
 20
0.067815
  0
VERTEX
  8
PLAN_1
 62
     2
  6
CONTINUOUS
 10
-0.519031
 20
0.068772
  0
VERTEX
  8
PLAN_1
 62
     2
  6
CONTINUOUS
 10
-0.514252
 20
0.069248
  0
VERTEX
  8
PLAN_1
 62
     2
  6
CONTINUOUS
 10
-0.512343
 20
0.068772
  0
VERTEX
  8
PLAN_1
 62
     2
  6
CONTINUOUS
 10
-0.509472
 20
0.068772
  0
VERTEX
  8
PLAN_1
 62
     2
  6
CONTINUOUS
 10
-0.506130
 20
0.067815
  0
VERTEX
  8
PLAN_1
 62
     2
  6
CONTINUOUS
 10
-0.502783
 20
0.066858
  0
VERTEX
  8
PLAN_1
 62
     2
  6
CONTINUOUS
 10
-0.499437
 20
0.064945
  0
VERTEX
  8
PLAN_1
 62
     2
  6
CONTINUOUS
 10
-0.497047
 20
0.062079
  0
VERTEX
  8
PLAN_1
 62
     2
  6
CONTINUOUS
 10
-0.495614
 20
0.060169
  0
VERTEX
  8
PLAN_1
 62
     2
  6
CONTINUOUS
 10
-0.495138
 20
0.058256
  0
VERTEX
  8
PLAN_1
 62
     2
  6
CONTINUOUS
 10
-0.494657
 20
0.056346
  0
VERTEX
  8
PLAN_1
 62
     2
  6
CONTINUOUS
 10
-0.494181
 20
0.053957
  0
VERTEX
  8
PLAN_1
 62
     2
  6
CONTINUOUS
 10
-0.494181
 20
0.022417
  0
VERTEX
  8
PLAN_1
 62
     2
  6
CONTINUOUS
 10
-0.494181
 20
0.021937
  0
VERTEX
  8
PLAN_1
 62
     2
  6
CONTINUOUS
 10
-0.494181
 20
0.020980
  0
VERTEX
  8
PLAN_1
 62
     2
  6
CONTINUOUS
 10
-0.493705
 20
0.020504
  0
VERTEX
  8
PLAN_1
 62
     2
  6
CONTINUOUS
 10
-0.493705
 20
0.020028
  0
VERTEX
  8
PLAN_1
 62
     2
  6
CONTINUOUS
 10
-0.493224
 20
0.019547
  0
VERTEX
  8
PLAN_1
 62
     2
  6
CONTINUOUS
 10
-0.492748
 20
0.019547
  0
VERTEX
  8
PLAN_1
 62
     2
  6
CONTINUOUS
 10
-0.491791
 20
0.019547
  0
VERTEX
  8
PLAN_1
 62
     2
  6
CONTINUOUS
 10
-0.491315
 20
0.019071
  0
VERTEX
  8
PLAN_1
 62
     2
  6
CONTINUOUS
 10
-0.490835
 20
0.019071
  0
VERTEX
  8
PLAN_1
 62
     2
  6
CONTINUOUS
 10
-0.490358
 20
0.019547
  0
VERTEX
  8
PLAN_1
 62
     2
  6
CONTINUOUS
 10
-0.489882
 20
0.019547
  0
VERTEX
  8
PLAN_1
 62
     2
  6
CONTINUOUS
 10
-0.489402
 20
0.019547
  0
VERTEX
  8
PLAN_1
 62
     2
  6
CONTINUOUS
 10
-0.488925
 20
0.019547
  0
VERTEX
  8
PLAN_1
 62
     2
  6
CONTINUOUS
 10
-0.488449
 20
0.019547
  0
VERTEX
  8
PLAN_1
 62
     2
  6
CONTINUOUS
 10
-0.488449
 20
0.012858
  0
VERTEX
  8
PLAN_1
 62
     2
  6
CONTINUOUS
 10
-0.488925
 20
0.012858
  0
VERTEX
  8
PLAN_1
 62
     2
  6
CONTINUOUS
 10
-0.489402
 20
0.012858
  0
VERTEX
  8
PLAN_1
 62
     2
  6
CONTINUOUS
 10
-0.489882
 20
0.012382
  0
VERTEX
  8
PLAN_1
 62
     2
  6
CONTINUOUS
 10
-0.490358
 20
0.012382
  0
VERTEX
  8
PLAN_1
 62
     2
  6
CONTINUOUS
 10
-0.491315
 20
0.012382
  0
VERTEX
  8
PLAN_1
 62
     2
  6
CONTINUOUS
 10
-0.491791
 20
0.011902
  0
VERTEX
  8
PLAN_1
 62
     2
  6
CONTINUOUS
 10
-0.492272
 20
0.011902
  0
VERTEX
  8
PLAN_1
 62
     2
  6
CONTINUOUS
 10
-0.493224
 20
0.011902
  0
VERTEX
  8
PLAN_1
 62
     2
  6
CONTINUOUS
 10
-0.496094
 20
0.012382
  0
VERTEX
  8
PLAN_1
 62
     2
  6
CONTINUOUS
 10
-0.498004
 20
0.012858
  0
VERTEX
  8
PLAN_1
 62
     2
  6
CONTINUOUS
 10
-0.499917
 20
0.013335
  0
VERTEX
  8
PLAN_1
 62
     2
  6
CONTINUOUS
 10
-0.500870
 20
0.014772
  0
VERTEX
  8
PLAN_1
 62
     2
  6
CONTINUOUS
 10
-0.501827
 20
0.015724
  0
VERTEX
  8
PLAN_1
 62
     2
  6
CONTINUOUS
 10
-0.502307
 20
0.017157
  0
VERTEX
  8
PLAN_1
 62
     2
  6
CONTINUOUS
 10
-0.502783
 20
0.018594
  0
VERTEX
  8
PLAN_1
 62
     2
  6
CONTINUOUS
 10
-0.502783
 20
0.020504
  0
VERTEX
  8
PLAN_1
 62
     2
  6
CONTINUOUS
 10
-0.504217
 20
0.019071
  0
VERTEX
  8
PLAN_1
 62
     2
  6
CONTINUOUS
 10
-0.506130
 20
0.017157
  0
VERTEX
  8
PLAN_1
 62
     2
  6
CONTINUOUS
 10
-0.508039
 20
0.015724
  0
VERTEX
  8
PLAN_1
 62
     2
  6
CONTINUOUS
 10
-0.509953
 20
0.014291
  0
VERTEX
  8
PLAN_1
 62
     2
  6
CONTINUOUS
 10
-0.512819
 20
0.013335
  0
VERTEX
  8
PLAN_1
 62
     2
  6
CONTINUOUS
 10
-0.515685
 20
0.012382
  0
VERTEX
  8
PLAN_1
 62
     2
  6
CONTINUOUS
 10
-0.519031
 20
0.011902
  0
VERTEX
  8
PLAN_1
 62
     2
  6
CONTINUOUS
 10
-0.522378
 20
0.011425
  0
VERTEX
  8
PLAN_1
 62
     2
  6
CONTINUOUS
 10
-0.526201
 20
0.011902
  0
VERTEX
  8
PLAN_1
 62
     2
  6
CONTINUOUS
 10
-0.529543
 20
0.012858
  0
VERTEX
  8
PLAN_1
 62
     2
  6
CONTINUOUS
 10
-0.532413
 20
0.013815
  0
VERTEX
  8
PLAN_1
 62
     2
  6
CONTINUOUS
 10
-0.534799
 20
0.015724
  0
VERTEX
  8
PLAN_1
 62
     2
  6
CONTINUOUS
 10
-0.536713
 20
0.018114
  0
VERTEX
  8
PLAN_1
 62
     2
  6
CONTINUOUS
 10
-0.538146
 20
0.020980
  0
VERTEX
  8
PLAN_1
 62
     2
  6
CONTINUOUS
 10
-0.539102
 20
0.023850
  0
VERTEX
  8
PLAN_1
 62
     2
  6
CONTINUOUS
 10
-0.539579
 20
0.027193
  0
VERTEX
  8
PLAN_1
 62
     2
  6
CONTINUOUS
 10
-0.539579
 20
0.029106
  0
VERTEX
  8
PLAN_1
 62
     2
  6
CONTINUOUS
 10
-0.539102
 20
0.031496
  0
VERTEX
  8
PLAN_1
 62
     2
  6
CONTINUOUS
 10
-0.538622
 20
0.033886
  0
VERTEX
  8
PLAN_1
 62
     2
  6
CONTINUOUS
 10
-0.537189
 20
0.036752
  0
VERTEX
  8
PLAN_1
 62
     2
  6
CONTINUOUS
 10
-0.534799
 20
0.039142
  0
VERTEX
  8
PLAN_1
 62
     2
  6
CONTINUOUS
 10
-0.531933
 20
0.041531
  0
VERTEX
  8
PLAN_1
 62
     2
  6
CONTINUOUS
 10
-0.530500
 20
0.042488
  0
VERTEX
  8
PLAN_1
 62
     2
  6
CONTINUOUS
 10
-0.528110
 20
0.042965
  0
VERTEX
  8
PLAN_1
 62
     2
  6
CONTINUOUS
 10
-0.525720
 20
0.043921
  0
VERTEX
  8
PLAN_1
 62
     2
  6
CONTINUOUS
 10
-0.522854
 20
0.044398
  0
VERTEX
  8
PLAN_1
 62
     2
  6
CONTINUOUS
 10
-0.508039
 20
0.046311
  0
VERTEX
  8
PLAN_1
 62
     2
  6
CONTINUOUS
 10
-0.507083
 20
0.046311
  0
VERTEX
  8
PLAN_1
 62
     2
  6
CONTINUOUS
 10
-0.506130
 20
0.046311
  0
VERTEX
  8
PLAN_1
 62
     2
  6
CONTINUOUS
 10
-0.505650
 20
0.046787
  0
VERTEX
  8
PLAN_1
 62
     2
  6
CONTINUOUS
 10
-0.504693
 20
0.047264
  0
VERTEX
  8
PLAN_1
 62
     2
  6
CONTINUOUS
 10
-0.504217
 20
0.048220
  0
VERTEX
  8
PLAN_1
 62
     2
  6
CONTINUOUS
 10
-0.503740
 20
0.049177
  0
VERTEX
  8
PLAN_1
 62
     2
  6
CONTINUOUS
 10
-0.503260
 20
0.050610
  0
VERTEX
  8
PLAN_1
 62
     2
  6
CONTINUOUS
 10
-0.503260
 20
0.052524
  0
VERTEX
  8
PLAN_1
 62
     2
  6
CONTINUOUS
 10
-0.503260
 20
0.054433
  0
VERTEX
  8
PLAN_1
 62
     2
  6
CONTINUOUS
 10
-0.504217
 20
0.056346
  0
VERTEX
  8
PLAN_1
 62
     2
  6
CONTINUOUS
 10
-0.505173
 20
0.057780
  0
VERTEX
  8
PLAN_1
 62
     2
  6
CONTINUOUS
 10
-0.506606
 20
0.059213
  0
VERTEX
  8
PLAN_1
 62
     2
  6
CONTINUOUS
 10
-0.508039
 20
0.060169
  0
VERTEX
  8
PLAN_1
 62
     2
  6
CONTINUOUS
 10
-0.510429
 20
0.060646
  0
VERTEX
  8
PLAN_1
 62
     2
  6
CONTINUOUS
 10
-0.512819
 20
0.061122
  0
VERTEX
  8
PLAN_1
 62
     2
  6
CONTINUOUS
 10
-0.516165
 20
0.061602
  0
VERTEX
  8
PLAN_1
 62
     2
  6
CONTINUOUS
 10
-0.519508
 20
0.061122
  0
VERTEX
  8
PLAN_1
 62
     2
  6
CONTINUOUS
 10
-0.522378
 20
0.060169
  0
VERTEX
  8
PLAN_1
 62
     2
  6
CONTINUOUS
 10
-0.524287
 20
0.059213
  0
VERTEX
  8
PLAN_1
 62
     2
  6
CONTINUOUS
 10
-0.525720
 20
0.057780
  0
VERTEX
  8
PLAN_1
 62
     2
  6
CONTINUOUS
 10
-0.527154
 20
0.055866
  0
VERTEX
  8
PLAN_1
 62
     2
  6
CONTINUOUS
 10
-0.527634
 20
0.054433
  0
VERTEX
  8
PLAN_1
 62
     2
  6
CONTINUOUS
 10
-0.528110
 20
0.052524
  0
VERTEX
  8
PLAN_1
 62
     2
  6
CONTINUOUS
 10
-0.528587
 20
0.051087
  0
VERTEX
  8
PLAN_1
 62
     2
  6
CONTINUOUS
 10
-0.536713
 20
0.051087
  0
SEQEND
  8
0
  0
POLYLINE
  8
PLAN_1
 62
     2
  6
CONTINUOUS
 66
     1
 40
0.003000
 41
0.003000
  0
VERTEX
  8
PLAN_1
 62
     2
  6
CONTINUOUS
 10
-0.503260
 20
0.041051
  0
VERTEX
  8
PLAN_1
 62
     2
  6
CONTINUOUS
 10
-0.504217
 20
0.040575
  0
VERTEX
  8
PLAN_1
 62
     2
  6
CONTINUOUS
 10
-0.504693
 20
0.040098
  0
VERTEX
  8
PLAN_1
 62
     2
  6
CONTINUOUS
 10
-0.505650
 20
0.039618
  0
VERTEX
  8
PLAN_1
 62
     2
  6
CONTINUOUS
 10
-0.507083
 20
0.039142
  0
VERTEX
  8
PLAN_1
 62
     2
  6
CONTINUOUS
 10
-0.508996
 20
0.038665
  0
VERTEX
  8
PLAN_1
 62
     2
  6
CONTINUOUS
 10
-0.511386
 20
0.038185
  0
VERTEX
  8
PLAN_1
 62
     2
  6
CONTINUOUS
 10
-0.514728
 20
0.037709
  0
VERTEX
  8
PLAN_1
 62
     2
  6
CONTINUOUS
 10
-0.518551
 20
0.037228
  0
VERTEX
  8
PLAN_1
 62
     2
  6
CONTINUOUS
 10
-0.520465
 20
0.037228
  0
VERTEX
  8
PLAN_1
 62
     2
  6
CONTINUOUS
 10
-0.522378
 20
0.036752
  0
VERTEX
  8
PLAN_1
 62
     2
  6
CONTINUOUS
 10
-0.524287
 20
0.036276
  0
VERTEX
  8
PLAN_1
 62
     2
  6
CONTINUOUS
 10
-0.526201
 20
0.035319
  0
VERTEX
  8
PLAN_1
 62
     2
  6
CONTINUOUS
 10
-0.527634
 20
0.034362
  0
VERTEX
  8
PLAN_1
 62
     2
  6
CONTINUOUS
 10
-0.529067
 20
0.032929
  0
VERTEX
  8
PLAN_1
 62
     2
  6
CONTINUOUS
 10
-0.530024
 20
0.031016
  0
VERTEX
  8
PLAN_1
 62
     2
  6
CONTINUOUS
 10
-0.530024
 20
0.028630
  0
VERTEX
  8
PLAN_1
 62
     2
  6
CONTINUOUS
 10
-0.530024
 20
0.026240
  0
VERTEX
  8
PLAN_1
 62
     2
  6
CONTINUOUS
 10
-0.529543
 20
0.024327
  0
VERTEX
  8
PLAN_1
 62
     2
  6
CONTINUOUS
 10
-0.529067
 20
0.022894
  0
VERTEX
  8
PLAN_1
 62
     2
  6
CONTINUOUS
 10
-0.527634
 20
0.021461
  0
VERTEX
  8
PLAN_1
 62
     2
  6
CONTINUOUS
 10
-0.526201
 20
0.020504
  0
VERTEX
  8
PLAN_1
 62
     2
  6
CONTINUOUS
 10
-0.524764
 20
0.019547
  0
VERTEX
  8
PLAN_1
 62
     2
  6
CONTINUOUS
 10
-0.522854
 20
0.019071
  0
VERTEX
  8
PLAN_1
 62
     2
  6
CONTINUOUS
 10
-0.520465
 20
0.019071
  0
VERTEX
  8
PLAN_1
 62
     2
  6
CONTINUOUS
 10
-0.517118
 20
0.019547
  0
VERTEX
  8
PLAN_1
 62
     2
  6
CONTINUOUS
 10
-0.514252
 20
0.020028
  0
VERTEX
  8
PLAN_1
 62
     2
  6
CONTINUOUS
 10
-0.511386
 20
0.020980
  0
VERTEX
  8
PLAN_1
 62
     2
  6
CONTINUOUS
 10
-0.508520
 20
0.022894
  0
VERTEX
  8
PLAN_1
 62
     2
  6
CONTINUOUS
 10
-0.506606
 20
0.024807
  0
VERTEX
  8
PLAN_1
 62
     2
  6
CONTINUOUS
 10
-0.504693
 20
0.026717
  0
VERTEX
  8
PLAN_1
 62
     2
  6
CONTINUOUS
 10
-0.503740
 20
0.029106
  0
VERTEX
  8
PLAN_1
 62
     2
  6
CONTINUOUS
 10
-0.503260
 20
0.031972
  0
VERTEX
  8
PLAN_1
 62
     2
  6
CONTINUOUS
 10
-0.503260
 20
0.041051
  0
SEQEND
  8
0
  0
POLYLINE
  8
PLAN_1
 62
     2
  6
CONTINUOUS
 66
     1
 40
0.003000
 41
0.003000
  0
VERTEX
  8
PLAN_1
 62
     2
  6
CONTINUOUS
 10
-0.468378
 20
0.012858
  0
VERTEX
  8
PLAN_1
 62
     2
  6
CONTINUOUS
 10
-0.477457
 20
0.012858
  0
VERTEX
  8
PLAN_1
 62
     2
  6
CONTINUOUS
 10
-0.477457
 20
0.067335
  0
VERTEX
  8
PLAN_1
 62
     2
  6
CONTINUOUS
 10
-0.468854
 20
0.067335
  0
VERTEX
  8
PLAN_1
 62
     2
  6
CONTINUOUS
 10
-0.468854
 20
0.058256
  0
VERTEX
  8
PLAN_1
 62
     2
  6
CONTINUOUS
 10
-0.467421
 20
0.060646
  0
VERTEX
  8
PLAN_1
 62
     2
  6
CONTINUOUS
 10
-0.465508
 20
0.062559
  0
VERTEX
  8
PLAN_1
 62
     2
  6
CONTINUOUS
 10
-0.464075
 20
0.064469
  0
VERTEX
  8
PLAN_1
 62
     2
  6
CONTINUOUS
 10
-0.462165
 20
0.065902
  0
VERTEX
  8
PLAN_1
 62
     2
  6
CONTINUOUS
 10
-0.460252
 20
0.067335
  0
VERTEX
  8
PLAN_1
 62
     2
  6
CONTINUOUS
 10
-0.458343
 20
0.068291
  0
VERTEX
  8
PLAN_1
 62
     2
  6
CONTINUOUS
 10
-0.455953
 20
0.068772
  0
VERTEX
  8
PLAN_1
 62
     2
  6
CONTINUOUS
 10
-0.453563
 20
0.069248
  0
VERTEX
  8
PLAN_1
 62
     2
  6
CONTINUOUS
 10
-0.453083
 20
0.069248
  0
VERTEX
  8
PLAN_1
 62
     2
  6
CONTINUOUS
 10
-0.452606
 20
0.068772
  0
VERTEX
  8
PLAN_1
 62
     2
  6
CONTINUOUS
 10
-0.452130
 20
0.068772
  0
VERTEX
  8
PLAN_1
 62
     2
  6
CONTINUOUS
 10
-0.451650
 20
0.068772
  0
VERTEX
  8
PLAN_1
 62
     2
  6
CONTINUOUS
 10
-0.451173
 20
0.068772
  0
VERTEX
  8
PLAN_1
 62
     2
  6
CONTINUOUS
 10
-0.451173
 20
0.059213
  0
VERTEX
  8
PLAN_1
 62
     2
  6
CONTINUOUS
 10
-0.454520
 20
0.059213
  0
VERTEX
  8
PLAN_1
 62
     2
  6
CONTINUOUS
 10
-0.457386
 20
0.058736
  0
VERTEX
  8
PLAN_1
 62
     2
  6
CONTINUOUS
 10
-0.460252
 20
0.058256
  0
VERTEX
  8
PLAN_1
 62
     2
  6
CONTINUOUS
 10
-0.462642
 20
0.056823
  0
VERTEX
  8
PLAN_1
 62
     2
  6
CONTINUOUS
 10
-0.464555
 20
0.054909
  0
VERTEX
  8
PLAN_1
 62
     2
  6
CONTINUOUS
 10
-0.465988
 20
0.052524
  0
VERTEX
  8
PLAN_1
 62
     2
  6
CONTINUOUS
 10
-0.467421
 20
0.050134
  0
VERTEX
  8
PLAN_1
 62
     2
  6
CONTINUOUS
 10
-0.467898
 20
0.047744
  0
VERTEX
  8
PLAN_1
 62
     2
  6
CONTINUOUS
 10
-0.468378
 20
0.044878
  0
VERTEX
  8
PLAN_1
 62
     2
  6
CONTINUOUS
 10
-0.468378
 20
0.012858
  0
SEQEND
  8
0
  0
POLYLINE
  8
PLAN_1
 62
     2
  6
CONTINUOUS
 66
     1
 40
0.003000
 41
0.003000
  0
VERTEX
  8
PLAN_1
 62
     2
  6
CONTINUOUS
 10
-0.445437
 20
0.051087
  0
VERTEX
  8
PLAN_1
 62
     2
  6
CONTINUOUS
 10
-0.444961
 20
0.055390
  0
VERTEX
  8
PLAN_1
 62
     2
  6
CONTINUOUS
 10
-0.443528
 20
0.059213
  0
VERTEX
  8
PLAN_1
 62
     2
  6
CONTINUOUS
 10
-0.441614
 20
0.062559
  0
VERTEX
  8
PLAN_1
 62
     2
  6
CONTINUOUS
 10
-0.439224
 20
0.064945
  0
VERTEX
  8
PLAN_1
 62
     2
  6
CONTINUOUS
 10
-0.435882
 20
0.066858
  0
VERTEX
  8
PLAN_1
 62
     2
  6
CONTINUOUS
 10
-0.432059
 20
0.067815
  0
VERTEX
  8
PLAN_1
 62
     2
  6
CONTINUOUS
 10
-0.427756
 20
0.068772
  0
VERTEX
  8
PLAN_1
 62
     2
  6
CONTINUOUS
 10
-0.422976
 20
0.069248
  0
VERTEX
  8
PLAN_1
 62
     2
  6
CONTINUOUS
 10
-0.420591
 20
0.068772
  0
VERTEX
  8
PLAN_1
 62
     2
  6
CONTINUOUS
 10
-0.417720
 20
0.068772
  0
VERTEX
  8
PLAN_1
 62
     2
  6
CONTINUOUS
 10
-0.414854
 20
0.067815
  0
VERTEX
  8
PLAN_1
 62
     2
  6
CONTINUOUS
 10
-0.411031
 20
0.066858
  0
VERTEX
  8
PLAN_1
 62
     2
  6
CONTINUOUS
 10
-0.408165
 20
0.064945
  0
VERTEX
  8
PLAN_1
 62
     2
  6
CONTINUOUS
 10
-0.405295
 20
0.062079
  0
VERTEX
  8
PLAN_1
 62
     2
  6
CONTINUOUS
 10
-0.404343
 20
0.060169
  0
VERTEX
  8
PLAN_1
 62
     2
  6
CONTINUOUS
 10
-0.403386
 20
0.058256
  0
VERTEX
  8
PLAN_1
 62
     2
  6
CONTINUOUS
 10
-0.402906
 20
0.056346
  0
VERTEX
  8
PLAN_1
 62
     2
  6
CONTINUOUS
 10
-0.402906
 20
0.053957
  0
VERTEX
  8
PLAN_1
 62
     2
  6
CONTINUOUS
 10
-0.402906
 20
0.022417
  0
VERTEX
  8
PLAN_1
 62
     2
  6
CONTINUOUS
 10
-0.402906
 20
0.021937
  0
VERTEX
  8
PLAN_1
 62
     2
  6
CONTINUOUS
 10
-0.402429
 20
0.020980
  0
VERTEX
  8
PLAN_1
 62
     2
  6
CONTINUOUS
 10
-0.402429
 20
0.020504
  0
VERTEX
  8
PLAN_1
 62
     2
  6
CONTINUOUS
 10
-0.401953
 20
0.020028
  0
VERTEX
  8
PLAN_1
 62
     2
  6
CONTINUOUS
 10
-0.401472
 20
0.019547
  0
VERTEX
  8
PLAN_1
 62
     2
  6
CONTINUOUS
 10
-0.400996
 20
0.019547
  0
VERTEX
  8
PLAN_1
 62
     2
  6
CONTINUOUS
 10
-0.400520
 20
0.019547
  0
VERTEX
  8
PLAN_1
 62
     2
  6
CONTINUOUS
 10
-0.399563
 20
0.019071
  0
VERTEX
  8
PLAN_1
 62
     2
  6
CONTINUOUS
 10
-0.399083
 20
0.019547
  0
VERTEX
  8
PLAN_1
 62
     2
  6
CONTINUOUS
 10
-0.398606
 20
0.019547
  0
VERTEX
  8
PLAN_1
 62
     2
  6
CONTINUOUS
 10
-0.398130
 20
0.019547
  0
VERTEX
  8
PLAN_1
 62
     2
  6
CONTINUOUS
 10
-0.397650
 20
0.019547
  0
VERTEX
  8
PLAN_1
 62
     2
  6
CONTINUOUS
 10
-0.397173
 20
0.019547
  0
VERTEX
  8
PLAN_1
 62
     2
  6
CONTINUOUS
 10
-0.396697
 20
0.019547
  0
VERTEX
  8
PLAN_1
 62
     2
  6
CONTINUOUS
 10
-0.396697
 20
0.012858
  0
VERTEX
  8
PLAN_1
 62
     2
  6
CONTINUOUS
 10
-0.397173
 20
0.012858
  0
VERTEX
  8
PLAN_1
 62
     2
  6
CONTINUOUS
 10
-0.397650
 20
0.012858
  0
VERTEX
  8
PLAN_1
 62
     2
  6
CONTINUOUS
 10
-0.398606
 20
0.012382
  0
VERTEX
  8
PLAN_1
 62
     2
  6
CONTINUOUS
 10
-0.399083
 20
0.012382
  0
VERTEX
  8
PLAN_1
 62
     2
  6
CONTINUOUS
 10
-0.399563
 20
0.012382
  0
VERTEX
  8
PLAN_1
 62
     2
  6
CONTINUOUS
 10
-0.400039
 20
0.011902
  0
VERTEX
  8
PLAN_1
 62
     2
  6
CONTINUOUS
 10
-0.400996
 20
0.011902
  0
VERTEX
  8
PLAN_1
 62
     2
  6
CONTINUOUS
 10
-0.401472
 20
0.011902
  0
VERTEX
  8
PLAN_1
 62
     2
  6
CONTINUOUS
 10
-0.404343
 20
0.012382
  0
VERTEX
  8
PLAN_1
 62
     2
  6
CONTINUOUS
 10
-0.406732
 20
0.012858
  0
VERTEX
  8
PLAN_1
 62
     2
  6
CONTINUOUS
 10
-0.408165
 20
0.013335
  0
VERTEX
  8
PLAN_1
 62
     2
  6
CONTINUOUS
 10
-0.409598
 20
0.014772
  0
VERTEX
  8
PLAN_1
 62
     2
  6
CONTINUOUS
 10
-0.410555
 20
0.015724
  0
VERTEX
  8
PLAN_1
 62
     2
  6
CONTINUOUS
 10
-0.411031
 20
0.017157
  0
VERTEX
  8
PLAN_1
 62
     2
  6
CONTINUOUS
 10
-0.411031
 20
0.018594
  0
VERTEX
  8
PLAN_1
 62
     2
  6
CONTINUOUS
 10
-0.411508
 20
0.020504
  0
VERTEX
  8
PLAN_1
 62
     2
  6
CONTINUOUS
 10
-0.412941
 20
0.019071
  0
VERTEX
  8
PLAN_1
 62
     2
  6
CONTINUOUS
 10
-0.414378
 20
0.017157
  0
VERTEX
  8
PLAN_1
 62
     2
  6
CONTINUOUS
 10
-0.416287
 20
0.015724
  0
VERTEX
  8
PLAN_1
 62
     2
  6
CONTINUOUS
 10
-0.418677
 20
0.014291
  0
VERTEX
  8
PLAN_1
 62
     2
  6
CONTINUOUS
 10
-0.421067
 20
0.013335
  0
VERTEX
  8
PLAN_1
 62
     2
  6
CONTINUOUS
 10
-0.423933
 20
0.012382
  0
VERTEX
  8
PLAN_1
 62
     2
  6
CONTINUOUS
 10
-0.427280
 20
0.011902
  0
VERTEX
  8
PLAN_1
 62
     2
  6
CONTINUOUS
 10
-0.431102
 20
0.011425
  0
VERTEX
  8
PLAN_1
 62
     2
  6
CONTINUOUS
 10
-0.434449
 20
0.011902
  0
VERTEX
  8
PLAN_1
 62
     2
  6
CONTINUOUS
 10
-0.437791
 20
0.012858
  0
VERTEX
  8
PLAN_1
 62
     2
  6
CONTINUOUS
 10
-0.440661
 20
0.013815
  0
VERTEX
  8
PLAN_1
 62
     2
  6
CONTINUOUS
 10
-0.443528
 20
0.015724
  0
VERTEX
  8
PLAN_1
 62
     2
  6
CONTINUOUS
 10
-0.445437
 20
0.018114
  0
VERTEX
  8
PLAN_1
 62
     2
  6
CONTINUOUS
 10
-0.446870
 20
0.020980
  0
VERTEX
  8
PLAN_1
 62
     2
  6
CONTINUOUS
 10
-0.447827
 20
0.023850
  0
VERTEX
  8
PLAN_1
 62
     2
  6
CONTINUOUS
 10
-0.448307
 20
0.027193
  0
VERTEX
  8
PLAN_1
 62
     2
  6
CONTINUOUS
 10
-0.447827
 20
0.029106
  0
VERTEX
  8
PLAN_1
 62
     2
  6
CONTINUOUS
 10
-0.447827
 20
0.031496
  0
VERTEX
  8
PLAN_1
 62
     2
  6
CONTINUOUS
 10
-0.446870
 20
0.033886
  0
VERTEX
  8
PLAN_1
 62
     2
  6
CONTINUOUS
 10
-0.445437
 20
0.036752
  0
VERTEX
  8
PLAN_1
 62
     2
  6
CONTINUOUS
 10
-0.443528
 20
0.039142
  0
VERTEX
  8
PLAN_1
 62
     2
  6
CONTINUOUS
 10
-0.440661
 20
0.041531
  0
VERTEX
  8
PLAN_1
 62
     2
  6
CONTINUOUS
 10
-0.438748
 20
0.042488
  0
VERTEX
  8
PLAN_1
 62
     2
  6
CONTINUOUS
 10
-0.436835
 20
0.042965
  0
VERTEX
  8
PLAN_1
 62
     2
  6
CONTINUOUS
 10
-0.434449
 20
0.043921
  0
VERTEX
  8
PLAN_1
 62
     2
  6
CONTINUOUS
 10
-0.431579
 20
0.044398
  0
VERTEX
  8
PLAN_1
 62
     2
  6
CONTINUOUS
 10
-0.416287
 20
0.046311
  0
VERTEX
  8
PLAN_1
 62
     2
  6
CONTINUOUS
 10
-0.415811
 20
0.046311
  0
VERTEX
  8
PLAN_1
 62
     2
  6
CONTINUOUS
 10
-0.414854
 20
0.046311
  0
VERTEX
  8
PLAN_1
 62
     2
  6
CONTINUOUS
 10
-0.413898
 20
0.046787
  0
VERTEX
  8
PLAN_1
 62
     2
  6
CONTINUOUS
 10
-0.413421
 20
0.047264
  0
VERTEX
  8
PLAN_1
 62
     2
  6
CONTINUOUS
 10
-0.412465
 20
0.048220
  0
VERTEX
  8
PLAN_1
 62
     2
  6
CONTINUOUS
 10
-0.411988
 20
0.049177
  0
VERTEX
  8
PLAN_1
 62
     2
  6
CONTINUOUS
 10
-0.411988
 20
0.050610
  0
VERTEX
  8
PLAN_1
 62
     2
  6
CONTINUOUS
 10
-0.411508
 20
0.052524
  0
VERTEX
  8
PLAN_1
 62
     2
  6
CONTINUOUS
 10
-0.411988
 20
0.054433
  0
VERTEX
  8
PLAN_1
 62
     2
  6
CONTINUOUS
 10
-0.412465
 20
0.056346
  0
VERTEX
  8
PLAN_1
 62
     2
  6
CONTINUOUS
 10
-0.413421
 20
0.057780
  0
VERTEX
  8
PLAN_1
 62
     2
  6
CONTINUOUS
 10
-0.414854
 20
0.059213
  0
VERTEX
  8
PLAN_1
 62
     2
  6
CONTINUOUS
 10
-0.416768
 20
0.060169
  0
VERTEX
  8
PLAN_1
 62
     2
  6
CONTINUOUS
 10
-0.418677
 20
0.060646
  0
VERTEX
  8
PLAN_1
 62
     2
  6
CONTINUOUS
 10
-0.421543
 20
0.061122
  0
VERTEX
  8
PLAN_1
 62
     2
  6
CONTINUOUS
 10
-0.424413
 20
0.061602
  0
VERTEX
  8
PLAN_1
 62
     2
  6
CONTINUOUS
 10
-0.427756
 20
0.061122
  0
VERTEX
  8
PLAN_1
 62
     2
  6
CONTINUOUS
 10
-0.430626
 20
0.060169
  0
VERTEX
  8
PLAN_1
 62
     2
  6
CONTINUOUS
 10
-0.433012
 20
0.059213
  0
VERTEX
  8
PLAN_1
 62
     2
  6
CONTINUOUS
 10
-0.434449
 20
0.057780
  0
VERTEX
  8
PLAN_1
 62
     2
  6
CONTINUOUS
 10
-0.435402
 20
0.055866
  0
VERTEX
  8
PLAN_1
 62
     2
  6
CONTINUOUS
 10
-0.436358
 20
0.054433
  0
VERTEX
  8
PLAN_1
 62
     2
  6
CONTINUOUS
 10
-0.436835
 20
0.052524
  0
VERTEX
  8
PLAN_1
 62
     2
  6
CONTINUOUS
 10
-0.436835
 20
0.051087
  0
VERTEX
  8
PLAN_1
 62
     2
  6
CONTINUOUS
 10
-0.445437
 20
0.051087
  0
SEQEND
  8
0
  0
POLYLINE
  8
PLAN_1
 62
     2
  6
CONTINUOUS
 66
     1
 40
0.003000
 41
0.003000
  0
VERTEX
  8
PLAN_1
 62
     2
  6
CONTINUOUS
 10
-0.411988
 20
0.041051
  0
VERTEX
  8
PLAN_1
 62
     2
  6
CONTINUOUS
 10
-0.412465
 20
0.040575
  0
VERTEX
  8
PLAN_1
 62
     2
  6
CONTINUOUS
 10
-0.413421
 20
0.040098
  0
VERTEX
  8
PLAN_1
 62
     2
  6
CONTINUOUS
 10
-0.414378
 20
0.039618
  0
VERTEX
  8
PLAN_1
 62
     2
  6
CONTINUOUS
 10
-0.415811
 20
0.039142
  0
VERTEX
  8
PLAN_1
 62
     2
  6
CONTINUOUS
 10
-0.417720
 20
0.038665
  0
VERTEX
  8
PLAN_1
 62
     2
  6
CONTINUOUS
 10
-0.420110
 20
0.038185
  0
VERTEX
  8
PLAN_1
 62
     2
  6
CONTINUOUS
 10
-0.422976
 20
0.037709
  0
VERTEX
  8
PLAN_1
 62
     2
  6
CONTINUOUS
 10
-0.426799
 20
0.037228
  0
VERTEX
  8
PLAN_1
 62
     2
  6
CONTINUOUS
 10
-0.428713
 20
0.037228
  0
VERTEX
  8
PLAN_1
 62
     2
  6
CONTINUOUS
 10
-0.430626
 20
0.036752
  0
VERTEX
  8
PLAN_1
 62
     2
  6
CONTINUOUS
 10
-0.432535
 20
0.036276
  0
VERTEX
  8
PLAN_1
 62
     2
  6
CONTINUOUS
 10
-0.434449
 20
0.035319
  0
VERTEX
  8
PLAN_1
 62
     2
  6
CONTINUOUS
 10
-0.435882
 20
0.034362
  0
VERTEX
  8
PLAN_1
 62
     2
  6
CONTINUOUS
 10
-0.437315
 20
0.032929
  0
VERTEX
  8
PLAN_1
 62
     2
  6
CONTINUOUS
 10
-0.438272
 20
0.031016
  0
VERTEX
  8
PLAN_1
 62
     2
  6
CONTINUOUS
 10
-0.438748
 20
0.028630
  0
VERTEX
  8
PLAN_1
 62
     2
  6
CONTINUOUS
 10
-0.438272
 20
0.026240
  0
VERTEX
  8
PLAN_1
 62
     2
  6
CONTINUOUS
 10
-0.438272
 20
0.024327
  0
VERTEX
  8
PLAN_1
 62
     2
  6
CONTINUOUS
 10
-0.437315
 20
0.022894
  0
VERTEX
  8
PLAN_1
 62
     2
  6
CONTINUOUS
 10
-0.436358
 20
0.021461
  0
VERTEX
  8
PLAN_1
 62
     2
  6
CONTINUOUS
 10
-0.434925
 20
0.020504
  0
VERTEX
  8
PLAN_1
 62
     2
  6
CONTINUOUS
 10
-0.433012
 20
0.019547
  0
VERTEX
  8
PLAN_1
 62
     2
  6
CONTINUOUS
 10
-0.431102
 20
0.019071
  0
VERTEX
  8
PLAN_1
 62
     2
  6
CONTINUOUS
 10
-0.428713
 20
0.019071
  0
VERTEX
  8
PLAN_1
 62
     2
  6
CONTINUOUS
 10
-0.425366
 20
0.019547
  0
VERTEX
  8
PLAN_1
 62
     2
  6
CONTINUOUS
 10
-0.422500
 20
0.020028
  0
VERTEX
  8
PLAN_1
 62
     2
  6
CONTINUOUS
 10
-0.419634
 20
0.020980
  0
VERTEX
  8
PLAN_1
 62
     2
  6
CONTINUOUS
 10
-0.417244
 20
0.022894
  0
VERTEX
  8
PLAN_1
 62
     2
  6
CONTINUOUS
 10
-0.414854
 20
0.024807
  0
VERTEX
  8
PLAN_1
 62
     2
  6
CONTINUOUS
 10
-0.413421
 20
0.026717
  0
VERTEX
  8
PLAN_1
 62
     2
  6
CONTINUOUS
 10
-0.412465
 20
0.029106
  0
VERTEX
  8
PLAN_1
 62
     2
  6
CONTINUOUS
 10
-0.411988
 20
0.031972
  0
VERTEX
  8
PLAN_1
 62
     2
  6
CONTINUOUS
 10
-0.411988
 20
0.041051
  0
SEQEND
  8
0
  0
POLYLINE
  8
PLAN_1
 62
     2
  6
CONTINUOUS
 66
     1
 40
0.003000
 41
0.003000
  0
VERTEX
  8
PLAN_1
 62
     2
  6
CONTINUOUS
 10
-0.351776
 20
0.012858
  0
VERTEX
  8
PLAN_1
 62
     2
  6
CONTINUOUS
 10
-0.351776
 20
0.020980
  0
VERTEX
  8
PLAN_1
 62
     2
  6
CONTINUOUS
 10
-0.353209
 20
0.019071
  0
VERTEX
  8
PLAN_1
 62
     2
  6
CONTINUOUS
 10
-0.355118
 20
0.017157
  0
VERTEX
  8
PLAN_1
 62
     2
  6
CONTINUOUS
 10
-0.356555
 20
0.015248
  0
VERTEX
  8
PLAN_1
 62
     2
  6
CONTINUOUS
 10
-0.358941
 20
0.013815
  0
VERTEX
  8
PLAN_1
 62
     2
  6
CONTINUOUS
 10
-0.360854
 20
0.012858
  0
VERTEX
  8
PLAN_1
 62
     2
  6
CONTINUOUS
 10
-0.363244
 20
0.011902
  0
VERTEX
  8
PLAN_1
 62
     2
  6
CONTINUOUS
 10
-0.366110
 20
0.011425
  0
VERTEX
  8
PLAN_1
 62
     2
  6
CONTINUOUS
 10
-0.368976
 20
0.011425
  0
VERTEX
  8
PLAN_1
 62
     2
  6
CONTINUOUS
 10
-0.372323
 20
0.011902
  0
VERTEX
  8
PLAN_1
 62
     2
  6
CONTINUOUS
 10
-0.375189
 20
0.012382
  0
VERTEX
  8
PLAN_1
 62
     2
  6
CONTINUOUS
 10
-0.378535
 20
0.013335
  0
VERTEX
  8
PLAN_1
 62
     2
  6
CONTINUOUS
 10
-0.380925
 20
0.015248
  0
VERTEX
  8
PLAN_1
 62
     2
  6
CONTINUOUS
 10
-0.383315
 20
0.017157
  0
VERTEX
  8
PLAN_1
 62
     2
  6
CONTINUOUS
 10
-0.385224
 20
0.020028
  0
VERTEX
  8
PLAN_1
 62
     2
  6
CONTINUOUS
 10
-0.386661
 20
0.023850
  0
VERTEX
  8
PLAN_1
 62
     2
  6
CONTINUOUS
 10
-0.386661
 20
0.028150
  0
VERTEX
  8
PLAN_1
 62
     2
  6
CONTINUOUS
 10
-0.386661
 20
0.067335
  0
VERTEX
  8
PLAN_1
 62
     2
  6
CONTINUOUS
 10
-0.377579
 20
0.067335
  0
VERTEX
  8
PLAN_1
 62
     2
  6
CONTINUOUS
 10
-0.377579
 20
0.031496
  0
VERTEX
  8
PLAN_1
 62
     2
  6
CONTINUOUS
 10
-0.377579
 20
0.028150
  0
VERTEX
  8
PLAN_1
 62
     2
  6
CONTINUOUS
 10
-0.377102
 20
0.025760
  0
VERTEX
  8
PLAN_1
 62
     2
  6
CONTINUOUS
 10
-0.376146
 20
0.023850
  0
VERTEX
  8
PLAN_1
 62
     2
  6
CONTINUOUS
 10
-0.374713
 20
0.021937
  0
VERTEX
  8
PLAN_1
 62
     2
  6
CONTINUOUS
 10
-0.373280
 20
0.020980
  0
VERTEX
  8
PLAN_1
 62
     2
  6
CONTINUOUS
 10
-0.371366
 20
0.020028
  0
VERTEX
  8
PLAN_1
 62
     2
  6
CONTINUOUS
 10
-0.369457
 20
0.019547
  0
VERTEX
  8
PLAN_1
 62
     2
  6
CONTINUOUS
 10
-0.367067
 20
0.019547
  0
VERTEX
  8
PLAN_1
 62
     2
  6
CONTINUOUS
 10
-0.365154
 20
0.019547
  0
VERTEX
  8
PLAN_1
 62
     2
  6
CONTINUOUS
 10
-0.363244
 20
0.020028
  0
VERTEX
  8
PLAN_1
 62
     2
  6
CONTINUOUS
 10
-0.361331
 20
0.020504
  0
VERTEX
  8
PLAN_1
 62
     2
  6
CONTINUOUS
 10
-0.359898
 20
0.020980
  0
VERTEX
  8
PLAN_1
 62
     2
  6
CONTINUOUS
 10
-0.357508
 20
0.022894
  0
VERTEX
  8
PLAN_1
 62
     2
  6
CONTINUOUS
 10
-0.355598
 20
0.025283
  0
VERTEX
  8
PLAN_1
 62
     2
  6
CONTINUOUS
 10
-0.353685
 20
0.028150
  0
VERTEX
  8
PLAN_1
 62
     2
  6
CONTINUOUS
 10
-0.352732
 20
0.031496
  0
VERTEX
  8
PLAN_1
 62
     2
  6
CONTINUOUS
 10
-0.352252
 20
0.034362
  0
VERTEX
  8
PLAN_1
 62
     2
  6
CONTINUOUS
 10
-0.352252
 20
0.037709
  0
VERTEX
  8
PLAN_1
 62
     2
  6
CONTINUOUS
 10
-0.352252
 20
0.067335
  0
VERTEX
  8
PLAN_1
 62
     2
  6
CONTINUOUS
 10
-0.343173
 20
0.067335
  0
VERTEX
  8
PLAN_1
 62
     2
  6
CONTINUOUS
 10
-0.343173
 20
0.012858
  0
VERTEX
  8
PLAN_1
 62
     2
  6
CONTINUOUS
 10
-0.351776
 20
0.012858
  0
SEQEND
  8
0
  0
POLYLINE
  8
PLAN_1
 62
     2
  6
CONTINUOUS
 66
     1
 40
0.003000
 41
0.003000
  0
VERTEX
  8
PLAN_1
 62
     2
  6
CONTINUOUS
 10
-0.283917
 20
0.012858
  0
VERTEX
  8
PLAN_1
 62
     2
  6
CONTINUOUS
 10
-0.292996
 20
0.012858
  0
VERTEX
  8
PLAN_1
 62
     2
  6
CONTINUOUS
 10
-0.292996
 20
0.020504
  0
VERTEX
  8
PLAN_1
 62
     2
  6
CONTINUOUS
 10
-0.294429
 20
0.018114
  0
VERTEX
  8
PLAN_1
 62
     2
  6
CONTINUOUS
 10
-0.296343
 20
0.016205
  0
VERTEX
  8
PLAN_1
 62
     2
  6
CONTINUOUS
 10
-0.298252
 20
0.014291
  0
VERTEX
  8
PLAN_1
 62
     2
  6
CONTINUOUS
 10
-0.300165
 20
0.013335
  0
VERTEX
  8
PLAN_1
 62
     2
  6
CONTINUOUS
 10
-0.302075
 20
0.012382
  0
VERTEX
  8
PLAN_1
 62
     2
  6
CONTINUOUS
 10
-0.304465
 20
0.011902
  0
VERTEX
  8
PLAN_1
 62
     2
  6
CONTINUOUS
 10
-0.306378
 20
0.011425
  0
VERTEX
  8
PLAN_1
 62
     2
  6
CONTINUOUS
 10
-0.308287
 20
0.011425
  0
VERTEX
  8
PLAN_1
 62
     2
  6
CONTINUOUS
 10
-0.311634
 20
0.011902
  0
VERTEX
  8
PLAN_1
 62
     2
  6
CONTINUOUS
 10
-0.314980
 20
0.012382
  0
VERTEX
  8
PLAN_1
 62
     2
  6
CONTINUOUS
 10
-0.317366
 20
0.013335
  0
VERTEX
  8
PLAN_1
 62
     2
  6
CONTINUOUS
 10
-0.320236
 20
0.014291
  0
VERTEX
  8
PLAN_1
 62
     2
  6
CONTINUOUS
 10
-0.322146
 20
0.015724
  0
VERTEX
  8
PLAN_1
 62
     2
  6
CONTINUOUS
 10
-0.324059
 20
0.017638
  0
VERTEX
  8
PLAN_1
 62
     2
  6
CONTINUOUS
 10
-0.325969
 20
0.019547
  0
VERTEX
  8
PLAN_1
 62
     2
  6
CONTINUOUS
 10
-0.327402
 20
0.021937
  0
VERTEX
  8
PLAN_1
 62
     2
  6
CONTINUOUS
 10
-0.329791
 20
0.026717
  0
VERTEX
  8
PLAN_1
 62
     2
  6
CONTINUOUS
 10
-0.331224
 20
0.031496
  0
VERTEX
  8
PLAN_1
 62
     2
  6
CONTINUOUS
 10
-0.332181
 20
0.036752
  0
VERTEX
  8
PLAN_1
 62
     2
  6
CONTINUOUS
 10
-0.332181
 20
0.042008
  0
VERTEX
  8
PLAN_1
 62
     2
  6
CONTINUOUS
 10
-0.332181
 20
0.047264
  0
VERTEX
  8
PLAN_1
 62
     2
  6
CONTINUOUS
 10
-0.330748
 20
0.052524
  0
VERTEX
  8
PLAN_1
 62
     2
  6
CONTINUOUS
 10
-0.328839
 20
0.057299
  0
VERTEX
  8
PLAN_1
 62
     2
  6
CONTINUOUS
 10
-0.326449
 20
0.061122
  0
VERTEX
  8
PLAN_1
 62
     2
  6
CONTINUOUS
 10
-0.325012
 20
0.063035
  0
VERTEX
  8
PLAN_1
 62
     2
  6
CONTINUOUS
 10
-0.323102
 20
0.064469
  0
VERTEX
  8
PLAN_1
 62
     2
  6
CONTINUOUS
 10
-0.321189
 20
0.065902
  0
VERTEX
  8
PLAN_1
 62
     2
  6
CONTINUOUS
 10
-0.319280
 20
0.066858
  0
VERTEX
  8
PLAN_1
 62
     2
  6
CONTINUOUS
 10
-0.317366
 20
0.067815
  0
VERTEX
  8
PLAN_1
 62
     2
  6
CONTINUOUS
 10
-0.314980
 20
0.068291
  0
VERTEX
  8
PLAN_1
 62
     2
  6
CONTINUOUS
 10
-0.312591
 20
0.068772
  0
VERTEX
  8
PLAN_1
 62
     2
  6
CONTINUOUS
 10
-0.309720
 20
0.069248
  0
VERTEX
  8
PLAN_1
 62
     2
  6
CONTINUOUS
 10
-0.306378
 20
0.068772
  0
VERTEX
  8
PLAN_1
 62
     2
  6
CONTINUOUS
 10
-0.303508
 20
0.067815
  0
VERTEX
  8
PLAN_1
 62
     2
  6
CONTINUOUS
 10
-0.300642
 20
0.066858
  0
VERTEX
  8
PLAN_1
 62
     2
  6
CONTINUOUS
 10
-0.298732
 20
0.065425
  0
VERTEX
  8
PLAN_1
 62
     2
  6
CONTINUOUS
 10
-0.296819
 20
0.063992
  0
VERTEX
  8
PLAN_1
 62
     2
  6
CONTINUOUS
 10
-0.295386
 20
0.062559
  0
VERTEX
  8
PLAN_1
 62
     2
  6
CONTINUOUS
 10
-0.294429
 20
0.061122
  0
VERTEX
  8
PLAN_1
 62
     2
  6
CONTINUOUS
 10
-0.293472
 20
0.059689
  0
VERTEX
  8
PLAN_1
 62
     2
  6
CONTINUOUS
 10
-0.293472
 20
0.060646
  0
VERTEX
  8
PLAN_1
 62
     2
  6
CONTINUOUS
 10
-0.293472
 20
0.087886
  0
VERTEX
  8
PLAN_1
 62
     2
  6
CONTINUOUS
 10
-0.283917
 20
0.087886
  0
VERTEX
  8
PLAN_1
 62
     2
  6
CONTINUOUS
 10
-0.283917
 20
0.012858
  0
SEQEND
  8
0
  0
POLYLINE
  8
PLAN_1
 62
     2
  6
CONTINUOUS
 66
     1
 40
0.003000
 41
0.003000
  0
VERTEX
  8
PLAN_1
 62
     2
  6
CONTINUOUS
 10
-0.308287
 20
0.019547
  0
VERTEX
  8
PLAN_1
 62
     2
  6
CONTINUOUS
 10
-0.305898
 20
0.019547
  0
VERTEX
  8
PLAN_1
 62
     2
  6
CONTINUOUS
 10
-0.303508
 20
0.020028
  0
VERTEX
  8
PLAN_1
 62
     2
  6
CONTINUOUS
 10
-0.301118
 20
0.021461
  0
VERTEX
  8
PLAN_1
 62
     2
  6
CONTINUOUS
 10
-0.298732
 20
0.022894
  0
VERTEX
  8
PLAN_1
 62
     2
  6
CONTINUOUS
 10
-0.296343
 20
0.025760
  0
VERTEX
  8
PLAN_1
 62
     2
  6
CONTINUOUS
 10
-0.294909
 20
0.028630
  0
VERTEX
  8
PLAN_1
 62
     2
  6
CONTINUOUS
 10
-0.293953
 20
0.032929
  0
VERTEX
  8
PLAN_1
 62
     2
  6
CONTINUOUS
 10
-0.293472
 20
0.037709
  0
VERTEX
  8
PLAN_1
 62
     2
  6
CONTINUOUS
 10
-0.293472
 20
0.041051
  0
VERTEX
  8
PLAN_1
 62
     2
  6
CONTINUOUS
 10
-0.293953
 20
0.044878
  0
VERTEX
  8
PLAN_1
 62
     2
  6
CONTINUOUS
 10
-0.294429
 20
0.048701
  0
VERTEX
  8
PLAN_1
 62
     2
  6
CONTINUOUS
 10
-0.295862
 20
0.052524
  0
VERTEX
  8
PLAN_1
 62
     2
  6
CONTINUOUS
 10
-0.296819
 20
0.054433
  0
VERTEX
  8
PLAN_1
 62
     2
  6
CONTINUOUS
 10
-0.297776
 20
0.055866
  0
VERTEX
  8
PLAN_1
 62
     2
  6
CONTINUOUS
 10
-0.298732
 20
0.057299
  0
VERTEX
  8
PLAN_1
 62
     2
  6
CONTINUOUS
 10
-0.300165
 20
0.058256
  0
VERTEX
  8
PLAN_1
 62
     2
  6
CONTINUOUS
 10
-0.301598
 20
0.059213
  0
VERTEX
  8
PLAN_1
 62
     2
  6
CONTINUOUS
 10
-0.303508
 20
0.060169
  0
VERTEX
  8
PLAN_1
 62
     2
  6
CONTINUOUS
 10
-0.305898
 20
0.060646
  0
VERTEX
  8
PLAN_1
 62
     2
  6
CONTINUOUS
 10
-0.308287
 20
0.060646
  0
VERTEX
  8
PLAN_1
 62
     2
  6
CONTINUOUS
 10
-0.310677
 20
0.060646
  0
VERTEX
  8
PLAN_1
 62
     2
  6
CONTINUOUS
 10
-0.312591
 20
0.060169
  0
VERTEX
  8
PLAN_1
 62
     2
  6
CONTINUOUS
 10
-0.314500
 20
0.059689
  0
VERTEX
  8
PLAN_1
 62
     2
  6
CONTINUOUS
 10
-0.316413
 20
0.058736
  0
VERTEX
  8
PLAN_1
 62
     2
  6
CONTINUOUS
 10
-0.317846
 20
0.057299
  0
VERTEX
  8
PLAN_1
 62
     2
  6
CONTINUOUS
 10
-0.318803
 20
0.056346
  0
VERTEX
  8
PLAN_1
 62
     2
  6
CONTINUOUS
 10
-0.319756
 20
0.054909
  0
VERTEX
  8
PLAN_1
 62
     2
  6
CONTINUOUS
 10
-0.320713
 20
0.053000
  0
VERTEX
  8
PLAN_1
 62
     2
  6
CONTINUOUS
 10
-0.322146
 20
0.050134
  0
VERTEX
  8
PLAN_1
 62
     2
  6
CONTINUOUS
 10
-0.322626
 20
0.046311
  0
VERTEX
  8
PLAN_1
 62
     2
  6
CONTINUOUS
 10
-0.323102
 20
0.043441
  0
VERTEX
  8
PLAN_1
 62
     2
  6
CONTINUOUS
 10
-0.323102
 20
0.040575
  0
VERTEX
  8
PLAN_1
 62
     2
  6
CONTINUOUS
 10
-0.322626
 20
0.036276
  0
VERTEX
  8
PLAN_1
 62
     2
  6
CONTINUOUS
 10
-0.322146
 20
0.031972
  0
VERTEX
  8
PLAN_1
 62
     2
  6
CONTINUOUS
 10
-0.320713
 20
0.028630
  0
VERTEX
  8
PLAN_1
 62
     2
  6
CONTINUOUS
 10
-0.319280
 20
0.025283
  0
VERTEX
  8
PLAN_1
 62
     2
  6
CONTINUOUS
 10
-0.317366
 20
0.022894
  0
VERTEX
  8
PLAN_1
 62
     2
  6
CONTINUOUS
 10
-0.314980
 20
0.020980
  0
VERTEX
  8
PLAN_1
 62
     2
  6
CONTINUOUS
 10
-0.311634
 20
0.020028
  0
VERTEX
  8
PLAN_1
 62
     2
  6
CONTINUOUS
 10
-0.308287
 20
0.019547
  0
SEQEND
  8
0
  0
SOLID
  8
PLAN_1
 62
     2
 10
-0.246642
 20
0.074504
 11
-0.253811
 21
0.074504
 12
-0.233260
 22
0.089319
 13
-0.244732
 23
0.089319
  0
POLYLINE
  8
PLAN_1
 62
     2
  6
CONTINUOUS
 66
     1
 40
0.003000
 41
0.003000
  0
VERTEX
  8
PLAN_1
 62
     2
  6
CONTINUOUS
 10
-0.246642
 20
0.074504
  0
VERTEX
  8
PLAN_1
 62
     2
  6
CONTINUOUS
 10
-0.253811
 20
0.074504
  0
VERTEX
  8
PLAN_1
 62
     2
  6
CONTINUOUS
 10
-0.244732
 20
0.089319
  0
VERTEX
  8
PLAN_1
 62
     2
  6
CONTINUOUS
 10
-0.233260
 20
0.089319
  0
VERTEX
  8
PLAN_1
 62
     2
  6
CONTINUOUS
 10
-0.246642
 20
0.074504
  0
SEQEND
  8
0
  0
POLYLINE
  8
PLAN_1
 62
     2
  6
CONTINUOUS
 66
     1
 40
0.003000
 41
0.003000
  0
VERTEX
  8
PLAN_1
 62
     2
  6
CONTINUOUS
 10
-0.225138
 20
0.030063
  0
VERTEX
  8
PLAN_1
 62
     2
  6
CONTINUOUS
 10
-0.225614
 20
0.029106
  0
VERTEX
  8
PLAN_1
 62
     2
  6
CONTINUOUS
 10
-0.226094
 20
0.027193
  0
VERTEX
  8
PLAN_1
 62
     2
  6
CONTINUOUS
 10
-0.226571
 20
0.025283
  0
VERTEX
  8
PLAN_1
 62
     2
  6
CONTINUOUS
 10
-0.227528
 20
0.023370
  0
VERTEX
  8
PLAN_1
 62
     2
  6
CONTINUOUS
 10
-0.228961
 20
0.021461
  0
VERTEX
  8
PLAN_1
 62
     2
  6
CONTINUOUS
 10
-0.230394
 20
0.019071
  0
VERTEX
  8
PLAN_1
 62
     2
  6
CONTINUOUS
 10
-0.232307
 20
0.017157
  0
VERTEX
  8
PLAN_1
 62
     2
  6
CONTINUOUS
 10
-0.234697
 20
0.015248
  0
VERTEX
  8
PLAN_1
 62
     2
  6
CONTINUOUS
 10
-0.235650
 20
0.014772
  0
VERTEX
  8
PLAN_1
 62
     2
  6
CONTINUOUS
 10
-0.237087
 20
0.013815
  0
VERTEX
  8
PLAN_1
 62
     2
  6
CONTINUOUS
 10
-0.238520
 20
0.013335
  0
VERTEX
  8
PLAN_1
 62
     2
  6
CONTINUOUS
 10
-0.239953
 20
0.012858
  0
VERTEX
  8
PLAN_1
 62
     2
  6
CONTINUOUS
 10
-0.241862
 20
0.012382
  0
VERTEX
  8
PLAN_1
 62
     2
  6
CONTINUOUS
 10
-0.243776
 20
0.011902
  0
VERTEX
  8
PLAN_1
 62
     2
  6
CONTINUOUS
 10
-0.246642
 20
0.011425
  0
VERTEX
  8
PLAN_1
 62
     2
  6
CONTINUOUS
 10
-0.249508
 20
0.011425
  0
VERTEX
  8
PLAN_1
 62
     2
  6
CONTINUOUS
 10
-0.252378
 20
0.011425
  0
VERTEX
  8
PLAN_1
 62
     2
  6
CONTINUOUS
 10
-0.255244
 20
0.011902
  0
VERTEX
  8
PLAN_1
 62
     2
  6
CONTINUOUS
 10
-0.257634
 20
0.012858
  0
VERTEX
  8
PLAN_1
 62
     2
  6
CONTINUOUS
 10
-0.260024
 20
0.013335
  0
VERTEX
  8
PLAN_1
 62
     2
  6
CONTINUOUS
 10
-0.261933
 20
0.014772
  0
VERTEX
  8
PLAN_1
 62
     2
  6
CONTINUOUS
 10
-0.263846
 20
0.016205
  0
VERTEX
  8
PLAN_1
 62
     2
  6
CONTINUOUS
 10
-0.265756
 20
0.017638
  0
VERTEX
  8
PLAN_1
 62
     2
  6
CONTINUOUS
 10
-0.267669
 20
0.019071
  0
VERTEX
  8
PLAN_1
 62
     2
  6
CONTINUOUS
 10
-0.269102
 20
0.020980
  0
VERTEX
  8
PLAN_1
 62
     2
  6
CONTINUOUS
 10
-0.270535
 20
0.023370
  0
VERTEX
  8
PLAN_1
 62
     2
  6
CONTINUOUS
 10
-0.271492
 20
0.025283
  0
VERTEX
  8
PLAN_1
 62
     2
  6
CONTINUOUS
 10
-0.272449
 20
0.027673
  0
VERTEX
  8
PLAN_1
 62
     2
  6
CONTINUOUS
 10
-0.273402
 20
0.032929
  0
VERTEX
  8
PLAN_1
 62
     2
  6
CONTINUOUS
 10
-0.273882
 20
0.038665
  0
VERTEX
  8
PLAN_1
 62
     2
  6
CONTINUOUS
 10
-0.273402
 20
0.044878
  0
VERTEX
  8
PLAN_1
 62
     2
  6
CONTINUOUS
 10
-0.272449
 20
0.050610
  0
VERTEX
  8
PLAN_1
 62
     2
  6
CONTINUOUS
 10
-0.271492
 20
0.053000
  0
VERTEX
  8
PLAN_1
 62
     2
  6
CONTINUOUS
 10
-0.270535
 20
0.055866
  0
VERTEX
  8
PLAN_1
 62
     2
  6
CONTINUOUS
 10
-0.269102
 20
0.058256
  0
VERTEX
  8
PLAN_1
 62
     2
  6
CONTINUOUS
 10
-0.267669
 20
0.060169
  0
VERTEX
  8
PLAN_1
 62
     2
  6
CONTINUOUS
 10
-0.265756
 20
0.062079
  0
VERTEX
  8
PLAN_1
 62
     2
  6
CONTINUOUS
 10
-0.263846
 20
0.063992
  0
VERTEX
  8
PLAN_1
 62
     2
  6
CONTINUOUS
 10
-0.261933
 20
0.065425
  0
VERTEX
  8
PLAN_1
 62
     2
  6
CONTINUOUS
 10
-0.259543
 20
0.066858
  0
VERTEX
  8
PLAN_1
 62
     2
  6
CONTINUOUS
 10
-0.257157
 20
0.067815
  0
VERTEX
  8
PLAN_1
 62
     2
  6
CONTINUOUS
 10
-0.254287
 20
0.068291
  0
VERTEX
  8
PLAN_1
 62
     2
  6
CONTINUOUS
 10
-0.250945
 20
0.068772
  0
VERTEX
  8
PLAN_1
 62
     2
  6
CONTINUOUS
 10
-0.248075
 20
0.069248
  0
VERTEX
  8
PLAN_1
 62
     2
  6
CONTINUOUS
 10
-0.245209
 20
0.068772
  0
VERTEX
  8
PLAN_1
 62
     2
  6
CONTINUOUS
 10
-0.242343
 20
0.068291
  0
VERTEX
  8
PLAN_1
 62
     2
  6
CONTINUOUS
 10
-0.239953
 20
0.067815
  0
VERTEX
  8
PLAN_1
 62
     2
  6
CONTINUOUS
 10
-0.237563
 20
0.066858
  0
VERTEX
  8
PLAN_1
 62
     2
  6
CONTINUOUS
 10
-0.235650
 20
0.065425
  0
VERTEX
  8
PLAN_1
 62
     2
  6
CONTINUOUS
 10
-0.233740
 20
0.063992
  0
VERTEX
  8
PLAN_1
 62
     2
  6
CONTINUOUS
 10
-0.231827
 20
0.062559
  0
VERTEX
  8
PLAN_1
 62
     2
  6
CONTINUOUS
 10
-0.230394
 20
0.060169
  0
VERTEX
  8
PLAN_1
 62
     2
  6
CONTINUOUS
 10
-0.228961
 20
0.058256
  0
VERTEX
  8
PLAN_1
 62
     2
  6
CONTINUOUS
 10
-0.227528
 20
0.055866
  0
VERTEX
  8
PLAN_1
 62
     2
  6
CONTINUOUS
 10
-0.226571
 20
0.053000
  0
VERTEX
  8
PLAN_1
 62
     2
  6
CONTINUOUS
 10
-0.226094
 20
0.050134
  0
VERTEX
  8
PLAN_1
 62
     2
  6
CONTINUOUS
 10
-0.224661
 20
0.044398
  0
VERTEX
  8
PLAN_1
 62
     2
  6
CONTINUOUS
 10
-0.224661
 20
0.037228
  0
VERTEX
  8
PLAN_1
 62
     2
  6
CONTINUOUS
 10
-0.264323
 20
0.037228
  0
VERTEX
  8
PLAN_1
 62
     2
  6
CONTINUOUS
 10
-0.263846
 20
0.033406
  0
VERTEX
  8
PLAN_1
 62
     2
  6
CONTINUOUS
 10
-0.263366
 20
0.029583
  0
VERTEX
  8
PLAN_1
 62
     2
  6
CONTINUOUS
 10
-0.261933
 20
0.026717
  0
VERTEX
  8
PLAN_1
 62
     2
  6
CONTINUOUS
 10
-0.260024
 20
0.023850
  0
VERTEX
  8
PLAN_1
 62
     2
  6
CONTINUOUS
 10
-0.258110
 20
0.021937
  0
VERTEX
  8
PLAN_1
 62
     2
  6
CONTINUOUS
 10
-0.255244
 20
0.020504
  0
VERTEX
  8
PLAN_1
 62
     2
  6
CONTINUOUS
 10
-0.251898
 20
0.019547
  0
VERTEX
  8
PLAN_1
 62
     2
  6
CONTINUOUS
 10
-0.248555
 20
0.019547
  0
VERTEX
  8
PLAN_1
 62
     2
  6
CONTINUOUS
 10
-0.245209
 20
0.019547
  0
VERTEX
  8
PLAN_1
 62
     2
  6
CONTINUOUS
 10
-0.242819
 20
0.020504
  0
VERTEX
  8
PLAN_1
 62
     2
  6
CONTINUOUS
 10
-0.240429
 20
0.021937
  0
VERTEX
  8
PLAN_1
 62
     2
  6
CONTINUOUS
 10
-0.238039
 20
0.023370
  0
VERTEX
  8
PLAN_1
 62
     2
  6
CONTINUOUS
 10
-0.236606
 20
0.024807
  0
VERTEX
  8
PLAN_1
 62
     2
  6
CONTINUOUS
 10
-0.235650
 20
0.026717
  0
VERTEX
  8
PLAN_1
 62
     2
  6
CONTINUOUS
 10
-0.234697
 20
0.028630
  0
VERTEX
  8
PLAN_1
 62
     2
  6
CONTINUOUS
 10
-0.234217
 20
0.030063
  0
VERTEX
  8
PLAN_1
 62
     2
  6
CONTINUOUS
 10
-0.225138
 20
0.030063
  0
SEQEND
  8
0
  0
POLYLINE
  8
PLAN_1
 62
     2
  6
CONTINUOUS
 66
     1
 40
0.003000
 41
0.003000
  0
VERTEX
  8
PLAN_1
 62
     2
  6
CONTINUOUS
 10
-0.233740
 20
0.044398
  0
VERTEX
  8
PLAN_1
 62
     2
  6
CONTINUOUS
 10
-0.234217
 20
0.047744
  0
VERTEX
  8
PLAN_1
 62
     2
  6
CONTINUOUS
 10
-0.235173
 20
0.050610
  0
VERTEX
  8
PLAN_1
 62
     2
  6
CONTINUOUS
 10
-0.236130
 20
0.053476
  0
VERTEX
  8
PLAN_1
 62
     2
  6
CONTINUOUS
 10
-0.237563
 20
0.055866
  0
VERTEX
  8
PLAN_1
 62
     2
  6
CONTINUOUS
 10
-0.239472
 20
0.057780
  0
VERTEX
  8
PLAN_1
 62
     2
  6
CONTINUOUS
 10
-0.242343
 20
0.059213
  0
VERTEX
  8
PLAN_1
 62
     2
  6
CONTINUOUS
 10
-0.245209
 20
0.060646
  0
VERTEX
  8
PLAN_1
 62
     2
  6
CONTINUOUS
 10
-0.249031
 20
0.060646
  0
VERTEX
  8
PLAN_1
 62
     2
  6
CONTINUOUS
 10
-0.252378
 20
0.060646
  0
VERTEX
  8
PLAN_1
 62
     2
  6
CONTINUOUS
 10
-0.255244
 20
0.059213
  0
VERTEX
  8
PLAN_1
 62
     2
  6
CONTINUOUS
 10
-0.257634
 20
0.057780
  0
VERTEX
  8
PLAN_1
 62
     2
  6
CONTINUOUS
 10
-0.260024
 20
0.055866
  0
VERTEX
  8
PLAN_1
 62
     2
  6
CONTINUOUS
 10
-0.261457
 20
0.053476
  0
VERTEX
  8
PLAN_1
 62
     2
  6
CONTINUOUS
 10
-0.262890
 20
0.050610
  0
VERTEX
  8
PLAN_1
 62
     2
  6
CONTINUOUS
 10
-0.263846
 20
0.047744
  0
VERTEX
  8
PLAN_1
 62
     2
  6
CONTINUOUS
 10
-0.264323
 20
0.044398
  0
VERTEX
  8
PLAN_1
 62
     2
  6
CONTINUOUS
 10
-0.233740
 20
0.044398
  0
SEQEND
  8
0
  0
POLYLINE
  8
PLAN_1
 62
     2
  6
CONTINUOUS
 66
     1
 40
0.003000
 41
0.003000
  0
VERTEX
  8
PLAN_1
 62
     2
  6
CONTINUOUS
 10
-0.185472
 20
0.067335
  0
VERTEX
  8
PLAN_1
 62
     2
  6
CONTINUOUS
 10
-0.176874
 20
0.067335
  0
VERTEX
  8
PLAN_1
 62
     2
  6
CONTINUOUS
 10
-0.176874
 20
0.059689
  0
VERTEX
  8
PLAN_1
 62
     2
  6
CONTINUOUS
 10
-0.176394
 20
0.059689
  0
VERTEX
  8
PLAN_1
 62
     2
  6
CONTINUOUS
 10
-0.175437
 20
0.061122
  0
VERTEX
  8
PLAN_1
 62
     2
  6
CONTINUOUS
 10
-0.174484
 20
0.062559
  0
VERTEX
  8
PLAN_1
 62
     2
  6
CONTINUOUS
 10
-0.173051
 20
0.063992
  0
VERTEX
  8
PLAN_1
 62
     2
  6
CONTINUOUS
 10
-0.171138
 20
0.065425
  0
VERTEX
  8
PLAN_1
 62
     2
  6
CONTINUOUS
 10
-0.169228
 20
0.066858
  0
VERTEX
  8
PLAN_1
 62
     2
  6
CONTINUOUS
 10
-0.166839
 20
0.067815
  0
VERTEX
  8
PLAN_1
 62
     2
  6
CONTINUOUS
 10
-0.163492
 20
0.068772
  0
VERTEX
  8
PLAN_1
 62
     2
  6
CONTINUOUS
 10
-0.160146
 20
0.069248
  0
VERTEX
  8
PLAN_1
 62
     2
  6
CONTINUOUS
 10
-0.157756
 20
0.068772
  0
VERTEX
  8
PLAN_1
 62
     2
  6
CONTINUOUS
 10
-0.154890
 20
0.068291
  0
VERTEX
  8
PLAN_1
 62
     2
  6
CONTINUOUS
 10
-0.152980
 20
0.067815
  0
VERTEX
  8
PLAN_1
 62
     2
  6
CONTINUOUS
 10
-0.150591
 20
0.066858
  0
VERTEX
  8
PLAN_1
 62
     2
  6
CONTINUOUS
 10
-0.148677
 20
0.065902
  0
VERTEX
  8
PLAN_1
 62
     2
  6
CONTINUOUS
 10
-0.146768
 20
0.064469
  0
VERTEX
  8
PLAN_1
 62
     2
  6
CONTINUOUS
 10
-0.144854
 20
0.063035
  0
VERTEX
  8
PLAN_1
 62
     2
  6
CONTINUOUS
 10
-0.143421
 20
0.061122
  0
VERTEX
  8
PLAN_1
 62
     2
  6
CONTINUOUS
 10
-0.141031
 20
0.057299
  0
VERTEX
  8
PLAN_1
 62
     2
  6
CONTINUOUS
 10
-0.139122
 20
0.052524
  0
VERTEX
  8
PLAN_1
 62
     2
  6
CONTINUOUS
 10
-0.137685
 20
0.047264
  0
VERTEX
  8
PLAN_1
 62
     2
  6
CONTINUOUS
 10
-0.137685
 20
0.042008
  0
VERTEX
  8
PLAN_1
 62
     2
  6
CONTINUOUS
 10
-0.137685
 20
0.036752
  0
VERTEX
  8
PLAN_1
 62
     2
  6
CONTINUOUS
 10
-0.138642
 20
0.031496
  0
VERTEX
  8
PLAN_1
 62
     2
  6
CONTINUOUS
 10
-0.140075
 20
0.026717
  0
VERTEX
  8
PLAN_1
 62
     2
  6
CONTINUOUS
 10
-0.142465
 20
0.021937
  0
VERTEX
  8
PLAN_1
 62
     2
  6
CONTINUOUS
 10
-0.143898
 20
0.019547
  0
VERTEX
  8
PLAN_1
 62
     2
  6
CONTINUOUS
 10
-0.145811
 20
0.017638
  0
VERTEX
  8
PLAN_1
 62
     2
  6
CONTINUOUS
 10
-0.147720
 20
0.015724
  0
VERTEX
  8
PLAN_1
 62
     2
  6
CONTINUOUS
 10
-0.150110
 20
0.014291
  0
VERTEX
  8
PLAN_1
 62
     2
  6
CONTINUOUS
 10
-0.152500
 20
0.013335
  0
VERTEX
  8
PLAN_1
 62
     2
  6
CONTINUOUS
 10
-0.154890
 20
0.012382
  0
VERTEX
  8
PLAN_1
 62
     2
  6
CONTINUOUS
 10
-0.158236
 20
0.011902
  0
VERTEX
  8
PLAN_1
 62
     2
  6
CONTINUOUS
 10
-0.161579
 20
0.011425
  0
VERTEX
  8
PLAN_1
 62
     2
  6
CONTINUOUS
 10
-0.163969
 20
0.011425
  0
VERTEX
  8
PLAN_1
 62
     2
  6
CONTINUOUS
 10
-0.166358
 20
0.011902
  0
VERTEX
  8
PLAN_1
 62
     2
  6
CONTINUOUS
 10
-0.168748
 20
0.012858
  0
VERTEX
  8
PLAN_1
 62
     2
  6
CONTINUOUS
 10
-0.170661
 20
0.013815
  0
VERTEX
  8
PLAN_1
 62
     2
  6
CONTINUOUS
 10
-0.172094
 20
0.014772
  0
VERTEX
  8
PLAN_1
 62
     2
  6
CONTINUOUS
 10
-0.173528
 20
0.016205
  0
VERTEX
  8
PLAN_1
 62
     2
  6
CONTINUOUS
 10
-0.174961
 20
0.017157
  0
VERTEX
  8
PLAN_1
 62
     2
  6
CONTINUOUS
 10
-0.175917
 20
0.018594
  0
VERTEX
  8
PLAN_1
 62
     2
  6
CONTINUOUS
 10
-0.175917
 20
-0.008646
  0
VERTEX
  8
PLAN_1
 62
     2
  6
CONTINUOUS
 10
-0.185472
 20
-0.008646
  0
VERTEX
  8
PLAN_1
 62
     2
  6
CONTINUOUS
 10
-0.185472
 20
0.067335
  0
SEQEND
  8
0
  0
POLYLINE
  8
PLAN_1
 62
     2
  6
CONTINUOUS
 66
     1
 40
0.003000
 41
0.003000
  0
VERTEX
  8
PLAN_1
 62
     2
  6
CONTINUOUS
 10
-0.161579
 20
0.019547
  0
VERTEX
  8
PLAN_1
 62
     2
  6
CONTINUOUS
 10
-0.158236
 20
0.020028
  0
VERTEX
  8
PLAN_1
 62
     2
  6
CONTINUOUS
 10
-0.155370
 20
0.020980
  0
VERTEX
  8
PLAN_1
 62
     2
  6
CONTINUOUS
 10
-0.152500
 20
0.022894
  0
VERTEX
  8
PLAN_1
 62
     2
  6
CONTINUOUS
 10
-0.150591
 20
0.025283
  0
VERTEX
  8
PLAN_1
 62
     2
  6
CONTINUOUS
 10
-0.149157
 20
0.028630
  0
VERTEX
  8
PLAN_1
 62
     2
  6
CONTINUOUS
 10
-0.147720
 20
0.031972
  0
VERTEX
  8
PLAN_1
 62
     2
  6
CONTINUOUS
 10
-0.147244
 20
0.036276
  0
VERTEX
  8
PLAN_1
 62
     2
  6
CONTINUOUS
 10
-0.146768
 20
0.040575
  0
VERTEX
  8
PLAN_1
 62
     2
  6
CONTINUOUS
 10
-0.147244
 20
0.043441
  0
VERTEX
  8
PLAN_1
 62
     2
  6
CONTINUOUS
 10
-0.147244
 20
0.046311
  0
VERTEX
  8
PLAN_1
 62
     2
  6
CONTINUOUS
 10
-0.148201
 20
0.050134
  0
VERTEX
  8
PLAN_1
 62
     2
  6
CONTINUOUS
 10
-0.149157
 20
0.053000
  0
VERTEX
  8
PLAN_1
 62
     2
  6
CONTINUOUS
 10
-0.150110
 20
0.054909
  0
VERTEX
  8
PLAN_1
 62
     2
  6
CONTINUOUS
 10
-0.151067
 20
0.056346
  0
VERTEX
  8
PLAN_1
 62
     2
  6
CONTINUOUS
 10
-0.152024
 20
0.057299
  0
VERTEX
  8
PLAN_1
 62
     2
  6
CONTINUOUS
 10
-0.153457
 20
0.058736
  0
VERTEX
  8
PLAN_1
 62
     2
  6
CONTINUOUS
 10
-0.155370
 20
0.059689
  0
VERTEX
  8
PLAN_1
 62
     2
  6
CONTINUOUS
 10
-0.157280
 20
0.060169
  0
VERTEX
  8
PLAN_1
 62
     2
  6
CONTINUOUS
 10
-0.159193
 20
0.060646
  0
VERTEX
  8
PLAN_1
 62
     2
  6
CONTINUOUS
 10
-0.162059
 20
0.060646
  0
VERTEX
  8
PLAN_1
 62
     2
  6
CONTINUOUS
 10
-0.164449
 20
0.060646
  0
VERTEX
  8
PLAN_1
 62
     2
  6
CONTINUOUS
 10
-0.166358
 20
0.060169
  0
VERTEX
  8
PLAN_1
 62
     2
  6
CONTINUOUS
 10
-0.168272
 20
0.059213
  0
VERTEX
  8
PLAN_1
 62
     2
  6
CONTINUOUS
 10
-0.169705
 20
0.058256
  0
VERTEX
  8
PLAN_1
 62
     2
  6
CONTINUOUS
 10
-0.171138
 20
0.057299
  0
VERTEX
  8
PLAN_1
 62
     2
  6
CONTINUOUS
 10
-0.172094
 20
0.055866
  0
VERTEX
  8
PLAN_1
 62
     2
  6
CONTINUOUS
 10
-0.173528
 20
0.054433
  0
VERTEX
  8
PLAN_1
 62
     2
  6
CONTINUOUS
 10
-0.174004
 20
0.052524
  0
VERTEX
  8
PLAN_1
 62
     2
  6
CONTINUOUS
 10
-0.175437
 20
0.048701
  0
VERTEX
  8
PLAN_1
 62
     2
  6
CONTINUOUS
 10
-0.175917
 20
0.044878
  0
VERTEX
  8
PLAN_1
 62
     2
  6
CONTINUOUS
 10
-0.176394
 20
0.041051
  0
VERTEX
  8
PLAN_1
 62
     2
  6
CONTINUOUS
 10
-0.176394
 20
0.037709
  0
VERTEX
  8
PLAN_1
 62
     2
  6
CONTINUOUS
 10
-0.175917
 20
0.032929
  0
VERTEX
  8
PLAN_1
 62
     2
  6
CONTINUOUS
 10
-0.174961
 20
0.028630
  0
VERTEX
  8
PLAN_1
 62
     2
  6
CONTINUOUS
 10
-0.173528
 20
0.025760
  0
VERTEX
  8
PLAN_1
 62
     2
  6
CONTINUOUS
 10
-0.171138
 20
0.022894
  0
VERTEX
  8
PLAN_1
 62
     2
  6
CONTINUOUS
 10
-0.168748
 20
0.021461
  0
VERTEX
  8
PLAN_1
 62
     2
  6
CONTINUOUS
 10
-0.166358
 20
0.020028
  0
VERTEX
  8
PLAN_1
 62
     2
  6
CONTINUOUS
 10
-0.163969
 20
0.019547
  0
VERTEX
  8
PLAN_1
 62
     2
  6
CONTINUOUS
 10
-0.161579
 20
0.019547
  0
SEQEND
  8
0
  0
POLYLINE
  8
PLAN_1
 62
     2
  6
CONTINUOUS
 66
     1
 40
0.003000
 41
0.003000
  0
VERTEX
  8
PLAN_1
 62
     2
  6
CONTINUOUS
 10
-0.104713
 20
0.069248
  0
VERTEX
  8
PLAN_1
 62
     2
  6
CONTINUOUS
 10
-0.101370
 20
0.068772
  0
VERTEX
  8
PLAN_1
 62
     2
  6
CONTINUOUS
 10
-0.098500
 20
0.068291
  0
VERTEX
  8
PLAN_1
 62
     2
  6
CONTINUOUS
 10
-0.095634
 20
0.067335
  0
VERTEX
  8
PLAN_1
 62
     2
  6
CONTINUOUS
 10
-0.093244
 20
0.066382
  0
VERTEX
  8
PLAN_1
 62
     2
  6
CONTINUOUS
 10
-0.090854
 20
0.064945
  0
VERTEX
  8
PLAN_1
 62
     2
  6
CONTINUOUS
 10
-0.088945
 20
0.063512
  0
VERTEX
  8
PLAN_1
 62
     2
  6
CONTINUOUS
 10
-0.087031
 20
0.062079
  0
VERTEX
  8
PLAN_1
 62
     2
  6
CONTINUOUS
 10
-0.085122
 20
0.059689
  0
VERTEX
  8
PLAN_1
 62
     2
  6
CONTINUOUS
 10
-0.082732
 20
0.055390
  0
VERTEX
  8
PLAN_1
 62
     2
  6
CONTINUOUS
 10
-0.080819
 20
0.050610
  0
VERTEX
  8
PLAN_1
 62
     2
  6
CONTINUOUS
 10
-0.079386
 20
0.045354
  0
VERTEX
  8
PLAN_1
 62
     2
  6
CONTINUOUS
 10
-0.079386
 20
0.040098
  0
VERTEX
  8
PLAN_1
 62
     2
  6
CONTINUOUS
 10
-0.079386
 20
0.034843
  0
VERTEX
  8
PLAN_1
 62
     2
  6
CONTINUOUS
 10
-0.080819
 20
0.030063
  0
VERTEX
  8
PLAN_1
 62
     2
  6
CONTINUOUS
 10
-0.082732
 20
0.024807
  0
VERTEX
  8
PLAN_1
 62
     2
  6
CONTINUOUS
 10
-0.085122
 20
0.020504
  0
VERTEX
  8
PLAN_1
 62
     2
  6
CONTINUOUS
 10
-0.087031
 20
0.018594
  0
VERTEX
  8
PLAN_1
 62
     2
  6
CONTINUOUS
 10
-0.088945
 20
0.017157
  0
VERTEX
  8
PLAN_1
 62
     2
  6
CONTINUOUS
 10
-0.090854
 20
0.015248
  0
VERTEX
  8
PLAN_1
 62
     2
  6
CONTINUOUS
 10
-0.093244
 20
0.014291
  0
VERTEX
  8
PLAN_1
 62
     2
  6
CONTINUOUS
 10
-0.095634
 20
0.012858
  0
VERTEX
  8
PLAN_1
 62
     2
  6
CONTINUOUS
 10
-0.098500
 20
0.012382
  0
VERTEX
  8
PLAN_1
 62
     2
  6
CONTINUOUS
 10
-0.101370
 20
0.011902
  0
VERTEX
  8
PLAN_1
 62
     2
  6
CONTINUOUS
 10
-0.104713
 20
0.011425
  0
VERTEX
  8
PLAN_1
 62
     2
  6
CONTINUOUS
 10
-0.107579
 20
0.011902
  0
VERTEX
  8
PLAN_1
 62
     2
  6
CONTINUOUS
 10
-0.110449
 20
0.012382
  0
VERTEX
  8
PLAN_1
 62
     2
  6
CONTINUOUS
 10
-0.113315
 20
0.012858
  0
VERTEX
  8
PLAN_1
 62
     2
  6
CONTINUOUS
 10
-0.115705
 20
0.014291
  0
VERTEX
  8
PLAN_1
 62
     2
  6
CONTINUOUS
 10
-0.118094
 20
0.015248
  0
VERTEX
  8
PLAN_1
 62
     2
  6
CONTINUOUS
 10
-0.120004
 20
0.017157
  0
VERTEX
  8
PLAN_1
 62
     2
  6
CONTINUOUS
 10
-0.121917
 20
0.018594
  0
VERTEX
  8
PLAN_1
 62
     2
  6
CONTINUOUS
 10
-0.123827
 20
0.020504
  0
VERTEX
  8
PLAN_1
 62
     2
  6
CONTINUOUS
 10
-0.126217
 20
0.024807
  0
VERTEX
  8
PLAN_1
 62
     2
  6
CONTINUOUS
 10
-0.128130
 20
0.030063
  0
VERTEX
  8
PLAN_1
 62
     2
  6
CONTINUOUS
 10
-0.129563
 20
0.034843
  0
VERTEX
  8
PLAN_1
 62
     2
  6
CONTINUOUS
 10
-0.129563
 20
0.040098
  0
VERTEX
  8
PLAN_1
 62
     2
  6
CONTINUOUS
 10
-0.129563
 20
0.045354
  0
VERTEX
  8
PLAN_1
 62
     2
  6
CONTINUOUS
 10
-0.128130
 20
0.050610
  0
VERTEX
  8
PLAN_1
 62
     2
  6
CONTINUOUS
 10
-0.126217
 20
0.055390
  0
VERTEX
  8
PLAN_1
 62
     2
  6
CONTINUOUS
 10
-0.123827
 20
0.059689
  0
VERTEX
  8
PLAN_1
 62
     2
  6
CONTINUOUS
 10
-0.121917
 20
0.062079
  0
VERTEX
  8
PLAN_1
 62
     2
  6
CONTINUOUS
 10
-0.120004
 20
0.063512
  0
VERTEX
  8
PLAN_1
 62
     2
  6
CONTINUOUS
 10
-0.118094
 20
0.064945
  0
VERTEX
  8
PLAN_1
 62
     2
  6
CONTINUOUS
 10
-0.115705
 20
0.066382
  0
VERTEX
  8
PLAN_1
 62
     2
  6
CONTINUOUS
 10
-0.113315
 20
0.067335
  0
VERTEX
  8
PLAN_1
 62
     2
  6
CONTINUOUS
 10
-0.110449
 20
0.068291
  0
VERTEX
  8
PLAN_1
 62
     2
  6
CONTINUOUS
 10
-0.107579
 20
0.068772
  0
VERTEX
  8
PLAN_1
 62
     2
  6
CONTINUOUS
 10
-0.104713
 20
0.069248
  0
SEQEND
  8
0
  0
POLYLINE
  8
PLAN_1
 62
     2
  6
CONTINUOUS
 66
     1
 40
0.003000
 41
0.003000
  0
VERTEX
  8
PLAN_1
 62
     2
  6
CONTINUOUS
 10
-0.104713
 20
0.019547
  0
VERTEX
  8
PLAN_1
 62
     2
  6
CONTINUOUS
 10
-0.102323
 20
0.019547
  0
VERTEX
  8
PLAN_1
 62
     2
  6
CONTINUOUS
 10
-0.099933
 20
0.020028
  0
VERTEX
  8
PLAN_1
 62
     2
  6
CONTINUOUS
 10
-0.098024
 20
0.020980
  0
VERTEX
  8
PLAN_1
 62
     2
  6
CONTINUOUS
 10
-0.096591
 20
0.021937
  0
VERTEX
  8
PLAN_1
 62
     2
  6
CONTINUOUS
 10
-0.093720
 20
0.024327
  0
VERTEX
  8
PLAN_1
 62
     2
  6
CONTINUOUS
 10
-0.091811
 20
0.027193
  0
VERTEX
  8
PLAN_1
 62
     2
  6
CONTINUOUS
 10
-0.090378
 20
0.030539
  0
VERTEX
  8
PLAN_1
 62
     2
  6
CONTINUOUS
 10
-0.089421
 20
0.033886
  0
VERTEX
  8
PLAN_1
 62
     2
  6
CONTINUOUS
 10
-0.088945
 20
0.037228
  0
VERTEX
  8
PLAN_1
 62
     2
  6
CONTINUOUS
 10
-0.088465
 20
0.040098
  0
VERTEX
  8
PLAN_1
 62
     2
  6
CONTINUOUS
 10
-0.088945
 20
0.043441
  0
VERTEX
  8
PLAN_1
 62
     2
  6
CONTINUOUS
 10
-0.089421
 20
0.046787
  0
VERTEX
  8
PLAN_1
 62
     2
  6
CONTINUOUS
 10
-0.090378
 20
0.050134
  0
VERTEX
  8
PLAN_1
 62
     2
  6
CONTINUOUS
 10
-0.091811
 20
0.053476
  0
VERTEX
  8
PLAN_1
 62
     2
  6
CONTINUOUS
 10
-0.093720
 20
0.056346
  0
VERTEX
  8
PLAN_1
 62
     2
  6
CONTINUOUS
 10
-0.096591
 20
0.058736
  0
VERTEX
  8
PLAN_1
 62
     2
  6
CONTINUOUS
 10
-0.098024
 20
0.059689
  0
VERTEX
  8
PLAN_1
 62
     2
  6
CONTINUOUS
 10
-0.099933
 20
0.060646
  0
VERTEX
  8
PLAN_1
 62
     2
  6
CONTINUOUS
 10
-0.102323
 20
0.061122
  0
VERTEX
  8
PLAN_1
 62
     2
  6
CONTINUOUS
 10
-0.104713
 20
0.061122
  0
VERTEX
  8
PLAN_1
 62
     2
  6
CONTINUOUS
 10
-0.106626
 20
0.061122
  0
VERTEX
  8
PLAN_1
 62
     2
  6
CONTINUOUS
 10
-0.109016
 20
0.060646
  0
VERTEX
  8
PLAN_1
 62
     2
  6
CONTINUOUS
 10
-0.110925
 20
0.059689
  0
VERTEX
  8
PLAN_1
 62
     2
  6
CONTINUOUS
 10
-0.112358
 20
0.058736
  0
VERTEX
  8
PLAN_1
 62
     2
  6
CONTINUOUS
 10
-0.115228
 20
0.056346
  0
VERTEX
  8
PLAN_1
 62
     2
  6
CONTINUOUS
 10
-0.117138
 20
0.053476
  0
VERTEX
  8
PLAN_1
 62
     2
  6
CONTINUOUS
 10
-0.118571
 20
0.050134
  0
VERTEX
  8
PLAN_1
 62
     2
  6
CONTINUOUS
 10
-0.119528
 20
0.046787
  0
VERTEX
  8
PLAN_1
 62
     2
  6
CONTINUOUS
 10
-0.120004
 20
0.043441
  0
VERTEX
  8
PLAN_1
 62
     2
  6
CONTINUOUS
 10
-0.120484
 20
0.040098
  0
VERTEX
  8
PLAN_1
 62
     2
  6
CONTINUOUS
 10
-0.120004
 20
0.037228
  0
VERTEX
  8
PLAN_1
 62
     2
  6
CONTINUOUS
 10
-0.119528
 20
0.033886
  0
VERTEX
  8
PLAN_1
 62
     2
  6
CONTINUOUS
 10
-0.118571
 20
0.030539
  0
VERTEX
  8
PLAN_1
 62
     2
  6
CONTINUOUS
 10
-0.117138
 20
0.027193
  0
VERTEX
  8
PLAN_1
 62
     2
  6
CONTINUOUS
 10
-0.115228
 20
0.024327
  0
VERTEX
  8
PLAN_1
 62
     2
  6
CONTINUOUS
 10
-0.112358
 20
0.021937
  0
VERTEX
  8
PLAN_1
 62
     2
  6
CONTINUOUS
 10
-0.110925
 20
0.020980
  0
VERTEX
  8
PLAN_1
 62
     2
  6
CONTINUOUS
 10
-0.109016
 20
0.020028
  0
VERTEX
  8
PLAN_1
 62
     2
  6
CONTINUOUS
 10
-0.106626
 20
0.019547
  0
VERTEX
  8
PLAN_1
 62
     2
  6
CONTINUOUS
 10
-0.104713
 20
0.019547
  0
SEQEND
  8
0
  0
POLYLINE
  8
PLAN_1
 62
     2
  6
CONTINUOUS
 66
     1
 40
0.003000
 41
0.003000
  0
VERTEX
  8
PLAN_1
 62
     2
  6
CONTINUOUS
 10
-0.033512
 20
0.012858
  0
VERTEX
  8
PLAN_1
 62
     2
  6
CONTINUOUS
 10
-0.033512
 20
0.020980
  0
VERTEX
  8
PLAN_1
 62
     2
  6
CONTINUOUS
 10
-0.034945
 20
0.019071
  0
VERTEX
  8
PLAN_1
 62
     2
  6
CONTINUOUS
 10
-0.036378
 20
0.017157
  0
VERTEX
  8
PLAN_1
 62
     2
  6
CONTINUOUS
 10
-0.038287
 20
0.015248
  0
VERTEX
  8
PLAN_1
 62
     2
  6
CONTINUOUS
 10
-0.040201
 20
0.013815
  0
VERTEX
  8
PLAN_1
 62
     2
  6
CONTINUOUS
 10
-0.042591
 20
0.012858
  0
VERTEX
  8
PLAN_1
 62
     2
  6
CONTINUOUS
 10
-0.044980
 20
0.011902
  0
VERTEX
  8
PLAN_1
 62
     2
  6
CONTINUOUS
 10
-0.047846
 20
0.011425
  0
VERTEX
  8
PLAN_1
 62
     2
  6
CONTINUOUS
 10
-0.050713
 20
0.011425
  0
VERTEX
  8
PLAN_1
 62
     2
  6
CONTINUOUS
 10
-0.053583
 20
0.011902
  0
VERTEX
  8
PLAN_1
 62
     2
  6
CONTINUOUS
 10
-0.056925
 20
0.012382
  0
VERTEX
  8
PLAN_1
 62
     2
  6
CONTINUOUS
 10
-0.059791
 20
0.013335
  0
VERTEX
  8
PLAN_1
 62
     2
  6
CONTINUOUS
 10
-0.062661
 20
0.015248
  0
VERTEX
  8
PLAN_1
 62
     2
  6
CONTINUOUS
 10
-0.065051
 20
0.017157
  0
VERTEX
  8
PLAN_1
 62
     2
  6
CONTINUOUS
 10
-0.066961
 20
0.020028
  0
VERTEX
  8
PLAN_1
 62
     2
  6
CONTINUOUS
 10
-0.067917
 20
0.023850
  0
VERTEX
  8
PLAN_1
 62
     2
  6
CONTINUOUS
 10
-0.068394
 20
0.028150
  0
VERTEX
  8
PLAN_1
 62
     2
  6
CONTINUOUS
 10
-0.068394
 20
0.067335
  0
VERTEX
  8
PLAN_1
 62
     2
  6
CONTINUOUS
 10
-0.059315
 20
0.067335
  0
VERTEX
  8
PLAN_1
 62
     2
  6
CONTINUOUS
 10
-0.059315
 20
0.031496
  0
VERTEX
  8
PLAN_1
 62
     2
  6
CONTINUOUS
 10
-0.059315
 20
0.028150
  0
VERTEX
  8
PLAN_1
 62
     2
  6
CONTINUOUS
 10
-0.058358
 20
0.025760
  0
VERTEX
  8
PLAN_1
 62
     2
  6
CONTINUOUS
 10
-0.057406
 20
0.023850
  0
VERTEX
  8
PLAN_1
 62
     2
  6
CONTINUOUS
 10
-0.056449
 20
0.021937
  0
VERTEX
  8
PLAN_1
 62
     2
  6
CONTINUOUS
 10
-0.054535
 20
0.020980
  0
VERTEX
  8
PLAN_1
 62
     2
  6
CONTINUOUS
 10
-0.053102
 20
0.020028
  0
VERTEX
  8
PLAN_1
 62
     2
  6
CONTINUOUS
 10
-0.050713
 20
0.019547
  0
VERTEX
  8
PLAN_1
 62
     2
  6
CONTINUOUS
 10
-0.048803
 20
0.019547
  0
VERTEX
  8
PLAN_1
 62
     2
  6
CONTINUOUS
 10
-0.046890
 20
0.019547
  0
VERTEX
  8
PLAN_1
 62
     2
  6
CONTINUOUS
 10
-0.044980
 20
0.020028
  0
VERTEX
  8
PLAN_1
 62
     2
  6
CONTINUOUS
 10
-0.043067
 20
0.020504
  0
VERTEX
  8
PLAN_1
 62
     2
  6
CONTINUOUS
 10
-0.041634
 20
0.020980
  0
VERTEX
  8
PLAN_1
 62
     2
  6
CONTINUOUS
 10
-0.038768
 20
0.022894
  0
VERTEX
  8
PLAN_1
 62
     2
  6
CONTINUOUS
 10
-0.036854
 20
0.025283
  0
VERTEX
  8
PLAN_1
 62
     2
  6
CONTINUOUS
 10
-0.035421
 20
0.028150
  0
VERTEX
  8
PLAN_1
 62
     2
  6
CONTINUOUS
 10
-0.034465
 20
0.031496
  0
VERTEX
  8
PLAN_1
 62
     2
  6
CONTINUOUS
 10
-0.033988
 20
0.034362
  0
VERTEX
  8
PLAN_1
 62
     2
  6
CONTINUOUS
 10
-0.033988
 20
0.037709
  0
VERTEX
  8
PLAN_1
 62
     2
  6
CONTINUOUS
 10
-0.033988
 20
0.067335
  0
VERTEX
  8
PLAN_1
 62
     2
  6
CONTINUOUS
 10
-0.024429
 20
0.067335
  0
VERTEX
  8
PLAN_1
 62
     2
  6
CONTINUOUS
 10
-0.024429
 20
0.012858
  0
VERTEX
  8
PLAN_1
 62
     2
  6
CONTINUOUS
 10
-0.033512
 20
0.012858
  0
SEQEND
  8
0
  0
POLYLINE
  8
PLAN_1
 62
     2
  6
CONTINUOUS
 66
     1
 40
0.003000
 41
0.003000
  0
VERTEX
  8
PLAN_1
 62
     2
  6
CONTINUOUS
 10
-0.000535
 20
0.012858
  0
VERTEX
  8
PLAN_1
 62
     2
  6
CONTINUOUS
 10
-0.009618
 20
0.012858
  0
VERTEX
  8
PLAN_1
 62
     2
  6
CONTINUOUS
 10
-0.009618
 20
0.067335
  0
VERTEX
  8
PLAN_1
 62
     2
  6
CONTINUOUS
 10
-0.001016
 20
0.067335
  0
VERTEX
  8
PLAN_1
 62
     2
  6
CONTINUOUS
 10
-0.001016
 20
0.058256
  0
VERTEX
  8
PLAN_1
 62
     2
  6
CONTINUOUS
 10
-0.000535
 20
0.058256
  0
VERTEX
  8
PLAN_1
 62
     2
  6
CONTINUOUS
 10
0.000898
 20
0.060646
  0
VERTEX
  8
PLAN_1
 62
     2
  6
CONTINUOUS
 10
0.002331
 20
0.062559
  0
VERTEX
  8
PLAN_1
 62
     2
  6
CONTINUOUS
 10
0.003764
 20
0.064469
  0
VERTEX
  8
PLAN_1
 62
     2
  6
CONTINUOUS
 10
0.005677
 20
0.065902
  0
VERTEX
  8
PLAN_1
 62
     2
  6
CONTINUOUS
 10
0.007587
 20
0.067335
  0
VERTEX
  8
PLAN_1
 62
     2
  6
CONTINUOUS
 10
0.009976
 20
0.068291
  0
VERTEX
  8
PLAN_1
 62
     2
  6
CONTINUOUS
 10
0.011890
 20
0.068772
  0
VERTEX
  8
PLAN_1
 62
     2
  6
CONTINUOUS
 10
0.014756
 20
0.069248
  0
VERTEX
  8
PLAN_1
 62
     2
  6
CONTINUOUS
 10
0.015232
 20
0.068772
  0
VERTEX
  8
PLAN_1
 62
     2
  6
CONTINUOUS
 10
0.015713
 20
0.068772
  0
VERTEX
  8
PLAN_1
 62
     2
  6
CONTINUOUS
 10
0.016189
 20
0.068772
  0
VERTEX
  8
PLAN_1
 62
     2
  6
CONTINUOUS
 10
0.016665
 20
0.068772
  0
VERTEX
  8
PLAN_1
 62
     2
  6
CONTINUOUS
 10
0.017146
 20
0.068772
  0
VERTEX
  8
PLAN_1
 62
     2
  6
CONTINUOUS
 10
0.017146
 20
0.059213
  0
VERTEX
  8
PLAN_1
 62
     2
  6
CONTINUOUS
 10
0.013323
 20
0.059213
  0
VERTEX
  8
PLAN_1
 62
     2
  6
CONTINUOUS
 10
0.010453
 20
0.058736
  0
VERTEX
  8
PLAN_1
 62
     2
  6
CONTINUOUS
 10
0.007587
 20
0.058256
  0
VERTEX
  8
PLAN_1
 62
     2
  6
CONTINUOUS
 10
0.005197
 20
0.056823
  0
VERTEX
  8
PLAN_1
 62
     2
  6
CONTINUOUS
 10
0.003287
 20
0.054909
  0
VERTEX
  8
PLAN_1
 62
     2
  6
CONTINUOUS
 10
0.001854
 20
0.052524
  0
VERTEX
  8
PLAN_1
 62
     2
  6
CONTINUOUS
 10
0.000417
 20
0.050134
  0
VERTEX
  8
PLAN_1
 62
     2
  6
CONTINUOUS
 10
-0.000059
 20
0.047744
  0
VERTEX
  8
PLAN_1
 62
     2
  6
CONTINUOUS
 10
-0.000535
 20
0.044878
  0
VERTEX
  8
PLAN_1
 62
     2
  6
CONTINUOUS
 10
-0.000535
 20
0.012858
  0
SEQEND
  8
0
  0
POLYLINE
  8
PLAN_1
 62
     2
  6
CONTINUOUS
 66
     1
 40
0.003000
 41
0.003000
  0
VERTEX
  8
PLAN_1
 62
     2
  6
CONTINUOUS
 10
-0.861669
 20
-0.057390
  0
VERTEX
  8
PLAN_1
 62
     2
  6
CONTINUOUS
 10
-0.852587
 20
-0.057390
  0
VERTEX
  8
PLAN_1
 62
     2
  6
CONTINUOUS
 10
-0.852587
 20
-0.065035
  0
VERTEX
  8
PLAN_1
 62
     2
  6
CONTINUOUS
 10
-0.851634
 20
-0.064079
  0
VERTEX
  8
PLAN_1
 62
     2
  6
CONTINUOUS
 10
-0.850677
 20
-0.062646
  0
VERTEX
  8
PLAN_1
 62
     2
  6
CONTINUOUS
 10
-0.849244
 20
-0.060736
  0
VERTEX
  8
PLAN_1
 62
     2
  6
CONTINUOUS
 10
-0.847331
 20
-0.059299
  0
VERTEX
  8
PLAN_1
 62
     2
  6
CONTINUOUS
 10
-0.845421
 20
-0.057866
  0
VERTEX
  8
PLAN_1
 62
     2
  6
CONTINUOUS
 10
-0.842551
 20
-0.056909
  0
VERTEX
  8
PLAN_1
 62
     2
  6
CONTINUOUS
 10
-0.839685
 20
-0.056433
  0
VERTEX
  8
PLAN_1
 62
     2
  6
CONTINUOUS
 10
-0.836339
 20
-0.055957
  0
VERTEX
  8
PLAN_1
 62
     2
  6
CONTINUOUS
 10
-0.833949
 20
-0.055957
  0
VERTEX
  8
PLAN_1
 62
     2
  6
CONTINUOUS
 10
-0.831083
 20
-0.056433
  0
VERTEX
  8
PLAN_1
 62
     2
  6
CONTINUOUS
 10
-0.828693
 20
-0.057390
  0
VERTEX
  8
PLAN_1
 62
     2
  6
CONTINUOUS
 10
-0.826783
 20
-0.057866
  0
VERTEX
  8
PLAN_1
 62
     2
  6
CONTINUOUS
 10
-0.824870
 20
-0.059299
  0
VERTEX
  8
PLAN_1
 62
     2
  6
CONTINUOUS
 10
-0.822961
 20
-0.060736
  0
VERTEX
  8
PLAN_1
 62
     2
  6
CONTINUOUS
 10
-0.821047
 20
-0.062169
  0
VERTEX
  8
PLAN_1
 62
     2
  6
CONTINUOUS
 10
-0.819614
 20
-0.063602
  0
VERTEX
  8
PLAN_1
 62
     2
  6
CONTINUOUS
 10
-0.817224
 20
-0.067902
  0
VERTEX
  8
PLAN_1
 62
     2
  6
CONTINUOUS
 10
-0.815315
 20
-0.072205
  0
VERTEX
  8
PLAN_1
 62
     2
  6
CONTINUOUS
 10
-0.813878
 20
-0.077461
  0
VERTEX
  8
PLAN_1
 62
     2
  6
CONTINUOUS
 10
-0.813878
 20
-0.083193
  0
VERTEX
  8
PLAN_1
 62
     2
  6
CONTINUOUS
 10
-0.813878
 20
-0.087972
  0
VERTEX
  8
PLAN_1
 62
     2
  6
CONTINUOUS
 10
-0.814835
 20
-0.093228
  0
VERTEX
  8
PLAN_1
 62
     2
  6
CONTINUOUS
 10
-0.816268
 20
-0.098488
  0
VERTEX
  8
PLAN_1
 62
     2
  6
CONTINUOUS
 10
-0.818657
 20
-0.103264
  0
VERTEX
  8
PLAN_1
 62
     2
  6
CONTINUOUS
 10
-0.820091
 20
-0.105177
  0
VERTEX
  8
PLAN_1
 62
     2
  6
CONTINUOUS
 10
-0.822004
 20
-0.107087
  0
VERTEX
  8
PLAN_1
 62
     2
  6
CONTINUOUS
 10
-0.823913
 20
-0.109000
  0
VERTEX
  8
PLAN_1
 62
     2
  6
CONTINUOUS
 10
-0.825827
 20
-0.110433
  0
VERTEX
  8
PLAN_1
 62
     2
  6
CONTINUOUS
 10
-0.828693
 20
-0.111866
  0
VERTEX
  8
PLAN_1
 62
     2
  6
CONTINUOUS
 10
-0.831083
 20
-0.112823
  0
VERTEX
  8
PLAN_1
 62
     2
  6
CONTINUOUS
 10
-0.834429
 20
-0.113299
  0
VERTEX
  8
PLAN_1
 62
     2
  6
CONTINUOUS
 10
-0.837776
 20
-0.113299
  0
VERTEX
  8
PLAN_1
 62
     2
  6
CONTINUOUS
 10
-0.840161
 20
-0.113299
  0
VERTEX
  8
PLAN_1
 62
     2
  6
CONTINUOUS
 10
-0.842551
 20
-0.112823
  0
VERTEX
  8
PLAN_1
 62
     2
  6
CONTINUOUS
 10
-0.844941
 20
-0.112346
  0
VERTEX
  8
PLAN_1
 62
     2
  6
CONTINUOUS
 10
-0.846854
 20
-0.111390
  0
VERTEX
  8
PLAN_1
 62
     2
  6
CONTINUOUS
 10
-0.848287
 20
-0.110433
  0
VERTEX
  8
PLAN_1
 62
     2
  6
CONTINUOUS
 10
-0.849720
 20
-0.109000
  0
VERTEX
  8
PLAN_1
 62
     2
  6
CONTINUOUS
 10
-0.851154
 20
-0.107567
  0
VERTEX
  8
PLAN_1
 62
     2
  6
CONTINUOUS
 10
-0.852110
 20
-0.106134
  0
VERTEX
  8
PLAN_1
 62
     2
  6
CONTINUOUS
 10
-0.852110
 20
-0.133370
  0
VERTEX
  8
PLAN_1
 62
     2
  6
CONTINUOUS
 10
-0.861669
 20
-0.133370
  0
VERTEX
  8
PLAN_1
 62
     2
  6
CONTINUOUS
 10
-0.861669
 20
-0.057390
  0
SEQEND
  8
0
  0
POLYLINE
  8
PLAN_1
 62
     2
  6
CONTINUOUS
 66
     1
 40
0.003000
 41
0.003000
  0
VERTEX
  8
PLAN_1
 62
     2
  6
CONTINUOUS
 10
-0.837776
 20
-0.105654
  0
VERTEX
  8
PLAN_1
 62
     2
  6
CONTINUOUS
 10
-0.834429
 20
-0.105177
  0
VERTEX
  8
PLAN_1
 62
     2
  6
CONTINUOUS
 10
-0.831083
 20
-0.103744
  0
VERTEX
  8
PLAN_1
 62
     2
  6
CONTINUOUS
 10
-0.828693
 20
-0.102311
  0
VERTEX
  8
PLAN_1
 62
     2
  6
CONTINUOUS
 10
-0.826783
 20
-0.099441
  0
VERTEX
  8
PLAN_1
 62
     2
  6
CONTINUOUS
 10
-0.825350
 20
-0.096575
  0
VERTEX
  8
PLAN_1
 62
     2
  6
CONTINUOUS
 10
-0.823913
 20
-0.092752
  0
VERTEX
  8
PLAN_1
 62
     2
  6
CONTINUOUS
 10
-0.823437
 20
-0.088929
  0
VERTEX
  8
PLAN_1
 62
     2
  6
CONTINUOUS
 10
-0.822961
 20
-0.084630
  0
VERTEX
  8
PLAN_1
 62
     2
  6
CONTINUOUS
 10
-0.823437
 20
-0.081760
  0
VERTEX
  8
PLAN_1
 62
     2
  6
CONTINUOUS
 10
-0.823437
 20
-0.078417
  0
VERTEX
  8
PLAN_1
 62
     2
  6
CONTINUOUS
 10
-0.823913
 20
-0.075071
  0
VERTEX
  8
PLAN_1
 62
     2
  6
CONTINUOUS
 10
-0.825350
 20
-0.071724
  0
VERTEX
  8
PLAN_1
 62
     2
  6
CONTINUOUS
 10
-0.826303
 20
-0.070291
  0
VERTEX
  8
PLAN_1
 62
     2
  6
CONTINUOUS
 10
-0.827260
 20
-0.068858
  0
VERTEX
  8
PLAN_1
 62
     2
  6
CONTINUOUS
 10
-0.828217
 20
-0.067425
  0
VERTEX
  8
PLAN_1
 62
     2
  6
CONTINUOUS
 10
-0.829650
 20
-0.066469
  0
VERTEX
  8
PLAN_1
 62
     2
  6
CONTINUOUS
 10
-0.831563
 20
-0.065512
  0
VERTEX
  8
PLAN_1
 62
     2
  6
CONTINUOUS
 10
-0.833472
 20
-0.064559
  0
VERTEX
  8
PLAN_1
 62
     2
  6
CONTINUOUS
 10
-0.835386
 20
-0.064559
  0
VERTEX
  8
PLAN_1
 62
     2
  6
CONTINUOUS
 10
-0.838252
 20
-0.064079
  0
VERTEX
  8
PLAN_1
 62
     2
  6
CONTINUOUS
 10
-0.840161
 20
-0.064559
  0
VERTEX
  8
PLAN_1
 62
     2
  6
CONTINUOUS
 10
-0.842551
 20
-0.065035
  0
VERTEX
  8
PLAN_1
 62
     2
  6
CONTINUOUS
 10
-0.844465
 20
-0.065512
  0
VERTEX
  8
PLAN_1
 62
     2
  6
CONTINUOUS
 10
-0.845898
 20
-0.066469
  0
VERTEX
  8
PLAN_1
 62
     2
  6
CONTINUOUS
 10
-0.847331
 20
-0.067902
  0
VERTEX
  8
PLAN_1
 62
     2
  6
CONTINUOUS
 10
-0.848287
 20
-0.069335
  0
VERTEX
  8
PLAN_1
 62
     2
  6
CONTINUOUS
 10
-0.849720
 20
-0.070772
  0
VERTEX
  8
PLAN_1
 62
     2
  6
CONTINUOUS
 10
-0.850197
 20
-0.072205
  0
VERTEX
  8
PLAN_1
 62
     2
  6
CONTINUOUS
 10
-0.851634
 20
-0.076028
  0
VERTEX
  8
PLAN_1
 62
     2
  6
CONTINUOUS
 10
-0.852110
 20
-0.079850
  0
VERTEX
  8
PLAN_1
 62
     2
  6
CONTINUOUS
 10
-0.852587
 20
-0.083673
  0
VERTEX
  8
PLAN_1
 62
     2
  6
CONTINUOUS
 10
-0.852587
 20
-0.087496
  0
VERTEX
  8
PLAN_1
 62
     2
  6
CONTINUOUS
 10
-0.852110
 20
-0.092276
  0
VERTEX
  8
PLAN_1
 62
     2
  6
CONTINUOUS
 10
-0.851154
 20
-0.096098
  0
VERTEX
  8
PLAN_1
 62
     2
  6
CONTINUOUS
 10
-0.849720
 20
-0.099441
  0
VERTEX
  8
PLAN_1
 62
     2
  6
CONTINUOUS
 10
-0.847331
 20
-0.101831
  0
VERTEX
  8
PLAN_1
 62
     2
  6
CONTINUOUS
 10
-0.844941
 20
-0.103744
  0
VERTEX
  8
PLAN_1
 62
     2
  6
CONTINUOUS
 10
-0.842551
 20
-0.104701
  0
VERTEX
  8
PLAN_1
 62
     2
  6
CONTINUOUS
 10
-0.840161
 20
-0.105177
  0
VERTEX
  8
PLAN_1
 62
     2
  6
CONTINUOUS
 10
-0.837776
 20
-0.105654
  0
SEQEND
  8
0
  0
POLYLINE
  8
PLAN_1
 62
     2
  6
CONTINUOUS
 66
     1
 40
0.003000
 41
0.003000
  0
VERTEX
  8
PLAN_1
 62
     2
  6
CONTINUOUS
 10
-0.792374
 20
-0.111866
  0
VERTEX
  8
PLAN_1
 62
     2
  6
CONTINUOUS
 10
-0.801457
 20
-0.111866
  0
VERTEX
  8
PLAN_1
 62
     2
  6
CONTINUOUS
 10
-0.801457
 20
-0.057390
  0
VERTEX
  8
PLAN_1
 62
     2
  6
CONTINUOUS
 10
-0.792854
 20
-0.057390
  0
VERTEX
  8
PLAN_1
 62
     2
  6
CONTINUOUS
 10
-0.792854
 20
-0.066469
  0
VERTEX
  8
PLAN_1
 62
     2
  6
CONTINUOUS
 10
-0.791421
 20
-0.064079
  0
VERTEX
  8
PLAN_1
 62
     2
  6
CONTINUOUS
 10
-0.789984
 20
-0.062169
  0
VERTEX
  8
PLAN_1
 62
     2
  6
CONTINUOUS
 10
-0.788075
 20
-0.060256
  0
VERTEX
  8
PLAN_1
 62
     2
  6
CONTINUOUS
 10
-0.786161
 20
-0.058823
  0
VERTEX
  8
PLAN_1
 62
     2
  6
CONTINUOUS
 10
-0.784252
 20
-0.057866
  0
VERTEX
  8
PLAN_1
 62
     2
  6
CONTINUOUS
 10
-0.782339
 20
-0.056909
  0
VERTEX
  8
PLAN_1
 62
     2
  6
CONTINUOUS
 10
-0.779949
 20
-0.055957
  0
VERTEX
  8
PLAN_1
 62
     2
  6
CONTINUOUS
 10
-0.777563
 20
-0.055957
  0
VERTEX
  8
PLAN_1
 62
     2
  6
CONTINUOUS
 10
-0.777083
 20
-0.055957
  0
VERTEX
  8
PLAN_1
 62
     2
  6
CONTINUOUS
 10
-0.776606
 20
-0.055957
  0
VERTEX
  8
PLAN_1
 62
     2
  6
CONTINUOUS
 10
-0.776126
 20
-0.055957
  0
VERTEX
  8
PLAN_1
 62
     2
  6
CONTINUOUS
 10
-0.775650
 20
-0.055957
  0
VERTEX
  8
PLAN_1
 62
     2
  6
CONTINUOUS
 10
-0.775173
 20
-0.056433
  0
VERTEX
  8
PLAN_1
 62
     2
  6
CONTINUOUS
 10
-0.775173
 20
-0.065512
  0
VERTEX
  8
PLAN_1
 62
     2
  6
CONTINUOUS
 10
-0.778516
 20
-0.065512
  0
VERTEX
  8
PLAN_1
 62
     2
  6
CONTINUOUS
 10
-0.781386
 20
-0.065992
  0
VERTEX
  8
PLAN_1
 62
     2
  6
CONTINUOUS
 10
-0.784252
 20
-0.066945
  0
VERTEX
  8
PLAN_1
 62
     2
  6
CONTINUOUS
 10
-0.786642
 20
-0.068382
  0
VERTEX
  8
PLAN_1
 62
     2
  6
CONTINUOUS
 10
-0.788551
 20
-0.069815
  0
VERTEX
  8
PLAN_1
 62
     2
  6
CONTINUOUS
 10
-0.790465
 20
-0.072205
  0
VERTEX
  8
PLAN_1
 62
     2
  6
CONTINUOUS
 10
-0.791421
 20
-0.074594
  0
VERTEX
  8
PLAN_1
 62
     2
  6
CONTINUOUS
 10
-0.792374
 20
-0.077461
  0
VERTEX
  8
PLAN_1
 62
     2
  6
CONTINUOUS
 10
-0.792374
 20
-0.080327
  0
VERTEX
  8
PLAN_1
 62
     2
  6
CONTINUOUS
 10
-0.792374
 20
-0.111866
  0
SEQEND
  8
0
  0
POLYLINE
  8
PLAN_1
 62
     2
  6
CONTINUOUS
 66
     1
 40
0.003000
 41
0.003000
  0
VERTEX
  8
PLAN_1
 62
     2
  6
CONTINUOUS
 10
-0.722126
 20
-0.094665
  0
VERTEX
  8
PLAN_1
 62
     2
  6
CONTINUOUS
 10
-0.722126
 20
-0.096098
  0
VERTEX
  8
PLAN_1
 62
     2
  6
CONTINUOUS
 10
-0.722606
 20
-0.097531
  0
VERTEX
  8
PLAN_1
 62
     2
  6
CONTINUOUS
 10
-0.723563
 20
-0.099441
  0
VERTEX
  8
PLAN_1
 62
     2
  6
CONTINUOUS
 10
-0.724516
 20
-0.101354
  0
VERTEX
  8
PLAN_1
 62
     2
  6
CONTINUOUS
 10
-0.725472
 20
-0.103744
  0
VERTEX
  8
PLAN_1
 62
     2
  6
CONTINUOUS
 10
-0.727386
 20
-0.105654
  0
VERTEX
  8
PLAN_1
 62
     2
  6
CONTINUOUS
 10
-0.729295
 20
-0.108043
  0
VERTEX
  8
PLAN_1
 62
     2
  6
CONTINUOUS
 10
-0.731685
 20
-0.109957
  0
VERTEX
  8
PLAN_1
 62
     2
  6
CONTINUOUS
 10
-0.732642
 20
-0.110433
  0
VERTEX
  8
PLAN_1
 62
     2
  6
CONTINUOUS
 10
-0.733598
 20
-0.110909
  0
VERTEX
  8
PLAN_1
 62
     2
  6
CONTINUOUS
 10
-0.735031
 20
-0.111866
  0
VERTEX
  8
PLAN_1
 62
     2
  6
CONTINUOUS
 10
-0.736465
 20
-0.112346
  0
VERTEX
  8
PLAN_1
 62
     2
  6
CONTINUOUS
 10
-0.738374
 20
-0.112823
  0
VERTEX
  8
PLAN_1
 62
     2
  6
CONTINUOUS
 10
-0.740764
 20
-0.113299
  0
VERTEX
  8
PLAN_1
 62
     2
  6
CONTINUOUS
 10
-0.743154
 20
-0.113299
  0
VERTEX
  8
PLAN_1
 62
     2
  6
CONTINUOUS
 10
-0.746500
 20
-0.113299
  0
VERTEX
  8
PLAN_1
 62
     2
  6
CONTINUOUS
 10
-0.749366
 20
-0.113299
  0
VERTEX
  8
PLAN_1
 62
     2
  6
CONTINUOUS
 10
-0.751756
 20
-0.112823
  0
VERTEX
  8
PLAN_1
 62
     2
  6
CONTINUOUS
 10
-0.754146
 20
-0.112346
  0
VERTEX
  8
PLAN_1
 62
     2
  6
CONTINUOUS
 10
-0.756535
 20
-0.111390
  0
VERTEX
  8
PLAN_1
 62
     2
  6
CONTINUOUS
 10
-0.758925
 20
-0.110433
  0
VERTEX
  8
PLAN_1
 62
     2
  6
CONTINUOUS
 10
-0.760835
 20
-0.109000
  0
VERTEX
  8
PLAN_1
 62
     2
  6
CONTINUOUS
 10
-0.762748
 20
-0.107567
  0
VERTEX
  8
PLAN_1
 62
     2
  6
CONTINUOUS
 10
-0.764181
 20
-0.105654
  0
VERTEX
  8
PLAN_1
 62
     2
  6
CONTINUOUS
 10
-0.765614
 20
-0.103744
  0
VERTEX
  8
PLAN_1
 62
     2
  6
CONTINUOUS
 10
-0.767047
 20
-0.101831
  0
VERTEX
  8
PLAN_1
 62
     2
  6
CONTINUOUS
 10
-0.768004
 20
-0.099441
  0
VERTEX
  8
PLAN_1
 62
     2
  6
CONTINUOUS
 10
-0.768961
 20
-0.097051
  0
VERTEX
  8
PLAN_1
 62
     2
  6
CONTINUOUS
 10
-0.770394
 20
-0.091795
  0
VERTEX
  8
PLAN_1
 62
     2
  6
CONTINUOUS
 10
-0.770870
 20
-0.086063
  0
VERTEX
  8
PLAN_1
 62
     2
  6
CONTINUOUS
 10
-0.770394
 20
-0.080327
  0
VERTEX
  8
PLAN_1
 62
     2
  6
CONTINUOUS
 10
-0.769437
 20
-0.074594
  0
VERTEX
  8
PLAN_1
 62
     2
  6
CONTINUOUS
 10
-0.768480
 20
-0.071724
  0
VERTEX
  8
PLAN_1
 62
     2
  6
CONTINUOUS
 10
-0.767047
 20
-0.069335
  0
VERTEX
  8
PLAN_1
 62
     2
  6
CONTINUOUS
 10
-0.766091
 20
-0.066945
  0
VERTEX
  8
PLAN_1
 62
     2
  6
CONTINUOUS
 10
-0.764657
 20
-0.064559
  0
VERTEX
  8
PLAN_1
 62
     2
  6
CONTINUOUS
 10
-0.762748
 20
-0.062646
  0
VERTEX
  8
PLAN_1
 62
     2
  6
CONTINUOUS
 10
-0.760835
 20
-0.061213
  0
VERTEX
  8
PLAN_1
 62
     2
  6
CONTINUOUS
 10
-0.758445
 20
-0.059780
  0
VERTEX
  8
PLAN_1
 62
     2
  6
CONTINUOUS
 10
-0.756535
 20
-0.058346
  0
VERTEX
  8
PLAN_1
 62
     2
  6
CONTINUOUS
 10
-0.753669
 20
-0.057390
  0
VERTEX
  8
PLAN_1
 62
     2
  6
CONTINUOUS
 10
-0.750799
 20
-0.056433
  0
VERTEX
  8
PLAN_1
 62
     2
  6
CONTINUOUS
 10
-0.747933
 20
-0.055957
  0
VERTEX
  8
PLAN_1
 62
     2
  6
CONTINUOUS
 10
-0.744587
 20
-0.055957
  0
VERTEX
  8
PLAN_1
 62
     2
  6
CONTINUOUS
 10
-0.741720
 20
-0.055957
  0
VERTEX
  8
PLAN_1
 62
     2
  6
CONTINUOUS
 10
-0.739331
 20
-0.056433
  0
VERTEX
  8
PLAN_1
 62
     2
  6
CONTINUOUS
 10
-0.736465
 20
-0.057390
  0
VERTEX
  8
PLAN_1
 62
     2
  6
CONTINUOUS
 10
-0.734551
 20
-0.058346
  0
VERTEX
  8
PLAN_1
 62
     2
  6
CONTINUOUS
 10
-0.732161
 20
-0.059299
  0
VERTEX
  8
PLAN_1
 62
     2
  6
CONTINUOUS
 10
-0.730252
 20
-0.060736
  0
VERTEX
  8
PLAN_1
 62
     2
  6
CONTINUOUS
 10
-0.728819
 20
-0.062646
  0
VERTEX
  8
PLAN_1
 62
     2
  6
CONTINUOUS
 10
-0.726906
 20
-0.064559
  0
VERTEX
  8
PLAN_1
 62
     2
  6
CONTINUOUS
 10
-0.725472
 20
-0.066945
  0
VERTEX
  8
PLAN_1
 62
     2
  6
CONTINUOUS
 10
-0.724516
 20
-0.069335
  0
VERTEX
  8
PLAN_1
 62
     2
  6
CONTINUOUS
 10
-0.723563
 20
-0.071724
  0
VERTEX
  8
PLAN_1
 62
     2
  6
CONTINUOUS
 10
-0.722606
 20
-0.074594
  0
VERTEX
  8
PLAN_1
 62
     2
  6
CONTINUOUS
 10
-0.721650
 20
-0.080803
  0
VERTEX
  8
PLAN_1
 62
     2
  6
CONTINUOUS
 10
-0.721173
 20
-0.087496
  0
VERTEX
  8
PLAN_1
 62
     2
  6
CONTINUOUS
 10
-0.760835
 20
-0.087496
  0
VERTEX
  8
PLAN_1
 62
     2
  6
CONTINUOUS
 10
-0.760835
 20
-0.091795
  0
VERTEX
  8
PLAN_1
 62
     2
  6
CONTINUOUS
 10
-0.759882
 20
-0.095142
  0
VERTEX
  8
PLAN_1
 62
     2
  6
CONTINUOUS
 10
-0.758925
 20
-0.098488
  0
VERTEX
  8
PLAN_1
 62
     2
  6
CONTINUOUS
 10
-0.757012
 20
-0.100874
  0
VERTEX
  8
PLAN_1
 62
     2
  6
CONTINUOUS
 10
-0.754622
 20
-0.102787
  0
VERTEX
  8
PLAN_1
 62
     2
  6
CONTINUOUS
 10
-0.752232
 20
-0.104220
  0
VERTEX
  8
PLAN_1
 62
     2
  6
CONTINUOUS
 10
-0.748890
 20
-0.105177
  0
VERTEX
  8
PLAN_1
 62
     2
  6
CONTINUOUS
 10
-0.745067
 20
-0.105654
  0
VERTEX
  8
PLAN_1
 62
     2
  6
CONTINUOUS
 10
-0.742197
 20
-0.105177
  0
VERTEX
  8
PLAN_1
 62
     2
  6
CONTINUOUS
 10
-0.739331
 20
-0.104701
  0
VERTEX
  8
PLAN_1
 62
     2
  6
CONTINUOUS
 10
-0.736941
 20
-0.103264
  0
VERTEX
  8
PLAN_1
 62
     2
  6
CONTINUOUS
 10
-0.735031
 20
-0.101831
  0
VERTEX
  8
PLAN_1
 62
     2
  6
CONTINUOUS
 10
-0.733598
 20
-0.099921
  0
VERTEX
  8
PLAN_1
 62
     2
  6
CONTINUOUS
 10
-0.732161
 20
-0.098488
  0
VERTEX
  8
PLAN_1
 62
     2
  6
CONTINUOUS
 10
-0.731685
 20
-0.096575
  0
VERTEX
  8
PLAN_1
 62
     2
  6
CONTINUOUS
 10
-0.731209
 20
-0.094665
  0
VERTEX
  8
PLAN_1
 62
     2
  6
CONTINUOUS
 10
-0.722126
 20
-0.094665
  0
SEQEND
  8
0
  0
POLYLINE
  8
PLAN_1
 62
     2
  6
CONTINUOUS
 66
     1
 40
0.003000
 41
0.003000
  0
VERTEX
  8
PLAN_1
 62
     2
  6
CONTINUOUS
 10
-0.730728
 20
-0.080327
  0
VERTEX
  8
PLAN_1
 62
     2
  6
CONTINUOUS
 10
-0.731209
 20
-0.077461
  0
VERTEX
  8
PLAN_1
 62
     2
  6
CONTINUOUS
 10
-0.731685
 20
-0.074114
  0
VERTEX
  8
PLAN_1
 62
     2
  6
CONTINUOUS
 10
-0.732642
 20
-0.071724
  0
VERTEX
  8
PLAN_1
 62
     2
  6
CONTINUOUS
 10
-0.734551
 20
-0.069335
  0
VERTEX
  8
PLAN_1
 62
     2
  6
CONTINUOUS
 10
-0.736465
 20
-0.066945
  0
VERTEX
  8
PLAN_1
 62
     2
  6
CONTINUOUS
 10
-0.738854
 20
-0.065512
  0
VERTEX
  8
PLAN_1
 62
     2
  6
CONTINUOUS
 10
-0.742197
 20
-0.064559
  0
VERTEX
  8
PLAN_1
 62
     2
  6
CONTINUOUS
 10
-0.746020
 20
-0.064079
  0
VERTEX
  8
PLAN_1
 62
     2
  6
CONTINUOUS
 10
-0.748890
 20
-0.064559
  0
VERTEX
  8
PLAN_1
 62
     2
  6
CONTINUOUS
 10
-0.751756
 20
-0.065512
  0
VERTEX
  8
PLAN_1
 62
     2
  6
CONTINUOUS
 10
-0.754146
 20
-0.066945
  0
VERTEX
  8
PLAN_1
 62
     2
  6
CONTINUOUS
 10
-0.756535
 20
-0.069335
  0
VERTEX
  8
PLAN_1
 62
     2
  6
CONTINUOUS
 10
-0.758445
 20
-0.071724
  0
VERTEX
  8
PLAN_1
 62
     2
  6
CONTINUOUS
 10
-0.759882
 20
-0.074114
  0
VERTEX
  8
PLAN_1
 62
     2
  6
CONTINUOUS
 10
-0.760835
 20
-0.077461
  0
VERTEX
  8
PLAN_1
 62
     2
  6
CONTINUOUS
 10
-0.760835
 20
-0.080327
  0
VERTEX
  8
PLAN_1
 62
     2
  6
CONTINUOUS
 10
-0.730728
 20
-0.080327
  0
SEQEND
  8
0
  0
POLYLINE
  8
PLAN_1
 62
     2
  6
CONTINUOUS
 66
     1
 40
0.003000
 41
0.003000
  0
VERTEX
  8
PLAN_1
 62
     2
  6
CONTINUOUS
 10
-0.679118
 20
-0.073157
  0
VERTEX
  8
PLAN_1
 62
     2
  6
CONTINUOUS
 10
-0.679598
 20
-0.071724
  0
VERTEX
  8
PLAN_1
 62
     2
  6
CONTINUOUS
 10
-0.679598
 20
-0.070291
  0
VERTEX
  8
PLAN_1
 62
     2
  6
CONTINUOUS
 10
-0.680551
 20
-0.068382
  0
VERTEX
  8
PLAN_1
 62
     2
  6
CONTINUOUS
 10
-0.681508
 20
-0.066945
  0
VERTEX
  8
PLAN_1
 62
     2
  6
CONTINUOUS
 10
-0.682941
 20
-0.065992
  0
VERTEX
  8
PLAN_1
 62
     2
  6
CONTINUOUS
 10
-0.685331
 20
-0.065035
  0
VERTEX
  8
PLAN_1
 62
     2
  6
CONTINUOUS
 10
-0.688197
 20
-0.064079
  0
VERTEX
  8
PLAN_1
 62
     2
  6
CONTINUOUS
 10
-0.692024
 20
-0.064079
  0
VERTEX
  8
PLAN_1
 62
     2
  6
CONTINUOUS
 10
-0.693457
 20
-0.064079
  0
VERTEX
  8
PLAN_1
 62
     2
  6
CONTINUOUS
 10
-0.695366
 20
-0.064079
  0
VERTEX
  8
PLAN_1
 62
     2
  6
CONTINUOUS
 10
-0.696799
 20
-0.064559
  0
VERTEX
  8
PLAN_1
 62
     2
  6
CONTINUOUS
 10
-0.698713
 20
-0.065035
  0
VERTEX
  8
PLAN_1
 62
     2
  6
CONTINUOUS
 10
-0.700622
 20
-0.065992
  0
VERTEX
  8
PLAN_1
 62
     2
  6
CONTINUOUS
 10
-0.701579
 20
-0.067425
  0
VERTEX
  8
PLAN_1
 62
     2
  6
CONTINUOUS
 10
-0.702535
 20
-0.069335
  0
VERTEX
  8
PLAN_1
 62
     2
  6
CONTINUOUS
 10
-0.703012
 20
-0.071724
  0
VERTEX
  8
PLAN_1
 62
     2
  6
CONTINUOUS
 10
-0.703012
 20
-0.073157
  0
VERTEX
  8
PLAN_1
 62
     2
  6
CONTINUOUS
 10
-0.702535
 20
-0.074114
  0
VERTEX
  8
PLAN_1
 62
     2
  6
CONTINUOUS
 10
-0.702059
 20
-0.075547
  0
VERTEX
  8
PLAN_1
 62
     2
  6
CONTINUOUS
 10
-0.700622
 20
-0.076028
  0
VERTEX
  8
PLAN_1
 62
     2
  6
CONTINUOUS
 10
-0.699669
 20
-0.076980
  0
VERTEX
  8
PLAN_1
 62
     2
  6
CONTINUOUS
 10
-0.697756
 20
-0.077461
  0
VERTEX
  8
PLAN_1
 62
     2
  6
CONTINUOUS
 10
-0.695846
 20
-0.078417
  0
VERTEX
  8
PLAN_1
 62
     2
  6
CONTINUOUS
 10
-0.692976
 20
-0.078894
  0
VERTEX
  8
PLAN_1
 62
     2
  6
CONTINUOUS
 10
-0.683898
 20
-0.081283
  0
VERTEX
  8
PLAN_1
 62
     2
  6
CONTINUOUS
 10
-0.680075
 20
-0.082240
  0
VERTEX
  8
PLAN_1
 62
     2
  6
CONTINUOUS
 10
-0.676728
 20
-0.083673
  0
VERTEX
  8
PLAN_1
 62
     2
  6
CONTINUOUS
 10
-0.674339
 20
-0.085106
  0
VERTEX
  8
PLAN_1
 62
     2
  6
CONTINUOUS
 10
-0.671953
 20
-0.086539
  0
VERTEX
  8
PLAN_1
 62
     2
  6
CONTINUOUS
 10
-0.670516
 20
-0.088453
  0
VERTEX
  8
PLAN_1
 62
     2
  6
CONTINUOUS
 10
-0.669563
 20
-0.090362
  0
VERTEX
  8
PLAN_1
 62
     2
  6
CONTINUOUS
 10
-0.669083
 20
-0.092752
  0
VERTEX
  8
PLAN_1
 62
     2
  6
CONTINUOUS
 10
-0.668606
 20
-0.095618
  0
VERTEX
  8
PLAN_1
 62
     2
  6
CONTINUOUS
 10
-0.669083
 20
-0.099441
  0
VERTEX
  8
PLAN_1
 62
     2
  6
CONTINUOUS
 10
-0.670516
 20
-0.103264
  0
VERTEX
  8
PLAN_1
 62
     2
  6
CONTINUOUS
 10
-0.672429
 20
-0.106134
  0
VERTEX
  8
PLAN_1
 62
     2
  6
CONTINUOUS
 10
-0.674819
 20
-0.108524
  0
VERTEX
  8
PLAN_1
 62
     2
  6
CONTINUOUS
 10
-0.678165
 20
-0.110909
  0
VERTEX
  8
PLAN_1
 62
     2
  6
CONTINUOUS
 10
-0.681508
 20
-0.112346
  0
VERTEX
  8
PLAN_1
 62
     2
  6
CONTINUOUS
 10
-0.685811
 20
-0.113299
  0
VERTEX
  8
PLAN_1
 62
     2
  6
CONTINUOUS
 10
-0.690110
 20
-0.113299
  0
VERTEX
  8
PLAN_1
 62
     2
  6
CONTINUOUS
 10
-0.693933
 20
-0.113299
  0
VERTEX
  8
PLAN_1
 62
     2
  6
CONTINUOUS
 10
-0.697280
 20
-0.112823
  0
VERTEX
  8
PLAN_1
 62
     2
  6
CONTINUOUS
 10
-0.700622
 20
-0.112346
  0
VERTEX
  8
PLAN_1
 62
     2
  6
CONTINUOUS
 10
-0.703012
 20
-0.111390
  0
VERTEX
  8
PLAN_1
 62
     2
  6
CONTINUOUS
 10
-0.705402
 20
-0.110433
  0
VERTEX
  8
PLAN_1
 62
     2
  6
CONTINUOUS
 10
-0.707315
 20
-0.109000
  0
VERTEX
  8
PLAN_1
 62
     2
  6
CONTINUOUS
 10
-0.708748
 20
-0.108043
  0
VERTEX
  8
PLAN_1
 62
     2
  6
CONTINUOUS
 10
-0.710181
 20
-0.106610
  0
VERTEX
  8
PLAN_1
 62
     2
  6
CONTINUOUS
 10
-0.711614
 20
-0.103264
  0
VERTEX
  8
PLAN_1
 62
     2
  6
CONTINUOUS
 10
-0.713047
 20
-0.100398
  0
VERTEX
  8
PLAN_1
 62
     2
  6
CONTINUOUS
 10
-0.713528
 20
-0.097051
  0
VERTEX
  8
PLAN_1
 62
     2
  6
CONTINUOUS
 10
-0.713528
 20
-0.094665
  0
VERTEX
  8
PLAN_1
 62
     2
  6
CONTINUOUS
 10
-0.704925
 20
-0.094665
  0
VERTEX
  8
PLAN_1
 62
     2
  6
CONTINUOUS
 10
-0.704445
 20
-0.096098
  0
VERTEX
  8
PLAN_1
 62
     2
  6
CONTINUOUS
 10
-0.704445
 20
-0.098008
  0
VERTEX
  8
PLAN_1
 62
     2
  6
CONTINUOUS
 10
-0.703492
 20
-0.099921
  0
VERTEX
  8
PLAN_1
 62
     2
  6
CONTINUOUS
 10
-0.702535
 20
-0.101831
  0
VERTEX
  8
PLAN_1
 62
     2
  6
CONTINUOUS
 10
-0.700622
 20
-0.103264
  0
VERTEX
  8
PLAN_1
 62
     2
  6
CONTINUOUS
 10
-0.698232
 20
-0.104220
  0
VERTEX
  8
PLAN_1
 62
     2
  6
CONTINUOUS
 10
-0.694890
 20
-0.105177
  0
VERTEX
  8
PLAN_1
 62
     2
  6
CONTINUOUS
 10
-0.690587
 20
-0.105654
  0
VERTEX
  8
PLAN_1
 62
     2
  6
CONTINUOUS
 10
-0.688197
 20
-0.105654
  0
VERTEX
  8
PLAN_1
 62
     2
  6
CONTINUOUS
 10
-0.685811
 20
-0.105177
  0
VERTEX
  8
PLAN_1
 62
     2
  6
CONTINUOUS
 10
-0.683421
 20
-0.104220
  0
VERTEX
  8
PLAN_1
 62
     2
  6
CONTINUOUS
 10
-0.681508
 20
-0.103744
  0
VERTEX
  8
PLAN_1
 62
     2
  6
CONTINUOUS
 10
-0.680075
 20
-0.102311
  0
VERTEX
  8
PLAN_1
 62
     2
  6
CONTINUOUS
 10
-0.679118
 20
-0.100874
  0
VERTEX
  8
PLAN_1
 62
     2
  6
CONTINUOUS
 10
-0.678165
 20
-0.098965
  0
VERTEX
  8
PLAN_1
 62
     2
  6
CONTINUOUS
 10
-0.677685
 20
-0.097051
  0
VERTEX
  8
PLAN_1
 62
     2
  6
CONTINUOUS
 10
-0.678165
 20
-0.095618
  0
VERTEX
  8
PLAN_1
 62
     2
  6
CONTINUOUS
 10
-0.678642
 20
-0.094185
  0
VERTEX
  8
PLAN_1
 62
     2
  6
CONTINUOUS
 10
-0.679118
 20
-0.093228
  0
VERTEX
  8
PLAN_1
 62
     2
  6
CONTINUOUS
 10
-0.680551
 20
-0.092276
  0
VERTEX
  8
PLAN_1
 62
     2
  6
CONTINUOUS
 10
-0.681988
 20
-0.091319
  0
VERTEX
  8
PLAN_1
 62
     2
  6
CONTINUOUS
 10
-0.683898
 20
-0.090362
  0
VERTEX
  8
PLAN_1
 62
     2
  6
CONTINUOUS
 10
-0.685811
 20
-0.089886
  0
VERTEX
  8
PLAN_1
 62
     2
  6
CONTINUOUS
 10
-0.688677
 20
-0.088929
  0
VERTEX
  8
PLAN_1
 62
     2
  6
CONTINUOUS
 10
-0.699189
 20
-0.086539
  0
VERTEX
  8
PLAN_1
 62
     2
  6
CONTINUOUS
 10
-0.702059
 20
-0.085583
  0
VERTEX
  8
PLAN_1
 62
     2
  6
CONTINUOUS
 10
-0.704445
 20
-0.084630
  0
VERTEX
  8
PLAN_1
 62
     2
  6
CONTINUOUS
 10
-0.706835
 20
-0.083673
  0
VERTEX
  8
PLAN_1
 62
     2
  6
CONTINUOUS
 10
-0.708268
 20
-0.082240
  0
VERTEX
  8
PLAN_1
 62
     2
  6
CONTINUOUS
 10
-0.710181
 20
-0.080327
  0
VERTEX
  8
PLAN_1
 62
     2
  6
CONTINUOUS
 10
-0.711138
 20
-0.078417
  0
VERTEX
  8
PLAN_1
 62
     2
  6
CONTINUOUS
 10
-0.711614
 20
-0.076028
  0
VERTEX
  8
PLAN_1
 62
     2
  6
CONTINUOUS
 10
-0.712091
 20
-0.073157
  0
VERTEX
  8
PLAN_1
 62
     2
  6
CONTINUOUS
 10
-0.711614
 20
-0.069335
  0
VERTEX
  8
PLAN_1
 62
     2
  6
CONTINUOUS
 10
-0.710181
 20
-0.065512
  0
VERTEX
  8
PLAN_1
 62
     2
  6
CONTINUOUS
 10
-0.708268
 20
-0.062646
  0
VERTEX
  8
PLAN_1
 62
     2
  6
CONTINUOUS
 10
-0.705882
 20
-0.060256
  0
VERTEX
  8
PLAN_1
 62
     2
  6
CONTINUOUS
 10
-0.702535
 20
-0.058346
  0
VERTEX
  8
PLAN_1
 62
     2
  6
CONTINUOUS
 10
-0.699189
 20
-0.056909
  0
VERTEX
  8
PLAN_1
 62
     2
  6
CONTINUOUS
 10
-0.695366
 20
-0.056433
  0
VERTEX
  8
PLAN_1
 62
     2
  6
CONTINUOUS
 10
-0.691543
 20
-0.055957
  0
VERTEX
  8
PLAN_1
 62
     2
  6
CONTINUOUS
 10
-0.687720
 20
-0.055957
  0
VERTEX
  8
PLAN_1
 62
     2
  6
CONTINUOUS
 10
-0.684854
 20
-0.056433
  0
VERTEX
  8
PLAN_1
 62
     2
  6
CONTINUOUS
 10
-0.681988
 20
-0.057390
  0
VERTEX
  8
PLAN_1
 62
     2
  6
CONTINUOUS
 10
-0.680075
 20
-0.058346
  0
VERTEX
  8
PLAN_1
 62
     2
  6
CONTINUOUS
 10
-0.677685
 20
-0.059299
  0
VERTEX
  8
PLAN_1
 62
     2
  6
CONTINUOUS
 10
-0.676252
 20
-0.060736
  0
VERTEX
  8
PLAN_1
 62
     2
  6
CONTINUOUS
 10
-0.674819
 20
-0.062169
  0
VERTEX
  8
PLAN_1
 62
     2
  6
CONTINUOUS
 10
-0.673862
 20
-0.063602
  0
VERTEX
  8
PLAN_1
 62
     2
  6
CONTINUOUS
 10
-0.671953
 20
-0.066469
  0
VERTEX
  8
PLAN_1
 62
     2
  6
CONTINUOUS
 10
-0.670996
 20
-0.069335
  0
VERTEX
  8
PLAN_1
 62
     2
  6
CONTINUOUS
 10
-0.670516
 20
-0.071724
  0
VERTEX
  8
PLAN_1
 62
     2
  6
CONTINUOUS
 10
-0.670516
 20
-0.073157
  0
VERTEX
  8
PLAN_1
 62
     2
  6
CONTINUOUS
 10
-0.679118
 20
-0.073157
  0
SEQEND
  8
0
  0
POLYLINE
  8
PLAN_1
 62
     2
  6
CONTINUOUS
 66
     1
 40
0.003000
 41
0.003000
  0
VERTEX
  8
PLAN_1
 62
     2
  6
CONTINUOUS
 10
-0.627508
 20
-0.073157
  0
VERTEX
  8
PLAN_1
 62
     2
  6
CONTINUOUS
 10
-0.627508
 20
-0.071724
  0
VERTEX
  8
PLAN_1
 62
     2
  6
CONTINUOUS
 10
-0.627508
 20
-0.070291
  0
VERTEX
  8
PLAN_1
 62
     2
  6
CONTINUOUS
 10
-0.628465
 20
-0.068382
  0
VERTEX
  8
PLAN_1
 62
     2
  6
CONTINUOUS
 10
-0.629421
 20
-0.066945
  0
VERTEX
  8
PLAN_1
 62
     2
  6
CONTINUOUS
 10
-0.630854
 20
-0.065992
  0
VERTEX
  8
PLAN_1
 62
     2
  6
CONTINUOUS
 10
-0.633244
 20
-0.065035
  0
VERTEX
  8
PLAN_1
 62
     2
  6
CONTINUOUS
 10
-0.636110
 20
-0.064079
  0
VERTEX
  8
PLAN_1
 62
     2
  6
CONTINUOUS
 10
-0.640409
 20
-0.064079
  0
VERTEX
  8
PLAN_1
 62
     2
  6
CONTINUOUS
 10
-0.641366
 20
-0.064079
  0
VERTEX
  8
PLAN_1
 62
     2
  6
CONTINUOUS
 10
-0.643280
 20
-0.064079
  0
VERTEX
  8
PLAN_1
 62
     2
  6
CONTINUOUS
 10
-0.644713
 20
-0.064559
  0
VERTEX
  8
PLAN_1
 62
     2
  6
CONTINUOUS
 10
-0.646622
 20
-0.065035
  0
VERTEX
  8
PLAN_1
 62
     2
  6
CONTINUOUS
 10
-0.648535
 20
-0.065992
  0
VERTEX
  8
PLAN_1
 62
     2
  6
CONTINUOUS
 10
-0.649492
 20
-0.067425
  0
VERTEX
  8
PLAN_1
 62
     2
  6
CONTINUOUS
 10
-0.650445
 20
-0.069335
  0
VERTEX
  8
PLAN_1
 62
     2
  6
CONTINUOUS
 10
-0.650925
 20
-0.071724
  0
VERTEX
  8
PLAN_1
 62
     2
  6
CONTINUOUS
 10
-0.650925
 20
-0.073157
  0
VERTEX
  8
PLAN_1
 62
     2
  6
CONTINUOUS
 10
-0.650445
 20
-0.074114
  0
VERTEX
  8
PLAN_1
 62
     2
  6
CONTINUOUS
 10
-0.649969
 20
-0.075547
  0
VERTEX
  8
PLAN_1
 62
     2
  6
CONTINUOUS
 10
-0.648535
 20
-0.076028
  0
VERTEX
  8
PLAN_1
 62
     2
  6
CONTINUOUS
 10
-0.647579
 20
-0.076980
  0
VERTEX
  8
PLAN_1
 62
     2
  6
CONTINUOUS
 10
-0.645669
 20
-0.077461
  0
VERTEX
  8
PLAN_1
 62
     2
  6
CONTINUOUS
 10
-0.643756
 20
-0.078417
  0
VERTEX
  8
PLAN_1
 62
     2
  6
CONTINUOUS
 10
-0.640890
 20
-0.078894
  0
VERTEX
  8
PLAN_1
 62
     2
  6
CONTINUOUS
 10
-0.631811
 20
-0.081283
  0
VERTEX
  8
PLAN_1
 62
     2
  6
CONTINUOUS
 10
-0.627988
 20
-0.082240
  0
VERTEX
  8
PLAN_1
 62
     2
  6
CONTINUOUS
 10
-0.624642
 20
-0.083673
  0
VERTEX
  8
PLAN_1
 62
     2
  6
CONTINUOUS
 10
-0.622252
 20
-0.085106
  0
VERTEX
  8
PLAN_1
 62
     2
  6
CONTINUOUS
 10
-0.619862
 20
-0.086539
  0
VERTEX
  8
PLAN_1
 62
     2
  6
CONTINUOUS
 10
-0.618429
 20
-0.088453
  0
VERTEX
  8
PLAN_1
 62
     2
  6
CONTINUOUS
 10
-0.617472
 20
-0.090362
  0
VERTEX
  8
PLAN_1
 62
     2
  6
CONTINUOUS
 10
-0.616996
 20
-0.092752
  0
VERTEX
  8
PLAN_1
 62
     2
  6
CONTINUOUS
 10
-0.616516
 20
-0.095618
  0
VERTEX
  8
PLAN_1
 62
     2
  6
CONTINUOUS
 10
-0.616996
 20
-0.099441
  0
VERTEX
  8
PLAN_1
 62
     2
  6
CONTINUOUS
 10
-0.618429
 20
-0.103264
  0
VERTEX
  8
PLAN_1
 62
     2
  6
CONTINUOUS
 10
-0.620339
 20
-0.106134
  0
VERTEX
  8
PLAN_1
 62
     2
  6
CONTINUOUS
 10
-0.622728
 20
-0.108524
  0
VERTEX
  8
PLAN_1
 62
     2
  6
CONTINUOUS
 10
-0.626075
 20
-0.110909
  0
VERTEX
  8
PLAN_1
 62
     2
  6
CONTINUOUS
 10
-0.629898
 20
-0.112346
  0
VERTEX
  8
PLAN_1
 62
     2
  6
CONTINUOUS
 10
-0.633720
 20
-0.113299
  0
VERTEX
  8
PLAN_1
 62
     2
  6
CONTINUOUS
 10
-0.638024
 20
-0.113299
  0
VERTEX
  8
PLAN_1
 62
     2
  6
CONTINUOUS
 10
-0.641846
 20
-0.113299
  0
VERTEX
  8
PLAN_1
 62
     2
  6
CONTINUOUS
 10
-0.645189
 20
-0.112823
  0
VERTEX
  8
PLAN_1
 62
     2
  6
CONTINUOUS
 10
-0.648535
 20
-0.112346
  0
VERTEX
  8
PLAN_1
 62
     2
  6
CONTINUOUS
 10
-0.650925
 20
-0.111390
  0
VERTEX
  8
PLAN_1
 62
     2
  6
CONTINUOUS
 10
-0.653315
 20
-0.110433
  0
VERTEX
  8
PLAN_1
 62
     2
  6
CONTINUOUS
 10
-0.655224
 20
-0.109000
  0
VERTEX
  8
PLAN_1
 62
     2
  6
CONTINUOUS
 10
-0.656657
 20
-0.108043
  0
VERTEX
  8
PLAN_1
 62
     2
  6
CONTINUOUS
 10
-0.658094
 20
-0.106610
  0
VERTEX
  8
PLAN_1
 62
     2
  6
CONTINUOUS
 10
-0.659528
 20
-0.103264
  0
VERTEX
  8
PLAN_1
 62
     2
  6
CONTINUOUS
 10
-0.660961
 20
-0.100398
  0
VERTEX
  8
PLAN_1
 62
     2
  6
CONTINUOUS
 10
-0.661437
 20
-0.097051
  0
VERTEX
  8
PLAN_1
 62
     2
  6
CONTINUOUS
 10
-0.661437
 20
-0.094665
  0
VERTEX
  8
PLAN_1
 62
     2
  6
CONTINUOUS
 10
-0.652835
 20
-0.094665
  0
VERTEX
  8
PLAN_1
 62
     2
  6
CONTINUOUS
 10
-0.652358
 20
-0.096098
  0
VERTEX
  8
PLAN_1
 62
     2
  6
CONTINUOUS
 10
-0.652358
 20
-0.098008
  0
VERTEX
  8
PLAN_1
 62
     2
  6
CONTINUOUS
 10
-0.651402
 20
-0.099921
  0
VERTEX
  8
PLAN_1
 62
     2
  6
CONTINUOUS
 10
-0.650445
 20
-0.101831
  0
VERTEX
  8
PLAN_1
 62
     2
  6
CONTINUOUS
 10
-0.648535
 20
-0.103264
  0
VERTEX
  8
PLAN_1
 62
     2
  6
CONTINUOUS
 10
-0.646146
 20
-0.104220
  0
VERTEX
  8
PLAN_1
 62
     2
  6
CONTINUOUS
 10
-0.642799
 20
-0.105177
  0
VERTEX
  8
PLAN_1
 62
     2
  6
CONTINUOUS
 10
-0.638500
 20
-0.105654
  0
VERTEX
  8
PLAN_1
 62
     2
  6
CONTINUOUS
 10
-0.636110
 20
-0.105654
  0
VERTEX
  8
PLAN_1
 62
     2
  6
CONTINUOUS
 10
-0.633720
 20
-0.105177
  0
VERTEX
  8
PLAN_1
 62
     2
  6
CONTINUOUS
 10
-0.631331
 20
-0.104220
  0
VERTEX
  8
PLAN_1
 62
     2
  6
CONTINUOUS
 10
-0.629421
 20
-0.103744
  0
VERTEX
  8
PLAN_1
 62
     2
  6
CONTINUOUS
 10
-0.627988
 20
-0.102311
  0
VERTEX
  8
PLAN_1
 62
     2
  6
CONTINUOUS
 10
-0.627031
 20
-0.100874
  0
VERTEX
  8
PLAN_1
 62
     2
  6
CONTINUOUS
 10
-0.626075
 20
-0.098965
  0
VERTEX
  8
PLAN_1
 62
     2
  6
CONTINUOUS
 10
-0.625598
 20
-0.097051
  0
VERTEX
  8
PLAN_1
 62
     2
  6
CONTINUOUS
 10
-0.626075
 20
-0.095618
  0
VERTEX
  8
PLAN_1
 62
     2
  6
CONTINUOUS
 10
-0.626551
 20
-0.094185
  0
VERTEX
  8
PLAN_1
 62
     2
  6
CONTINUOUS
 10
-0.627031
 20
-0.093228
  0
VERTEX
  8
PLAN_1
 62
     2
  6
CONTINUOUS
 10
-0.628465
 20
-0.092276
  0
VERTEX
  8
PLAN_1
 62
     2
  6
CONTINUOUS
 10
-0.629898
 20
-0.091319
  0
VERTEX
  8
PLAN_1
 62
     2
  6
CONTINUOUS
 10
-0.631811
 20
-0.090362
  0
VERTEX
  8
PLAN_1
 62
     2
  6
CONTINUOUS
 10
-0.633720
 20
-0.089886
  0
VERTEX
  8
PLAN_1
 62
     2
  6
CONTINUOUS
 10
-0.636587
 20
-0.088929
  0
VERTEX
  8
PLAN_1
 62
     2
  6
CONTINUOUS
 10
-0.647102
 20
-0.086539
  0
VERTEX
  8
PLAN_1
 62
     2
  6
CONTINUOUS
 10
-0.649969
 20
-0.085583
  0
VERTEX
  8
PLAN_1
 62
     2
  6
CONTINUOUS
 10
-0.652358
 20
-0.084630
  0
VERTEX
  8
PLAN_1
 62
     2
  6
CONTINUOUS
 10
-0.654748
 20
-0.083673
  0
VERTEX
  8
PLAN_1
 62
     2
  6
CONTINUOUS
 10
-0.656181
 20
-0.082240
  0
VERTEX
  8
PLAN_1
 62
     2
  6
CONTINUOUS
 10
-0.658094
 20
-0.080327
  0
VERTEX
  8
PLAN_1
 62
     2
  6
CONTINUOUS
 10
-0.659047
 20
-0.078417
  0
VERTEX
  8
PLAN_1
 62
     2
  6
CONTINUOUS
 10
-0.659528
 20
-0.076028
  0
VERTEX
  8
PLAN_1
 62
     2
  6
CONTINUOUS
 10
-0.660004
 20
-0.073157
  0
VERTEX
  8
PLAN_1
 62
     2
  6
CONTINUOUS
 10
-0.659528
 20
-0.069335
  0
VERTEX
  8
PLAN_1
 62
     2
  6
CONTINUOUS
 10
-0.658094
 20
-0.065512
  0
VERTEX
  8
PLAN_1
 62
     2
  6
CONTINUOUS
 10
-0.656181
 20
-0.062646
  0
VERTEX
  8
PLAN_1
 62
     2
  6
CONTINUOUS
 10
-0.653791
 20
-0.060256
  0
VERTEX
  8
PLAN_1
 62
     2
  6
CONTINUOUS
 10
-0.650445
 20
-0.058346
  0
VERTEX
  8
PLAN_1
 62
     2
  6
CONTINUOUS
 10
-0.647102
 20
-0.056909
  0
VERTEX
  8
PLAN_1
 62
     2
  6
CONTINUOUS
 10
-0.643280
 20
-0.056433
  0
VERTEX
  8
PLAN_1
 62
     2
  6
CONTINUOUS
 10
-0.639457
 20
-0.055957
  0
VERTEX
  8
PLAN_1
 62
     2
  6
CONTINUOUS
 10
-0.635634
 20
-0.055957
  0
VERTEX
  8
PLAN_1
 62
     2
  6
CONTINUOUS
 10
-0.632764
 20
-0.056433
  0
VERTEX
  8
PLAN_1
 62
     2
  6
CONTINUOUS
 10
-0.629898
 20
-0.057390
  0
VERTEX
  8
PLAN_1
 62
     2
  6
CONTINUOUS
 10
-0.627988
 20
-0.058346
  0
VERTEX
  8
PLAN_1
 62
     2
  6
CONTINUOUS
 10
-0.625598
 20
-0.059299
  0
VERTEX
  8
PLAN_1
 62
     2
  6
CONTINUOUS
 10
-0.624165
 20
-0.060736
  0
VERTEX
  8
PLAN_1
 62
     2
  6
CONTINUOUS
 10
-0.622728
 20
-0.062169
  0
VERTEX
  8
PLAN_1
 62
     2
  6
CONTINUOUS
 10
-0.621776
 20
-0.063602
  0
VERTEX
  8
PLAN_1
 62
     2
  6
CONTINUOUS
 10
-0.619862
 20
-0.066469
  0
VERTEX
  8
PLAN_1
 62
     2
  6
CONTINUOUS
 10
-0.618906
 20
-0.069335
  0
VERTEX
  8
PLAN_1
 62
     2
  6
CONTINUOUS
 10
-0.618429
 20
-0.071724
  0
VERTEX
  8
PLAN_1
 62
     2
  6
CONTINUOUS
 10
-0.618429
 20
-0.073157
  0
VERTEX
  8
PLAN_1
 62
     2
  6
CONTINUOUS
 10
-0.627508
 20
-0.073157
  0
SEQEND
  8
0
  0
POLYLINE
  8
PLAN_1
 62
     2
  6
CONTINUOUS
 66
     1
 40
0.003000
 41
0.003000
  0
VERTEX
  8
PLAN_1
 62
     2
  6
CONTINUOUS
 10
-0.560130
 20
-0.094665
  0
VERTEX
  8
PLAN_1
 62
     2
  6
CONTINUOUS
 10
-0.560130
 20
-0.096098
  0
VERTEX
  8
PLAN_1
 62
     2
  6
CONTINUOUS
 10
-0.560606
 20
-0.097531
  0
VERTEX
  8
PLAN_1
 62
     2
  6
CONTINUOUS
 10
-0.561083
 20
-0.099441
  0
VERTEX
  8
PLAN_1
 62
     2
  6
CONTINUOUS
 10
-0.562516
 20
-0.101354
  0
VERTEX
  8
PLAN_1
 62
     2
  6
CONTINUOUS
 10
-0.563472
 20
-0.103744
  0
VERTEX
  8
PLAN_1
 62
     2
  6
CONTINUOUS
 10
-0.565386
 20
-0.105654
  0
VERTEX
  8
PLAN_1
 62
     2
  6
CONTINUOUS
 10
-0.567295
 20
-0.108043
  0
VERTEX
  8
PLAN_1
 62
     2
  6
CONTINUOUS
 10
-0.569685
 20
-0.109957
  0
VERTEX
  8
PLAN_1
 62
     2
  6
CONTINUOUS
 10
-0.570642
 20
-0.110433
  0
VERTEX
  8
PLAN_1
 62
     2
  6
CONTINUOUS
 10
-0.571598
 20
-0.110909
  0
VERTEX
  8
PLAN_1
 62
     2
  6
CONTINUOUS
 10
-0.573031
 20
-0.111866
  0
VERTEX
  8
PLAN_1
 62
     2
  6
CONTINUOUS
 10
-0.574465
 20
-0.112346
  0
VERTEX
  8
PLAN_1
 62
     2
  6
CONTINUOUS
 10
-0.576378
 20
-0.112823
  0
VERTEX
  8
PLAN_1
 62
     2
  6
CONTINUOUS
 10
-0.578764
 20
-0.113299
  0
VERTEX
  8
PLAN_1
 62
     2
  6
CONTINUOUS
 10
-0.581154
 20
-0.113299
  0
VERTEX
  8
PLAN_1
 62
     2
  6
CONTINUOUS
 10
-0.584500
 20
-0.113299
  0
VERTEX
  8
PLAN_1
 62
     2
  6
CONTINUOUS
 10
-0.587366
 20
-0.113299
  0
VERTEX
  8
PLAN_1
 62
     2
  6
CONTINUOUS
 10
-0.589756
 20
-0.112823
  0
VERTEX
  8
PLAN_1
 62
     2
  6
CONTINUOUS
 10
-0.592146
 20
-0.112346
  0
VERTEX
  8
PLAN_1
 62
     2
  6
CONTINUOUS
 10
-0.594535
 20
-0.111390
  0
VERTEX
  8
PLAN_1
 62
     2
  6
CONTINUOUS
 10
-0.596925
 20
-0.110433
  0
VERTEX
  8
PLAN_1
 62
     2
  6
CONTINUOUS
 10
-0.598835
 20
-0.109000
  0
VERTEX
  8
PLAN_1
 62
     2
  6
CONTINUOUS
 10
-0.600748
 20
-0.107567
  0
VERTEX
  8
PLAN_1
 62
     2
  6
CONTINUOUS
 10
-0.602181
 20
-0.105654
  0
VERTEX
  8
PLAN_1
 62
     2
  6
CONTINUOUS
 10
-0.603614
 20
-0.103744
  0
VERTEX
  8
PLAN_1
 62
     2
  6
CONTINUOUS
 10
-0.605047
 20
-0.101831
  0
VERTEX
  8
PLAN_1
 62
     2
  6
CONTINUOUS
 10
-0.606004
 20
-0.099441
  0
VERTEX
  8
PLAN_1
 62
     2
  6
CONTINUOUS
 10
-0.606961
 20
-0.097051
  0
VERTEX
  8
PLAN_1
 62
     2
  6
CONTINUOUS
 10
-0.608394
 20
-0.091795
  0
VERTEX
  8
PLAN_1
 62
     2
  6
CONTINUOUS
 10
-0.608870
 20
-0.086063
  0
VERTEX
  8
PLAN_1
 62
     2
  6
CONTINUOUS
 10
-0.608394
 20
-0.080327
  0
VERTEX
  8
PLAN_1
 62
     2
  6
CONTINUOUS
 10
-0.606961
 20
-0.074594
  0
VERTEX
  8
PLAN_1
 62
     2
  6
CONTINUOUS
 10
-0.606480
 20
-0.071724
  0
VERTEX
  8
PLAN_1
 62
     2
  6
CONTINUOUS
 10
-0.605047
 20
-0.069335
  0
VERTEX
  8
PLAN_1
 62
     2
  6
CONTINUOUS
 10
-0.604094
 20
-0.066945
  0
VERTEX
  8
PLAN_1
 62
     2
  6
CONTINUOUS
 10
-0.602181
 20
-0.064559
  0
VERTEX
  8
PLAN_1
 62
     2
  6
CONTINUOUS
 10
-0.600748
 20
-0.062646
  0
VERTEX
  8
PLAN_1
 62
     2
  6
CONTINUOUS
 10
-0.598835
 20
-0.061213
  0
VERTEX
  8
PLAN_1
 62
     2
  6
CONTINUOUS
 10
-0.596445
 20
-0.059780
  0
VERTEX
  8
PLAN_1
 62
     2
  6
CONTINUOUS
 10
-0.594059
 20
-0.058346
  0
VERTEX
  8
PLAN_1
 62
     2
  6
CONTINUOUS
 10
-0.591669
 20
-0.057390
  0
VERTEX
  8
PLAN_1
 62
     2
  6
CONTINUOUS
 10
-0.588799
 20
-0.056433
  0
VERTEX
  8
PLAN_1
 62
     2
  6
CONTINUOUS
 10
-0.585933
 20
-0.055957
  0
VERTEX
  8
PLAN_1
 62
     2
  6
CONTINUOUS
 10
-0.582587
 20
-0.055957
  0
VERTEX
  8
PLAN_1
 62
     2
  6
CONTINUOUS
 10
-0.579720
 20
-0.055957
  0
VERTEX
  8
PLAN_1
 62
     2
  6
CONTINUOUS
 10
-0.576854
 20
-0.056433
  0
VERTEX
  8
PLAN_1
 62
     2
  6
CONTINUOUS
 10
-0.574465
 20
-0.057390
  0
VERTEX
  8
PLAN_1
 62
     2
  6
CONTINUOUS
 10
-0.572075
 20
-0.058346
  0
VERTEX
  8
PLAN_1
 62
     2
  6
CONTINUOUS
 10
-0.570165
 20
-0.059299
  0
VERTEX
  8
PLAN_1
 62
     2
  6
CONTINUOUS
 10
-0.568252
 20
-0.060736
  0
VERTEX
  8
PLAN_1
 62
     2
  6
CONTINUOUS
 10
-0.566343
 20
-0.062646
  0
VERTEX
  8
PLAN_1
 62
     2
  6
CONTINUOUS
 10
-0.564906
 20
-0.064559
  0
VERTEX
  8
PLAN_1
 62
     2
  6
CONTINUOUS
 10
-0.563472
 20
-0.066945
  0
VERTEX
  8
PLAN_1
 62
     2
  6
CONTINUOUS
 10
-0.562516
 20
-0.069335
  0
VERTEX
  8
PLAN_1
 62
     2
  6
CONTINUOUS
 10
-0.561563
 20
-0.071724
  0
VERTEX
  8
PLAN_1
 62
     2
  6
CONTINUOUS
 10
-0.560606
 20
-0.074594
  0
VERTEX
  8
PLAN_1
 62
     2
  6
CONTINUOUS
 10
-0.559650
 20
-0.080803
  0
VERTEX
  8
PLAN_1
 62
     2
  6
CONTINUOUS
 10
-0.559173
 20
-0.087496
  0
VERTEX
  8
PLAN_1
 62
     2
  6
CONTINUOUS
 10
-0.598835
 20
-0.087496
  0
VERTEX
  8
PLAN_1
 62
     2
  6
CONTINUOUS
 10
-0.598835
 20
-0.091795
  0
VERTEX
  8
PLAN_1
 62
     2
  6
CONTINUOUS
 10
-0.597882
 20
-0.095142
  0
VERTEX
  8
PLAN_1
 62
     2
  6
CONTINUOUS
 10
-0.596925
 20
-0.098488
  0
VERTEX
  8
PLAN_1
 62
     2
  6
CONTINUOUS
 10
-0.595012
 20
-0.100874
  0
VERTEX
  8
PLAN_1
 62
     2
  6
CONTINUOUS
 10
-0.592622
 20
-0.102787
  0
VERTEX
  8
PLAN_1
 62
     2
  6
CONTINUOUS
 10
-0.590236
 20
-0.104220
  0
VERTEX
  8
PLAN_1
 62
     2
  6
CONTINUOUS
 10
-0.586890
 20
-0.105177
  0
VERTEX
  8
PLAN_1
 62
     2
  6
CONTINUOUS
 10
-0.583067
 20
-0.105654
  0
VERTEX
  8
PLAN_1
 62
     2
  6
CONTINUOUS
 10
-0.580201
 20
-0.105177
  0
VERTEX
  8
PLAN_1
 62
     2
  6
CONTINUOUS
 10
-0.577331
 20
-0.104701
  0
VERTEX
  8
PLAN_1
 62
     2
  6
CONTINUOUS
 10
-0.574941
 20
-0.103264
  0
VERTEX
  8
PLAN_1
 62
     2
  6
CONTINUOUS
 10
-0.573031
 20
-0.101831
  0
VERTEX
  8
PLAN_1
 62
     2
  6
CONTINUOUS
 10
-0.571598
 20
-0.099921
  0
VERTEX
  8
PLAN_1
 62
     2
  6
CONTINUOUS
 10
-0.570165
 20
-0.098488
  0
VERTEX
  8
PLAN_1
 62
     2
  6
CONTINUOUS
 10
-0.569209
 20
-0.096575
  0
VERTEX
  8
PLAN_1
 62
     2
  6
CONTINUOUS
 10
-0.569209
 20
-0.094665
  0
VERTEX
  8
PLAN_1
 62
     2
  6
CONTINUOUS
 10
-0.560130
 20
-0.094665
  0
SEQEND
  8
0
  0
POLYLINE
  8
PLAN_1
 62
     2
  6
CONTINUOUS
 66
     1
 40
0.003000
 41
0.003000
  0
VERTEX
  8
PLAN_1
 62
     2
  6
CONTINUOUS
 10
-0.568728
 20
-0.080327
  0
VERTEX
  8
PLAN_1
 62
     2
  6
CONTINUOUS
 10
-0.569209
 20
-0.077461
  0
VERTEX
  8
PLAN_1
 62
     2
  6
CONTINUOUS
 10
-0.569685
 20
-0.074114
  0
VERTEX
  8
PLAN_1
 62
     2
  6
CONTINUOUS
 10
-0.570642
 20
-0.071724
  0
VERTEX
  8
PLAN_1
 62
     2
  6
CONTINUOUS
 10
-0.572075
 20
-0.069335
  0
VERTEX
  8
PLAN_1
 62
     2
  6
CONTINUOUS
 10
-0.574465
 20
-0.066945
  0
VERTEX
  8
PLAN_1
 62
     2
  6
CONTINUOUS
 10
-0.576854
 20
-0.065512
  0
VERTEX
  8
PLAN_1
 62
     2
  6
CONTINUOUS
 10
-0.580201
 20
-0.064559
  0
VERTEX
  8
PLAN_1
 62
     2
  6
CONTINUOUS
 10
-0.584024
 20
-0.064079
  0
VERTEX
  8
PLAN_1
 62
     2
  6
CONTINUOUS
 10
-0.586890
 20
-0.064559
  0
VERTEX
  8
PLAN_1
 62
     2
  6
CONTINUOUS
 10
-0.589756
 20
-0.065512
  0
VERTEX
  8
PLAN_1
 62
     2
  6
CONTINUOUS
 10
-0.592146
 20
-0.066945
  0
VERTEX
  8
PLAN_1
 62
     2
  6
CONTINUOUS
 10
-0.594535
 20
-0.069335
  0
VERTEX
  8
PLAN_1
 62
     2
  6
CONTINUOUS
 10
-0.596445
 20
-0.071724
  0
VERTEX
  8
PLAN_1
 62
     2
  6
CONTINUOUS
 10
-0.597882
 20
-0.074114
  0
VERTEX
  8
PLAN_1
 62
     2
  6
CONTINUOUS
 10
-0.598835
 20
-0.077461
  0
VERTEX
  8
PLAN_1
 62
     2
  6
CONTINUOUS
 10
-0.598835
 20
-0.080327
  0
VERTEX
  8
PLAN_1
 62
     2
  6
CONTINUOUS
 10
-0.568728
 20
-0.080327
  0
SEQEND
  8
0
  0
SOLID
  8
PLAN_1
 62
     2
 10
-0.524764
 20
-0.087972
 11
-0.550571
 21
-0.087972
 12
-0.524764
 22
-0.078417
 13
-0.550571
 23
-0.078417
  0
POLYLINE
  8
PLAN_1
 62
     2
  6
CONTINUOUS
 66
     1
 40
0.003000
 41
0.003000
  0
VERTEX
  8
PLAN_1
 62
     2
  6
CONTINUOUS
 10
-0.524764
 20
-0.087972
  0
VERTEX
  8
PLAN_1
 62
     2
  6
CONTINUOUS
 10
-0.550571
 20
-0.087972
  0
VERTEX
  8
PLAN_1
 62
     2
  6
CONTINUOUS
 10
-0.550571
 20
-0.078417
  0
VERTEX
  8
PLAN_1
 62
     2
  6
CONTINUOUS
 10
-0.524764
 20
-0.078417
  0
VERTEX
  8
PLAN_1
 62
     2
  6
CONTINUOUS
 10
-0.524764
 20
-0.087972
  0
SEQEND
  8
0
  0
POLYLINE
  8
PLAN_1
 62
     2
  6
CONTINUOUS
 66
     1
 40
0.003000
 41
0.003000
  0
VERTEX
  8
PLAN_1
 62
     2
  6
CONTINUOUS
 10
-0.467421
 20
-0.094665
  0
VERTEX
  8
PLAN_1
 62
     2
  6
CONTINUOUS
 10
-0.467421
 20
-0.096098
  0
VERTEX
  8
PLAN_1
 62
     2
  6
CONTINUOUS
 10
-0.467898
 20
-0.097531
  0
VERTEX
  8
PLAN_1
 62
     2
  6
CONTINUOUS
 10
-0.468854
 20
-0.099441
  0
VERTEX
  8
PLAN_1
 62
     2
  6
CONTINUOUS
 10
-0.469811
 20
-0.101354
  0
VERTEX
  8
PLAN_1
 62
     2
  6
CONTINUOUS
 10
-0.471244
 20
-0.103744
  0
VERTEX
  8
PLAN_1
 62
     2
  6
CONTINUOUS
 10
-0.472677
 20
-0.105654
  0
VERTEX
  8
PLAN_1
 62
     2
  6
CONTINUOUS
 10
-0.474591
 20
-0.108043
  0
VERTEX
  8
PLAN_1
 62
     2
  6
CONTINUOUS
 10
-0.476976
 20
-0.109957
  0
VERTEX
  8
PLAN_1
 62
     2
  6
CONTINUOUS
 10
-0.477933
 20
-0.110433
  0
VERTEX
  8
PLAN_1
 62
     2
  6
CONTINUOUS
 10
-0.479366
 20
-0.110909
  0
VERTEX
  8
PLAN_1
 62
     2
  6
CONTINUOUS
 10
-0.480323
 20
-0.111866
  0
VERTEX
  8
PLAN_1
 62
     2
  6
CONTINUOUS
 10
-0.482236
 20
-0.112346
  0
VERTEX
  8
PLAN_1
 62
     2
  6
CONTINUOUS
 10
-0.484146
 20
-0.112823
  0
VERTEX
  8
PLAN_1
 62
     2
  6
CONTINUOUS
 10
-0.486059
 20
-0.113299
  0
VERTEX
  8
PLAN_1
 62
     2
  6
CONTINUOUS
 10
-0.488925
 20
-0.113299
  0
VERTEX
  8
PLAN_1
 62
     2
  6
CONTINUOUS
 10
-0.491791
 20
-0.113299
  0
VERTEX
  8
PLAN_1
 62
     2
  6
CONTINUOUS
 10
-0.494657
 20
-0.113299
  0
VERTEX
  8
PLAN_1
 62
     2
  6
CONTINUOUS
 10
-0.497047
 20
-0.112823
  0
VERTEX
  8
PLAN_1
 62
     2
  6
CONTINUOUS
 10
-0.499917
 20
-0.112346
  0
VERTEX
  8
PLAN_1
 62
     2
  6
CONTINUOUS
 10
-0.502307
 20
-0.111390
  0
VERTEX
  8
PLAN_1
 62
     2
  6
CONTINUOUS
 10
-0.504217
 20
-0.110433
  0
VERTEX
  8
PLAN_1
 62
     2
  6
CONTINUOUS
 10
-0.506130
 20
-0.109000
  0
VERTEX
  8
PLAN_1
 62
     2
  6
CONTINUOUS
 10
-0.508039
 20
-0.107567
  0
VERTEX
  8
PLAN_1
 62
     2
  6
CONTINUOUS
 10
-0.509953
 20
-0.105654
  0
VERTEX
  8
PLAN_1
 62
     2
  6
CONTINUOUS
 10
-0.511386
 20
-0.103744
  0
VERTEX
  8
PLAN_1
 62
     2
  6
CONTINUOUS
 10
-0.512343
 20
-0.101831
  0
VERTEX
  8
PLAN_1
 62
     2
  6
CONTINUOUS
 10
-0.513776
 20
-0.099441
  0
VERTEX
  8
PLAN_1
 62
     2
  6
CONTINUOUS
 10
-0.514728
 20
-0.097051
  0
VERTEX
  8
PLAN_1
 62
     2
  6
CONTINUOUS
 10
-0.515685
 20
-0.091795
  0
VERTEX
  8
PLAN_1
 62
     2
  6
CONTINUOUS
 10
-0.516165
 20
-0.086063
  0
VERTEX
  8
PLAN_1
 62
     2
  6
CONTINUOUS
 10
-0.515685
 20
-0.080327
  0
VERTEX
  8
PLAN_1
 62
     2
  6
CONTINUOUS
 10
-0.514728
 20
-0.074594
  0
VERTEX
  8
PLAN_1
 62
     2
  6
CONTINUOUS
 10
-0.513776
 20
-0.071724
  0
VERTEX
  8
PLAN_1
 62
     2
  6
CONTINUOUS
 10
-0.512819
 20
-0.069335
  0
VERTEX
  8
PLAN_1
 62
     2
  6
CONTINUOUS
 10
-0.511386
 20
-0.066945
  0
VERTEX
  8
PLAN_1
 62
     2
  6
CONTINUOUS
 10
-0.509953
 20
-0.064559
  0
VERTEX
  8
PLAN_1
 62
     2
  6
CONTINUOUS
 10
-0.508039
 20
-0.062646
  0
VERTEX
  8
PLAN_1
 62
     2
  6
CONTINUOUS
 10
-0.506130
 20
-0.061213
  0
VERTEX
  8
PLAN_1
 62
     2
  6
CONTINUOUS
 10
-0.504217
 20
-0.059780
  0
VERTEX
  8
PLAN_1
 62
     2
  6
CONTINUOUS
 10
-0.501827
 20
-0.058346
  0
VERTEX
  8
PLAN_1
 62
     2
  6
CONTINUOUS
 10
-0.498961
 20
-0.057390
  0
VERTEX
  8
PLAN_1
 62
     2
  6
CONTINUOUS
 10
-0.496571
 20
-0.056433
  0
VERTEX
  8
PLAN_1
 62
     2
  6
CONTINUOUS
 10
-0.493224
 20
-0.055957
  0
VERTEX
  8
PLAN_1
 62
     2
  6
CONTINUOUS
 10
-0.489882
 20
-0.055957
  0
VERTEX
  8
PLAN_1
 62
     2
  6
CONTINUOUS
 10
-0.487012
 20
-0.055957
  0
VERTEX
  8
PLAN_1
 62
     2
  6
CONTINUOUS
 10
-0.484626
 20
-0.056433
  0
VERTEX
  8
PLAN_1
 62
     2
  6
CONTINUOUS
 10
-0.482236
 20
-0.057390
  0
VERTEX
  8
PLAN_1
 62
     2
  6
CONTINUOUS
 10
-0.479846
 20
-0.058346
  0
VERTEX
  8
PLAN_1
 62
     2
  6
CONTINUOUS
 10
-0.477457
 20
-0.059299
  0
VERTEX
  8
PLAN_1
 62
     2
  6
CONTINUOUS
 10
-0.475543
 20
-0.060736
  0
VERTEX
  8
PLAN_1
 62
     2
  6
CONTINUOUS
 10
-0.474110
 20
-0.062646
  0
VERTEX
  8
PLAN_1
 62
     2
  6
CONTINUOUS
 10
-0.472677
 20
-0.064559
  0
VERTEX
  8
PLAN_1
 62
     2
  6
CONTINUOUS
 10
-0.471244
 20
-0.066945
  0
VERTEX
  8
PLAN_1
 62
     2
  6
CONTINUOUS
 10
-0.469811
 20
-0.069335
  0
VERTEX
  8
PLAN_1
 62
     2
  6
CONTINUOUS
 10
-0.468854
 20
-0.071724
  0
VERTEX
  8
PLAN_1
 62
     2
  6
CONTINUOUS
 10
-0.467898
 20
-0.074594
  0
VERTEX
  8
PLAN_1
 62
     2
  6
CONTINUOUS
 10
-0.466941
 20
-0.080803
  0
VERTEX
  8
PLAN_1
 62
     2
  6
CONTINUOUS
 10
-0.466465
 20
-0.087496
  0
VERTEX
  8
PLAN_1
 62
     2
  6
CONTINUOUS
 10
-0.506130
 20
-0.087496
  0
VERTEX
  8
PLAN_1
 62
     2
  6
CONTINUOUS
 10
-0.506130
 20
-0.091795
  0
VERTEX
  8
PLAN_1
 62
     2
  6
CONTINUOUS
 10
-0.505173
 20
-0.095142
  0
VERTEX
  8
PLAN_1
 62
     2
  6
CONTINUOUS
 10
-0.504217
 20
-0.098488
  0
VERTEX
  8
PLAN_1
 62
     2
  6
CONTINUOUS
 10
-0.502307
 20
-0.100874
  0
VERTEX
  8
PLAN_1
 62
     2
  6
CONTINUOUS
 10
-0.500394
 20
-0.102787
  0
VERTEX
  8
PLAN_1
 62
     2
  6
CONTINUOUS
 10
-0.497528
 20
-0.104220
  0
VERTEX
  8
PLAN_1
 62
     2
  6
CONTINUOUS
 10
-0.494181
 20
-0.105177
  0
VERTEX
  8
PLAN_1
 62
     2
  6
CONTINUOUS
 10
-0.490358
 20
-0.105654
  0
VERTEX
  8
PLAN_1
 62
     2
  6
CONTINUOUS
 10
-0.487492
 20
-0.105177
  0
VERTEX
  8
PLAN_1
 62
     2
  6
CONTINUOUS
 10
-0.484626
 20
-0.104701
  0
VERTEX
  8
PLAN_1
 62
     2
  6
CONTINUOUS
 10
-0.482236
 20
-0.103264
  0
VERTEX
  8
PLAN_1
 62
     2
  6
CONTINUOUS
 10
-0.480323
 20
-0.101831
  0
VERTEX
  8
PLAN_1
 62
     2
  6
CONTINUOUS
 10
-0.478890
 20
-0.099921
  0
VERTEX
  8
PLAN_1
 62
     2
  6
CONTINUOUS
 10
-0.477457
 20
-0.098488
  0
VERTEX
  8
PLAN_1
 62
     2
  6
CONTINUOUS
 10
-0.476976
 20
-0.096575
  0
VERTEX
  8
PLAN_1
 62
     2
  6
CONTINUOUS
 10
-0.476500
 20
-0.094665
  0
VERTEX
  8
PLAN_1
 62
     2
  6
CONTINUOUS
 10
-0.467421
 20
-0.094665
  0
SEQEND
  8
0
  0
SOLID
  8
PLAN_1
 62
     2
 10
-0.488925
 20
-0.050220
 11
-0.496094
 21
-0.050220
 12
-0.475543
 22
-0.035406
 13
-0.486535
 23
-0.035406
  0
POLYLINE
  8
PLAN_1
 62
     2
  6
CONTINUOUS
 66
     1
 40
0.003000
 41
0.003000
  0
VERTEX
  8
PLAN_1
 62
     2
  6
CONTINUOUS
 10
-0.488925
 20
-0.050220
  0
VERTEX
  8
PLAN_1
 62
     2
  6
CONTINUOUS
 10
-0.496094
 20
-0.050220
  0
VERTEX
  8
PLAN_1
 62
     2
  6
CONTINUOUS
 10
-0.486535
 20
-0.035406
  0
VERTEX
  8
PLAN_1
 62
     2
  6
CONTINUOUS
 10
-0.475543
 20
-0.035406
  0
VERTEX
  8
PLAN_1
 62
     2
  6
CONTINUOUS
 10
-0.488925
 20
-0.050220
  0
SEQEND
  8
0
  0
POLYLINE
  8
PLAN_1
 62
     2
  6
CONTINUOUS
 66
     1
 40
0.003000
 41
0.003000
  0
VERTEX
  8
PLAN_1
 62
     2
  6
CONTINUOUS
 10
-0.476024
 20
-0.080327
  0
VERTEX
  8
PLAN_1
 62
     2
  6
CONTINUOUS
 10
-0.476500
 20
-0.077461
  0
VERTEX
  8
PLAN_1
 62
     2
  6
CONTINUOUS
 10
-0.476976
 20
-0.074114
  0
VERTEX
  8
PLAN_1
 62
     2
  6
CONTINUOUS
 10
-0.478413
 20
-0.071724
  0
VERTEX
  8
PLAN_1
 62
     2
  6
CONTINUOUS
 10
-0.479846
 20
-0.069335
  0
VERTEX
  8
PLAN_1
 62
     2
  6
CONTINUOUS
 10
-0.481756
 20
-0.066945
  0
VERTEX
  8
PLAN_1
 62
     2
  6
CONTINUOUS
 10
-0.484146
 20
-0.065512
  0
VERTEX
  8
PLAN_1
 62
     2
  6
CONTINUOUS
 10
-0.487492
 20
-0.064559
  0
VERTEX
  8
PLAN_1
 62
     2
  6
CONTINUOUS
 10
-0.491315
 20
-0.064079
  0
VERTEX
  8
PLAN_1
 62
     2
  6
CONTINUOUS
 10
-0.494181
 20
-0.064559
  0
VERTEX
  8
PLAN_1
 62
     2
  6
CONTINUOUS
 10
-0.497047
 20
-0.065512
  0
VERTEX
  8
PLAN_1
 62
     2
  6
CONTINUOUS
 10
-0.499917
 20
-0.066945
  0
VERTEX
  8
PLAN_1
 62
     2
  6
CONTINUOUS
 10
-0.501827
 20
-0.069335
  0
VERTEX
  8
PLAN_1
 62
     2
  6
CONTINUOUS
 10
-0.503740
 20
-0.071724
  0
VERTEX
  8
PLAN_1
 62
     2
  6
CONTINUOUS
 10
-0.505173
 20
-0.074114
  0
VERTEX
  8
PLAN_1
 62
     2
  6
CONTINUOUS
 10
-0.506130
 20
-0.077461
  0
VERTEX
  8
PLAN_1
 62
     2
  6
CONTINUOUS
 10
-0.506130
 20
-0.080327
  0
VERTEX
  8
PLAN_1
 62
     2
  6
CONTINUOUS
 10
-0.476024
 20
-0.080327
  0
SEQEND
  8
0
  0
POLYLINE
  8
PLAN_1
 62
     2
  6
CONTINUOUS
 66
     1
 40
0.003000
 41
0.003000
  0
VERTEX
  8
PLAN_1
 62
     2
  6
CONTINUOUS
 10
-0.444484
 20
-0.065035
  0
VERTEX
  8
PLAN_1
 62
     2
  6
CONTINUOUS
 10
-0.444484
 20
-0.100398
  0
VERTEX
  8
PLAN_1
 62
     2
  6
CONTINUOUS
 10
-0.444484
 20
-0.101831
  0
VERTEX
  8
PLAN_1
 62
     2
  6
CONTINUOUS
 10
-0.444004
 20
-0.102787
  0
VERTEX
  8
PLAN_1
 62
     2
  6
CONTINUOUS
 10
-0.443047
 20
-0.103744
  0
VERTEX
  8
PLAN_1
 62
     2
  6
CONTINUOUS
 10
-0.442571
 20
-0.104220
  0
VERTEX
  8
PLAN_1
 62
     2
  6
CONTINUOUS
 10
-0.441614
 20
-0.104701
  0
VERTEX
  8
PLAN_1
 62
     2
  6
CONTINUOUS
 10
-0.440661
 20
-0.104701
  0
VERTEX
  8
PLAN_1
 62
     2
  6
CONTINUOUS
 10
-0.439705
 20
-0.104701
  0
VERTEX
  8
PLAN_1
 62
     2
  6
CONTINUOUS
 10
-0.438748
 20
-0.104701
  0
VERTEX
  8
PLAN_1
 62
     2
  6
CONTINUOUS
 10
-0.435882
 20
-0.104701
  0
VERTEX
  8
PLAN_1
 62
     2
  6
CONTINUOUS
 10
-0.435882
 20
-0.111866
  0
VERTEX
  8
PLAN_1
 62
     2
  6
CONTINUOUS
 10
-0.436835
 20
-0.111866
  0
VERTEX
  8
PLAN_1
 62
     2
  6
CONTINUOUS
 10
-0.437791
 20
-0.112346
  0
VERTEX
  8
PLAN_1
 62
     2
  6
CONTINUOUS
 10
-0.439224
 20
-0.112346
  0
VERTEX
  8
PLAN_1
 62
     2
  6
CONTINUOUS
 10
-0.440181
 20
-0.112346
  0
VERTEX
  8
PLAN_1
 62
     2
  6
CONTINUOUS
 10
-0.440661
 20
-0.112346
  0
VERTEX
  8
PLAN_1
 62
     2
  6
CONTINUOUS
 10
-0.441614
 20
-0.112823
  0
VERTEX
  8
PLAN_1
 62
     2
  6
CONTINUOUS
 10
-0.442094
 20
-0.112823
  0
VERTEX
  8
PLAN_1
 62
     2
  6
CONTINUOUS
 10
-0.442571
 20
-0.112823
  0
VERTEX
  8
PLAN_1
 62
     2
  6
CONTINUOUS
 10
-0.445437
 20
-0.112346
  0
VERTEX
  8
PLAN_1
 62
     2
  6
CONTINUOUS
 10
-0.448307
 20
-0.111866
  0
VERTEX
  8
PLAN_1
 62
     2
  6
CONTINUOUS
 10
-0.450217
 20
-0.110909
  0
VERTEX
  8
PLAN_1
 62
     2
  6
CONTINUOUS
 10
-0.451650
 20
-0.109476
  0
VERTEX
  8
PLAN_1
 62
     2
  6
CONTINUOUS
 10
-0.452606
 20
-0.107567
  0
VERTEX
  8
PLAN_1
 62
     2
  6
CONTINUOUS
 10
-0.453083
 20
-0.105654
  0
VERTEX
  8
PLAN_1
 62
     2
  6
CONTINUOUS
 10
-0.453563
 20
-0.103264
  0
VERTEX
  8
PLAN_1
 62
     2
  6
CONTINUOUS
 10
-0.453563
 20
-0.100874
  0
VERTEX
  8
PLAN_1
 62
     2
  6
CONTINUOUS
 10
-0.453563
 20
-0.065035
  0
VERTEX
  8
PLAN_1
 62
     2
  6
CONTINUOUS
 10
-0.460728
 20
-0.065035
  0
VERTEX
  8
PLAN_1
 62
     2
  6
CONTINUOUS
 10
-0.460728
 20
-0.057390
  0
VERTEX
  8
PLAN_1
 62
     2
  6
CONTINUOUS
 10
-0.453563
 20
-0.057390
  0
VERTEX
  8
PLAN_1
 62
     2
  6
CONTINUOUS
 10
-0.453563
 20
-0.042098
  0
VERTEX
  8
PLAN_1
 62
     2
  6
CONTINUOUS
 10
-0.444484
 20
-0.042098
  0
VERTEX
  8
PLAN_1
 62
     2
  6
CONTINUOUS
 10
-0.444484
 20
-0.057390
  0
VERTEX
  8
PLAN_1
 62
     2
  6
CONTINUOUS
 10
-0.435882
 20
-0.057390
  0
VERTEX
  8
PLAN_1
 62
     2
  6
CONTINUOUS
 10
-0.435882
 20
-0.065035
  0
VERTEX
  8
PLAN_1
 62
     2
  6
CONTINUOUS
 10
-0.444484
 20
-0.065035
  0
SEQEND
  8
0
  0
POLYLINE
  8
PLAN_1
 62
     2
  6
CONTINUOUS
 66
     1
 40
0.003000
 41
0.003000
  0
VERTEX
  8
PLAN_1
 62
     2
  6
CONTINUOUS
 10
-0.404343
 20
-0.055957
  0
VERTEX
  8
PLAN_1
 62
     2
  6
CONTINUOUS
 10
-0.401472
 20
-0.055957
  0
VERTEX
  8
PLAN_1
 62
     2
  6
CONTINUOUS
 10
-0.398606
 20
-0.056433
  0
VERTEX
  8
PLAN_1
 62
     2
  6
CONTINUOUS
 10
-0.395740
 20
-0.057390
  0
VERTEX
  8
PLAN_1
 62
     2
  6
CONTINUOUS
 10
-0.393350
 20
-0.058346
  0
VERTEX
  8
PLAN_1
 62
     2
  6
CONTINUOUS
 10
-0.390961
 20
-0.059780
  0
VERTEX
  8
PLAN_1
 62
     2
  6
CONTINUOUS
 10
-0.389047
 20
-0.061213
  0
VERTEX
  8
PLAN_1
 62
     2
  6
CONTINUOUS
 10
-0.387138
 20
-0.063122
  0
VERTEX
  8
PLAN_1
 62
     2
  6
CONTINUOUS
 10
-0.385224
 20
-0.065035
  0
VERTEX
  8
PLAN_1
 62
     2
  6
CONTINUOUS
 10
-0.382839
 20
-0.069335
  0
VERTEX
  8
PLAN_1
 62
     2
  6
CONTINUOUS
 10
-0.380925
 20
-0.074114
  0
VERTEX
  8
PLAN_1
 62
     2
  6
CONTINUOUS
 10
-0.379492
 20
-0.079370
  0
VERTEX
  8
PLAN_1
 62
     2
  6
CONTINUOUS
 10
-0.379492
 20
-0.084630
  0
VERTEX
  8
PLAN_1
 62
     2
  6
CONTINUOUS
 10
-0.379492
 20
-0.089886
  0
VERTEX
  8
PLAN_1
 62
     2
  6
CONTINUOUS
 10
-0.380925
 20
-0.095142
  0
VERTEX
  8
PLAN_1
 62
     2
  6
CONTINUOUS
 10
-0.382839
 20
-0.099921
  0
VERTEX
  8
PLAN_1
 62
     2
  6
CONTINUOUS
 10
-0.385224
 20
-0.104220
  0
VERTEX
  8
PLAN_1
 62
     2
  6
CONTINUOUS
 10
-0.387138
 20
-0.106134
  0
VERTEX
  8
PLAN_1
 62
     2
  6
CONTINUOUS
 10
-0.389047
 20
-0.108043
  0
VERTEX
  8
PLAN_1
 62
     2
  6
CONTINUOUS
 10
-0.390961
 20
-0.109476
  0
VERTEX
  8
PLAN_1
 62
     2
  6
CONTINUOUS
 10
-0.393350
 20
-0.110909
  0
VERTEX
  8
PLAN_1
 62
     2
  6
CONTINUOUS
 10
-0.395740
 20
-0.111866
  0
VERTEX
  8
PLAN_1
 62
     2
  6
CONTINUOUS
 10
-0.398606
 20
-0.112823
  0
VERTEX
  8
PLAN_1
 62
     2
  6
CONTINUOUS
 10
-0.401472
 20
-0.113299
  0
VERTEX
  8
PLAN_1
 62
     2
  6
CONTINUOUS
 10
-0.404343
 20
-0.113299
  0
VERTEX
  8
PLAN_1
 62
     2
  6
CONTINUOUS
 10
-0.407685
 20
-0.113299
  0
VERTEX
  8
PLAN_1
 62
     2
  6
CONTINUOUS
 10
-0.410555
 20
-0.112823
  0
VERTEX
  8
PLAN_1
 62
     2
  6
CONTINUOUS
 10
-0.413421
 20
-0.111866
  0
VERTEX
  8
PLAN_1
 62
     2
  6
CONTINUOUS
 10
-0.415811
 20
-0.110909
  0
VERTEX
  8
PLAN_1
 62
     2
  6
CONTINUOUS
 10
-0.418201
 20
-0.109476
  0
VERTEX
  8
PLAN_1
 62
     2
  6
CONTINUOUS
 10
-0.420110
 20
-0.108043
  0
VERTEX
  8
PLAN_1
 62
     2
  6
CONTINUOUS
 10
-0.422024
 20
-0.106134
  0
VERTEX
  8
PLAN_1
 62
     2
  6
CONTINUOUS
 10
-0.423933
 20
-0.104220
  0
VERTEX
  8
PLAN_1
 62
     2
  6
CONTINUOUS
 10
-0.426323
 20
-0.099921
  0
VERTEX
  8
PLAN_1
 62
     2
  6
CONTINUOUS
 10
-0.428236
 20
-0.095142
  0
VERTEX
  8
PLAN_1
 62
     2
  6
CONTINUOUS
 10
-0.429669
 20
-0.089886
  0
VERTEX
  8
PLAN_1
 62
     2
  6
CONTINUOUS
 10
-0.429669
 20
-0.084630
  0
VERTEX
  8
PLAN_1
 62
     2
  6
CONTINUOUS
 10
-0.429669
 20
-0.079370
  0
VERTEX
  8
PLAN_1
 62
     2
  6
CONTINUOUS
 10
-0.428236
 20
-0.074114
  0
VERTEX
  8
PLAN_1
 62
     2
  6
CONTINUOUS
 10
-0.426323
 20
-0.069335
  0
VERTEX
  8
PLAN_1
 62
     2
  6
CONTINUOUS
 10
-0.423933
 20
-0.065035
  0
VERTEX
  8
PLAN_1
 62
     2
  6
CONTINUOUS
 10
-0.422024
 20
-0.063122
  0
VERTEX
  8
PLAN_1
 62
     2
  6
CONTINUOUS
 10
-0.420110
 20
-0.061213
  0
VERTEX
  8
PLAN_1
 62
     2
  6
CONTINUOUS
 10
-0.418201
 20
-0.059780
  0
VERTEX
  8
PLAN_1
 62
     2
  6
CONTINUOUS
 10
-0.415811
 20
-0.058346
  0
VERTEX
  8
PLAN_1
 62
     2
  6
CONTINUOUS
 10
-0.413421
 20
-0.057390
  0
VERTEX
  8
PLAN_1
 62
     2
  6
CONTINUOUS
 10
-0.410555
 20
-0.056433
  0
VERTEX
  8
PLAN_1
 62
     2
  6
CONTINUOUS
 10
-0.407685
 20
-0.055957
  0
VERTEX
  8
PLAN_1
 62
     2
  6
CONTINUOUS
 10
-0.404343
 20
-0.055957
  0
SEQEND
  8
0
  0
POLYLINE
  8
PLAN_1
 62
     2
  6
CONTINUOUS
 66
     1
 40
0.003000
 41
0.003000
  0
VERTEX
  8
PLAN_1
 62
     2
  6
CONTINUOUS
 10
-0.404343
 20
-0.105654
  0
VERTEX
  8
PLAN_1
 62
     2
  6
CONTINUOUS
 10
-0.402429
 20
-0.105177
  0
VERTEX
  8
PLAN_1
 62
     2
  6
CONTINUOUS
 10
-0.400039
 20
-0.104701
  0
VERTEX
  8
PLAN_1
 62
     2
  6
CONTINUOUS
 10
-0.398130
 20
-0.104220
  0
VERTEX
  8
PLAN_1
 62
     2
  6
CONTINUOUS
 10
-0.396697
 20
-0.103264
  0
VERTEX
  8
PLAN_1
 62
     2
  6
CONTINUOUS
 10
-0.393827
 20
-0.100874
  0
VERTEX
  8
PLAN_1
 62
     2
  6
CONTINUOUS
 10
-0.391917
 20
-0.098008
  0
VERTEX
  8
PLAN_1
 62
     2
  6
CONTINUOUS
 10
-0.390484
 20
-0.094665
  0
VERTEX
  8
PLAN_1
 62
     2
  6
CONTINUOUS
 10
-0.389528
 20
-0.090839
  0
VERTEX
  8
PLAN_1
 62
     2
  6
CONTINUOUS
 10
-0.389047
 20
-0.087496
  0
VERTEX
  8
PLAN_1
 62
     2
  6
CONTINUOUS
 10
-0.388571
 20
-0.084630
  0
VERTEX
  8
PLAN_1
 62
     2
  6
CONTINUOUS
 10
-0.389047
 20
-0.081760
  0
VERTEX
  8
PLAN_1
 62
     2
  6
CONTINUOUS
 10
-0.389528
 20
-0.078417
  0
VERTEX
  8
PLAN_1
 62
     2
  6
CONTINUOUS
 10
-0.390484
 20
-0.075071
  0
VERTEX
  8
PLAN_1
 62
     2
  6
CONTINUOUS
 10
-0.391917
 20
-0.071724
  0
VERTEX
  8
PLAN_1
 62
     2
  6
CONTINUOUS
 10
-0.393827
 20
-0.068382
  0
VERTEX
  8
PLAN_1
 62
     2
  6
CONTINUOUS
 10
-0.396697
 20
-0.065992
  0
VERTEX
  8
PLAN_1
 62
     2
  6
CONTINUOUS
 10
-0.398130
 20
-0.065035
  0
VERTEX
  8
PLAN_1
 62
     2
  6
CONTINUOUS
 10
-0.400039
 20
-0.064559
  0
VERTEX
  8
PLAN_1
 62
     2
  6
CONTINUOUS
 10
-0.402429
 20
-0.064079
  0
VERTEX
  8
PLAN_1
 62
     2
  6
CONTINUOUS
 10
-0.404343
 20
-0.064079
  0
VERTEX
  8
PLAN_1
 62
     2
  6
CONTINUOUS
 10
-0.406732
 20
-0.064079
  0
VERTEX
  8
PLAN_1
 62
     2
  6
CONTINUOUS
 10
-0.409118
 20
-0.064559
  0
VERTEX
  8
PLAN_1
 62
     2
  6
CONTINUOUS
 10
-0.411031
 20
-0.065035
  0
VERTEX
  8
PLAN_1
 62
     2
  6
CONTINUOUS
 10
-0.412465
 20
-0.065992
  0
VERTEX
  8
PLAN_1
 62
     2
  6
CONTINUOUS
 10
-0.415331
 20
-0.068382
  0
VERTEX
  8
PLAN_1
 62
     2
  6
CONTINUOUS
 10
-0.417244
 20
-0.071724
  0
VERTEX
  8
PLAN_1
 62
     2
  6
CONTINUOUS
 10
-0.418677
 20
-0.075071
  0
VERTEX
  8
PLAN_1
 62
     2
  6
CONTINUOUS
 10
-0.419634
 20
-0.078417
  0
VERTEX
  8
PLAN_1
 62
     2
  6
CONTINUOUS
 10
-0.420110
 20
-0.081760
  0
VERTEX
  8
PLAN_1
 62
     2
  6
CONTINUOUS
 10
-0.420591
 20
-0.084630
  0
VERTEX
  8
PLAN_1
 62
     2
  6
CONTINUOUS
 10
-0.420110
 20
-0.087496
  0
VERTEX
  8
PLAN_1
 62
     2
  6
CONTINUOUS
 10
-0.419634
 20
-0.090839
  0
VERTEX
  8
PLAN_1
 62
     2
  6
CONTINUOUS
 10
-0.418677
 20
-0.094665
  0
VERTEX
  8
PLAN_1
 62
     2
  6
CONTINUOUS
 10
-0.417244
 20
-0.098008
  0
VERTEX
  8
PLAN_1
 62
     2
  6
CONTINUOUS
 10
-0.415331
 20
-0.100874
  0
VERTEX
  8
PLAN_1
 62
     2
  6
CONTINUOUS
 10
-0.412465
 20
-0.103264
  0
VERTEX
  8
PLAN_1
 62
     2
  6
CONTINUOUS
 10
-0.411031
 20
-0.104220
  0
VERTEX
  8
PLAN_1
 62
     2
  6
CONTINUOUS
 10
-0.409118
 20
-0.104701
  0
VERTEX
  8
PLAN_1
 62
     2
  6
CONTINUOUS
 10
-0.406732
 20
-0.105177
  0
VERTEX
  8
PLAN_1
 62
     2
  6
CONTINUOUS
 10
-0.404343
 20
-0.105654
  0
SEQEND
  8
0
  0
POLYLINE
  8
PLAN_1
 62
     2
  6
CONTINUOUS
 66
     1
 40
0.003000
 41
0.003000
  0
VERTEX
  8
PLAN_1
 62
     2
  6
CONTINUOUS
 10
-0.333138
 20
-0.111866
  0
VERTEX
  8
PLAN_1
 62
     2
  6
CONTINUOUS
 10
-0.333138
 20
-0.104220
  0
VERTEX
  8
PLAN_1
 62
     2
  6
CONTINUOUS
 10
-0.333614
 20
-0.103744
  0
VERTEX
  8
PLAN_1
 62
     2
  6
CONTINUOUS
 10
-0.335047
 20
-0.106134
  0
VERTEX
  8
PLAN_1
 62
     2
  6
CONTINUOUS
 10
-0.336484
 20
-0.108043
  0
VERTEX
  8
PLAN_1
 62
     2
  6
CONTINUOUS
 10
-0.338394
 20
-0.109476
  0
VERTEX
  8
PLAN_1
 62
     2
  6
CONTINUOUS
 10
-0.340307
 20
-0.110909
  0
VERTEX
  8
PLAN_1
 62
     2
  6
CONTINUOUS
 10
-0.342697
 20
-0.111866
  0
VERTEX
  8
PLAN_1
 62
     2
  6
CONTINUOUS
 10
-0.345083
 20
-0.112823
  0
VERTEX
  8
PLAN_1
 62
     2
  6
CONTINUOUS
 10
-0.347953
 20
-0.113299
  0
VERTEX
  8
PLAN_1
 62
     2
  6
CONTINUOUS
 10
-0.350819
 20
-0.113299
  0
VERTEX
  8
PLAN_1
 62
     2
  6
CONTINUOUS
 10
-0.353685
 20
-0.113299
  0
VERTEX
  8
PLAN_1
 62
     2
  6
CONTINUOUS
 10
-0.357031
 20
-0.112823
  0
VERTEX
  8
PLAN_1
 62
     2
  6
CONTINUOUS
 10
-0.359898
 20
-0.111390
  0
VERTEX
  8
PLAN_1
 62
     2
  6
CONTINUOUS
 10
-0.362768
 20
-0.109957
  0
VERTEX
  8
PLAN_1
 62
     2
  6
CONTINUOUS
 10
-0.365154
 20
-0.107567
  0
VERTEX
  8
PLAN_1
 62
     2
  6
CONTINUOUS
 10
-0.367067
 20
-0.104701
  0
VERTEX
  8
PLAN_1
 62
     2
  6
CONTINUOUS
 10
-0.368024
 20
-0.100874
  0
VERTEX
  8
PLAN_1
 62
     2
  6
CONTINUOUS
 10
-0.368500
 20
-0.096575
  0
VERTEX
  8
PLAN_1
 62
     2
  6
CONTINUOUS
 10
-0.368500
 20
-0.057390
  0
VERTEX
  8
PLAN_1
 62
     2
  6
CONTINUOUS
 10
-0.359421
 20
-0.057390
  0
VERTEX
  8
PLAN_1
 62
     2
  6
CONTINUOUS
 10
-0.359421
 20
-0.093709
  0
VERTEX
  8
PLAN_1
 62
     2
  6
CONTINUOUS
 10
-0.358941
 20
-0.096575
  0
VERTEX
  8
PLAN_1
 62
     2
  6
CONTINUOUS
 10
-0.358465
 20
-0.099441
  0
VERTEX
  8
PLAN_1
 62
     2
  6
CONTINUOUS
 10
-0.357508
 20
-0.101354
  0
VERTEX
  8
PLAN_1
 62
     2
  6
CONTINUOUS
 10
-0.356555
 20
-0.102787
  0
VERTEX
  8
PLAN_1
 62
     2
  6
CONTINUOUS
 10
-0.354642
 20
-0.104220
  0
VERTEX
  8
PLAN_1
 62
     2
  6
CONTINUOUS
 10
-0.353209
 20
-0.105177
  0
VERTEX
  8
PLAN_1
 62
     2
  6
CONTINUOUS
 10
-0.350819
 20
-0.105654
  0
VERTEX
  8
PLAN_1
 62
     2
  6
CONTINUOUS
 10
-0.348909
 20
-0.105654
  0
VERTEX
  8
PLAN_1
 62
     2
  6
CONTINUOUS
 10
-0.346996
 20
-0.105654
  0
VERTEX
  8
PLAN_1
 62
     2
  6
CONTINUOUS
 10
-0.345083
 20
-0.105177
  0
VERTEX
  8
PLAN_1
 62
     2
  6
CONTINUOUS
 10
-0.343173
 20
-0.104701
  0
VERTEX
  8
PLAN_1
 62
     2
  6
CONTINUOUS
 10
-0.341740
 20
-0.103744
  0
VERTEX
  8
PLAN_1
 62
     2
  6
CONTINUOUS
 10
-0.338874
 20
-0.101831
  0
VERTEX
  8
PLAN_1
 62
     2
  6
CONTINUOUS
 10
-0.336961
 20
-0.099441
  0
VERTEX
  8
PLAN_1
 62
     2
  6
CONTINUOUS
 10
-0.335528
 20
-0.096575
  0
VERTEX
  8
PLAN_1
 62
     2
  6
CONTINUOUS
 10
-0.334571
 20
-0.093709
  0
VERTEX
  8
PLAN_1
 62
     2
  6
CONTINUOUS
 10
-0.334094
 20
-0.090362
  0
VERTEX
  8
PLAN_1
 62
     2
  6
CONTINUOUS
 10
-0.334094
 20
-0.087496
  0
VERTEX
  8
PLAN_1
 62
     2
  6
CONTINUOUS
 10
-0.334094
 20
-0.057390
  0
VERTEX
  8
PLAN_1
 62
     2
  6
CONTINUOUS
 10
-0.324535
 20
-0.057390
  0
VERTEX
  8
PLAN_1
 62
     2
  6
CONTINUOUS
 10
-0.324535
 20
-0.111866
  0
VERTEX
  8
PLAN_1
 62
     2
  6
CONTINUOUS
 10
-0.333138
 20
-0.111866
  0
SEQEND
  8
0
  0
POLYLINE
  8
PLAN_1
 62
     2
  6
CONTINUOUS
 66
     1
 40
0.003000
 41
0.003000
  0
VERTEX
  8
PLAN_1
 62
     2
  6
CONTINUOUS
 10
-0.311634
 20
-0.057390
  0
VERTEX
  8
PLAN_1
 62
     2
  6
CONTINUOUS
 10
-0.303031
 20
-0.057390
  0
VERTEX
  8
PLAN_1
 62
     2
  6
CONTINUOUS
 10
-0.303031
 20
-0.065035
  0
VERTEX
  8
PLAN_1
 62
     2
  6
CONTINUOUS
 10
-0.302075
 20
-0.064079
  0
VERTEX
  8
PLAN_1
 62
     2
  6
CONTINUOUS
 10
-0.300642
 20
-0.062646
  0
VERTEX
  8
PLAN_1
 62
     2
  6
CONTINUOUS
 10
-0.299209
 20
-0.060736
  0
VERTEX
  8
PLAN_1
 62
     2
  6
CONTINUOUS
 10
-0.297776
 20
-0.059299
  0
VERTEX
  8
PLAN_1
 62
     2
  6
CONTINUOUS
 10
-0.295386
 20
-0.057866
  0
VERTEX
  8
PLAN_1
 62
     2
  6
CONTINUOUS
 10
-0.292996
 20
-0.056909
  0
VERTEX
  8
PLAN_1
 62
     2
  6
CONTINUOUS
 10
-0.290130
 20
-0.056433
  0
VERTEX
  8
PLAN_1
 62
     2
  6
CONTINUOUS
 10
-0.286783
 20
-0.055957
  0
VERTEX
  8
PLAN_1
 62
     2
  6
CONTINUOUS
 10
-0.283917
 20
-0.055957
  0
VERTEX
  8
PLAN_1
 62
     2
  6
CONTINUOUS
 10
-0.281528
 20
-0.056433
  0
VERTEX
  8
PLAN_1
 62
     2
  6
CONTINUOUS
 10
-0.279138
 20
-0.057390
  0
VERTEX
  8
PLAN_1
 62
     2
  6
CONTINUOUS
 10
-0.276748
 20
-0.057866
  0
VERTEX
  8
PLAN_1
 62
     2
  6
CONTINUOUS
 10
-0.274839
 20
-0.059299
  0
VERTEX
  8
PLAN_1
 62
     2
  6
CONTINUOUS
 10
-0.272925
 20
-0.060736
  0
VERTEX
  8
PLAN_1
 62
     2
  6
CONTINUOUS
 10
-0.271492
 20
-0.062169
  0
VERTEX
  8
PLAN_1
 62
     2
  6
CONTINUOUS
 10
-0.269579
 20
-0.063602
  0
VERTEX
  8
PLAN_1
 62
     2
  6
CONTINUOUS
 10
-0.267189
 20
-0.067902
  0
VERTEX
  8
PLAN_1
 62
     2
  6
CONTINUOUS
 10
-0.265280
 20
-0.072205
  0
VERTEX
  8
PLAN_1
 62
     2
  6
CONTINUOUS
 10
-0.264323
 20
-0.077461
  0
VERTEX
  8
PLAN_1
 62
     2
  6
CONTINUOUS
 10
-0.263846
 20
-0.083193
  0
VERTEX
  8
PLAN_1
 62
     2
  6
CONTINUOUS
 10
-0.264323
 20
-0.087972
  0
VERTEX
  8
PLAN_1
 62
     2
  6
CONTINUOUS
 10
-0.264803
 20
-0.093228
  0
VERTEX
  8
PLAN_1
 62
     2
  6
CONTINUOUS
 10
-0.266713
 20
-0.098488
  0
VERTEX
  8
PLAN_1
 62
     2
  6
CONTINUOUS
 10
-0.269102
 20
-0.103264
  0
VERTEX
  8
PLAN_1
 62
     2
  6
CONTINUOUS
 10
-0.270535
 20
-0.105177
  0
VERTEX
  8
PLAN_1
 62
     2
  6
CONTINUOUS
 10
-0.271969
 20
-0.107087
  0
VERTEX
  8
PLAN_1
 62
     2
  6
CONTINUOUS
 10
-0.273882
 20
-0.109000
  0
VERTEX
  8
PLAN_1
 62
     2
  6
CONTINUOUS
 10
-0.276272
 20
-0.110433
  0
VERTEX
  8
PLAN_1
 62
     2
  6
CONTINUOUS
 10
-0.278661
 20
-0.111866
  0
VERTEX
  8
PLAN_1
 62
     2
  6
CONTINUOUS
 10
-0.281528
 20
-0.112823
  0
VERTEX
  8
PLAN_1
 62
     2
  6
CONTINUOUS
 10
-0.284394
 20
-0.113299
  0
VERTEX
  8
PLAN_1
 62
     2
  6
CONTINUOUS
 10
-0.287740
 20
-0.113299
  0
VERTEX
  8
PLAN_1
 62
     2
  6
CONTINUOUS
 10
-0.290606
 20
-0.113299
  0
VERTEX
  8
PLAN_1
 62
     2
  6
CONTINUOUS
 10
-0.292996
 20
-0.112823
  0
VERTEX
  8
PLAN_1
 62
     2
  6
CONTINUOUS
 10
-0.294909
 20
-0.112346
  0
VERTEX
  8
PLAN_1
 62
     2
  6
CONTINUOUS
 10
-0.296819
 20
-0.111390
  0
VERTEX
  8
PLAN_1
 62
     2
  6
CONTINUOUS
 10
-0.298732
 20
-0.110433
  0
VERTEX
  8
PLAN_1
 62
     2
  6
CONTINUOUS
 10
-0.300165
 20
-0.109000
  0
VERTEX
  8
PLAN_1
 62
     2
  6
CONTINUOUS
 10
-0.301118
 20
-0.107567
  0
VERTEX
  8
PLAN_1
 62
     2
  6
CONTINUOUS
 10
-0.302075
 20
-0.106134
  0
VERTEX
  8
PLAN_1
 62
     2
  6
CONTINUOUS
 10
-0.302555
 20
-0.106134
  0
VERTEX
  8
PLAN_1
 62
     2
  6
CONTINUOUS
 10
-0.302555
 20
-0.133370
  0
VERTEX
  8
PLAN_1
 62
     2
  6
CONTINUOUS
 10
-0.311634
 20
-0.133370
  0
VERTEX
  8
PLAN_1
 62
     2
  6
CONTINUOUS
 10
-0.311634
 20
-0.057390
  0
SEQEND
  8
0
  0
POLYLINE
  8
PLAN_1
 62
     2
  6
CONTINUOUS
 66
     1
 40
0.003000
 41
0.003000
  0
VERTEX
  8
PLAN_1
 62
     2
  6
CONTINUOUS
 10
-0.288217
 20
-0.105654
  0
VERTEX
  8
PLAN_1
 62
     2
  6
CONTINUOUS
 10
-0.284394
 20
-0.105177
  0
VERTEX
  8
PLAN_1
 62
     2
  6
CONTINUOUS
 10
-0.281528
 20
-0.103744
  0
VERTEX
  8
PLAN_1
 62
     2
  6
CONTINUOUS
 10
-0.279138
 20
-0.102311
  0
VERTEX
  8
PLAN_1
 62
     2
  6
CONTINUOUS
 10
-0.276748
 20
-0.099441
  0
VERTEX
  8
PLAN_1
 62
     2
  6
CONTINUOUS
 10
-0.275315
 20
-0.096575
  0
VERTEX
  8
PLAN_1
 62
     2
  6
CONTINUOUS
 10
-0.274358
 20
-0.092752
  0
VERTEX
  8
PLAN_1
 62
     2
  6
CONTINUOUS
 10
-0.273402
 20
-0.088929
  0
VERTEX
  8
PLAN_1
 62
     2
  6
CONTINUOUS
 10
-0.273402
 20
-0.084630
  0
VERTEX
  8
PLAN_1
 62
     2
  6
CONTINUOUS
 10
-0.273402
 20
-0.081760
  0
VERTEX
  8
PLAN_1
 62
     2
  6
CONTINUOUS
 10
-0.273882
 20
-0.078417
  0
VERTEX
  8
PLAN_1
 62
     2
  6
CONTINUOUS
 10
-0.274358
 20
-0.075071
  0
VERTEX
  8
PLAN_1
 62
     2
  6
CONTINUOUS
 10
-0.275315
 20
-0.071724
  0
VERTEX
  8
PLAN_1
 62
     2
  6
CONTINUOUS
 10
-0.276272
 20
-0.070291
  0
VERTEX
  8
PLAN_1
 62
     2
  6
CONTINUOUS
 10
-0.277224
 20
-0.068858
  0
VERTEX
  8
PLAN_1
 62
     2
  6
CONTINUOUS
 10
-0.278661
 20
-0.067425
  0
VERTEX
  8
PLAN_1
 62
     2
  6
CONTINUOUS
 10
-0.280094
 20
-0.066469
  0
VERTEX
  8
PLAN_1
 62
     2
  6
CONTINUOUS
 10
-0.281528
 20
-0.065512
  0
VERTEX
  8
PLAN_1
 62
     2
  6
CONTINUOUS
 10
-0.283437
 20
-0.064559
  0
VERTEX
  8
PLAN_1
 62
     2
  6
CONTINUOUS
 10
-0.285827
 20
-0.064559
  0
VERTEX
  8
PLAN_1
 62
     2
  6
CONTINUOUS
 10
-0.288217
 20
-0.064079
  0
VERTEX
  8
PLAN_1
 62
     2
  6
CONTINUOUS
 10
-0.290606
 20
-0.064559
  0
VERTEX
  8
PLAN_1
 62
     2
  6
CONTINUOUS
 10
-0.292520
 20
-0.065035
  0
VERTEX
  8
PLAN_1
 62
     2
  6
CONTINUOUS
 10
-0.294429
 20
-0.065512
  0
VERTEX
  8
PLAN_1
 62
     2
  6
CONTINUOUS
 10
-0.296343
 20
-0.066469
  0
VERTEX
  8
PLAN_1
 62
     2
  6
CONTINUOUS
 10
-0.297295
 20
-0.067902
  0
VERTEX
  8
PLAN_1
 62
     2
  6
CONTINUOUS
 10
-0.298732
 20
-0.069335
  0
VERTEX
  8
PLAN_1
 62
     2
  6
CONTINUOUS
 10
-0.299685
 20
-0.070772
  0
VERTEX
  8
PLAN_1
 62
     2
  6
CONTINUOUS
 10
-0.300642
 20
-0.072205
  0
VERTEX
  8
PLAN_1
 62
     2
  6
CONTINUOUS
 10
-0.301598
 20
-0.076028
  0
VERTEX
  8
PLAN_1
 62
     2
  6
CONTINUOUS
 10
-0.302555
 20
-0.079850
  0
VERTEX
  8
PLAN_1
 62
     2
  6
CONTINUOUS
 10
-0.303031
 20
-0.083673
  0
VERTEX
  8
PLAN_1
 62
     2
  6
CONTINUOUS
 10
-0.303031
 20
-0.087496
  0
VERTEX
  8
PLAN_1
 62
     2
  6
CONTINUOUS
 10
-0.302555
 20
-0.092276
  0
VERTEX
  8
PLAN_1
 62
     2
  6
CONTINUOUS
 10
-0.301598
 20
-0.096098
  0
VERTEX
  8
PLAN_1
 62
     2
  6
CONTINUOUS
 10
-0.299685
 20
-0.099441
  0
VERTEX
  8
PLAN_1
 62
     2
  6
CONTINUOUS
 10
-0.297776
 20
-0.101831
  0
VERTEX
  8
PLAN_1
 62
     2
  6
CONTINUOUS
 10
-0.295386
 20
-0.103744
  0
VERTEX
  8
PLAN_1
 62
     2
  6
CONTINUOUS
 10
-0.292996
 20
-0.104701
  0
VERTEX
  8
PLAN_1
 62
     2
  6
CONTINUOUS
 10
-0.290130
 20
-0.105177
  0
VERTEX
  8
PLAN_1
 62
     2
  6
CONTINUOUS
 10
-0.288217
 20
-0.105654
  0
SEQEND
  8
0
  0
POLYLINE
  8
PLAN_1
 62
     2
  6
CONTINUOUS
 66
     1
 40
0.003000
 41
0.003000
  0
VERTEX
  8
PLAN_1
 62
     2
  6
CONTINUOUS
 10
-0.206980
 20
-0.094665
  0
VERTEX
  8
PLAN_1
 62
     2
  6
CONTINUOUS
 10
-0.206980
 20
-0.096098
  0
VERTEX
  8
PLAN_1
 62
     2
  6
CONTINUOUS
 10
-0.207457
 20
-0.097531
  0
VERTEX
  8
PLAN_1
 62
     2
  6
CONTINUOUS
 10
-0.208413
 20
-0.099441
  0
VERTEX
  8
PLAN_1
 62
     2
  6
CONTINUOUS
 10
-0.209366
 20
-0.101354
  0
VERTEX
  8
PLAN_1
 62
     2
  6
CONTINUOUS
 10
-0.210323
 20
-0.103744
  0
VERTEX
  8
PLAN_1
 62
     2
  6
CONTINUOUS
 10
-0.212236
 20
-0.105654
  0
VERTEX
  8
PLAN_1
 62
     2
  6
CONTINUOUS
 10
-0.214146
 20
-0.108043
  0
VERTEX
  8
PLAN_1
 62
     2
  6
CONTINUOUS
 10
-0.216535
 20
-0.109957
  0
VERTEX
  8
PLAN_1
 62
     2
  6
CONTINUOUS
 10
-0.217492
 20
-0.110433
  0
VERTEX
  8
PLAN_1
 62
     2
  6
CONTINUOUS
 10
-0.218449
 20
-0.110909
  0
VERTEX
  8
PLAN_1
 62
     2
  6
CONTINUOUS
 10
-0.219882
 20
-0.111866
  0
VERTEX
  8
PLAN_1
 62
     2
  6
CONTINUOUS
 10
-0.221315
 20
-0.112346
  0
VERTEX
  8
PLAN_1
 62
     2
  6
CONTINUOUS
 10
-0.223228
 20
-0.112823
  0
VERTEX
  8
PLAN_1
 62
     2
  6
CONTINUOUS
 10
-0.225614
 20
-0.113299
  0
VERTEX
  8
PLAN_1
 62
     2
  6
CONTINUOUS
 10
-0.228004
 20
-0.113299
  0
VERTEX
  8
PLAN_1
 62
     2
  6
CONTINUOUS
 10
-0.231350
 20
-0.113299
  0
VERTEX
  8
PLAN_1
 62
     2
  6
CONTINUOUS
 10
-0.234217
 20
-0.113299
  0
VERTEX
  8
PLAN_1
 62
     2
  6
CONTINUOUS
 10
-0.236606
 20
-0.112823
  0
VERTEX
  8
PLAN_1
 62
     2
  6
CONTINUOUS
 10
-0.238996
 20
-0.112346
  0
VERTEX
  8
PLAN_1
 62
     2
  6
CONTINUOUS
 10
-0.241386
 20
-0.111390
  0
VERTEX
  8
PLAN_1
 62
     2
  6
CONTINUOUS
 10
-0.243776
 20
-0.110433
  0
VERTEX
  8
PLAN_1
 62
     2
  6
CONTINUOUS
 10
-0.245685
 20
-0.109000
  0
VERTEX
  8
PLAN_1
 62
     2
  6
CONTINUOUS
 10
-0.247598
 20
-0.107567
  0
VERTEX
  8
PLAN_1
 62
     2
  6
CONTINUOUS
 10
-0.249031
 20
-0.105654
  0
VERTEX
  8
PLAN_1
 62
     2
  6
CONTINUOUS
 10
-0.250465
 20
-0.103744
  0
VERTEX
  8
PLAN_1
 62
     2
  6
CONTINUOUS
 10
-0.251898
 20
-0.101831
  0
VERTEX
  8
PLAN_1
 62
     2
  6
CONTINUOUS
 10
-0.252854
 20
-0.099441
  0
VERTEX
  8
PLAN_1
 62
     2
  6
CONTINUOUS
 10
-0.253811
 20
-0.097051
  0
VERTEX
  8
PLAN_1
 62
     2
  6
CONTINUOUS
 10
-0.255244
 20
-0.091795
  0
VERTEX
  8
PLAN_1
 62
     2
  6
CONTINUOUS
 10
-0.255720
 20
-0.086063
  0
VERTEX
  8
PLAN_1
 62
     2
  6
CONTINUOUS
 10
-0.255244
 20
-0.080327
  0
VERTEX
  8
PLAN_1
 62
     2
  6
CONTINUOUS
 10
-0.254287
 20
-0.074594
  0
VERTEX
  8
PLAN_1
 62
     2
  6
CONTINUOUS
 10
-0.253331
 20
-0.071724
  0
VERTEX
  8
PLAN_1
 62
     2
  6
CONTINUOUS
 10
-0.251898
 20
-0.069335
  0
VERTEX
  8
PLAN_1
 62
     2
  6
CONTINUOUS
 10
-0.250945
 20
-0.066945
  0
VERTEX
  8
PLAN_1
 62
     2
  6
CONTINUOUS
 10
-0.249508
 20
-0.064559
  0
VERTEX
  8
PLAN_1
 62
     2
  6
CONTINUOUS
 10
-0.247598
 20
-0.062646
  0
VERTEX
  8
PLAN_1
 62
     2
  6
CONTINUOUS
 10
-0.245685
 20
-0.061213
  0
VERTEX
  8
PLAN_1
 62
     2
  6
CONTINUOUS
 10
-0.243776
 20
-0.059780
  0
VERTEX
  8
PLAN_1
 62
     2
  6
CONTINUOUS
 10
-0.241386
 20
-0.058346
  0
VERTEX
  8
PLAN_1
 62
     2
  6
CONTINUOUS
 10
-0.238520
 20
-0.057390
  0
VERTEX
  8
PLAN_1
 62
     2
  6
CONTINUOUS
 10
-0.235650
 20
-0.056433
  0
VERTEX
  8
PLAN_1
 62
     2
  6
CONTINUOUS
 10
-0.232783
 20
-0.055957
  0
VERTEX
  8
PLAN_1
 62
     2
  6
CONTINUOUS
 10
-0.229437
 20
-0.055957
  0
VERTEX
  8
PLAN_1
 62
     2
  6
CONTINUOUS
 10
-0.226571
 20
-0.055957
  0
VERTEX
  8
PLAN_1
 62
     2
  6
CONTINUOUS
 10
-0.224181
 20
-0.056433
  0
VERTEX
  8
PLAN_1
 62
     2
  6
CONTINUOUS
 10
-0.221315
 20
-0.057390
  0
VERTEX
  8
PLAN_1
 62
     2
  6
CONTINUOUS
 10
-0.219402
 20
-0.058346
  0
VERTEX
  8
PLAN_1
 62
     2
  6
CONTINUOUS
 10
-0.217016
 20
-0.059299
  0
VERTEX
  8
PLAN_1
 62
     2
  6
CONTINUOUS
 10
-0.215102
 20
-0.060736
  0
VERTEX
  8
PLAN_1
 62
     2
  6
CONTINUOUS
 10
-0.213669
 20
-0.062646
  0
VERTEX
  8
PLAN_1
 62
     2
  6
CONTINUOUS
 10
-0.211756
 20
-0.064559
  0
VERTEX
  8
PLAN_1
 62
     2
  6
CONTINUOUS
 10
-0.210323
 20
-0.066945
  0
VERTEX
  8
PLAN_1
 62
     2
  6
CONTINUOUS
 10
-0.209366
 20
-0.069335
  0
VERTEX
  8
PLAN_1
 62
     2
  6
CONTINUOUS
 10
-0.208413
 20
-0.071724
  0
VERTEX
  8
PLAN_1
 62
     2
  6
CONTINUOUS
 10
-0.207457
 20
-0.074594
  0
VERTEX
  8
PLAN_1
 62
     2
  6
CONTINUOUS
 10
-0.206500
 20
-0.080803
  0
VERTEX
  8
PLAN_1
 62
     2
  6
CONTINUOUS
 10
-0.206024
 20
-0.087496
  0
VERTEX
  8
PLAN_1
 62
     2
  6
CONTINUOUS
 10
-0.245685
 20
-0.087496
  0
VERTEX
  8
PLAN_1
 62
     2
  6
CONTINUOUS
 10
-0.245685
 20
-0.091795
  0
VERTEX
  8
PLAN_1
 62
     2
  6
CONTINUOUS
 10
-0.244732
 20
-0.095142
  0
VERTEX
  8
PLAN_1
 62
     2
  6
CONTINUOUS
 10
-0.243776
 20
-0.098488
  0
VERTEX
  8
PLAN_1
 62
     2
  6
CONTINUOUS
 10
-0.241862
 20
-0.100874
  0
VERTEX
  8
PLAN_1
 62
     2
  6
CONTINUOUS
 10
-0.239472
 20
-0.102787
  0
VERTEX
  8
PLAN_1
 62
     2
  6
CONTINUOUS
 10
-0.237087
 20
-0.104220
  0
VERTEX
  8
PLAN_1
 62
     2
  6
CONTINUOUS
 10
-0.233740
 20
-0.105177
  0
VERTEX
  8
PLAN_1
 62
     2
  6
CONTINUOUS
 10
-0.229917
 20
-0.105654
  0
VERTEX
  8
PLAN_1
 62
     2
  6
CONTINUOUS
 10
-0.227051
 20
-0.105177
  0
VERTEX
  8
PLAN_1
 62
     2
  6
CONTINUOUS
 10
-0.224181
 20
-0.104701
  0
VERTEX
  8
PLAN_1
 62
     2
  6
CONTINUOUS
 10
-0.221791
 20
-0.103264
  0
VERTEX
  8
PLAN_1
 62
     2
  6
CONTINUOUS
 10
-0.219882
 20
-0.101831
  0
VERTEX
  8
PLAN_1
 62
     2
  6
CONTINUOUS
 10
-0.218449
 20
-0.099921
  0
VERTEX
  8
PLAN_1
 62
     2
  6
CONTINUOUS
 10
-0.217016
 20
-0.098488
  0
VERTEX
  8
PLAN_1
 62
     2
  6
CONTINUOUS
 10
-0.216535
 20
-0.096575
  0
VERTEX
  8
PLAN_1
 62
     2
  6
CONTINUOUS
 10
-0.216059
 20
-0.094665
  0
VERTEX
  8
PLAN_1
 62
     2
  6
CONTINUOUS
 10
-0.206980
 20
-0.094665
  0
SEQEND
  8
0
  0
POLYLINE
  8
PLAN_1
 62
     2
  6
CONTINUOUS
 66
     1
 40
0.003000
 41
0.003000
  0
VERTEX
  8
PLAN_1
 62
     2
  6
CONTINUOUS
 10
-0.215579
 20
-0.080327
  0
VERTEX
  8
PLAN_1
 62
     2
  6
CONTINUOUS
 10
-0.216059
 20
-0.077461
  0
VERTEX
  8
PLAN_1
 62
     2
  6
CONTINUOUS
 10
-0.216535
 20
-0.074114
  0
VERTEX
  8
PLAN_1
 62
     2
  6
CONTINUOUS
 10
-0.217492
 20
-0.071724
  0
VERTEX
  8
PLAN_1
 62
     2
  6
CONTINUOUS
 10
-0.219402
 20
-0.069335
  0
VERTEX
  8
PLAN_1
 62
     2
  6
CONTINUOUS
 10
-0.221315
 20
-0.066945
  0
VERTEX
  8
PLAN_1
 62
     2
  6
CONTINUOUS
 10
-0.223705
 20
-0.065512
  0
VERTEX
  8
PLAN_1
 62
     2
  6
CONTINUOUS
 10
-0.227051
 20
-0.064559
  0
VERTEX
  8
PLAN_1
 62
     2
  6
CONTINUOUS
 10
-0.230874
 20
-0.064079
  0
VERTEX
  8
PLAN_1
 62
     2
  6
CONTINUOUS
 10
-0.233740
 20
-0.064559
  0
VERTEX
  8
PLAN_1
 62
     2
  6
CONTINUOUS
 10
-0.236606
 20
-0.065512
  0
VERTEX
  8
PLAN_1
 62
     2
  6
CONTINUOUS
 10
-0.239472
 20
-0.066945
  0
VERTEX
  8
PLAN_1
 62
     2
  6
CONTINUOUS
 10
-0.241386
 20
-0.069335
  0
VERTEX
  8
PLAN_1
 62
     2
  6
CONTINUOUS
 10
-0.243295
 20
-0.071724
  0
VERTEX
  8
PLAN_1
 62
     2
  6
CONTINUOUS
 10
-0.244732
 20
-0.074114
  0
VERTEX
  8
PLAN_1
 62
     2
  6
CONTINUOUS
 10
-0.245685
 20
-0.077461
  0
VERTEX
  8
PLAN_1
 62
     2
  6
CONTINUOUS
 10
-0.245685
 20
-0.080327
  0
VERTEX
  8
PLAN_1
 62
     2
  6
CONTINUOUS
 10
-0.215579
 20
-0.080327
  0
SEQEND
  8
0
  0
POLYLINE
  8
PLAN_1
 62
     2
  6
CONTINUOUS
 66
     1
 40
0.003000
 41
0.003000
  0
VERTEX
  8
PLAN_1
 62
     2
  6
CONTINUOUS
 10
-0.135776
 20
-0.111866
  0
VERTEX
  8
PLAN_1
 62
     2
  6
CONTINUOUS
 10
-0.145335
 20
-0.111866
  0
VERTEX
  8
PLAN_1
 62
     2
  6
CONTINUOUS
 10
-0.145335
 20
-0.059780
  0
VERTEX
  8
PLAN_1
 62
     2
  6
CONTINUOUS
 10
-0.162535
 20
-0.059780
  0
VERTEX
  8
PLAN_1
 62
     2
  6
CONTINUOUS
 10
-0.162535
 20
-0.052610
  0
VERTEX
  8
PLAN_1
 62
     2
  6
CONTINUOUS
 10
-0.158236
 20
-0.052610
  0
VERTEX
  8
PLAN_1
 62
     2
  6
CONTINUOUS
 10
-0.154890
 20
-0.051654
  0
VERTEX
  8
PLAN_1
 62
     2
  6
CONTINUOUS
 10
-0.152024
 20
-0.051177
  0
VERTEX
  8
PLAN_1
 62
     2
  6
CONTINUOUS
 10
-0.149157
 20
-0.049744
  0
VERTEX
  8
PLAN_1
 62
     2
  6
CONTINUOUS
 10
-0.147244
 20
-0.048311
  0
VERTEX
  8
PLAN_1
 62
     2
  6
CONTINUOUS
 10
-0.145335
 20
-0.045921
  0
VERTEX
  8
PLAN_1
 62
     2
  6
CONTINUOUS
 10
-0.143898
 20
-0.042575
  0
VERTEX
  8
PLAN_1
 62
     2
  6
CONTINUOUS
 10
-0.142945
 20
-0.038752
  0
VERTEX
  8
PLAN_1
 62
     2
  6
CONTINUOUS
 10
-0.135776
 20
-0.038752
  0
VERTEX
  8
PLAN_1
 62
     2
  6
CONTINUOUS
 10
-0.135776
 20
-0.111866
  0
SEQEND
  8
0
  0
POLYLINE
  8
PLAN_1
 62
     2
  6
CONTINUOUS
 66
     1
 40
0.003000
 41
0.003000
  0
VERTEX
  8
PLAN_1
 62
     2
  6
CONTINUOUS
 10
-0.091811
 20
-0.070291
  0
VERTEX
  8
PLAN_1
 62
     2
  6
CONTINUOUS
 10
-0.091335
 20
-0.070291
  0
VERTEX
  8
PLAN_1
 62
     2
  6
CONTINUOUS
 10
-0.090378
 20
-0.070291
  0
VERTEX
  8
PLAN_1
 62
     2
  6
CONTINUOUS
 10
-0.089898
 20
-0.070291
  0
VERTEX
  8
PLAN_1
 62
     2
  6
CONTINUOUS
 10
-0.089421
 20
-0.070291
  0
VERTEX
  8
PLAN_1
 62
     2
  6
CONTINUOUS
 10
-0.088945
 20
-0.070291
  0
VERTEX
  8
PLAN_1
 62
     2
  6
CONTINUOUS
 10
-0.087988
 20
-0.070291
  0
VERTEX
  8
PLAN_1
 62
     2
  6
CONTINUOUS
 10
-0.087512
 20
-0.070291
  0
VERTEX
  8
PLAN_1
 62
     2
  6
CONTINUOUS
 10
-0.087031
 20
-0.070291
  0
VERTEX
  8
PLAN_1
 62
     2
  6
CONTINUOUS
 10
-0.084165
 20
-0.070291
  0
VERTEX
  8
PLAN_1
 62
     2
  6
CONTINUOUS
 10
-0.081776
 20
-0.069815
  0
VERTEX
  8
PLAN_1
 62
     2
  6
CONTINUOUS
 10
-0.079386
 20
-0.069335
  0
VERTEX
  8
PLAN_1
 62
     2
  6
CONTINUOUS
 10
-0.077476
 20
-0.067902
  0
VERTEX
  8
PLAN_1
 62
     2
  6
CONTINUOUS
 10
-0.075563
 20
-0.066469
  0
VERTEX
  8
PLAN_1
 62
     2
  6
CONTINUOUS
 10
-0.074130
 20
-0.064079
  0
VERTEX
  8
PLAN_1
 62
     2
  6
CONTINUOUS
 10
-0.073173
 20
-0.061689
  0
VERTEX
  8
PLAN_1
 62
     2
  6
CONTINUOUS
 10
-0.073173
 20
-0.058346
  0
VERTEX
  8
PLAN_1
 62
     2
  6
CONTINUOUS
 10
-0.073173
 20
-0.056909
  0
VERTEX
  8
PLAN_1
 62
     2
  6
CONTINUOUS
 10
-0.073650
 20
-0.055000
  0
VERTEX
  8
PLAN_1
 62
     2
  6
CONTINUOUS
 10
-0.074606
 20
-0.053087
  0
VERTEX
  8
PLAN_1
 62
     2
  6
CONTINUOUS
 10
-0.075563
 20
-0.051177
  0
VERTEX
  8
PLAN_1
 62
     2
  6
CONTINUOUS
 10
-0.077476
 20
-0.049744
  0
VERTEX
  8
PLAN_1
 62
     2
  6
CONTINUOUS
 10
-0.079862
 20
-0.048311
  0
VERTEX
  8
PLAN_1
 62
     2
  6
CONTINUOUS
 10
-0.082732
 20
-0.047354
  0
VERTEX
  8
PLAN_1
 62
     2
  6
CONTINUOUS
 10
-0.086555
 20
-0.046874
  0
VERTEX
  8
PLAN_1
 62
     2
  6
CONTINUOUS
 10
-0.088945
 20
-0.047354
  0
VERTEX
  8
PLAN_1
 62
     2
  6
CONTINUOUS
 10
-0.090854
 20
-0.047354
  0
VERTEX
  8
PLAN_1
 62
     2
  6
CONTINUOUS
 10
-0.092768
 20
-0.047831
  0
VERTEX
  8
PLAN_1
 62
     2
  6
CONTINUOUS
 10
-0.094201
 20
-0.048787
  0
VERTEX
  8
PLAN_1
 62
     2
  6
CONTINUOUS
 10
-0.096591
 20
-0.050701
  0
VERTEX
  8
PLAN_1
 62
     2
  6
CONTINUOUS
 10
-0.098500
 20
-0.053087
  0
VERTEX
  8
PLAN_1
 62
     2
  6
CONTINUOUS
 10
-0.099457
 20
-0.055476
  0
VERTEX
  8
PLAN_1
 62
     2
  6
CONTINUOUS
 10
-0.100413
 20
-0.058346
  0
VERTEX
  8
PLAN_1
 62
     2
  6
CONTINUOUS
 10
-0.100413
 20
-0.060736
  0
VERTEX
  8
PLAN_1
 62
     2
  6
CONTINUOUS
 10
-0.100890
 20
-0.062646
  0
VERTEX
  8
PLAN_1
 62
     2
  6
CONTINUOUS
 10
-0.109969
 20
-0.062646
  0
VERTEX
  8
PLAN_1
 62
     2
  6
CONTINUOUS
 10
-0.109492
 20
-0.058823
  0
VERTEX
  8
PLAN_1
 62
     2
  6
CONTINUOUS
 10
-0.108535
 20
-0.054524
  0
VERTEX
  8
PLAN_1
 62
     2
  6
CONTINUOUS
 10
-0.107579
 20
-0.050220
  0
VERTEX
  8
PLAN_1
 62
     2
  6
CONTINUOUS
 10
-0.105193
 20
-0.046874
  0
VERTEX
  8
PLAN_1
 62
     2
  6
CONTINUOUS
 10
-0.103756
 20
-0.044965
  0
VERTEX
  8
PLAN_1
 62
     2
  6
CONTINUOUS
 10
-0.101846
 20
-0.043531
  0
VERTEX
  8
PLAN_1
 62
     2
  6
CONTINUOUS
 10
-0.099933
 20
-0.042098
  0
VERTEX
  8
PLAN_1
 62
     2
  6
CONTINUOUS
 10
-0.098024
 20
-0.041142
  0
VERTEX
  8
PLAN_1
 62
     2
  6
CONTINUOUS
 10
-0.095634
 20
-0.040185
  0
VERTEX
  8
PLAN_1
 62
     2
  6
CONTINUOUS
 10
-0.092768
 20
-0.039228
  0
VERTEX
  8
PLAN_1
 62
     2
  6
CONTINUOUS
 10
-0.089421
 20
-0.038752
  0
VERTEX
  8
PLAN_1
 62
     2
  6
CONTINUOUS
 10
-0.086075
 20
-0.038752
  0
VERTEX
  8
PLAN_1
 62
     2
  6
CONTINUOUS
 10
-0.081299
 20
-0.039228
  0
VERTEX
  8
PLAN_1
 62
     2
  6
CONTINUOUS
 10
-0.076520
 20
-0.040185
  0
VERTEX
  8
PLAN_1
 62
     2
  6
CONTINUOUS
 10
-0.072697
 20
-0.042098
  0
VERTEX
  8
PLAN_1
 62
     2
  6
CONTINUOUS
 10
-0.069350
 20
-0.044008
  0
VERTEX
  8
PLAN_1
 62
     2
  6
CONTINUOUS
 10
-0.066961
 20
-0.046874
  0
VERTEX
  8
PLAN_1
 62
     2
  6
CONTINUOUS
 10
-0.065051
 20
-0.050220
  0
VERTEX
  8
PLAN_1
 62
     2
  6
CONTINUOUS
 10
-0.064094
 20
-0.054043
  0
VERTEX
  8
PLAN_1
 62
     2
  6
CONTINUOUS
 10
-0.063618
 20
-0.057866
  0
VERTEX
  8
PLAN_1
 62
     2
  6
CONTINUOUS
 10
-0.063618
 20
-0.061213
  0
VERTEX
  8
PLAN_1
 62
     2
  6
CONTINUOUS
 10
-0.064571
 20
-0.064079
  0
VERTEX
  8
PLAN_1
 62
     2
  6
CONTINUOUS
 10
-0.065528
 20
-0.066469
  0
VERTEX
  8
PLAN_1
 62
     2
  6
CONTINUOUS
 10
-0.066961
 20
-0.068858
  0
VERTEX
  8
PLAN_1
 62
     2
  6
CONTINUOUS
 10
-0.068394
 20
-0.070291
  0
VERTEX
  8
PLAN_1
 62
     2
  6
CONTINUOUS
 10
-0.069827
 20
-0.071724
  0
VERTEX
  8
PLAN_1
 62
     2
  6
CONTINUOUS
 10
-0.071264
 20
-0.072681
  0
VERTEX
  8
PLAN_1
 62
     2
  6
CONTINUOUS
 10
-0.072697
 20
-0.073157
  0
VERTEX
  8
PLAN_1
 62
     2
  6
CONTINUOUS
 10
-0.070307
 20
-0.074114
  0
VERTEX
  8
PLAN_1
 62
     2
  6
CONTINUOUS
 10
-0.067917
 20
-0.075547
  0
VERTEX
  8
PLAN_1
 62
     2
  6
CONTINUOUS
 10
-0.066004
 20
-0.076980
  0
VERTEX
  8
PLAN_1
 62
     2
  6
CONTINUOUS
 10
-0.064094
 20
-0.078894
  0
VERTEX
  8
PLAN_1
 62
     2
  6
CONTINUOUS
 10
-0.062661
 20
-0.081283
  0
VERTEX
  8
PLAN_1
 62
     2
  6
CONTINUOUS
 10
-0.061705
 20
-0.084150
  0
VERTEX
  8
PLAN_1
 62
     2
  6
CONTINUOUS
 10
-0.060748
 20
-0.087016
  0
VERTEX
  8
PLAN_1
 62
     2
  6
CONTINUOUS
 10
-0.060748
 20
-0.090362
  0
VERTEX
  8
PLAN_1
 62
     2
  6
CONTINUOUS
 10
-0.061228
 20
-0.094665
  0
VERTEX
  8
PLAN_1
 62
     2
  6
CONTINUOUS
 10
-0.062181
 20
-0.098965
  0
VERTEX
  8
PLAN_1
 62
     2
  6
CONTINUOUS
 10
-0.064094
 20
-0.103264
  0
VERTEX
  8
PLAN_1
 62
     2
  6
CONTINUOUS
 10
-0.066961
 20
-0.106610
  0
VERTEX
  8
PLAN_1
 62
     2
  6
CONTINUOUS
 10
-0.068874
 20
-0.108043
  0
VERTEX
  8
PLAN_1
 62
     2
  6
CONTINUOUS
 10
-0.070783
 20
-0.109476
  0
VERTEX
  8
PLAN_1
 62
     2
  6
CONTINUOUS
 10
-0.072697
 20
-0.110909
  0
VERTEX
  8
PLAN_1
 62
     2
  6
CONTINUOUS
 10
-0.075087
 20
-0.111866
  0
VERTEX
  8
PLAN_1
 62
     2
  6
CONTINUOUS
 10
-0.077953
 20
-0.112823
  0
VERTEX
  8
PLAN_1
 62
     2
  6
CONTINUOUS
 10
-0.080819
 20
-0.113299
  0
VERTEX
  8
PLAN_1
 62
     2
  6
CONTINUOUS
 10
-0.083685
 20
-0.113780
  0
VERTEX
  8
PLAN_1
 62
     2
  6
CONTINUOUS
 10
-0.087031
 20
-0.113780
  0
VERTEX
  8
PLAN_1
 62
     2
  6
CONTINUOUS
 10
-0.088945
 20
-0.113780
  0
VERTEX
  8
PLAN_1
 62
     2
  6
CONTINUOUS
 10
-0.090854
 20
-0.113780
  0
VERTEX
  8
PLAN_1
 62
     2
  6
CONTINUOUS
 10
-0.092768
 20
-0.113299
  0
VERTEX
  8
PLAN_1
 62
     2
  6
CONTINUOUS
 10
-0.094677
 20
-0.112823
  0
VERTEX
  8
PLAN_1
 62
     2
  6
CONTINUOUS
 10
-0.096110
 20
-0.112346
  0
VERTEX
  8
PLAN_1
 62
     2
  6
CONTINUOUS
 10
-0.097543
 20
-0.111866
  0
VERTEX
  8
PLAN_1
 62
     2
  6
CONTINUOUS
 10
-0.099457
 20
-0.111390
  0
VERTEX
  8
PLAN_1
 62
     2
  6
CONTINUOUS
 10
-0.100413
 20
-0.110909
  0
VERTEX
  8
PLAN_1
 62
     2
  6
CONTINUOUS
 10
-0.103280
 20
-0.109000
  0
VERTEX
  8
PLAN_1
 62
     2
  6
CONTINUOUS
 10
-0.105669
 20
-0.106610
  0
VERTEX
  8
PLAN_1
 62
     2
  6
CONTINUOUS
 10
-0.107579
 20
-0.104220
  0
VERTEX
  8
PLAN_1
 62
     2
  6
CONTINUOUS
 10
-0.109016
 20
-0.101831
  0
VERTEX
  8
PLAN_1
 62
     2
  6
CONTINUOUS
 10
-0.109969
 20
-0.098965
  0
VERTEX
  8
PLAN_1
 62
     2
  6
CONTINUOUS
 10
-0.110925
 20
-0.095618
  0
VERTEX
  8
PLAN_1
 62
     2
  6
CONTINUOUS
 10
-0.111406
 20
-0.092752
  0
VERTEX
  8
PLAN_1
 62
     2
  6
CONTINUOUS
 10
-0.111406
 20
-0.089406
  0
VERTEX
  8
PLAN_1
 62
     2
  6
CONTINUOUS
 10
-0.101846
 20
-0.089406
  0
VERTEX
  8
PLAN_1
 62
     2
  6
CONTINUOUS
 10
-0.101846
 20
-0.092276
  0
VERTEX
  8
PLAN_1
 62
     2
  6
CONTINUOUS
 10
-0.101370
 20
-0.095142
  0
VERTEX
  8
PLAN_1
 62
     2
  6
CONTINUOUS
 10
-0.100413
 20
-0.097531
  0
VERTEX
  8
PLAN_1
 62
     2
  6
CONTINUOUS
 10
-0.099457
 20
-0.100398
  0
VERTEX
  8
PLAN_1
 62
     2
  6
CONTINUOUS
 10
-0.097067
 20
-0.102311
  0
VERTEX
  8
PLAN_1
 62
     2
  6
CONTINUOUS
 10
-0.094677
 20
-0.104220
  0
VERTEX
  8
PLAN_1
 62
     2
  6
CONTINUOUS
 10
-0.090854
 20
-0.105177
  0
VERTEX
  8
PLAN_1
 62
     2
  6
CONTINUOUS
 10
-0.086555
 20
-0.105654
  0
VERTEX
  8
PLAN_1
 62
     2
  6
CONTINUOUS
 10
-0.083209
 20
-0.105654
  0
VERTEX
  8
PLAN_1
 62
     2
  6
CONTINUOUS
 10
-0.079862
 20
-0.104701
  0
VERTEX
  8
PLAN_1
 62
     2
  6
CONTINUOUS
 10
-0.077476
 20
-0.103264
  0
VERTEX
  8
PLAN_1
 62
     2
  6
CONTINUOUS
 10
-0.075087
 20
-0.101831
  0
VERTEX
  8
PLAN_1
 62
     2
  6
CONTINUOUS
 10
-0.073173
 20
-0.099921
  0
VERTEX
  8
PLAN_1
 62
     2
  6
CONTINUOUS
 10
-0.071740
 20
-0.097531
  0
VERTEX
  8
PLAN_1
 62
     2
  6
CONTINUOUS
 10
-0.070783
 20
-0.094665
  0
VERTEX
  8
PLAN_1
 62
     2
  6
CONTINUOUS
 10
-0.070307
 20
-0.091319
  0
VERTEX
  8
PLAN_1
 62
     2
  6
CONTINUOUS
 10
-0.070783
 20
-0.089406
  0
VERTEX
  8
PLAN_1
 62
     2
  6
CONTINUOUS
 10
-0.070783
 20
-0.087496
  0
VERTEX
  8
PLAN_1
 62
     2
  6
CONTINUOUS
 10
-0.071740
 20
-0.085583
  0
VERTEX
  8
PLAN_1
 62
     2
  6
CONTINUOUS
 10
-0.072217
 20
-0.084150
  0
VERTEX
  8
PLAN_1
 62
     2
  6
CONTINUOUS
 10
-0.074130
 20
-0.081760
  0
VERTEX
  8
PLAN_1
 62
     2
  6
CONTINUOUS
 10
-0.076520
 20
-0.080327
  0
VERTEX
  8
PLAN_1
 62
     2
  6
CONTINUOUS
 10
-0.079386
 20
-0.078894
  0
VERTEX
  8
PLAN_1
 62
     2
  6
CONTINUOUS
 10
-0.082252
 20
-0.078417
  0
VERTEX
  8
PLAN_1
 62
     2
  6
CONTINUOUS
 10
-0.085122
 20
-0.078417
  0
VERTEX
  8
PLAN_1
 62
     2
  6
CONTINUOUS
 10
-0.087512
 20
-0.077937
  0
VERTEX
  8
PLAN_1
 62
     2
  6
CONTINUOUS
 10
-0.087988
 20
-0.077937
  0
VERTEX
  8
PLAN_1
 62
     2
  6
CONTINUOUS
 10
-0.088465
 20
-0.077937
  0
VERTEX
  8
PLAN_1
 62
     2
  6
CONTINUOUS
 10
-0.088945
 20
-0.077937
  0
VERTEX
  8
PLAN_1
 62
     2
  6
CONTINUOUS
 10
-0.089898
 20
-0.077937
  0
VERTEX
  8
PLAN_1
 62
     2
  6
CONTINUOUS
 10
-0.090378
 20
-0.078417
  0
VERTEX
  8
PLAN_1
 62
     2
  6
CONTINUOUS
 10
-0.090854
 20
-0.078417
  0
VERTEX
  8
PLAN_1
 62
     2
  6
CONTINUOUS
 10
-0.091335
 20
-0.078417
  0
VERTEX
  8
PLAN_1
 62
     2
  6
CONTINUOUS
 10
-0.091811
 20
-0.078417
  0
VERTEX
  8
PLAN_1
 62
     2
  6
CONTINUOUS
 10
-0.091811
 20
-0.070291
  0
SEQEND
  8
0
  0
SOLID
  8
PLAN_1
 62
     2
 10
-1.793524
 20
0.216433
 11
-1.740000
 21
0.187283
 12
-1.793524
 22
0.216433
 13
-1.732354
 23
0.217866
  0
POLYLINE
  8
PLAN_1
 62
     2
  6
CONTINUOUS
 66
     1
 40
0.003000
 41
0.003000
  0
VERTEX
  8
PLAN_1
 62
     2
  6
CONTINUOUS
 10
-1.793524
 20
0.216433
  0
VERTEX
  8
PLAN_1
 62
     2
  6
CONTINUOUS
 10
-1.740000
 20
0.187283
  0
VERTEX
  8
PLAN_1
 62
     2
  6
CONTINUOUS
 10
-1.732354
 20
0.217866
  0
VERTEX
  8
PLAN_1
 62
     2
  6
CONTINUOUS
 10
-1.793524
 20
0.216433
  0
SEQEND
  8
0
  0
POLYLINE
  8
PLAN_1
 62
     2
  6
CONTINUOUS
 66
     1
 40
0.004299
 41
0.004299
  0
VERTEX
  8
PLAN_1
 62
     2
  6
CONTINUOUS
 10
-1.757205
 20
0.207354
  0
VERTEX
  8
PLAN_1
 62
     2
  6
CONTINUOUS
 10
-0.918535
 20
-0.010559
  0
VERTEX
  8
PLAN_1
 62
     2
  6
CONTINUOUS
 10
0.040083
 20
-0.010559
  0
SEQEND
  8
0
  0
POLYLINE
  8
PLAN_1
 62
     2
  6
CONTINUOUS
 66
     1
 40
0.004299
 41
0.004299
  0
VERTEX
  8
PLAN_1
 62
     2
  6
CONTINUOUS
 10
-2.409504
 20
-0.085106
  0
VERTEX
  8
PLAN_1
 62
     2
  6
CONTINUOUS
 10
-1.051382
 20
-0.085106
  0
SEQEND
  8
0
  0
SOLID
  8
PLAN_1
 62
     2
 10
-1.022232
 20
-0.085106
 11
-1.081012
 21
-0.069335
 12
-1.022232
 22
-0.085106
 13
-1.081012
 23
-0.100874
  0
POLYLINE
  8
PLAN_1
 62
     2
  6
CONTINUOUS
 66
     1
 40
0.003000
 41
0.003000
  0
VERTEX
  8
PLAN_1
 62
     2
  6
CONTINUOUS
 10
-1.022232
 20
-0.085106
  0
VERTEX
  8
PLAN_1
 62
     2
  6
CONTINUOUS
 10
-1.081012
 20
-0.069335
  0
VERTEX
  8
PLAN_1
 62
     2
  6
CONTINUOUS
 10
-1.081012
 20
-0.100874
  0
VERTEX
  8
PLAN_1
 62
     2
  6
CONTINUOUS
 10
-1.022232
 20
-0.085106
  0
SEQEND
  8
0
  0
SOLID
  8
PLAN_1
 62
     2
 10
-2.439134
 20
-0.085106
 11
-2.379878
 21
-0.069335
 12
-2.439134
 22
-0.085106
 13
-2.379878
 23
-0.100874
  0
POLYLINE
  8
PLAN_1
 62
     2
  6
CONTINUOUS
 66
     1
 40
0.003000
 41
0.003000
  0
VERTEX
  8
PLAN_1
 62
     2
  6
CONTINUOUS
 10
-2.439134
 20
-0.085106
  0
VERTEX
  8
PLAN_1
 62
     2
  6
CONTINUOUS
 10
-2.379878
 20
-0.069335
  0
VERTEX
  8
PLAN_1
 62
     2
  6
CONTINUOUS
 10
-2.379878
 20
-0.100874
  0
VERTEX
  8
PLAN_1
 62
     2
  6
CONTINUOUS
 10
-2.439134
 20
-0.085106
  0
SEQEND
  8
0
  0
POLYLINE
  8
PLAN_1
 62
     2
  6
CONTINUOUS
 66
     1
 40
0.003000
 41
0.003000
  0
VERTEX
  8
PLAN_1
 62
     2
  6
CONTINUOUS
 10
-1.765331
 20
-0.019638
  0
VERTEX
  8
PLAN_1
 62
     2
  6
CONTINUOUS
 10
-1.764850
 20
-0.019638
  0
VERTEX
  8
PLAN_1
 62
     2
  6
CONTINUOUS
 10
-1.763894
 20
-0.019638
  0
VERTEX
  8
PLAN_1
 62
     2
  6
CONTINUOUS
 10
-1.763417
 20
-0.020114
  0
VERTEX
  8
PLAN_1
 62
     2
  6
CONTINUOUS
 10
-1.762941
 20
-0.020114
  0
VERTEX
  8
PLAN_1
 62
     2
  6
CONTINUOUS
 10
-1.761984
 20
-0.020114
  0
VERTEX
  8
PLAN_1
 62
     2
  6
CONTINUOUS
 10
-1.761508
 20
-0.020114
  0
VERTEX
  8
PLAN_1
 62
     2
  6
CONTINUOUS
 10
-1.761028
 20
-0.020114
  0
VERTEX
  8
PLAN_1
 62
     2
  6
CONTINUOUS
 10
-1.760551
 20
-0.020114
  0
VERTEX
  8
PLAN_1
 62
     2
  6
CONTINUOUS
 10
-1.757681
 20
-0.019638
  0
VERTEX
  8
PLAN_1
 62
     2
  6
CONTINUOUS
 10
-1.755295
 20
-0.019638
  0
VERTEX
  8
PLAN_1
 62
     2
  6
CONTINUOUS
 10
-1.752906
 20
-0.018681
  0
VERTEX
  8
PLAN_1
 62
     2
  6
CONTINUOUS
 10
-1.750992
 20
-0.017248
  0
VERTEX
  8
PLAN_1
 62
     2
  6
CONTINUOUS
 10
-1.749083
 20
-0.015815
  0
VERTEX
  8
PLAN_1
 62
     2
  6
CONTINUOUS
 10
-1.747646
 20
-0.013902
  0
VERTEX
  8
PLAN_1
 62
     2
  6
CONTINUOUS
 10
-1.746693
 20
-0.011035
  0
VERTEX
  8
PLAN_1
 62
     2
  6
CONTINUOUS
 10
-1.746693
 20
-0.008169
  0
VERTEX
  8
PLAN_1
 62
     2
  6
CONTINUOUS
 10
-1.746693
 20
-0.006256
  0
VERTEX
  8
PLAN_1
 62
     2
  6
CONTINUOUS
 10
-1.747169
 20
-0.004346
  0
VERTEX
  8
PLAN_1
 62
     2
  6
CONTINUOUS
 10
-1.747646
 20
-0.002433
  0
VERTEX
  8
PLAN_1
 62
     2
  6
CONTINUOUS
 10
-1.749083
 20
-0.000524
  0
VERTEX
  8
PLAN_1
 62
     2
  6
CONTINUOUS
 10
-1.750992
 20
0.000913
  0
VERTEX
  8
PLAN_1
 62
     2
  6
CONTINUOUS
 10
-1.753382
 20
0.002346
  0
VERTEX
  8
PLAN_1
 62
     2
  6
CONTINUOUS
 10
-1.756248
 20
0.003299
  0
VERTEX
  8
PLAN_1
 62
     2
  6
CONTINUOUS
 10
-1.760071
 20
0.003299
  0
VERTEX
  8
PLAN_1
 62
     2
  6
CONTINUOUS
 10
-1.762461
 20
0.003299
  0
VERTEX
  8
PLAN_1
 62
     2
  6
CONTINUOUS
 10
-1.764374
 20
0.002823
  0
VERTEX
  8
PLAN_1
 62
     2
  6
CONTINUOUS
 10
-1.766283
 20
0.002346
  0
VERTEX
  8
PLAN_1
 62
     2
  6
CONTINUOUS
 10
-1.767717
 20
0.001866
  0
VERTEX
  8
PLAN_1
 62
     2
  6
CONTINUOUS
 10
-1.770106
 20
-0.000043
  0
VERTEX
  8
PLAN_1
 62
     2
  6
CONTINUOUS
 10
-1.772020
 20
-0.002433
  0
VERTEX
  8
PLAN_1
 62
     2
  6
CONTINUOUS
 10
-1.772976
 20
-0.004823
  0
VERTEX
  8
PLAN_1
 62
     2
  6
CONTINUOUS
 10
-1.773453
 20
-0.007689
  0
VERTEX
  8
PLAN_1
 62
     2
  6
CONTINUOUS
 10
-1.773929
 20
-0.010079
  0
VERTEX
  8
PLAN_1
 62
     2
  6
CONTINUOUS
 10
-1.774409
 20
-0.011992
  0
VERTEX
  8
PLAN_1
 62
     2
  6
CONTINUOUS
 10
-1.783012
 20
-0.011992
  0
VERTEX
  8
PLAN_1
 62
     2
  6
CONTINUOUS
 10
-1.783012
 20
-0.008169
  0
VERTEX
  8
PLAN_1
 62
     2
  6
CONTINUOUS
 10
-1.782055
 20
-0.003866
  0
VERTEX
  8
PLAN_1
 62
     2
  6
CONTINUOUS
 10
-1.780622
 20
-0.000043
  0
VERTEX
  8
PLAN_1
 62
     2
  6
CONTINUOUS
 10
-1.778709
 20
0.003780
  0
VERTEX
  8
PLAN_1
 62
     2
  6
CONTINUOUS
 10
-1.777276
 20
0.005689
  0
VERTEX
  8
PLAN_1
 62
     2
  6
CONTINUOUS
 10
-1.775366
 20
0.007122
  0
VERTEX
  8
PLAN_1
 62
     2
  6
CONTINUOUS
 10
-1.773453
 20
0.008559
  0
VERTEX
  8
PLAN_1
 62
     2
  6
CONTINUOUS
 10
-1.771543
 20
0.009512
  0
VERTEX
  8
PLAN_1
 62
     2
  6
CONTINUOUS
 10
-1.769154
 20
0.010469
  0
VERTEX
  8
PLAN_1
 62
     2
  6
CONTINUOUS
 10
-1.766283
 20
0.010949
  0
VERTEX
  8
PLAN_1
 62
     2
  6
CONTINUOUS
 10
-1.762941
 20
0.011425
  0
VERTEX
  8
PLAN_1
 62
     2
  6
CONTINUOUS
 10
-1.759594
 20
0.011902
  0
VERTEX
  8
PLAN_1
 62
     2
  6
CONTINUOUS
 10
-1.754339
 20
0.011425
  0
VERTEX
  8
PLAN_1
 62
     2
  6
CONTINUOUS
 10
-1.750035
 20
0.010469
  0
VERTEX
  8
PLAN_1
 62
     2
  6
CONTINUOUS
 10
-1.746213
 20
0.008559
  0
VERTEX
  8
PLAN_1
 62
     2
  6
CONTINUOUS
 10
-1.742870
 20
0.006169
  0
VERTEX
  8
PLAN_1
 62
     2
  6
CONTINUOUS
 10
-1.740480
 20
0.003299
  0
VERTEX
  8
PLAN_1
 62
     2
  6
CONTINUOUS
 10
-1.738567
 20
0.000433
  0
VERTEX
  8
PLAN_1
 62
     2
  6
CONTINUOUS
 10
-1.737614
 20
-0.003390
  0
VERTEX
  8
PLAN_1
 62
     2
  6
CONTINUOUS
 10
-1.737134
 20
-0.007689
  0
VERTEX
  8
PLAN_1
 62
     2
  6
CONTINUOUS
 10
-1.737134
 20
-0.010559
  0
VERTEX
  8
PLAN_1
 62
     2
  6
CONTINUOUS
 10
-1.738091
 20
-0.013425
  0
VERTEX
  8
PLAN_1
 62
     2
  6
CONTINUOUS
 10
-1.739047
 20
-0.016291
  0
VERTEX
  8
PLAN_1
 62
     2
  6
CONTINUOUS
 10
-1.740000
 20
-0.018205
  0
VERTEX
  8
PLAN_1
 62
     2
  6
CONTINUOUS
 10
-1.741437
 20
-0.019638
  0
VERTEX
  8
PLAN_1
 62
     2
  6
CONTINUOUS
 10
-1.743346
 20
-0.021071
  0
VERTEX
  8
PLAN_1
 62
     2
  6
CONTINUOUS
 10
-1.744780
 20
-0.022028
  0
VERTEX
  8
PLAN_1
 62
     2
  6
CONTINUOUS
 10
-1.746213
 20
-0.022504
  0
VERTEX
  8
PLAN_1
 62
     2
  6
CONTINUOUS
 10
-1.746213
 20
-0.022980
  0
VERTEX
  8
PLAN_1
 62
     2
  6
CONTINUOUS
 10
-1.743823
 20
-0.023937
  0
VERTEX
  8
PLAN_1
 62
     2
  6
CONTINUOUS
 10
-1.741437
 20
-0.024894
  0
VERTEX
  8
PLAN_1
 62
     2
  6
CONTINUOUS
 10
-1.739524
 20
-0.026807
  0
VERTEX
  8
PLAN_1
 62
     2
  6
CONTINUOUS
 10
-1.737614
 20
-0.028717
  0
VERTEX
  8
PLAN_1
 62
     2
  6
CONTINUOUS
 10
-1.736177
 20
-0.030630
  0
VERTEX
  8
PLAN_1
 62
     2
  6
CONTINUOUS
 10
-1.735224
 20
-0.033496
  0
VERTEX
  8
PLAN_1
 62
     2
  6
CONTINUOUS
 10
-1.734268
 20
-0.036362
  0
VERTEX
  8
PLAN_1
 62
     2
  6
CONTINUOUS
 10
-1.734268
 20
-0.039709
  0
VERTEX
  8
PLAN_1
 62
     2
  6
CONTINUOUS
 10
-1.734744
 20
-0.044488
  0
VERTEX
  8
PLAN_1
 62
     2
  6
CONTINUOUS
 10
-1.735701
 20
-0.048787
  0
VERTEX
  8
PLAN_1
 62
     2
  6
CONTINUOUS
 10
-1.737614
 20
-0.052610
  0
VERTEX
  8
PLAN_1
 62
     2
  6
CONTINUOUS
 10
-1.740480
 20
-0.055957
  0
VERTEX
  8
PLAN_1
 62
     2
  6
CONTINUOUS
 10
-1.741913
 20
-0.057866
  0
VERTEX
  8
PLAN_1
 62
     2
  6
CONTINUOUS
 10
-1.743823
 20
-0.059299
  0
VERTEX
  8
PLAN_1
 62
     2
  6
CONTINUOUS
 10
-1.746213
 20
-0.060256
  0
VERTEX
  8
PLAN_1
 62
     2
  6
CONTINUOUS
 10
-1.748602
 20
-0.061213
  0
VERTEX
  8
PLAN_1
 62
     2
  6
CONTINUOUS
 10
-1.750992
 20
-0.062169
  0
VERTEX
  8
PLAN_1
 62
     2
  6
CONTINUOUS
 10
-1.753858
 20
-0.062646
  0
VERTEX
  8
PLAN_1
 62
     2
  6
CONTINUOUS
 10
-1.757205
 20
-0.063122
  0
VERTEX
  8
PLAN_1
 62
     2
  6
CONTINUOUS
 10
-1.760551
 20
-0.063602
  0
VERTEX
  8
PLAN_1
 62
     2
  6
CONTINUOUS
 10
-1.762461
 20
-0.063122
  0
VERTEX
  8
PLAN_1
 62
     2
  6
CONTINUOUS
 10
-1.764374
 20
-0.063122
  0
VERTEX
  8
PLAN_1
 62
     2
  6
CONTINUOUS
 10
-1.766283
 20
-0.062646
  0
VERTEX
  8
PLAN_1
 62
     2
  6
CONTINUOUS
 10
-1.768197
 20
-0.062646
  0
VERTEX
  8
PLAN_1
 62
     2
  6
CONTINUOUS
 10
-1.769630
 20
-0.062169
  0
VERTEX
  8
PLAN_1
 62
     2
  6
CONTINUOUS
 10
-1.771063
 20
-0.061213
  0
VERTEX
  8
PLAN_1
 62
     2
  6
CONTINUOUS
 10
-1.772496
 20
-0.060736
  0
VERTEX
  8
PLAN_1
 62
     2
  6
CONTINUOUS
 10
-1.773929
 20
-0.060256
  0
VERTEX
  8
PLAN_1
 62
     2
  6
CONTINUOUS
 10
-1.776799
 20
-0.058346
  0
VERTEX
  8
PLAN_1
 62
     2
  6
CONTINUOUS
 10
-1.779189
 20
-0.056433
  0
VERTEX
  8
PLAN_1
 62
     2
  6
CONTINUOUS
 10
-1.781098
 20
-0.053567
  0
VERTEX
  8
PLAN_1
 62
     2
  6
CONTINUOUS
 10
-1.782531
 20
-0.051177
  0
VERTEX
  8
PLAN_1
 62
     2
  6
CONTINUOUS
 10
-1.783488
 20
-0.048311
  0
VERTEX
  8
PLAN_1
 62
     2
  6
CONTINUOUS
 10
-1.783965
 20
-0.045441
  0
VERTEX
  8
PLAN_1
 62
     2
  6
CONTINUOUS
 10
-1.784445
 20
-0.042098
  0
VERTEX
  8
PLAN_1
 62
     2
  6
CONTINUOUS
 10
-1.784921
 20
-0.039228
  0
VERTEX
  8
PLAN_1
 62
     2
  6
CONTINUOUS
 10
-1.775366
 20
-0.039228
  0
VERTEX
  8
PLAN_1
 62
     2
  6
CONTINUOUS
 10
-1.775366
 20
-0.041618
  0
VERTEX
  8
PLAN_1
 62
     2
  6
CONTINUOUS
 10
-1.774886
 20
-0.044488
  0
VERTEX
  8
PLAN_1
 62
     2
  6
CONTINUOUS
 10
-1.773929
 20
-0.047354
  0
VERTEX
  8
PLAN_1
 62
     2
  6
CONTINUOUS
 10
-1.772496
 20
-0.049744
  0
VERTEX
  8
PLAN_1
 62
     2
  6
CONTINUOUS
 10
-1.770587
 20
-0.051654
  0
VERTEX
  8
PLAN_1
 62
     2
  6
CONTINUOUS
 10
-1.768197
 20
-0.053567
  0
VERTEX
  8
PLAN_1
 62
     2
  6
CONTINUOUS
 10
-1.764374
 20
-0.054524
  0
VERTEX
  8
PLAN_1
 62
     2
  6
CONTINUOUS
 10
-1.760071
 20
-0.055000
  0
VERTEX
  8
PLAN_1
 62
     2
  6
CONTINUOUS
 10
-1.756728
 20
-0.055000
  0
VERTEX
  8
PLAN_1
 62
     2
  6
CONTINUOUS
 10
-1.753382
 20
-0.054043
  0
VERTEX
  8
PLAN_1
 62
     2
  6
CONTINUOUS
 10
-1.750516
 20
-0.053087
  0
VERTEX
  8
PLAN_1
 62
     2
  6
CONTINUOUS
 10
-1.748602
 20
-0.051177
  0
VERTEX
  8
PLAN_1
 62
     2
  6
CONTINUOUS
 10
-1.746693
 20
-0.049264
  0
VERTEX
  8
PLAN_1
 62
     2
  6
CONTINUOUS
 10
-1.745260
 20
-0.046874
  0
VERTEX
  8
PLAN_1
 62
     2
  6
CONTINUOUS
 10
-1.744303
 20
-0.044008
  0
VERTEX
  8
PLAN_1
 62
     2
  6
CONTINUOUS
 10
-1.743823
 20
-0.041142
  0
VERTEX
  8
PLAN_1
 62
     2
  6
CONTINUOUS
 10
-1.744303
 20
-0.038752
  0
VERTEX
  8
PLAN_1
 62
     2
  6
CONTINUOUS
 10
-1.744303
 20
-0.036843
  0
VERTEX
  8
PLAN_1
 62
     2
  6
CONTINUOUS
 10
-1.744780
 20
-0.035406
  0
VERTEX
  8
PLAN_1
 62
     2
  6
CONTINUOUS
 10
-1.745736
 20
-0.033496
  0
VERTEX
  8
PLAN_1
 62
     2
  6
CONTINUOUS
 10
-1.747646
 20
-0.031583
  0
VERTEX
  8
PLAN_1
 62
     2
  6
CONTINUOUS
 10
-1.750035
 20
-0.029673
  0
VERTEX
  8
PLAN_1
 62
     2
  6
CONTINUOUS
 10
-1.752906
 20
-0.028717
  0
VERTEX
  8
PLAN_1
 62
     2
  6
CONTINUOUS
 10
-1.755772
 20
-0.027760
  0
VERTEX
  8
PLAN_1
 62
     2
  6
CONTINUOUS
 10
-1.758638
 20
-0.027760
  0
VERTEX
  8
PLAN_1
 62
     2
  6
CONTINUOUS
 10
-1.761028
 20
-0.027760
  0
VERTEX
  8
PLAN_1
 62
     2
  6
CONTINUOUS
 10
-1.761508
 20
-0.027760
  0
VERTEX
  8
PLAN_1
 62
     2
  6
CONTINUOUS
 10
-1.761984
 20
-0.027760
  0
VERTEX
  8
PLAN_1
 62
     2
  6
CONTINUOUS
 10
-1.762461
 20
-0.027760
  0
VERTEX
  8
PLAN_1
 62
     2
  6
CONTINUOUS
 10
-1.762941
 20
-0.027760
  0
VERTEX
  8
PLAN_1
 62
     2
  6
CONTINUOUS
 10
-1.763894
 20
-0.027760
  0
VERTEX
  8
PLAN_1
 62
     2
  6
CONTINUOUS
 10
-1.764374
 20
-0.027760
  0
VERTEX
  8
PLAN_1
 62
     2
  6
CONTINUOUS
 10
-1.764850
 20
-0.027760
  0
VERTEX
  8
PLAN_1
 62
     2
  6
CONTINUOUS
 10
-1.765331
 20
-0.027760
  0
VERTEX
  8
PLAN_1
 62
     2
  6
CONTINUOUS
 10
-1.765331
 20
-0.019638
  0
SEQEND
  8
0
  0
POLYLINE
  8
PLAN_1
 62
     2
  6
CONTINUOUS
 66
     1
 40
0.003000
 41
0.003000
  0
VERTEX
  8
PLAN_1
 62
     2
  6
CONTINUOUS
 10
-1.687437
 20
-0.007689
  0
VERTEX
  8
PLAN_1
 62
     2
  6
CONTINUOUS
 10
-1.687913
 20
-0.005299
  0
VERTEX
  8
PLAN_1
 62
     2
  6
CONTINUOUS
 10
-1.688390
 20
-0.003390
  0
VERTEX
  8
PLAN_1
 62
     2
  6
CONTINUOUS
 10
-1.689823
 20
-0.001476
  0
VERTEX
  8
PLAN_1
 62
     2
  6
CONTINUOUS
 10
-1.690780
 20
0.000433
  0
VERTEX
  8
PLAN_1
 62
     2
  6
CONTINUOUS
 10
-1.692693
 20
0.001866
  0
VERTEX
  8
PLAN_1
 62
     2
  6
CONTINUOUS
 10
-1.694602
 20
0.002823
  0
VERTEX
  8
PLAN_1
 62
     2
  6
CONTINUOUS
 10
-1.696992
 20
0.003299
  0
VERTEX
  8
PLAN_1
 62
     2
  6
CONTINUOUS
 10
-1.699858
 20
0.003299
  0
VERTEX
  8
PLAN_1
 62
     2
  6
CONTINUOUS
 10
-1.702248
 20
0.003299
  0
VERTEX
  8
PLAN_1
 62
     2
  6
CONTINUOUS
 10
-1.704638
 20
0.002823
  0
VERTEX
  8
PLAN_1
 62
     2
  6
CONTINUOUS
 10
-1.706551
 20
0.001866
  0
VERTEX
  8
PLAN_1
 62
     2
  6
CONTINUOUS
 10
-1.708461
 20
0.000433
  0
VERTEX
  8
PLAN_1
 62
     2
  6
CONTINUOUS
 10
-1.710374
 20
-0.001000
  0
VERTEX
  8
PLAN_1
 62
     2
  6
CONTINUOUS
 10
-1.711807
 20
-0.002913
  0
VERTEX
  8
PLAN_1
 62
     2
  6
CONTINUOUS
 10
-1.712764
 20
-0.004823
  0
VERTEX
  8
PLAN_1
 62
     2
  6
CONTINUOUS
 10
-1.713720
 20
-0.007213
  0
VERTEX
  8
PLAN_1
 62
     2
  6
CONTINUOUS
 10
-1.715630
 20
-0.011512
  0
VERTEX
  8
PLAN_1
 62
     2
  6
CONTINUOUS
 10
-1.716587
 20
-0.015815
  0
VERTEX
  8
PLAN_1
 62
     2
  6
CONTINUOUS
 10
-1.717063
 20
-0.020114
  0
VERTEX
  8
PLAN_1
 62
     2
  6
CONTINUOUS
 10
-1.717063
 20
-0.023461
  0
VERTEX
  8
PLAN_1
 62
     2
  6
CONTINUOUS
 10
-1.717063
 20
-0.023937
  0
VERTEX
  8
PLAN_1
 62
     2
  6
CONTINUOUS
 10
-1.716106
 20
-0.022028
  0
VERTEX
  8
PLAN_1
 62
     2
  6
CONTINUOUS
 10
-1.714673
 20
-0.020594
  0
VERTEX
  8
PLAN_1
 62
     2
  6
CONTINUOUS
 10
-1.713240
 20
-0.019157
  0
VERTEX
  8
PLAN_1
 62
     2
  6
CONTINUOUS
 10
-1.711331
 20
-0.017724
  0
VERTEX
  8
PLAN_1
 62
     2
  6
CONTINUOUS
 10
-1.708941
 20
-0.016772
  0
VERTEX
  8
PLAN_1
 62
     2
  6
CONTINUOUS
 10
-1.706071
 20
-0.015815
  0
VERTEX
  8
PLAN_1
 62
     2
  6
CONTINUOUS
 10
-1.703205
 20
-0.014858
  0
VERTEX
  8
PLAN_1
 62
     2
  6
CONTINUOUS
 10
-1.699382
 20
-0.014858
  0
VERTEX
  8
PLAN_1
 62
     2
  6
CONTINUOUS
 10
-1.696035
 20
-0.014858
  0
VERTEX
  8
PLAN_1
 62
     2
  6
CONTINUOUS
 10
-1.692213
 20
-0.015815
  0
VERTEX
  8
PLAN_1
 62
     2
  6
CONTINUOUS
 10
-1.688390
 20
-0.017724
  0
VERTEX
  8
PLAN_1
 62
     2
  6
CONTINUOUS
 10
-1.685047
 20
-0.019638
  0
VERTEX
  8
PLAN_1
 62
     2
  6
CONTINUOUS
 10
-1.683134
 20
-0.021071
  0
VERTEX
  8
PLAN_1
 62
     2
  6
CONTINUOUS
 10
-1.681701
 20
-0.022980
  0
VERTEX
  8
PLAN_1
 62
     2
  6
CONTINUOUS
 10
-1.680268
 20
-0.024894
  0
VERTEX
  8
PLAN_1
 62
     2
  6
CONTINUOUS
 10
-1.678835
 20
-0.026807
  0
VERTEX
  8
PLAN_1
 62
     2
  6
CONTINUOUS
 10
-1.677878
 20
-0.029193
  0
VERTEX
  8
PLAN_1
 62
     2
  6
CONTINUOUS
 10
-1.677402
 20
-0.032063
  0
VERTEX
  8
PLAN_1
 62
     2
  6
CONTINUOUS
 10
-1.676921
 20
-0.034929
  0
VERTEX
  8
PLAN_1
 62
     2
  6
CONTINUOUS
 10
-1.676921
 20
-0.037795
  0
VERTEX
  8
PLAN_1
 62
     2
  6
CONTINUOUS
 10
-1.676921
 20
-0.040665
  0
VERTEX
  8
PLAN_1
 62
     2
  6
CONTINUOUS
 10
-1.676921
 20
-0.043051
  0
VERTEX
  8
PLAN_1
 62
     2
  6
CONTINUOUS
 10
-1.677402
 20
-0.045441
  0
VERTEX
  8
PLAN_1
 62
     2
  6
CONTINUOUS
 10
-1.678354
 20
-0.047831
  0
VERTEX
  8
PLAN_1
 62
     2
  6
CONTINUOUS
 10
-1.679311
 20
-0.050220
  0
VERTEX
  8
PLAN_1
 62
     2
  6
CONTINUOUS
 10
-1.680268
 20
-0.052134
  0
VERTEX
  8
PLAN_1
 62
     2
  6
CONTINUOUS
 10
-1.682177
 20
-0.054043
  0
VERTEX
  8
PLAN_1
 62
     2
  6
CONTINUOUS
 10
-1.683614
 20
-0.056433
  0
VERTEX
  8
PLAN_1
 62
     2
  6
CONTINUOUS
 10
-1.685047
 20
-0.057866
  0
VERTEX
  8
PLAN_1
 62
     2
  6
CONTINUOUS
 10
-1.686957
 20
-0.059299
  0
VERTEX
  8
PLAN_1
 62
     2
  6
CONTINUOUS
 10
-1.688390
 20
-0.060256
  0
VERTEX
  8
PLAN_1
 62
     2
  6
CONTINUOUS
 10
-1.690303
 20
-0.061213
  0
VERTEX
  8
PLAN_1
 62
     2
  6
CONTINUOUS
 10
-1.692693
 20
-0.062169
  0
VERTEX
  8
PLAN_1
 62
     2
  6
CONTINUOUS
 10
-1.695559
 20
-0.062646
  0
VERTEX
  8
PLAN_1
 62
     2
  6
CONTINUOUS
 10
-1.698425
 20
-0.063122
  0
VERTEX
  8
PLAN_1
 62
     2
  6
CONTINUOUS
 10
-1.702248
 20
-0.063602
  0
VERTEX
  8
PLAN_1
 62
     2
  6
CONTINUOUS
 10
-1.704638
 20
-0.063122
  0
VERTEX
  8
PLAN_1
 62
     2
  6
CONTINUOUS
 10
-1.706551
 20
-0.062646
  0
VERTEX
  8
PLAN_1
 62
     2
  6
CONTINUOUS
 10
-1.709417
 20
-0.062169
  0
VERTEX
  8
PLAN_1
 62
     2
  6
CONTINUOUS
 10
-1.711807
 20
-0.061213
  0
VERTEX
  8
PLAN_1
 62
     2
  6
CONTINUOUS
 10
-1.714197
 20
-0.059780
  0
VERTEX
  8
PLAN_1
 62
     2
  6
CONTINUOUS
 10
-1.716587
 20
-0.057866
  0
VERTEX
  8
PLAN_1
 62
     2
  6
CONTINUOUS
 10
-1.718976
 20
-0.055476
  0
VERTEX
  8
PLAN_1
 62
     2
  6
CONTINUOUS
 10
-1.720886
 20
-0.052610
  0
VERTEX
  8
PLAN_1
 62
     2
  6
CONTINUOUS
 10
-1.722319
 20
-0.050220
  0
VERTEX
  8
PLAN_1
 62
     2
  6
CONTINUOUS
 10
-1.723752
 20
-0.047354
  0
VERTEX
  8
PLAN_1
 62
     2
  6
CONTINUOUS
 10
-1.724709
 20
-0.044008
  0
VERTEX
  8
PLAN_1
 62
     2
  6
CONTINUOUS
 10
-1.725665
 20
-0.041142
  0
VERTEX
  8
PLAN_1
 62
     2
  6
CONTINUOUS
 10
-1.726142
 20
-0.037795
  0
VERTEX
  8
PLAN_1
 62
     2
  6
CONTINUOUS
 10
-1.726622
 20
-0.034453
  0
VERTEX
  8
PLAN_1
 62
     2
  6
CONTINUOUS
 10
-1.726622
 20
-0.031106
  0
VERTEX
  8
PLAN_1
 62
     2
  6
CONTINUOUS
 10
-1.726622
 20
-0.027283
  0
VERTEX
  8
PLAN_1
 62
     2
  6
CONTINUOUS
 10
-1.726622
 20
-0.021071
  0
VERTEX
  8
PLAN_1
 62
     2
  6
CONTINUOUS
 10
-1.725665
 20
-0.014382
  0
VERTEX
  8
PLAN_1
 62
     2
  6
CONTINUOUS
 10
-1.724709
 20
-0.011035
  0
VERTEX
  8
PLAN_1
 62
     2
  6
CONTINUOUS
 10
-1.723752
 20
-0.008169
  0
VERTEX
  8
PLAN_1
 62
     2
  6
CONTINUOUS
 10
-1.722799
 20
-0.004823
  0
VERTEX
  8
PLAN_1
 62
     2
  6
CONTINUOUS
 10
-1.721366
 20
-0.001957
  0
VERTEX
  8
PLAN_1
 62
     2
  6
CONTINUOUS
 10
-1.719453
 20
0.000913
  0
VERTEX
  8
PLAN_1
 62
     2
  6
CONTINUOUS
 10
-1.717543
 20
0.003780
  0
VERTEX
  8
PLAN_1
 62
     2
  6
CONTINUOUS
 10
-1.715630
 20
0.005689
  0
VERTEX
  8
PLAN_1
 62
     2
  6
CONTINUOUS
 10
-1.713240
 20
0.008079
  0
VERTEX
  8
PLAN_1
 62
     2
  6
CONTINUOUS
 10
-1.710374
 20
0.009512
  0
VERTEX
  8
PLAN_1
 62
     2
  6
CONTINUOUS
 10
-1.707028
 20
0.010949
  0
VERTEX
  8
PLAN_1
 62
     2
  6
CONTINUOUS
 10
-1.703685
 20
0.011425
  0
VERTEX
  8
PLAN_1
 62
     2
  6
CONTINUOUS
 10
-1.699382
 20
0.011902
  0
VERTEX
  8
PLAN_1
 62
     2
  6
CONTINUOUS
 10
-1.696516
 20
0.011425
  0
VERTEX
  8
PLAN_1
 62
     2
  6
CONTINUOUS
 10
-1.692693
 20
0.010949
  0
VERTEX
  8
PLAN_1
 62
     2
  6
CONTINUOUS
 10
-1.689346
 20
0.009512
  0
VERTEX
  8
PLAN_1
 62
     2
  6
CONTINUOUS
 10
-1.686000
 20
0.007602
  0
VERTEX
  8
PLAN_1
 62
     2
  6
CONTINUOUS
 10
-1.683134
 20
0.005213
  0
VERTEX
  8
PLAN_1
 62
     2
  6
CONTINUOUS
 10
-1.680744
 20
0.001390
  0
VERTEX
  8
PLAN_1
 62
     2
  6
CONTINUOUS
 10
-1.679791
 20
-0.000524
  0
VERTEX
  8
PLAN_1
 62
     2
  6
CONTINUOUS
 10
-1.679311
 20
-0.002433
  0
VERTEX
  8
PLAN_1
 62
     2
  6
CONTINUOUS
 10
-1.678354
 20
-0.004823
  0
VERTEX
  8
PLAN_1
 62
     2
  6
CONTINUOUS
 10
-1.678354
 20
-0.007689
  0
VERTEX
  8
PLAN_1
 62
     2
  6
CONTINUOUS
 10
-1.687437
 20
-0.007689
  0
SEQEND
  8
0
  0
POLYLINE
  8
PLAN_1
 62
     2
  6
CONTINUOUS
 66
     1
 40
0.003000
 41
0.003000
  0
VERTEX
  8
PLAN_1
 62
     2
  6
CONTINUOUS
 10
-1.700339
 20
-0.055000
  0
VERTEX
  8
PLAN_1
 62
     2
  6
CONTINUOUS
 10
-1.697472
 20
-0.055000
  0
VERTEX
  8
PLAN_1
 62
     2
  6
CONTINUOUS
 10
-1.694602
 20
-0.054043
  0
VERTEX
  8
PLAN_1
 62
     2
  6
CONTINUOUS
 10
-1.692213
 20
-0.052610
  0
VERTEX
  8
PLAN_1
 62
     2
  6
CONTINUOUS
 10
-1.690303
 20
-0.050701
  0
VERTEX
  8
PLAN_1
 62
     2
  6
CONTINUOUS
 10
-1.688390
 20
-0.047831
  0
VERTEX
  8
PLAN_1
 62
     2
  6
CONTINUOUS
 10
-1.687437
 20
-0.044965
  0
VERTEX
  8
PLAN_1
 62
     2
  6
CONTINUOUS
 10
-1.686480
 20
-0.042098
  0
VERTEX
  8
PLAN_1
 62
     2
  6
CONTINUOUS
 10
-1.686000
 20
-0.038276
  0
VERTEX
  8
PLAN_1
 62
     2
  6
CONTINUOUS
 10
-1.686480
 20
-0.035886
  0
VERTEX
  8
PLAN_1
 62
     2
  6
CONTINUOUS
 10
-1.686957
 20
-0.033496
  0
VERTEX
  8
PLAN_1
 62
     2
  6
CONTINUOUS
 10
-1.687913
 20
-0.030630
  0
VERTEX
  8
PLAN_1
 62
     2
  6
CONTINUOUS
 10
-1.689346
 20
-0.028240
  0
VERTEX
  8
PLAN_1
 62
     2
  6
CONTINUOUS
 10
-1.691260
 20
-0.026327
  0
VERTEX
  8
PLAN_1
 62
     2
  6
CONTINUOUS
 10
-1.693650
 20
-0.024417
  0
VERTEX
  8
PLAN_1
 62
     2
  6
CONTINUOUS
 10
-1.696992
 20
-0.023461
  0
VERTEX
  8
PLAN_1
 62
     2
  6
CONTINUOUS
 10
-1.700815
 20
-0.022980
  0
VERTEX
  8
PLAN_1
 62
     2
  6
CONTINUOUS
 10
-1.704638
 20
-0.023461
  0
VERTEX
  8
PLAN_1
 62
     2
  6
CONTINUOUS
 10
-1.707508
 20
-0.024417
  0
VERTEX
  8
PLAN_1
 62
     2
  6
CONTINUOUS
 10
-1.710374
 20
-0.025850
  0
VERTEX
  8
PLAN_1
 62
     2
  6
CONTINUOUS
 10
-1.712283
 20
-0.027760
  0
VERTEX
  8
PLAN_1
 62
     2
  6
CONTINUOUS
 10
-1.713720
 20
-0.030150
  0
VERTEX
  8
PLAN_1
 62
     2
  6
CONTINUOUS
 10
-1.715154
 20
-0.033016
  0
VERTEX
  8
PLAN_1
 62
     2
  6
CONTINUOUS
 10
-1.715630
 20
-0.035886
  0
VERTEX
  8
PLAN_1
 62
     2
  6
CONTINUOUS
 10
-1.716106
 20
-0.038752
  0
VERTEX
  8
PLAN_1
 62
     2
  6
CONTINUOUS
 10
-1.715630
 20
-0.041618
  0
VERTEX
  8
PLAN_1
 62
     2
  6
CONTINUOUS
 10
-1.715154
 20
-0.044965
  0
VERTEX
  8
PLAN_1
 62
     2
  6
CONTINUOUS
 10
-1.713720
 20
-0.047354
  0
VERTEX
  8
PLAN_1
 62
     2
  6
CONTINUOUS
 10
-1.712283
 20
-0.049744
  0
VERTEX
  8
PLAN_1
 62
     2
  6
CONTINUOUS
 10
-1.709894
 20
-0.052134
  0
VERTEX
  8
PLAN_1
 62
     2
  6
CONTINUOUS
 10
-1.707508
 20
-0.053567
  0
VERTEX
  8
PLAN_1
 62
     2
  6
CONTINUOUS
 10
-1.704161
 20
-0.055000
  0
VERTEX
  8
PLAN_1
 62
     2
  6
CONTINUOUS
 10
-1.700339
 20
-0.055000
  0
SEQEND
  8
0
  0
POLYLINE
  8
PLAN_1
 62
     2
  6
CONTINUOUS
 66
     1
 40
0.004299
 41
0.004299
  0
VERTEX
  8
PLAN_1
 62
     2
  6
CONTINUOUS
 10
-1.022232
 20
0.696220
  0
VERTEX
  8
PLAN_1
 62
     2
  6
CONTINUOUS
 10
-1.022232
 20
0.041051
  0
SEQEND
  8
0
  0
POLYLINE
  8
PLAN_1
 62
     2
  6
CONTINUOUS
 66
     1
 40
0.004299
 41
0.004299
  0
VERTEX
  8
PLAN_1
 62
     2
  6
CONTINUOUS
 10
-1.022232
 20
-0.006256
  0
VERTEX
  8
PLAN_1
 62
     2
  6
CONTINUOUS
 10
-1.022232
 20
-0.108524
  0
SEQEND
  8
0
  0
POLYLINE
  8
PLAN_1
 62
     2
  6
CONTINUOUS
 66
     1
 40
0.004299
 41
0.004299
  0
VERTEX
  8
PLAN_1
 62
     2
  6
CONTINUOUS
 10
-2.437701
 20
0.207831
  0
VERTEX
  8
PLAN_1
 62
     2
  6
CONTINUOUS
 10
-2.439134
 20
-0.108524
  0
SEQEND
  8
0
  0
POLYLINE
  8
PLAN_1
 62
     2
  6
CONTINUOUS
 66
     1
 40
0.004299
 41
0.004299
  0
VERTEX
  8
PLAN_1
 62
     2
  6
CONTINUOUS
 10
-0.841598
 20
3.427276
  0
VERTEX
  8
PLAN_1
 62
     2
  6
CONTINUOUS
 10
-1.335720
 20
3.427276
  0
SEQEND
  8
0
  0
POLYLINE
  8
PLAN_1
 62
     2
  6
CONTINUOUS
 66
     1
 40
0.004299
 41
0.004299
  0
VERTEX
  8
PLAN_1
 62
     2
  6
CONTINUOUS
 10
-0.841598
 20
3.619382
  0
VERTEX
  8
PLAN_1
 62
     2
  6
CONTINUOUS
 10
-1.030358
 20
3.619382
  0
SEQEND
  8
0
  0
POLYLINE
  8
PLAN_1
 62
     2
  6
CONTINUOUS
 66
     1
 40
0.004299
 41
0.004299
  0
VERTEX
  8
PLAN_1
 62
     2
  6
CONTINUOUS
 10
-0.841598
 20
0.231724
  0
VERTEX
  8
PLAN_1
 62
     2
  6
CONTINUOUS
 10
-0.983524
 20
0.231724
  0
SEQEND
  8
0
  0
POLYLINE
  8
PLAN_1
 62
     2
  6
CONTINUOUS
 66
     1
 40
0.004299
 41
0.004299
  0
VERTEX
  8
PLAN_1
 62
     2
  6
CONTINUOUS
 10
-0.865492
 20
0.260874
  0
VERTEX
  8
PLAN_1
 62
     2
  6
CONTINUOUS
 10
-0.865492
 20
3.822000
  0
SEQEND
  8
0
  0
SOLID
  8
PLAN_1
 62
     2
 10
-0.865492
 20
3.427276
 11
-0.881260
 21
3.368020
 12
-0.865492
 22
3.427276
 13
-0.849720
 23
3.368020
  0
POLYLINE
  8
PLAN_1
 62
     2
  6
CONTINUOUS
 66
     1
 40
0.003000
 41
0.003000
  0
VERTEX
  8
PLAN_1
 62
     2
  6
CONTINUOUS
 10
-0.865492
 20
3.427276
  0
VERTEX
  8
PLAN_1
 62
     2
  6
CONTINUOUS
 10
-0.881260
 20
3.368020
  0
VERTEX
  8
PLAN_1
 62
     2
  6
CONTINUOUS
 10
-0.849720
 20
3.368020
  0
VERTEX
  8
PLAN_1
 62
     2
  6
CONTINUOUS
 10
-0.865492
 20
3.427276
  0
SEQEND
  8
0
  0
SOLID
  8
PLAN_1
 62
     2
 10
-0.865492
 20
0.231724
 11
-0.881260
 21
0.290504
 12
-0.865492
 22
0.231724
 13
-0.849720
 23
0.290504
  0
POLYLINE
  8
PLAN_1
 62
     2
  6
CONTINUOUS
 66
     1
 40
0.003000
 41
0.003000
  0
VERTEX
  8
PLAN_1
 62
     2
  6
CONTINUOUS
 10
-0.865492
 20
0.231724
  0
VERTEX
  8
PLAN_1
 62
     2
  6
CONTINUOUS
 10
-0.881260
 20
0.290504
  0
VERTEX
  8
PLAN_1
 62
     2
  6
CONTINUOUS
 10
-0.849720
 20
0.290504
  0
VERTEX
  8
PLAN_1
 62
     2
  6
CONTINUOUS
 10
-0.865492
 20
0.231724
  0
SEQEND
  8
0
  0
SOLID
  8
PLAN_1
 62
     2
 10
-0.865492
 20
3.619382
 11
-0.881260
 21
3.678638
 12
-0.865492
 22
3.619382
 13
-0.849720
 23
3.678638
  0
POLYLINE
  8
PLAN_1
 62
     2
  6
CONTINUOUS
 66
     1
 40
0.003000
 41
0.003000
  0
VERTEX
  8
PLAN_1
 62
     2
  6
CONTINUOUS
 10
-0.865492
 20
3.619382
  0
VERTEX
  8
PLAN_1
 62
     2
  6
CONTINUOUS
 10
-0.881260
 20
3.678638
  0
VERTEX
  8
PLAN_1
 62
     2
  6
CONTINUOUS
 10
-0.849720
 20
3.678638
  0
VERTEX
  8
PLAN_1
 62
     2
  6
CONTINUOUS
 10
-0.865492
 20
3.619382
  0
SEQEND
  8
0
  0
POLYLINE
  8
PLAN_1
 62
     2
  6
CONTINUOUS
 66
     1
 40
0.003000
 41
0.003000
  0
VERTEX
  8
PLAN_1
 62
     2
  6
CONTINUOUS
 10
-0.928091
 20
1.786252
  0
VERTEX
  8
PLAN_1
 62
     2
  6
CONTINUOUS
 10
-0.926181
 20
1.789598
  0
VERTEX
  8
PLAN_1
 62
     2
  6
CONTINUOUS
 10
-0.924268
 20
1.791988
  0
VERTEX
  8
PLAN_1
 62
     2
  6
CONTINUOUS
 10
-0.921878
 20
1.794378
  0
VERTEX
  8
PLAN_1
 62
     2
  6
CONTINUOUS
 10
-0.919492
 20
1.795811
  0
VERTEX
  8
PLAN_1
 62
     2
  6
CONTINUOUS
 10
-0.917102
 20
1.796768
  0
VERTEX
  8
PLAN_1
 62
     2
  6
CONTINUOUS
 10
-0.914713
 20
1.797720
  0
VERTEX
  8
PLAN_1
 62
     2
  6
CONTINUOUS
 10
-0.912323
 20
1.797720
  0
VERTEX
  8
PLAN_1
 62
     2
  6
CONTINUOUS
 10
-0.909933
 20
1.798201
  0
VERTEX
  8
PLAN_1
 62
     2
  6
CONTINUOUS
 10
-0.905630
 20
1.797720
  0
VERTEX
  8
PLAN_1
 62
     2
  6
CONTINUOUS
 10
-0.901331
 20
1.796768
  0
VERTEX
  8
PLAN_1
 62
     2
  6
CONTINUOUS
 10
-0.897508
 20
1.794854
  0
VERTEX
  8
PLAN_1
 62
     2
  6
CONTINUOUS
 10
-0.894161
 20
1.791988
  0
VERTEX
  8
PLAN_1
 62
     2
  6
CONTINUOUS
 10
-0.892728
 20
1.790555
  0
VERTEX
  8
PLAN_1
 62
     2
  6
CONTINUOUS
 10
-0.891295
 20
1.788642
  0
VERTEX
  8
PLAN_1
 62
     2
  6
CONTINUOUS
 10
-0.889862
 20
1.786732
  0
VERTEX
  8
PLAN_1
 62
     2
  6
CONTINUOUS
 10
-0.888906
 20
1.784343
  0
VERTEX
  8
PLAN_1
 62
     2
  6
CONTINUOUS
 10
-0.887949
 20
1.781953
  0
VERTEX
  8
PLAN_1
 62
     2
  6
CONTINUOUS
 10
-0.887472
 20
1.779083
  0
VERTEX
  8
PLAN_1
 62
     2
  6
CONTINUOUS
 10
-0.886996
 20
1.776217
  0
VERTEX
  8
PLAN_1
 62
     2
  6
CONTINUOUS
 10
-0.886996
 20
1.773350
  0
VERTEX
  8
PLAN_1
 62
     2
  6
CONTINUOUS
 10
-0.886996
 20
1.771437
  0
VERTEX
  8
PLAN_1
 62
     2
  6
CONTINUOUS
 10
-0.887472
 20
1.769528
  0
VERTEX
  8
PLAN_1
 62
     2
  6
CONTINUOUS
 10
-0.887472
 20
1.767614
  0
VERTEX
  8
PLAN_1
 62
     2
  6
CONTINUOUS
 10
-0.887949
 20
1.765224
  0
VERTEX
  8
PLAN_1
 62
     2
  6
CONTINUOUS
 10
-0.888906
 20
1.762839
  0
VERTEX
  8
PLAN_1
 62
     2
  6
CONTINUOUS
 10
-0.889862
 20
1.760449
  0
VERTEX
  8
PLAN_1
 62
     2
  6
CONTINUOUS
 10
-0.891295
 20
1.758059
  0
VERTEX
  8
PLAN_1
 62
     2
  6
CONTINUOUS
 10
-0.892728
 20
1.755669
  0
VERTEX
  8
PLAN_1
 62
     2
  6
CONTINUOUS
 10
-0.895118
 20
1.753280
  0
VERTEX
  8
PLAN_1
 62
     2
  6
CONTINUOUS
 10
-0.897508
 20
1.751366
  0
VERTEX
  8
PLAN_1
 62
     2
  6
CONTINUOUS
 10
-0.899898
 20
1.749933
  0
VERTEX
  8
PLAN_1
 62
     2
  6
CONTINUOUS
 10
-0.902287
 20
1.748976
  0
VERTEX
  8
PLAN_1
 62
     2
  6
CONTINUOUS
 10
-0.904677
 20
1.748500
  0
VERTEX
  8
PLAN_1
 62
     2
  6
CONTINUOUS
 10
-0.906587
 20
1.748500
  0
VERTEX
  8
PLAN_1
 62
     2
  6
CONTINUOUS
 10
-0.908500
 20
1.748024
  0
VERTEX
  8
PLAN_1
 62
     2
  6
CONTINUOUS
 10
-0.909933
 20
1.748024
  0
VERTEX
  8
PLAN_1
 62
     2
  6
CONTINUOUS
 10
-0.913280
 20
1.748500
  0
VERTEX
  8
PLAN_1
 62
     2
  6
CONTINUOUS
 10
-0.916146
 20
1.748976
  0
VERTEX
  8
PLAN_1
 62
     2
  6
CONTINUOUS
 10
-0.918535
 20
1.749933
  0
VERTEX
  8
PLAN_1
 62
     2
  6
CONTINUOUS
 10
-0.920925
 20
1.751366
  0
VERTEX
  8
PLAN_1
 62
     2
  6
CONTINUOUS
 10
-0.923315
 20
1.753280
  0
VERTEX
  8
PLAN_1
 62
     2
  6
CONTINUOUS
 10
-0.924748
 20
1.755189
  0
VERTEX
  8
PLAN_1
 62
     2
  6
CONTINUOUS
 10
-0.926657
 20
1.757579
  0
VERTEX
  8
PLAN_1
 62
     2
  6
CONTINUOUS
 10
-0.927614
 20
1.760449
  0
VERTEX
  8
PLAN_1
 62
     2
  6
CONTINUOUS
 10
-0.929047
 20
1.758535
  0
VERTEX
  8
PLAN_1
 62
     2
  6
CONTINUOUS
 10
-0.930004
 20
1.756146
  0
VERTEX
  8
PLAN_1
 62
     2
  6
CONTINUOUS
 10
-0.931437
 20
1.754713
  0
VERTEX
  8
PLAN_1
 62
     2
  6
CONTINUOUS
 10
-0.933350
 20
1.753280
  0
VERTEX
  8
PLAN_1
 62
     2
  6
CONTINUOUS
 10
-0.935260
 20
1.752323
  0
VERTEX
  8
PLAN_1
 62
     2
  6
CONTINUOUS
 10
-0.937173
 20
1.751366
  0
VERTEX
  8
PLAN_1
 62
     2
  6
CONTINUOUS
 10
-0.939559
 20
1.750890
  0
VERTEX
  8
PLAN_1
 62
     2
  6
CONTINUOUS
 10
-0.941949
 20
1.750890
  0
VERTEX
  8
PLAN_1
 62
     2
  6
CONTINUOUS
 10
-0.945295
 20
1.750890
  0
VERTEX
  8
PLAN_1
 62
     2
  6
CONTINUOUS
 10
-0.948642
 20
1.751846
  0
VERTEX
  8
PLAN_1
 62
     2
  6
CONTINUOUS
 10
-0.951984
 20
1.753280
  0
VERTEX
  8
PLAN_1
 62
     2
  6
CONTINUOUS
 10
-0.954854
 20
1.755189
  0
VERTEX
  8
PLAN_1
 62
     2
  6
CONTINUOUS
 10
-0.956287
 20
1.756626
  0
VERTEX
  8
PLAN_1
 62
     2
  6
CONTINUOUS
 10
-0.957720
 20
1.758059
  0
VERTEX
  8
PLAN_1
 62
     2
  6
CONTINUOUS
 10
-0.959154
 20
1.759969
  0
VERTEX
  8
PLAN_1
 62
     2
  6
CONTINUOUS
 10
-0.960110
 20
1.761882
  0
VERTEX
  8
PLAN_1
 62
     2
  6
CONTINUOUS
 10
-0.961067
 20
1.764272
  0
VERTEX
  8
PLAN_1
 62
     2
  6
CONTINUOUS
 10
-0.961543
 20
1.766661
  0
VERTEX
  8
PLAN_1
 62
     2
  6
CONTINUOUS
 10
-0.962020
 20
1.769528
  0
VERTEX
  8
PLAN_1
 62
     2
  6
CONTINUOUS
 10
-0.962020
 20
1.772870
  0
VERTEX
  8
PLAN_1
 62
     2
  6
CONTINUOUS
 10
-0.962020
 20
1.775740
  0
VERTEX
  8
PLAN_1
 62
     2
  6
CONTINUOUS
 10
-0.961543
 20
1.778606
  0
VERTEX
  8
PLAN_1
 62
     2
  6
CONTINUOUS
 10
-0.961067
 20
1.780996
  0
VERTEX
  8
PLAN_1
 62
     2
  6
CONTINUOUS
 10
-0.960587
 20
1.783386
  0
VERTEX
  8
PLAN_1
 62
     2
  6
CONTINUOUS
 10
-0.958677
 20
1.787209
  0
VERTEX
  8
PLAN_1
 62
     2
  6
CONTINUOUS
 10
-0.955807
 20
1.790075
  0
VERTEX
  8
PLAN_1
 62
     2
  6
CONTINUOUS
 10
-0.952941
 20
1.792465
  0
VERTEX
  8
PLAN_1
 62
     2
  6
CONTINUOUS
 10
-0.950075
 20
1.794378
  0
VERTEX
  8
PLAN_1
 62
     2
  6
CONTINUOUS
 10
-0.946728
 20
1.795331
  0
VERTEX
  8
PLAN_1
 62
     2
  6
CONTINUOUS
 10
-0.943386
 20
1.795331
  0
VERTEX
  8
PLAN_1
 62
     2
  6
CONTINUOUS
 10
-0.939559
 20
1.795331
  0
VERTEX
  8
PLAN_1
 62
     2
  6
CONTINUOUS
 10
-0.936693
 20
1.794378
  0
VERTEX
  8
PLAN_1
 62
     2
  6
CONTINUOUS
 10
-0.934303
 20
1.793421
  0
VERTEX
  8
PLAN_1
 62
     2
  6
CONTINUOUS
 10
-0.932394
 20
1.791988
  0
VERTEX
  8
PLAN_1
 62
     2
  6
CONTINUOUS
 10
-0.930961
 20
1.790555
  0
VERTEX
  8
PLAN_1
 62
     2
  6
CONTINUOUS
 10
-0.929528
 20
1.788642
  0
VERTEX
  8
PLAN_1
 62
     2
  6
CONTINUOUS
 10
-0.928571
 20
1.787209
  0
VERTEX
  8
PLAN_1
 62
     2
  6
CONTINUOUS
 10
-0.928091
 20
1.786252
  0
SEQEND
  8
0
  0
POLYLINE
  8
PLAN_1
 62
     2
  6
CONTINUOUS
 66
     1
 40
0.003000
 41
0.003000
  0
VERTEX
  8
PLAN_1
 62
     2
  6
CONTINUOUS
 10
-0.909933
 20
1.758059
  0
VERTEX
  8
PLAN_1
 62
     2
  6
CONTINUOUS
 10
-0.907543
 20
1.758059
  0
VERTEX
  8
PLAN_1
 62
     2
  6
CONTINUOUS
 10
-0.905154
 20
1.758535
  0
VERTEX
  8
PLAN_1
 62
     2
  6
CONTINUOUS
 10
-0.902764
 20
1.759492
  0
VERTEX
  8
PLAN_1
 62
     2
  6
CONTINUOUS
 10
-0.900374
 20
1.760925
  0
VERTEX
  8
PLAN_1
 62
     2
  6
CONTINUOUS
 10
-0.898465
 20
1.762839
  0
VERTEX
  8
PLAN_1
 62
     2
  6
CONTINUOUS
 10
-0.896551
 20
1.765705
  0
VERTEX
  8
PLAN_1
 62
     2
  6
CONTINUOUS
 10
-0.895598
 20
1.769047
  0
VERTEX
  8
PLAN_1
 62
     2
  6
CONTINUOUS
 10
-0.895118
 20
1.773350
  0
VERTEX
  8
PLAN_1
 62
     2
  6
CONTINUOUS
 10
-0.895598
 20
1.776217
  0
VERTEX
  8
PLAN_1
 62
     2
  6
CONTINUOUS
 10
-0.895598
 20
1.778606
  0
VERTEX
  8
PLAN_1
 62
     2
  6
CONTINUOUS
 10
-0.896551
 20
1.780996
  0
VERTEX
  8
PLAN_1
 62
     2
  6
CONTINUOUS
 10
-0.897984
 20
1.783386
  0
VERTEX
  8
PLAN_1
 62
     2
  6
CONTINUOUS
 10
-0.899898
 20
1.785295
  0
VERTEX
  8
PLAN_1
 62
     2
  6
CONTINUOUS
 10
-0.902287
 20
1.786732
  0
VERTEX
  8
PLAN_1
 62
     2
  6
CONTINUOUS
 10
-0.905154
 20
1.787685
  0
VERTEX
  8
PLAN_1
 62
     2
  6
CONTINUOUS
 10
-0.908976
 20
1.788165
  0
VERTEX
  8
PLAN_1
 62
     2
  6
CONTINUOUS
 10
-0.912323
 20
1.787685
  0
VERTEX
  8
PLAN_1
 62
     2
  6
CONTINUOUS
 10
-0.915665
 20
1.787209
  0
VERTEX
  8
PLAN_1
 62
     2
  6
CONTINUOUS
 10
-0.918055
 20
1.785776
  0
VERTEX
  8
PLAN_1
 62
     2
  6
CONTINUOUS
 10
-0.919969
 20
1.783862
  0
VERTEX
  8
PLAN_1
 62
     2
  6
CONTINUOUS
 10
-0.921402
 20
1.781472
  0
VERTEX
  8
PLAN_1
 62
     2
  6
CONTINUOUS
 10
-0.922358
 20
1.779083
  0
VERTEX
  8
PLAN_1
 62
     2
  6
CONTINUOUS
 10
-0.923315
 20
1.776217
  0
VERTEX
  8
PLAN_1
 62
     2
  6
CONTINUOUS
 10
-0.923315
 20
1.772870
  0
VERTEX
  8
PLAN_1
 62
     2
  6
CONTINUOUS
 10
-0.922835
 20
1.769528
  0
VERTEX
  8
PLAN_1
 62
     2
  6
CONTINUOUS
 10
-0.922358
 20
1.766181
  0
VERTEX
  8
PLAN_1
 62
     2
  6
CONTINUOUS
 10
-0.920925
 20
1.763791
  0
VERTEX
  8
PLAN_1
 62
     2
  6
CONTINUOUS
 10
-0.919012
 20
1.761882
  0
VERTEX
  8
PLAN_1
 62
     2
  6
CONTINUOUS
 10
-0.917102
 20
1.759969
  0
VERTEX
  8
PLAN_1
 62
     2
  6
CONTINUOUS
 10
-0.914713
 20
1.759012
  0
VERTEX
  8
PLAN_1
 62
     2
  6
CONTINUOUS
 10
-0.912323
 20
1.758059
  0
VERTEX
  8
PLAN_1
 62
     2
  6
CONTINUOUS
 10
-0.909933
 20
1.758059
  0
SEQEND
  8
0
  0
POLYLINE
  8
PLAN_1
 62
     2
  6
CONTINUOUS
 66
     1
 40
0.003000
 41
0.003000
  0
VERTEX
  8
PLAN_1
 62
     2
  6
CONTINUOUS
 10
-0.942906
 20
1.785776
  0
VERTEX
  8
PLAN_1
 62
     2
  6
CONTINUOUS
 10
-0.944819
 20
1.785776
  0
VERTEX
  8
PLAN_1
 62
     2
  6
CONTINUOUS
 10
-0.946728
 20
1.785295
  0
VERTEX
  8
PLAN_1
 62
     2
  6
CONTINUOUS
 10
-0.948642
 20
1.784343
  0
VERTEX
  8
PLAN_1
 62
     2
  6
CONTINUOUS
 10
-0.950075
 20
1.783386
  0
VERTEX
  8
PLAN_1
 62
     2
  6
CONTINUOUS
 10
-0.951508
 20
1.781472
  0
VERTEX
  8
PLAN_1
 62
     2
  6
CONTINUOUS
 10
-0.952941
 20
1.779083
  0
VERTEX
  8
PLAN_1
 62
     2
  6
CONTINUOUS
 10
-0.953421
 20
1.775740
  0
VERTEX
  8
PLAN_1
 62
     2
  6
CONTINUOUS
 10
-0.953898
 20
1.772394
  0
VERTEX
  8
PLAN_1
 62
     2
  6
CONTINUOUS
 10
-0.953421
 20
1.769047
  0
VERTEX
  8
PLAN_1
 62
     2
  6
CONTINUOUS
 10
-0.952941
 20
1.766181
  0
VERTEX
  8
PLAN_1
 62
     2
  6
CONTINUOUS
 10
-0.951508
 20
1.764272
  0
VERTEX
  8
PLAN_1
 62
     2
  6
CONTINUOUS
 10
-0.950075
 20
1.762358
  0
VERTEX
  8
PLAN_1
 62
     2
  6
CONTINUOUS
 10
-0.948161
 20
1.761402
  0
VERTEX
  8
PLAN_1
 62
     2
  6
CONTINUOUS
 10
-0.946252
 20
1.760449
  0
VERTEX
  8
PLAN_1
 62
     2
  6
CONTINUOUS
 10
-0.944339
 20
1.760449
  0
VERTEX
  8
PLAN_1
 62
     2
  6
CONTINUOUS
 10
-0.942429
 20
1.759969
  0
VERTEX
  8
PLAN_1
 62
     2
  6
CONTINUOUS
 10
-0.940039
 20
1.760449
  0
VERTEX
  8
PLAN_1
 62
     2
  6
CONTINUOUS
 10
-0.937650
 20
1.761402
  0
VERTEX
  8
PLAN_1
 62
     2
  6
CONTINUOUS
 10
-0.935736
 20
1.762358
  0
VERTEX
  8
PLAN_1
 62
     2
  6
CONTINUOUS
 10
-0.934303
 20
1.764272
  0
VERTEX
  8
PLAN_1
 62
     2
  6
CONTINUOUS
 10
-0.932870
 20
1.766181
  0
VERTEX
  8
PLAN_1
 62
     2
  6
CONTINUOUS
 10
-0.931913
 20
1.768094
  0
VERTEX
  8
PLAN_1
 62
     2
  6
CONTINUOUS
 10
-0.931437
 20
1.770484
  0
VERTEX
  8
PLAN_1
 62
     2
  6
CONTINUOUS
 10
-0.931437
 20
1.772870
  0
VERTEX
  8
PLAN_1
 62
     2
  6
CONTINUOUS
 10
-0.931437
 20
1.775740
  0
VERTEX
  8
PLAN_1
 62
     2
  6
CONTINUOUS
 10
-0.931913
 20
1.778130
  0
VERTEX
  8
PLAN_1
 62
     2
  6
CONTINUOUS
 10
-0.933350
 20
1.780520
  0
VERTEX
  8
PLAN_1
 62
     2
  6
CONTINUOUS
 10
-0.934783
 20
1.782429
  0
VERTEX
  8
PLAN_1
 62
     2
  6
CONTINUOUS
 10
-0.936217
 20
1.783862
  0
VERTEX
  8
PLAN_1
 62
     2
  6
CONTINUOUS
 10
-0.938126
 20
1.784819
  0
VERTEX
  8
PLAN_1
 62
     2
  6
CONTINUOUS
 10
-0.940516
 20
1.785776
  0
VERTEX
  8
PLAN_1
 62
     2
  6
CONTINUOUS
 10
-0.942906
 20
1.785776
  0
SEQEND
  8
0
  0
POLYLINE
  8
PLAN_1
 62
     2
  6
CONTINUOUS
 66
     1
 40
0.003000
 41
0.003000
  0
VERTEX
  8
PLAN_1
 62
     2
  6
CONTINUOUS
 10
-0.930480
 20
1.825437
  0
VERTEX
  8
PLAN_1
 62
     2
  6
CONTINUOUS
 10
-0.930480
 20
1.825917
  0
VERTEX
  8
PLAN_1
 62
     2
  6
CONTINUOUS
 10
-0.930480
 20
1.826394
  0
VERTEX
  8
PLAN_1
 62
     2
  6
CONTINUOUS
 10
-0.930480
 20
1.827350
  0
VERTEX
  8
PLAN_1
 62
     2
  6
CONTINUOUS
 10
-0.930480
 20
1.827827
  0
VERTEX
  8
PLAN_1
 62
     2
  6
CONTINUOUS
 10
-0.930480
 20
1.828307
  0
VERTEX
  8
PLAN_1
 62
     2
  6
CONTINUOUS
 10
-0.930480
 20
1.829260
  0
VERTEX
  8
PLAN_1
 62
     2
  6
CONTINUOUS
 10
-0.930480
 20
1.829740
  0
VERTEX
  8
PLAN_1
 62
     2
  6
CONTINUOUS
 10
-0.930480
 20
1.830217
  0
VERTEX
  8
PLAN_1
 62
     2
  6
CONTINUOUS
 10
-0.930480
 20
1.832606
  0
VERTEX
  8
PLAN_1
 62
     2
  6
CONTINUOUS
 10
-0.930961
 20
1.835472
  0
VERTEX
  8
PLAN_1
 62
     2
  6
CONTINUOUS
 10
-0.931913
 20
1.837862
  0
VERTEX
  8
PLAN_1
 62
     2
  6
CONTINUOUS
 10
-0.932870
 20
1.839776
  0
VERTEX
  8
PLAN_1
 62
     2
  6
CONTINUOUS
 10
-0.934783
 20
1.841685
  0
VERTEX
  8
PLAN_1
 62
     2
  6
CONTINUOUS
 10
-0.936693
 20
1.843118
  0
VERTEX
  8
PLAN_1
 62
     2
  6
CONTINUOUS
 10
-0.939083
 20
1.844075
  0
VERTEX
  8
PLAN_1
 62
     2
  6
CONTINUOUS
 10
-0.942429
 20
1.844075
  0
VERTEX
  8
PLAN_1
 62
     2
  6
CONTINUOUS
 10
-0.944339
 20
1.844075
  0
VERTEX
  8
PLAN_1
 62
     2
  6
CONTINUOUS
 10
-0.946252
 20
1.843598
  0
VERTEX
  8
PLAN_1
 62
     2
  6
CONTINUOUS
 10
-0.948161
 20
1.842642
  0
VERTEX
  8
PLAN_1
 62
     2
  6
CONTINUOUS
 10
-0.949594
 20
1.841685
  0
VERTEX
  8
PLAN_1
 62
     2
  6
CONTINUOUS
 10
-0.951508
 20
1.839776
  0
VERTEX
  8
PLAN_1
 62
     2
  6
CONTINUOUS
 10
-0.952941
 20
1.837386
  0
VERTEX
  8
PLAN_1
 62
     2
  6
CONTINUOUS
 10
-0.953421
 20
1.834520
  0
VERTEX
  8
PLAN_1
 62
     2
  6
CONTINUOUS
 10
-0.953898
 20
1.830697
  0
VERTEX
  8
PLAN_1
 62
     2
  6
CONTINUOUS
 10
-0.953898
 20
1.828307
  0
VERTEX
  8
PLAN_1
 62
     2
  6
CONTINUOUS
 10
-0.953421
 20
1.826394
  0
VERTEX
  8
PLAN_1
 62
     2
  6
CONTINUOUS
 10
-0.952941
 20
1.824484
  0
VERTEX
  8
PLAN_1
 62
     2
  6
CONTINUOUS
 10
-0.951984
 20
1.823047
  0
VERTEX
  8
PLAN_1
 62
     2
  6
CONTINUOUS
 10
-0.950075
 20
1.820661
  0
VERTEX
  8
PLAN_1
 62
     2
  6
CONTINUOUS
 10
-0.948161
 20
1.818748
  0
VERTEX
  8
PLAN_1
 62
     2
  6
CONTINUOUS
 10
-0.945295
 20
1.817791
  0
VERTEX
  8
PLAN_1
 62
     2
  6
CONTINUOUS
 10
-0.942906
 20
1.816835
  0
VERTEX
  8
PLAN_1
 62
     2
  6
CONTINUOUS
 10
-0.940516
 20
1.816358
  0
VERTEX
  8
PLAN_1
 62
     2
  6
CONTINUOUS
 10
-0.938126
 20
1.816358
  0
VERTEX
  8
PLAN_1
 62
     2
  6
CONTINUOUS
 10
-0.938126
 20
1.807280
  0
VERTEX
  8
PLAN_1
 62
     2
  6
CONTINUOUS
 10
-0.942429
 20
1.807756
  0
VERTEX
  8
PLAN_1
 62
     2
  6
CONTINUOUS
 10
-0.946252
 20
1.808236
  0
VERTEX
  8
PLAN_1
 62
     2
  6
CONTINUOUS
 10
-0.950551
 20
1.809669
  0
VERTEX
  8
PLAN_1
 62
     2
  6
CONTINUOUS
 10
-0.954374
 20
1.812059
  0
VERTEX
  8
PLAN_1
 62
     2
  6
CONTINUOUS
 10
-0.955807
 20
1.813492
  0
VERTEX
  8
PLAN_1
 62
     2
  6
CONTINUOUS
 10
-0.957244
 20
1.814925
  0
VERTEX
  8
PLAN_1
 62
     2
  6
CONTINUOUS
 10
-0.958677
 20
1.816835
  0
VERTEX
  8
PLAN_1
 62
     2
  6
CONTINUOUS
 10
-0.960110
 20
1.819224
  0
VERTEX
  8
PLAN_1
 62
     2
  6
CONTINUOUS
 10
-0.961067
 20
1.821614
  0
VERTEX
  8
PLAN_1
 62
     2
  6
CONTINUOUS
 10
-0.961543
 20
1.824484
  0
VERTEX
  8
PLAN_1
 62
     2
  6
CONTINUOUS
 10
-0.962020
 20
1.827827
  0
VERTEX
  8
PLAN_1
 62
     2
  6
CONTINUOUS
 10
-0.962020
 20
1.831173
  0
VERTEX
  8
PLAN_1
 62
     2
  6
CONTINUOUS
 10
-0.962020
 20
1.835953
  0
VERTEX
  8
PLAN_1
 62
     2
  6
CONTINUOUS
 10
-0.960587
 20
1.840728
  0
VERTEX
  8
PLAN_1
 62
     2
  6
CONTINUOUS
 10
-0.959154
 20
1.844555
  0
VERTEX
  8
PLAN_1
 62
     2
  6
CONTINUOUS
 10
-0.956764
 20
1.847421
  0
VERTEX
  8
PLAN_1
 62
     2
  6
CONTINUOUS
 10
-0.953898
 20
1.850287
  0
VERTEX
  8
PLAN_1
 62
     2
  6
CONTINUOUS
 10
-0.950551
 20
1.852201
  0
VERTEX
  8
PLAN_1
 62
     2
  6
CONTINUOUS
 10
-0.946728
 20
1.853154
  0
VERTEX
  8
PLAN_1
 62
     2
  6
CONTINUOUS
 10
-0.942906
 20
1.853634
  0
VERTEX
  8
PLAN_1
 62
     2
  6
CONTINUOUS
 10
-0.939559
 20
1.853154
  0
VERTEX
  8
PLAN_1
 62
     2
  6
CONTINUOUS
 10
-0.936693
 20
1.852677
  0
VERTEX
  8
PLAN_1
 62
     2
  6
CONTINUOUS
 10
-0.934303
 20
1.851720
  0
VERTEX
  8
PLAN_1
 62
     2
  6
CONTINUOUS
 10
-0.932394
 20
1.850287
  0
VERTEX
  8
PLAN_1
 62
     2
  6
CONTINUOUS
 10
-0.930480
 20
1.848854
  0
VERTEX
  8
PLAN_1
 62
     2
  6
CONTINUOUS
 10
-0.929528
 20
1.847421
  0
VERTEX
  8
PLAN_1
 62
     2
  6
CONTINUOUS
 10
-0.928571
 20
1.845988
  0
VERTEX
  8
PLAN_1
 62
     2
  6
CONTINUOUS
 10
-0.927614
 20
1.844075
  0
VERTEX
  8
PLAN_1
 62
     2
  6
CONTINUOUS
 10
-0.926657
 20
1.846941
  0
VERTEX
  8
PLAN_1
 62
     2
  6
CONTINUOUS
 10
-0.925224
 20
1.849331
  0
VERTEX
  8
PLAN_1
 62
     2
  6
CONTINUOUS
 10
-0.923791
 20
1.851244
  0
VERTEX
  8
PLAN_1
 62
     2
  6
CONTINUOUS
 10
-0.921878
 20
1.853154
  0
VERTEX
  8
PLAN_1
 62
     2
  6
CONTINUOUS
 10
-0.919492
 20
1.854591
  0
VERTEX
  8
PLAN_1
 62
     2
  6
CONTINUOUS
 10
-0.917102
 20
1.855543
  0
VERTEX
  8
PLAN_1
 62
     2
  6
CONTINUOUS
 10
-0.914232
 20
1.856024
  0
VERTEX
  8
PLAN_1
 62
     2
  6
CONTINUOUS
 10
-0.910409
 20
1.856500
  0
VERTEX
  8
PLAN_1
 62
     2
  6
CONTINUOUS
 10
-0.906110
 20
1.856024
  0
VERTEX
  8
PLAN_1
 62
     2
  6
CONTINUOUS
 10
-0.901807
 20
1.855067
  0
VERTEX
  8
PLAN_1
 62
     2
  6
CONTINUOUS
 10
-0.897984
 20
1.853154
  0
VERTEX
  8
PLAN_1
 62
     2
  6
CONTINUOUS
 10
-0.894161
 20
1.850287
  0
VERTEX
  8
PLAN_1
 62
     2
  6
CONTINUOUS
 10
-0.892728
 20
1.848378
  0
VERTEX
  8
PLAN_1
 62
     2
  6
CONTINUOUS
 10
-0.891295
 20
1.846465
  0
VERTEX
  8
PLAN_1
 62
     2
  6
CONTINUOUS
 10
-0.889862
 20
1.844555
  0
VERTEX
  8
PLAN_1
 62
     2
  6
CONTINUOUS
 10
-0.888906
 20
1.842165
  0
VERTEX
  8
PLAN_1
 62
     2
  6
CONTINUOUS
 10
-0.887949
 20
1.839295
  0
VERTEX
  8
PLAN_1
 62
     2
  6
CONTINUOUS
 10
-0.887472
 20
1.836429
  0
VERTEX
  8
PLAN_1
 62
     2
  6
CONTINUOUS
 10
-0.886996
 20
1.833563
  0
VERTEX
  8
PLAN_1
 62
     2
  6
CONTINUOUS
 10
-0.886996
 20
1.830217
  0
VERTEX
  8
PLAN_1
 62
     2
  6
CONTINUOUS
 10
-0.886996
 20
1.828307
  0
VERTEX
  8
PLAN_1
 62
     2
  6
CONTINUOUS
 10
-0.887472
 20
1.826394
  0
VERTEX
  8
PLAN_1
 62
     2
  6
CONTINUOUS
 10
-0.887472
 20
1.824484
  0
VERTEX
  8
PLAN_1
 62
     2
  6
CONTINUOUS
 10
-0.887949
 20
1.822571
  0
VERTEX
  8
PLAN_1
 62
     2
  6
CONTINUOUS
 10
-0.888429
 20
1.821138
  0
VERTEX
  8
PLAN_1
 62
     2
  6
CONTINUOUS
 10
-0.888906
 20
1.819224
  0
VERTEX
  8
PLAN_1
 62
     2
  6
CONTINUOUS
 10
-0.889386
 20
1.817791
  0
VERTEX
  8
PLAN_1
 62
     2
  6
CONTINUOUS
 10
-0.890339
 20
1.816358
  0
VERTEX
  8
PLAN_1
 62
     2
  6
CONTINUOUS
 10
-0.892252
 20
1.813969
  0
VERTEX
  8
PLAN_1
 62
     2
  6
CONTINUOUS
 10
-0.894161
 20
1.811579
  0
VERTEX
  8
PLAN_1
 62
     2
  6
CONTINUOUS
 10
-0.896551
 20
1.809669
  0
VERTEX
  8
PLAN_1
 62
     2
  6
CONTINUOUS
 10
-0.899421
 20
1.808236
  0
VERTEX
  8
PLAN_1
 62
     2
  6
CONTINUOUS
 10
-0.902287
 20
1.807280
  0
VERTEX
  8
PLAN_1
 62
     2
  6
CONTINUOUS
 10
-0.905154
 20
1.806323
  0
VERTEX
  8
PLAN_1
 62
     2
  6
CONTINUOUS
 10
-0.908020
 20
1.805846
  0
VERTEX
  8
PLAN_1
 62
     2
  6
CONTINUOUS
 10
-0.911366
 20
1.805846
  0
VERTEX
  8
PLAN_1
 62
     2
  6
CONTINUOUS
 10
-0.911366
 20
1.814925
  0
VERTEX
  8
PLAN_1
 62
     2
  6
CONTINUOUS
 10
-0.908500
 20
1.815402
  0
VERTEX
  8
PLAN_1
 62
     2
  6
CONTINUOUS
 10
-0.906110
 20
1.815882
  0
VERTEX
  8
PLAN_1
 62
     2
  6
CONTINUOUS
 10
-0.903244
 20
1.816835
  0
VERTEX
  8
PLAN_1
 62
     2
  6
CONTINUOUS
 10
-0.900854
 20
1.817791
  0
VERTEX
  8
PLAN_1
 62
     2
  6
CONTINUOUS
 10
-0.898465
 20
1.819705
  0
VERTEX
  8
PLAN_1
 62
     2
  6
CONTINUOUS
 10
-0.897031
 20
1.822571
  0
VERTEX
  8
PLAN_1
 62
     2
  6
CONTINUOUS
 10
-0.895598
 20
1.826394
  0
VERTEX
  8
PLAN_1
 62
     2
  6
CONTINUOUS
 10
-0.895118
 20
1.830697
  0
VERTEX
  8
PLAN_1
 62
     2
  6
CONTINUOUS
 10
-0.895598
 20
1.834039
  0
VERTEX
  8
PLAN_1
 62
     2
  6
CONTINUOUS
 10
-0.896075
 20
1.837386
  0
VERTEX
  8
PLAN_1
 62
     2
  6
CONTINUOUS
 10
-0.897508
 20
1.839776
  0
VERTEX
  8
PLAN_1
 62
     2
  6
CONTINUOUS
 10
-0.898941
 20
1.842165
  0
VERTEX
  8
PLAN_1
 62
     2
  6
CONTINUOUS
 10
-0.901331
 20
1.844075
  0
VERTEX
  8
PLAN_1
 62
     2
  6
CONTINUOUS
 10
-0.903720
 20
1.845508
  0
VERTEX
  8
PLAN_1
 62
     2
  6
CONTINUOUS
 10
-0.906587
 20
1.846465
  0
VERTEX
  8
PLAN_1
 62
     2
  6
CONTINUOUS
 10
-0.909457
 20
1.846465
  0
VERTEX
  8
PLAN_1
 62
     2
  6
CONTINUOUS
 10
-0.911366
 20
1.846465
  0
VERTEX
  8
PLAN_1
 62
     2
  6
CONTINUOUS
 10
-0.913280
 20
1.845988
  0
VERTEX
  8
PLAN_1
 62
     2
  6
CONTINUOUS
 10
-0.915189
 20
1.845508
  0
VERTEX
  8
PLAN_1
 62
     2
  6
CONTINUOUS
 10
-0.916622
 20
1.845031
  0
VERTEX
  8
PLAN_1
 62
     2
  6
CONTINUOUS
 10
-0.919012
 20
1.843118
  0
VERTEX
  8
PLAN_1
 62
     2
  6
CONTINUOUS
 10
-0.920925
 20
1.840252
  0
VERTEX
  8
PLAN_1
 62
     2
  6
CONTINUOUS
 10
-0.921878
 20
1.837862
  0
VERTEX
  8
PLAN_1
 62
     2
  6
CONTINUOUS
 10
-0.922358
 20
1.834996
  0
VERTEX
  8
PLAN_1
 62
     2
  6
CONTINUOUS
 10
-0.922835
 20
1.832130
  0
VERTEX
  8
PLAN_1
 62
     2
  6
CONTINUOUS
 10
-0.922835
 20
1.829740
  0
VERTEX
  8
PLAN_1
 62
     2
  6
CONTINUOUS
 10
-0.922835
 20
1.829260
  0
VERTEX
  8
PLAN_1
 62
     2
  6
CONTINUOUS
 10
-0.922835
 20
1.828783
  0
VERTEX
  8
PLAN_1
 62
     2
  6
CONTINUOUS
 10
-0.922835
 20
1.827827
  0
VERTEX
  8
PLAN_1
 62
     2
  6
CONTINUOUS
 10
-0.922835
 20
1.827350
  0
VERTEX
  8
PLAN_1
 62
     2
  6
CONTINUOUS
 10
-0.922835
 20
1.826870
  0
VERTEX
  8
PLAN_1
 62
     2
  6
CONTINUOUS
 10
-0.922835
 20
1.826394
  0
VERTEX
  8
PLAN_1
 62
     2
  6
CONTINUOUS
 10
-0.922835
 20
1.825917
  0
VERTEX
  8
PLAN_1
 62
     2
  6
CONTINUOUS
 10
-0.922835
 20
1.825437
  0
VERTEX
  8
PLAN_1
 62
     2
  6
CONTINUOUS
 10
-0.930480
 20
1.825437
  0
SEQEND
  8
0
  0
POLYLINE
  8
PLAN_1
 62
     2
  6
CONTINUOUS
 66
     1
 40
0.003000
 41
0.003000
  0
VERTEX
  8
PLAN_1
 62
     2
  6
CONTINUOUS
 10
-0.899898
 20
1.868925
  0
VERTEX
  8
PLAN_1
 62
     2
  6
CONTINUOUS
 10
-0.899898
 20
1.879917
  0
VERTEX
  8
PLAN_1
 62
     2
  6
CONTINUOUS
 10
-0.889862
 20
1.879917
  0
VERTEX
  8
PLAN_1
 62
     2
  6
CONTINUOUS
 10
-0.885083
 20
1.879437
  0
VERTEX
  8
PLAN_1
 62
     2
  6
CONTINUOUS
 10
-0.881260
 20
1.878484
  0
VERTEX
  8
PLAN_1
 62
     2
  6
CONTINUOUS
 10
-0.878394
 20
1.877047
  0
VERTEX
  8
PLAN_1
 62
     2
  6
CONTINUOUS
 10
-0.876480
 20
1.875138
  0
VERTEX
  8
PLAN_1
 62
     2
  6
CONTINUOUS
 10
-0.875047
 20
1.873224
  0
VERTEX
  8
PLAN_1
 62
     2
  6
CONTINUOUS
 10
-0.874571
 20
1.871791
  0
VERTEX
  8
PLAN_1
 62
     2
  6
CONTINUOUS
 10
-0.874091
 20
1.870358
  0
VERTEX
  8
PLAN_1
 62
     2
  6
CONTINUOUS
 10
-0.873614
 20
1.868925
  0
VERTEX
  8
PLAN_1
 62
     2
  6
CONTINUOUS
 10
-0.878394
 20
1.868925
  0
VERTEX
  8
PLAN_1
 62
     2
  6
CONTINUOUS
 10
-0.878870
 20
1.870358
  0
VERTEX
  8
PLAN_1
 62
     2
  6
CONTINUOUS
 10
-0.879827
 20
1.871791
  0
VERTEX
  8
PLAN_1
 62
     2
  6
CONTINUOUS
 10
-0.880783
 20
1.872748
  0
VERTEX
  8
PLAN_1
 62
     2
  6
CONTINUOUS
 10
-0.882217
 20
1.873224
  0
VERTEX
  8
PLAN_1
 62
     2
  6
CONTINUOUS
 10
-0.883650
 20
1.874181
  0
VERTEX
  8
PLAN_1
 62
     2
  6
CONTINUOUS
 10
-0.885563
 20
1.874181
  0
VERTEX
  8
PLAN_1
 62
     2
  6
CONTINUOUS
 10
-0.886996
 20
1.874657
  0
VERTEX
  8
PLAN_1
 62
     2
  6
CONTINUOUS
 10
-0.888906
 20
1.874657
  0
VERTEX
  8
PLAN_1
 62
     2
  6
CONTINUOUS
 10
-0.888906
 20
1.868925
  0
VERTEX
  8
PLAN_1
 62
     2
  6
CONTINUOUS
 10
-0.899898
 20
1.868925
  0
SEQEND
  8
0
  0
POLYLINE
  8
PLAN_1
 62
     2
  6
CONTINUOUS
 66
     1
 40
0.003000
 41
0.003000
  0
VERTEX
  8
PLAN_1
 62
     2
  6
CONTINUOUS
 10
-0.931437
 20
1.904287
  0
VERTEX
  8
PLAN_1
 62
     2
  6
CONTINUOUS
 10
-0.932394
 20
1.905244
  0
VERTEX
  8
PLAN_1
 62
     2
  6
CONTINUOUS
 10
-0.933350
 20
1.906677
  0
VERTEX
  8
PLAN_1
 62
     2
  6
CONTINUOUS
 10
-0.934303
 20
1.908587
  0
VERTEX
  8
PLAN_1
 62
     2
  6
CONTINUOUS
 10
-0.934783
 20
1.910024
  0
VERTEX
  8
PLAN_1
 62
     2
  6
CONTINUOUS
 10
-0.935260
 20
1.911933
  0
VERTEX
  8
PLAN_1
 62
     2
  6
CONTINUOUS
 10
-0.935736
 20
1.913846
  0
VERTEX
  8
PLAN_1
 62
     2
  6
CONTINUOUS
 10
-0.936217
 20
1.916236
  0
VERTEX
  8
PLAN_1
 62
     2
  6
CONTINUOUS
 10
-0.936217
 20
1.918622
  0
VERTEX
  8
PLAN_1
 62
     2
  6
CONTINUOUS
 10
-0.935736
 20
1.922925
  0
VERTEX
  8
PLAN_1
 62
     2
  6
CONTINUOUS
 10
-0.934783
 20
1.927224
  0
VERTEX
  8
PLAN_1
 62
     2
  6
CONTINUOUS
 10
-0.932870
 20
1.931047
  0
VERTEX
  8
PLAN_1
 62
     2
  6
CONTINUOUS
 10
-0.930004
 20
1.934870
  0
VERTEX
  8
PLAN_1
 62
     2
  6
CONTINUOUS
 10
-0.928571
 20
1.936307
  0
VERTEX
  8
PLAN_1
 62
     2
  6
CONTINUOUS
 10
-0.926657
 20
1.937740
  0
VERTEX
  8
PLAN_1
 62
     2
  6
CONTINUOUS
 10
-0.924748
 20
1.939173
  0
VERTEX
  8
PLAN_1
 62
     2
  6
CONTINUOUS
 10
-0.922835
 20
1.940130
  0
VERTEX
  8
PLAN_1
 62
     2
  6
CONTINUOUS
 10
-0.920445
 20
1.941083
  0
VERTEX
  8
PLAN_1
 62
     2
  6
CONTINUOUS
 10
-0.918055
 20
1.942039
  0
VERTEX
  8
PLAN_1
 62
     2
  6
CONTINUOUS
 10
-0.915665
 20
1.942516
  0
VERTEX
  8
PLAN_1
 62
     2
  6
CONTINUOUS
 10
-0.912799
 20
1.942516
  0
VERTEX
  8
PLAN_1
 62
     2
  6
CONTINUOUS
 10
-0.909457
 20
1.942039
  0
VERTEX
  8
PLAN_1
 62
     2
  6
CONTINUOUS
 10
-0.905154
 20
1.941563
  0
VERTEX
  8
PLAN_1
 62
     2
  6
CONTINUOUS
 10
-0.900854
 20
1.940130
  0
VERTEX
  8
PLAN_1
 62
     2
  6
CONTINUOUS
 10
-0.897031
 20
1.937740
  0
VERTEX
  8
PLAN_1
 62
     2
  6
CONTINUOUS
 10
-0.894642
 20
1.936307
  0
VERTEX
  8
PLAN_1
 62
     2
  6
CONTINUOUS
 10
-0.893209
 20
1.934394
  0
VERTEX
  8
PLAN_1
 62
     2
  6
CONTINUOUS
 10
-0.891295
 20
1.932004
  0
VERTEX
  8
PLAN_1
 62
     2
  6
CONTINUOUS
 10
-0.889862
 20
1.929614
  0
VERTEX
  8
PLAN_1
 62
     2
  6
CONTINUOUS
 10
-0.888906
 20
1.926748
  0
VERTEX
  8
PLAN_1
 62
     2
  6
CONTINUOUS
 10
-0.887949
 20
1.923402
  0
VERTEX
  8
PLAN_1
 62
     2
  6
CONTINUOUS
 10
-0.887472
 20
1.920059
  0
VERTEX
  8
PLAN_1
 62
     2
  6
CONTINUOUS
 10
-0.886996
 20
1.915756
  0
VERTEX
  8
PLAN_1
 62
     2
  6
CONTINUOUS
 10
-0.887472
 20
1.912413
  0
VERTEX
  8
PLAN_1
 62
     2
  6
CONTINUOUS
 10
-0.887949
 20
1.908587
  0
VERTEX
  8
PLAN_1
 62
     2
  6
CONTINUOUS
 10
-0.888906
 20
1.904764
  0
VERTEX
  8
PLAN_1
 62
     2
  6
CONTINUOUS
 10
-0.890819
 20
1.900941
  0
VERTEX
  8
PLAN_1
 62
     2
  6
CONTINUOUS
 10
-0.892252
 20
1.899508
  0
VERTEX
  8
PLAN_1
 62
     2
  6
CONTINUOUS
 10
-0.893685
 20
1.898075
  0
VERTEX
  8
PLAN_1
 62
     2
  6
CONTINUOUS
 10
-0.895118
 20
1.896642
  0
VERTEX
  8
PLAN_1
 62
     2
  6
CONTINUOUS
 10
-0.897031
 20
1.895209
  0
VERTEX
  8
PLAN_1
 62
     2
  6
CONTINUOUS
 10
-0.899421
 20
1.894252
  0
VERTEX
  8
PLAN_1
 62
     2
  6
CONTINUOUS
 10
-0.901807
 20
1.893295
  0
VERTEX
  8
PLAN_1
 62
     2
  6
CONTINUOUS
 10
-0.904197
 20
1.892819
  0
VERTEX
  8
PLAN_1
 62
     2
  6
CONTINUOUS
 10
-0.907067
 20
1.892343
  0
VERTEX
  8
PLAN_1
 62
     2
  6
CONTINUOUS
 10
-0.907067
 20
1.901898
  0
VERTEX
  8
PLAN_1
 62
     2
  6
CONTINUOUS
 10
-0.904197
 20
1.902378
  0
VERTEX
  8
PLAN_1
 62
     2
  6
CONTINUOUS
 10
-0.901807
 20
1.903331
  0
VERTEX
  8
PLAN_1
 62
     2
  6
CONTINUOUS
 10
-0.899421
 20
1.904764
  0
VERTEX
  8
PLAN_1
 62
     2
  6
CONTINUOUS
 10
-0.897984
 20
1.906677
  0
VERTEX
  8
PLAN_1
 62
     2
  6
CONTINUOUS
 10
-0.896551
 20
1.909067
  0
VERTEX
  8
PLAN_1
 62
     2
  6
CONTINUOUS
 10
-0.895598
 20
1.911457
  0
VERTEX
  8
PLAN_1
 62
     2
  6
CONTINUOUS
 10
-0.895118
 20
1.914323
  0
VERTEX
  8
PLAN_1
 62
     2
  6
CONTINUOUS
 10
-0.895118
 20
1.917189
  0
VERTEX
  8
PLAN_1
 62
     2
  6
CONTINUOUS
 10
-0.895118
 20
1.920535
  0
VERTEX
  8
PLAN_1
 62
     2
  6
CONTINUOUS
 10
-0.896075
 20
1.923882
  0
VERTEX
  8
PLAN_1
 62
     2
  6
CONTINUOUS
 10
-0.897984
 20
1.926272
  0
VERTEX
  8
PLAN_1
 62
     2
  6
CONTINUOUS
 10
-0.899898
 20
1.928657
  0
VERTEX
  8
PLAN_1
 62
     2
  6
CONTINUOUS
 10
-0.902287
 20
1.930094
  0
VERTEX
  8
PLAN_1
 62
     2
  6
CONTINUOUS
 10
-0.905154
 20
1.931528
  0
VERTEX
  8
PLAN_1
 62
     2
  6
CONTINUOUS
 10
-0.908500
 20
1.932480
  0
VERTEX
  8
PLAN_1
 62
     2
  6
CONTINUOUS
 10
-0.911843
 20
1.932480
  0
VERTEX
  8
PLAN_1
 62
     2
  6
CONTINUOUS
 10
-0.915189
 20
1.932480
  0
VERTEX
  8
PLAN_1
 62
     2
  6
CONTINUOUS
 10
-0.918535
 20
1.931528
  0
VERTEX
  8
PLAN_1
 62
     2
  6
CONTINUOUS
 10
-0.921402
 20
1.930094
  0
VERTEX
  8
PLAN_1
 62
     2
  6
CONTINUOUS
 10
-0.923791
 20
1.927705
  0
VERTEX
  8
PLAN_1
 62
     2
  6
CONTINUOUS
 10
-0.925701
 20
1.925315
  0
VERTEX
  8
PLAN_1
 62
     2
  6
CONTINUOUS
 10
-0.926657
 20
1.922925
  0
VERTEX
  8
PLAN_1
 62
     2
  6
CONTINUOUS
 10
-0.927614
 20
1.919579
  0
VERTEX
  8
PLAN_1
 62
     2
  6
CONTINUOUS
 10
-0.928091
 20
1.916236
  0
VERTEX
  8
PLAN_1
 62
     2
  6
CONTINUOUS
 10
-0.927614
 20
1.914323
  0
VERTEX
  8
PLAN_1
 62
     2
  6
CONTINUOUS
 10
-0.927614
 20
1.912413
  0
VERTEX
  8
PLAN_1
 62
     2
  6
CONTINUOUS
 10
-0.927138
 20
1.910500
  0
VERTEX
  8
PLAN_1
 62
     2
  6
CONTINUOUS
 10
-0.926181
 20
1.909067
  0
VERTEX
  8
PLAN_1
 62
     2
  6
CONTINUOUS
 10
-0.925224
 20
1.907154
  0
VERTEX
  8
PLAN_1
 62
     2
  6
CONTINUOUS
 10
-0.923791
 20
1.905720
  0
VERTEX
  8
PLAN_1
 62
     2
  6
CONTINUOUS
 10
-0.922358
 20
1.904287
  0
VERTEX
  8
PLAN_1
 62
     2
  6
CONTINUOUS
 10
-0.920925
 20
1.902854
  0
VERTEX
  8
PLAN_1
 62
     2
  6
CONTINUOUS
 10
-0.921402
 20
1.895209
  0
VERTEX
  8
PLAN_1
 62
     2
  6
CONTINUOUS
 10
-0.960587
 20
1.900465
  0
VERTEX
  8
PLAN_1
 62
     2
  6
CONTINUOUS
 10
-0.960587
 20
1.938217
  0
VERTEX
  8
PLAN_1
 62
     2
  6
CONTINUOUS
 10
-0.951508
 20
1.938217
  0
VERTEX
  8
PLAN_1
 62
     2
  6
CONTINUOUS
 10
-0.951508
 20
1.907154
  0
VERTEX
  8
PLAN_1
 62
     2
  6
CONTINUOUS
 10
-0.931437
 20
1.904287
  0
SEQEND
  8
0
  0
POLYLINE
  8
PLAN_1
 62
     2
  6
CONTINUOUS
 66
     1
 40
0.003000
 41
0.003000
  0
VERTEX
  8
PLAN_1
 62
     2
  6
CONTINUOUS
 10
-0.931437
 20
3.734071
  0
VERTEX
  8
PLAN_1
 62
     2
  6
CONTINUOUS
 10
-0.932394
 20
3.735504
  0
VERTEX
  8
PLAN_1
 62
     2
  6
CONTINUOUS
 10
-0.933350
 20
3.736937
  0
VERTEX
  8
PLAN_1
 62
     2
  6
CONTINUOUS
 10
-0.934303
 20
3.738370
  0
VERTEX
  8
PLAN_1
 62
     2
  6
CONTINUOUS
 10
-0.934783
 20
3.740283
  0
VERTEX
  8
PLAN_1
 62
     2
  6
CONTINUOUS
 10
-0.935260
 20
3.741717
  0
VERTEX
  8
PLAN_1
 62
     2
  6
CONTINUOUS
 10
-0.935736
 20
3.744106
  0
VERTEX
  8
PLAN_1
 62
     2
  6
CONTINUOUS
 10
-0.936217
 20
3.746020
  0
VERTEX
  8
PLAN_1
 62
     2
  6
CONTINUOUS
 10
-0.936217
 20
3.748406
  0
VERTEX
  8
PLAN_1
 62
     2
  6
CONTINUOUS
 10
-0.935736
 20
3.752709
  0
VERTEX
  8
PLAN_1
 62
     2
  6
CONTINUOUS
 10
-0.934783
 20
3.757008
  0
VERTEX
  8
PLAN_1
 62
     2
  6
CONTINUOUS
 10
-0.932870
 20
3.761311
  0
VERTEX
  8
PLAN_1
 62
     2
  6
CONTINUOUS
 10
-0.930004
 20
3.765134
  0
VERTEX
  8
PLAN_1
 62
     2
  6
CONTINUOUS
 10
-0.928571
 20
3.766567
  0
VERTEX
  8
PLAN_1
 62
     2
  6
CONTINUOUS
 10
-0.926657
 20
3.768000
  0
VERTEX
  8
PLAN_1
 62
     2
  6
CONTINUOUS
 10
-0.924748
 20
3.769433
  0
VERTEX
  8
PLAN_1
 62
     2
  6
CONTINUOUS
 10
-0.922835
 20
3.770390
  0
VERTEX
  8
PLAN_1
 62
     2
  6
CONTINUOUS
 10
-0.920445
 20
3.771346
  0
VERTEX
  8
PLAN_1
 62
     2
  6
CONTINUOUS
 10
-0.918055
 20
3.771823
  0
VERTEX
  8
PLAN_1
 62
     2
  6
CONTINUOUS
 10
-0.915665
 20
3.772299
  0
VERTEX
  8
PLAN_1
 62
     2
  6
CONTINUOUS
 10
-0.912799
 20
3.772299
  0
VERTEX
  8
PLAN_1
 62
     2
  6
CONTINUOUS
 10
-0.909457
 20
3.772299
  0
VERTEX
  8
PLAN_1
 62
     2
  6
CONTINUOUS
 10
-0.905154
 20
3.771346
  0
VERTEX
  8
PLAN_1
 62
     2
  6
CONTINUOUS
 10
-0.900854
 20
3.769913
  0
VERTEX
  8
PLAN_1
 62
     2
  6
CONTINUOUS
 10
-0.897031
 20
3.768000
  0
VERTEX
  8
PLAN_1
 62
     2
  6
CONTINUOUS
 10
-0.894642
 20
3.766091
  0
VERTEX
  8
PLAN_1
 62
     2
  6
CONTINUOUS
 10
-0.893209
 20
3.764177
  0
VERTEX
  8
PLAN_1
 62
     2
  6
CONTINUOUS
 10
-0.891295
 20
3.762264
  0
VERTEX
  8
PLAN_1
 62
     2
  6
CONTINUOUS
 10
-0.889862
 20
3.759878
  0
VERTEX
  8
PLAN_1
 62
     2
  6
CONTINUOUS
 10
-0.888906
 20
3.757008
  0
VERTEX
  8
PLAN_1
 62
     2
  6
CONTINUOUS
 10
-0.887949
 20
3.753665
  0
VERTEX
  8
PLAN_1
 62
     2
  6
CONTINUOUS
 10
-0.887472
 20
3.749843
  0
VERTEX
  8
PLAN_1
 62
     2
  6
CONTINUOUS
 10
-0.886996
 20
3.746020
  0
VERTEX
  8
PLAN_1
 62
     2
  6
CONTINUOUS
 10
-0.887472
 20
3.742193
  0
VERTEX
  8
PLAN_1
 62
     2
  6
CONTINUOUS
 10
-0.887949
 20
3.738370
  0
VERTEX
  8
PLAN_1
 62
     2
  6
CONTINUOUS
 10
-0.888906
 20
3.734547
  0
VERTEX
  8
PLAN_1
 62
     2
  6
CONTINUOUS
 10
-0.890819
 20
3.731205
  0
VERTEX
  8
PLAN_1
 62
     2
  6
CONTINUOUS
 10
-0.892252
 20
3.729772
  0
VERTEX
  8
PLAN_1
 62
     2
  6
CONTINUOUS
 10
-0.893685
 20
3.727858
  0
VERTEX
  8
PLAN_1
 62
     2
  6
CONTINUOUS
 10
-0.895118
 20
3.726425
  0
VERTEX
  8
PLAN_1
 62
     2
  6
CONTINUOUS
 10
-0.897031
 20
3.725469
  0
VERTEX
  8
PLAN_1
 62
     2
  6
CONTINUOUS
 10
-0.899421
 20
3.724512
  0
VERTEX
  8
PLAN_1
 62
     2
  6
CONTINUOUS
 10
-0.901807
 20
3.723559
  0
VERTEX
  8
PLAN_1
 62
     2
  6
CONTINUOUS
 10
-0.904197
 20
3.722602
  0
VERTEX
  8
PLAN_1
 62
     2
  6
CONTINUOUS
 10
-0.907067
 20
3.722126
  0
VERTEX
  8
PLAN_1
 62
     2
  6
CONTINUOUS
 10
-0.907067
 20
3.731681
  0
VERTEX
  8
PLAN_1
 62
     2
  6
CONTINUOUS
 10
-0.904197
 20
3.732161
  0
VERTEX
  8
PLAN_1
 62
     2
  6
CONTINUOUS
 10
-0.901807
 20
3.733594
  0
VERTEX
  8
PLAN_1
 62
     2
  6
CONTINUOUS
 10
-0.899421
 20
3.735028
  0
VERTEX
  8
PLAN_1
 62
     2
  6
CONTINUOUS
 10
-0.897984
 20
3.736937
  0
VERTEX
  8
PLAN_1
 62
     2
  6
CONTINUOUS
 10
-0.896551
 20
3.738850
  0
VERTEX
  8
PLAN_1
 62
     2
  6
CONTINUOUS
 10
-0.895598
 20
3.741717
  0
VERTEX
  8
PLAN_1
 62
     2
  6
CONTINUOUS
 10
-0.895118
 20
3.744106
  0
VERTEX
  8
PLAN_1
 62
     2
  6
CONTINUOUS
 10
-0.895118
 20
3.747453
  0
VERTEX
  8
PLAN_1
 62
     2
  6
CONTINUOUS
 10
-0.895118
 20
3.750795
  0
VERTEX
  8
PLAN_1
 62
     2
  6
CONTINUOUS
 10
-0.896075
 20
3.753665
  0
VERTEX
  8
PLAN_1
 62
     2
  6
CONTINUOUS
 10
-0.897984
 20
3.756531
  0
VERTEX
  8
PLAN_1
 62
     2
  6
CONTINUOUS
 10
-0.899898
 20
3.758441
  0
VERTEX
  8
PLAN_1
 62
     2
  6
CONTINUOUS
 10
-0.902287
 20
3.760354
  0
VERTEX
  8
PLAN_1
 62
     2
  6
CONTINUOUS
 10
-0.905154
 20
3.761787
  0
VERTEX
  8
PLAN_1
 62
     2
  6
CONTINUOUS
 10
-0.908500
 20
3.762264
  0
VERTEX
  8
PLAN_1
 62
     2
  6
CONTINUOUS
 10
-0.911843
 20
3.762744
  0
VERTEX
  8
PLAN_1
 62
     2
  6
CONTINUOUS
 10
-0.915189
 20
3.762264
  0
VERTEX
  8
PLAN_1
 62
     2
  6
CONTINUOUS
 10
-0.918535
 20
3.761311
  0
VERTEX
  8
PLAN_1
 62
     2
  6
CONTINUOUS
 10
-0.921402
 20
3.759878
  0
VERTEX
  8
PLAN_1
 62
     2
  6
CONTINUOUS
 10
-0.923791
 20
3.757965
  0
VERTEX
  8
PLAN_1
 62
     2
  6
CONTINUOUS
 10
-0.925701
 20
3.755575
  0
VERTEX
  8
PLAN_1
 62
     2
  6
CONTINUOUS
 10
-0.926657
 20
3.752709
  0
VERTEX
  8
PLAN_1
 62
     2
  6
CONTINUOUS
 10
-0.927614
 20
3.749843
  0
VERTEX
  8
PLAN_1
 62
     2
  6
CONTINUOUS
 10
-0.928091
 20
3.746496
  0
VERTEX
  8
PLAN_1
 62
     2
  6
CONTINUOUS
 10
-0.927614
 20
3.744583
  0
VERTEX
  8
PLAN_1
 62
     2
  6
CONTINUOUS
 10
-0.927614
 20
3.742673
  0
VERTEX
  8
PLAN_1
 62
     2
  6
CONTINUOUS
 10
-0.927138
 20
3.740760
  0
VERTEX
  8
PLAN_1
 62
     2
  6
CONTINUOUS
 10
-0.926181
 20
3.738850
  0
VERTEX
  8
PLAN_1
 62
     2
  6
CONTINUOUS
 10
-0.925224
 20
3.737417
  0
VERTEX
  8
PLAN_1
 62
     2
  6
CONTINUOUS
 10
-0.923791
 20
3.735504
  0
VERTEX
  8
PLAN_1
 62
     2
  6
CONTINUOUS
 10
-0.922358
 20
3.734071
  0
VERTEX
  8
PLAN_1
 62
     2
  6
CONTINUOUS
 10
-0.920925
 20
3.733114
  0
VERTEX
  8
PLAN_1
 62
     2
  6
CONTINUOUS
 10
-0.921402
 20
3.724992
  0
VERTEX
  8
PLAN_1
 62
     2
  6
CONTINUOUS
 10
-0.960587
 20
3.730724
  0
VERTEX
  8
PLAN_1
 62
     2
  6
CONTINUOUS
 10
-0.960587
 20
3.768476
  0
VERTEX
  8
PLAN_1
 62
     2
  6
CONTINUOUS
 10
-0.951508
 20
3.768476
  0
VERTEX
  8
PLAN_1
 62
     2
  6
CONTINUOUS
 10
-0.951508
 20
3.737417
  0
VERTEX
  8
PLAN_1
 62
     2
  6
CONTINUOUS
 10
-0.931437
 20
3.734071
  0
SEQEND
  8
0
  0
ENDSEC
  0
EOF
