  0
SECTION
  2
HEADER
  9
$ACADVER
  1
AC1006
  9
$EXTMIN
 10
-2.050780
 20
-3.416000
  9
$EXTMAX
 10
2.049563
 20
3.414000
  9
$LTSCALE
 40
0.000394
  9
$PDMODE
 70
    35
  9
$PDSIZE
 40
0.000315
  0
ENDSEC
  0
SECTION
  2
TABLES
  0
TABLE
  2
LTYPE
 70
     9
  0
LTYPE
  2
CONTINUOUS
 70
    64
  3
Solid line
 72
    65
 73
     0
 40
0.000000
  0
LTYPE
  2
DASHED
 70
    64
  3
__ __ __ __ __ __ __ __ __ __ __ __ __ __ __
 72
    65
 73
     2
 40
0.000003
 49
0.000002
 49
-0.000001
  0
LTYPE
  2
HIDDEN
 70
    64
  3
 _ _ _ _ _ _ _ _ _ _ _ _ _ _ _ _ _ _ _ _ _ _
 72
    65
 73
     2
 40
0.000001
 49
0.000001
 49
-0.000000
  0
LTYPE
  2
CENTER
 70
    64
  3
____ _ ____ _ ____ _ ____ _ ____ _ ____ _ ____
 72
    65
 73
     4
 40
0.000008
 49
0.000005
 49
-0.000001
 49
0.000001
 49
-0.000001
  0
LTYPE
  2
PHANTOM
 70
    64
  3
_____ _ _ _____ _ _ _____ _ _ _____ _ _ ____
 72
    65
 73
     6
 40
0.000010
 49
0.000005
 49
-0.000001
 49
0.000001
 49
-0.000001
 49
0.000001
 49
-0.000001
  0
LTYPE
  2
DOT
 70
    64
  3
...............................................
 72
    65
 73
     2
 40
0.000001
 49
0.000000
 49
-0.000001
  0
LTYPE
  2
DASHDOT
 70
    64
  3
__ . __ . __ . __ . __ . __ . __ . __ . __ . __
 72
    65
 73
     4
 40
0.000004
 49
0.000002
 49
-0.000001
 49
0.000000
 49
-0.000001
  0
LTYPE
  2
BORDER
 70
    64
  3
__ __ . __ __ . __ __ . __ __ . __ __ . __ __
 72
    65
 73
     6
 40
0.000007
 49
0.000002
 49
-0.000001
 49
0.000002
 49
-0.000001
 49
0.000000
 49
-0.000001
  0
LTYPE
  2
DIVIDE
 70
    64
  3
__ . . __ . . __ . . __ . . __ . . __ . . __
 72
    65
 73
     6
 40
0.000005
 49
0.000002
 49
-0.000001
 49
0.000000
 49
-0.000001
 49
0.000000
 49
-0.000001
  0
LTYPE
  2
DOTDOT
 70
    64
  3
 . .  . .  . .  . .  . .  . . 
 72
    65
 73
     5
 40
0.000002
 49
-0.000001
 49
0.000000
 49
-0.000001
 49
0.000000
 49
-0.000001
  0
ENDTAB
  0
TABLE
  2
STYLE
 70
     0
  0
ENDTAB
  0
TABLE
  2
LAYER
 70
     3
  0
LAYER
  2
FOREGROUND
 70
    64
 62
     7
  6
CONTINUOUS
  0
LAYER
  2
BACKGROUND
 70
    65
 62
    -7
  6
CONTINUOUS
  0
LAYER
  2
PLAN_1
 70
    64
 62
     7
  6
CONTINUOUS
  0
ENDTAB
  0
ENDSEC
  0
SECTION
  2
ENTITIES
  0
POLYLINE
  8
PLAN_1
  6
CONTINUOUS
 66
     1
 40
0.003000
 41
0.003000
  0
VERTEX
  8
PLAN_1
  6
CONTINUOUS
 10
0.261382
 20
-3.381421
  0
VERTEX
  8
PLAN_1
  6
CONTINUOUS
 10
0.104720
 20
-3.381421
  0
VERTEX
  8
PLAN_1
  6
CONTINUOUS
 10
0.104720
 20
-3.358799
  0
VERTEX
  8
PLAN_1
  6
CONTINUOUS
 10
0.226803
 20
-3.205976
  0
VERTEX
  8
PLAN_1
  6
CONTINUOUS
 10
0.113681
 20
-3.205976
  0
VERTEX
  8
PLAN_1
  6
CONTINUOUS
 10
0.113681
 20
-3.182071
  0
VERTEX
  8
PLAN_1
  6
CONTINUOUS
 10
0.261382
 20
-3.182071
  0
VERTEX
  8
PLAN_1
  6
CONTINUOUS
 10
0.261382
 20
-3.205122
  0
VERTEX
  8
PLAN_1
  6
CONTINUOUS
 10
0.138870
 20
-3.357520
  0
VERTEX
  8
PLAN_1
  6
CONTINUOUS
 10
0.261382
 20
-3.357520
  0
VERTEX
  8
PLAN_1
  6
CONTINUOUS
 10
0.261382
 20
-3.381421
  0
SEQEND
  8
0
  0
POLYLINE
  8
PLAN_1
  6
CONTINUOUS
 66
     1
 40
0.003000
 41
0.003000
  0
VERTEX
  8
PLAN_1
  6
CONTINUOUS
 10
0.428717
 20
-3.241835
  0
VERTEX
  8
PLAN_1
  6
CONTINUOUS
 10
0.427008
 20
-3.235858
  0
VERTEX
  8
PLAN_1
  6
CONTINUOUS
 10
0.424874
 20
-3.230311
  0
VERTEX
  8
PLAN_1
  6
CONTINUOUS
 10
0.422315
 20
-3.225185
  0
VERTEX
  8
PLAN_1
  6
CONTINUOUS
 10
0.419752
 20
-3.220917
  0
VERTEX
  8
PLAN_1
  6
CONTINUOUS
 10
0.416339
 20
-3.217075
  0
VERTEX
  8
PLAN_1
  6
CONTINUOUS
 10
0.412921
 20
-3.213661
  0
VERTEX
  8
PLAN_1
  6
CONTINUOUS
 10
0.409079
 20
-3.210673
  0
VERTEX
  8
PLAN_1
  6
CONTINUOUS
 10
0.405240
 20
-3.208110
  0
VERTEX
  8
PLAN_1
  6
CONTINUOUS
 10
0.401398
 20
-3.205976
  0
VERTEX
  8
PLAN_1
  6
CONTINUOUS
 10
0.397130
 20
-3.204272
  0
VERTEX
  8
PLAN_1
  6
CONTINUOUS
 10
0.392858
 20
-3.202988
  0
VERTEX
  8
PLAN_1
  6
CONTINUOUS
 10
0.388591
 20
-3.202134
  0
VERTEX
  8
PLAN_1
  6
CONTINUOUS
 10
0.380480
 20
-3.200854
  0
VERTEX
  8
PLAN_1
  6
CONTINUOUS
 10
0.372795
 20
-3.200429
  0
VERTEX
  8
PLAN_1
  6
CONTINUOUS
 10
0.366394
 20
-3.200854
  0
VERTEX
  8
PLAN_1
  6
CONTINUOUS
 10
0.359988
 20
-3.201709
  0
VERTEX
  8
PLAN_1
  6
CONTINUOUS
 10
0.353587
 20
-3.203417
  0
VERTEX
  8
PLAN_1
  6
CONTINUOUS
 10
0.347610
 20
-3.205551
  0
VERTEX
  8
PLAN_1
  6
CONTINUOUS
 10
0.342063
 20
-3.208539
  0
VERTEX
  8
PLAN_1
  6
CONTINUOUS
 10
0.336512
 20
-3.211953
  0
VERTEX
  8
PLAN_1
  6
CONTINUOUS
 10
0.331390
 20
-3.215795
  0
VERTEX
  8
PLAN_1
  6
CONTINUOUS
 10
0.326693
 20
-3.220492
  0
VERTEX
  8
PLAN_1
  6
CONTINUOUS
 10
0.322425
 20
-3.225614
  0
VERTEX
  8
PLAN_1
  6
CONTINUOUS
 10
0.319012
 20
-3.231591
  0
VERTEX
  8
PLAN_1
  6
CONTINUOUS
 10
0.315594
 20
-3.237992
  0
VERTEX
  8
PLAN_1
  6
CONTINUOUS
 10
0.313035
 20
-3.245248
  0
VERTEX
  8
PLAN_1
  6
CONTINUOUS
 10
0.310472
 20
-3.252933
  0
VERTEX
  8
PLAN_1
  6
CONTINUOUS
 10
0.309193
 20
-3.261472
  0
VERTEX
  8
PLAN_1
  6
CONTINUOUS
 10
0.307909
 20
-3.270008
  0
VERTEX
  8
PLAN_1
  6
CONTINUOUS
 10
0.307909
 20
-3.279827
  0
VERTEX
  8
PLAN_1
  6
CONTINUOUS
 10
0.307909
 20
-3.288362
  0
VERTEX
  8
PLAN_1
  6
CONTINUOUS
 10
0.308764
 20
-3.296902
  0
VERTEX
  8
PLAN_1
  6
CONTINUOUS
 10
0.309618
 20
-3.305012
  0
VERTEX
  8
PLAN_1
  6
CONTINUOUS
 10
0.311327
 20
-3.312268
  0
VERTEX
  8
PLAN_1
  6
CONTINUOUS
 10
0.313035
 20
-3.319953
  0
VERTEX
  8
PLAN_1
  6
CONTINUOUS
 10
0.315594
 20
-3.326783
  0
VERTEX
  8
PLAN_1
  6
CONTINUOUS
 10
0.318583
 20
-3.332760
  0
VERTEX
  8
PLAN_1
  6
CONTINUOUS
 10
0.322425
 20
-3.338736
  0
VERTEX
  8
PLAN_1
  6
CONTINUOUS
 10
0.324134
 20
-3.341724
  0
VERTEX
  8
PLAN_1
  6
CONTINUOUS
 10
0.326268
 20
-3.344283
  0
VERTEX
  8
PLAN_1
  6
CONTINUOUS
 10
0.328827
 20
-3.346417
  0
VERTEX
  8
PLAN_1
  6
CONTINUOUS
 10
0.331390
 20
-3.348980
  0
VERTEX
  8
PLAN_1
  6
CONTINUOUS
 10
0.333949
 20
-3.351114
  0
VERTEX
  8
PLAN_1
  6
CONTINUOUS
 10
0.336512
 20
-3.352823
  0
VERTEX
  8
PLAN_1
  6
CONTINUOUS
 10
0.339500
 20
-3.354531
  0
VERTEX
  8
PLAN_1
  6
CONTINUOUS
 10
0.342488
 20
-3.356236
  0
VERTEX
  8
PLAN_1
  6
CONTINUOUS
 10
0.345902
 20
-3.357945
  0
VERTEX
  8
PLAN_1
  6
CONTINUOUS
 10
0.349319
 20
-3.359224
  0
VERTEX
  8
PLAN_1
  6
CONTINUOUS
 10
0.353161
 20
-3.360079
  0
VERTEX
  8
PLAN_1
  6
CONTINUOUS
 10
0.356575
 20
-3.360933
  0
VERTEX
  8
PLAN_1
  6
CONTINUOUS
 10
0.360843
 20
-3.361787
  0
VERTEX
  8
PLAN_1
  6
CONTINUOUS
 10
0.365114
 20
-3.362213
  0
VERTEX
  8
PLAN_1
  6
CONTINUOUS
 10
0.369382
 20
-3.362642
  0
VERTEX
  8
PLAN_1
  6
CONTINUOUS
 10
0.373650
 20
-3.362642
  0
VERTEX
  8
PLAN_1
  6
CONTINUOUS
 10
0.377063
 20
-3.362642
  0
VERTEX
  8
PLAN_1
  6
CONTINUOUS
 10
0.380906
 20
-3.362213
  0
VERTEX
  8
PLAN_1
  6
CONTINUOUS
 10
0.384748
 20
-3.361787
  0
VERTEX
  8
PLAN_1
  6
CONTINUOUS
 10
0.388591
 20
-3.360508
  0
VERTEX
  8
PLAN_1
  6
CONTINUOUS
 10
0.392858
 20
-3.359224
  0
VERTEX
  8
PLAN_1
  6
CONTINUOUS
 10
0.397130
 20
-3.357520
  0
VERTEX
  8
PLAN_1
  6
CONTINUOUS
 10
0.401398
 20
-3.355382
  0
VERTEX
  8
PLAN_1
  6
CONTINUOUS
 10
0.405240
 20
-3.352823
  0
VERTEX
  8
PLAN_1
  6
CONTINUOUS
 10
0.409508
 20
-3.349406
  0
VERTEX
  8
PLAN_1
  6
CONTINUOUS
 10
0.413350
 20
-3.345567
  0
VERTEX
  8
PLAN_1
  6
CONTINUOUS
 10
0.416764
 20
-3.341295
  0
VERTEX
  8
PLAN_1
  6
CONTINUOUS
 10
0.420606
 20
-3.336173
  0
VERTEX
  8
PLAN_1
  6
CONTINUOUS
 10
0.423594
 20
-3.330197
  0
VERTEX
  8
PLAN_1
  6
CONTINUOUS
 10
0.426157
 20
-3.323795
  0
VERTEX
  8
PLAN_1
  6
CONTINUOUS
 10
0.428717
 20
-3.316110
  0
VERTEX
  8
PLAN_1
  6
CONTINUOUS
 10
0.430850
 20
-3.308000
  0
VERTEX
  8
PLAN_1
  6
CONTINUOUS
 10
0.456890
 20
-3.308000
  0
VERTEX
  8
PLAN_1
  6
CONTINUOUS
 10
0.455610
 20
-3.314831
  0
VERTEX
  8
PLAN_1
  6
CONTINUOUS
 10
0.454331
 20
-3.321232
  0
VERTEX
  8
PLAN_1
  6
CONTINUOUS
 10
0.452622
 20
-3.327209
  0
VERTEX
  8
PLAN_1
  6
CONTINUOUS
 10
0.450488
 20
-3.333185
  0
VERTEX
  8
PLAN_1
  6
CONTINUOUS
 10
0.448354
 20
-3.338307
  0
VERTEX
  8
PLAN_1
  6
CONTINUOUS
 10
0.445791
 20
-3.343004
  0
VERTEX
  8
PLAN_1
  6
CONTINUOUS
 10
0.443232
 20
-3.347701
  0
VERTEX
  8
PLAN_1
  6
CONTINUOUS
 10
0.440669
 20
-3.351969
  0
VERTEX
  8
PLAN_1
  6
CONTINUOUS
 10
0.437681
 20
-3.355811
  0
VERTEX
  8
PLAN_1
  6
CONTINUOUS
 10
0.434693
 20
-3.359654
  0
VERTEX
  8
PLAN_1
  6
CONTINUOUS
 10
0.431705
 20
-3.363067
  0
VERTEX
  8
PLAN_1
  6
CONTINUOUS
 10
0.428291
 20
-3.366055
  0
VERTEX
  8
PLAN_1
  6
CONTINUOUS
 10
0.424874
 20
-3.368618
  0
VERTEX
  8
PLAN_1
  6
CONTINUOUS
 10
0.421461
 20
-3.371177
  0
VERTEX
  8
PLAN_1
  6
CONTINUOUS
 10
0.418043
 20
-3.373311
  0
VERTEX
  8
PLAN_1
  6
CONTINUOUS
 10
0.414630
 20
-3.375445
  0
VERTEX
  8
PLAN_1
  6
CONTINUOUS
 10
0.407799
 20
-3.378862
  0
VERTEX
  8
PLAN_1
  6
CONTINUOUS
 10
0.400969
 20
-3.381421
  0
VERTEX
  8
PLAN_1
  6
CONTINUOUS
 10
0.394142
 20
-3.383559
  0
VERTEX
  8
PLAN_1
  6
CONTINUOUS
 10
0.388165
 20
-3.384839
  0
VERTEX
  8
PLAN_1
  6
CONTINUOUS
 10
0.377063
 20
-3.386118
  0
VERTEX
  8
PLAN_1
  6
CONTINUOUS
 10
0.369807
 20
-3.386547
  0
VERTEX
  8
PLAN_1
  6
CONTINUOUS
 10
0.361272
 20
-3.386118
  0
VERTEX
  8
PLAN_1
  6
CONTINUOUS
 10
0.352732
 20
-3.385264
  0
VERTEX
  8
PLAN_1
  6
CONTINUOUS
 10
0.344622
 20
-3.383559
  0
VERTEX
  8
PLAN_1
  6
CONTINUOUS
 10
0.336512
 20
-3.380996
  0
VERTEX
  8
PLAN_1
  6
CONTINUOUS
 10
0.332669
 20
-3.379287
  0
VERTEX
  8
PLAN_1
  6
CONTINUOUS
 10
0.328827
 20
-3.377583
  0
VERTEX
  8
PLAN_1
  6
CONTINUOUS
 10
0.324984
 20
-3.375445
  0
VERTEX
  8
PLAN_1
  6
CONTINUOUS
 10
0.321571
 20
-3.373311
  0
VERTEX
  8
PLAN_1
  6
CONTINUOUS
 10
0.317728
 20
-3.370752
  0
VERTEX
  8
PLAN_1
  6
CONTINUOUS
 10
0.314315
 20
-3.368189
  0
VERTEX
  8
PLAN_1
  6
CONTINUOUS
 10
0.310898
 20
-3.365201
  0
VERTEX
  8
PLAN_1
  6
CONTINUOUS
 10
0.307909
 20
-3.362213
  0
VERTEX
  8
PLAN_1
  6
CONTINUOUS
 10
0.304921
 20
-3.359224
  0
VERTEX
  8
PLAN_1
  6
CONTINUOUS
 10
0.301933
 20
-3.355382
  0
VERTEX
  8
PLAN_1
  6
CONTINUOUS
 10
0.298945
 20
-3.351969
  0
VERTEX
  8
PLAN_1
  6
CONTINUOUS
 10
0.296386
 20
-3.347701
  0
VERTEX
  8
PLAN_1
  6
CONTINUOUS
 10
0.293823
 20
-3.343429
  0
VERTEX
  8
PLAN_1
  6
CONTINUOUS
 10
0.291689
 20
-3.339161
  0
VERTEX
  8
PLAN_1
  6
CONTINUOUS
 10
0.289555
 20
-3.334469
  0
VERTEX
  8
PLAN_1
  6
CONTINUOUS
 10
0.287846
 20
-3.329343
  0
VERTEX
  8
PLAN_1
  6
CONTINUOUS
 10
0.285713
 20
-3.324220
  0
VERTEX
  8
PLAN_1
  6
CONTINUOUS
 10
0.284433
 20
-3.318673
  0
VERTEX
  8
PLAN_1
  6
CONTINUOUS
 10
0.283154
 20
-3.313122
  0
VERTEX
  8
PLAN_1
  6
CONTINUOUS
 10
0.281870
 20
-3.307146
  0
VERTEX
  8
PLAN_1
  6
CONTINUOUS
 10
0.281020
 20
-3.300744
  0
VERTEX
  8
PLAN_1
  6
CONTINUOUS
 10
0.280591
 20
-3.294339
  0
VERTEX
  8
PLAN_1
  6
CONTINUOUS
 10
0.280165
 20
-3.287512
  0
VERTEX
  8
PLAN_1
  6
CONTINUOUS
 10
0.280165
 20
-3.280681
  0
VERTEX
  8
PLAN_1
  6
CONTINUOUS
 10
0.280591
 20
-3.269154
  0
VERTEX
  8
PLAN_1
  6
CONTINUOUS
 10
0.281445
 20
-3.258484
  0
VERTEX
  8
PLAN_1
  6
CONTINUOUS
 10
0.282299
 20
-3.253362
  0
VERTEX
  8
PLAN_1
  6
CONTINUOUS
 10
0.283579
 20
-3.248236
  0
VERTEX
  8
PLAN_1
  6
CONTINUOUS
 10
0.284858
 20
-3.243114
  0
VERTEX
  8
PLAN_1
  6
CONTINUOUS
 10
0.286567
 20
-3.238421
  0
VERTEX
  8
PLAN_1
  6
CONTINUOUS
 10
0.287846
 20
-3.233724
  0
VERTEX
  8
PLAN_1
  6
CONTINUOUS
 10
0.289984
 20
-3.229457
  0
VERTEX
  8
PLAN_1
  6
CONTINUOUS
 10
0.291689
 20
-3.224760
  0
VERTEX
  8
PLAN_1
  6
CONTINUOUS
 10
0.294252
 20
-3.220917
  0
VERTEX
  8
PLAN_1
  6
CONTINUOUS
 10
0.296386
 20
-3.216650
  0
VERTEX
  8
PLAN_1
  6
CONTINUOUS
 10
0.298945
 20
-3.212807
  0
VERTEX
  8
PLAN_1
  6
CONTINUOUS
 10
0.301933
 20
-3.208965
  0
VERTEX
  8
PLAN_1
  6
CONTINUOUS
 10
0.304921
 20
-3.205551
  0
VERTEX
  8
PLAN_1
  6
CONTINUOUS
 10
0.307909
 20
-3.202134
  0
VERTEX
  8
PLAN_1
  6
CONTINUOUS
 10
0.310898
 20
-3.199146
  0
VERTEX
  8
PLAN_1
  6
CONTINUOUS
 10
0.314315
 20
-3.196157
  0
VERTEX
  8
PLAN_1
  6
CONTINUOUS
 10
0.318157
 20
-3.193598
  0
VERTEX
  8
PLAN_1
  6
CONTINUOUS
 10
0.322000
 20
-3.191035
  0
VERTEX
  8
PLAN_1
  6
CONTINUOUS
 10
0.325839
 20
-3.188476
  0
VERTEX
  8
PLAN_1
  6
CONTINUOUS
 10
0.329681
 20
-3.186343
  0
VERTEX
  8
PLAN_1
  6
CONTINUOUS
 10
0.333949
 20
-3.184205
  0
VERTEX
  8
PLAN_1
  6
CONTINUOUS
 10
0.338220
 20
-3.182500
  0
VERTEX
  8
PLAN_1
  6
CONTINUOUS
 10
0.342913
 20
-3.181220
  0
VERTEX
  8
PLAN_1
  6
CONTINUOUS
 10
0.347610
 20
-3.179937
  0
VERTEX
  8
PLAN_1
  6
CONTINUOUS
 10
0.352307
 20
-3.178657
  0
VERTEX
  8
PLAN_1
  6
CONTINUOUS
 10
0.357429
 20
-3.177803
  0
VERTEX
  8
PLAN_1
  6
CONTINUOUS
 10
0.362551
 20
-3.177378
  0
VERTEX
  8
PLAN_1
  6
CONTINUOUS
 10
0.367673
 20
-3.176949
  0
VERTEX
  8
PLAN_1
  6
CONTINUOUS
 10
0.372795
 20
-3.176949
  0
VERTEX
  8
PLAN_1
  6
CONTINUOUS
 10
0.382189
 20
-3.176949
  0
VERTEX
  8
PLAN_1
  6
CONTINUOUS
 10
0.391154
 20
-3.178232
  0
VERTEX
  8
PLAN_1
  6
CONTINUOUS
 10
0.399264
 20
-3.179937
  0
VERTEX
  8
PLAN_1
  6
CONTINUOUS
 10
0.406945
 20
-3.182071
  0
VERTEX
  8
PLAN_1
  6
CONTINUOUS
 10
0.413776
 20
-3.185059
  0
VERTEX
  8
PLAN_1
  6
CONTINUOUS
 10
0.420606
 20
-3.188476
  0
VERTEX
  8
PLAN_1
  6
CONTINUOUS
 10
0.426157
 20
-3.192319
  0
VERTEX
  8
PLAN_1
  6
CONTINUOUS
 10
0.431705
 20
-3.197012
  0
VERTEX
  8
PLAN_1
  6
CONTINUOUS
 10
0.436402
 20
-3.201709
  0
VERTEX
  8
PLAN_1
  6
CONTINUOUS
 10
0.440669
 20
-3.206831
  0
VERTEX
  8
PLAN_1
  6
CONTINUOUS
 10
0.444512
 20
-3.211953
  0
VERTEX
  8
PLAN_1
  6
CONTINUOUS
 10
0.447500
 20
-3.217929
  0
VERTEX
  8
PLAN_1
  6
CONTINUOUS
 10
0.450059
 20
-3.223480
  0
VERTEX
  8
PLAN_1
  6
CONTINUOUS
 10
0.452197
 20
-3.229457
  0
VERTEX
  8
PLAN_1
  6
CONTINUOUS
 10
0.453902
 20
-3.235858
  0
VERTEX
  8
PLAN_1
  6
CONTINUOUS
 10
0.454756
 20
-3.241835
  0
VERTEX
  8
PLAN_1
  6
CONTINUOUS
 10
0.428717
 20
-3.241835
  0
SEQEND
  8
0
  0
POLYLINE
  8
PLAN_1
  6
CONTINUOUS
 66
     1
 40
0.003000
 41
0.003000
  0
VERTEX
  8
PLAN_1
  6
CONTINUOUS
 10
0.516224
 20
-3.381421
  0
VERTEX
  8
PLAN_1
  6
CONTINUOUS
 10
0.489335
 20
-3.381421
  0
VERTEX
  8
PLAN_1
  6
CONTINUOUS
 10
0.489335
 20
-3.182071
  0
VERTEX
  8
PLAN_1
  6
CONTINUOUS
 10
0.516224
 20
-3.182071
  0
VERTEX
  8
PLAN_1
  6
CONTINUOUS
 10
0.516224
 20
-3.278547
  0
VERTEX
  8
PLAN_1
  6
CONTINUOUS
 10
0.612701
 20
-3.182071
  0
VERTEX
  8
PLAN_1
  6
CONTINUOUS
 10
0.650264
 20
-3.182071
  0
VERTEX
  8
PLAN_1
  6
CONTINUOUS
 10
0.567024
 20
-3.262323
  0
VERTEX
  8
PLAN_1
  6
CONTINUOUS
 10
0.652398
 20
-3.381421
  0
VERTEX
  8
PLAN_1
  6
CONTINUOUS
 10
0.617394
 20
-3.381421
  0
VERTEX
  8
PLAN_1
  6
CONTINUOUS
 10
0.547815
 20
-3.281535
  0
VERTEX
  8
PLAN_1
  6
CONTINUOUS
 10
0.516224
 20
-3.311417
  0
VERTEX
  8
PLAN_1
  6
CONTINUOUS
 10
0.516224
 20
-3.381421
  0
SEQEND
  8
0
  0
POLYLINE
  8
PLAN_1
  6
CONTINUOUS
 66
     1
 40
0.003000
 41
0.003000
  0
VERTEX
  8
PLAN_1
  6
CONTINUOUS
 10
0.824429
 20
-3.381421
  0
VERTEX
  8
PLAN_1
  6
CONTINUOUS
 10
0.677587
 20
-3.381421
  0
VERTEX
  8
PLAN_1
  6
CONTINUOUS
 10
0.677587
 20
-3.182071
  0
VERTEX
  8
PLAN_1
  6
CONTINUOUS
 10
0.822720
 20
-3.182071
  0
VERTEX
  8
PLAN_1
  6
CONTINUOUS
 10
0.822720
 20
-3.205976
  0
VERTEX
  8
PLAN_1
  6
CONTINUOUS
 10
0.704476
 20
-3.205976
  0
VERTEX
  8
PLAN_1
  6
CONTINUOUS
 10
0.704476
 20
-3.267020
  0
VERTEX
  8
PLAN_1
  6
CONTINUOUS
 10
0.813331
 20
-3.267020
  0
VERTEX
  8
PLAN_1
  6
CONTINUOUS
 10
0.813331
 20
-3.290925
  0
VERTEX
  8
PLAN_1
  6
CONTINUOUS
 10
0.704476
 20
-3.290925
  0
VERTEX
  8
PLAN_1
  6
CONTINUOUS
 10
0.704476
 20
-3.357520
  0
VERTEX
  8
PLAN_1
  6
CONTINUOUS
 10
0.824429
 20
-3.357520
  0
VERTEX
  8
PLAN_1
  6
CONTINUOUS
 10
0.824429
 20
-3.381421
  0
SEQEND
  8
0
  0
POLYLINE
  8
PLAN_1
  6
CONTINUOUS
 66
     1
 40
0.003000
 41
0.003000
  0
VERTEX
  8
PLAN_1
  6
CONTINUOUS
 10
0.954626
 20
-3.237992
  0
VERTEX
  8
PLAN_1
  6
CONTINUOUS
 10
0.952917
 20
-3.232016
  0
VERTEX
  8
PLAN_1
  6
CONTINUOUS
 10
0.950783
 20
-3.226039
  0
VERTEX
  8
PLAN_1
  6
CONTINUOUS
 10
0.949504
 20
-3.223480
  0
VERTEX
  8
PLAN_1
  6
CONTINUOUS
 10
0.948224
 20
-3.220917
  0
VERTEX
  8
PLAN_1
  6
CONTINUOUS
 10
0.946516
 20
-3.218783
  0
VERTEX
  8
PLAN_1
  6
CONTINUOUS
 10
0.944382
 20
-3.216650
  0
VERTEX
  8
PLAN_1
  6
CONTINUOUS
 10
0.942248
 20
-3.214941
  0
VERTEX
  8
PLAN_1
  6
CONTINUOUS
 10
0.940114
 20
-3.213232
  0
VERTEX
  8
PLAN_1
  6
CONTINUOUS
 10
0.937551
 20
-3.211528
  0
VERTEX
  8
PLAN_1
  6
CONTINUOUS
 10
0.934563
 20
-3.210244
  0
VERTEX
  8
PLAN_1
  6
CONTINUOUS
 10
0.931575
 20
-3.209394
  0
VERTEX
  8
PLAN_1
  6
CONTINUOUS
 10
0.928161
 20
-3.208539
  0
VERTEX
  8
PLAN_1
  6
CONTINUOUS
 10
0.924744
 20
-3.208110
  0
VERTEX
  8
PLAN_1
  6
CONTINUOUS
 10
0.920906
 20
-3.208110
  0
VERTEX
  8
PLAN_1
  6
CONTINUOUS
 10
0.917488
 20
-3.208110
  0
VERTEX
  8
PLAN_1
  6
CONTINUOUS
 10
0.914075
 20
-3.208539
  0
VERTEX
  8
PLAN_1
  6
CONTINUOUS
 10
0.911087
 20
-3.209394
  0
VERTEX
  8
PLAN_1
  6
CONTINUOUS
 10
0.908098
 20
-3.210244
  0
VERTEX
  8
PLAN_1
  6
CONTINUOUS
 10
0.905110
 20
-3.211528
  0
VERTEX
  8
PLAN_1
  6
CONTINUOUS
 10
0.902547
 20
-3.212807
  0
VERTEX
  8
PLAN_1
  6
CONTINUOUS
 10
0.899988
 20
-3.214516
  0
VERTEX
  8
PLAN_1
  6
CONTINUOUS
 10
0.897425
 20
-3.216650
  0
VERTEX
  8
PLAN_1
  6
CONTINUOUS
 10
0.893157
 20
-3.220917
  0
VERTEX
  8
PLAN_1
  6
CONTINUOUS
 10
0.889315
 20
-3.225614
  0
VERTEX
  8
PLAN_1
  6
CONTINUOUS
 10
0.886327
 20
-3.230736
  0
VERTEX
  8
PLAN_1
  6
CONTINUOUS
 10
0.883339
 20
-3.236283
  0
VERTEX
  8
PLAN_1
  6
CONTINUOUS
 10
0.881205
 20
-3.242260
  0
VERTEX
  8
PLAN_1
  6
CONTINUOUS
 10
0.879071
 20
-3.248236
  0
VERTEX
  8
PLAN_1
  6
CONTINUOUS
 10
0.877362
 20
-3.254642
  0
VERTEX
  8
PLAN_1
  6
CONTINUOUS
 10
0.876508
 20
-3.260189
  0
VERTEX
  8
PLAN_1
  6
CONTINUOUS
 10
0.874799
 20
-3.271287
  0
VERTEX
  8
PLAN_1
  6
CONTINUOUS
 10
0.874374
 20
-3.280252
  0
VERTEX
  8
PLAN_1
  6
CONTINUOUS
 10
0.875228
 20
-3.280681
  0
VERTEX
  8
PLAN_1
  6
CONTINUOUS
 10
0.877787
 20
-3.276839
  0
VERTEX
  8
PLAN_1
  6
CONTINUOUS
 10
0.881205
 20
-3.272571
  0
VERTEX
  8
PLAN_1
  6
CONTINUOUS
 10
0.885472
 20
-3.268728
  0
VERTEX
  8
PLAN_1
  6
CONTINUOUS
 10
0.890594
 20
-3.264886
  0
VERTEX
  8
PLAN_1
  6
CONTINUOUS
 10
0.893583
 20
-3.263177
  0
VERTEX
  8
PLAN_1
  6
CONTINUOUS
 10
0.896571
 20
-3.261898
  0
VERTEX
  8
PLAN_1
  6
CONTINUOUS
 10
0.899988
 20
-3.260189
  0
VERTEX
  8
PLAN_1
  6
CONTINUOUS
 10
0.903827
 20
-3.259339
  0
VERTEX
  8
PLAN_1
  6
CONTINUOUS
 10
0.907669
 20
-3.258055
  0
VERTEX
  8
PLAN_1
  6
CONTINUOUS
 10
0.911941
 20
-3.257630
  0
VERTEX
  8
PLAN_1
  6
CONTINUOUS
 10
0.916634
 20
-3.257201
  0
VERTEX
  8
PLAN_1
  6
CONTINUOUS
 10
0.921331
 20
-3.256776
  0
VERTEX
  8
PLAN_1
  6
CONTINUOUS
 10
0.926028
 20
-3.257201
  0
VERTEX
  8
PLAN_1
  6
CONTINUOUS
 10
0.930720
 20
-3.257630
  0
VERTEX
  8
PLAN_1
  6
CONTINUOUS
 10
0.935843
 20
-3.258484
  0
VERTEX
  8
PLAN_1
  6
CONTINUOUS
 10
0.940969
 20
-3.260189
  0
VERTEX
  8
PLAN_1
  6
CONTINUOUS
 10
0.946091
 20
-3.261898
  0
VERTEX
  8
PLAN_1
  6
CONTINUOUS
 10
0.951213
 20
-3.264461
  0
VERTEX
  8
PLAN_1
  6
CONTINUOUS
 10
0.956335
 20
-3.267020
  0
VERTEX
  8
PLAN_1
  6
CONTINUOUS
 10
0.961031
 20
-3.270437
  0
VERTEX
  8
PLAN_1
  6
CONTINUOUS
 10
0.965299
 20
-3.274276
  0
VERTEX
  8
PLAN_1
  6
CONTINUOUS
 10
0.969567
 20
-3.278972
  0
VERTEX
  8
PLAN_1
  6
CONTINUOUS
 10
0.972984
 20
-3.283669
  0
VERTEX
  8
PLAN_1
  6
CONTINUOUS
 10
0.976398
 20
-3.289646
  0
VERTEX
  8
PLAN_1
  6
CONTINUOUS
 10
0.978957
 20
-3.296047
  0
VERTEX
  8
PLAN_1
  6
CONTINUOUS
 10
0.980665
 20
-3.302878
  0
VERTEX
  8
PLAN_1
  6
CONTINUOUS
 10
0.981520
 20
-3.306720
  0
VERTEX
  8
PLAN_1
  6
CONTINUOUS
 10
0.981945
 20
-3.310563
  0
VERTEX
  8
PLAN_1
  6
CONTINUOUS
 10
0.982374
 20
-3.314402
  0
VERTEX
  8
PLAN_1
  6
CONTINUOUS
 10
0.982374
 20
-3.318673
  0
VERTEX
  8
PLAN_1
  6
CONTINUOUS
 10
0.982374
 20
-3.325929
  0
VERTEX
  8
PLAN_1
  6
CONTINUOUS
 10
0.981520
 20
-3.332760
  0
VERTEX
  8
PLAN_1
  6
CONTINUOUS
 10
0.980240
 20
-3.339161
  0
VERTEX
  8
PLAN_1
  6
CONTINUOUS
 10
0.978106
 20
-3.345567
  0
VERTEX
  8
PLAN_1
  6
CONTINUOUS
 10
0.975543
 20
-3.351114
  0
VERTEX
  8
PLAN_1
  6
CONTINUOUS
 10
0.972555
 20
-3.356665
  0
VERTEX
  8
PLAN_1
  6
CONTINUOUS
 10
0.968713
 20
-3.362213
  0
VERTEX
  8
PLAN_1
  6
CONTINUOUS
 10
0.964020
 20
-3.367764
  0
VERTEX
  8
PLAN_1
  6
CONTINUOUS
 10
0.959748
 20
-3.371606
  0
VERTEX
  8
PLAN_1
  6
CONTINUOUS
 10
0.955906
 20
-3.375445
  0
VERTEX
  8
PLAN_1
  6
CONTINUOUS
 10
0.950783
 20
-3.378862
  0
VERTEX
  8
PLAN_1
  6
CONTINUOUS
 10
0.945661
 20
-3.381421
  0
VERTEX
  8
PLAN_1
  6
CONTINUOUS
 10
0.939685
 20
-3.383559
  0
VERTEX
  8
PLAN_1
  6
CONTINUOUS
 10
0.932429
 20
-3.385264
  0
VERTEX
  8
PLAN_1
  6
CONTINUOUS
 10
0.923894
 20
-3.386118
  0
VERTEX
  8
PLAN_1
  6
CONTINUOUS
 10
0.914500
 20
-3.386547
  0
VERTEX
  8
PLAN_1
  6
CONTINUOUS
 10
0.908524
 20
-3.386118
  0
VERTEX
  8
PLAN_1
  6
CONTINUOUS
 10
0.902122
 20
-3.385264
  0
VERTEX
  8
PLAN_1
  6
CONTINUOUS
 10
0.895717
 20
-3.383130
  0
VERTEX
  8
PLAN_1
  6
CONTINUOUS
 10
0.888890
 20
-3.380571
  0
VERTEX
  8
PLAN_1
  6
CONTINUOUS
 10
0.885472
 20
-3.378862
  0
VERTEX
  8
PLAN_1
  6
CONTINUOUS
 10
0.882484
 20
-3.376728
  0
VERTEX
  8
PLAN_1
  6
CONTINUOUS
 10
0.879071
 20
-3.374594
  0
VERTEX
  8
PLAN_1
  6
CONTINUOUS
 10
0.875654
 20
-3.372031
  0
VERTEX
  8
PLAN_1
  6
CONTINUOUS
 10
0.872665
 20
-3.369043
  0
VERTEX
  8
PLAN_1
  6
CONTINUOUS
 10
0.869677
 20
-3.365630
  0
VERTEX
  8
PLAN_1
  6
CONTINUOUS
 10
0.867118
 20
-3.362213
  0
VERTEX
  8
PLAN_1
  6
CONTINUOUS
 10
0.864130
 20
-3.358370
  0
VERTEX
  8
PLAN_1
  6
CONTINUOUS
 10
0.861996
 20
-3.354957
  0
VERTEX
  8
PLAN_1
  6
CONTINUOUS
 10
0.860287
 20
-3.351114
  0
VERTEX
  8
PLAN_1
  6
CONTINUOUS
 10
0.858579
 20
-3.347272
  0
VERTEX
  8
PLAN_1
  6
CONTINUOUS
 10
0.856874
 20
-3.343429
  0
VERTEX
  8
PLAN_1
  6
CONTINUOUS
 10
0.854311
 20
-3.335319
  0
VERTEX
  8
PLAN_1
  6
CONTINUOUS
 10
0.852602
 20
-3.327209
  0
VERTEX
  8
PLAN_1
  6
CONTINUOUS
 10
0.850898
 20
-3.318244
  0
VERTEX
  8
PLAN_1
  6
CONTINUOUS
 10
0.850043
 20
-3.309280
  0
VERTEX
  8
PLAN_1
  6
CONTINUOUS
 10
0.849614
 20
-3.299890
  0
VERTEX
  8
PLAN_1
  6
CONTINUOUS
 10
0.849189
 20
-3.290500
  0
VERTEX
  8
PLAN_1
  6
CONTINUOUS
 10
0.849614
 20
-3.282390
  0
VERTEX
  8
PLAN_1
  6
CONTINUOUS
 10
0.850043
 20
-3.273850
  0
VERTEX
  8
PLAN_1
  6
CONTINUOUS
 10
0.850898
 20
-3.264886
  0
VERTEX
  8
PLAN_1
  6
CONTINUOUS
 10
0.852177
 20
-3.256350
  0
VERTEX
  8
PLAN_1
  6
CONTINUOUS
 10
0.854311
 20
-3.247386
  0
VERTEX
  8
PLAN_1
  6
CONTINUOUS
 10
0.856874
 20
-3.238846
  0
VERTEX
  8
PLAN_1
  6
CONTINUOUS
 10
0.859862
 20
-3.230311
  0
VERTEX
  8
PLAN_1
  6
CONTINUOUS
 10
0.863701
 20
-3.222197
  0
VERTEX
  8
PLAN_1
  6
CONTINUOUS
 10
0.865409
 20
-3.218358
  0
VERTEX
  8
PLAN_1
  6
CONTINUOUS
 10
0.867972
 20
-3.214941
  0
VERTEX
  8
PLAN_1
  6
CONTINUOUS
 10
0.870531
 20
-3.211098
  0
VERTEX
  8
PLAN_1
  6
CONTINUOUS
 10
0.873094
 20
-3.208110
  0
VERTEX
  8
PLAN_1
  6
CONTINUOUS
 10
0.875654
 20
-3.204697
  0
VERTEX
  8
PLAN_1
  6
CONTINUOUS
 10
0.879071
 20
-3.201709
  0
VERTEX
  8
PLAN_1
  6
CONTINUOUS
 10
0.882059
 20
-3.199146
  0
VERTEX
  8
PLAN_1
  6
CONTINUOUS
 10
0.885472
 20
-3.196587
  0
VERTEX
  8
PLAN_1
  6
CONTINUOUS
 10
0.889315
 20
-3.194024
  0
VERTEX
  8
PLAN_1
  6
CONTINUOUS
 10
0.893157
 20
-3.192319
  0
VERTEX
  8
PLAN_1
  6
CONTINUOUS
 10
0.897425
 20
-3.190181
  0
VERTEX
  8
PLAN_1
  6
CONTINUOUS
 10
0.901693
 20
-3.188902
  0
VERTEX
  8
PLAN_1
  6
CONTINUOUS
 10
0.906390
 20
-3.187622
  0
VERTEX
  8
PLAN_1
  6
CONTINUOUS
 10
0.911087
 20
-3.186768
  0
VERTEX
  8
PLAN_1
  6
CONTINUOUS
 10
0.916209
 20
-3.186343
  0
VERTEX
  8
PLAN_1
  6
CONTINUOUS
 10
0.921331
 20
-3.186343
  0
VERTEX
  8
PLAN_1
  6
CONTINUOUS
 10
0.925598
 20
-3.186343
  0
VERTEX
  8
PLAN_1
  6
CONTINUOUS
 10
0.930295
 20
-3.186768
  0
VERTEX
  8
PLAN_1
  6
CONTINUOUS
 10
0.934992
 20
-3.187622
  0
VERTEX
  8
PLAN_1
  6
CONTINUOUS
 10
0.939260
 20
-3.188902
  0
VERTEX
  8
PLAN_1
  6
CONTINUOUS
 10
0.943957
 20
-3.190181
  0
VERTEX
  8
PLAN_1
  6
CONTINUOUS
 10
0.948650
 20
-3.192319
  0
VERTEX
  8
PLAN_1
  6
CONTINUOUS
 10
0.952917
 20
-3.194453
  0
VERTEX
  8
PLAN_1
  6
CONTINUOUS
 10
0.957189
 20
-3.197441
  0
VERTEX
  8
PLAN_1
  6
CONTINUOUS
 10
0.961457
 20
-3.200429
  0
VERTEX
  8
PLAN_1
  6
CONTINUOUS
 10
0.965299
 20
-3.204272
  0
VERTEX
  8
PLAN_1
  6
CONTINUOUS
 10
0.968713
 20
-3.208539
  0
VERTEX
  8
PLAN_1
  6
CONTINUOUS
 10
0.971701
 20
-3.213232
  0
VERTEX
  8
PLAN_1
  6
CONTINUOUS
 10
0.974264
 20
-3.218358
  0
VERTEX
  8
PLAN_1
  6
CONTINUOUS
 10
0.975972
 20
-3.224335
  0
VERTEX
  8
PLAN_1
  6
CONTINUOUS
 10
0.977677
 20
-3.231161
  0
VERTEX
  8
PLAN_1
  6
CONTINUOUS
 10
0.978531
 20
-3.237992
  0
VERTEX
  8
PLAN_1
  6
CONTINUOUS
 10
0.954626
 20
-3.237992
  0
SEQEND
  8
0
  0
POLYLINE
  8
PLAN_1
  6
CONTINUOUS
 66
     1
 40
0.003000
 41
0.003000
  0
VERTEX
  8
PLAN_1
  6
CONTINUOUS
 10
0.918768
 20
-3.364776
  0
VERTEX
  8
PLAN_1
  6
CONTINUOUS
 10
0.923039
 20
-3.364346
  0
VERTEX
  8
PLAN_1
  6
CONTINUOUS
 10
0.927307
 20
-3.363921
  0
VERTEX
  8
PLAN_1
  6
CONTINUOUS
 10
0.931150
 20
-3.362642
  0
VERTEX
  8
PLAN_1
  6
CONTINUOUS
 10
0.934563
 20
-3.361358
  0
VERTEX
  8
PLAN_1
  6
CONTINUOUS
 10
0.937980
 20
-3.359654
  0
VERTEX
  8
PLAN_1
  6
CONTINUOUS
 10
0.941394
 20
-3.357520
  0
VERTEX
  8
PLAN_1
  6
CONTINUOUS
 10
0.944382
 20
-3.354957
  0
VERTEX
  8
PLAN_1
  6
CONTINUOUS
 10
0.946945
 20
-3.352394
  0
VERTEX
  8
PLAN_1
  6
CONTINUOUS
 10
0.949079
 20
-3.348980
  0
VERTEX
  8
PLAN_1
  6
CONTINUOUS
 10
0.951213
 20
-3.345567
  0
VERTEX
  8
PLAN_1
  6
CONTINUOUS
 10
0.952917
 20
-3.342150
  0
VERTEX
  8
PLAN_1
  6
CONTINUOUS
 10
0.954626
 20
-3.337882
  0
VERTEX
  8
PLAN_1
  6
CONTINUOUS
 10
0.955480
 20
-3.334039
  0
VERTEX
  8
PLAN_1
  6
CONTINUOUS
 10
0.956335
 20
-3.329343
  0
VERTEX
  8
PLAN_1
  6
CONTINUOUS
 10
0.957189
 20
-3.324650
  0
VERTEX
  8
PLAN_1
  6
CONTINUOUS
 10
0.957189
 20
-3.319953
  0
VERTEX
  8
PLAN_1
  6
CONTINUOUS
 10
0.957189
 20
-3.316539
  0
VERTEX
  8
PLAN_1
  6
CONTINUOUS
 10
0.956760
 20
-3.313122
  0
VERTEX
  8
PLAN_1
  6
CONTINUOUS
 10
0.956335
 20
-3.309709
  0
VERTEX
  8
PLAN_1
  6
CONTINUOUS
 10
0.955480
 20
-3.306291
  0
VERTEX
  8
PLAN_1
  6
CONTINUOUS
 10
0.954201
 20
-3.302878
  0
VERTEX
  8
PLAN_1
  6
CONTINUOUS
 10
0.952917
 20
-3.299465
  0
VERTEX
  8
PLAN_1
  6
CONTINUOUS
 10
0.950783
 20
-3.296047
  0
VERTEX
  8
PLAN_1
  6
CONTINUOUS
 10
0.949079
 20
-3.293059
  0
VERTEX
  8
PLAN_1
  6
CONTINUOUS
 10
0.946516
 20
-3.290071
  0
VERTEX
  8
PLAN_1
  6
CONTINUOUS
 10
0.943528
 20
-3.287512
  0
VERTEX
  8
PLAN_1
  6
CONTINUOUS
 10
0.940539
 20
-3.284949
  0
VERTEX
  8
PLAN_1
  6
CONTINUOUS
 10
0.936697
 20
-3.282815
  0
VERTEX
  8
PLAN_1
  6
CONTINUOUS
 10
0.932854
 20
-3.281106
  0
VERTEX
  8
PLAN_1
  6
CONTINUOUS
 10
0.928161
 20
-3.279827
  0
VERTEX
  8
PLAN_1
  6
CONTINUOUS
 10
0.923039
 20
-3.278972
  0
VERTEX
  8
PLAN_1
  6
CONTINUOUS
 10
0.917917
 20
-3.278972
  0
VERTEX
  8
PLAN_1
  6
CONTINUOUS
 10
0.912791
 20
-3.278972
  0
VERTEX
  8
PLAN_1
  6
CONTINUOUS
 10
0.908524
 20
-3.279827
  0
VERTEX
  8
PLAN_1
  6
CONTINUOUS
 10
0.904256
 20
-3.280681
  0
VERTEX
  8
PLAN_1
  6
CONTINUOUS
 10
0.900413
 20
-3.282390
  0
VERTEX
  8
PLAN_1
  6
CONTINUOUS
 10
0.896571
 20
-3.284094
  0
VERTEX
  8
PLAN_1
  6
CONTINUOUS
 10
0.893157
 20
-3.286228
  0
VERTEX
  8
PLAN_1
  6
CONTINUOUS
 10
0.890594
 20
-3.288791
  0
VERTEX
  8
PLAN_1
  6
CONTINUOUS
 10
0.887606
 20
-3.291350
  0
VERTEX
  8
PLAN_1
  6
CONTINUOUS
 10
0.885472
 20
-3.294339
  0
VERTEX
  8
PLAN_1
  6
CONTINUOUS
 10
0.883339
 20
-3.297756
  0
VERTEX
  8
PLAN_1
  6
CONTINUOUS
 10
0.881630
 20
-3.301169
  0
VERTEX
  8
PLAN_1
  6
CONTINUOUS
 10
0.880350
 20
-3.305012
  0
VERTEX
  8
PLAN_1
  6
CONTINUOUS
 10
0.879071
 20
-3.308854
  0
VERTEX
  8
PLAN_1
  6
CONTINUOUS
 10
0.878642
 20
-3.313122
  0
VERTEX
  8
PLAN_1
  6
CONTINUOUS
 10
0.878217
 20
-3.316965
  0
VERTEX
  8
PLAN_1
  6
CONTINUOUS
 10
0.877787
 20
-3.321232
  0
VERTEX
  8
PLAN_1
  6
CONTINUOUS
 10
0.877787
 20
-3.325075
  0
VERTEX
  8
PLAN_1
  6
CONTINUOUS
 10
0.878642
 20
-3.329343
  0
VERTEX
  8
PLAN_1
  6
CONTINUOUS
 10
0.879071
 20
-3.333185
  0
VERTEX
  8
PLAN_1
  6
CONTINUOUS
 10
0.880350
 20
-3.337028
  0
VERTEX
  8
PLAN_1
  6
CONTINUOUS
 10
0.881630
 20
-3.340445
  0
VERTEX
  8
PLAN_1
  6
CONTINUOUS
 10
0.883339
 20
-3.344283
  0
VERTEX
  8
PLAN_1
  6
CONTINUOUS
 10
0.885472
 20
-3.347701
  0
VERTEX
  8
PLAN_1
  6
CONTINUOUS
 10
0.887606
 20
-3.350689
  0
VERTEX
  8
PLAN_1
  6
CONTINUOUS
 10
0.890169
 20
-3.353677
  0
VERTEX
  8
PLAN_1
  6
CONTINUOUS
 10
0.893583
 20
-3.356236
  0
VERTEX
  8
PLAN_1
  6
CONTINUOUS
 10
0.896571
 20
-3.358799
  0
VERTEX
  8
PLAN_1
  6
CONTINUOUS
 10
0.900413
 20
-3.360933
  0
VERTEX
  8
PLAN_1
  6
CONTINUOUS
 10
0.904681
 20
-3.362642
  0
VERTEX
  8
PLAN_1
  6
CONTINUOUS
 10
0.908953
 20
-3.363496
  0
VERTEX
  8
PLAN_1
  6
CONTINUOUS
 10
0.913646
 20
-3.364346
  0
VERTEX
  8
PLAN_1
  6
CONTINUOUS
 10
0.918768
 20
-3.364776
  0
SEQEND
  8
0
  0
POLYLINE
  8
PLAN_1
  6
CONTINUOUS
 66
     1
 40
0.003000
 41
0.003000
  0
VERTEX
  8
PLAN_1
  6
CONTINUOUS
 10
1.108728
 20
-3.237992
  0
VERTEX
  8
PLAN_1
  6
CONTINUOUS
 10
1.107449
 20
-3.232016
  0
VERTEX
  8
PLAN_1
  6
CONTINUOUS
 10
1.105315
 20
-3.226039
  0
VERTEX
  8
PLAN_1
  6
CONTINUOUS
 10
1.104031
 20
-3.223480
  0
VERTEX
  8
PLAN_1
  6
CONTINUOUS
 10
1.102327
 20
-3.220917
  0
VERTEX
  8
PLAN_1
  6
CONTINUOUS
 10
1.100618
 20
-3.218783
  0
VERTEX
  8
PLAN_1
  6
CONTINUOUS
 10
1.098909
 20
-3.216650
  0
VERTEX
  8
PLAN_1
  6
CONTINUOUS
 10
1.096776
 20
-3.214941
  0
VERTEX
  8
PLAN_1
  6
CONTINUOUS
 10
1.094217
 20
-3.213232
  0
VERTEX
  8
PLAN_1
  6
CONTINUOUS
 10
1.091654
 20
-3.211528
  0
VERTEX
  8
PLAN_1
  6
CONTINUOUS
 10
1.089091
 20
-3.210244
  0
VERTEX
  8
PLAN_1
  6
CONTINUOUS
 10
1.086102
 20
-3.209394
  0
VERTEX
  8
PLAN_1
  6
CONTINUOUS
 10
1.082689
 20
-3.208539
  0
VERTEX
  8
PLAN_1
  6
CONTINUOUS
 10
1.079276
 20
-3.208110
  0
VERTEX
  8
PLAN_1
  6
CONTINUOUS
 10
1.075433
 20
-3.208110
  0
VERTEX
  8
PLAN_1
  6
CONTINUOUS
 10
1.071591
 20
-3.208110
  0
VERTEX
  8
PLAN_1
  6
CONTINUOUS
 10
1.068602
 20
-3.208539
  0
VERTEX
  8
PLAN_1
  6
CONTINUOUS
 10
1.065189
 20
-3.209394
  0
VERTEX
  8
PLAN_1
  6
CONTINUOUS
 10
1.062201
 20
-3.210244
  0
VERTEX
  8
PLAN_1
  6
CONTINUOUS
 10
1.059638
 20
-3.211528
  0
VERTEX
  8
PLAN_1
  6
CONTINUOUS
 10
1.056650
 20
-3.212807
  0
VERTEX
  8
PLAN_1
  6
CONTINUOUS
 10
1.054091
 20
-3.214516
  0
VERTEX
  8
PLAN_1
  6
CONTINUOUS
 10
1.051953
 20
-3.216650
  0
VERTEX
  8
PLAN_1
  6
CONTINUOUS
 10
1.047685
 20
-3.220917
  0
VERTEX
  8
PLAN_1
  6
CONTINUOUS
 10
1.043843
 20
-3.225614
  0
VERTEX
  8
PLAN_1
  6
CONTINUOUS
 10
1.040429
 20
-3.230736
  0
VERTEX
  8
PLAN_1
  6
CONTINUOUS
 10
1.037866
 20
-3.236283
  0
VERTEX
  8
PLAN_1
  6
CONTINUOUS
 10
1.035307
 20
-3.242260
  0
VERTEX
  8
PLAN_1
  6
CONTINUOUS
 10
1.033598
 20
-3.248236
  0
VERTEX
  8
PLAN_1
  6
CONTINUOUS
 10
1.031890
 20
-3.254642
  0
VERTEX
  8
PLAN_1
  6
CONTINUOUS
 10
1.030610
 20
-3.260189
  0
VERTEX
  8
PLAN_1
  6
CONTINUOUS
 10
1.029331
 20
-3.271287
  0
VERTEX
  8
PLAN_1
  6
CONTINUOUS
 10
1.028902
 20
-3.280252
  0
VERTEX
  8
PLAN_1
  6
CONTINUOUS
 10
1.029331
 20
-3.280681
  0
VERTEX
  8
PLAN_1
  6
CONTINUOUS
 10
1.032319
 20
-3.276839
  0
VERTEX
  8
PLAN_1
  6
CONTINUOUS
 10
1.035732
 20
-3.272571
  0
VERTEX
  8
PLAN_1
  6
CONTINUOUS
 10
1.039575
 20
-3.268728
  0
VERTEX
  8
PLAN_1
  6
CONTINUOUS
 10
1.045126
 20
-3.264886
  0
VERTEX
  8
PLAN_1
  6
CONTINUOUS
 10
1.047685
 20
-3.263177
  0
VERTEX
  8
PLAN_1
  6
CONTINUOUS
 10
1.051102
 20
-3.261898
  0
VERTEX
  8
PLAN_1
  6
CONTINUOUS
 10
1.054516
 20
-3.260189
  0
VERTEX
  8
PLAN_1
  6
CONTINUOUS
 10
1.058358
 20
-3.259339
  0
VERTEX
  8
PLAN_1
  6
CONTINUOUS
 10
1.062201
 20
-3.258055
  0
VERTEX
  8
PLAN_1
  6
CONTINUOUS
 10
1.066469
 20
-3.257630
  0
VERTEX
  8
PLAN_1
  6
CONTINUOUS
 10
1.071165
 20
-3.257201
  0
VERTEX
  8
PLAN_1
  6
CONTINUOUS
 10
1.075858
 20
-3.256776
  0
VERTEX
  8
PLAN_1
  6
CONTINUOUS
 10
1.080555
 20
-3.257201
  0
VERTEX
  8
PLAN_1
  6
CONTINUOUS
 10
1.085252
 20
-3.257630
  0
VERTEX
  8
PLAN_1
  6
CONTINUOUS
 10
1.090374
 20
-3.258484
  0
VERTEX
  8
PLAN_1
  6
CONTINUOUS
 10
1.095496
 20
-3.260189
  0
VERTEX
  8
PLAN_1
  6
CONTINUOUS
 10
1.100618
 20
-3.261898
  0
VERTEX
  8
PLAN_1
  6
CONTINUOUS
 10
1.105740
 20
-3.264461
  0
VERTEX
  8
PLAN_1
  6
CONTINUOUS
 10
1.110437
 20
-3.267020
  0
VERTEX
  8
PLAN_1
  6
CONTINUOUS
 10
1.115130
 20
-3.270437
  0
VERTEX
  8
PLAN_1
  6
CONTINUOUS
 10
1.119827
 20
-3.274276
  0
VERTEX
  8
PLAN_1
  6
CONTINUOUS
 10
1.123669
 20
-3.278972
  0
VERTEX
  8
PLAN_1
  6
CONTINUOUS
 10
1.127512
 20
-3.283669
  0
VERTEX
  8
PLAN_1
  6
CONTINUOUS
 10
1.130500
 20
-3.289646
  0
VERTEX
  8
PLAN_1
  6
CONTINUOUS
 10
1.133488
 20
-3.296047
  0
VERTEX
  8
PLAN_1
  6
CONTINUOUS
 10
1.135197
 20
-3.302878
  0
VERTEX
  8
PLAN_1
  6
CONTINUOUS
 10
1.136047
 20
-3.306720
  0
VERTEX
  8
PLAN_1
  6
CONTINUOUS
 10
1.136476
 20
-3.310563
  0
VERTEX
  8
PLAN_1
  6
CONTINUOUS
 10
1.136902
 20
-3.314402
  0
VERTEX
  8
PLAN_1
  6
CONTINUOUS
 10
1.136902
 20
-3.318673
  0
VERTEX
  8
PLAN_1
  6
CONTINUOUS
 10
1.136476
 20
-3.325929
  0
VERTEX
  8
PLAN_1
  6
CONTINUOUS
 10
1.136047
 20
-3.332760
  0
VERTEX
  8
PLAN_1
  6
CONTINUOUS
 10
1.134343
 20
-3.339161
  0
VERTEX
  8
PLAN_1
  6
CONTINUOUS
 10
1.132634
 20
-3.345567
  0
VERTEX
  8
PLAN_1
  6
CONTINUOUS
 10
1.130071
 20
-3.351114
  0
VERTEX
  8
PLAN_1
  6
CONTINUOUS
 10
1.126657
 20
-3.356665
  0
VERTEX
  8
PLAN_1
  6
CONTINUOUS
 10
1.122815
 20
-3.362213
  0
VERTEX
  8
PLAN_1
  6
CONTINUOUS
 10
1.118118
 20
-3.367764
  0
VERTEX
  8
PLAN_1
  6
CONTINUOUS
 10
1.114280
 20
-3.371606
  0
VERTEX
  8
PLAN_1
  6
CONTINUOUS
 10
1.110008
 20
-3.375445
  0
VERTEX
  8
PLAN_1
  6
CONTINUOUS
 10
1.105315
 20
-3.378862
  0
VERTEX
  8
PLAN_1
  6
CONTINUOUS
 10
1.100193
 20
-3.381421
  0
VERTEX
  8
PLAN_1
  6
CONTINUOUS
 10
1.093787
 20
-3.383559
  0
VERTEX
  8
PLAN_1
  6
CONTINUOUS
 10
1.086531
 20
-3.385264
  0
VERTEX
  8
PLAN_1
  6
CONTINUOUS
 10
1.078421
 20
-3.386118
  0
VERTEX
  8
PLAN_1
  6
CONTINUOUS
 10
1.069028
 20
-3.386547
  0
VERTEX
  8
PLAN_1
  6
CONTINUOUS
 10
1.063051
 20
-3.386118
  0
VERTEX
  8
PLAN_1
  6
CONTINUOUS
 10
1.056650
 20
-3.385264
  0
VERTEX
  8
PLAN_1
  6
CONTINUOUS
 10
1.050248
 20
-3.383130
  0
VERTEX
  8
PLAN_1
  6
CONTINUOUS
 10
1.043417
 20
-3.380571
  0
VERTEX
  8
PLAN_1
  6
CONTINUOUS
 10
1.040000
 20
-3.378862
  0
VERTEX
  8
PLAN_1
  6
CONTINUOUS
 10
1.036587
 20
-3.376728
  0
VERTEX
  8
PLAN_1
  6
CONTINUOUS
 10
1.033598
 20
-3.374594
  0
VERTEX
  8
PLAN_1
  6
CONTINUOUS
 10
1.030185
 20
-3.372031
  0
VERTEX
  8
PLAN_1
  6
CONTINUOUS
 10
1.027197
 20
-3.369043
  0
VERTEX
  8
PLAN_1
  6
CONTINUOUS
 10
1.024209
 20
-3.365630
  0
VERTEX
  8
PLAN_1
  6
CONTINUOUS
 10
1.021220
 20
-3.362213
  0
VERTEX
  8
PLAN_1
  6
CONTINUOUS
 10
1.018657
 20
-3.358370
  0
VERTEX
  8
PLAN_1
  6
CONTINUOUS
 10
1.016524
 20
-3.354957
  0
VERTEX
  8
PLAN_1
  6
CONTINUOUS
 10
1.014815
 20
-3.351114
  0
VERTEX
  8
PLAN_1
  6
CONTINUOUS
 10
1.013110
 20
-3.347272
  0
VERTEX
  8
PLAN_1
  6
CONTINUOUS
 10
1.011402
 20
-3.343429
  0
VERTEX
  8
PLAN_1
  6
CONTINUOUS
 10
1.008839
 20
-3.335319
  0
VERTEX
  8
PLAN_1
  6
CONTINUOUS
 10
1.006705
 20
-3.327209
  0
VERTEX
  8
PLAN_1
  6
CONTINUOUS
 10
1.005425
 20
-3.318244
  0
VERTEX
  8
PLAN_1
  6
CONTINUOUS
 10
1.004146
 20
-3.309280
  0
VERTEX
  8
PLAN_1
  6
CONTINUOUS
 10
1.003717
 20
-3.299890
  0
VERTEX
  8
PLAN_1
  6
CONTINUOUS
 10
1.003717
 20
-3.290500
  0
VERTEX
  8
PLAN_1
  6
CONTINUOUS
 10
1.003717
 20
-3.282390
  0
VERTEX
  8
PLAN_1
  6
CONTINUOUS
 10
1.004571
 20
-3.273850
  0
VERTEX
  8
PLAN_1
  6
CONTINUOUS
 10
1.005425
 20
-3.264886
  0
VERTEX
  8
PLAN_1
  6
CONTINUOUS
 10
1.006705
 20
-3.256350
  0
VERTEX
  8
PLAN_1
  6
CONTINUOUS
 10
1.008839
 20
-3.247386
  0
VERTEX
  8
PLAN_1
  6
CONTINUOUS
 10
1.010972
 20
-3.238846
  0
VERTEX
  8
PLAN_1
  6
CONTINUOUS
 10
1.013961
 20
-3.230311
  0
VERTEX
  8
PLAN_1
  6
CONTINUOUS
 10
1.017803
 20
-3.222197
  0
VERTEX
  8
PLAN_1
  6
CONTINUOUS
 10
1.019937
 20
-3.218358
  0
VERTEX
  8
PLAN_1
  6
CONTINUOUS
 10
1.022075
 20
-3.214941
  0
VERTEX
  8
PLAN_1
  6
CONTINUOUS
 10
1.024634
 20
-3.211098
  0
VERTEX
  8
PLAN_1
  6
CONTINUOUS
 10
1.027197
 20
-3.208110
  0
VERTEX
  8
PLAN_1
  6
CONTINUOUS
 10
1.030185
 20
-3.204697
  0
VERTEX
  8
PLAN_1
  6
CONTINUOUS
 10
1.033173
 20
-3.201709
  0
VERTEX
  8
PLAN_1
  6
CONTINUOUS
 10
1.036587
 20
-3.199146
  0
VERTEX
  8
PLAN_1
  6
CONTINUOUS
 10
1.040000
 20
-3.196587
  0
VERTEX
  8
PLAN_1
  6
CONTINUOUS
 10
1.043417
 20
-3.194024
  0
VERTEX
  8
PLAN_1
  6
CONTINUOUS
 10
1.047685
 20
-3.192319
  0
VERTEX
  8
PLAN_1
  6
CONTINUOUS
 10
1.051528
 20
-3.190181
  0
VERTEX
  8
PLAN_1
  6
CONTINUOUS
 10
1.055795
 20
-3.188902
  0
VERTEX
  8
PLAN_1
  6
CONTINUOUS
 10
1.060492
 20
-3.187622
  0
VERTEX
  8
PLAN_1
  6
CONTINUOUS
 10
1.065189
 20
-3.186768
  0
VERTEX
  8
PLAN_1
  6
CONTINUOUS
 10
1.070311
 20
-3.186343
  0
VERTEX
  8
PLAN_1
  6
CONTINUOUS
 10
1.075858
 20
-3.186343
  0
VERTEX
  8
PLAN_1
  6
CONTINUOUS
 10
1.080130
 20
-3.186343
  0
VERTEX
  8
PLAN_1
  6
CONTINUOUS
 10
1.084398
 20
-3.186768
  0
VERTEX
  8
PLAN_1
  6
CONTINUOUS
 10
1.089091
 20
-3.187622
  0
VERTEX
  8
PLAN_1
  6
CONTINUOUS
 10
1.093787
 20
-3.188902
  0
VERTEX
  8
PLAN_1
  6
CONTINUOUS
 10
1.098484
 20
-3.190181
  0
VERTEX
  8
PLAN_1
  6
CONTINUOUS
 10
1.103181
 20
-3.192319
  0
VERTEX
  8
PLAN_1
  6
CONTINUOUS
 10
1.107449
 20
-3.194453
  0
VERTEX
  8
PLAN_1
  6
CONTINUOUS
 10
1.111717
 20
-3.197441
  0
VERTEX
  8
PLAN_1
  6
CONTINUOUS
 10
1.115984
 20
-3.200429
  0
VERTEX
  8
PLAN_1
  6
CONTINUOUS
 10
1.119402
 20
-3.204272
  0
VERTEX
  8
PLAN_1
  6
CONTINUOUS
 10
1.122815
 20
-3.208539
  0
VERTEX
  8
PLAN_1
  6
CONTINUOUS
 10
1.125803
 20
-3.213232
  0
VERTEX
  8
PLAN_1
  6
CONTINUOUS
 10
1.128366
 20
-3.218358
  0
VERTEX
  8
PLAN_1
  6
CONTINUOUS
 10
1.130500
 20
-3.224335
  0
VERTEX
  8
PLAN_1
  6
CONTINUOUS
 10
1.131780
 20
-3.231161
  0
VERTEX
  8
PLAN_1
  6
CONTINUOUS
 10
1.132634
 20
-3.237992
  0
VERTEX
  8
PLAN_1
  6
CONTINUOUS
 10
1.108728
 20
-3.237992
  0
SEQEND
  8
0
  0
POLYLINE
  8
PLAN_1
  6
CONTINUOUS
 66
     1
 40
0.003000
 41
0.003000
  0
VERTEX
  8
PLAN_1
  6
CONTINUOUS
 10
1.073299
 20
-3.364776
  0
VERTEX
  8
PLAN_1
  6
CONTINUOUS
 10
1.077567
 20
-3.364346
  0
VERTEX
  8
PLAN_1
  6
CONTINUOUS
 10
1.081835
 20
-3.363921
  0
VERTEX
  8
PLAN_1
  6
CONTINUOUS
 10
1.085677
 20
-3.362642
  0
VERTEX
  8
PLAN_1
  6
CONTINUOUS
 10
1.089091
 20
-3.361358
  0
VERTEX
  8
PLAN_1
  6
CONTINUOUS
 10
1.092508
 20
-3.359654
  0
VERTEX
  8
PLAN_1
  6
CONTINUOUS
 10
1.095496
 20
-3.357520
  0
VERTEX
  8
PLAN_1
  6
CONTINUOUS
 10
1.098484
 20
-3.354957
  0
VERTEX
  8
PLAN_1
  6
CONTINUOUS
 10
1.101043
 20
-3.352394
  0
VERTEX
  8
PLAN_1
  6
CONTINUOUS
 10
1.103606
 20
-3.348980
  0
VERTEX
  8
PLAN_1
  6
CONTINUOUS
 10
1.105740
 20
-3.345567
  0
VERTEX
  8
PLAN_1
  6
CONTINUOUS
 10
1.107449
 20
-3.342150
  0
VERTEX
  8
PLAN_1
  6
CONTINUOUS
 10
1.108728
 20
-3.337882
  0
VERTEX
  8
PLAN_1
  6
CONTINUOUS
 10
1.110008
 20
-3.334039
  0
VERTEX
  8
PLAN_1
  6
CONTINUOUS
 10
1.110862
 20
-3.329343
  0
VERTEX
  8
PLAN_1
  6
CONTINUOUS
 10
1.111291
 20
-3.324650
  0
VERTEX
  8
PLAN_1
  6
CONTINUOUS
 10
1.111717
 20
-3.319953
  0
VERTEX
  8
PLAN_1
  6
CONTINUOUS
 10
1.111717
 20
-3.316539
  0
VERTEX
  8
PLAN_1
  6
CONTINUOUS
 10
1.111291
 20
-3.313122
  0
VERTEX
  8
PLAN_1
  6
CONTINUOUS
 10
1.110437
 20
-3.309709
  0
VERTEX
  8
PLAN_1
  6
CONTINUOUS
 10
1.109583
 20
-3.306291
  0
VERTEX
  8
PLAN_1
  6
CONTINUOUS
 10
1.108728
 20
-3.302878
  0
VERTEX
  8
PLAN_1
  6
CONTINUOUS
 10
1.107020
 20
-3.299465
  0
VERTEX
  8
PLAN_1
  6
CONTINUOUS
 10
1.105315
 20
-3.296047
  0
VERTEX
  8
PLAN_1
  6
CONTINUOUS
 10
1.103181
 20
-3.293059
  0
VERTEX
  8
PLAN_1
  6
CONTINUOUS
 10
1.100618
 20
-3.290071
  0
VERTEX
  8
PLAN_1
  6
CONTINUOUS
 10
1.098055
 20
-3.287512
  0
VERTEX
  8
PLAN_1
  6
CONTINUOUS
 10
1.094642
 20
-3.284949
  0
VERTEX
  8
PLAN_1
  6
CONTINUOUS
 10
1.091228
 20
-3.282815
  0
VERTEX
  8
PLAN_1
  6
CONTINUOUS
 10
1.086957
 20
-3.281106
  0
VERTEX
  8
PLAN_1
  6
CONTINUOUS
 10
1.082689
 20
-3.279827
  0
VERTEX
  8
PLAN_1
  6
CONTINUOUS
 10
1.077567
 20
-3.278972
  0
VERTEX
  8
PLAN_1
  6
CONTINUOUS
 10
1.072016
 20
-3.278972
  0
VERTEX
  8
PLAN_1
  6
CONTINUOUS
 10
1.067323
 20
-3.278972
  0
VERTEX
  8
PLAN_1
  6
CONTINUOUS
 10
1.062626
 20
-3.279827
  0
VERTEX
  8
PLAN_1
  6
CONTINUOUS
 10
1.058358
 20
-3.280681
  0
VERTEX
  8
PLAN_1
  6
CONTINUOUS
 10
1.054516
 20
-3.282390
  0
VERTEX
  8
PLAN_1
  6
CONTINUOUS
 10
1.051102
 20
-3.284094
  0
VERTEX
  8
PLAN_1
  6
CONTINUOUS
 10
1.047685
 20
-3.286228
  0
VERTEX
  8
PLAN_1
  6
CONTINUOUS
 10
1.044697
 20
-3.288791
  0
VERTEX
  8
PLAN_1
  6
CONTINUOUS
 10
1.042138
 20
-3.291350
  0
VERTEX
  8
PLAN_1
  6
CONTINUOUS
 10
1.040000
 20
-3.294339
  0
VERTEX
  8
PLAN_1
  6
CONTINUOUS
 10
1.037866
 20
-3.297756
  0
VERTEX
  8
PLAN_1
  6
CONTINUOUS
 10
1.036161
 20
-3.301169
  0
VERTEX
  8
PLAN_1
  6
CONTINUOUS
 10
1.034878
 20
-3.305012
  0
VERTEX
  8
PLAN_1
  6
CONTINUOUS
 10
1.033598
 20
-3.308854
  0
VERTEX
  8
PLAN_1
  6
CONTINUOUS
 10
1.032744
 20
-3.313122
  0
VERTEX
  8
PLAN_1
  6
CONTINUOUS
 10
1.032319
 20
-3.316965
  0
VERTEX
  8
PLAN_1
  6
CONTINUOUS
 10
1.032319
 20
-3.321232
  0
VERTEX
  8
PLAN_1
  6
CONTINUOUS
 10
1.032319
 20
-3.325075
  0
VERTEX
  8
PLAN_1
  6
CONTINUOUS
 10
1.032744
 20
-3.329343
  0
VERTEX
  8
PLAN_1
  6
CONTINUOUS
 10
1.033598
 20
-3.333185
  0
VERTEX
  8
PLAN_1
  6
CONTINUOUS
 10
1.034453
 20
-3.337028
  0
VERTEX
  8
PLAN_1
  6
CONTINUOUS
 10
1.036161
 20
-3.340445
  0
VERTEX
  8
PLAN_1
  6
CONTINUOUS
 10
1.037866
 20
-3.344283
  0
VERTEX
  8
PLAN_1
  6
CONTINUOUS
 10
1.039575
 20
-3.347701
  0
VERTEX
  8
PLAN_1
  6
CONTINUOUS
 10
1.042138
 20
-3.350689
  0
VERTEX
  8
PLAN_1
  6
CONTINUOUS
 10
1.044697
 20
-3.353677
  0
VERTEX
  8
PLAN_1
  6
CONTINUOUS
 10
1.047685
 20
-3.356236
  0
VERTEX
  8
PLAN_1
  6
CONTINUOUS
 10
1.051102
 20
-3.358799
  0
VERTEX
  8
PLAN_1
  6
CONTINUOUS
 10
1.054941
 20
-3.360933
  0
VERTEX
  8
PLAN_1
  6
CONTINUOUS
 10
1.058783
 20
-3.362642
  0
VERTEX
  8
PLAN_1
  6
CONTINUOUS
 10
1.063480
 20
-3.363496
  0
VERTEX
  8
PLAN_1
  6
CONTINUOUS
 10
1.068177
 20
-3.364346
  0
VERTEX
  8
PLAN_1
  6
CONTINUOUS
 10
1.073299
 20
-3.364776
  0
SEQEND
  8
0
  0
SOLID
  8
PLAN_1
 10
1.147575
 20
-3.416000
 11
1.147575
 21
-3.401913
 12
1.301677
 22
-3.416000
 13
1.301677
 23
-3.401913
  0
POLYLINE
  8
PLAN_1
  6
CONTINUOUS
 66
     1
 40
0.003000
 41
0.003000
  0
VERTEX
  8
PLAN_1
  6
CONTINUOUS
 10
1.147575
 20
-3.416000
  0
VERTEX
  8
PLAN_1
  6
CONTINUOUS
 10
1.147575
 20
-3.401913
  0
VERTEX
  8
PLAN_1
  6
CONTINUOUS
 10
1.301677
 20
-3.401913
  0
VERTEX
  8
PLAN_1
  6
CONTINUOUS
 10
1.301677
 20
-3.416000
  0
VERTEX
  8
PLAN_1
  6
CONTINUOUS
 10
1.147575
 20
-3.416000
  0
SEQEND
  8
0
  0
POLYLINE
  8
PLAN_1
  6
CONTINUOUS
 66
     1
 40
0.003000
 41
0.003000
  0
VERTEX
  8
PLAN_1
  6
CONTINUOUS
 10
1.352472
 20
-3.381421
  0
VERTEX
  8
PLAN_1
  6
CONTINUOUS
 10
1.325583
 20
-3.381421
  0
VERTEX
  8
PLAN_1
  6
CONTINUOUS
 10
1.325583
 20
-3.182071
  0
VERTEX
  8
PLAN_1
  6
CONTINUOUS
 10
1.463461
 20
-3.182071
  0
VERTEX
  8
PLAN_1
  6
CONTINUOUS
 10
1.463461
 20
-3.205976
  0
VERTEX
  8
PLAN_1
  6
CONTINUOUS
 10
1.352472
 20
-3.205976
  0
VERTEX
  8
PLAN_1
  6
CONTINUOUS
 10
1.352472
 20
-3.267020
  0
VERTEX
  8
PLAN_1
  6
CONTINUOUS
 10
1.450228
 20
-3.267020
  0
VERTEX
  8
PLAN_1
  6
CONTINUOUS
 10
1.450228
 20
-3.290925
  0
VERTEX
  8
PLAN_1
  6
CONTINUOUS
 10
1.352472
 20
-3.290925
  0
VERTEX
  8
PLAN_1
  6
CONTINUOUS
 10
1.352472
 20
-3.381421
  0
SEQEND
  8
0
  0
SOLID
  8
PLAN_1
 10
1.482669
 20
-3.381421
 11
1.454071
 21
-3.381421
 12
1.482669
 22
-3.351969
 13
1.454071
 23
-3.351969
  0
POLYLINE
  8
PLAN_1
  6
CONTINUOUS
 66
     1
 40
0.003000
 41
0.003000
  0
VERTEX
  8
PLAN_1
  6
CONTINUOUS
 10
1.482669
 20
-3.381421
  0
VERTEX
  8
PLAN_1
  6
CONTINUOUS
 10
1.454071
 20
-3.381421
  0
VERTEX
  8
PLAN_1
  6
CONTINUOUS
 10
1.454071
 20
-3.351969
  0
VERTEX
  8
PLAN_1
  6
CONTINUOUS
 10
1.482669
 20
-3.351969
  0
VERTEX
  8
PLAN_1
  6
CONTINUOUS
 10
1.482669
 20
-3.381421
  0
SEQEND
  8
0
  0
POLYLINE
  8
PLAN_1
  6
CONTINUOUS
 66
     1
 40
0.003000
 41
0.003000
  0
VERTEX
  8
PLAN_1
  6
CONTINUOUS
 10
1.678181
 20
-3.381421
  0
VERTEX
  8
PLAN_1
  6
CONTINUOUS
 10
1.530909
 20
-3.381421
  0
VERTEX
  8
PLAN_1
  6
CONTINUOUS
 10
1.530909
 20
-3.182071
  0
VERTEX
  8
PLAN_1
  6
CONTINUOUS
 10
1.676047
 20
-3.182071
  0
VERTEX
  8
PLAN_1
  6
CONTINUOUS
 10
1.676047
 20
-3.205976
  0
VERTEX
  8
PLAN_1
  6
CONTINUOUS
 10
1.557799
 20
-3.205976
  0
VERTEX
  8
PLAN_1
  6
CONTINUOUS
 10
1.557799
 20
-3.267020
  0
VERTEX
  8
PLAN_1
  6
CONTINUOUS
 10
1.667083
 20
-3.267020
  0
VERTEX
  8
PLAN_1
  6
CONTINUOUS
 10
1.667083
 20
-3.290925
  0
VERTEX
  8
PLAN_1
  6
CONTINUOUS
 10
1.557799
 20
-3.290925
  0
VERTEX
  8
PLAN_1
  6
CONTINUOUS
 10
1.557799
 20
-3.357520
  0
VERTEX
  8
PLAN_1
  6
CONTINUOUS
 10
1.678181
 20
-3.357520
  0
VERTEX
  8
PLAN_1
  6
CONTINUOUS
 10
1.678181
 20
-3.381421
  0
SEQEND
  8
0
  0
POLYLINE
  8
PLAN_1
  6
CONTINUOUS
 66
     1
 40
0.003000
 41
0.003000
  0
VERTEX
  8
PLAN_1
  6
CONTINUOUS
 10
1.743063
 20
-3.381421
  0
VERTEX
  8
PLAN_1
  6
CONTINUOUS
 10
1.716173
 20
-3.381421
  0
VERTEX
  8
PLAN_1
  6
CONTINUOUS
 10
1.716173
 20
-3.182071
  0
VERTEX
  8
PLAN_1
  6
CONTINUOUS
 10
1.805815
 20
-3.182071
  0
VERTEX
  8
PLAN_1
  6
CONTINUOUS
 10
1.812646
 20
-3.182500
  0
VERTEX
  8
PLAN_1
  6
CONTINUOUS
 10
1.819047
 20
-3.182925
  0
VERTEX
  8
PLAN_1
  6
CONTINUOUS
 10
1.825024
 20
-3.184634
  0
VERTEX
  8
PLAN_1
  6
CONTINUOUS
 10
1.830575
 20
-3.186343
  0
VERTEX
  8
PLAN_1
  6
CONTINUOUS
 10
1.835697
 20
-3.188476
  0
VERTEX
  8
PLAN_1
  6
CONTINUOUS
 10
1.840819
 20
-3.191465
  0
VERTEX
  8
PLAN_1
  6
CONTINUOUS
 10
1.845087
 20
-3.194453
  0
VERTEX
  8
PLAN_1
  6
CONTINUOUS
 10
1.849358
 20
-3.197866
  0
VERTEX
  8
PLAN_1
  6
CONTINUOUS
 10
1.852772
 20
-3.201709
  0
VERTEX
  8
PLAN_1
  6
CONTINUOUS
 10
1.855760
 20
-3.206406
  0
VERTEX
  8
PLAN_1
  6
CONTINUOUS
 10
1.858748
 20
-3.210673
  0
VERTEX
  8
PLAN_1
  6
CONTINUOUS
 10
1.860882
 20
-3.215795
  0
VERTEX
  8
PLAN_1
  6
CONTINUOUS
 10
1.862591
 20
-3.220917
  0
VERTEX
  8
PLAN_1
  6
CONTINUOUS
 10
1.863870
 20
-3.226469
  0
VERTEX
  8
PLAN_1
  6
CONTINUOUS
 10
1.864724
 20
-3.232016
  0
VERTEX
  8
PLAN_1
  6
CONTINUOUS
 10
1.864724
 20
-3.237992
  0
VERTEX
  8
PLAN_1
  6
CONTINUOUS
 10
1.864724
 20
-3.243114
  0
VERTEX
  8
PLAN_1
  6
CONTINUOUS
 10
1.864299
 20
-3.248665
  0
VERTEX
  8
PLAN_1
  6
CONTINUOUS
 10
1.863016
 20
-3.253787
  0
VERTEX
  8
PLAN_1
  6
CONTINUOUS
 10
1.861736
 20
-3.258909
  0
VERTEX
  8
PLAN_1
  6
CONTINUOUS
 10
1.860028
 20
-3.264031
  0
VERTEX
  8
PLAN_1
  6
CONTINUOUS
 10
1.857469
 20
-3.269154
  0
VERTEX
  8
PLAN_1
  6
CONTINUOUS
 10
1.854906
 20
-3.273850
  0
VERTEX
  8
PLAN_1
  6
CONTINUOUS
 10
1.851492
 20
-3.278118
  0
VERTEX
  8
PLAN_1
  6
CONTINUOUS
 10
1.847650
 20
-3.281961
  0
VERTEX
  8
PLAN_1
  6
CONTINUOUS
 10
1.843382
 20
-3.285803
  0
VERTEX
  8
PLAN_1
  6
CONTINUOUS
 10
1.838685
 20
-3.289217
  0
VERTEX
  8
PLAN_1
  6
CONTINUOUS
 10
1.833134
 20
-3.291780
  0
VERTEX
  8
PLAN_1
  6
CONTINUOUS
 10
1.827157
 20
-3.294339
  0
VERTEX
  8
PLAN_1
  6
CONTINUOUS
 10
1.820756
 20
-3.295622
  0
VERTEX
  8
PLAN_1
  6
CONTINUOUS
 10
1.813500
 20
-3.296902
  0
VERTEX
  8
PLAN_1
  6
CONTINUOUS
 10
1.805815
 20
-3.297327
  0
VERTEX
  8
PLAN_1
  6
CONTINUOUS
 10
1.743063
 20
-3.297327
  0
VERTEX
  8
PLAN_1
  6
CONTINUOUS
 10
1.743063
 20
-3.381421
  0
SEQEND
  8
0
  0
POLYLINE
  8
PLAN_1
  6
CONTINUOUS
 66
     1
 40
0.003000
 41
0.003000
  0
VERTEX
  8
PLAN_1
  6
CONTINUOUS
 10
1.743063
 20
-3.274276
  0
VERTEX
  8
PLAN_1
  6
CONTINUOUS
 10
1.796425
 20
-3.274276
  0
VERTEX
  8
PLAN_1
  6
CONTINUOUS
 10
1.801118
 20
-3.273850
  0
VERTEX
  8
PLAN_1
  6
CONTINUOUS
 10
1.805390
 20
-3.273850
  0
VERTEX
  8
PLAN_1
  6
CONTINUOUS
 10
1.809232
 20
-3.272996
  0
VERTEX
  8
PLAN_1
  6
CONTINUOUS
 10
1.813071
 20
-3.272571
  0
VERTEX
  8
PLAN_1
  6
CONTINUOUS
 10
1.816488
 20
-3.271287
  0
VERTEX
  8
PLAN_1
  6
CONTINUOUS
 10
1.819902
 20
-3.270008
  0
VERTEX
  8
PLAN_1
  6
CONTINUOUS
 10
1.823319
 20
-3.268299
  0
VERTEX
  8
PLAN_1
  6
CONTINUOUS
 10
1.825878
 20
-3.266165
  0
VERTEX
  8
PLAN_1
  6
CONTINUOUS
 10
1.828441
 20
-3.264031
  0
VERTEX
  8
PLAN_1
  6
CONTINUOUS
 10
1.830575
 20
-3.261472
  0
VERTEX
  8
PLAN_1
  6
CONTINUOUS
 10
1.832709
 20
-3.258484
  0
VERTEX
  8
PLAN_1
  6
CONTINUOUS
 10
1.833988
 20
-3.255496
  0
VERTEX
  8
PLAN_1
  6
CONTINUOUS
 10
1.835272
 20
-3.251654
  0
VERTEX
  8
PLAN_1
  6
CONTINUOUS
 10
1.836551
 20
-3.247811
  0
VERTEX
  8
PLAN_1
  6
CONTINUOUS
 10
1.836976
 20
-3.243114
  0
VERTEX
  8
PLAN_1
  6
CONTINUOUS
 10
1.836976
 20
-3.238421
  0
VERTEX
  8
PLAN_1
  6
CONTINUOUS
 10
1.836976
 20
-3.233724
  0
VERTEX
  8
PLAN_1
  6
CONTINUOUS
 10
1.836551
 20
-3.229882
  0
VERTEX
  8
PLAN_1
  6
CONTINUOUS
 10
1.835272
 20
-3.226039
  0
VERTEX
  8
PLAN_1
  6
CONTINUOUS
 10
1.833988
 20
-3.222626
  0
VERTEX
  8
PLAN_1
  6
CONTINUOUS
 10
1.832283
 20
-3.219638
  0
VERTEX
  8
PLAN_1
  6
CONTINUOUS
 10
1.830575
 20
-3.216650
  0
VERTEX
  8
PLAN_1
  6
CONTINUOUS
 10
1.828441
 20
-3.214516
  0
VERTEX
  8
PLAN_1
  6
CONTINUOUS
 10
1.825878
 20
-3.212382
  0
VERTEX
  8
PLAN_1
  6
CONTINUOUS
 10
1.822890
 20
-3.210244
  0
VERTEX
  8
PLAN_1
  6
CONTINUOUS
 10
1.819902
 20
-3.208965
  0
VERTEX
  8
PLAN_1
  6
CONTINUOUS
 10
1.816488
 20
-3.207685
  0
VERTEX
  8
PLAN_1
  6
CONTINUOUS
 10
1.813071
 20
-3.206831
  0
VERTEX
  8
PLAN_1
  6
CONTINUOUS
 10
1.809657
 20
-3.205976
  0
VERTEX
  8
PLAN_1
  6
CONTINUOUS
 10
1.805815
 20
-3.205551
  0
VERTEX
  8
PLAN_1
  6
CONTINUOUS
 10
1.801972
 20
-3.205122
  0
VERTEX
  8
PLAN_1
  6
CONTINUOUS
 10
1.797705
 20
-3.205122
  0
VERTEX
  8
PLAN_1
  6
CONTINUOUS
 10
1.743063
 20
-3.205122
  0
VERTEX
  8
PLAN_1
  6
CONTINUOUS
 10
1.743063
 20
-3.274276
  0
SEQEND
  8
0
  0
POLYLINE
  8
PLAN_1
  6
CONTINUOUS
 66
     1
 40
0.003000
 41
0.003000
  0
VERTEX
  8
PLAN_1
  6
CONTINUOUS
 10
2.018827
 20
-3.240126
  0
VERTEX
  8
PLAN_1
  6
CONTINUOUS
 10
2.018398
 20
-3.234579
  0
VERTEX
  8
PLAN_1
  6
CONTINUOUS
 10
2.017118
 20
-3.229882
  0
VERTEX
  8
PLAN_1
  6
CONTINUOUS
 10
2.015409
 20
-3.225185
  0
VERTEX
  8
PLAN_1
  6
CONTINUOUS
 10
2.013705
 20
-3.220917
  0
VERTEX
  8
PLAN_1
  6
CONTINUOUS
 10
2.011142
 20
-3.217075
  0
VERTEX
  8
PLAN_1
  6
CONTINUOUS
 10
2.008583
 20
-3.214087
  0
VERTEX
  8
PLAN_1
  6
CONTINUOUS
 10
2.005165
 20
-3.211098
  0
VERTEX
  8
PLAN_1
  6
CONTINUOUS
 10
2.001752
 20
-3.208539
  0
VERTEX
  8
PLAN_1
  6
CONTINUOUS
 10
1.998335
 20
-3.206406
  0
VERTEX
  8
PLAN_1
  6
CONTINUOUS
 10
1.994496
 20
-3.204697
  0
VERTEX
  8
PLAN_1
  6
CONTINUOUS
 10
1.990654
 20
-3.202988
  0
VERTEX
  8
PLAN_1
  6
CONTINUOUS
 10
1.986382
 20
-3.201709
  0
VERTEX
  8
PLAN_1
  6
CONTINUOUS
 10
1.982114
 20
-3.200854
  0
VERTEX
  8
PLAN_1
  6
CONTINUOUS
 10
1.977846
 20
-3.200429
  0
VERTEX
  8
PLAN_1
  6
CONTINUOUS
 10
1.973579
 20
-3.200000
  0
VERTEX
  8
PLAN_1
  6
CONTINUOUS
 10
1.969307
 20
-3.199575
  0
VERTEX
  8
PLAN_1
  6
CONTINUOUS
 10
1.962480
 20
-3.200000
  0
VERTEX
  8
PLAN_1
  6
CONTINUOUS
 10
1.955220
 20
-3.200854
  0
VERTEX
  8
PLAN_1
  6
CONTINUOUS
 10
1.951378
 20
-3.201709
  0
VERTEX
  8
PLAN_1
  6
CONTINUOUS
 10
1.947539
 20
-3.202988
  0
VERTEX
  8
PLAN_1
  6
CONTINUOUS
 10
1.943697
 20
-3.204272
  0
VERTEX
  8
PLAN_1
  6
CONTINUOUS
 10
1.940280
 20
-3.205976
  0
VERTEX
  8
PLAN_1
  6
CONTINUOUS
 10
1.936866
 20
-3.208110
  0
VERTEX
  8
PLAN_1
  6
CONTINUOUS
 10
1.933878
 20
-3.210244
  0
VERTEX
  8
PLAN_1
  6
CONTINUOUS
 10
1.930890
 20
-3.213232
  0
VERTEX
  8
PLAN_1
  6
CONTINUOUS
 10
1.928756
 20
-3.216650
  0
VERTEX
  8
PLAN_1
  6
CONTINUOUS
 10
1.926622
 20
-3.220492
  0
VERTEX
  8
PLAN_1
  6
CONTINUOUS
 10
1.924913
 20
-3.224760
  0
VERTEX
  8
PLAN_1
  6
CONTINUOUS
 10
1.924059
 20
-3.229457
  0
VERTEX
  8
PLAN_1
  6
CONTINUOUS
 10
1.923634
 20
-3.234579
  0
VERTEX
  8
PLAN_1
  6
CONTINUOUS
 10
1.924059
 20
-3.237992
  0
VERTEX
  8
PLAN_1
  6
CONTINUOUS
 10
1.924488
 20
-3.240555
  0
VERTEX
  8
PLAN_1
  6
CONTINUOUS
 10
1.924913
 20
-3.243114
  0
VERTEX
  8
PLAN_1
  6
CONTINUOUS
 10
1.925768
 20
-3.245248
  0
VERTEX
  8
PLAN_1
  6
CONTINUOUS
 10
1.927047
 20
-3.247386
  0
VERTEX
  8
PLAN_1
  6
CONTINUOUS
 10
1.928327
 20
-3.249520
  0
VERTEX
  8
PLAN_1
  6
CONTINUOUS
 10
1.929610
 20
-3.251224
  0
VERTEX
  8
PLAN_1
  6
CONTINUOUS
 10
1.931315
 20
-3.252508
  0
VERTEX
  8
PLAN_1
  6
CONTINUOUS
 10
1.934732
 20
-3.255067
  0
VERTEX
  8
PLAN_1
  6
CONTINUOUS
 10
1.939000
 20
-3.257201
  0
VERTEX
  8
PLAN_1
  6
CONTINUOUS
 10
1.942843
 20
-3.258909
  0
VERTEX
  8
PLAN_1
  6
CONTINUOUS
 10
1.947539
 20
-3.260189
  0
VERTEX
  8
PLAN_1
  6
CONTINUOUS
 10
2.004311
 20
-3.272996
  0
VERTEX
  8
PLAN_1
  6
CONTINUOUS
 10
2.009008
 20
-3.274276
  0
VERTEX
  8
PLAN_1
  6
CONTINUOUS
 10
2.013705
 20
-3.275984
  0
VERTEX
  8
PLAN_1
  6
CONTINUOUS
 10
2.017972
 20
-3.277693
  0
VERTEX
  8
PLAN_1
  6
CONTINUOUS
 10
2.022240
 20
-3.279402
  0
VERTEX
  8
PLAN_1
  6
CONTINUOUS
 10
2.026083
 20
-3.281961
  0
VERTEX
  8
PLAN_1
  6
CONTINUOUS
 10
2.029925
 20
-3.284094
  0
VERTEX
  8
PLAN_1
  6
CONTINUOUS
 10
2.033339
 20
-3.287083
  0
VERTEX
  8
PLAN_1
  6
CONTINUOUS
 10
2.036756
 20
-3.290071
  0
VERTEX
  8
PLAN_1
  6
CONTINUOUS
 10
2.039315
 20
-3.293488
  0
VERTEX
  8
PLAN_1
  6
CONTINUOUS
 10
2.041878
 20
-3.297327
  0
VERTEX
  8
PLAN_1
  6
CONTINUOUS
 10
2.044437
 20
-3.301169
  0
VERTEX
  8
PLAN_1
  6
CONTINUOUS
 10
2.046146
 20
-3.305441
  0
VERTEX
  8
PLAN_1
  6
CONTINUOUS
 10
2.047425
 20
-3.310134
  0
VERTEX
  8
PLAN_1
  6
CONTINUOUS
 10
2.048709
 20
-3.315256
  0
VERTEX
  8
PLAN_1
  6
CONTINUOUS
 10
2.049134
 20
-3.320807
  0
VERTEX
  8
PLAN_1
  6
CONTINUOUS
 10
2.049563
 20
-3.326354
  0
VERTEX
  8
PLAN_1
  6
CONTINUOUS
 10
2.049563
 20
-3.330626
  0
VERTEX
  8
PLAN_1
  6
CONTINUOUS
 10
2.049134
 20
-3.334894
  0
VERTEX
  8
PLAN_1
  6
CONTINUOUS
 10
2.048280
 20
-3.338736
  0
VERTEX
  8
PLAN_1
  6
CONTINUOUS
 10
2.047425
 20
-3.342579
  0
VERTEX
  8
PLAN_1
  6
CONTINUOUS
 10
2.046575
 20
-3.345992
  0
VERTEX
  8
PLAN_1
  6
CONTINUOUS
 10
2.045291
 20
-3.349406
  0
VERTEX
  8
PLAN_1
  6
CONTINUOUS
 10
2.044012
 20
-3.352823
  0
VERTEX
  8
PLAN_1
  6
CONTINUOUS
 10
2.042303
 20
-3.355811
  0
VERTEX
  8
PLAN_1
  6
CONTINUOUS
 10
2.040169
 20
-3.358370
  0
VERTEX
  8
PLAN_1
  6
CONTINUOUS
 10
2.038461
 20
-3.361358
  0
VERTEX
  8
PLAN_1
  6
CONTINUOUS
 10
2.036327
 20
-3.363921
  0
VERTEX
  8
PLAN_1
  6
CONTINUOUS
 10
2.033768
 20
-3.366055
  0
VERTEX
  8
PLAN_1
  6
CONTINUOUS
 10
2.029071
 20
-3.370323
  0
VERTEX
  8
PLAN_1
  6
CONTINUOUS
 10
2.023524
 20
-3.374165
  0
VERTEX
  8
PLAN_1
  6
CONTINUOUS
 10
2.017547
 20
-3.377154
  0
VERTEX
  8
PLAN_1
  6
CONTINUOUS
 10
2.011142
 20
-3.380142
  0
VERTEX
  8
PLAN_1
  6
CONTINUOUS
 10
2.004740
 20
-3.382276
  0
VERTEX
  8
PLAN_1
  6
CONTINUOUS
 10
1.998335
 20
-3.383984
  0
VERTEX
  8
PLAN_1
  6
CONTINUOUS
 10
1.991508
 20
-3.385264
  0
VERTEX
  8
PLAN_1
  6
CONTINUOUS
 10
1.984677
 20
-3.386118
  0
VERTEX
  8
PLAN_1
  6
CONTINUOUS
 10
1.978272
 20
-3.386547
  0
VERTEX
  8
PLAN_1
  6
CONTINUOUS
 10
1.971445
 20
-3.386547
  0
VERTEX
  8
PLAN_1
  6
CONTINUOUS
 10
1.965039
 20
-3.386547
  0
VERTEX
  8
PLAN_1
  6
CONTINUOUS
 10
1.958638
 20
-3.386118
  0
VERTEX
  8
PLAN_1
  6
CONTINUOUS
 10
1.953087
 20
-3.385693
  0
VERTEX
  8
PLAN_1
  6
CONTINUOUS
 10
1.947965
 20
-3.384839
  0
VERTEX
  8
PLAN_1
  6
CONTINUOUS
 10
1.942843
 20
-3.383559
  0
VERTEX
  8
PLAN_1
  6
CONTINUOUS
 10
1.938575
 20
-3.382705
  0
VERTEX
  8
PLAN_1
  6
CONTINUOUS
 10
1.934732
 20
-3.381421
  0
VERTEX
  8
PLAN_1
  6
CONTINUOUS
 10
1.930890
 20
-3.380142
  0
VERTEX
  8
PLAN_1
  6
CONTINUOUS
 10
1.924488
 20
-3.377154
  0
VERTEX
  8
PLAN_1
  6
CONTINUOUS
 10
1.919366
 20
-3.373740
  0
VERTEX
  8
PLAN_1
  6
CONTINUOUS
 10
1.915094
 20
-3.370752
  0
VERTEX
  8
PLAN_1
  6
CONTINUOUS
 10
1.911252
 20
-3.367335
  0
VERTEX
  8
PLAN_1
  6
CONTINUOUS
 10
1.908264
 20
-3.364346
  0
VERTEX
  8
PLAN_1
  6
CONTINUOUS
 10
1.905705
 20
-3.361787
  0
VERTEX
  8
PLAN_1
  6
CONTINUOUS
 10
1.903142
 20
-3.358799
  0
VERTEX
  8
PLAN_1
  6
CONTINUOUS
 10
1.901008
 20
-3.355811
  0
VERTEX
  8
PLAN_1
  6
CONTINUOUS
 10
1.899299
 20
-3.352823
  0
VERTEX
  8
PLAN_1
  6
CONTINUOUS
 10
1.897594
 20
-3.349835
  0
VERTEX
  8
PLAN_1
  6
CONTINUOUS
 10
1.895886
 20
-3.346417
  0
VERTEX
  8
PLAN_1
  6
CONTINUOUS
 10
1.895031
 20
-3.343429
  0
VERTEX
  8
PLAN_1
  6
CONTINUOUS
 10
1.892898
 20
-3.337028
  0
VERTEX
  8
PLAN_1
  6
CONTINUOUS
 10
1.892043
 20
-3.330626
  0
VERTEX
  8
PLAN_1
  6
CONTINUOUS
 10
1.891189
 20
-3.323795
  0
VERTEX
  8
PLAN_1
  6
CONTINUOUS
 10
1.891189
 20
-3.316965
  0
VERTEX
  8
PLAN_1
  6
CONTINUOUS
 10
1.916378
 20
-3.316965
  0
VERTEX
  8
PLAN_1
  6
CONTINUOUS
 10
1.916803
 20
-3.323366
  0
VERTEX
  8
PLAN_1
  6
CONTINUOUS
 10
1.917657
 20
-3.329343
  0
VERTEX
  8
PLAN_1
  6
CONTINUOUS
 10
1.919366
 20
-3.334469
  0
VERTEX
  8
PLAN_1
  6
CONTINUOUS
 10
1.921500
 20
-3.339591
  0
VERTEX
  8
PLAN_1
  6
CONTINUOUS
 10
1.924059
 20
-3.343858
  0
VERTEX
  8
PLAN_1
  6
CONTINUOUS
 10
1.927047
 20
-3.347701
  0
VERTEX
  8
PLAN_1
  6
CONTINUOUS
 10
1.930465
 20
-3.350689
  0
VERTEX
  8
PLAN_1
  6
CONTINUOUS
 10
1.934303
 20
-3.353677
  0
VERTEX
  8
PLAN_1
  6
CONTINUOUS
 10
1.938146
 20
-3.356236
  0
VERTEX
  8
PLAN_1
  6
CONTINUOUS
 10
1.942843
 20
-3.358370
  0
VERTEX
  8
PLAN_1
  6
CONTINUOUS
 10
1.947110
 20
-3.360079
  0
VERTEX
  8
PLAN_1
  6
CONTINUOUS
 10
1.951807
 20
-3.361358
  0
VERTEX
  8
PLAN_1
  6
CONTINUOUS
 10
1.956929
 20
-3.362213
  0
VERTEX
  8
PLAN_1
  6
CONTINUOUS
 10
1.961626
 20
-3.363067
  0
VERTEX
  8
PLAN_1
  6
CONTINUOUS
 10
1.966319
 20
-3.363496
  0
VERTEX
  8
PLAN_1
  6
CONTINUOUS
 10
1.971445
 20
-3.363496
  0
VERTEX
  8
PLAN_1
  6
CONTINUOUS
 10
1.979126
 20
-3.363067
  0
VERTEX
  8
PLAN_1
  6
CONTINUOUS
 10
1.987665
 20
-3.362213
  0
VERTEX
  8
PLAN_1
  6
CONTINUOUS
 10
1.991933
 20
-3.361358
  0
VERTEX
  8
PLAN_1
  6
CONTINUOUS
 10
1.996201
 20
-3.360508
  0
VERTEX
  8
PLAN_1
  6
CONTINUOUS
 10
2.000472
 20
-3.359224
  0
VERTEX
  8
PLAN_1
  6
CONTINUOUS
 10
2.004740
 20
-3.357520
  0
VERTEX
  8
PLAN_1
  6
CONTINUOUS
 10
2.008583
 20
-3.355382
  0
VERTEX
  8
PLAN_1
  6
CONTINUOUS
 10
2.011996
 20
-3.353248
  0
VERTEX
  8
PLAN_1
  6
CONTINUOUS
 10
2.015409
 20
-3.350260
  0
VERTEX
  8
PLAN_1
  6
CONTINUOUS
 10
2.017972
 20
-3.347272
  0
VERTEX
  8
PLAN_1
  6
CONTINUOUS
 10
2.020106
 20
-3.343858
  0
VERTEX
  8
PLAN_1
  6
CONTINUOUS
 10
2.021815
 20
-3.339591
  0
VERTEX
  8
PLAN_1
  6
CONTINUOUS
 10
2.023094
 20
-3.334894
  0
VERTEX
  8
PLAN_1
  6
CONTINUOUS
 10
2.023524
 20
-3.329772
  0
VERTEX
  8
PLAN_1
  6
CONTINUOUS
 10
2.023524
 20
-3.326354
  0
VERTEX
  8
PLAN_1
  6
CONTINUOUS
 10
2.023094
 20
-3.322941
  0
VERTEX
  8
PLAN_1
  6
CONTINUOUS
 10
2.022240
 20
-3.319528
  0
VERTEX
  8
PLAN_1
  6
CONTINUOUS
 10
2.021386
 20
-3.316965
  0
VERTEX
  8
PLAN_1
  6
CONTINUOUS
 10
2.020106
 20
-3.313976
  0
VERTEX
  8
PLAN_1
  6
CONTINUOUS
 10
2.018827
 20
-3.311843
  0
VERTEX
  8
PLAN_1
  6
CONTINUOUS
 10
2.016693
 20
-3.309280
  0
VERTEX
  8
PLAN_1
  6
CONTINUOUS
 10
2.014559
 20
-3.307575
  0
VERTEX
  8
PLAN_1
  6
CONTINUOUS
 10
2.011996
 20
-3.305441
  0
VERTEX
  8
PLAN_1
  6
CONTINUOUS
 10
2.009008
 20
-3.303732
  0
VERTEX
  8
PLAN_1
  6
CONTINUOUS
 10
2.005165
 20
-3.302024
  0
VERTEX
  8
PLAN_1
  6
CONTINUOUS
 10
2.001323
 20
-3.300744
  0
VERTEX
  8
PLAN_1
  6
CONTINUOUS
 10
1.992358
 20
-3.297756
  0
VERTEX
  8
PLAN_1
  6
CONTINUOUS
 10
1.980835
 20
-3.294768
  0
VERTEX
  8
PLAN_1
  6
CONTINUOUS
 10
1.940280
 20
-3.285378
  0
VERTEX
  8
PLAN_1
  6
CONTINUOUS
 10
1.934732
 20
-3.283669
  0
VERTEX
  8
PLAN_1
  6
CONTINUOUS
 10
1.927902
 20
-3.281535
  0
VERTEX
  8
PLAN_1
  6
CONTINUOUS
 10
1.924488
 20
-3.279827
  0
VERTEX
  8
PLAN_1
  6
CONTINUOUS
 10
1.921071
 20
-3.278118
  0
VERTEX
  8
PLAN_1
  6
CONTINUOUS
 10
1.917657
 20
-3.275984
  0
VERTEX
  8
PLAN_1
  6
CONTINUOUS
 10
1.914240
 20
-3.273850
  0
VERTEX
  8
PLAN_1
  6
CONTINUOUS
 10
1.910827
 20
-3.270862
  0
VERTEX
  8
PLAN_1
  6
CONTINUOUS
 10
1.907839
 20
-3.267449
  0
VERTEX
  8
PLAN_1
  6
CONTINUOUS
 10
1.904850
 20
-3.264031
  0
VERTEX
  8
PLAN_1
  6
CONTINUOUS
 10
1.902717
 20
-3.259764
  0
VERTEX
  8
PLAN_1
  6
CONTINUOUS
 10
1.900583
 20
-3.255496
  0
VERTEX
  8
PLAN_1
  6
CONTINUOUS
 10
1.898874
 20
-3.250374
  0
VERTEX
  8
PLAN_1
  6
CONTINUOUS
 10
1.898020
 20
-3.244398
  0
VERTEX
  8
PLAN_1
  6
CONTINUOUS
 10
1.897594
 20
-3.238421
  0
VERTEX
  8
PLAN_1
  6
CONTINUOUS
 10
1.898020
 20
-3.232445
  0
VERTEX
  8
PLAN_1
  6
CONTINUOUS
 10
1.898874
 20
-3.226894
  0
VERTEX
  8
PLAN_1
  6
CONTINUOUS
 10
1.899728
 20
-3.221346
  0
VERTEX
  8
PLAN_1
  6
CONTINUOUS
 10
1.901862
 20
-3.215795
  0
VERTEX
  8
PLAN_1
  6
CONTINUOUS
 10
1.903996
 20
-3.210244
  0
VERTEX
  8
PLAN_1
  6
CONTINUOUS
 10
1.906559
 20
-3.205122
  0
VERTEX
  8
PLAN_1
  6
CONTINUOUS
 10
1.909972
 20
-3.200429
  0
VERTEX
  8
PLAN_1
  6
CONTINUOUS
 10
1.913815
 20
-3.195732
  0
VERTEX
  8
PLAN_1
  6
CONTINUOUS
 10
1.918512
 20
-3.191890
  0
VERTEX
  8
PLAN_1
  6
CONTINUOUS
 10
1.923205
 20
-3.188047
  0
VERTEX
  8
PLAN_1
  6
CONTINUOUS
 10
1.929181
 20
-3.184634
  0
VERTEX
  8
PLAN_1
  6
CONTINUOUS
 10
1.935157
 20
-3.182071
  0
VERTEX
  8
PLAN_1
  6
CONTINUOUS
 10
1.941988
 20
-3.179937
  0
VERTEX
  8
PLAN_1
  6
CONTINUOUS
 10
1.949673
 20
-3.178232
  0
VERTEX
  8
PLAN_1
  6
CONTINUOUS
 10
1.957354
 20
-3.176949
  0
VERTEX
  8
PLAN_1
  6
CONTINUOUS
 10
1.966319
 20
-3.176949
  0
VERTEX
  8
PLAN_1
  6
CONTINUOUS
 10
1.972724
 20
-3.176949
  0
VERTEX
  8
PLAN_1
  6
CONTINUOUS
 10
1.978701
 20
-3.177378
  0
VERTEX
  8
PLAN_1
  6
CONTINUOUS
 10
1.984248
 20
-3.177803
  0
VERTEX
  8
PLAN_1
  6
CONTINUOUS
 10
1.989370
 20
-3.178657
  0
VERTEX
  8
PLAN_1
  6
CONTINUOUS
 10
1.994496
 20
-3.179512
  0
VERTEX
  8
PLAN_1
  6
CONTINUOUS
 10
1.999189
 20
-3.180791
  0
VERTEX
  8
PLAN_1
  6
CONTINUOUS
 10
2.003457
 20
-3.182071
  0
VERTEX
  8
PLAN_1
  6
CONTINUOUS
 10
2.007728
 20
-3.183780
  0
VERTEX
  8
PLAN_1
  6
CONTINUOUS
 10
2.011571
 20
-3.185059
  0
VERTEX
  8
PLAN_1
  6
CONTINUOUS
 10
2.014984
 20
-3.187193
  0
VERTEX
  8
PLAN_1
  6
CONTINUOUS
 10
2.018398
 20
-3.188902
  0
VERTEX
  8
PLAN_1
  6
CONTINUOUS
 10
2.021386
 20
-3.191035
  0
VERTEX
  8
PLAN_1
  6
CONTINUOUS
 10
2.023949
 20
-3.193169
  0
VERTEX
  8
PLAN_1
  6
CONTINUOUS
 10
2.026512
 20
-3.195732
  0
VERTEX
  8
PLAN_1
  6
CONTINUOUS
 10
2.028646
 20
-3.197866
  0
VERTEX
  8
PLAN_1
  6
CONTINUOUS
 10
2.030780
 20
-3.200429
  0
VERTEX
  8
PLAN_1
  6
CONTINUOUS
 10
2.034622
 20
-3.205551
  0
VERTEX
  8
PLAN_1
  6
CONTINUOUS
 10
2.037181
 20
-3.210673
  0
VERTEX
  8
PLAN_1
  6
CONTINUOUS
 10
2.039315
 20
-3.215795
  0
VERTEX
  8
PLAN_1
  6
CONTINUOUS
 10
2.041024
 20
-3.220917
  0
VERTEX
  8
PLAN_1
  6
CONTINUOUS
 10
2.042303
 20
-3.226469
  0
VERTEX
  8
PLAN_1
  6
CONTINUOUS
 10
2.043157
 20
-3.231161
  0
VERTEX
  8
PLAN_1
  6
CONTINUOUS
 10
2.043587
 20
-3.235858
  0
VERTEX
  8
PLAN_1
  6
CONTINUOUS
 10
2.044012
 20
-3.240126
  0
VERTEX
  8
PLAN_1
  6
CONTINUOUS
 10
2.018827
 20
-3.240126
  0
SEQEND
  8
0
  0
POLYLINE
  8
PLAN_1
 62
     5
  6
CONTINUOUS
 66
     1
 40
0.003000
 41
0.003000
  0
VERTEX
  8
PLAN_1
 62
     5
  6
CONTINUOUS
 10
-2.048866
 20
1.051673
  0
VERTEX
  8
PLAN_1
 62
     5
  6
CONTINUOUS
 10
-2.048866
 20
1.059783
  0
SEQEND
  8
0
  0
POLYLINE
  8
PLAN_1
 62
     5
  6
CONTINUOUS
 66
     1
 40
0.003000
 41
0.003000
  0
VERTEX
  8
PLAN_1
 62
     5
  6
CONTINUOUS
 10
-2.048866
 20
1.068323
  0
VERTEX
  8
PLAN_1
 62
     5
  6
CONTINUOUS
 10
-2.048866
 20
1.076858
  0
SEQEND
  8
0
  0
POLYLINE
  8
PLAN_1
 62
     5
  6
CONTINUOUS
 66
     1
 40
0.003000
 41
0.003000
  0
VERTEX
  8
PLAN_1
 62
     5
  6
CONTINUOUS
 10
-2.048866
 20
1.084969
  0
VERTEX
  8
PLAN_1
 62
     5
  6
CONTINUOUS
 10
-2.048866
 20
1.093508
  0
SEQEND
  8
0
  0
POLYLINE
  8
PLAN_1
 62
     5
  6
CONTINUOUS
 66
     1
 40
0.003000
 41
0.003000
  0
VERTEX
  8
PLAN_1
 62
     5
  6
CONTINUOUS
 10
-2.048866
 20
1.101618
  0
VERTEX
  8
PLAN_1
 62
     5
  6
CONTINUOUS
 10
-2.048866
 20
1.110157
  0
SEQEND
  8
0
  0
POLYLINE
  8
PLAN_1
 62
     5
  6
CONTINUOUS
 66
     1
 40
0.003000
 41
0.003000
  0
VERTEX
  8
PLAN_1
 62
     5
  6
CONTINUOUS
 10
-2.048866
 20
1.118268
  0
VERTEX
  8
PLAN_1
 62
     5
  6
CONTINUOUS
 10
-2.048866
 20
1.126803
  0
SEQEND
  8
0
  0
POLYLINE
  8
PLAN_1
 62
     5
  6
CONTINUOUS
 66
     1
 40
0.003000
 41
0.003000
  0
VERTEX
  8
PLAN_1
 62
     5
  6
CONTINUOUS
 10
-2.048866
 20
1.134913
  0
VERTEX
  8
PLAN_1
 62
     5
  6
CONTINUOUS
 10
-2.048866
 20
1.143453
  0
SEQEND
  8
0
  0
POLYLINE
  8
PLAN_1
 62
     5
  6
CONTINUOUS
 66
     1
 40
0.003000
 41
0.003000
  0
VERTEX
  8
PLAN_1
 62
     5
  6
CONTINUOUS
 10
-2.048866
 20
1.151563
  0
VERTEX
  8
PLAN_1
 62
     5
  6
CONTINUOUS
 10
-2.048866
 20
1.160098
  0
SEQEND
  8
0
  0
POLYLINE
  8
PLAN_1
 62
     5
  6
CONTINUOUS
 66
     1
 40
0.003000
 41
0.003000
  0
VERTEX
  8
PLAN_1
 62
     5
  6
CONTINUOUS
 10
-2.048866
 20
1.168213
  0
VERTEX
  8
PLAN_1
 62
     5
  6
CONTINUOUS
 10
-2.048866
 20
1.176748
  0
SEQEND
  8
0
  0
POLYLINE
  8
PLAN_1
 62
     5
  6
CONTINUOUS
 66
     1
 40
0.003000
 41
0.003000
  0
VERTEX
  8
PLAN_1
 62
     5
  6
CONTINUOUS
 10
-2.048866
 20
1.184858
  0
VERTEX
  8
PLAN_1
 62
     5
  6
CONTINUOUS
 10
-2.048866
 20
1.193398
  0
SEQEND
  8
0
  0
POLYLINE
  8
PLAN_1
 62
     5
  6
CONTINUOUS
 66
     1
 40
0.003000
 41
0.003000
  0
VERTEX
  8
PLAN_1
 62
     5
  6
CONTINUOUS
 10
-2.048866
 20
1.201508
  0
VERTEX
  8
PLAN_1
 62
     5
  6
CONTINUOUS
 10
-2.048866
 20
1.210043
  0
SEQEND
  8
0
  0
POLYLINE
  8
PLAN_1
 62
     5
  6
CONTINUOUS
 66
     1
 40
0.003000
 41
0.003000
  0
VERTEX
  8
PLAN_1
 62
     5
  6
CONTINUOUS
 10
-2.048866
 20
1.218154
  0
VERTEX
  8
PLAN_1
 62
     5
  6
CONTINUOUS
 10
-2.048866
 20
1.226693
  0
SEQEND
  8
0
  0
POLYLINE
  8
PLAN_1
 62
     5
  6
CONTINUOUS
 66
     1
 40
0.003000
 41
0.003000
  0
VERTEX
  8
PLAN_1
 62
     5
  6
CONTINUOUS
 10
-2.048866
 20
1.234803
  0
VERTEX
  8
PLAN_1
 62
     5
  6
CONTINUOUS
 10
-2.048866
 20
1.243343
  0
SEQEND
  8
0
  0
POLYLINE
  8
PLAN_1
 62
     5
  6
CONTINUOUS
 66
     1
 40
0.003000
 41
0.003000
  0
VERTEX
  8
PLAN_1
 62
     5
  6
CONTINUOUS
 10
-2.048866
 20
1.251453
  0
VERTEX
  8
PLAN_1
 62
     5
  6
CONTINUOUS
 10
-2.048866
 20
1.259988
  0
SEQEND
  8
0
  0
POLYLINE
  8
PLAN_1
 62
     5
  6
CONTINUOUS
 66
     1
 40
0.003000
 41
0.003000
  0
VERTEX
  8
PLAN_1
 62
     5
  6
CONTINUOUS
 10
-2.048866
 20
1.268098
  0
VERTEX
  8
PLAN_1
 62
     5
  6
CONTINUOUS
 10
-2.048866
 20
1.276638
  0
SEQEND
  8
0
  0
POLYLINE
  8
PLAN_1
 62
     5
  6
CONTINUOUS
 66
     1
 40
0.003000
 41
0.003000
  0
VERTEX
  8
PLAN_1
 62
     5
  6
CONTINUOUS
 10
-2.048866
 20
1.284748
  0
VERTEX
  8
PLAN_1
 62
     5
  6
CONTINUOUS
 10
-2.048866
 20
1.293283
  0
SEQEND
  8
0
  0
POLYLINE
  8
PLAN_1
 62
     5
  6
CONTINUOUS
 66
     1
 40
0.003000
 41
0.003000
  0
VERTEX
  8
PLAN_1
 62
     5
  6
CONTINUOUS
 10
-2.048866
 20
1.301398
  0
VERTEX
  8
PLAN_1
 62
     5
  6
CONTINUOUS
 10
-2.048866
 20
1.309933
  0
SEQEND
  8
0
  0
POLYLINE
  8
PLAN_1
 62
     5
  6
CONTINUOUS
 66
     1
 40
0.003000
 41
0.003000
  0
VERTEX
  8
PLAN_1
 62
     5
  6
CONTINUOUS
 10
-2.048866
 20
1.318043
  0
VERTEX
  8
PLAN_1
 62
     5
  6
CONTINUOUS
 10
-2.048866
 20
1.326583
  0
SEQEND
  8
0
  0
POLYLINE
  8
PLAN_1
 62
     5
  6
CONTINUOUS
 66
     1
 40
0.003000
 41
0.003000
  0
VERTEX
  8
PLAN_1
 62
     5
  6
CONTINUOUS
 10
-2.048866
 20
1.334693
  0
VERTEX
  8
PLAN_1
 62
     5
  6
CONTINUOUS
 10
-2.048866
 20
1.343228
  0
SEQEND
  8
0
  0
POLYLINE
  8
PLAN_1
 62
     5
  6
CONTINUOUS
 66
     1
 40
0.003000
 41
0.003000
  0
VERTEX
  8
PLAN_1
 62
     5
  6
CONTINUOUS
 10
-2.048866
 20
1.351339
  0
VERTEX
  8
PLAN_1
 62
     5
  6
CONTINUOUS
 10
-2.048866
 20
1.359878
  0
SEQEND
  8
0
  0
POLYLINE
  8
PLAN_1
 62
     5
  6
CONTINUOUS
 66
     1
 40
0.003000
 41
0.003000
  0
VERTEX
  8
PLAN_1
 62
     5
  6
CONTINUOUS
 10
-2.048866
 20
1.367988
  0
VERTEX
  8
PLAN_1
 62
     5
  6
CONTINUOUS
 10
-2.048866
 20
1.376528
  0
SEQEND
  8
0
  0
POLYLINE
  8
PLAN_1
 62
     5
  6
CONTINUOUS
 66
     1
 40
0.003000
 41
0.003000
  0
VERTEX
  8
PLAN_1
 62
     5
  6
CONTINUOUS
 10
-2.048866
 20
1.384638
  0
VERTEX
  8
PLAN_1
 62
     5
  6
CONTINUOUS
 10
-2.048866
 20
1.393173
  0
SEQEND
  8
0
  0
POLYLINE
  8
PLAN_1
 62
     5
  6
CONTINUOUS
 66
     1
 40
0.003000
 41
0.003000
  0
VERTEX
  8
PLAN_1
 62
     5
  6
CONTINUOUS
 10
-2.048866
 20
1.401283
  0
VERTEX
  8
PLAN_1
 62
     5
  6
CONTINUOUS
 10
-2.048866
 20
1.409823
  0
SEQEND
  8
0
  0
POLYLINE
  8
PLAN_1
 62
     5
  6
CONTINUOUS
 66
     1
 40
0.003000
 41
0.003000
  0
VERTEX
  8
PLAN_1
 62
     5
  6
CONTINUOUS
 10
-2.048866
 20
1.417933
  0
VERTEX
  8
PLAN_1
 62
     5
  6
CONTINUOUS
 10
-2.048866
 20
1.426469
  0
SEQEND
  8
0
  0
POLYLINE
  8
PLAN_1
 62
     5
  6
CONTINUOUS
 66
     1
 40
0.003000
 41
0.003000
  0
VERTEX
  8
PLAN_1
 62
     5
  6
CONTINUOUS
 10
-2.048866
 20
1.435008
  0
VERTEX
  8
PLAN_1
 62
     5
  6
CONTINUOUS
 10
-2.048866
 20
1.443118
  0
SEQEND
  8
0
  0
POLYLINE
  8
PLAN_1
 62
     5
  6
CONTINUOUS
 66
     1
 40
0.003000
 41
0.003000
  0
VERTEX
  8
PLAN_1
 62
     5
  6
CONTINUOUS
 10
-2.048866
 20
1.451657
  0
VERTEX
  8
PLAN_1
 62
     5
  6
CONTINUOUS
 10
-2.048866
 20
1.459768
  0
SEQEND
  8
0
  0
POLYLINE
  8
PLAN_1
 62
     5
  6
CONTINUOUS
 66
     1
 40
0.003000
 41
0.003000
  0
VERTEX
  8
PLAN_1
 62
     5
  6
CONTINUOUS
 10
-2.048866
 20
1.468303
  0
VERTEX
  8
PLAN_1
 62
     5
  6
CONTINUOUS
 10
-2.048866
 20
1.476413
  0
SEQEND
  8
0
  0
POLYLINE
  8
PLAN_1
 62
     5
  6
CONTINUOUS
 66
     1
 40
0.003000
 41
0.003000
  0
VERTEX
  8
PLAN_1
 62
     5
  6
CONTINUOUS
 10
-2.048866
 20
1.484953
  0
VERTEX
  8
PLAN_1
 62
     5
  6
CONTINUOUS
 10
-2.048866
 20
1.493063
  0
SEQEND
  8
0
  0
POLYLINE
  8
PLAN_1
 62
     5
  6
CONTINUOUS
 66
     1
 40
0.003000
 41
0.003000
  0
VERTEX
  8
PLAN_1
 62
     5
  6
CONTINUOUS
 10
-2.048866
 20
1.501598
  0
VERTEX
  8
PLAN_1
 62
     5
  6
CONTINUOUS
 10
-2.048866
 20
1.509713
  0
SEQEND
  8
0
  0
POLYLINE
  8
PLAN_1
 62
     5
  6
CONTINUOUS
 66
     1
 40
0.003000
 41
0.003000
  0
VERTEX
  8
PLAN_1
 62
     5
  6
CONTINUOUS
 10
-2.048866
 20
1.518248
  0
VERTEX
  8
PLAN_1
 62
     5
  6
CONTINUOUS
 10
-2.048866
 20
1.526358
  0
SEQEND
  8
0
  0
POLYLINE
  8
PLAN_1
 62
     5
  6
CONTINUOUS
 66
     1
 40
0.003000
 41
0.003000
  0
VERTEX
  8
PLAN_1
 62
     5
  6
CONTINUOUS
 10
-2.048866
 20
1.534898
  0
VERTEX
  8
PLAN_1
 62
     5
  6
CONTINUOUS
 10
-2.048866
 20
1.543008
  0
SEQEND
  8
0
  0
POLYLINE
  8
PLAN_1
 62
     5
  6
CONTINUOUS
 66
     1
 40
0.003000
 41
0.003000
  0
VERTEX
  8
PLAN_1
 62
     5
  6
CONTINUOUS
 10
-2.048866
 20
1.551543
  0
VERTEX
  8
PLAN_1
 62
     5
  6
CONTINUOUS
 10
-2.048866
 20
1.559654
  0
SEQEND
  8
0
  0
POLYLINE
  8
PLAN_1
 62
     5
  6
CONTINUOUS
 66
     1
 40
0.003000
 41
0.003000
  0
VERTEX
  8
PLAN_1
 62
     5
  6
CONTINUOUS
 10
-2.048866
 20
1.568193
  0
VERTEX
  8
PLAN_1
 62
     5
  6
CONTINUOUS
 10
-2.048866
 20
1.576303
  0
SEQEND
  8
0
  0
POLYLINE
  8
PLAN_1
 62
     5
  6
CONTINUOUS
 66
     1
 40
0.003000
 41
0.003000
  0
VERTEX
  8
PLAN_1
 62
     5
  6
CONTINUOUS
 10
-2.048866
 20
1.584843
  0
VERTEX
  8
PLAN_1
 62
     5
  6
CONTINUOUS
 10
-2.048866
 20
1.592953
  0
SEQEND
  8
0
  0
POLYLINE
  8
PLAN_1
 62
     5
  6
CONTINUOUS
 66
     1
 40
0.003000
 41
0.003000
  0
VERTEX
  8
PLAN_1
 62
     5
  6
CONTINUOUS
 10
-2.048866
 20
1.601488
  0
VERTEX
  8
PLAN_1
 62
     5
  6
CONTINUOUS
 10
-2.048866
 20
1.609598
  0
SEQEND
  8
0
  0
POLYLINE
  8
PLAN_1
 62
     5
  6
CONTINUOUS
 66
     1
 40
0.003000
 41
0.003000
  0
VERTEX
  8
PLAN_1
 62
     5
  6
CONTINUOUS
 10
-2.048866
 20
1.618138
  0
VERTEX
  8
PLAN_1
 62
     5
  6
CONTINUOUS
 10
-2.048866
 20
1.626248
  0
SEQEND
  8
0
  0
POLYLINE
  8
PLAN_1
 62
     5
  6
CONTINUOUS
 66
     1
 40
0.003000
 41
0.003000
  0
VERTEX
  8
PLAN_1
 62
     5
  6
CONTINUOUS
 10
-2.048866
 20
1.634783
  0
VERTEX
  8
PLAN_1
 62
     5
  6
CONTINUOUS
 10
-2.048866
 20
1.642898
  0
SEQEND
  8
0
  0
POLYLINE
  8
PLAN_1
 62
     5
  6
CONTINUOUS
 66
     1
 40
0.003000
 41
0.003000
  0
VERTEX
  8
PLAN_1
 62
     5
  6
CONTINUOUS
 10
-2.048866
 20
1.651433
  0
VERTEX
  8
PLAN_1
 62
     5
  6
CONTINUOUS
 10
-2.048866
 20
1.659543
  0
SEQEND
  8
0
  0
POLYLINE
  8
PLAN_1
 62
     5
  6
CONTINUOUS
 66
     1
 40
0.003000
 41
0.003000
  0
VERTEX
  8
PLAN_1
 62
     5
  6
CONTINUOUS
 10
-2.048866
 20
1.668083
  0
VERTEX
  8
PLAN_1
 62
     5
  6
CONTINUOUS
 10
-2.048866
 20
1.676193
  0
SEQEND
  8
0
  0
POLYLINE
  8
PLAN_1
 62
     5
  6
CONTINUOUS
 66
     1
 40
0.003000
 41
0.003000
  0
VERTEX
  8
PLAN_1
 62
     5
  6
CONTINUOUS
 10
-2.048866
 20
1.684728
  0
VERTEX
  8
PLAN_1
 62
     5
  6
CONTINUOUS
 10
-2.048866
 20
1.692839
  0
SEQEND
  8
0
  0
POLYLINE
  8
PLAN_1
 62
     5
  6
CONTINUOUS
 66
     1
 40
0.003000
 41
0.003000
  0
VERTEX
  8
PLAN_1
 62
     5
  6
CONTINUOUS
 10
-2.048866
 20
1.701378
  0
VERTEX
  8
PLAN_1
 62
     5
  6
CONTINUOUS
 10
-2.048866
 20
1.709488
  0
SEQEND
  8
0
  0
POLYLINE
  8
PLAN_1
 62
     5
  6
CONTINUOUS
 66
     1
 40
0.003000
 41
0.003000
  0
VERTEX
  8
PLAN_1
 62
     5
  6
CONTINUOUS
 10
-2.048866
 20
1.718028
  0
VERTEX
  8
PLAN_1
 62
     5
  6
CONTINUOUS
 10
-2.048866
 20
1.726138
  0
SEQEND
  8
0
  0
POLYLINE
  8
PLAN_1
 62
     5
  6
CONTINUOUS
 66
     1
 40
0.003000
 41
0.003000
  0
VERTEX
  8
PLAN_1
 62
     5
  6
CONTINUOUS
 10
-2.048866
 20
1.734673
  0
VERTEX
  8
PLAN_1
 62
     5
  6
CONTINUOUS
 10
-2.048866
 20
1.742783
  0
SEQEND
  8
0
  0
POLYLINE
  8
PLAN_1
 62
     5
  6
CONTINUOUS
 66
     1
 40
0.003000
 41
0.003000
  0
VERTEX
  8
PLAN_1
 62
     5
  6
CONTINUOUS
 10
-2.048866
 20
1.751323
  0
VERTEX
  8
PLAN_1
 62
     5
  6
CONTINUOUS
 10
-2.048866
 20
1.759433
  0
SEQEND
  8
0
  0
POLYLINE
  8
PLAN_1
 62
     5
  6
CONTINUOUS
 66
     1
 40
0.003000
 41
0.003000
  0
VERTEX
  8
PLAN_1
 62
     5
  6
CONTINUOUS
 10
-2.048866
 20
1.765409
  0
VERTEX
  8
PLAN_1
 62
     5
  6
CONTINUOUS
 10
-2.049291
 20
1.769677
  0
VERTEX
  8
PLAN_1
 62
     5
  6
CONTINUOUS
 10
-2.048866
 20
1.773520
  0
VERTEX
  8
PLAN_1
 62
     5
  6
CONTINUOUS
 10
-2.048866
 20
1.773945
  0
SEQEND
  8
0
  0
POLYLINE
  8
PLAN_1
 62
     5
  6
CONTINUOUS
 66
     1
 40
0.003000
 41
0.003000
  0
VERTEX
  8
PLAN_1
 62
     5
  6
CONTINUOUS
 10
-2.046732
 20
1.782055
  0
VERTEX
  8
PLAN_1
 62
     5
  6
CONTINUOUS
 10
-2.045878
 20
1.784193
  0
VERTEX
  8
PLAN_1
 62
     5
  6
CONTINUOUS
 10
-2.044169
 20
1.787606
  0
VERTEX
  8
PLAN_1
 62
     5
  6
CONTINUOUS
 10
-2.042890
 20
1.789315
  0
SEQEND
  8
0
  0
POLYLINE
  8
PLAN_1
 62
     5
  6
CONTINUOUS
 66
     1
 40
0.003000
 41
0.003000
  0
VERTEX
  8
PLAN_1
 62
     5
  6
CONTINUOUS
 10
-2.037339
 20
1.795291
  0
VERTEX
  8
PLAN_1
 62
     5
  6
CONTINUOUS
 10
-2.037339
 20
1.795717
  0
VERTEX
  8
PLAN_1
 62
     5
  6
CONTINUOUS
 10
-2.034350
 20
1.797850
  0
VERTEX
  8
PLAN_1
 62
     5
  6
CONTINUOUS
 10
-2.031362
 20
1.799559
  0
VERTEX
  8
PLAN_1
 62
     5
  6
CONTINUOUS
 10
-2.030512
 20
1.799984
  0
SEQEND
  8
0
  0
POLYLINE
  8
PLAN_1
 62
     5
  6
CONTINUOUS
 66
     1
 40
0.003000
 41
0.003000
  0
VERTEX
  8
PLAN_1
 62
     5
  6
CONTINUOUS
 10
-2.022827
 20
1.802972
  0
VERTEX
  8
PLAN_1
 62
     5
  6
CONTINUOUS
 10
-2.020693
 20
1.803402
  0
VERTEX
  8
PLAN_1
 62
     5
  6
CONTINUOUS
 10
-2.016850
 20
1.804256
  0
VERTEX
  8
PLAN_1
 62
     5
  6
CONTINUOUS
 10
-2.014717
 20
1.804256
  0
SEQEND
  8
0
  0
POLYLINE
  8
PLAN_1
 62
     5
  6
CONTINUOUS
 66
     1
 40
0.003000
 41
0.003000
  0
VERTEX
  8
PLAN_1
 62
     5
  6
CONTINUOUS
 10
-2.013008
 20
1.804256
  0
VERTEX
  8
PLAN_1
 62
     5
  6
CONTINUOUS
 10
-2.004898
 20
1.804256
  0
SEQEND
  8
0
  0
POLYLINE
  8
PLAN_1
 62
     5
  6
CONTINUOUS
 66
     1
 40
0.003000
 41
0.003000
  0
VERTEX
  8
PLAN_1
 62
     5
  6
CONTINUOUS
 10
-1.996358
 20
1.804256
  0
VERTEX
  8
PLAN_1
 62
     5
  6
CONTINUOUS
 10
-1.988248
 20
1.804256
  0
SEQEND
  8
0
  0
POLYLINE
  8
PLAN_1
 62
     5
  6
CONTINUOUS
 66
     1
 40
0.003000
 41
0.003000
  0
VERTEX
  8
PLAN_1
 62
     5
  6
CONTINUOUS
 10
-1.979713
 20
1.804256
  0
VERTEX
  8
PLAN_1
 62
     5
  6
CONTINUOUS
 10
-1.971602
 20
1.804256
  0
SEQEND
  8
0
  0
POLYLINE
  8
PLAN_1
 62
     5
  6
CONTINUOUS
 66
     1
 40
0.003000
 41
0.003000
  0
VERTEX
  8
PLAN_1
 62
     5
  6
CONTINUOUS
 10
-1.963063
 20
1.804256
  0
VERTEX
  8
PLAN_1
 62
     5
  6
CONTINUOUS
 10
-1.954953
 20
1.804256
  0
SEQEND
  8
0
  0
POLYLINE
  8
PLAN_1
 62
     5
  6
CONTINUOUS
 66
     1
 40
0.003000
 41
0.003000
  0
VERTEX
  8
PLAN_1
 62
     5
  6
CONTINUOUS
 10
-1.946417
 20
1.804256
  0
VERTEX
  8
PLAN_1
 62
     5
  6
CONTINUOUS
 10
-1.938303
 20
1.804256
  0
SEQEND
  8
0
  0
POLYLINE
  8
PLAN_1
 62
     5
  6
CONTINUOUS
 66
     1
 40
0.003000
 41
0.003000
  0
VERTEX
  8
PLAN_1
 62
     5
  6
CONTINUOUS
 10
-1.929768
 20
1.804256
  0
VERTEX
  8
PLAN_1
 62
     5
  6
CONTINUOUS
 10
-1.921657
 20
1.804256
  0
SEQEND
  8
0
  0
POLYLINE
  8
PLAN_1
 62
     5
  6
CONTINUOUS
 66
     1
 40
0.003000
 41
0.003000
  0
VERTEX
  8
PLAN_1
 62
     5
  6
CONTINUOUS
 10
-1.913118
 20
1.804256
  0
VERTEX
  8
PLAN_1
 62
     5
  6
CONTINUOUS
 10
-1.905008
 20
1.804256
  0
SEQEND
  8
0
  0
POLYLINE
  8
PLAN_1
 62
     5
  6
CONTINUOUS
 66
     1
 40
0.003000
 41
0.003000
  0
VERTEX
  8
PLAN_1
 62
     5
  6
CONTINUOUS
 10
-1.896472
 20
1.804256
  0
VERTEX
  8
PLAN_1
 62
     5
  6
CONTINUOUS
 10
-1.888362
 20
1.804256
  0
SEQEND
  8
0
  0
POLYLINE
  8
PLAN_1
 62
     5
  6
CONTINUOUS
 66
     1
 40
0.003000
 41
0.003000
  0
VERTEX
  8
PLAN_1
 62
     5
  6
CONTINUOUS
 10
-1.879823
 20
1.804256
  0
VERTEX
  8
PLAN_1
 62
     5
  6
CONTINUOUS
 10
-1.871287
 20
1.804256
  0
SEQEND
  8
0
  0
POLYLINE
  8
PLAN_1
 62
     5
  6
CONTINUOUS
 66
     1
 40
0.003000
 41
0.003000
  0
VERTEX
  8
PLAN_1
 62
     5
  6
CONTINUOUS
 10
-1.863173
 20
1.804256
  0
VERTEX
  8
PLAN_1
 62
     5
  6
CONTINUOUS
 10
-1.854638
 20
1.804256
  0
SEQEND
  8
0
  0
POLYLINE
  8
PLAN_1
 62
     5
  6
CONTINUOUS
 66
     1
 40
0.003000
 41
0.003000
  0
VERTEX
  8
PLAN_1
 62
     5
  6
CONTINUOUS
 10
-1.846528
 20
1.804256
  0
VERTEX
  8
PLAN_1
 62
     5
  6
CONTINUOUS
 10
-1.837988
 20
1.804256
  0
SEQEND
  8
0
  0
POLYLINE
  8
PLAN_1
 62
     5
  6
CONTINUOUS
 66
     1
 40
0.003000
 41
0.003000
  0
VERTEX
  8
PLAN_1
 62
     5
  6
CONTINUOUS
 10
-1.829878
 20
1.804256
  0
VERTEX
  8
PLAN_1
 62
     5
  6
CONTINUOUS
 10
-1.821343
 20
1.804256
  0
SEQEND
  8
0
  0
POLYLINE
  8
PLAN_1
 62
     5
  6
CONTINUOUS
 66
     1
 40
0.003000
 41
0.003000
  0
VERTEX
  8
PLAN_1
 62
     5
  6
CONTINUOUS
 10
-1.813232
 20
1.804256
  0
VERTEX
  8
PLAN_1
 62
     5
  6
CONTINUOUS
 10
-1.804693
 20
1.804256
  0
SEQEND
  8
0
  0
POLYLINE
  8
PLAN_1
 62
     5
  6
CONTINUOUS
 66
     1
 40
0.003000
 41
0.003000
  0
VERTEX
  8
PLAN_1
 62
     5
  6
CONTINUOUS
 10
-1.796583
 20
1.804256
  0
VERTEX
  8
PLAN_1
 62
     5
  6
CONTINUOUS
 10
-1.788043
 20
1.804256
  0
SEQEND
  8
0
  0
POLYLINE
  8
PLAN_1
 62
     5
  6
CONTINUOUS
 66
     1
 40
0.003000
 41
0.003000
  0
VERTEX
  8
PLAN_1
 62
     5
  6
CONTINUOUS
 10
-1.779933
 20
1.804256
  0
VERTEX
  8
PLAN_1
 62
     5
  6
CONTINUOUS
 10
-1.771398
 20
1.804256
  0
SEQEND
  8
0
  0
POLYLINE
  8
PLAN_1
 62
     5
  6
CONTINUOUS
 66
     1
 40
0.003000
 41
0.003000
  0
VERTEX
  8
PLAN_1
 62
     5
  6
CONTINUOUS
 10
-1.763287
 20
1.804256
  0
VERTEX
  8
PLAN_1
 62
     5
  6
CONTINUOUS
 10
-1.754748
 20
1.804256
  0
SEQEND
  8
0
  0
POLYLINE
  8
PLAN_1
 62
     5
  6
CONTINUOUS
 66
     1
 40
0.003000
 41
0.003000
  0
VERTEX
  8
PLAN_1
 62
     5
  6
CONTINUOUS
 10
-1.746638
 20
1.804256
  0
VERTEX
  8
PLAN_1
 62
     5
  6
CONTINUOUS
 10
-1.738102
 20
1.804256
  0
SEQEND
  8
0
  0
POLYLINE
  8
PLAN_1
 62
     5
  6
CONTINUOUS
 66
     1
 40
0.003000
 41
0.003000
  0
VERTEX
  8
PLAN_1
 62
     5
  6
CONTINUOUS
 10
-1.729988
 20
1.804256
  0
VERTEX
  8
PLAN_1
 62
     5
  6
CONTINUOUS
 10
-1.721453
 20
1.804256
  0
SEQEND
  8
0
  0
POLYLINE
  8
PLAN_1
 62
     5
  6
CONTINUOUS
 66
     1
 40
0.003000
 41
0.003000
  0
VERTEX
  8
PLAN_1
 62
     5
  6
CONTINUOUS
 10
-1.713343
 20
1.804256
  0
VERTEX
  8
PLAN_1
 62
     5
  6
CONTINUOUS
 10
-1.704803
 20
1.804256
  0
SEQEND
  8
0
  0
POLYLINE
  8
PLAN_1
 62
     5
  6
CONTINUOUS
 66
     1
 40
0.003000
 41
0.003000
  0
VERTEX
  8
PLAN_1
 62
     5
  6
CONTINUOUS
 10
-1.696693
 20
1.804256
  0
VERTEX
  8
PLAN_1
 62
     5
  6
CONTINUOUS
 10
-1.688157
 20
1.804256
  0
SEQEND
  8
0
  0
POLYLINE
  8
PLAN_1
 62
     5
  6
CONTINUOUS
 66
     1
 40
0.003000
 41
0.003000
  0
VERTEX
  8
PLAN_1
 62
     5
  6
CONTINUOUS
 10
-1.680047
 20
1.804256
  0
VERTEX
  8
PLAN_1
 62
     5
  6
CONTINUOUS
 10
-1.671508
 20
1.804256
  0
SEQEND
  8
0
  0
POLYLINE
  8
PLAN_1
 62
     5
  6
CONTINUOUS
 66
     1
 40
0.003000
 41
0.003000
  0
VERTEX
  8
PLAN_1
 62
     5
  6
CONTINUOUS
 10
-1.663398
 20
1.804256
  0
VERTEX
  8
PLAN_1
 62
     5
  6
CONTINUOUS
 10
-1.654858
 20
1.804256
  0
SEQEND
  8
0
  0
POLYLINE
  8
PLAN_1
 62
     5
  6
CONTINUOUS
 66
     1
 40
0.003000
 41
0.003000
  0
VERTEX
  8
PLAN_1
 62
     5
  6
CONTINUOUS
 10
-1.646748
 20
1.804256
  0
VERTEX
  8
PLAN_1
 62
     5
  6
CONTINUOUS
 10
-1.638213
 20
1.804256
  0
SEQEND
  8
0
  0
POLYLINE
  8
PLAN_1
 62
     5
  6
CONTINUOUS
 66
     1
 40
0.003000
 41
0.003000
  0
VERTEX
  8
PLAN_1
 62
     5
  6
CONTINUOUS
 10
-1.630102
 20
1.804256
  0
VERTEX
  8
PLAN_1
 62
     5
  6
CONTINUOUS
 10
-1.621563
 20
1.804256
  0
SEQEND
  8
0
  0
POLYLINE
  8
PLAN_1
 62
     5
  6
CONTINUOUS
 66
     1
 40
0.003000
 41
0.003000
  0
VERTEX
  8
PLAN_1
 62
     5
  6
CONTINUOUS
 10
-1.613453
 20
1.804256
  0
VERTEX
  8
PLAN_1
 62
     5
  6
CONTINUOUS
 10
-1.604917
 20
1.804256
  0
SEQEND
  8
0
  0
POLYLINE
  8
PLAN_1
 62
     5
  6
CONTINUOUS
 66
     1
 40
0.003000
 41
0.003000
  0
VERTEX
  8
PLAN_1
 62
     5
  6
CONTINUOUS
 10
-1.596803
 20
1.804256
  0
VERTEX
  8
PLAN_1
 62
     5
  6
CONTINUOUS
 10
-1.588268
 20
1.804256
  0
SEQEND
  8
0
  0
POLYLINE
  8
PLAN_1
 62
     5
  6
CONTINUOUS
 66
     1
 40
0.003000
 41
0.003000
  0
VERTEX
  8
PLAN_1
 62
     5
  6
CONTINUOUS
 10
-1.580157
 20
1.804256
  0
VERTEX
  8
PLAN_1
 62
     5
  6
CONTINUOUS
 10
-1.571618
 20
1.804256
  0
SEQEND
  8
0
  0
POLYLINE
  8
PLAN_1
 62
     5
  6
CONTINUOUS
 66
     1
 40
0.003000
 41
0.003000
  0
VERTEX
  8
PLAN_1
 62
     5
  6
CONTINUOUS
 10
-1.563508
 20
1.804256
  0
VERTEX
  8
PLAN_1
 62
     5
  6
CONTINUOUS
 10
-1.554972
 20
1.804256
  0
SEQEND
  8
0
  0
POLYLINE
  8
PLAN_1
 62
     5
  6
CONTINUOUS
 66
     1
 40
0.003000
 41
0.003000
  0
VERTEX
  8
PLAN_1
 62
     5
  6
CONTINUOUS
 10
-1.546862
 20
1.804256
  0
VERTEX
  8
PLAN_1
 62
     5
  6
CONTINUOUS
 10
-1.538323
 20
1.804256
  0
SEQEND
  8
0
  0
POLYLINE
  8
PLAN_1
 62
     5
  6
CONTINUOUS
 66
     1
 40
0.003000
 41
0.003000
  0
VERTEX
  8
PLAN_1
 62
     5
  6
CONTINUOUS
 10
-1.530213
 20
1.804256
  0
VERTEX
  8
PLAN_1
 62
     5
  6
CONTINUOUS
 10
-1.521673
 20
1.804256
  0
SEQEND
  8
0
  0
POLYLINE
  8
PLAN_1
 62
     5
  6
CONTINUOUS
 66
     1
 40
0.003000
 41
0.003000
  0
VERTEX
  8
PLAN_1
 62
     5
  6
CONTINUOUS
 10
-1.513563
 20
1.804256
  0
VERTEX
  8
PLAN_1
 62
     5
  6
CONTINUOUS
 10
-1.505028
 20
1.804256
  0
SEQEND
  8
0
  0
POLYLINE
  8
PLAN_1
 62
     5
  6
CONTINUOUS
 66
     1
 40
0.003000
 41
0.003000
  0
VERTEX
  8
PLAN_1
 62
     5
  6
CONTINUOUS
 10
-1.496917
 20
1.804256
  0
VERTEX
  8
PLAN_1
 62
     5
  6
CONTINUOUS
 10
-1.488378
 20
1.804256
  0
SEQEND
  8
0
  0
POLYLINE
  8
PLAN_1
 62
     5
  6
CONTINUOUS
 66
     1
 40
0.003000
 41
0.003000
  0
VERTEX
  8
PLAN_1
 62
     5
  6
CONTINUOUS
 10
-1.479843
 20
1.804256
  0
VERTEX
  8
PLAN_1
 62
     5
  6
CONTINUOUS
 10
-1.471732
 20
1.804256
  0
SEQEND
  8
0
  0
POLYLINE
  8
PLAN_1
 62
     5
  6
CONTINUOUS
 66
     1
 40
0.003000
 41
0.003000
  0
VERTEX
  8
PLAN_1
 62
     5
  6
CONTINUOUS
 10
-1.463193
 20
1.804256
  0
VERTEX
  8
PLAN_1
 62
     5
  6
CONTINUOUS
 10
-1.455083
 20
1.804256
  0
SEQEND
  8
0
  0
POLYLINE
  8
PLAN_1
 62
     5
  6
CONTINUOUS
 66
     1
 40
0.003000
 41
0.003000
  0
VERTEX
  8
PLAN_1
 62
     5
  6
CONTINUOUS
 10
-1.446543
 20
1.804256
  0
VERTEX
  8
PLAN_1
 62
     5
  6
CONTINUOUS
 10
-1.438433
 20
1.804256
  0
SEQEND
  8
0
  0
POLYLINE
  8
PLAN_1
 62
     5
  6
CONTINUOUS
 66
     1
 40
0.003000
 41
0.003000
  0
VERTEX
  8
PLAN_1
 62
     5
  6
CONTINUOUS
 10
-1.429898
 20
1.804256
  0
VERTEX
  8
PLAN_1
 62
     5
  6
CONTINUOUS
 10
-1.421787
 20
1.804256
  0
SEQEND
  8
0
  0
POLYLINE
  8
PLAN_1
 62
     5
  6
CONTINUOUS
 66
     1
 40
0.003000
 41
0.003000
  0
VERTEX
  8
PLAN_1
 62
     5
  6
CONTINUOUS
 10
-1.413248
 20
1.804256
  0
VERTEX
  8
PLAN_1
 62
     5
  6
CONTINUOUS
 10
-1.405138
 20
1.804256
  0
SEQEND
  8
0
  0
POLYLINE
  8
PLAN_1
 62
     5
  6
CONTINUOUS
 66
     1
 40
0.003000
 41
0.003000
  0
VERTEX
  8
PLAN_1
 62
     5
  6
CONTINUOUS
 10
-1.396602
 20
1.804256
  0
VERTEX
  8
PLAN_1
 62
     5
  6
CONTINUOUS
 10
-1.388488
 20
1.804256
  0
SEQEND
  8
0
  0
POLYLINE
  8
PLAN_1
 62
     5
  6
CONTINUOUS
 66
     1
 40
0.003000
 41
0.003000
  0
VERTEX
  8
PLAN_1
 62
     5
  6
CONTINUOUS
 10
-1.379953
 20
1.804256
  0
VERTEX
  8
PLAN_1
 62
     5
  6
CONTINUOUS
 10
-1.371843
 20
1.804256
  0
SEQEND
  8
0
  0
POLYLINE
  8
PLAN_1
 62
     5
  6
CONTINUOUS
 66
     1
 40
0.003000
 41
0.003000
  0
VERTEX
  8
PLAN_1
 62
     5
  6
CONTINUOUS
 10
-1.363303
 20
1.804256
  0
VERTEX
  8
PLAN_1
 62
     5
  6
CONTINUOUS
 10
-1.355193
 20
1.804256
  0
SEQEND
  8
0
  0
POLYLINE
  8
PLAN_1
 62
     5
  6
CONTINUOUS
 66
     1
 40
0.003000
 41
0.003000
  0
VERTEX
  8
PLAN_1
 62
     5
  6
CONTINUOUS
 10
-1.346657
 20
1.804256
  0
VERTEX
  8
PLAN_1
 62
     5
  6
CONTINUOUS
 10
-1.338547
 20
1.804256
  0
SEQEND
  8
0
  0
POLYLINE
  8
PLAN_1
 62
     5
  6
CONTINUOUS
 66
     1
 40
0.003000
 41
0.003000
  0
VERTEX
  8
PLAN_1
 62
     5
  6
CONTINUOUS
 10
-1.330008
 20
1.804256
  0
VERTEX
  8
PLAN_1
 62
     5
  6
CONTINUOUS
 10
-1.321898
 20
1.804256
  0
SEQEND
  8
0
  0
POLYLINE
  8
PLAN_1
 62
     5
  6
CONTINUOUS
 66
     1
 40
0.003000
 41
0.003000
  0
VERTEX
  8
PLAN_1
 62
     5
  6
CONTINUOUS
 10
-1.313358
 20
1.804256
  0
VERTEX
  8
PLAN_1
 62
     5
  6
CONTINUOUS
 10
-1.305248
 20
1.804256
  0
SEQEND
  8
0
  0
POLYLINE
  8
PLAN_1
 62
     5
  6
CONTINUOUS
 66
     1
 40
0.003000
 41
0.003000
  0
VERTEX
  8
PLAN_1
 62
     5
  6
CONTINUOUS
 10
-1.296713
 20
1.804256
  0
VERTEX
  8
PLAN_1
 62
     5
  6
CONTINUOUS
 10
-1.288602
 20
1.804256
  0
SEQEND
  8
0
  0
POLYLINE
  8
PLAN_1
 62
     5
  6
CONTINUOUS
 66
     1
 40
0.003000
 41
0.003000
  0
VERTEX
  8
PLAN_1
 62
     5
  6
CONTINUOUS
 10
-1.280063
 20
1.804256
  0
VERTEX
  8
PLAN_1
 62
     5
  6
CONTINUOUS
 10
-1.271953
 20
1.804256
  0
SEQEND
  8
0
  0
POLYLINE
  8
PLAN_1
 62
     5
  6
CONTINUOUS
 66
     1
 40
0.003000
 41
0.003000
  0
VERTEX
  8
PLAN_1
 62
     5
  6
CONTINUOUS
 10
-1.263417
 20
1.804256
  0
VERTEX
  8
PLAN_1
 62
     5
  6
CONTINUOUS
 10
-1.255303
 20
1.804256
  0
SEQEND
  8
0
  0
POLYLINE
  8
PLAN_1
 62
     5
  6
CONTINUOUS
 66
     1
 40
0.003000
 41
0.003000
  0
VERTEX
  8
PLAN_1
 62
     5
  6
CONTINUOUS
 10
-1.246768
 20
1.804256
  0
VERTEX
  8
PLAN_1
 62
     5
  6
CONTINUOUS
 10
-1.238657
 20
1.804256
  0
SEQEND
  8
0
  0
POLYLINE
  8
PLAN_1
 62
     5
  6
CONTINUOUS
 66
     1
 40
0.003000
 41
0.003000
  0
VERTEX
  8
PLAN_1
 62
     5
  6
CONTINUOUS
 10
-1.230118
 20
1.804256
  0
VERTEX
  8
PLAN_1
 62
     5
  6
CONTINUOUS
 10
-1.222008
 20
1.804256
  0
SEQEND
  8
0
  0
POLYLINE
  8
PLAN_1
 62
     5
  6
CONTINUOUS
 66
     1
 40
0.003000
 41
0.003000
  0
VERTEX
  8
PLAN_1
 62
     5
  6
CONTINUOUS
 10
-1.213472
 20
1.804256
  0
VERTEX
  8
PLAN_1
 62
     5
  6
CONTINUOUS
 10
-1.205362
 20
1.804256
  0
SEQEND
  8
0
  0
POLYLINE
  8
PLAN_1
 62
     5
  6
CONTINUOUS
 66
     1
 40
0.003000
 41
0.003000
  0
VERTEX
  8
PLAN_1
 62
     5
  6
CONTINUOUS
 10
-1.196823
 20
1.804256
  0
VERTEX
  8
PLAN_1
 62
     5
  6
CONTINUOUS
 10
-1.188713
 20
1.804256
  0
SEQEND
  8
0
  0
POLYLINE
  8
PLAN_1
 62
     5
  6
CONTINUOUS
 66
     1
 40
0.003000
 41
0.003000
  0
VERTEX
  8
PLAN_1
 62
     5
  6
CONTINUOUS
 10
-1.180173
 20
1.804256
  0
VERTEX
  8
PLAN_1
 62
     5
  6
CONTINUOUS
 10
-1.172063
 20
1.804256
  0
SEQEND
  8
0
  0
POLYLINE
  8
PLAN_1
 62
     5
  6
CONTINUOUS
 66
     1
 40
0.003000
 41
0.003000
  0
VERTEX
  8
PLAN_1
 62
     5
  6
CONTINUOUS
 10
-1.163528
 20
1.804256
  0
VERTEX
  8
PLAN_1
 62
     5
  6
CONTINUOUS
 10
-1.155417
 20
1.804256
  0
SEQEND
  8
0
  0
POLYLINE
  8
PLAN_1
 62
     5
  6
CONTINUOUS
 66
     1
 40
0.003000
 41
0.003000
  0
VERTEX
  8
PLAN_1
 62
     5
  6
CONTINUOUS
 10
-1.146878
 20
1.804256
  0
VERTEX
  8
PLAN_1
 62
     5
  6
CONTINUOUS
 10
-1.138768
 20
1.804256
  0
SEQEND
  8
0
  0
POLYLINE
  8
PLAN_1
 62
     5
  6
CONTINUOUS
 66
     1
 40
0.003000
 41
0.003000
  0
VERTEX
  8
PLAN_1
 62
     5
  6
CONTINUOUS
 10
-1.130232
 20
1.804256
  0
VERTEX
  8
PLAN_1
 62
     5
  6
CONTINUOUS
 10
-1.122118
 20
1.804256
  0
SEQEND
  8
0
  0
POLYLINE
  8
PLAN_1
 62
     5
  6
CONTINUOUS
 66
     1
 40
0.003000
 41
0.003000
  0
VERTEX
  8
PLAN_1
 62
     5
  6
CONTINUOUS
 10
-1.113583
 20
1.804256
  0
VERTEX
  8
PLAN_1
 62
     5
  6
CONTINUOUS
 10
-1.105472
 20
1.804256
  0
SEQEND
  8
0
  0
POLYLINE
  8
PLAN_1
 62
     5
  6
CONTINUOUS
 66
     1
 40
0.003000
 41
0.003000
  0
VERTEX
  8
PLAN_1
 62
     5
  6
CONTINUOUS
 10
-1.096933
 20
1.804256
  0
VERTEX
  8
PLAN_1
 62
     5
  6
CONTINUOUS
 10
-1.088398
 20
1.804256
  0
SEQEND
  8
0
  0
POLYLINE
  8
PLAN_1
 62
     5
  6
CONTINUOUS
 66
     1
 40
0.003000
 41
0.003000
  0
VERTEX
  8
PLAN_1
 62
     5
  6
CONTINUOUS
 10
-1.080287
 20
1.804256
  0
VERTEX
  8
PLAN_1
 62
     5
  6
CONTINUOUS
 10
-1.071748
 20
1.804256
  0
SEQEND
  8
0
  0
POLYLINE
  8
PLAN_1
 62
     5
  6
CONTINUOUS
 66
     1
 40
0.003000
 41
0.003000
  0
VERTEX
  8
PLAN_1
 62
     5
  6
CONTINUOUS
 10
-1.063638
 20
1.804256
  0
VERTEX
  8
PLAN_1
 62
     5
  6
CONTINUOUS
 10
-1.055102
 20
1.804256
  0
SEQEND
  8
0
  0
POLYLINE
  8
PLAN_1
 62
     5
  6
CONTINUOUS
 66
     1
 40
0.003000
 41
0.003000
  0
VERTEX
  8
PLAN_1
 62
     5
  6
CONTINUOUS
 10
-1.046988
 20
1.804256
  0
VERTEX
  8
PLAN_1
 62
     5
  6
CONTINUOUS
 10
-1.038453
 20
1.804256
  0
SEQEND
  8
0
  0
POLYLINE
  8
PLAN_1
 62
     5
  6
CONTINUOUS
 66
     1
 40
0.003000
 41
0.003000
  0
VERTEX
  8
PLAN_1
 62
     5
  6
CONTINUOUS
 10
-1.030343
 20
1.804256
  0
VERTEX
  8
PLAN_1
 62
     5
  6
CONTINUOUS
 10
-1.021803
 20
1.804256
  0
SEQEND
  8
0
  0
POLYLINE
  8
PLAN_1
 62
     5
  6
CONTINUOUS
 66
     1
 40
0.003000
 41
0.003000
  0
VERTEX
  8
PLAN_1
 62
     5
  6
CONTINUOUS
 10
-1.013693
 20
1.804256
  0
VERTEX
  8
PLAN_1
 62
     5
  6
CONTINUOUS
 10
-1.005157
 20
1.804256
  0
SEQEND
  8
0
  0
POLYLINE
  8
PLAN_1
 62
     5
  6
CONTINUOUS
 66
     1
 40
0.003000
 41
0.003000
  0
VERTEX
  8
PLAN_1
 62
     5
  6
CONTINUOUS
 10
-0.997047
 20
1.804256
  0
VERTEX
  8
PLAN_1
 62
     5
  6
CONTINUOUS
 10
-0.988508
 20
1.804256
  0
SEQEND
  8
0
  0
POLYLINE
  8
PLAN_1
 62
     5
  6
CONTINUOUS
 66
     1
 40
0.003000
 41
0.003000
  0
VERTEX
  8
PLAN_1
 62
     5
  6
CONTINUOUS
 10
-0.980398
 20
1.804256
  0
VERTEX
  8
PLAN_1
 62
     5
  6
CONTINUOUS
 10
-0.971858
 20
1.804256
  0
SEQEND
  8
0
  0
POLYLINE
  8
PLAN_1
 62
     5
  6
CONTINUOUS
 66
     1
 40
0.003000
 41
0.003000
  0
VERTEX
  8
PLAN_1
 62
     5
  6
CONTINUOUS
 10
-0.963748
 20
1.804256
  0
VERTEX
  8
PLAN_1
 62
     5
  6
CONTINUOUS
 10
-0.955213
 20
1.804256
  0
SEQEND
  8
0
  0
POLYLINE
  8
PLAN_1
 62
     5
  6
CONTINUOUS
 66
     1
 40
0.003000
 41
0.003000
  0
VERTEX
  8
PLAN_1
 62
     5
  6
CONTINUOUS
 10
-0.947102
 20
1.804256
  0
VERTEX
  8
PLAN_1
 62
     5
  6
CONTINUOUS
 10
-0.938563
 20
1.804256
  0
SEQEND
  8
0
  0
POLYLINE
  8
PLAN_1
 62
     5
  6
CONTINUOUS
 66
     1
 40
0.003000
 41
0.003000
  0
VERTEX
  8
PLAN_1
 62
     5
  6
CONTINUOUS
 10
-0.930453
 20
1.804256
  0
VERTEX
  8
PLAN_1
 62
     5
  6
CONTINUOUS
 10
-0.921917
 20
1.804256
  0
SEQEND
  8
0
  0
POLYLINE
  8
PLAN_1
 62
     5
  6
CONTINUOUS
 66
     1
 40
0.003000
 41
0.003000
  0
VERTEX
  8
PLAN_1
 62
     5
  6
CONTINUOUS
 10
-0.913803
 20
1.804256
  0
VERTEX
  8
PLAN_1
 62
     5
  6
CONTINUOUS
 10
-0.905268
 20
1.804256
  0
SEQEND
  8
0
  0
POLYLINE
  8
PLAN_1
 62
     5
  6
CONTINUOUS
 66
     1
 40
0.003000
 41
0.003000
  0
VERTEX
  8
PLAN_1
 62
     5
  6
CONTINUOUS
 10
-0.897157
 20
1.804256
  0
VERTEX
  8
PLAN_1
 62
     5
  6
CONTINUOUS
 10
-0.888618
 20
1.804256
  0
SEQEND
  8
0
  0
POLYLINE
  8
PLAN_1
 62
     5
  6
CONTINUOUS
 66
     1
 40
0.003000
 41
0.003000
  0
VERTEX
  8
PLAN_1
 62
     5
  6
CONTINUOUS
 10
-0.880508
 20
1.804256
  0
VERTEX
  8
PLAN_1
 62
     5
  6
CONTINUOUS
 10
-0.871972
 20
1.804256
  0
SEQEND
  8
0
  0
POLYLINE
  8
PLAN_1
 62
     5
  6
CONTINUOUS
 66
     1
 40
0.003000
 41
0.003000
  0
VERTEX
  8
PLAN_1
 62
     5
  6
CONTINUOUS
 10
-0.863862
 20
1.804256
  0
VERTEX
  8
PLAN_1
 62
     5
  6
CONTINUOUS
 10
-0.855323
 20
1.804256
  0
SEQEND
  8
0
  0
POLYLINE
  8
PLAN_1
 62
     5
  6
CONTINUOUS
 66
     1
 40
0.003000
 41
0.003000
  0
VERTEX
  8
PLAN_1
 62
     5
  6
CONTINUOUS
 10
-0.847213
 20
1.804256
  0
VERTEX
  8
PLAN_1
 62
     5
  6
CONTINUOUS
 10
-0.838673
 20
1.804256
  0
SEQEND
  8
0
  0
POLYLINE
  8
PLAN_1
 62
     5
  6
CONTINUOUS
 66
     1
 40
0.003000
 41
0.003000
  0
VERTEX
  8
PLAN_1
 62
     5
  6
CONTINUOUS
 10
-0.830563
 20
1.804256
  0
VERTEX
  8
PLAN_1
 62
     5
  6
CONTINUOUS
 10
-0.822028
 20
1.804256
  0
SEQEND
  8
0
  0
POLYLINE
  8
PLAN_1
 62
     5
  6
CONTINUOUS
 66
     1
 40
0.003000
 41
0.003000
  0
VERTEX
  8
PLAN_1
 62
     5
  6
CONTINUOUS
 10
-0.813917
 20
1.804256
  0
VERTEX
  8
PLAN_1
 62
     5
  6
CONTINUOUS
 10
-0.805378
 20
1.804256
  0
SEQEND
  8
0
  0
POLYLINE
  8
PLAN_1
 62
     5
  6
CONTINUOUS
 66
     1
 40
0.003000
 41
0.003000
  0
VERTEX
  8
PLAN_1
 62
     5
  6
CONTINUOUS
 10
-0.797268
 20
1.804256
  0
VERTEX
  8
PLAN_1
 62
     5
  6
CONTINUOUS
 10
-0.788732
 20
1.804256
  0
SEQEND
  8
0
  0
POLYLINE
  8
PLAN_1
 62
     5
  6
CONTINUOUS
 66
     1
 40
0.003000
 41
0.003000
  0
VERTEX
  8
PLAN_1
 62
     5
  6
CONTINUOUS
 10
-0.780618
 20
1.804256
  0
VERTEX
  8
PLAN_1
 62
     5
  6
CONTINUOUS
 10
-0.772083
 20
1.804256
  0
SEQEND
  8
0
  0
POLYLINE
  8
PLAN_1
 62
     5
  6
CONTINUOUS
 66
     1
 40
0.003000
 41
0.003000
  0
VERTEX
  8
PLAN_1
 62
     5
  6
CONTINUOUS
 10
-0.763972
 20
1.804256
  0
VERTEX
  8
PLAN_1
 62
     5
  6
CONTINUOUS
 10
-0.755433
 20
1.804256
  0
SEQEND
  8
0
  0
POLYLINE
  8
PLAN_1
 62
     5
  6
CONTINUOUS
 66
     1
 40
0.003000
 41
0.003000
  0
VERTEX
  8
PLAN_1
 62
     5
  6
CONTINUOUS
 10
-0.747323
 20
1.804256
  0
VERTEX
  8
PLAN_1
 62
     5
  6
CONTINUOUS
 10
-0.738787
 20
1.804256
  0
SEQEND
  8
0
  0
POLYLINE
  8
PLAN_1
 62
     5
  6
CONTINUOUS
 66
     1
 40
0.003000
 41
0.003000
  0
VERTEX
  8
PLAN_1
 62
     5
  6
CONTINUOUS
 10
-0.730677
 20
1.804256
  0
VERTEX
  8
PLAN_1
 62
     5
  6
CONTINUOUS
 10
-0.722138
 20
1.804256
  0
SEQEND
  8
0
  0
POLYLINE
  8
PLAN_1
 62
     5
  6
CONTINUOUS
 66
     1
 40
0.003000
 41
0.003000
  0
VERTEX
  8
PLAN_1
 62
     5
  6
CONTINUOUS
 10
-0.714028
 20
1.804256
  0
VERTEX
  8
PLAN_1
 62
     5
  6
CONTINUOUS
 10
-0.705488
 20
1.804256
  0
SEQEND
  8
0
  0
POLYLINE
  8
PLAN_1
 62
     5
  6
CONTINUOUS
 66
     1
 40
0.003000
 41
0.003000
  0
VERTEX
  8
PLAN_1
 62
     5
  6
CONTINUOUS
 10
-0.696953
 20
1.804256
  0
VERTEX
  8
PLAN_1
 62
     5
  6
CONTINUOUS
 10
-0.688843
 20
1.804256
  0
SEQEND
  8
0
  0
POLYLINE
  8
PLAN_1
 62
     5
  6
CONTINUOUS
 66
     1
 40
0.003000
 41
0.003000
  0
VERTEX
  8
PLAN_1
 62
     5
  6
CONTINUOUS
 10
-0.680303
 20
1.804256
  0
VERTEX
  8
PLAN_1
 62
     5
  6
CONTINUOUS
 10
-0.672193
 20
1.804256
  0
SEQEND
  8
0
  0
POLYLINE
  8
PLAN_1
 62
     5
  6
CONTINUOUS
 66
     1
 40
0.003000
 41
0.003000
  0
VERTEX
  8
PLAN_1
 62
     5
  6
CONTINUOUS
 10
-0.663657
 20
1.804256
  0
VERTEX
  8
PLAN_1
 62
     5
  6
CONTINUOUS
 10
-0.655547
 20
1.804256
  0
SEQEND
  8
0
  0
POLYLINE
  8
PLAN_1
 62
     5
  6
CONTINUOUS
 66
     1
 40
0.003000
 41
0.003000
  0
VERTEX
  8
PLAN_1
 62
     5
  6
CONTINUOUS
 10
-0.647008
 20
1.804256
  0
VERTEX
  8
PLAN_1
 62
     5
  6
CONTINUOUS
 10
-0.638898
 20
1.804256
  0
SEQEND
  8
0
  0
POLYLINE
  8
PLAN_1
 62
     5
  6
CONTINUOUS
 66
     1
 40
0.003000
 41
0.003000
  0
VERTEX
  8
PLAN_1
 62
     5
  6
CONTINUOUS
 10
-0.630358
 20
1.804256
  0
VERTEX
  8
PLAN_1
 62
     5
  6
CONTINUOUS
 10
-0.622248
 20
1.804256
  0
SEQEND
  8
0
  0
POLYLINE
  8
PLAN_1
 62
     5
  6
CONTINUOUS
 66
     1
 40
0.003000
 41
0.003000
  0
VERTEX
  8
PLAN_1
 62
     5
  6
CONTINUOUS
 10
-0.613713
 20
1.804256
  0
VERTEX
  8
PLAN_1
 62
     5
  6
CONTINUOUS
 10
-0.605602
 20
1.804256
  0
SEQEND
  8
0
  0
POLYLINE
  8
PLAN_1
 62
     5
  6
CONTINUOUS
 66
     1
 40
0.003000
 41
0.003000
  0
VERTEX
  8
PLAN_1
 62
     5
  6
CONTINUOUS
 10
-0.597063
 20
1.804256
  0
VERTEX
  8
PLAN_1
 62
     5
  6
CONTINUOUS
 10
-0.588953
 20
1.804256
  0
SEQEND
  8
0
  0
POLYLINE
  8
PLAN_1
 62
     5
  6
CONTINUOUS
 66
     1
 40
0.003000
 41
0.003000
  0
VERTEX
  8
PLAN_1
 62
     5
  6
CONTINUOUS
 10
-0.580417
 20
1.804256
  0
VERTEX
  8
PLAN_1
 62
     5
  6
CONTINUOUS
 10
-0.572303
 20
1.804256
  0
SEQEND
  8
0
  0
POLYLINE
  8
PLAN_1
 62
     5
  6
CONTINUOUS
 66
     1
 40
0.003000
 41
0.003000
  0
VERTEX
  8
PLAN_1
 62
     5
  6
CONTINUOUS
 10
-0.563768
 20
1.804256
  0
VERTEX
  8
PLAN_1
 62
     5
  6
CONTINUOUS
 10
-0.555657
 20
1.804256
  0
SEQEND
  8
0
  0
POLYLINE
  8
PLAN_1
 62
     5
  6
CONTINUOUS
 66
     1
 40
0.003000
 41
0.003000
  0
VERTEX
  8
PLAN_1
 62
     5
  6
CONTINUOUS
 10
-0.547118
 20
1.804256
  0
VERTEX
  8
PLAN_1
 62
     5
  6
CONTINUOUS
 10
-0.539008
 20
1.804256
  0
SEQEND
  8
0
  0
POLYLINE
  8
PLAN_1
 62
     5
  6
CONTINUOUS
 66
     1
 40
0.003000
 41
0.003000
  0
VERTEX
  8
PLAN_1
 62
     5
  6
CONTINUOUS
 10
-0.530472
 20
1.804256
  0
VERTEX
  8
PLAN_1
 62
     5
  6
CONTINUOUS
 10
-0.522362
 20
1.804256
  0
SEQEND
  8
0
  0
POLYLINE
  8
PLAN_1
 62
     5
  6
CONTINUOUS
 66
     1
 40
0.003000
 41
0.003000
  0
VERTEX
  8
PLAN_1
 62
     5
  6
CONTINUOUS
 10
-0.513823
 20
1.804256
  0
VERTEX
  8
PLAN_1
 62
     5
  6
CONTINUOUS
 10
-0.505713
 20
1.804256
  0
SEQEND
  8
0
  0
POLYLINE
  8
PLAN_1
 62
     5
  6
CONTINUOUS
 66
     1
 40
0.003000
 41
0.003000
  0
VERTEX
  8
PLAN_1
 62
     5
  6
CONTINUOUS
 10
-0.499736
 20
1.804256
  0
VERTEX
  8
PLAN_1
 62
     5
  6
CONTINUOUS
 10
-0.495894
 20
1.804256
  0
VERTEX
  8
PLAN_1
 62
     5
  6
CONTINUOUS
 10
-0.492051
 20
1.803402
  0
VERTEX
  8
PLAN_1
 62
     5
  6
CONTINUOUS
 10
-0.491197
 20
1.803402
  0
SEQEND
  8
0
  0
POLYLINE
  8
PLAN_1
 62
     5
  6
CONTINUOUS
 66
     1
 40
0.003000
 41
0.003000
  0
VERTEX
  8
PLAN_1
 62
     5
  6
CONTINUOUS
 10
-0.483516
 20
1.800839
  0
VERTEX
  8
PLAN_1
 62
     5
  6
CONTINUOUS
 10
-0.481382
 20
1.799559
  0
VERTEX
  8
PLAN_1
 62
     5
  6
CONTINUOUS
 10
-0.477965
 20
1.797850
  0
VERTEX
  8
PLAN_1
 62
     5
  6
CONTINUOUS
 10
-0.476260
 20
1.796571
  0
SEQEND
  8
0
  0
POLYLINE
  8
PLAN_1
 62
     5
  6
CONTINUOUS
 66
     1
 40
0.003000
 41
0.003000
  0
VERTEX
  8
PLAN_1
 62
     5
  6
CONTINUOUS
 10
-0.470283
 20
1.791020
  0
VERTEX
  8
PLAN_1
 62
     5
  6
CONTINUOUS
 10
-0.469854
 20
1.790169
  0
VERTEX
  8
PLAN_1
 62
     5
  6
CONTINUOUS
 10
-0.467295
 20
1.787181
  0
VERTEX
  8
PLAN_1
 62
     5
  6
CONTINUOUS
 10
-0.465587
 20
1.784193
  0
VERTEX
  8
PLAN_1
 62
     5
  6
CONTINUOUS
 10
-0.465157
 20
1.784193
  0
SEQEND
  8
0
  0
POLYLINE
  8
PLAN_1
 62
     5
  6
CONTINUOUS
 66
     1
 40
0.003000
 41
0.003000
  0
VERTEX
  8
PLAN_1
 62
     5
  6
CONTINUOUS
 10
-0.461744
 20
1.776508
  0
VERTEX
  8
PLAN_1
 62
     5
  6
CONTINUOUS
 10
-0.460890
 20
1.773520
  0
VERTEX
  8
PLAN_1
 62
     5
  6
CONTINUOUS
 10
-0.460035
 20
1.769677
  0
VERTEX
  8
PLAN_1
 62
     5
  6
CONTINUOUS
 10
-0.460035
 20
1.768398
  0
SEQEND
  8
0
  0
POLYLINE
  8
PLAN_1
 62
     5
  6
CONTINUOUS
 66
     1
 40
0.003000
 41
0.003000
  0
VERTEX
  8
PLAN_1
 62
     5
  6
CONTINUOUS
 10
-0.459610
 20
1.765835
  0
VERTEX
  8
PLAN_1
 62
     5
  6
CONTINUOUS
 10
-0.459610
 20
1.757724
  0
SEQEND
  8
0
  0
POLYLINE
  8
PLAN_1
 62
     5
  6
CONTINUOUS
 66
     1
 40
0.003000
 41
0.003000
  0
VERTEX
  8
PLAN_1
 62
     5
  6
CONTINUOUS
 10
-0.459610
 20
1.749189
  0
VERTEX
  8
PLAN_1
 62
     5
  6
CONTINUOUS
 10
-0.459610
 20
1.741079
  0
SEQEND
  8
0
  0
POLYLINE
  8
PLAN_1
 62
     5
  6
CONTINUOUS
 66
     1
 40
0.003000
 41
0.003000
  0
VERTEX
  8
PLAN_1
 62
     5
  6
CONTINUOUS
 10
-0.459610
 20
1.732539
  0
VERTEX
  8
PLAN_1
 62
     5
  6
CONTINUOUS
 10
-0.459610
 20
1.724429
  0
SEQEND
  8
0
  0
POLYLINE
  8
PLAN_1
 62
     5
  6
CONTINUOUS
 66
     1
 40
0.003000
 41
0.003000
  0
VERTEX
  8
PLAN_1
 62
     5
  6
CONTINUOUS
 10
-0.459610
 20
1.715890
  0
VERTEX
  8
PLAN_1
 62
     5
  6
CONTINUOUS
 10
-0.459610
 20
1.707780
  0
SEQEND
  8
0
  0
POLYLINE
  8
PLAN_1
 62
     5
  6
CONTINUOUS
 66
     1
 40
0.003000
 41
0.003000
  0
VERTEX
  8
PLAN_1
 62
     5
  6
CONTINUOUS
 10
-0.459610
 20
1.699244
  0
VERTEX
  8
PLAN_1
 62
     5
  6
CONTINUOUS
 10
-0.459610
 20
1.691134
  0
SEQEND
  8
0
  0
POLYLINE
  8
PLAN_1
 62
     5
  6
CONTINUOUS
 66
     1
 40
0.003000
 41
0.003000
  0
VERTEX
  8
PLAN_1
 62
     5
  6
CONTINUOUS
 10
-0.459610
 20
1.682594
  0
VERTEX
  8
PLAN_1
 62
     5
  6
CONTINUOUS
 10
-0.459610
 20
1.674484
  0
SEQEND
  8
0
  0
POLYLINE
  8
PLAN_1
 62
     5
  6
CONTINUOUS
 66
     1
 40
0.003000
 41
0.003000
  0
VERTEX
  8
PLAN_1
 62
     5
  6
CONTINUOUS
 10
-0.459610
 20
1.665949
  0
VERTEX
  8
PLAN_1
 62
     5
  6
CONTINUOUS
 10
-0.459610
 20
1.657835
  0
SEQEND
  8
0
  0
POLYLINE
  8
PLAN_1
 62
     5
  6
CONTINUOUS
 66
     1
 40
0.003000
 41
0.003000
  0
VERTEX
  8
PLAN_1
 62
     5
  6
CONTINUOUS
 10
-0.459610
 20
1.649299
  0
VERTEX
  8
PLAN_1
 62
     5
  6
CONTINUOUS
 10
-0.459610
 20
1.641189
  0
SEQEND
  8
0
  0
POLYLINE
  8
PLAN_1
 62
     5
  6
CONTINUOUS
 66
     1
 40
0.003000
 41
0.003000
  0
VERTEX
  8
PLAN_1
 62
     5
  6
CONTINUOUS
 10
-0.459610
 20
1.632650
  0
VERTEX
  8
PLAN_1
 62
     5
  6
CONTINUOUS
 10
-0.459610
 20
1.624539
  0
SEQEND
  8
0
  0
POLYLINE
  8
PLAN_1
 62
     5
  6
CONTINUOUS
 66
     1
 40
0.003000
 41
0.003000
  0
VERTEX
  8
PLAN_1
 62
     5
  6
CONTINUOUS
 10
-0.459610
 20
1.616004
  0
VERTEX
  8
PLAN_1
 62
     5
  6
CONTINUOUS
 10
-0.459610
 20
1.607894
  0
SEQEND
  8
0
  0
POLYLINE
  8
PLAN_1
 62
     5
  6
CONTINUOUS
 66
     1
 40
0.003000
 41
0.003000
  0
VERTEX
  8
PLAN_1
 62
     5
  6
CONTINUOUS
 10
-0.459610
 20
1.599354
  0
VERTEX
  8
PLAN_1
 62
     5
  6
CONTINUOUS
 10
-0.459610
 20
1.591244
  0
SEQEND
  8
0
  0
POLYLINE
  8
PLAN_1
 62
     5
  6
CONTINUOUS
 66
     1
 40
0.003000
 41
0.003000
  0
VERTEX
  8
PLAN_1
 62
     5
  6
CONTINUOUS
 10
-0.459610
 20
1.582705
  0
VERTEX
  8
PLAN_1
 62
     5
  6
CONTINUOUS
 10
-0.459610
 20
1.574594
  0
SEQEND
  8
0
  0
POLYLINE
  8
PLAN_1
 62
     5
  6
CONTINUOUS
 66
     1
 40
0.003000
 41
0.003000
  0
VERTEX
  8
PLAN_1
 62
     5
  6
CONTINUOUS
 10
-0.459610
 20
1.566059
  0
VERTEX
  8
PLAN_1
 62
     5
  6
CONTINUOUS
 10
-0.459610
 20
1.557520
  0
SEQEND
  8
0
  0
POLYLINE
  8
PLAN_1
 62
     5
  6
CONTINUOUS
 66
     1
 40
0.003000
 41
0.003000
  0
VERTEX
  8
PLAN_1
 62
     5
  6
CONTINUOUS
 10
-0.459610
 20
1.549409
  0
VERTEX
  8
PLAN_1
 62
     5
  6
CONTINUOUS
 10
-0.459610
 20
1.540874
  0
SEQEND
  8
0
  0
POLYLINE
  8
PLAN_1
 62
     5
  6
CONTINUOUS
 66
     1
 40
0.003000
 41
0.003000
  0
VERTEX
  8
PLAN_1
 62
     5
  6
CONTINUOUS
 10
-0.459610
 20
1.532764
  0
VERTEX
  8
PLAN_1
 62
     5
  6
CONTINUOUS
 10
-0.459610
 20
1.524224
  0
SEQEND
  8
0
  0
POLYLINE
  8
PLAN_1
 62
     5
  6
CONTINUOUS
 66
     1
 40
0.003000
 41
0.003000
  0
VERTEX
  8
PLAN_1
 62
     5
  6
CONTINUOUS
 10
-0.459610
 20
1.516114
  0
VERTEX
  8
PLAN_1
 62
     5
  6
CONTINUOUS
 10
-0.459610
 20
1.507575
  0
SEQEND
  8
0
  0
POLYLINE
  8
PLAN_1
 62
     5
  6
CONTINUOUS
 66
     1
 40
0.003000
 41
0.003000
  0
VERTEX
  8
PLAN_1
 62
     5
  6
CONTINUOUS
 10
-0.459610
 20
1.499465
  0
VERTEX
  8
PLAN_1
 62
     5
  6
CONTINUOUS
 10
-0.459610
 20
1.490929
  0
SEQEND
  8
0
  0
POLYLINE
  8
PLAN_1
 62
     5
  6
CONTINUOUS
 66
     1
 40
0.003000
 41
0.003000
  0
VERTEX
  8
PLAN_1
 62
     5
  6
CONTINUOUS
 10
-0.459610
 20
1.482819
  0
VERTEX
  8
PLAN_1
 62
     5
  6
CONTINUOUS
 10
-0.459610
 20
1.474280
  0
SEQEND
  8
0
  0
POLYLINE
  8
PLAN_1
 62
     5
  6
CONTINUOUS
 66
     1
 40
0.003000
 41
0.003000
  0
VERTEX
  8
PLAN_1
 62
     5
  6
CONTINUOUS
 10
-0.459610
 20
1.466169
  0
VERTEX
  8
PLAN_1
 62
     5
  6
CONTINUOUS
 10
-0.459610
 20
1.457634
  0
SEQEND
  8
0
  0
POLYLINE
  8
PLAN_1
 62
     5
  6
CONTINUOUS
 66
     1
 40
0.003000
 41
0.003000
  0
VERTEX
  8
PLAN_1
 62
     5
  6
CONTINUOUS
 10
-0.459610
 20
1.449520
  0
VERTEX
  8
PLAN_1
 62
     5
  6
CONTINUOUS
 10
-0.459610
 20
1.440984
  0
SEQEND
  8
0
  0
POLYLINE
  8
PLAN_1
 62
     5
  6
CONTINUOUS
 66
     1
 40
0.003000
 41
0.003000
  0
VERTEX
  8
PLAN_1
 62
     5
  6
CONTINUOUS
 10
-0.459610
 20
1.432874
  0
VERTEX
  8
PLAN_1
 62
     5
  6
CONTINUOUS
 10
-0.459610
 20
1.424335
  0
SEQEND
  8
0
  0
POLYLINE
  8
PLAN_1
 62
     5
  6
CONTINUOUS
 66
     1
 40
0.003000
 41
0.003000
  0
VERTEX
  8
PLAN_1
 62
     5
  6
CONTINUOUS
 10
-0.459610
 20
1.416224
  0
VERTEX
  8
PLAN_1
 62
     5
  6
CONTINUOUS
 10
-0.459610
 20
1.407689
  0
SEQEND
  8
0
  0
POLYLINE
  8
PLAN_1
 62
     5
  6
CONTINUOUS
 66
     1
 40
0.003000
 41
0.003000
  0
VERTEX
  8
PLAN_1
 62
     5
  6
CONTINUOUS
 10
-0.459610
 20
1.399579
  0
VERTEX
  8
PLAN_1
 62
     5
  6
CONTINUOUS
 10
-0.459610
 20
1.391039
  0
SEQEND
  8
0
  0
POLYLINE
  8
PLAN_1
 62
     5
  6
CONTINUOUS
 66
     1
 40
0.003000
 41
0.003000
  0
VERTEX
  8
PLAN_1
 62
     5
  6
CONTINUOUS
 10
-0.459610
 20
1.382929
  0
VERTEX
  8
PLAN_1
 62
     5
  6
CONTINUOUS
 10
-0.459610
 20
1.374390
  0
SEQEND
  8
0
  0
POLYLINE
  8
PLAN_1
 62
     5
  6
CONTINUOUS
 66
     1
 40
0.003000
 41
0.003000
  0
VERTEX
  8
PLAN_1
 62
     5
  6
CONTINUOUS
 10
-0.459610
 20
1.366280
  0
VERTEX
  8
PLAN_1
 62
     5
  6
CONTINUOUS
 10
-0.459610
 20
1.357744
  0
SEQEND
  8
0
  0
POLYLINE
  8
PLAN_1
 62
     5
  6
CONTINUOUS
 66
     1
 40
0.003000
 41
0.003000
  0
VERTEX
  8
PLAN_1
 62
     5
  6
CONTINUOUS
 10
-0.459610
 20
1.349634
  0
VERTEX
  8
PLAN_1
 62
     5
  6
CONTINUOUS
 10
-0.459610
 20
1.341094
  0
SEQEND
  8
0
  0
POLYLINE
  8
PLAN_1
 62
     5
  6
CONTINUOUS
 66
     1
 40
0.003000
 41
0.003000
  0
VERTEX
  8
PLAN_1
 62
     5
  6
CONTINUOUS
 10
-0.459610
 20
1.332984
  0
VERTEX
  8
PLAN_1
 62
     5
  6
CONTINUOUS
 10
-0.459610
 20
1.324449
  0
SEQEND
  8
0
  0
POLYLINE
  8
PLAN_1
 62
     5
  6
CONTINUOUS
 66
     1
 40
0.003000
 41
0.003000
  0
VERTEX
  8
PLAN_1
 62
     5
  6
CONTINUOUS
 10
-0.459610
 20
1.316335
  0
VERTEX
  8
PLAN_1
 62
     5
  6
CONTINUOUS
 10
-0.459610
 20
1.307799
  0
SEQEND
  8
0
  0
POLYLINE
  8
PLAN_1
 62
     5
  6
CONTINUOUS
 66
     1
 40
0.003000
 41
0.003000
  0
VERTEX
  8
PLAN_1
 62
     5
  6
CONTINUOUS
 10
-0.459610
 20
1.299689
  0
VERTEX
  8
PLAN_1
 62
     5
  6
CONTINUOUS
 10
-0.459610
 20
1.291150
  0
SEQEND
  8
0
  0
POLYLINE
  8
PLAN_1
 62
     5
  6
CONTINUOUS
 66
     1
 40
0.003000
 41
0.003000
  0
VERTEX
  8
PLAN_1
 62
     5
  6
CONTINUOUS
 10
-0.459610
 20
1.283039
  0
VERTEX
  8
PLAN_1
 62
     5
  6
CONTINUOUS
 10
-0.459610
 20
1.274504
  0
SEQEND
  8
0
  0
POLYLINE
  8
PLAN_1
 62
     5
  6
CONTINUOUS
 66
     1
 40
0.003000
 41
0.003000
  0
VERTEX
  8
PLAN_1
 62
     5
  6
CONTINUOUS
 10
-0.459610
 20
1.266394
  0
VERTEX
  8
PLAN_1
 62
     5
  6
CONTINUOUS
 10
-0.459610
 20
1.257854
  0
SEQEND
  8
0
  0
POLYLINE
  8
PLAN_1
 62
     5
  6
CONTINUOUS
 66
     1
 40
0.003000
 41
0.003000
  0
VERTEX
  8
PLAN_1
 62
     5
  6
CONTINUOUS
 10
-0.459610
 20
1.249744
  0
VERTEX
  8
PLAN_1
 62
     5
  6
CONTINUOUS
 10
-0.459610
 20
1.241205
  0
SEQEND
  8
0
  0
POLYLINE
  8
PLAN_1
 62
     5
  6
CONTINUOUS
 66
     1
 40
0.003000
 41
0.003000
  0
VERTEX
  8
PLAN_1
 62
     5
  6
CONTINUOUS
 10
-0.459610
 20
1.233094
  0
VERTEX
  8
PLAN_1
 62
     5
  6
CONTINUOUS
 10
-0.459610
 20
1.224559
  0
SEQEND
  8
0
  0
POLYLINE
  8
PLAN_1
 62
     5
  6
CONTINUOUS
 66
     1
 40
0.003000
 41
0.003000
  0
VERTEX
  8
PLAN_1
 62
     5
  6
CONTINUOUS
 10
-0.459610
 20
1.216449
  0
VERTEX
  8
PLAN_1
 62
     5
  6
CONTINUOUS
 10
-0.459610
 20
1.207909
  0
SEQEND
  8
0
  0
POLYLINE
  8
PLAN_1
 62
     5
  6
CONTINUOUS
 66
     1
 40
0.003000
 41
0.003000
  0
VERTEX
  8
PLAN_1
 62
     5
  6
CONTINUOUS
 10
-0.459610
 20
1.199799
  0
VERTEX
  8
PLAN_1
 62
     5
  6
CONTINUOUS
 10
-0.459610
 20
1.191264
  0
SEQEND
  8
0
  0
POLYLINE
  8
PLAN_1
 62
     5
  6
CONTINUOUS
 66
     1
 40
0.003000
 41
0.003000
  0
VERTEX
  8
PLAN_1
 62
     5
  6
CONTINUOUS
 10
-0.459610
 20
1.182724
  0
VERTEX
  8
PLAN_1
 62
     5
  6
CONTINUOUS
 10
-0.459610
 20
1.174614
  0
SEQEND
  8
0
  0
POLYLINE
  8
PLAN_1
 62
     5
  6
CONTINUOUS
 66
     1
 40
0.003000
 41
0.003000
  0
VERTEX
  8
PLAN_1
 62
     5
  6
CONTINUOUS
 10
-0.459610
 20
1.166075
  0
VERTEX
  8
PLAN_1
 62
     5
  6
CONTINUOUS
 10
-0.459610
 20
1.157965
  0
SEQEND
  8
0
  0
POLYLINE
  8
PLAN_1
 62
     5
  6
CONTINUOUS
 66
     1
 40
0.003000
 41
0.003000
  0
VERTEX
  8
PLAN_1
 62
     5
  6
CONTINUOUS
 10
-0.459610
 20
1.149429
  0
VERTEX
  8
PLAN_1
 62
     5
  6
CONTINUOUS
 10
-0.459610
 20
1.141319
  0
SEQEND
  8
0
  0
POLYLINE
  8
PLAN_1
 62
     5
  6
CONTINUOUS
 66
     1
 40
0.003000
 41
0.003000
  0
VERTEX
  8
PLAN_1
 62
     5
  6
CONTINUOUS
 10
-0.459610
 20
1.132780
  0
VERTEX
  8
PLAN_1
 62
     5
  6
CONTINUOUS
 10
-0.459610
 20
1.124669
  0
SEQEND
  8
0
  0
POLYLINE
  8
PLAN_1
 62
     5
  6
CONTINUOUS
 66
     1
 40
0.003000
 41
0.003000
  0
VERTEX
  8
PLAN_1
 62
     5
  6
CONTINUOUS
 10
-0.459610
 20
1.116134
  0
VERTEX
  8
PLAN_1
 62
     5
  6
CONTINUOUS
 10
-0.459610
 20
1.108020
  0
SEQEND
  8
0
  0
POLYLINE
  8
PLAN_1
 62
     5
  6
CONTINUOUS
 66
     1
 40
0.003000
 41
0.003000
  0
VERTEX
  8
PLAN_1
 62
     5
  6
CONTINUOUS
 10
-0.459610
 20
1.099484
  0
VERTEX
  8
PLAN_1
 62
     5
  6
CONTINUOUS
 10
-0.459610
 20
1.091374
  0
SEQEND
  8
0
  0
POLYLINE
  8
PLAN_1
 62
     5
  6
CONTINUOUS
 66
     1
 40
0.003000
 41
0.003000
  0
VERTEX
  8
PLAN_1
 62
     5
  6
CONTINUOUS
 10
-0.459610
 20
1.082835
  0
VERTEX
  8
PLAN_1
 62
     5
  6
CONTINUOUS
 10
-0.459610
 20
1.074724
  0
SEQEND
  8
0
  0
POLYLINE
  8
PLAN_1
 62
     5
  6
CONTINUOUS
 66
     1
 40
0.003000
 41
0.003000
  0
VERTEX
  8
PLAN_1
 62
     5
  6
CONTINUOUS
 10
-0.459610
 20
1.066189
  0
VERTEX
  8
PLAN_1
 62
     5
  6
CONTINUOUS
 10
-0.459610
 20
1.058079
  0
SEQEND
  8
0
  0
POLYLINE
  8
PLAN_1
 62
     5
  6
CONTINUOUS
 66
     1
 40
0.003000
 41
0.003000
  0
VERTEX
  8
PLAN_1
 62
     5
  6
CONTINUOUS
 10
-0.777205
 20
1.539591
  0
VERTEX
  8
PLAN_1
 62
     5
  6
CONTINUOUS
 10
-0.768669
 20
1.539591
  0
SEQEND
  8
0
  0
POLYLINE
  8
PLAN_1
 62
     5
  6
CONTINUOUS
 66
     1
 40
0.003000
 41
0.003000
  0
VERTEX
  8
PLAN_1
 62
     5
  6
CONTINUOUS
 10
-0.760555
 20
1.539591
  0
VERTEX
  8
PLAN_1
 62
     5
  6
CONTINUOUS
 10
-0.752020
 20
1.539591
  0
SEQEND
  8
0
  0
POLYLINE
  8
PLAN_1
 62
     5
  6
CONTINUOUS
 66
     1
 40
0.003000
 41
0.003000
  0
VERTEX
  8
PLAN_1
 62
     5
  6
CONTINUOUS
 10
-0.743909
 20
1.539591
  0
VERTEX
  8
PLAN_1
 62
     5
  6
CONTINUOUS
 10
-0.735370
 20
1.539591
  0
SEQEND
  8
0
  0
POLYLINE
  8
PLAN_1
 62
     5
  6
CONTINUOUS
 66
     1
 40
0.003000
 41
0.003000
  0
VERTEX
  8
PLAN_1
 62
     5
  6
CONTINUOUS
 10
-0.727260
 20
1.539591
  0
VERTEX
  8
PLAN_1
 62
     5
  6
CONTINUOUS
 10
-0.718724
 20
1.539591
  0
SEQEND
  8
0
  0
POLYLINE
  8
PLAN_1
 62
     5
  6
CONTINUOUS
 66
     1
 40
0.003000
 41
0.003000
  0
VERTEX
  8
PLAN_1
 62
     5
  6
CONTINUOUS
 10
-0.710614
 20
1.539591
  0
VERTEX
  8
PLAN_1
 62
     5
  6
CONTINUOUS
 10
-0.702075
 20
1.539591
  0
SEQEND
  8
0
  0
POLYLINE
  8
PLAN_1
 62
     5
  6
CONTINUOUS
 66
     1
 40
0.003000
 41
0.003000
  0
VERTEX
  8
PLAN_1
 62
     5
  6
CONTINUOUS
 10
-0.693965
 20
1.539591
  0
VERTEX
  8
PLAN_1
 62
     5
  6
CONTINUOUS
 10
-0.685425
 20
1.539591
  0
SEQEND
  8
0
  0
POLYLINE
  8
PLAN_1
 62
     5
  6
CONTINUOUS
 66
     1
 40
0.003000
 41
0.003000
  0
VERTEX
  8
PLAN_1
 62
     5
  6
CONTINUOUS
 10
-0.677315
 20
1.539591
  0
VERTEX
  8
PLAN_1
 62
     5
  6
CONTINUOUS
 10
-0.668780
 20
1.539591
  0
SEQEND
  8
0
  0
POLYLINE
  8
PLAN_1
 62
     5
  6
CONTINUOUS
 66
     1
 40
0.003000
 41
0.003000
  0
VERTEX
  8
PLAN_1
 62
     5
  6
CONTINUOUS
 10
-0.660669
 20
1.539591
  0
VERTEX
  8
PLAN_1
 62
     5
  6
CONTINUOUS
 10
-0.652130
 20
1.539591
  0
SEQEND
  8
0
  0
POLYLINE
  8
PLAN_1
 62
     5
  6
CONTINUOUS
 66
     1
 40
0.003000
 41
0.003000
  0
VERTEX
  8
PLAN_1
 62
     5
  6
CONTINUOUS
 10
-0.644020
 20
1.539591
  0
VERTEX
  8
PLAN_1
 62
     5
  6
CONTINUOUS
 10
-0.635484
 20
1.539591
  0
SEQEND
  8
0
  0
POLYLINE
  8
PLAN_1
 62
     5
  6
CONTINUOUS
 66
     1
 40
0.003000
 41
0.003000
  0
VERTEX
  8
PLAN_1
 62
     5
  6
CONTINUOUS
 10
-0.627370
 20
1.539591
  0
VERTEX
  8
PLAN_1
 62
     5
  6
CONTINUOUS
 10
-0.618835
 20
1.539591
  0
SEQEND
  8
0
  0
POLYLINE
  8
PLAN_1
 62
     5
  6
CONTINUOUS
 66
     1
 40
0.003000
 41
0.003000
  0
VERTEX
  8
PLAN_1
 62
     5
  6
CONTINUOUS
 10
-0.610724
 20
1.539591
  0
VERTEX
  8
PLAN_1
 62
     5
  6
CONTINUOUS
 10
-0.602185
 20
1.539591
  0
SEQEND
  8
0
  0
POLYLINE
  8
PLAN_1
 62
     5
  6
CONTINUOUS
 66
     1
 40
0.003000
 41
0.003000
  0
VERTEX
  8
PLAN_1
 62
     5
  6
CONTINUOUS
 10
-0.594075
 20
1.539591
  0
VERTEX
  8
PLAN_1
 62
     5
  6
CONTINUOUS
 10
-0.585539
 20
1.539591
  0
SEQEND
  8
0
  0
POLYLINE
  8
PLAN_1
 62
     5
  6
CONTINUOUS
 66
     1
 40
0.003000
 41
0.003000
  0
VERTEX
  8
PLAN_1
 62
     5
  6
CONTINUOUS
 10
-0.577429
 20
1.539591
  0
VERTEX
  8
PLAN_1
 62
     5
  6
CONTINUOUS
 10
-0.568890
 20
1.539591
  0
SEQEND
  8
0
  0
POLYLINE
  8
PLAN_1
 62
     5
  6
CONTINUOUS
 66
     1
 40
0.003000
 41
0.003000
  0
VERTEX
  8
PLAN_1
 62
     5
  6
CONTINUOUS
 10
-0.560780
 20
1.539591
  0
VERTEX
  8
PLAN_1
 62
     5
  6
CONTINUOUS
 10
-0.552240
 20
1.539591
  0
SEQEND
  8
0
  0
POLYLINE
  8
PLAN_1
 62
     5
  6
CONTINUOUS
 66
     1
 40
0.003000
 41
0.003000
  0
VERTEX
  8
PLAN_1
 62
     5
  6
CONTINUOUS
 10
-0.544130
 20
1.539591
  0
VERTEX
  8
PLAN_1
 62
     5
  6
CONTINUOUS
 10
-0.535594
 20
1.539591
  0
SEQEND
  8
0
  0
POLYLINE
  8
PLAN_1
 62
     5
  6
CONTINUOUS
 66
     1
 40
0.003000
 41
0.003000
  0
VERTEX
  8
PLAN_1
 62
     5
  6
CONTINUOUS
 10
-0.527484
 20
1.539591
  0
VERTEX
  8
PLAN_1
 62
     5
  6
CONTINUOUS
 10
-0.518945
 20
1.539591
  0
SEQEND
  8
0
  0
POLYLINE
  8
PLAN_1
 62
     5
  6
CONTINUOUS
 66
     1
 40
0.003000
 41
0.003000
  0
VERTEX
  8
PLAN_1
 62
     5
  6
CONTINUOUS
 10
-0.510835
 20
1.539591
  0
VERTEX
  8
PLAN_1
 62
     5
  6
CONTINUOUS
 10
-0.502299
 20
1.539591
  0
SEQEND
  8
0
  0
POLYLINE
  8
PLAN_1
 62
     5
  6
CONTINUOUS
 66
     1
 40
0.003000
 41
0.003000
  0
VERTEX
  8
PLAN_1
 62
     5
  6
CONTINUOUS
 10
-0.494185
 20
1.539591
  0
VERTEX
  8
PLAN_1
 62
     5
  6
CONTINUOUS
 10
-0.485650
 20
1.539591
  0
SEQEND
  8
0
  0
POLYLINE
  8
PLAN_1
 62
     5
  6
CONTINUOUS
 66
     1
 40
0.003000
 41
0.003000
  0
VERTEX
  8
PLAN_1
 62
     5
  6
CONTINUOUS
 10
-0.477539
 20
1.539591
  0
VERTEX
  8
PLAN_1
 62
     5
  6
CONTINUOUS
 10
-0.469000
 20
1.539591
  0
SEQEND
  8
0
  0
POLYLINE
  8
PLAN_1
 62
     5
  6
CONTINUOUS
 66
     1
 40
0.003000
 41
0.003000
  0
VERTEX
  8
PLAN_1
 62
     5
  6
CONTINUOUS
 10
-0.643165
 20
1.411528
  0
VERTEX
  8
PLAN_1
 62
     5
  6
CONTINUOUS
 10
-0.643165
 20
1.419642
  0
SEQEND
  8
0
  0
POLYLINE
  8
PLAN_1
 62
     5
  6
CONTINUOUS
 66
     1
 40
0.003000
 41
0.003000
  0
VERTEX
  8
PLAN_1
 62
     5
  6
CONTINUOUS
 10
-0.643165
 20
1.428177
  0
VERTEX
  8
PLAN_1
 62
     5
  6
CONTINUOUS
 10
-0.643165
 20
1.436287
  0
SEQEND
  8
0
  0
POLYLINE
  8
PLAN_1
 62
     5
  6
CONTINUOUS
 66
     1
 40
0.003000
 41
0.003000
  0
VERTEX
  8
PLAN_1
 62
     5
  6
CONTINUOUS
 10
-0.643165
 20
1.444827
  0
VERTEX
  8
PLAN_1
 62
     5
  6
CONTINUOUS
 10
-0.643165
 20
1.452937
  0
SEQEND
  8
0
  0
POLYLINE
  8
PLAN_1
 62
     5
  6
CONTINUOUS
 66
     1
 40
0.003000
 41
0.003000
  0
VERTEX
  8
PLAN_1
 62
     5
  6
CONTINUOUS
 10
-0.643165
 20
1.461472
  0
VERTEX
  8
PLAN_1
 62
     5
  6
CONTINUOUS
 10
-0.643165
 20
1.469583
  0
SEQEND
  8
0
  0
POLYLINE
  8
PLAN_1
 62
     5
  6
CONTINUOUS
 66
     1
 40
0.003000
 41
0.003000
  0
VERTEX
  8
PLAN_1
 62
     5
  6
CONTINUOUS
 10
-0.643165
 20
1.478122
  0
VERTEX
  8
PLAN_1
 62
     5
  6
CONTINUOUS
 10
-0.643165
 20
1.486232
  0
SEQEND
  8
0
  0
POLYLINE
  8
PLAN_1
 62
     5
  6
CONTINUOUS
 66
     1
 40
0.003000
 41
0.003000
  0
VERTEX
  8
PLAN_1
 62
     5
  6
CONTINUOUS
 10
-0.643165
 20
1.494772
  0
VERTEX
  8
PLAN_1
 62
     5
  6
CONTINUOUS
 10
-0.643165
 20
1.502882
  0
SEQEND
  8
0
  0
POLYLINE
  8
PLAN_1
 62
     5
  6
CONTINUOUS
 66
     1
 40
0.003000
 41
0.003000
  0
VERTEX
  8
PLAN_1
 62
     5
  6
CONTINUOUS
 10
-0.643165
 20
1.511417
  0
VERTEX
  8
PLAN_1
 62
     5
  6
CONTINUOUS
 10
-0.643165
 20
1.519528
  0
SEQEND
  8
0
  0
POLYLINE
  8
PLAN_1
 62
     5
  6
CONTINUOUS
 66
     1
 40
0.003000
 41
0.003000
  0
VERTEX
  8
PLAN_1
 62
     5
  6
CONTINUOUS
 10
-0.643165
 20
1.528067
  0
VERTEX
  8
PLAN_1
 62
     5
  6
CONTINUOUS
 10
-0.643165
 20
1.536602
  0
SEQEND
  8
0
  0
POLYLINE
  8
PLAN_1
 62
     5
  6
CONTINUOUS
 66
     1
 40
0.003000
 41
0.003000
  0
VERTEX
  8
PLAN_1
 62
     5
  6
CONTINUOUS
 10
-0.643165
 20
1.544713
  0
VERTEX
  8
PLAN_1
 62
     5
  6
CONTINUOUS
 10
-0.643165
 20
1.553252
  0
SEQEND
  8
0
  0
POLYLINE
  8
PLAN_1
 62
     5
  6
CONTINUOUS
 66
     1
 40
0.003000
 41
0.003000
  0
VERTEX
  8
PLAN_1
 62
     5
  6
CONTINUOUS
 10
-0.643165
 20
1.561362
  0
VERTEX
  8
PLAN_1
 62
     5
  6
CONTINUOUS
 10
-0.643165
 20
1.569902
  0
SEQEND
  8
0
  0
POLYLINE
  8
PLAN_1
 62
     5
  6
CONTINUOUS
 66
     1
 40
0.003000
 41
0.003000
  0
VERTEX
  8
PLAN_1
 62
     5
  6
CONTINUOUS
 10
-0.643165
 20
1.578012
  0
VERTEX
  8
PLAN_1
 62
     5
  6
CONTINUOUS
 10
-0.643165
 20
1.586547
  0
SEQEND
  8
0
  0
POLYLINE
  8
PLAN_1
 62
     5
  6
CONTINUOUS
 66
     1
 40
0.003000
 41
0.003000
  0
VERTEX
  8
PLAN_1
 62
     5
  6
CONTINUOUS
 10
-0.643165
 20
1.594657
  0
VERTEX
  8
PLAN_1
 62
     5
  6
CONTINUOUS
 10
-0.643165
 20
1.603197
  0
SEQEND
  8
0
  0
POLYLINE
  8
PLAN_1
 62
     5
  6
CONTINUOUS
 66
     1
 40
0.003000
 41
0.003000
  0
VERTEX
  8
PLAN_1
 62
     5
  6
CONTINUOUS
 10
-0.643165
 20
1.611307
  0
VERTEX
  8
PLAN_1
 62
     5
  6
CONTINUOUS
 10
-0.643165
 20
1.619843
  0
SEQEND
  8
0
  0
POLYLINE
  8
PLAN_1
 62
     5
  6
CONTINUOUS
 66
     1
 40
0.003000
 41
0.003000
  0
VERTEX
  8
PLAN_1
 62
     5
  6
CONTINUOUS
 10
-0.643165
 20
1.627957
  0
VERTEX
  8
PLAN_1
 62
     5
  6
CONTINUOUS
 10
-0.643165
 20
1.636492
  0
SEQEND
  8
0
  0
POLYLINE
  8
PLAN_1
 62
     5
  6
CONTINUOUS
 66
     1
 40
0.003000
 41
0.003000
  0
VERTEX
  8
PLAN_1
 62
     5
  6
CONTINUOUS
 10
-0.643165
 20
1.644602
  0
VERTEX
  8
PLAN_1
 62
     5
  6
CONTINUOUS
 10
-0.643165
 20
1.653142
  0
SEQEND
  8
0
  0
POLYLINE
  8
PLAN_1
 62
     5
  6
CONTINUOUS
 66
     1
 40
0.003000
 41
0.003000
  0
VERTEX
  8
PLAN_1
 62
     5
  6
CONTINUOUS
 10
-0.643165
 20
1.661252
  0
VERTEX
  8
PLAN_1
 62
     5
  6
CONTINUOUS
 10
-0.643165
 20
1.669787
  0
SEQEND
  8
0
  0
POLYLINE
  8
PLAN_1
 62
     5
  6
CONTINUOUS
 66
     1
 40
0.003000
 41
0.003000
  0
VERTEX
  8
PLAN_1
 62
     5
  6
CONTINUOUS
 10
-2.007031
 20
1.539165
  0
VERTEX
  8
PLAN_1
 62
     5
  6
CONTINUOUS
 10
-1.998921
 20
1.539165
  0
SEQEND
  8
0
  0
POLYLINE
  8
PLAN_1
 62
     5
  6
CONTINUOUS
 66
     1
 40
0.003000
 41
0.003000
  0
VERTEX
  8
PLAN_1
 62
     5
  6
CONTINUOUS
 10
-1.990382
 20
1.539165
  0
VERTEX
  8
PLAN_1
 62
     5
  6
CONTINUOUS
 10
-1.982272
 20
1.539165
  0
SEQEND
  8
0
  0
POLYLINE
  8
PLAN_1
 62
     5
  6
CONTINUOUS
 66
     1
 40
0.003000
 41
0.003000
  0
VERTEX
  8
PLAN_1
 62
     5
  6
CONTINUOUS
 10
-1.973736
 20
1.539165
  0
VERTEX
  8
PLAN_1
 62
     5
  6
CONTINUOUS
 10
-1.965626
 20
1.539165
  0
SEQEND
  8
0
  0
POLYLINE
  8
PLAN_1
 62
     5
  6
CONTINUOUS
 66
     1
 40
0.003000
 41
0.003000
  0
VERTEX
  8
PLAN_1
 62
     5
  6
CONTINUOUS
 10
-1.957087
 20
1.539165
  0
VERTEX
  8
PLAN_1
 62
     5
  6
CONTINUOUS
 10
-1.948976
 20
1.539165
  0
SEQEND
  8
0
  0
POLYLINE
  8
PLAN_1
 62
     5
  6
CONTINUOUS
 66
     1
 40
0.003000
 41
0.003000
  0
VERTEX
  8
PLAN_1
 62
     5
  6
CONTINUOUS
 10
-1.940441
 20
1.539165
  0
VERTEX
  8
PLAN_1
 62
     5
  6
CONTINUOUS
 10
-1.932331
 20
1.539165
  0
SEQEND
  8
0
  0
POLYLINE
  8
PLAN_1
 62
     5
  6
CONTINUOUS
 66
     1
 40
0.003000
 41
0.003000
  0
VERTEX
  8
PLAN_1
 62
     5
  6
CONTINUOUS
 10
-1.923791
 20
1.539165
  0
VERTEX
  8
PLAN_1
 62
     5
  6
CONTINUOUS
 10
-1.915681
 20
1.539165
  0
SEQEND
  8
0
  0
POLYLINE
  8
PLAN_1
 62
     5
  6
CONTINUOUS
 66
     1
 40
0.003000
 41
0.003000
  0
VERTEX
  8
PLAN_1
 62
     5
  6
CONTINUOUS
 10
-1.907142
 20
1.539165
  0
VERTEX
  8
PLAN_1
 62
     5
  6
CONTINUOUS
 10
-1.899031
 20
1.539165
  0
SEQEND
  8
0
  0
POLYLINE
  8
PLAN_1
 62
     5
  6
CONTINUOUS
 66
     1
 40
0.003000
 41
0.003000
  0
VERTEX
  8
PLAN_1
 62
     5
  6
CONTINUOUS
 10
-1.890496
 20
1.539165
  0
VERTEX
  8
PLAN_1
 62
     5
  6
CONTINUOUS
 10
-1.882386
 20
1.539165
  0
SEQEND
  8
0
  0
POLYLINE
  8
PLAN_1
 62
     5
  6
CONTINUOUS
 66
     1
 40
0.003000
 41
0.003000
  0
VERTEX
  8
PLAN_1
 62
     5
  6
CONTINUOUS
 10
-1.873846
 20
1.539165
  0
VERTEX
  8
PLAN_1
 62
     5
  6
CONTINUOUS
 10
-1.865736
 20
1.539165
  0
SEQEND
  8
0
  0
POLYLINE
  8
PLAN_1
 62
     5
  6
CONTINUOUS
 66
     1
 40
0.003000
 41
0.003000
  0
VERTEX
  8
PLAN_1
 62
     5
  6
CONTINUOUS
 10
-1.857197
 20
1.539165
  0
VERTEX
  8
PLAN_1
 62
     5
  6
CONTINUOUS
 10
-1.849087
 20
1.539165
  0
SEQEND
  8
0
  0
POLYLINE
  8
PLAN_1
 62
     5
  6
CONTINUOUS
 66
     1
 40
0.003000
 41
0.003000
  0
VERTEX
  8
PLAN_1
 62
     5
  6
CONTINUOUS
 10
-1.840551
 20
1.539165
  0
VERTEX
  8
PLAN_1
 62
     5
  6
CONTINUOUS
 10
-1.832441
 20
1.539165
  0
SEQEND
  8
0
  0
POLYLINE
  8
PLAN_1
 62
     5
  6
CONTINUOUS
 66
     1
 40
0.003000
 41
0.003000
  0
VERTEX
  8
PLAN_1
 62
     5
  6
CONTINUOUS
 10
-1.823902
 20
1.539165
  0
VERTEX
  8
PLAN_1
 62
     5
  6
CONTINUOUS
 10
-1.815791
 20
1.539165
  0
SEQEND
  8
0
  0
POLYLINE
  8
PLAN_1
 62
     5
  6
CONTINUOUS
 66
     1
 40
0.003000
 41
0.003000
  0
VERTEX
  8
PLAN_1
 62
     5
  6
CONTINUOUS
 10
-1.807256
 20
1.539165
  0
VERTEX
  8
PLAN_1
 62
     5
  6
CONTINUOUS
 10
-1.799146
 20
1.539165
  0
SEQEND
  8
0
  0
POLYLINE
  8
PLAN_1
 62
     5
  6
CONTINUOUS
 66
     1
 40
0.003000
 41
0.003000
  0
VERTEX
  8
PLAN_1
 62
     5
  6
CONTINUOUS
 10
-1.790606
 20
1.539165
  0
VERTEX
  8
PLAN_1
 62
     5
  6
CONTINUOUS
 10
-1.782496
 20
1.539165
  0
SEQEND
  8
0
  0
POLYLINE
  8
PLAN_1
 62
     5
  6
CONTINUOUS
 66
     1
 40
0.003000
 41
0.003000
  0
VERTEX
  8
PLAN_1
 62
     5
  6
CONTINUOUS
 10
-1.773957
 20
1.539165
  0
VERTEX
  8
PLAN_1
 62
     5
  6
CONTINUOUS
 10
-1.765846
 20
1.539165
  0
SEQEND
  8
0
  0
POLYLINE
  8
PLAN_1
 62
     5
  6
CONTINUOUS
 66
     1
 40
0.003000
 41
0.003000
  0
VERTEX
  8
PLAN_1
 62
     5
  6
CONTINUOUS
 10
-1.757311
 20
1.539165
  0
VERTEX
  8
PLAN_1
 62
     5
  6
CONTINUOUS
 10
-1.749201
 20
1.539165
  0
SEQEND
  8
0
  0
POLYLINE
  8
PLAN_1
 62
     5
  6
CONTINUOUS
 66
     1
 40
0.003000
 41
0.003000
  0
VERTEX
  8
PLAN_1
 62
     5
  6
CONTINUOUS
 10
-1.740661
 20
1.539165
  0
VERTEX
  8
PLAN_1
 62
     5
  6
CONTINUOUS
 10
-1.734685
 20
1.539165
  0
SEQEND
  8
0
  0
POLYLINE
  8
PLAN_1
 62
     5
  6
CONTINUOUS
 66
     1
 40
0.003000
 41
0.003000
  0
VERTEX
  8
PLAN_1
 62
     5
  6
CONTINUOUS
 10
-1.740661
 20
1.539165
  0
VERTEX
  8
PLAN_1
 62
     5
  6
CONTINUOUS
 10
-1.734685
 20
1.539165
  0
SEQEND
  8
0
  0
POLYLINE
  8
PLAN_1
 62
     5
  6
CONTINUOUS
 66
     1
 40
0.003000
 41
0.003000
  0
VERTEX
  8
PLAN_1
 62
     5
  6
CONTINUOUS
 10
-1.873421
 20
1.397016
  0
VERTEX
  8
PLAN_1
 62
     5
  6
CONTINUOUS
 10
-1.873421
 20
1.405126
  0
SEQEND
  8
0
  0
POLYLINE
  8
PLAN_1
 62
     5
  6
CONTINUOUS
 66
     1
 40
0.003000
 41
0.003000
  0
VERTEX
  8
PLAN_1
 62
     5
  6
CONTINUOUS
 10
-1.873421
 20
1.413665
  0
VERTEX
  8
PLAN_1
 62
     5
  6
CONTINUOUS
 10
-1.873421
 20
1.421776
  0
SEQEND
  8
0
  0
POLYLINE
  8
PLAN_1
 62
     5
  6
CONTINUOUS
 66
     1
 40
0.003000
 41
0.003000
  0
VERTEX
  8
PLAN_1
 62
     5
  6
CONTINUOUS
 10
-1.873421
 20
1.430311
  0
VERTEX
  8
PLAN_1
 62
     5
  6
CONTINUOUS
 10
-1.873421
 20
1.438421
  0
SEQEND
  8
0
  0
POLYLINE
  8
PLAN_1
 62
     5
  6
CONTINUOUS
 66
     1
 40
0.003000
 41
0.003000
  0
VERTEX
  8
PLAN_1
 62
     5
  6
CONTINUOUS
 10
-1.873421
 20
1.446961
  0
VERTEX
  8
PLAN_1
 62
     5
  6
CONTINUOUS
 10
-1.873421
 20
1.455496
  0
SEQEND
  8
0
  0
POLYLINE
  8
PLAN_1
 62
     5
  6
CONTINUOUS
 66
     1
 40
0.003000
 41
0.003000
  0
VERTEX
  8
PLAN_1
 62
     5
  6
CONTINUOUS
 10
-1.873421
 20
1.463606
  0
VERTEX
  8
PLAN_1
 62
     5
  6
CONTINUOUS
 10
-1.873421
 20
1.472146
  0
SEQEND
  8
0
  0
POLYLINE
  8
PLAN_1
 62
     5
  6
CONTINUOUS
 66
     1
 40
0.003000
 41
0.003000
  0
VERTEX
  8
PLAN_1
 62
     5
  6
CONTINUOUS
 10
-1.873421
 20
1.480256
  0
VERTEX
  8
PLAN_1
 62
     5
  6
CONTINUOUS
 10
-1.873421
 20
1.488795
  0
SEQEND
  8
0
  0
POLYLINE
  8
PLAN_1
 62
     5
  6
CONTINUOUS
 66
     1
 40
0.003000
 41
0.003000
  0
VERTEX
  8
PLAN_1
 62
     5
  6
CONTINUOUS
 10
-1.873421
 20
1.496906
  0
VERTEX
  8
PLAN_1
 62
     5
  6
CONTINUOUS
 10
-1.873421
 20
1.505441
  0
SEQEND
  8
0
  0
POLYLINE
  8
PLAN_1
 62
     5
  6
CONTINUOUS
 66
     1
 40
0.003000
 41
0.003000
  0
VERTEX
  8
PLAN_1
 62
     5
  6
CONTINUOUS
 10
-1.873421
 20
1.513551
  0
VERTEX
  8
PLAN_1
 62
     5
  6
CONTINUOUS
 10
-1.873421
 20
1.522091
  0
SEQEND
  8
0
  0
POLYLINE
  8
PLAN_1
 62
     5
  6
CONTINUOUS
 66
     1
 40
0.003000
 41
0.003000
  0
VERTEX
  8
PLAN_1
 62
     5
  6
CONTINUOUS
 10
-1.873421
 20
1.530201
  0
VERTEX
  8
PLAN_1
 62
     5
  6
CONTINUOUS
 10
-1.873421
 20
1.538736
  0
SEQEND
  8
0
  0
POLYLINE
  8
PLAN_1
 62
     5
  6
CONTINUOUS
 66
     1
 40
0.003000
 41
0.003000
  0
VERTEX
  8
PLAN_1
 62
     5
  6
CONTINUOUS
 10
-1.873421
 20
1.546850
  0
VERTEX
  8
PLAN_1
 62
     5
  6
CONTINUOUS
 10
-1.873421
 20
1.555386
  0
SEQEND
  8
0
  0
POLYLINE
  8
PLAN_1
 62
     5
  6
CONTINUOUS
 66
     1
 40
0.003000
 41
0.003000
  0
VERTEX
  8
PLAN_1
 62
     5
  6
CONTINUOUS
 10
-1.873421
 20
1.563496
  0
VERTEX
  8
PLAN_1
 62
     5
  6
CONTINUOUS
 10
-1.873421
 20
1.572035
  0
SEQEND
  8
0
  0
POLYLINE
  8
PLAN_1
 62
     5
  6
CONTINUOUS
 66
     1
 40
0.003000
 41
0.003000
  0
VERTEX
  8
PLAN_1
 62
     5
  6
CONTINUOUS
 10
-1.873421
 20
1.580146
  0
VERTEX
  8
PLAN_1
 62
     5
  6
CONTINUOUS
 10
-1.873421
 20
1.588681
  0
SEQEND
  8
0
  0
POLYLINE
  8
PLAN_1
 62
     5
  6
CONTINUOUS
 66
     1
 40
0.003000
 41
0.003000
  0
VERTEX
  8
PLAN_1
 62
     5
  6
CONTINUOUS
 10
-1.873421
 20
1.596791
  0
VERTEX
  8
PLAN_1
 62
     5
  6
CONTINUOUS
 10
-1.873421
 20
1.605331
  0
SEQEND
  8
0
  0
POLYLINE
  8
PLAN_1
 62
     5
  6
CONTINUOUS
 66
     1
 40
0.003000
 41
0.003000
  0
VERTEX
  8
PLAN_1
 62
     5
  6
CONTINUOUS
 10
-1.873421
 20
1.613441
  0
VERTEX
  8
PLAN_1
 62
     5
  6
CONTINUOUS
 10
-1.873421
 20
1.621980
  0
SEQEND
  8
0
  0
POLYLINE
  8
PLAN_1
 62
     5
  6
CONTINUOUS
 66
     1
 40
0.003000
 41
0.003000
  0
VERTEX
  8
PLAN_1
 62
     5
  6
CONTINUOUS
 10
-1.873421
 20
1.630091
  0
VERTEX
  8
PLAN_1
 62
     5
  6
CONTINUOUS
 10
-1.873421
 20
1.638626
  0
SEQEND
  8
0
  0
POLYLINE
  8
PLAN_1
 62
     5
  6
CONTINUOUS
 66
     1
 40
0.003000
 41
0.003000
  0
VERTEX
  8
PLAN_1
 62
     5
  6
CONTINUOUS
 10
-1.873421
 20
1.646736
  0
VERTEX
  8
PLAN_1
 62
     5
  6
CONTINUOUS
 10
-1.873421
 20
1.655276
  0
SEQEND
  8
0
  0
POLYLINE
  8
PLAN_1
 62
     5
  6
CONTINUOUS
 66
     1
 40
0.003000
 41
0.003000
  0
VERTEX
  8
PLAN_1
 62
     5
  6
CONTINUOUS
 10
-1.873421
 20
1.663386
  0
VERTEX
  8
PLAN_1
 62
     5
  6
CONTINUOUS
 10
-1.873421
 20
1.671921
  0
SEQEND
  8
0
  0
POLYLINE
  8
PLAN_1
 62
     5
  6
CONTINUOUS
 66
     1
 40
0.003000
 41
0.003000
  0
VERTEX
  8
PLAN_1
 62
     5
  6
CONTINUOUS
 10
-1.873421
 20
1.680035
  0
VERTEX
  8
PLAN_1
 62
     5
  6
CONTINUOUS
 10
-1.873421
 20
1.688571
  0
SEQEND
  8
0
  0
POLYLINE
  8
PLAN_1
 62
     5
  6
CONTINUOUS
 66
     1
 40
0.003000
 41
0.003000
  0
VERTEX
  8
PLAN_1
 62
     5
  6
CONTINUOUS
 10
-1.873421
 20
1.696681
  0
VERTEX
  8
PLAN_1
 62
     5
  6
CONTINUOUS
 10
-1.873421
 20
1.705220
  0
SEQEND
  8
0
  0
POLYLINE
  8
PLAN_1
  6
CONTINUOUS
 66
     1
 40
0.008535
 41
0.008535
  0
VERTEX
  8
PLAN_1
  6
CONTINUOUS
 10
-1.915252
 20
2.600803
  0
VERTEX
  8
PLAN_1
  6
CONTINUOUS
 10
-1.915252
 20
1.804256
  0
VERTEX
  8
PLAN_1
  6
CONTINUOUS
 10
-0.601760
 20
1.804256
  0
VERTEX
  8
PLAN_1
  6
CONTINUOUS
 10
-0.601760
 20
2.600803
  0
VERTEX
  8
PLAN_1
  6
CONTINUOUS
 10
-1.915252
 20
2.600803
  0
SEQEND
  8
0
  0
POLYLINE
  8
PLAN_1
  6
CONTINUOUS
 66
     1
 40
0.008535
 41
0.008535
  0
VERTEX
  8
PLAN_1
  6
CONTINUOUS
 10
-1.915252
 20
1.996346
  0
VERTEX
  8
PLAN_1
  6
CONTINUOUS
 10
-1.586559
 20
1.996346
  0
VERTEX
  8
PLAN_1
  6
CONTINUOUS
 10
-1.586559
 20
1.804256
  0
SEQEND
  8
0
  0
POLYLINE
  8
PLAN_1
  6
CONTINUOUS
 66
     1
 40
0.008535
 41
0.008535
  0
VERTEX
  8
PLAN_1
  6
CONTINUOUS
 10
-0.934720
 20
1.804256
  0
VERTEX
  8
PLAN_1
  6
CONTINUOUS
 10
-0.934720
 20
1.995496
  0
VERTEX
  8
PLAN_1
  6
CONTINUOUS
 10
-0.600906
 20
1.995496
  0
SEQEND
  8
0
  0
POLYLINE
  8
PLAN_1
  6
CONTINUOUS
 66
     1
 40
0.008535
 41
0.008535
  0
VERTEX
  8
PLAN_1
  6
CONTINUOUS
 10
-1.676630
 20
1.996346
  0
VERTEX
  8
PLAN_1
  6
CONTINUOUS
 10
-1.676630
 20
1.804256
  0
SEQEND
  8
0
  0
POLYLINE
  8
PLAN_1
  6
CONTINUOUS
 66
     1
 40
0.008535
 41
0.008535
  0
VERTEX
  8
PLAN_1
  6
CONTINUOUS
 10
-0.835685
 20
1.996346
  0
VERTEX
  8
PLAN_1
  6
CONTINUOUS
 10
-0.835685
 20
1.804256
  0
SEQEND
  8
0
  0
POLYLINE
  8
PLAN_1
  6
CONTINUOUS
 66
     1
 40
0.008535
 41
0.008535
  0
VERTEX
  8
PLAN_1
  6
CONTINUOUS
 10
-1.058091
 20
1.387626
  0
VERTEX
  8
PLAN_1
  6
CONTINUOUS
 10
-1.058091
 20
1.434154
  0
VERTEX
  8
PLAN_1
  6
CONTINUOUS
 10
-1.458925
 20
1.434154
  0
VERTEX
  8
PLAN_1
  6
CONTINUOUS
 10
-1.458925
 20
1.387626
  0
VERTEX
  8
PLAN_1
  6
CONTINUOUS
 10
-1.058091
 20
1.387626
  0
SEQEND
  8
0
  0
POLYLINE
  8
PLAN_1
  6
CONTINUOUS
 66
     1
 40
0.008535
 41
0.008535
  0
VERTEX
  8
PLAN_1
  6
CONTINUOUS
 10
-0.719579
 20
1.781630
  0
VERTEX
  8
PLAN_1
  6
CONTINUOUS
 10
-0.719579
 20
1.804256
  0
VERTEX
  8
PLAN_1
  6
CONTINUOUS
 10
-1.796583
 20
1.804256
  0
VERTEX
  8
PLAN_1
  6
CONTINUOUS
 10
-1.796583
 20
1.781630
  0
VERTEX
  8
PLAN_1
  6
CONTINUOUS
 10
-0.719579
 20
1.781630
  0
SEQEND
  8
0
  0
POLYLINE
  8
PLAN_1
  6
CONTINUOUS
 66
     1
 40
0.008535
 41
0.008535
  0
VERTEX
  8
PLAN_1
  6
CONTINUOUS
 10
-0.927894
 20
1.434154
  0
VERTEX
  8
PLAN_1
  6
CONTINUOUS
 10
-0.927894
 20
1.781630
  0
VERTEX
  8
PLAN_1
  6
CONTINUOUS
 10
-1.589122
 20
1.781630
  0
VERTEX
  8
PLAN_1
  6
CONTINUOUS
 10
-1.589122
 20
1.434154
  0
VERTEX
  8
PLAN_1
  6
CONTINUOUS
 10
-0.927894
 20
1.434154
  0
SEQEND
  8
0
  0
POLYLINE
  8
PLAN_1
  6
CONTINUOUS
 66
     1
 40
0.008535
 41
0.008535
  0
VERTEX
  8
PLAN_1
  6
CONTINUOUS
 10
-0.906122
 20
2.599949
  0
VERTEX
  8
PLAN_1
  6
CONTINUOUS
 10
-0.906122
 20
2.619157
  0
VERTEX
  8
PLAN_1
  6
CONTINUOUS
 10
-1.607476
 20
2.619157
  0
VERTEX
  8
PLAN_1
  6
CONTINUOUS
 10
-1.607476
 20
2.599949
  0
VERTEX
  8
PLAN_1
  6
CONTINUOUS
 10
-0.906122
 20
2.599949
  0
SEQEND
  8
0
  0
POLYLINE
  8
PLAN_1
  6
CONTINUOUS
 66
     1
 40
0.008535
 41
0.008535
  0
VERTEX
  8
PLAN_1
  6
CONTINUOUS
 10
-1.103764
 20
3.000358
  0
VERTEX
  8
PLAN_1
  6
CONTINUOUS
 10
-1.103764
 20
3.008043
  0
VERTEX
  8
PLAN_1
  6
CONTINUOUS
 10
-1.104618
 20
3.015724
  0
VERTEX
  8
PLAN_1
  6
CONTINUOUS
 10
-1.105472
 20
3.023409
  0
VERTEX
  8
PLAN_1
  6
CONTINUOUS
 10
-1.106752
 20
3.030665
  0
VERTEX
  8
PLAN_1
  6
CONTINUOUS
 10
-1.108461
 20
3.038350
  0
VERTEX
  8
PLAN_1
  6
CONTINUOUS
 10
-1.110594
 20
3.045606
  0
VERTEX
  8
PLAN_1
  6
CONTINUOUS
 10
-1.112728
 20
3.052437
  0
VERTEX
  8
PLAN_1
  6
CONTINUOUS
 10
-1.115717
 20
3.059693
  0
VERTEX
  8
PLAN_1
  6
CONTINUOUS
 10
-1.118705
 20
3.066524
  0
VERTEX
  8
PLAN_1
  6
CONTINUOUS
 10
-1.122118
 20
3.072925
  0
VERTEX
  8
PLAN_1
  6
CONTINUOUS
 10
-1.125535
 20
3.079331
  0
VERTEX
  8
PLAN_1
  6
CONTINUOUS
 10
-1.129803
 20
3.085732
  0
VERTEX
  8
PLAN_1
  6
CONTINUOUS
 10
-1.133646
 20
3.091709
  0
VERTEX
  8
PLAN_1
  6
CONTINUOUS
 10
-1.138343
 20
3.097260
  0
VERTEX
  8
PLAN_1
  6
CONTINUOUS
 10
-1.143035
 20
3.102807
  0
VERTEX
  8
PLAN_1
  6
CONTINUOUS
 10
-1.148157
 20
3.108358
  0
VERTEX
  8
PLAN_1
  6
CONTINUOUS
 10
-1.153283
 20
3.113480
  0
VERTEX
  8
PLAN_1
  6
CONTINUOUS
 10
-1.158831
 20
3.118177
  0
VERTEX
  8
PLAN_1
  6
CONTINUOUS
 10
-1.164807
 20
3.122870
  0
VERTEX
  8
PLAN_1
  6
CONTINUOUS
 10
-1.170783
 20
3.127142
  0
VERTEX
  8
PLAN_1
  6
CONTINUOUS
 10
-1.176760
 20
3.131409
  0
VERTEX
  8
PLAN_1
  6
CONTINUOUS
 10
-1.183161
 20
3.134823
  0
VERTEX
  8
PLAN_1
  6
CONTINUOUS
 10
-1.189567
 20
3.138240
  0
VERTEX
  8
PLAN_1
  6
CONTINUOUS
 10
-1.196398
 20
3.141654
  0
VERTEX
  8
PLAN_1
  6
CONTINUOUS
 10
-1.203224
 20
3.144217
  0
VERTEX
  8
PLAN_1
  6
CONTINUOUS
 10
-1.210484
 20
3.146776
  0
VERTEX
  8
PLAN_1
  6
CONTINUOUS
 10
-1.217740
 20
3.148909
  0
VERTEX
  8
PLAN_1
  6
CONTINUOUS
 10
-1.224996
 20
3.150618
  0
VERTEX
  8
PLAN_1
  6
CONTINUOUS
 10
-1.232252
 20
3.151898
  0
VERTEX
  8
PLAN_1
  6
CONTINUOUS
 10
-1.239937
 20
3.152752
  0
VERTEX
  8
PLAN_1
  6
CONTINUOUS
 10
-1.247622
 20
3.153606
  0
VERTEX
  8
PLAN_1
  6
CONTINUOUS
 10
-1.255303
 20
3.153606
  0
VERTEX
  8
PLAN_1
  6
CONTINUOUS
 10
-1.263417
 20
3.153606
  0
VERTEX
  8
PLAN_1
  6
CONTINUOUS
 10
-1.271098
 20
3.152752
  0
VERTEX
  8
PLAN_1
  6
CONTINUOUS
 10
-1.278783
 20
3.151898
  0
VERTEX
  8
PLAN_1
  6
CONTINUOUS
 10
-1.286039
 20
3.150618
  0
VERTEX
  8
PLAN_1
  6
CONTINUOUS
 10
-1.293295
 20
3.148909
  0
VERTEX
  8
PLAN_1
  6
CONTINUOUS
 10
-1.300555
 20
3.146776
  0
VERTEX
  8
PLAN_1
  6
CONTINUOUS
 10
-1.307811
 20
3.144217
  0
VERTEX
  8
PLAN_1
  6
CONTINUOUS
 10
-1.314642
 20
3.141654
  0
VERTEX
  8
PLAN_1
  6
CONTINUOUS
 10
-1.321472
 20
3.138240
  0
VERTEX
  8
PLAN_1
  6
CONTINUOUS
 10
-1.327874
 20
3.134823
  0
VERTEX
  8
PLAN_1
  6
CONTINUOUS
 10
-1.334276
 20
3.131409
  0
VERTEX
  8
PLAN_1
  6
CONTINUOUS
 10
-1.340252
 20
3.127142
  0
VERTEX
  8
PLAN_1
  6
CONTINUOUS
 10
-1.346228
 20
3.122870
  0
VERTEX
  8
PLAN_1
  6
CONTINUOUS
 10
-1.352205
 20
3.118177
  0
VERTEX
  8
PLAN_1
  6
CONTINUOUS
 10
-1.357756
 20
3.113480
  0
VERTEX
  8
PLAN_1
  6
CONTINUOUS
 10
-1.362878
 20
3.108358
  0
VERTEX
  8
PLAN_1
  6
CONTINUOUS
 10
-1.368000
 20
3.102807
  0
VERTEX
  8
PLAN_1
  6
CONTINUOUS
 10
-1.372697
 20
3.097260
  0
VERTEX
  8
PLAN_1
  6
CONTINUOUS
 10
-1.376965
 20
3.091709
  0
VERTEX
  8
PLAN_1
  6
CONTINUOUS
 10
-1.381232
 20
3.085732
  0
VERTEX
  8
PLAN_1
  6
CONTINUOUS
 10
-1.385500
 20
3.079331
  0
VERTEX
  8
PLAN_1
  6
CONTINUOUS
 10
-1.388917
 20
3.072925
  0
VERTEX
  8
PLAN_1
  6
CONTINUOUS
 10
-1.392331
 20
3.066524
  0
VERTEX
  8
PLAN_1
  6
CONTINUOUS
 10
-1.395319
 20
3.059693
  0
VERTEX
  8
PLAN_1
  6
CONTINUOUS
 10
-1.398307
 20
3.052437
  0
VERTEX
  8
PLAN_1
  6
CONTINUOUS
 10
-1.400441
 20
3.045606
  0
VERTEX
  8
PLAN_1
  6
CONTINUOUS
 10
-1.402579
 20
3.038350
  0
VERTEX
  8
PLAN_1
  6
CONTINUOUS
 10
-1.404283
 20
3.030665
  0
VERTEX
  8
PLAN_1
  6
CONTINUOUS
 10
-1.405567
 20
3.023409
  0
VERTEX
  8
PLAN_1
  6
CONTINUOUS
 10
-1.406417
 20
3.015724
  0
VERTEX
  8
PLAN_1
  6
CONTINUOUS
 10
-1.407272
 20
3.008043
  0
VERTEX
  8
PLAN_1
  6
CONTINUOUS
 10
-1.407272
 20
3.000358
  0
SEQEND
  8
0
  0
POLYLINE
  8
PLAN_1
  6
CONTINUOUS
 66
     1
 40
0.008535
 41
0.008535
  0
VERTEX
  8
PLAN_1
  6
CONTINUOUS
 10
-1.407272
 20
3.000358
  0
VERTEX
  8
PLAN_1
  6
CONTINUOUS
 10
-1.454657
 20
3.000358
  0
VERTEX
  8
PLAN_1
  6
CONTINUOUS
 10
-1.454657
 20
2.624280
  0
VERTEX
  8
PLAN_1
  6
CONTINUOUS
 10
-1.060224
 20
2.624280
  0
VERTEX
  8
PLAN_1
  6
CONTINUOUS
 10
-1.060224
 20
3.000358
  0
VERTEX
  8
PLAN_1
  6
CONTINUOUS
 10
-1.103764
 20
3.000358
  0
SEQEND
  8
0
  0
POLYLINE
  8
PLAN_1
  6
CONTINUOUS
 66
     1
 40
0.008535
 41
0.008535
  0
VERTEX
  8
PLAN_1
  6
CONTINUOUS
 10
-1.105472
 20
3.003346
  0
VERTEX
  8
PLAN_1
  6
CONTINUOUS
 10
-1.405992
 20
3.003346
  0
SEQEND
  8
0
  0
POLYLINE
  8
PLAN_1
 62
     2
  6
CONTINUOUS
 66
     1
 40
0.004268
 41
0.004268
  0
VERTEX
  8
PLAN_1
 62
     2
  6
CONTINUOUS
 10
-1.425201
 20
3.313685
  0
VERTEX
  8
PLAN_1
 62
     2
  6
CONTINUOUS
 10
-1.093520
 20
3.313685
  0
SEQEND
  8
0
  0
SOLID
  8
PLAN_1
 62
     2
 10
-1.064067
 20
3.313685
 11
-1.122972
 21
3.329480
 12
-1.064067
 22
3.313685
 13
-1.122972
 23
3.297890
  0
POLYLINE
  8
PLAN_1
 62
     2
  6
CONTINUOUS
 66
     1
 40
0.003000
 41
0.003000
  0
VERTEX
  8
PLAN_1
 62
     2
  6
CONTINUOUS
 10
-1.064067
 20
3.313685
  0
VERTEX
  8
PLAN_1
 62
     2
  6
CONTINUOUS
 10
-1.122972
 20
3.329480
  0
VERTEX
  8
PLAN_1
 62
     2
  6
CONTINUOUS
 10
-1.122972
 20
3.297890
  0
VERTEX
  8
PLAN_1
 62
     2
  6
CONTINUOUS
 10
-1.064067
 20
3.313685
  0
SEQEND
  8
0
  0
SOLID
  8
PLAN_1
 62
     2
 10
-1.454657
 20
3.313685
 11
-1.395748
 21
3.329480
 12
-1.454657
 22
3.313685
 13
-1.395748
 23
3.297890
  0
POLYLINE
  8
PLAN_1
 62
     2
  6
CONTINUOUS
 66
     1
 40
0.003000
 41
0.003000
  0
VERTEX
  8
PLAN_1
 62
     2
  6
CONTINUOUS
 10
-1.454657
 20
3.313685
  0
VERTEX
  8
PLAN_1
 62
     2
  6
CONTINUOUS
 10
-1.395748
 20
3.329480
  0
VERTEX
  8
PLAN_1
 62
     2
  6
CONTINUOUS
 10
-1.395748
 20
3.297890
  0
VERTEX
  8
PLAN_1
 62
     2
  6
CONTINUOUS
 10
-1.454657
 20
3.313685
  0
SEQEND
  8
0
  0
POLYLINE
  8
PLAN_1
 62
     2
  6
CONTINUOUS
 66
     1
 40
0.003000
 41
0.003000
  0
VERTEX
  8
PLAN_1
 62
     2
  6
CONTINUOUS
 10
-1.289028
 20
3.401622
  0
VERTEX
  8
PLAN_1
 62
     2
  6
CONTINUOUS
 10
-1.286894
 20
3.398205
  0
VERTEX
  8
PLAN_1
 62
     2
  6
CONTINUOUS
 10
-1.285185
 20
3.395217
  0
VERTEX
  8
PLAN_1
 62
     2
  6
CONTINUOUS
 10
-1.283480
 20
3.391803
  0
VERTEX
  8
PLAN_1
 62
     2
  6
CONTINUOUS
 10
-1.282197
 20
3.388386
  0
VERTEX
  8
PLAN_1
 62
     2
  6
CONTINUOUS
 10
-1.281343
 20
3.384547
  0
VERTEX
  8
PLAN_1
 62
     2
  6
CONTINUOUS
 10
-1.280917
 20
3.381130
  0
VERTEX
  8
PLAN_1
 62
     2
  6
CONTINUOUS
 10
-1.280492
 20
3.377717
  0
VERTEX
  8
PLAN_1
 62
     2
  6
CONTINUOUS
 10
-1.280492
 20
3.374728
  0
VERTEX
  8
PLAN_1
 62
     2
  6
CONTINUOUS
 10
-1.280492
 20
3.371740
  0
VERTEX
  8
PLAN_1
 62
     2
  6
CONTINUOUS
 10
-1.280917
 20
3.368323
  0
VERTEX
  8
PLAN_1
 62
     2
  6
CONTINUOUS
 10
-1.281343
 20
3.364909
  0
VERTEX
  8
PLAN_1
 62
     2
  6
CONTINUOUS
 10
-1.282197
 20
3.361921
  0
VERTEX
  8
PLAN_1
 62
     2
  6
CONTINUOUS
 10
-1.283480
 20
3.358508
  0
VERTEX
  8
PLAN_1
 62
     2
  6
CONTINUOUS
 10
-1.284760
 20
3.355091
  0
VERTEX
  8
PLAN_1
 62
     2
  6
CONTINUOUS
 10
-1.286469
 20
3.352102
  0
VERTEX
  8
PLAN_1
 62
     2
  6
CONTINUOUS
 10
-1.288173
 20
3.349114
  0
VERTEX
  8
PLAN_1
 62
     2
  6
CONTINUOUS
 10
-1.290307
 20
3.346126
  0
VERTEX
  8
PLAN_1
 62
     2
  6
CONTINUOUS
 10
-1.293295
 20
3.343567
  0
VERTEX
  8
PLAN_1
 62
     2
  6
CONTINUOUS
 10
-1.295858
 20
3.341004
  0
VERTEX
  8
PLAN_1
 62
     2
  6
CONTINUOUS
 10
-1.299272
 20
3.339295
  0
VERTEX
  8
PLAN_1
 62
     2
  6
CONTINUOUS
 10
-1.303114
 20
3.337591
  0
VERTEX
  8
PLAN_1
 62
     2
  6
CONTINUOUS
 10
-1.307382
 20
3.336307
  0
VERTEX
  8
PLAN_1
 62
     2
  6
CONTINUOUS
 10
-1.311654
 20
3.335457
  0
VERTEX
  8
PLAN_1
 62
     2
  6
CONTINUOUS
 10
-1.316776
 20
3.335457
  0
VERTEX
  8
PLAN_1
 62
     2
  6
CONTINUOUS
 10
-1.320618
 20
3.335457
  0
VERTEX
  8
PLAN_1
 62
     2
  6
CONTINUOUS
 10
-1.324461
 20
3.335882
  0
VERTEX
  8
PLAN_1
 62
     2
  6
CONTINUOUS
 10
-1.327874
 20
3.336736
  0
VERTEX
  8
PLAN_1
 62
     2
  6
CONTINUOUS
 10
-1.331287
 20
3.338016
  0
VERTEX
  8
PLAN_1
 62
     2
  6
CONTINUOUS
 10
-1.333850
 20
3.339295
  0
VERTEX
  8
PLAN_1
 62
     2
  6
CONTINUOUS
 10
-1.336839
 20
3.340579
  0
VERTEX
  8
PLAN_1
 62
     2
  6
CONTINUOUS
 10
-1.339398
 20
3.342283
  0
VERTEX
  8
PLAN_1
 62
     2
  6
CONTINUOUS
 10
-1.341535
 20
3.344421
  0
VERTEX
  8
PLAN_1
 62
     2
  6
CONTINUOUS
 10
-1.349646
 20
3.335457
  0
VERTEX
  8
PLAN_1
 62
     2
  6
CONTINUOUS
 10
-1.353059
 20
3.338445
  0
VERTEX
  8
PLAN_1
 62
     2
  6
CONTINUOUS
 10
-1.344524
 20
3.347835
  0
VERTEX
  8
PLAN_1
 62
     2
  6
CONTINUOUS
 10
-1.346657
 20
3.350823
  0
VERTEX
  8
PLAN_1
 62
     2
  6
CONTINUOUS
 10
-1.348362
 20
3.354236
  0
VERTEX
  8
PLAN_1
 62
     2
  6
CONTINUOUS
 10
-1.350071
 20
3.357654
  0
VERTEX
  8
PLAN_1
 62
     2
  6
CONTINUOUS
 10
-1.351350
 20
3.361067
  0
VERTEX
  8
PLAN_1
 62
     2
  6
CONTINUOUS
 10
-1.352205
 20
3.364484
  0
VERTEX
  8
PLAN_1
 62
     2
  6
CONTINUOUS
 10
-1.352634
 20
3.367898
  0
VERTEX
  8
PLAN_1
 62
     2
  6
CONTINUOUS
 10
-1.353059
 20
3.371311
  0
VERTEX
  8
PLAN_1
 62
     2
  6
CONTINUOUS
 10
-1.353059
 20
3.374728
  0
VERTEX
  8
PLAN_1
 62
     2
  6
CONTINUOUS
 10
-1.353059
 20
3.377717
  0
VERTEX
  8
PLAN_1
 62
     2
  6
CONTINUOUS
 10
-1.353059
 20
3.381130
  0
VERTEX
  8
PLAN_1
 62
     2
  6
CONTINUOUS
 10
-1.352205
 20
3.384118
  0
VERTEX
  8
PLAN_1
 62
     2
  6
CONTINUOUS
 10
-1.351350
 20
3.387535
  0
VERTEX
  8
PLAN_1
 62
     2
  6
CONTINUOUS
 10
-1.350500
 20
3.390949
  0
VERTEX
  8
PLAN_1
 62
     2
  6
CONTINUOUS
 10
-1.349217
 20
3.394362
  0
VERTEX
  8
PLAN_1
 62
     2
  6
CONTINUOUS
 10
-1.347512
 20
3.397350
  0
VERTEX
  8
PLAN_1
 62
     2
  6
CONTINUOUS
 10
-1.345374
 20
3.400339
  0
VERTEX
  8
PLAN_1
 62
     2
  6
CONTINUOUS
 10
-1.343240
 20
3.403327
  0
VERTEX
  8
PLAN_1
 62
     2
  6
CONTINUOUS
 10
-1.340681
 20
3.405890
  0
VERTEX
  8
PLAN_1
 62
     2
  6
CONTINUOUS
 10
-1.337693
 20
3.408024
  0
VERTEX
  8
PLAN_1
 62
     2
  6
CONTINUOUS
 10
-1.334276
 20
3.410157
  0
VERTEX
  8
PLAN_1
 62
     2
  6
CONTINUOUS
 10
-1.330433
 20
3.411866
  0
VERTEX
  8
PLAN_1
 62
     2
  6
CONTINUOUS
 10
-1.326594
 20
3.413146
  0
VERTEX
  8
PLAN_1
 62
     2
  6
CONTINUOUS
 10
-1.321898
 20
3.413575
  0
VERTEX
  8
PLAN_1
 62
     2
  6
CONTINUOUS
 10
-1.316776
 20
3.414000
  0
VERTEX
  8
PLAN_1
 62
     2
  6
CONTINUOUS
 10
-1.312933
 20
3.414000
  0
VERTEX
  8
PLAN_1
 62
     2
  6
CONTINUOUS
 10
-1.309091
 20
3.413146
  0
VERTEX
  8
PLAN_1
 62
     2
  6
CONTINUOUS
 10
-1.305677
 20
3.412720
  0
VERTEX
  8
PLAN_1
 62
     2
  6
CONTINUOUS
 10
-1.302260
 20
3.411437
  0
VERTEX
  8
PLAN_1
 62
     2
  6
CONTINUOUS
 10
-1.299272
 20
3.410157
  0
VERTEX
  8
PLAN_1
 62
     2
  6
CONTINUOUS
 10
-1.296713
 20
3.408449
  0
VERTEX
  8
PLAN_1
 62
     2
  6
CONTINUOUS
 10
-1.294150
 20
3.406744
  0
VERTEX
  8
PLAN_1
 62
     2
  6
CONTINUOUS
 10
-1.292016
 20
3.404610
  0
VERTEX
  8
PLAN_1
 62
     2
  6
CONTINUOUS
 10
-1.283480
 20
3.414000
  0
VERTEX
  8
PLAN_1
 62
     2
  6
CONTINUOUS
 10
-1.280492
 20
3.411012
  0
VERTEX
  8
PLAN_1
 62
     2
  6
CONTINUOUS
 10
-1.289028
 20
3.401622
  0
SEQEND
  8
0
  0
POLYLINE
  8
PLAN_1
 62
     2
  6
CONTINUOUS
 66
     1
 40
0.003000
 41
0.003000
  0
VERTEX
  8
PLAN_1
 62
     2
  6
CONTINUOUS
 10
-1.334705
 20
3.351677
  0
VERTEX
  8
PLAN_1
 62
     2
  6
CONTINUOUS
 10
-1.332996
 20
3.349969
  0
VERTEX
  8
PLAN_1
 62
     2
  6
CONTINUOUS
 10
-1.331287
 20
3.348689
  0
VERTEX
  8
PLAN_1
 62
     2
  6
CONTINUOUS
 10
-1.329154
 20
3.347409
  0
VERTEX
  8
PLAN_1
 62
     2
  6
CONTINUOUS
 10
-1.327020
 20
3.346126
  0
VERTEX
  8
PLAN_1
 62
     2
  6
CONTINUOUS
 10
-1.324461
 20
3.345272
  0
VERTEX
  8
PLAN_1
 62
     2
  6
CONTINUOUS
 10
-1.322323
 20
3.344846
  0
VERTEX
  8
PLAN_1
 62
     2
  6
CONTINUOUS
 10
-1.319764
 20
3.344421
  0
VERTEX
  8
PLAN_1
 62
     2
  6
CONTINUOUS
 10
-1.316776
 20
3.344421
  0
VERTEX
  8
PLAN_1
 62
     2
  6
CONTINUOUS
 10
-1.313787
 20
3.344421
  0
VERTEX
  8
PLAN_1
 62
     2
  6
CONTINUOUS
 10
-1.311224
 20
3.344846
  0
VERTEX
  8
PLAN_1
 62
     2
  6
CONTINUOUS
 10
-1.308236
 20
3.345701
  0
VERTEX
  8
PLAN_1
 62
     2
  6
CONTINUOUS
 10
-1.306102
 20
3.346555
  0
VERTEX
  8
PLAN_1
 62
     2
  6
CONTINUOUS
 10
-1.303543
 20
3.347835
  0
VERTEX
  8
PLAN_1
 62
     2
  6
CONTINUOUS
 10
-1.301409
 20
3.349114
  0
VERTEX
  8
PLAN_1
 62
     2
  6
CONTINUOUS
 10
-1.299701
 20
3.350823
  0
VERTEX
  8
PLAN_1
 62
     2
  6
CONTINUOUS
 10
-1.297567
 20
3.352957
  0
VERTEX
  8
PLAN_1
 62
     2
  6
CONTINUOUS
 10
-1.296283
 20
3.355091
  0
VERTEX
  8
PLAN_1
 62
     2
  6
CONTINUOUS
 10
-1.295004
 20
3.357224
  0
VERTEX
  8
PLAN_1
 62
     2
  6
CONTINUOUS
 10
-1.293724
 20
3.359787
  0
VERTEX
  8
PLAN_1
 62
     2
  6
CONTINUOUS
 10
-1.292445
 20
3.362346
  0
VERTEX
  8
PLAN_1
 62
     2
  6
CONTINUOUS
 10
-1.292016
 20
3.365335
  0
VERTEX
  8
PLAN_1
 62
     2
  6
CONTINUOUS
 10
-1.291161
 20
3.368323
  0
VERTEX
  8
PLAN_1
 62
     2
  6
CONTINUOUS
 10
-1.291161
 20
3.371311
  0
VERTEX
  8
PLAN_1
 62
     2
  6
CONTINUOUS
 10
-1.290736
 20
3.374728
  0
VERTEX
  8
PLAN_1
 62
     2
  6
CONTINUOUS
 10
-1.290736
 20
3.377287
  0
VERTEX
  8
PLAN_1
 62
     2
  6
CONTINUOUS
 10
-1.291161
 20
3.380276
  0
VERTEX
  8
PLAN_1
 62
     2
  6
CONTINUOUS
 10
-1.291591
 20
3.382839
  0
VERTEX
  8
PLAN_1
 62
     2
  6
CONTINUOUS
 10
-1.292016
 20
3.384972
  0
VERTEX
  8
PLAN_1
 62
     2
  6
CONTINUOUS
 10
-1.292870
 20
3.387535
  0
VERTEX
  8
PLAN_1
 62
     2
  6
CONTINUOUS
 10
-1.293724
 20
3.389669
  0
VERTEX
  8
PLAN_1
 62
     2
  6
CONTINUOUS
 10
-1.294579
 20
3.391803
  0
VERTEX
  8
PLAN_1
 62
     2
  6
CONTINUOUS
 10
-1.295858
 20
3.393937
  0
VERTEX
  8
PLAN_1
 62
     2
  6
CONTINUOUS
 10
-1.334705
 20
3.351677
  0
SEQEND
  8
0
  0
POLYLINE
  8
PLAN_1
 62
     2
  6
CONTINUOUS
 66
     1
 40
0.003000
 41
0.003000
  0
VERTEX
  8
PLAN_1
 62
     2
  6
CONTINUOUS
 10
-1.298846
 20
3.397350
  0
VERTEX
  8
PLAN_1
 62
     2
  6
CONTINUOUS
 10
-1.300555
 20
3.399059
  0
VERTEX
  8
PLAN_1
 62
     2
  6
CONTINUOUS
 10
-1.302260
 20
3.400768
  0
VERTEX
  8
PLAN_1
 62
     2
  6
CONTINUOUS
 10
-1.304394
 20
3.402047
  0
VERTEX
  8
PLAN_1
 62
     2
  6
CONTINUOUS
 10
-1.306531
 20
3.402902
  0
VERTEX
  8
PLAN_1
 62
     2
  6
CONTINUOUS
 10
-1.309091
 20
3.403756
  0
VERTEX
  8
PLAN_1
 62
     2
  6
CONTINUOUS
 10
-1.311224
 20
3.404610
  0
VERTEX
  8
PLAN_1
 62
     2
  6
CONTINUOUS
 10
-1.314213
 20
3.405035
  0
VERTEX
  8
PLAN_1
 62
     2
  6
CONTINUOUS
 10
-1.316776
 20
3.405035
  0
VERTEX
  8
PLAN_1
 62
     2
  6
CONTINUOUS
 10
-1.319764
 20
3.405035
  0
VERTEX
  8
PLAN_1
 62
     2
  6
CONTINUOUS
 10
-1.322752
 20
3.404610
  0
VERTEX
  8
PLAN_1
 62
     2
  6
CONTINUOUS
 10
-1.325311
 20
3.403756
  0
VERTEX
  8
PLAN_1
 62
     2
  6
CONTINUOUS
 10
-1.327874
 20
3.402902
  0
VERTEX
  8
PLAN_1
 62
     2
  6
CONTINUOUS
 10
-1.330008
 20
3.401622
  0
VERTEX
  8
PLAN_1
 62
     2
  6
CONTINUOUS
 10
-1.332142
 20
3.399913
  0
VERTEX
  8
PLAN_1
 62
     2
  6
CONTINUOUS
 10
-1.334276
 20
3.398205
  0
VERTEX
  8
PLAN_1
 62
     2
  6
CONTINUOUS
 10
-1.335984
 20
3.396500
  0
VERTEX
  8
PLAN_1
 62
     2
  6
CONTINUOUS
 10
-1.337693
 20
3.394362
  0
VERTEX
  8
PLAN_1
 62
     2
  6
CONTINUOUS
 10
-1.338972
 20
3.391803
  0
VERTEX
  8
PLAN_1
 62
     2
  6
CONTINUOUS
 10
-1.340252
 20
3.389669
  0
VERTEX
  8
PLAN_1
 62
     2
  6
CONTINUOUS
 10
-1.341106
 20
3.386681
  0
VERTEX
  8
PLAN_1
 62
     2
  6
CONTINUOUS
 10
-1.341961
 20
3.384118
  0
VERTEX
  8
PLAN_1
 62
     2
  6
CONTINUOUS
 10
-1.342386
 20
3.381130
  0
VERTEX
  8
PLAN_1
 62
     2
  6
CONTINUOUS
 10
-1.342815
 20
3.377717
  0
VERTEX
  8
PLAN_1
 62
     2
  6
CONTINUOUS
 10
-1.342815
 20
3.374728
  0
VERTEX
  8
PLAN_1
 62
     2
  6
CONTINUOUS
 10
-1.342815
 20
3.371740
  0
VERTEX
  8
PLAN_1
 62
     2
  6
CONTINUOUS
 10
-1.342386
 20
3.369177
  0
VERTEX
  8
PLAN_1
 62
     2
  6
CONTINUOUS
 10
-1.341961
 20
3.366618
  0
VERTEX
  8
PLAN_1
 62
     2
  6
CONTINUOUS
 10
-1.341535
 20
3.364055
  0
VERTEX
  8
PLAN_1
 62
     2
  6
CONTINUOUS
 10
-1.340681
 20
3.361496
  0
VERTEX
  8
PLAN_1
 62
     2
  6
CONTINUOUS
 10
-1.339827
 20
3.359358
  0
VERTEX
  8
PLAN_1
 62
     2
  6
CONTINUOUS
 10
-1.338972
 20
3.357224
  0
VERTEX
  8
PLAN_1
 62
     2
  6
CONTINUOUS
 10
-1.337693
 20
3.355091
  0
VERTEX
  8
PLAN_1
 62
     2
  6
CONTINUOUS
 10
-1.298846
 20
3.397350
  0
SEQEND
  8
0
  0
POLYLINE
  8
PLAN_1
 62
     2
  6
CONTINUOUS
 66
     1
 40
0.003000
 41
0.003000
  0
VERTEX
  8
PLAN_1
 62
     2
  6
CONTINUOUS
 10
-1.239083
 20
3.337161
  0
VERTEX
  8
PLAN_1
 62
     2
  6
CONTINUOUS
 10
-1.248902
 20
3.337161
  0
VERTEX
  8
PLAN_1
 62
     2
  6
CONTINUOUS
 10
-1.248902
 20
3.389240
  0
VERTEX
  8
PLAN_1
 62
     2
  6
CONTINUOUS
 10
-1.265976
 20
3.389240
  0
VERTEX
  8
PLAN_1
 62
     2
  6
CONTINUOUS
 10
-1.265976
 20
3.396500
  0
VERTEX
  8
PLAN_1
 62
     2
  6
CONTINUOUS
 10
-1.261709
 20
3.396925
  0
VERTEX
  8
PLAN_1
 62
     2
  6
CONTINUOUS
 10
-1.258291
 20
3.397350
  0
VERTEX
  8
PLAN_1
 62
     2
  6
CONTINUOUS
 10
-1.255303
 20
3.398205
  0
VERTEX
  8
PLAN_1
 62
     2
  6
CONTINUOUS
 10
-1.252744
 20
3.399488
  0
VERTEX
  8
PLAN_1
 62
     2
  6
CONTINUOUS
 10
-1.250610
 20
3.401193
  0
VERTEX
  8
PLAN_1
 62
     2
  6
CONTINUOUS
 10
-1.248902
 20
3.403327
  0
VERTEX
  8
PLAN_1
 62
     2
  6
CONTINUOUS
 10
-1.247193
 20
3.406315
  0
VERTEX
  8
PLAN_1
 62
     2
  6
CONTINUOUS
 10
-1.246343
 20
3.410587
  0
VERTEX
  8
PLAN_1
 62
     2
  6
CONTINUOUS
 10
-1.239083
 20
3.410587
  0
VERTEX
  8
PLAN_1
 62
     2
  6
CONTINUOUS
 10
-1.239083
 20
3.337161
  0
SEQEND
  8
0
  0
POLYLINE
  8
PLAN_1
 62
     2
  6
CONTINUOUS
 66
     1
 40
0.003000
 41
0.003000
  0
VERTEX
  8
PLAN_1
 62
     2
  6
CONTINUOUS
 10
-1.189567
 20
3.335457
  0
VERTEX
  8
PLAN_1
 62
     2
  6
CONTINUOUS
 10
-1.193409
 20
3.335457
  0
VERTEX
  8
PLAN_1
 62
     2
  6
CONTINUOUS
 10
-1.196823
 20
3.336307
  0
VERTEX
  8
PLAN_1
 62
     2
  6
CONTINUOUS
 10
-1.199811
 20
3.337591
  0
VERTEX
  8
PLAN_1
 62
     2
  6
CONTINUOUS
 10
-1.202374
 20
3.338870
  0
VERTEX
  8
PLAN_1
 62
     2
  6
CONTINUOUS
 10
-1.204508
 20
3.341004
  0
VERTEX
  8
PLAN_1
 62
     2
  6
CONTINUOUS
 10
-1.206642
 20
3.343138
  0
VERTEX
  8
PLAN_1
 62
     2
  6
CONTINUOUS
 10
-1.208350
 20
3.345701
  0
VERTEX
  8
PLAN_1
 62
     2
  6
CONTINUOUS
 10
-1.210055
 20
3.348260
  0
VERTEX
  8
PLAN_1
 62
     2
  6
CONTINUOUS
 10
-1.211339
 20
3.351248
  0
VERTEX
  8
PLAN_1
 62
     2
  6
CONTINUOUS
 10
-1.212189
 20
3.354236
  0
VERTEX
  8
PLAN_1
 62
     2
  6
CONTINUOUS
 10
-1.213043
 20
3.357654
  0
VERTEX
  8
PLAN_1
 62
     2
  6
CONTINUOUS
 10
-1.213472
 20
3.360642
  0
VERTEX
  8
PLAN_1
 62
     2
  6
CONTINUOUS
 10
-1.214327
 20
3.367043
  0
VERTEX
  8
PLAN_1
 62
     2
  6
CONTINUOUS
 10
-1.214752
 20
3.373020
  0
VERTEX
  8
PLAN_1
 62
     2
  6
CONTINUOUS
 10
-1.214327
 20
3.378996
  0
VERTEX
  8
PLAN_1
 62
     2
  6
CONTINUOUS
 10
-1.213472
 20
3.384972
  0
VERTEX
  8
PLAN_1
 62
     2
  6
CONTINUOUS
 10
-1.213043
 20
3.388386
  0
VERTEX
  8
PLAN_1
 62
     2
  6
CONTINUOUS
 10
-1.212189
 20
3.391374
  0
VERTEX
  8
PLAN_1
 62
     2
  6
CONTINUOUS
 10
-1.211339
 20
3.394362
  0
VERTEX
  8
PLAN_1
 62
     2
  6
CONTINUOUS
 10
-1.210055
 20
3.397350
  0
VERTEX
  8
PLAN_1
 62
     2
  6
CONTINUOUS
 10
-1.208350
 20
3.399913
  0
VERTEX
  8
PLAN_1
 62
     2
  6
CONTINUOUS
 10
-1.206642
 20
3.402472
  0
VERTEX
  8
PLAN_1
 62
     2
  6
CONTINUOUS
 10
-1.204508
 20
3.404610
  0
VERTEX
  8
PLAN_1
 62
     2
  6
CONTINUOUS
 10
-1.202374
 20
3.406744
  0
VERTEX
  8
PLAN_1
 62
     2
  6
CONTINUOUS
 10
-1.199811
 20
3.408449
  0
VERTEX
  8
PLAN_1
 62
     2
  6
CONTINUOUS
 10
-1.196823
 20
3.409303
  0
VERTEX
  8
PLAN_1
 62
     2
  6
CONTINUOUS
 10
-1.193409
 20
3.410157
  0
VERTEX
  8
PLAN_1
 62
     2
  6
CONTINUOUS
 10
-1.189567
 20
3.410587
  0
VERTEX
  8
PLAN_1
 62
     2
  6
CONTINUOUS
 10
-1.185724
 20
3.410157
  0
VERTEX
  8
PLAN_1
 62
     2
  6
CONTINUOUS
 10
-1.182311
 20
3.409303
  0
VERTEX
  8
PLAN_1
 62
     2
  6
CONTINUOUS
 10
-1.179323
 20
3.408449
  0
VERTEX
  8
PLAN_1
 62
     2
  6
CONTINUOUS
 10
-1.176760
 20
3.406744
  0
VERTEX
  8
PLAN_1
 62
     2
  6
CONTINUOUS
 10
-1.174197
 20
3.404610
  0
VERTEX
  8
PLAN_1
 62
     2
  6
CONTINUOUS
 10
-1.172492
 20
3.402472
  0
VERTEX
  8
PLAN_1
 62
     2
  6
CONTINUOUS
 10
-1.170783
 20
3.399913
  0
VERTEX
  8
PLAN_1
 62
     2
  6
CONTINUOUS
 10
-1.169075
 20
3.397350
  0
VERTEX
  8
PLAN_1
 62
     2
  6
CONTINUOUS
 10
-1.167795
 20
3.394362
  0
VERTEX
  8
PLAN_1
 62
     2
  6
CONTINUOUS
 10
-1.166941
 20
3.391374
  0
VERTEX
  8
PLAN_1
 62
     2
  6
CONTINUOUS
 10
-1.166087
 20
3.388386
  0
VERTEX
  8
PLAN_1
 62
     2
  6
CONTINUOUS
 10
-1.165236
 20
3.384972
  0
VERTEX
  8
PLAN_1
 62
     2
  6
CONTINUOUS
 10
-1.164807
 20
3.378996
  0
VERTEX
  8
PLAN_1
 62
     2
  6
CONTINUOUS
 10
-1.164382
 20
3.373020
  0
VERTEX
  8
PLAN_1
 62
     2
  6
CONTINUOUS
 10
-1.164807
 20
3.367043
  0
VERTEX
  8
PLAN_1
 62
     2
  6
CONTINUOUS
 10
-1.165236
 20
3.360642
  0
VERTEX
  8
PLAN_1
 62
     2
  6
CONTINUOUS
 10
-1.166087
 20
3.357654
  0
VERTEX
  8
PLAN_1
 62
     2
  6
CONTINUOUS
 10
-1.166941
 20
3.354236
  0
VERTEX
  8
PLAN_1
 62
     2
  6
CONTINUOUS
 10
-1.167795
 20
3.351248
  0
VERTEX
  8
PLAN_1
 62
     2
  6
CONTINUOUS
 10
-1.169075
 20
3.348260
  0
VERTEX
  8
PLAN_1
 62
     2
  6
CONTINUOUS
 10
-1.170783
 20
3.345701
  0
VERTEX
  8
PLAN_1
 62
     2
  6
CONTINUOUS
 10
-1.172492
 20
3.343138
  0
VERTEX
  8
PLAN_1
 62
     2
  6
CONTINUOUS
 10
-1.174197
 20
3.341004
  0
VERTEX
  8
PLAN_1
 62
     2
  6
CONTINUOUS
 10
-1.176760
 20
3.338870
  0
VERTEX
  8
PLAN_1
 62
     2
  6
CONTINUOUS
 10
-1.179323
 20
3.337591
  0
VERTEX
  8
PLAN_1
 62
     2
  6
CONTINUOUS
 10
-1.182311
 20
3.336307
  0
VERTEX
  8
PLAN_1
 62
     2
  6
CONTINUOUS
 10
-1.185724
 20
3.335457
  0
VERTEX
  8
PLAN_1
 62
     2
  6
CONTINUOUS
 10
-1.189567
 20
3.335457
  0
SEQEND
  8
0
  0
POLYLINE
  8
PLAN_1
 62
     2
  6
CONTINUOUS
 66
     1
 40
0.003000
 41
0.003000
  0
VERTEX
  8
PLAN_1
 62
     2
  6
CONTINUOUS
 10
-1.189567
 20
3.402047
  0
VERTEX
  8
PLAN_1
 62
     2
  6
CONTINUOUS
 10
-1.191276
 20
3.402047
  0
VERTEX
  8
PLAN_1
 62
     2
  6
CONTINUOUS
 10
-1.192980
 20
3.401622
  0
VERTEX
  8
PLAN_1
 62
     2
  6
CONTINUOUS
 10
-1.194689
 20
3.401193
  0
VERTEX
  8
PLAN_1
 62
     2
  6
CONTINUOUS
 10
-1.196398
 20
3.400339
  0
VERTEX
  8
PLAN_1
 62
     2
  6
CONTINUOUS
 10
-1.197677
 20
3.399059
  0
VERTEX
  8
PLAN_1
 62
     2
  6
CONTINUOUS
 10
-1.198957
 20
3.397780
  0
VERTEX
  8
PLAN_1
 62
     2
  6
CONTINUOUS
 10
-1.200236
 20
3.396071
  0
VERTEX
  8
PLAN_1
 62
     2
  6
CONTINUOUS
 10
-1.201091
 20
3.394362
  0
VERTEX
  8
PLAN_1
 62
     2
  6
CONTINUOUS
 10
-1.202799
 20
3.390094
  0
VERTEX
  8
PLAN_1
 62
     2
  6
CONTINUOUS
 10
-1.204079
 20
3.385398
  0
VERTEX
  8
PLAN_1
 62
     2
  6
CONTINUOUS
 10
-1.204508
 20
3.379421
  0
VERTEX
  8
PLAN_1
 62
     2
  6
CONTINUOUS
 10
-1.204933
 20
3.373020
  0
VERTEX
  8
PLAN_1
 62
     2
  6
CONTINUOUS
 10
-1.204508
 20
3.366189
  0
VERTEX
  8
PLAN_1
 62
     2
  6
CONTINUOUS
 10
-1.204079
 20
3.360642
  0
VERTEX
  8
PLAN_1
 62
     2
  6
CONTINUOUS
 10
-1.202799
 20
3.355520
  0
VERTEX
  8
PLAN_1
 62
     2
  6
CONTINUOUS
 10
-1.201091
 20
3.351248
  0
VERTEX
  8
PLAN_1
 62
     2
  6
CONTINUOUS
 10
-1.200236
 20
3.349543
  0
VERTEX
  8
PLAN_1
 62
     2
  6
CONTINUOUS
 10
-1.198957
 20
3.347835
  0
VERTEX
  8
PLAN_1
 62
     2
  6
CONTINUOUS
 10
-1.197677
 20
3.346555
  0
VERTEX
  8
PLAN_1
 62
     2
  6
CONTINUOUS
 10
-1.196398
 20
3.345701
  0
VERTEX
  8
PLAN_1
 62
     2
  6
CONTINUOUS
 10
-1.194689
 20
3.344846
  0
VERTEX
  8
PLAN_1
 62
     2
  6
CONTINUOUS
 10
-1.192980
 20
3.343992
  0
VERTEX
  8
PLAN_1
 62
     2
  6
CONTINUOUS
 10
-1.191276
 20
3.343567
  0
VERTEX
  8
PLAN_1
 62
     2
  6
CONTINUOUS
 10
-1.189567
 20
3.343567
  0
VERTEX
  8
PLAN_1
 62
     2
  6
CONTINUOUS
 10
-1.187433
 20
3.343567
  0
VERTEX
  8
PLAN_1
 62
     2
  6
CONTINUOUS
 10
-1.185724
 20
3.343992
  0
VERTEX
  8
PLAN_1
 62
     2
  6
CONTINUOUS
 10
-1.184016
 20
3.344846
  0
VERTEX
  8
PLAN_1
 62
     2
  6
CONTINUOUS
 10
-1.182736
 20
3.345701
  0
VERTEX
  8
PLAN_1
 62
     2
  6
CONTINUOUS
 10
-1.181457
 20
3.346555
  0
VERTEX
  8
PLAN_1
 62
     2
  6
CONTINUOUS
 10
-1.180173
 20
3.347835
  0
VERTEX
  8
PLAN_1
 62
     2
  6
CONTINUOUS
 10
-1.178894
 20
3.349543
  0
VERTEX
  8
PLAN_1
 62
     2
  6
CONTINUOUS
 10
-1.178039
 20
3.351248
  0
VERTEX
  8
PLAN_1
 62
     2
  6
CONTINUOUS
 10
-1.176335
 20
3.355520
  0
VERTEX
  8
PLAN_1
 62
     2
  6
CONTINUOUS
 10
-1.175051
 20
3.360642
  0
VERTEX
  8
PLAN_1
 62
     2
  6
CONTINUOUS
 10
-1.174626
 20
3.366189
  0
VERTEX
  8
PLAN_1
 62
     2
  6
CONTINUOUS
 10
-1.174197
 20
3.373020
  0
VERTEX
  8
PLAN_1
 62
     2
  6
CONTINUOUS
 10
-1.174626
 20
3.379421
  0
VERTEX
  8
PLAN_1
 62
     2
  6
CONTINUOUS
 10
-1.175051
 20
3.385398
  0
VERTEX
  8
PLAN_1
 62
     2
  6
CONTINUOUS
 10
-1.176335
 20
3.390094
  0
VERTEX
  8
PLAN_1
 62
     2
  6
CONTINUOUS
 10
-1.178039
 20
3.394362
  0
VERTEX
  8
PLAN_1
 62
     2
  6
CONTINUOUS
 10
-1.178894
 20
3.396071
  0
VERTEX
  8
PLAN_1
 62
     2
  6
CONTINUOUS
 10
-1.180173
 20
3.397780
  0
VERTEX
  8
PLAN_1
 62
     2
  6
CONTINUOUS
 10
-1.181457
 20
3.399059
  0
VERTEX
  8
PLAN_1
 62
     2
  6
CONTINUOUS
 10
-1.182736
 20
3.400339
  0
VERTEX
  8
PLAN_1
 62
     2
  6
CONTINUOUS
 10
-1.184016
 20
3.401193
  0
VERTEX
  8
PLAN_1
 62
     2
  6
CONTINUOUS
 10
-1.185724
 20
3.401622
  0
VERTEX
  8
PLAN_1
 62
     2
  6
CONTINUOUS
 10
-1.187433
 20
3.402047
  0
VERTEX
  8
PLAN_1
 62
     2
  6
CONTINUOUS
 10
-1.189567
 20
3.402047
  0
SEQEND
  8
0
  0
POLYLINE
  8
PLAN_1
 62
     2
  6
CONTINUOUS
 66
     1
 40
0.004268
 41
0.004268
  0
VERTEX
  8
PLAN_1
 62
     2
  6
CONTINUOUS
 10
-1.454657
 20
3.337161
  0
VERTEX
  8
PLAN_1
 62
     2
  6
CONTINUOUS
 10
-1.454657
 20
3.023835
  0
SEQEND
  8
0
  0
POLYLINE
  8
PLAN_1
 62
     2
  6
CONTINUOUS
 66
     1
 40
0.004268
 41
0.004268
  0
VERTEX
  8
PLAN_1
 62
     2
  6
CONTINUOUS
 10
-1.064067
 20
3.337161
  0
VERTEX
  8
PLAN_1
 62
     2
  6
CONTINUOUS
 10
-1.064067
 20
3.023835
  0
SEQEND
  8
0
  0
POLYLINE
  8
PLAN_1
 62
     2
  6
CONTINUOUS
 66
     1
 40
0.004268
 41
0.004268
  0
VERTEX
  8
PLAN_1
 62
     2
  6
CONTINUOUS
 10
-0.303799
 20
1.569047
  0
VERTEX
  8
PLAN_1
 62
     2
  6
CONTINUOUS
 10
-0.303799
 20
3.123299
  0
SEQEND
  8
0
  0
SOLID
  8
PLAN_1
 62
     2
 10
-0.303799
 20
3.152752
 11
-0.319594
 21
3.093417
 12
-0.303799
 22
3.152752
 13
-0.288008
 23
3.093417
  0
POLYLINE
  8
PLAN_1
 62
     2
  6
CONTINUOUS
 66
     1
 40
0.003000
 41
0.003000
  0
VERTEX
  8
PLAN_1
 62
     2
  6
CONTINUOUS
 10
-0.303799
 20
3.152752
  0
VERTEX
  8
PLAN_1
 62
     2
  6
CONTINUOUS
 10
-0.319594
 20
3.093417
  0
VERTEX
  8
PLAN_1
 62
     2
  6
CONTINUOUS
 10
-0.288008
 20
3.093417
  0
VERTEX
  8
PLAN_1
 62
     2
  6
CONTINUOUS
 10
-0.303799
 20
3.152752
  0
SEQEND
  8
0
  0
SOLID
  8
PLAN_1
 62
     2
 10
-0.303799
 20
1.539591
 11
-0.319594
 21
1.598500
 12
-0.303799
 22
1.539591
 13
-0.288008
 23
1.598500
  0
POLYLINE
  8
PLAN_1
 62
     2
  6
CONTINUOUS
 66
     1
 40
0.003000
 41
0.003000
  0
VERTEX
  8
PLAN_1
 62
     2
  6
CONTINUOUS
 10
-0.303799
 20
1.539591
  0
VERTEX
  8
PLAN_1
 62
     2
  6
CONTINUOUS
 10
-0.319594
 20
1.598500
  0
VERTEX
  8
PLAN_1
 62
     2
  6
CONTINUOUS
 10
-0.288008
 20
1.598500
  0
VERTEX
  8
PLAN_1
 62
     2
  6
CONTINUOUS
 10
-0.303799
 20
1.539591
  0
SEQEND
  8
0
  0
POLYLINE
  8
PLAN_1
 62
     2
  6
CONTINUOUS
 66
     1
 40
0.003000
 41
0.003000
  0
VERTEX
  8
PLAN_1
 62
     2
  6
CONTINUOUS
 10
-0.345209
 20
2.331870
  0
VERTEX
  8
PLAN_1
 62
     2
  6
CONTINUOUS
 10
-0.327280
 20
2.331870
  0
VERTEX
  8
PLAN_1
 62
     2
  6
CONTINUOUS
 10
-0.327280
 20
2.322480
  0
VERTEX
  8
PLAN_1
 62
     2
  6
CONTINUOUS
 10
-0.345209
 20
2.322480
  0
VERTEX
  8
PLAN_1
 62
     2
  6
CONTINUOUS
 10
-0.345209
 20
2.290894
  0
VERTEX
  8
PLAN_1
 62
     2
  6
CONTINUOUS
 10
-0.354173
 20
2.290894
  0
VERTEX
  8
PLAN_1
 62
     2
  6
CONTINUOUS
 10
-0.400701
 20
2.324189
  0
VERTEX
  8
PLAN_1
 62
     2
  6
CONTINUOUS
 10
-0.400701
 20
2.331870
  0
VERTEX
  8
PLAN_1
 62
     2
  6
CONTINUOUS
 10
-0.353319
 20
2.331870
  0
VERTEX
  8
PLAN_1
 62
     2
  6
CONTINUOUS
 10
-0.353319
 20
2.342543
  0
VERTEX
  8
PLAN_1
 62
     2
  6
CONTINUOUS
 10
-0.345209
 20
2.342543
  0
VERTEX
  8
PLAN_1
 62
     2
  6
CONTINUOUS
 10
-0.345209
 20
2.331870
  0
SEQEND
  8
0
  0
SOLID
  8
PLAN_1
 62
     2
 10
-0.353319
 20
2.299004
 11
-0.353319
 21
2.322480
 12
-0.353319
 22
2.299004
 13
-0.386189
 23
2.322480
  0
POLYLINE
  8
PLAN_1
 62
     2
  6
CONTINUOUS
 66
     1
 40
0.003000
 41
0.003000
  0
VERTEX
  8
PLAN_1
 62
     2
  6
CONTINUOUS
 10
-0.353319
 20
2.299004
  0
VERTEX
  8
PLAN_1
 62
     2
  6
CONTINUOUS
 10
-0.353319
 20
2.322480
  0
VERTEX
  8
PLAN_1
 62
     2
  6
CONTINUOUS
 10
-0.386189
 20
2.322480
  0
VERTEX
  8
PLAN_1
 62
     2
  6
CONTINUOUS
 10
-0.353319
 20
2.299004
  0
SEQEND
  8
0
  0
POLYLINE
  8
PLAN_1
 62
     2
  6
CONTINUOUS
 66
     1
 40
0.003000
 41
0.003000
  0
VERTEX
  8
PLAN_1
 62
     2
  6
CONTINUOUS
 10
-0.327280
 20
2.383524
  0
VERTEX
  8
PLAN_1
 62
     2
  6
CONTINUOUS
 10
-0.327280
 20
2.373705
  0
VERTEX
  8
PLAN_1
 62
     2
  6
CONTINUOUS
 10
-0.379358
 20
2.373705
  0
VERTEX
  8
PLAN_1
 62
     2
  6
CONTINUOUS
 10
-0.379358
 20
2.356630
  0
VERTEX
  8
PLAN_1
 62
     2
  6
CONTINUOUS
 10
-0.386614
 20
2.356630
  0
VERTEX
  8
PLAN_1
 62
     2
  6
CONTINUOUS
 10
-0.387039
 20
2.360472
  0
VERTEX
  8
PLAN_1
 62
     2
  6
CONTINUOUS
 10
-0.387469
 20
2.364315
  0
VERTEX
  8
PLAN_1
 62
     2
  6
CONTINUOUS
 10
-0.388323
 20
2.367303
  0
VERTEX
  8
PLAN_1
 62
     2
  6
CONTINUOUS
 10
-0.389602
 20
2.369862
  0
VERTEX
  8
PLAN_1
 62
     2
  6
CONTINUOUS
 10
-0.391311
 20
2.372000
  0
VERTEX
  8
PLAN_1
 62
     2
  6
CONTINUOUS
 10
-0.393445
 20
2.373705
  0
VERTEX
  8
PLAN_1
 62
     2
  6
CONTINUOUS
 10
-0.396433
 20
2.374988
  0
VERTEX
  8
PLAN_1
 62
     2
  6
CONTINUOUS
 10
-0.400701
 20
2.376268
  0
VERTEX
  8
PLAN_1
 62
     2
  6
CONTINUOUS
 10
-0.400701
 20
2.383524
  0
VERTEX
  8
PLAN_1
 62
     2
  6
CONTINUOUS
 10
-0.327280
 20
2.383524
  0
SEQEND
  8
0
  0
POLYLINE
  8
PLAN_1
 62
     2
  6
CONTINUOUS
 66
     1
 40
0.004268
 41
0.004268
  0
VERTEX
  8
PLAN_1
 62
     2
  6
CONTINUOUS
 10
-0.436134
 20
1.539591
  0
VERTEX
  8
PLAN_1
 62
     2
  6
CONTINUOUS
 10
-0.280323
 20
1.539591
  0
SEQEND
  8
0
  0
POLYLINE
  8
PLAN_1
 62
     2
  6
CONTINUOUS
 66
     1
 40
0.004268
 41
0.004268
  0
VERTEX
  8
PLAN_1
 62
     2
  6
CONTINUOUS
 10
-1.187433
 20
3.152752
  0
VERTEX
  8
PLAN_1
 62
     2
  6
CONTINUOUS
 10
-1.089677
 20
3.152752
  0
SEQEND
  8
0
  0
POLYLINE
  8
PLAN_1
 62
     2
  6
CONTINUOUS
 66
     1
 40
0.004268
 41
0.004268
  0
VERTEX
  8
PLAN_1
 62
     2
  6
CONTINUOUS
 10
-1.042295
 20
3.152752
  0
VERTEX
  8
PLAN_1
 62
     2
  6
CONTINUOUS
 10
-0.280323
 20
3.152752
  0
SEQEND
  8
0
  0
ENDSEC
  0
EOF
