  0
SECTION
  2
HEADER
  9
$ACADVER
  1
AC1006
  9
$EXTMIN
 10
-2.018791
 20
-3.325142
  9
$EXTMAX
 10
2.001000
 20
3.335587
  9
$LTSCALE
 40
0.000394
  9
$PDMODE
 70
    35
  9
$PDSIZE
 40
0.000315
  0
ENDSEC
  0
SECTION
  2
TABLES
  0
TABLE
  2
LTYPE
 70
     9
  0
LTYPE
  2
CONTINUOUS
 70
    64
  3
Solid line
 72
    65
 73
     0
 40
0.000000
  0
LTYPE
  2
DASHED
 70
    64
  3
__ __ __ __ __ __ __ __ __ __ __ __ __ __ __
 72
    65
 73
     2
 40
0.000003
 49
0.000002
 49
-0.000001
  0
LTYPE
  2
HIDDEN
 70
    64
  3
 _ _ _ _ _ _ _ _ _ _ _ _ _ _ _ _ _ _ _ _ _ _
 72
    65
 73
     2
 40
0.000001
 49
0.000001
 49
-0.000000
  0
LTYPE
  2
CENTER
 70
    64
  3
____ _ ____ _ ____ _ ____ _ ____ _ ____ _ ____
 72
    65
 73
     4
 40
0.000008
 49
0.000005
 49
-0.000001
 49
0.000001
 49
-0.000001
  0
LTYPE
  2
PHANTOM
 70
    64
  3
_____ _ _ _____ _ _ _____ _ _ _____ _ _ ____
 72
    65
 73
     6
 40
0.000010
 49
0.000005
 49
-0.000001
 49
0.000001
 49
-0.000001
 49
0.000001
 49
-0.000001
  0
LTYPE
  2
DOT
 70
    64
  3
...............................................
 72
    65
 73
     2
 40
0.000001
 49
0.000000
 49
-0.000001
  0
LTYPE
  2
DASHDOT
 70
    64
  3
__ . __ . __ . __ . __ . __ . __ . __ . __ . __
 72
    65
 73
     4
 40
0.000004
 49
0.000002
 49
-0.000001
 49
0.000000
 49
-0.000001
  0
LTYPE
  2
BORDER
 70
    64
  3
__ __ . __ __ . __ __ . __ __ . __ __ . __ __
 72
    65
 73
     6
 40
0.000007
 49
0.000002
 49
-0.000001
 49
0.000002
 49
-0.000001
 49
0.000000
 49
-0.000001
  0
LTYPE
  2
DIVIDE
 70
    64
  3
__ . . __ . . __ . . __ . . __ . . __ . . __
 72
    65
 73
     6
 40
0.000005
 49
0.000002
 49
-0.000001
 49
0.000000
 49
-0.000001
 49
0.000000
 49
-0.000001
  0
LTYPE
  2
DOTDOT
 70
    64
  3
 . .  . .  . .  . .  . .  . . 
 72
    65
 73
     5
 40
0.000002
 49
-0.000001
 49
0.000000
 49
-0.000001
 49
0.000000
 49
-0.000001
  0
ENDTAB
  0
TABLE
  2
STYLE
 70
     0
  0
ENDTAB
  0
TABLE
  2
LAYER
 70
     3
  0
LAYER
  2
FOREGROUND
 70
    64
 62
     7
  6
CONTINUOUS
  0
LAYER
  2
BACKGROUND
 70
    65
 62
    -7
  6
CONTINUOUS
  0
LAYER
  2
PLAN_1
 70
    64
 62
     7
  6
CONTINUOUS
  0
ENDTAB
  0
ENDSEC
  0
SECTION
  2
ENTITIES
  0
POLYLINE
  8
PLAN_1
  6
CONTINUOUS
 66
     1
 40
0.003000
 41
0.003000
  0
VERTEX
  8
PLAN_1
  6
CONTINUOUS
 10
0.212898
 20
-3.290591
  0
VERTEX
  8
PLAN_1
  6
CONTINUOUS
 10
0.055945
 20
-3.290591
  0
VERTEX
  8
PLAN_1
  6
CONTINUOUS
 10
0.055945
 20
-3.268106
  0
VERTEX
  8
PLAN_1
  6
CONTINUOUS
 10
0.177929
 20
-3.114902
  0
VERTEX
  8
PLAN_1
  6
CONTINUOUS
 10
0.065106
 20
-3.114902
  0
VERTEX
  8
PLAN_1
  6
CONTINUOUS
 10
0.065106
 20
-3.091169
  0
VERTEX
  8
PLAN_1
  6
CONTINUOUS
 10
0.212898
 20
-3.091169
  0
VERTEX
  8
PLAN_1
  6
CONTINUOUS
 10
0.212898
 20
-3.114484
  0
VERTEX
  8
PLAN_1
  6
CONTINUOUS
 10
0.090083
 20
-3.266441
  0
VERTEX
  8
PLAN_1
  6
CONTINUOUS
 10
0.212898
 20
-3.266441
  0
VERTEX
  8
PLAN_1
  6
CONTINUOUS
 10
0.212898
 20
-3.290591
  0
SEQEND
  8
0
  0
POLYLINE
  8
PLAN_1
  6
CONTINUOUS
 66
     1
 40
0.003000
 41
0.003000
  0
VERTEX
  8
PLAN_1
  6
CONTINUOUS
 10
0.380260
 20
-3.151122
  0
VERTEX
  8
PLAN_1
  6
CONTINUOUS
 10
0.378594
 20
-3.144878
  0
VERTEX
  8
PLAN_1
  6
CONTINUOUS
 10
0.376512
 20
-3.139465
  0
VERTEX
  8
PLAN_1
  6
CONTINUOUS
 10
0.374016
 20
-3.134469
  0
VERTEX
  8
PLAN_1
  6
CONTINUOUS
 10
0.371102
 20
-3.129890
  0
VERTEX
  8
PLAN_1
  6
CONTINUOUS
 10
0.367772
 20
-3.126142
  0
VERTEX
  8
PLAN_1
  6
CONTINUOUS
 10
0.364441
 20
-3.122811
  0
VERTEX
  8
PLAN_1
  6
CONTINUOUS
 10
0.360693
 20
-3.119898
  0
VERTEX
  8
PLAN_1
  6
CONTINUOUS
 10
0.356531
 20
-3.117398
  0
VERTEX
  8
PLAN_1
  6
CONTINUOUS
 10
0.352783
 20
-3.115319
  0
VERTEX
  8
PLAN_1
  6
CONTINUOUS
 10
0.348622
 20
-3.113654
  0
VERTEX
  8
PLAN_1
  6
CONTINUOUS
 10
0.344457
 20
-3.112402
  0
VERTEX
  8
PLAN_1
  6
CONTINUOUS
 10
0.340295
 20
-3.111154
  0
VERTEX
  8
PLAN_1
  6
CONTINUOUS
 10
0.331969
 20
-3.110323
  0
VERTEX
  8
PLAN_1
  6
CONTINUOUS
 10
0.324472
 20
-3.109906
  0
VERTEX
  8
PLAN_1
  6
CONTINUOUS
 10
0.317811
 20
-3.109906
  0
VERTEX
  8
PLAN_1
  6
CONTINUOUS
 10
0.311150
 20
-3.111154
  0
VERTEX
  8
PLAN_1
  6
CONTINUOUS
 10
0.304906
 20
-3.112402
  0
VERTEX
  8
PLAN_1
  6
CONTINUOUS
 10
0.299079
 20
-3.114902
  0
VERTEX
  8
PLAN_1
  6
CONTINUOUS
 10
0.293248
 20
-3.117398
  0
VERTEX
  8
PLAN_1
  6
CONTINUOUS
 10
0.287839
 20
-3.121146
  0
VERTEX
  8
PLAN_1
  6
CONTINUOUS
 10
0.282843
 20
-3.124894
  0
VERTEX
  8
PLAN_1
  6
CONTINUOUS
 10
0.278260
 20
-3.129472
  0
VERTEX
  8
PLAN_1
  6
CONTINUOUS
 10
0.274098
 20
-3.134886
  0
VERTEX
  8
PLAN_1
  6
CONTINUOUS
 10
0.270350
 20
-3.140713
  0
VERTEX
  8
PLAN_1
  6
CONTINUOUS
 10
0.267020
 20
-3.147374
  0
VERTEX
  8
PLAN_1
  6
CONTINUOUS
 10
0.264106
 20
-3.154453
  0
VERTEX
  8
PLAN_1
  6
CONTINUOUS
 10
0.262024
 20
-3.161945
  0
VERTEX
  8
PLAN_1
  6
CONTINUOUS
 10
0.260358
 20
-3.170272
  0
VERTEX
  8
PLAN_1
  6
CONTINUOUS
 10
0.259528
 20
-3.179429
  0
VERTEX
  8
PLAN_1
  6
CONTINUOUS
 10
0.259110
 20
-3.189008
  0
VERTEX
  8
PLAN_1
  6
CONTINUOUS
 10
0.259528
 20
-3.197331
  0
VERTEX
  8
PLAN_1
  6
CONTINUOUS
 10
0.259945
 20
-3.206075
  0
VERTEX
  8
PLAN_1
  6
CONTINUOUS
 10
0.261193
 20
-3.213984
  0
VERTEX
  8
PLAN_1
  6
CONTINUOUS
 10
0.262441
 20
-3.221480
  0
VERTEX
  8
PLAN_1
  6
CONTINUOUS
 10
0.264524
 20
-3.228972
  0
VERTEX
  8
PLAN_1
  6
CONTINUOUS
 10
0.267020
 20
-3.235634
  0
VERTEX
  8
PLAN_1
  6
CONTINUOUS
 10
0.269937
 20
-3.242295
  0
VERTEX
  8
PLAN_1
  6
CONTINUOUS
 10
0.273681
 20
-3.248122
  0
VERTEX
  8
PLAN_1
  6
CONTINUOUS
 10
0.275764
 20
-3.250622
  0
VERTEX
  8
PLAN_1
  6
CONTINUOUS
 10
0.277846
 20
-3.253118
  0
VERTEX
  8
PLAN_1
  6
CONTINUOUS
 10
0.279925
 20
-3.255618
  0
VERTEX
  8
PLAN_1
  6
CONTINUOUS
 10
0.282425
 20
-3.258114
  0
VERTEX
  8
PLAN_1
  6
CONTINUOUS
 10
0.285339
 20
-3.260197
  0
VERTEX
  8
PLAN_1
  6
CONTINUOUS
 10
0.287839
 20
-3.261862
  0
VERTEX
  8
PLAN_1
  6
CONTINUOUS
 10
0.290752
 20
-3.263945
  0
VERTEX
  8
PLAN_1
  6
CONTINUOUS
 10
0.294083
 20
-3.265610
  0
VERTEX
  8
PLAN_1
  6
CONTINUOUS
 10
0.297413
 20
-3.266858
  0
VERTEX
  8
PLAN_1
  6
CONTINUOUS
 10
0.300744
 20
-3.268106
  0
VERTEX
  8
PLAN_1
  6
CONTINUOUS
 10
0.304488
 20
-3.269354
  0
VERTEX
  8
PLAN_1
  6
CONTINUOUS
 10
0.308236
 20
-3.270189
  0
VERTEX
  8
PLAN_1
  6
CONTINUOUS
 10
0.311984
 20
-3.271020
  0
VERTEX
  8
PLAN_1
  6
CONTINUOUS
 10
0.316146
 20
-3.271437
  0
VERTEX
  8
PLAN_1
  6
CONTINUOUS
 10
0.320728
 20
-3.271854
  0
VERTEX
  8
PLAN_1
  6
CONTINUOUS
 10
0.325307
 20
-3.271854
  0
VERTEX
  8
PLAN_1
  6
CONTINUOUS
 10
0.328638
 20
-3.271854
  0
VERTEX
  8
PLAN_1
  6
CONTINUOUS
 10
0.332382
 20
-3.271437
  0
VERTEX
  8
PLAN_1
  6
CONTINUOUS
 10
0.336130
 20
-3.270606
  0
VERTEX
  8
PLAN_1
  6
CONTINUOUS
 10
0.340295
 20
-3.269772
  0
VERTEX
  8
PLAN_1
  6
CONTINUOUS
 10
0.344457
 20
-3.268524
  0
VERTEX
  8
PLAN_1
  6
CONTINUOUS
 10
0.348622
 20
-3.266858
  0
VERTEX
  8
PLAN_1
  6
CONTINUOUS
 10
0.352783
 20
-3.264776
  0
VERTEX
  8
PLAN_1
  6
CONTINUOUS
 10
0.356945
 20
-3.261862
  0
VERTEX
  8
PLAN_1
  6
CONTINUOUS
 10
0.360693
 20
-3.258531
  0
VERTEX
  8
PLAN_1
  6
CONTINUOUS
 10
0.364858
 20
-3.254783
  0
VERTEX
  8
PLAN_1
  6
CONTINUOUS
 10
0.368189
 20
-3.250205
  0
VERTEX
  8
PLAN_1
  6
CONTINUOUS
 10
0.371933
 20
-3.245209
  0
VERTEX
  8
PLAN_1
  6
CONTINUOUS
 10
0.374846
 20
-3.239382
  0
VERTEX
  8
PLAN_1
  6
CONTINUOUS
 10
0.377764
 20
-3.232720
  0
VERTEX
  8
PLAN_1
  6
CONTINUOUS
 10
0.380260
 20
-3.225642
  0
VERTEX
  8
PLAN_1
  6
CONTINUOUS
 10
0.381925
 20
-3.217315
  0
VERTEX
  8
PLAN_1
  6
CONTINUOUS
 10
0.408154
 20
-3.217315
  0
VERTEX
  8
PLAN_1
  6
CONTINUOUS
 10
0.406906
 20
-3.223976
  0
VERTEX
  8
PLAN_1
  6
CONTINUOUS
 10
0.405657
 20
-3.230638
  0
VERTEX
  8
PLAN_1
  6
CONTINUOUS
 10
0.403992
 20
-3.236469
  0
VERTEX
  8
PLAN_1
  6
CONTINUOUS
 10
0.401909
 20
-3.242295
  0
VERTEX
  8
PLAN_1
  6
CONTINUOUS
 10
0.399827
 20
-3.247291
  0
VERTEX
  8
PLAN_1
  6
CONTINUOUS
 10
0.397331
 20
-3.252287
  0
VERTEX
  8
PLAN_1
  6
CONTINUOUS
 10
0.394831
 20
-3.256866
  0
VERTEX
  8
PLAN_1
  6
CONTINUOUS
 10
0.391917
 20
-3.261031
  0
VERTEX
  8
PLAN_1
  6
CONTINUOUS
 10
0.389004
 20
-3.265193
  0
VERTEX
  8
PLAN_1
  6
CONTINUOUS
 10
0.386091
 20
-3.268941
  0
VERTEX
  8
PLAN_1
  6
CONTINUOUS
 10
0.382760
 20
-3.271854
  0
VERTEX
  8
PLAN_1
  6
CONTINUOUS
 10
0.379843
 20
-3.275185
  0
VERTEX
  8
PLAN_1
  6
CONTINUOUS
 10
0.376512
 20
-3.277681
  0
VERTEX
  8
PLAN_1
  6
CONTINUOUS
 10
0.373185
 20
-3.280181
  0
VERTEX
  8
PLAN_1
  6
CONTINUOUS
 10
0.369437
 20
-3.282677
  0
VERTEX
  8
PLAN_1
  6
CONTINUOUS
 10
0.366106
 20
-3.284760
  0
VERTEX
  8
PLAN_1
  6
CONTINUOUS
 10
0.359028
 20
-3.288091
  0
VERTEX
  8
PLAN_1
  6
CONTINUOUS
 10
0.352366
 20
-3.290591
  0
VERTEX
  8
PLAN_1
  6
CONTINUOUS
 10
0.345705
 20
-3.292669
  0
VERTEX
  8
PLAN_1
  6
CONTINUOUS
 10
0.339461
 20
-3.293917
  0
VERTEX
  8
PLAN_1
  6
CONTINUOUS
 10
0.328638
 20
-3.295583
  0
VERTEX
  8
PLAN_1
  6
CONTINUOUS
 10
0.321142
 20
-3.295583
  0
VERTEX
  8
PLAN_1
  6
CONTINUOUS
 10
0.312402
 20
-3.295583
  0
VERTEX
  8
PLAN_1
  6
CONTINUOUS
 10
0.304075
 20
-3.294335
  0
VERTEX
  8
PLAN_1
  6
CONTINUOUS
 10
0.296165
 20
-3.292669
  0
VERTEX
  8
PLAN_1
  6
CONTINUOUS
 10
0.287839
 20
-3.289756
  0
VERTEX
  8
PLAN_1
  6
CONTINUOUS
 10
0.284091
 20
-3.288508
  0
VERTEX
  8
PLAN_1
  6
CONTINUOUS
 10
0.280343
 20
-3.286425
  0
VERTEX
  8
PLAN_1
  6
CONTINUOUS
 10
0.276598
 20
-3.284760
  0
VERTEX
  8
PLAN_1
  6
CONTINUOUS
 10
0.272850
 20
-3.282264
  0
VERTEX
  8
PLAN_1
  6
CONTINUOUS
 10
0.269102
 20
-3.280181
  0
VERTEX
  8
PLAN_1
  6
CONTINUOUS
 10
0.265772
 20
-3.277268
  0
VERTEX
  8
PLAN_1
  6
CONTINUOUS
 10
0.262441
 20
-3.274350
  0
VERTEX
  8
PLAN_1
  6
CONTINUOUS
 10
0.259110
 20
-3.271437
  0
VERTEX
  8
PLAN_1
  6
CONTINUOUS
 10
0.256197
 20
-3.268106
  0
VERTEX
  8
PLAN_1
  6
CONTINUOUS
 10
0.253283
 20
-3.264776
  0
VERTEX
  8
PLAN_1
  6
CONTINUOUS
 10
0.250370
 20
-3.261031
  0
VERTEX
  8
PLAN_1
  6
CONTINUOUS
 10
0.247870
 20
-3.256866
  0
VERTEX
  8
PLAN_1
  6
CONTINUOUS
 10
0.245374
 20
-3.252705
  0
VERTEX
  8
PLAN_1
  6
CONTINUOUS
 10
0.242874
 20
-3.248122
  0
VERTEX
  8
PLAN_1
  6
CONTINUOUS
 10
0.240791
 20
-3.243543
  0
VERTEX
  8
PLAN_1
  6
CONTINUOUS
 10
0.239126
 20
-3.238547
  0
VERTEX
  8
PLAN_1
  6
CONTINUOUS
 10
0.237461
 20
-3.233551
  0
VERTEX
  8
PLAN_1
  6
CONTINUOUS
 10
0.235795
 20
-3.228142
  0
VERTEX
  8
PLAN_1
  6
CONTINUOUS
 10
0.234547
 20
-3.222311
  0
VERTEX
  8
PLAN_1
  6
CONTINUOUS
 10
0.233299
 20
-3.216067
  0
VERTEX
  8
PLAN_1
  6
CONTINUOUS
 10
0.232465
 20
-3.209823
  0
VERTEX
  8
PLAN_1
  6
CONTINUOUS
 10
0.232051
 20
-3.203579
  0
VERTEX
  8
PLAN_1
  6
CONTINUOUS
 10
0.231634
 20
-3.196917
  0
VERTEX
  8
PLAN_1
  6
CONTINUOUS
 10
0.231217
 20
-3.189839
  0
VERTEX
  8
PLAN_1
  6
CONTINUOUS
 10
0.231634
 20
-3.184012
  0
VERTEX
  8
PLAN_1
  6
CONTINUOUS
 10
0.231634
 20
-3.178598
  0
VERTEX
  8
PLAN_1
  6
CONTINUOUS
 10
0.232465
 20
-3.172768
  0
VERTEX
  8
PLAN_1
  6
CONTINUOUS
 10
0.232882
 20
-3.167776
  0
VERTEX
  8
PLAN_1
  6
CONTINUOUS
 10
0.233717
 20
-3.162362
  0
VERTEX
  8
PLAN_1
  6
CONTINUOUS
 10
0.234965
 20
-3.157366
  0
VERTEX
  8
PLAN_1
  6
CONTINUOUS
 10
0.236213
 20
-3.152370
  0
VERTEX
  8
PLAN_1
  6
CONTINUOUS
 10
0.237878
 20
-3.147791
  0
VERTEX
  8
PLAN_1
  6
CONTINUOUS
 10
0.239543
 20
-3.142795
  0
VERTEX
  8
PLAN_1
  6
CONTINUOUS
 10
0.241209
 20
-3.138630
  0
VERTEX
  8
PLAN_1
  6
CONTINUOUS
 10
0.243291
 20
-3.134051
  0
VERTEX
  8
PLAN_1
  6
CONTINUOUS
 10
0.245374
 20
-3.129890
  0
VERTEX
  8
PLAN_1
  6
CONTINUOUS
 10
0.247870
 20
-3.125724
  0
VERTEX
  8
PLAN_1
  6
CONTINUOUS
 10
0.250370
 20
-3.121980
  0
VERTEX
  8
PLAN_1
  6
CONTINUOUS
 10
0.253283
 20
-3.118232
  0
VERTEX
  8
PLAN_1
  6
CONTINUOUS
 10
0.256197
 20
-3.114902
  0
VERTEX
  8
PLAN_1
  6
CONTINUOUS
 10
0.259110
 20
-3.111571
  0
VERTEX
  8
PLAN_1
  6
CONTINUOUS
 10
0.262441
 20
-3.108240
  0
VERTEX
  8
PLAN_1
  6
CONTINUOUS
 10
0.265772
 20
-3.105327
  0
VERTEX
  8
PLAN_1
  6
CONTINUOUS
 10
0.269520
 20
-3.102409
  0
VERTEX
  8
PLAN_1
  6
CONTINUOUS
 10
0.273268
 20
-3.099913
  0
VERTEX
  8
PLAN_1
  6
CONTINUOUS
 10
0.277012
 20
-3.097831
  0
VERTEX
  8
PLAN_1
  6
CONTINUOUS
 10
0.281177
 20
-3.095335
  0
VERTEX
  8
PLAN_1
  6
CONTINUOUS
 10
0.285339
 20
-3.093669
  0
VERTEX
  8
PLAN_1
  6
CONTINUOUS
 10
0.289917
 20
-3.091587
  0
VERTEX
  8
PLAN_1
  6
CONTINUOUS
 10
0.294083
 20
-3.090339
  0
VERTEX
  8
PLAN_1
  6
CONTINUOUS
 10
0.299079
 20
-3.089091
  0
VERTEX
  8
PLAN_1
  6
CONTINUOUS
 10
0.303657
 20
-3.087839
  0
VERTEX
  8
PLAN_1
  6
CONTINUOUS
 10
0.308654
 20
-3.087008
  0
VERTEX
  8
PLAN_1
  6
CONTINUOUS
 10
0.313650
 20
-3.086591
  0
VERTEX
  8
PLAN_1
  6
CONTINUOUS
 10
0.319063
 20
-3.086173
  0
VERTEX
  8
PLAN_1
  6
CONTINUOUS
 10
0.324472
 20
-3.085760
  0
VERTEX
  8
PLAN_1
  6
CONTINUOUS
 10
0.333634
 20
-3.086173
  0
VERTEX
  8
PLAN_1
  6
CONTINUOUS
 10
0.342374
 20
-3.087425
  0
VERTEX
  8
PLAN_1
  6
CONTINUOUS
 10
0.350701
 20
-3.089091
  0
VERTEX
  8
PLAN_1
  6
CONTINUOUS
 10
0.358197
 20
-3.091587
  0
VERTEX
  8
PLAN_1
  6
CONTINUOUS
 10
0.365272
 20
-3.094500
  0
VERTEX
  8
PLAN_1
  6
CONTINUOUS
 10
0.371933
 20
-3.097831
  0
VERTEX
  8
PLAN_1
  6
CONTINUOUS
 10
0.377764
 20
-3.101579
  0
VERTEX
  8
PLAN_1
  6
CONTINUOUS
 10
0.383173
 20
-3.106157
  0
VERTEX
  8
PLAN_1
  6
CONTINUOUS
 10
0.387756
 20
-3.110736
  0
VERTEX
  8
PLAN_1
  6
CONTINUOUS
 10
0.392335
 20
-3.115732
  0
VERTEX
  8
PLAN_1
  6
CONTINUOUS
 10
0.396083
 20
-3.121146
  0
VERTEX
  8
PLAN_1
  6
CONTINUOUS
 10
0.398996
 20
-3.126972
  0
VERTEX
  8
PLAN_1
  6
CONTINUOUS
 10
0.401492
 20
-3.132803
  0
VERTEX
  8
PLAN_1
  6
CONTINUOUS
 10
0.403575
 20
-3.138630
  0
VERTEX
  8
PLAN_1
  6
CONTINUOUS
 10
0.405240
 20
-3.144878
  0
VERTEX
  8
PLAN_1
  6
CONTINUOUS
 10
0.406071
 20
-3.151122
  0
VERTEX
  8
PLAN_1
  6
CONTINUOUS
 10
0.380260
 20
-3.151122
  0
SEQEND
  8
0
  0
POLYLINE
  8
PLAN_1
  6
CONTINUOUS
 66
     1
 40
0.003000
 41
0.003000
  0
VERTEX
  8
PLAN_1
  6
CONTINUOUS
 10
0.467689
 20
-3.290591
  0
VERTEX
  8
PLAN_1
  6
CONTINUOUS
 10
0.440626
 20
-3.290591
  0
VERTEX
  8
PLAN_1
  6
CONTINUOUS
 10
0.440626
 20
-3.091169
  0
VERTEX
  8
PLAN_1
  6
CONTINUOUS
 10
0.467689
 20
-3.091169
  0
VERTEX
  8
PLAN_1
  6
CONTINUOUS
 10
0.467689
 20
-3.187756
  0
VERTEX
  8
PLAN_1
  6
CONTINUOUS
 10
0.564276
 20
-3.091169
  0
VERTEX
  8
PLAN_1
  6
CONTINUOUS
 10
0.601327
 20
-3.091169
  0
VERTEX
  8
PLAN_1
  6
CONTINUOUS
 10
0.518480
 20
-3.171520
  0
VERTEX
  8
PLAN_1
  6
CONTINUOUS
 10
0.603827
 20
-3.290591
  0
VERTEX
  8
PLAN_1
  6
CONTINUOUS
 10
0.568854
 20
-3.290591
  0
VERTEX
  8
PLAN_1
  6
CONTINUOUS
 10
0.498913
 20
-3.190673
  0
VERTEX
  8
PLAN_1
  6
CONTINUOUS
 10
0.467689
 20
-3.220646
  0
VERTEX
  8
PLAN_1
  6
CONTINUOUS
 10
0.467689
 20
-3.290591
  0
SEQEND
  8
0
  0
POLYLINE
  8
PLAN_1
  6
CONTINUOUS
 66
     1
 40
0.003000
 41
0.003000
  0
VERTEX
  8
PLAN_1
  6
CONTINUOUS
 10
0.775768
 20
-3.290591
  0
VERTEX
  8
PLAN_1
  6
CONTINUOUS
 10
0.628803
 20
-3.290591
  0
VERTEX
  8
PLAN_1
  6
CONTINUOUS
 10
0.628803
 20
-3.091169
  0
VERTEX
  8
PLAN_1
  6
CONTINUOUS
 10
0.774102
 20
-3.091169
  0
VERTEX
  8
PLAN_1
  6
CONTINUOUS
 10
0.774102
 20
-3.114902
  0
VERTEX
  8
PLAN_1
  6
CONTINUOUS
 10
0.655866
 20
-3.114902
  0
VERTEX
  8
PLAN_1
  6
CONTINUOUS
 10
0.655866
 20
-3.176098
  0
VERTEX
  8
PLAN_1
  6
CONTINUOUS
 10
0.764941
 20
-3.176098
  0
VERTEX
  8
PLAN_1
  6
CONTINUOUS
 10
0.764941
 20
-3.199831
  0
VERTEX
  8
PLAN_1
  6
CONTINUOUS
 10
0.655866
 20
-3.199831
  0
VERTEX
  8
PLAN_1
  6
CONTINUOUS
 10
0.655866
 20
-3.266441
  0
VERTEX
  8
PLAN_1
  6
CONTINUOUS
 10
0.775768
 20
-3.266441
  0
VERTEX
  8
PLAN_1
  6
CONTINUOUS
 10
0.775768
 20
-3.290591
  0
SEQEND
  8
0
  0
POLYLINE
  8
PLAN_1
  6
CONTINUOUS
 66
     1
 40
0.003000
 41
0.003000
  0
VERTEX
  8
PLAN_1
  6
CONTINUOUS
 10
0.906075
 20
-3.147374
  0
VERTEX
  8
PLAN_1
  6
CONTINUOUS
 10
0.904409
 20
-3.141130
  0
VERTEX
  8
PLAN_1
  6
CONTINUOUS
 10
0.902327
 20
-3.135299
  0
VERTEX
  8
PLAN_1
  6
CONTINUOUS
 10
0.901079
 20
-3.132803
  0
VERTEX
  8
PLAN_1
  6
CONTINUOUS
 10
0.899413
 20
-3.130303
  0
VERTEX
  8
PLAN_1
  6
CONTINUOUS
 10
0.897748
 20
-3.127807
  0
VERTEX
  8
PLAN_1
  6
CONTINUOUS
 10
0.895665
 20
-3.125724
  0
VERTEX
  8
PLAN_1
  6
CONTINUOUS
 10
0.893587
 20
-3.124059
  0
VERTEX
  8
PLAN_1
  6
CONTINUOUS
 10
0.891504
 20
-3.122394
  0
VERTEX
  8
PLAN_1
  6
CONTINUOUS
 10
0.889004
 20
-3.120728
  0
VERTEX
  8
PLAN_1
  6
CONTINUOUS
 10
0.886091
 20
-3.119480
  0
VERTEX
  8
PLAN_1
  6
CONTINUOUS
 10
0.882760
 20
-3.118650
  0
VERTEX
  8
PLAN_1
  6
CONTINUOUS
 10
0.879846
 20
-3.117815
  0
VERTEX
  8
PLAN_1
  6
CONTINUOUS
 10
0.876098
 20
-3.117398
  0
VERTEX
  8
PLAN_1
  6
CONTINUOUS
 10
0.872354
 20
-3.117398
  0
VERTEX
  8
PLAN_1
  6
CONTINUOUS
 10
0.868606
 20
-3.117398
  0
VERTEX
  8
PLAN_1
  6
CONTINUOUS
 10
0.865276
 20
-3.117815
  0
VERTEX
  8
PLAN_1
  6
CONTINUOUS
 10
0.862362
 20
-3.118650
  0
VERTEX
  8
PLAN_1
  6
CONTINUOUS
 10
0.859445
 20
-3.119480
  0
VERTEX
  8
PLAN_1
  6
CONTINUOUS
 10
0.856531
 20
-3.120728
  0
VERTEX
  8
PLAN_1
  6
CONTINUOUS
 10
0.853618
 20
-3.121980
  0
VERTEX
  8
PLAN_1
  6
CONTINUOUS
 10
0.851122
 20
-3.123646
  0
VERTEX
  8
PLAN_1
  6
CONTINUOUS
 10
0.849039
 20
-3.125724
  0
VERTEX
  8
PLAN_1
  6
CONTINUOUS
 10
0.844461
 20
-3.129890
  0
VERTEX
  8
PLAN_1
  6
CONTINUOUS
 10
0.840713
 20
-3.134886
  0
VERTEX
  8
PLAN_1
  6
CONTINUOUS
 10
0.837382
 20
-3.139882
  0
VERTEX
  8
PLAN_1
  6
CONTINUOUS
 10
0.834882
 20
-3.145709
  0
VERTEX
  8
PLAN_1
  6
CONTINUOUS
 10
0.832386
 20
-3.151535
  0
VERTEX
  8
PLAN_1
  6
CONTINUOUS
 10
0.830303
 20
-3.157783
  0
VERTEX
  8
PLAN_1
  6
CONTINUOUS
 10
0.829055
 20
-3.163610
  0
VERTEX
  8
PLAN_1
  6
CONTINUOUS
 10
0.827807
 20
-3.169441
  0
VERTEX
  8
PLAN_1
  6
CONTINUOUS
 10
0.826972
 20
-3.175268
  0
VERTEX
  8
PLAN_1
  6
CONTINUOUS
 10
0.826559
 20
-3.180264
  0
VERTEX
  8
PLAN_1
  6
CONTINUOUS
 10
0.826142
 20
-3.185260
  0
VERTEX
  8
PLAN_1
  6
CONTINUOUS
 10
0.826142
 20
-3.189421
  0
VERTEX
  8
PLAN_1
  6
CONTINUOUS
 10
0.826559
 20
-3.189839
  0
VERTEX
  8
PLAN_1
  6
CONTINUOUS
 10
0.829055
 20
-3.186091
  0
VERTEX
  8
PLAN_1
  6
CONTINUOUS
 10
0.832386
 20
-3.181929
  0
VERTEX
  8
PLAN_1
  6
CONTINUOUS
 10
0.836965
 20
-3.177764
  0
VERTEX
  8
PLAN_1
  6
CONTINUOUS
 10
0.841961
 20
-3.174020
  0
VERTEX
  8
PLAN_1
  6
CONTINUOUS
 10
0.844874
 20
-3.172354
  0
VERTEX
  8
PLAN_1
  6
CONTINUOUS
 10
0.848205
 20
-3.170689
  0
VERTEX
  8
PLAN_1
  6
CONTINUOUS
 10
0.851535
 20
-3.169441
  0
VERTEX
  8
PLAN_1
  6
CONTINUOUS
 10
0.855283
 20
-3.168189
  0
VERTEX
  8
PLAN_1
  6
CONTINUOUS
 10
0.859031
 20
-3.167358
  0
VERTEX
  8
PLAN_1
  6
CONTINUOUS
 10
0.863610
 20
-3.166524
  0
VERTEX
  8
PLAN_1
  6
CONTINUOUS
 10
0.868189
 20
-3.166110
  0
VERTEX
  8
PLAN_1
  6
CONTINUOUS
 10
0.872768
 20
-3.166110
  0
VERTEX
  8
PLAN_1
  6
CONTINUOUS
 10
0.877346
 20
-3.166110
  0
VERTEX
  8
PLAN_1
  6
CONTINUOUS
 10
0.882343
 20
-3.166941
  0
VERTEX
  8
PLAN_1
  6
CONTINUOUS
 10
0.887339
 20
-3.167776
  0
VERTEX
  8
PLAN_1
  6
CONTINUOUS
 10
0.892335
 20
-3.169024
  0
VERTEX
  8
PLAN_1
  6
CONTINUOUS
 10
0.897748
 20
-3.171106
  0
VERTEX
  8
PLAN_1
  6
CONTINUOUS
 10
0.902744
 20
-3.173602
  0
VERTEX
  8
PLAN_1
  6
CONTINUOUS
 10
0.907740
 20
-3.176098
  0
VERTEX
  8
PLAN_1
  6
CONTINUOUS
 10
0.912319
 20
-3.179429
  0
VERTEX
  8
PLAN_1
  6
CONTINUOUS
 10
0.916898
 20
-3.183594
  0
VERTEX
  8
PLAN_1
  6
CONTINUOUS
 10
0.921063
 20
-3.187756
  0
VERTEX
  8
PLAN_1
  6
CONTINUOUS
 10
0.924394
 20
-3.193169
  0
VERTEX
  8
PLAN_1
  6
CONTINUOUS
 10
0.927724
 20
-3.198583
  0
VERTEX
  8
PLAN_1
  6
CONTINUOUS
 10
0.930220
 20
-3.204827
  0
VERTEX
  8
PLAN_1
  6
CONTINUOUS
 10
0.932303
 20
-3.211906
  0
VERTEX
  8
PLAN_1
  6
CONTINUOUS
 10
0.933134
 20
-3.215650
  0
VERTEX
  8
PLAN_1
  6
CONTINUOUS
 10
0.933551
 20
-3.219815
  0
VERTEX
  8
PLAN_1
  6
CONTINUOUS
 10
0.933969
 20
-3.223559
  0
VERTEX
  8
PLAN_1
  6
CONTINUOUS
 10
0.933969
 20
-3.228142
  0
VERTEX
  8
PLAN_1
  6
CONTINUOUS
 10
0.933551
 20
-3.235217
  0
VERTEX
  8
PLAN_1
  6
CONTINUOUS
 10
0.932720
 20
-3.241878
  0
VERTEX
  8
PLAN_1
  6
CONTINUOUS
 10
0.931469
 20
-3.248539
  0
VERTEX
  8
PLAN_1
  6
CONTINUOUS
 10
0.929803
 20
-3.254370
  0
VERTEX
  8
PLAN_1
  6
CONTINUOUS
 10
0.926890
 20
-3.260197
  0
VERTEX
  8
PLAN_1
  6
CONTINUOUS
 10
0.923976
 20
-3.266028
  0
VERTEX
  8
PLAN_1
  6
CONTINUOUS
 10
0.919815
 20
-3.271437
  0
VERTEX
  8
PLAN_1
  6
CONTINUOUS
 10
0.915232
 20
-3.276850
  0
VERTEX
  8
PLAN_1
  6
CONTINUOUS
 10
0.911488
 20
-3.281012
  0
VERTEX
  8
PLAN_1
  6
CONTINUOUS
 10
0.907323
 20
-3.284760
  0
VERTEX
  8
PLAN_1
  6
CONTINUOUS
 10
0.902327
 20
-3.287673
  0
VERTEX
  8
PLAN_1
  6
CONTINUOUS
 10
0.896917
 20
-3.290591
  0
VERTEX
  8
PLAN_1
  6
CONTINUOUS
 10
0.891087
 20
-3.292669
  0
VERTEX
  8
PLAN_1
  6
CONTINUOUS
 10
0.883594
 20
-3.294335
  0
VERTEX
  8
PLAN_1
  6
CONTINUOUS
 10
0.875685
 20
-3.295583
  0
VERTEX
  8
PLAN_1
  6
CONTINUOUS
 10
0.866106
 20
-3.295583
  0
VERTEX
  8
PLAN_1
  6
CONTINUOUS
 10
0.859862
 20
-3.295583
  0
VERTEX
  8
PLAN_1
  6
CONTINUOUS
 10
0.853618
 20
-3.294335
  0
VERTEX
  8
PLAN_1
  6
CONTINUOUS
 10
0.846957
 20
-3.292669
  0
VERTEX
  8
PLAN_1
  6
CONTINUOUS
 10
0.840295
 20
-3.289756
  0
VERTEX
  8
PLAN_1
  6
CONTINUOUS
 10
0.836965
 20
-3.288091
  0
VERTEX
  8
PLAN_1
  6
CONTINUOUS
 10
0.833634
 20
-3.286008
  0
VERTEX
  8
PLAN_1
  6
CONTINUOUS
 10
0.830303
 20
-3.283512
  0
VERTEX
  8
PLAN_1
  6
CONTINUOUS
 10
0.827390
 20
-3.281012
  0
VERTEX
  8
PLAN_1
  6
CONTINUOUS
 10
0.824059
 20
-3.278098
  0
VERTEX
  8
PLAN_1
  6
CONTINUOUS
 10
0.821146
 20
-3.274768
  0
VERTEX
  8
PLAN_1
  6
CONTINUOUS
 10
0.818232
 20
-3.271437
  0
VERTEX
  8
PLAN_1
  6
CONTINUOUS
 10
0.815732
 20
-3.267276
  0
VERTEX
  8
PLAN_1
  6
CONTINUOUS
 10
0.813650
 20
-3.263945
  0
VERTEX
  8
PLAN_1
  6
CONTINUOUS
 10
0.811571
 20
-3.260197
  0
VERTEX
  8
PLAN_1
  6
CONTINUOUS
 10
0.809906
 20
-3.256449
  0
VERTEX
  8
PLAN_1
  6
CONTINUOUS
 10
0.808240
 20
-3.252705
  0
VERTEX
  8
PLAN_1
  6
CONTINUOUS
 10
0.805740
 20
-3.244791
  0
VERTEX
  8
PLAN_1
  6
CONTINUOUS
 10
0.803661
 20
-3.236469
  0
VERTEX
  8
PLAN_1
  6
CONTINUOUS
 10
0.802409
 20
-3.227724
  0
VERTEX
  8
PLAN_1
  6
CONTINUOUS
 10
0.801579
 20
-3.218567
  0
VERTEX
  8
PLAN_1
  6
CONTINUOUS
 10
0.800744
 20
-3.208988
  0
VERTEX
  8
PLAN_1
  6
CONTINUOUS
 10
0.800744
 20
-3.199831
  0
VERTEX
  8
PLAN_1
  6
CONTINUOUS
 10
0.800744
 20
-3.191504
  0
VERTEX
  8
PLAN_1
  6
CONTINUOUS
 10
0.801579
 20
-3.182760
  0
VERTEX
  8
PLAN_1
  6
CONTINUOUS
 10
0.802409
 20
-3.174020
  0
VERTEX
  8
PLAN_1
  6
CONTINUOUS
 10
0.803661
 20
-3.165276
  0
VERTEX
  8
PLAN_1
  6
CONTINUOUS
 10
0.805740
 20
-3.156531
  0
VERTEX
  8
PLAN_1
  6
CONTINUOUS
 10
0.808240
 20
-3.147791
  0
VERTEX
  8
PLAN_1
  6
CONTINUOUS
 10
0.811154
 20
-3.139465
  0
VERTEX
  8
PLAN_1
  6
CONTINUOUS
 10
0.814902
 20
-3.131555
  0
VERTEX
  8
PLAN_1
  6
CONTINUOUS
 10
0.816980
 20
-3.127807
  0
VERTEX
  8
PLAN_1
  6
CONTINUOUS
 10
0.819480
 20
-3.124059
  0
VERTEX
  8
PLAN_1
  6
CONTINUOUS
 10
0.821563
 20
-3.120315
  0
VERTEX
  8
PLAN_1
  6
CONTINUOUS
 10
0.824476
 20
-3.116984
  0
VERTEX
  8
PLAN_1
  6
CONTINUOUS
 10
0.827390
 20
-3.114067
  0
VERTEX
  8
PLAN_1
  6
CONTINUOUS
 10
0.830303
 20
-3.110736
  0
VERTEX
  8
PLAN_1
  6
CONTINUOUS
 10
0.833634
 20
-3.108240
  0
VERTEX
  8
PLAN_1
  6
CONTINUOUS
 10
0.836965
 20
-3.105740
  0
VERTEX
  8
PLAN_1
  6
CONTINUOUS
 10
0.840713
 20
-3.103244
  0
VERTEX
  8
PLAN_1
  6
CONTINUOUS
 10
0.844461
 20
-3.101161
  0
VERTEX
  8
PLAN_1
  6
CONTINUOUS
 10
0.848622
 20
-3.099496
  0
VERTEX
  8
PLAN_1
  6
CONTINUOUS
 10
0.853201
 20
-3.098248
  0
VERTEX
  8
PLAN_1
  6
CONTINUOUS
 10
0.857780
 20
-3.097000
  0
VERTEX
  8
PLAN_1
  6
CONTINUOUS
 10
0.862362
 20
-3.096165
  0
VERTEX
  8
PLAN_1
  6
CONTINUOUS
 10
0.867358
 20
-3.095335
  0
VERTEX
  8
PLAN_1
  6
CONTINUOUS
 10
0.872768
 20
-3.095335
  0
VERTEX
  8
PLAN_1
  6
CONTINUOUS
 10
0.877346
 20
-3.095335
  0
VERTEX
  8
PLAN_1
  6
CONTINUOUS
 10
0.881512
 20
-3.095752
  0
VERTEX
  8
PLAN_1
  6
CONTINUOUS
 10
0.886091
 20
-3.096583
  0
VERTEX
  8
PLAN_1
  6
CONTINUOUS
 10
0.890669
 20
-3.097831
  0
VERTEX
  8
PLAN_1
  6
CONTINUOUS
 10
0.895665
 20
-3.099496
  0
VERTEX
  8
PLAN_1
  6
CONTINUOUS
 10
0.900248
 20
-3.101161
  0
VERTEX
  8
PLAN_1
  6
CONTINUOUS
 10
0.904409
 20
-3.103661
  0
VERTEX
  8
PLAN_1
  6
CONTINUOUS
 10
0.908988
 20
-3.106575
  0
VERTEX
  8
PLAN_1
  6
CONTINUOUS
 10
0.912736
 20
-3.109488
  0
VERTEX
  8
PLAN_1
  6
CONTINUOUS
 10
0.916484
 20
-3.113236
  0
VERTEX
  8
PLAN_1
  6
CONTINUOUS
 10
0.919815
 20
-3.117815
  0
VERTEX
  8
PLAN_1
  6
CONTINUOUS
 10
0.923146
 20
-3.122394
  0
VERTEX
  8
PLAN_1
  6
CONTINUOUS
 10
0.925642
 20
-3.127807
  0
VERTEX
  8
PLAN_1
  6
CONTINUOUS
 10
0.927307
 20
-3.133634
  0
VERTEX
  8
PLAN_1
  6
CONTINUOUS
 10
0.928972
 20
-3.140295
  0
VERTEX
  8
PLAN_1
  6
CONTINUOUS
 10
0.929803
 20
-3.147374
  0
VERTEX
  8
PLAN_1
  6
CONTINUOUS
 10
0.906075
 20
-3.147374
  0
SEQEND
  8
0
  0
POLYLINE
  8
PLAN_1
  6
CONTINUOUS
 66
     1
 40
0.003000
 41
0.003000
  0
VERTEX
  8
PLAN_1
  6
CONTINUOUS
 10
0.870272
 20
-3.273937
  0
VERTEX
  8
PLAN_1
  6
CONTINUOUS
 10
0.874433
 20
-3.273520
  0
VERTEX
  8
PLAN_1
  6
CONTINUOUS
 10
0.878598
 20
-3.273102
  0
VERTEX
  8
PLAN_1
  6
CONTINUOUS
 10
0.882343
 20
-3.271854
  0
VERTEX
  8
PLAN_1
  6
CONTINUOUS
 10
0.886091
 20
-3.270606
  0
VERTEX
  8
PLAN_1
  6
CONTINUOUS
 10
0.889421
 20
-3.268941
  0
VERTEX
  8
PLAN_1
  6
CONTINUOUS
 10
0.892752
 20
-3.266441
  0
VERTEX
  8
PLAN_1
  6
CONTINUOUS
 10
0.895665
 20
-3.263945
  0
VERTEX
  8
PLAN_1
  6
CONTINUOUS
 10
0.898165
 20
-3.261445
  0
VERTEX
  8
PLAN_1
  6
CONTINUOUS
 10
0.900661
 20
-3.258114
  0
VERTEX
  8
PLAN_1
  6
CONTINUOUS
 10
0.902744
 20
-3.254783
  0
VERTEX
  8
PLAN_1
  6
CONTINUOUS
 10
0.904409
 20
-3.251039
  0
VERTEX
  8
PLAN_1
  6
CONTINUOUS
 10
0.906075
 20
-3.247291
  0
VERTEX
  8
PLAN_1
  6
CONTINUOUS
 10
0.906906
 20
-3.243130
  0
VERTEX
  8
PLAN_1
  6
CONTINUOUS
 10
0.908157
 20
-3.238547
  0
VERTEX
  8
PLAN_1
  6
CONTINUOUS
 10
0.908571
 20
-3.233969
  0
VERTEX
  8
PLAN_1
  6
CONTINUOUS
 10
0.908571
 20
-3.228972
  0
VERTEX
  8
PLAN_1
  6
CONTINUOUS
 10
0.908571
 20
-3.225642
  0
VERTEX
  8
PLAN_1
  6
CONTINUOUS
 10
0.908157
 20
-3.222311
  0
VERTEX
  8
PLAN_1
  6
CONTINUOUS
 10
0.907740
 20
-3.218980
  0
VERTEX
  8
PLAN_1
  6
CONTINUOUS
 10
0.906906
 20
-3.215236
  0
VERTEX
  8
PLAN_1
  6
CONTINUOUS
 10
0.905657
 20
-3.211906
  0
VERTEX
  8
PLAN_1
  6
CONTINUOUS
 10
0.903992
 20
-3.208575
  0
VERTEX
  8
PLAN_1
  6
CONTINUOUS
 10
0.902327
 20
-3.205244
  0
VERTEX
  8
PLAN_1
  6
CONTINUOUS
 10
0.900248
 20
-3.202327
  0
VERTEX
  8
PLAN_1
  6
CONTINUOUS
 10
0.897748
 20
-3.198996
  0
VERTEX
  8
PLAN_1
  6
CONTINUOUS
 10
0.894835
 20
-3.196500
  0
VERTEX
  8
PLAN_1
  6
CONTINUOUS
 10
0.891921
 20
-3.194004
  0
VERTEX
  8
PLAN_1
  6
CONTINUOUS
 10
0.888173
 20
-3.191921
  0
VERTEX
  8
PLAN_1
  6
CONTINUOUS
 10
0.884008
 20
-3.190256
  0
VERTEX
  8
PLAN_1
  6
CONTINUOUS
 10
0.879429
 20
-3.189008
  0
VERTEX
  8
PLAN_1
  6
CONTINUOUS
 10
0.874850
 20
-3.188173
  0
VERTEX
  8
PLAN_1
  6
CONTINUOUS
 10
0.869437
 20
-3.188173
  0
VERTEX
  8
PLAN_1
  6
CONTINUOUS
 10
0.864441
 20
-3.188173
  0
VERTEX
  8
PLAN_1
  6
CONTINUOUS
 10
0.859862
 20
-3.189008
  0
VERTEX
  8
PLAN_1
  6
CONTINUOUS
 10
0.855701
 20
-3.189839
  0
VERTEX
  8
PLAN_1
  6
CONTINUOUS
 10
0.851535
 20
-3.191504
  0
VERTEX
  8
PLAN_1
  6
CONTINUOUS
 10
0.848205
 20
-3.193169
  0
VERTEX
  8
PLAN_1
  6
CONTINUOUS
 10
0.844874
 20
-3.195252
  0
VERTEX
  8
PLAN_1
  6
CONTINUOUS
 10
0.841961
 20
-3.197748
  0
VERTEX
  8
PLAN_1
  6
CONTINUOUS
 10
0.839047
 20
-3.200661
  0
VERTEX
  8
PLAN_1
  6
CONTINUOUS
 10
0.836965
 20
-3.203579
  0
VERTEX
  8
PLAN_1
  6
CONTINUOUS
 10
0.834882
 20
-3.206909
  0
VERTEX
  8
PLAN_1
  6
CONTINUOUS
 10
0.833217
 20
-3.210654
  0
VERTEX
  8
PLAN_1
  6
CONTINUOUS
 10
0.831551
 20
-3.213984
  0
VERTEX
  8
PLAN_1
  6
CONTINUOUS
 10
0.830720
 20
-3.218150
  0
VERTEX
  8
PLAN_1
  6
CONTINUOUS
 10
0.829886
 20
-3.221894
  0
VERTEX
  8
PLAN_1
  6
CONTINUOUS
 10
0.829472
 20
-3.226059
  0
VERTEX
  8
PLAN_1
  6
CONTINUOUS
 10
0.829472
 20
-3.230638
  0
VERTEX
  8
PLAN_1
  6
CONTINUOUS
 10
0.829472
 20
-3.234386
  0
VERTEX
  8
PLAN_1
  6
CONTINUOUS
 10
0.829886
 20
-3.238547
  0
VERTEX
  8
PLAN_1
  6
CONTINUOUS
 10
0.830720
 20
-3.242295
  0
VERTEX
  8
PLAN_1
  6
CONTINUOUS
 10
0.831551
 20
-3.246043
  0
VERTEX
  8
PLAN_1
  6
CONTINUOUS
 10
0.833217
 20
-3.249787
  0
VERTEX
  8
PLAN_1
  6
CONTINUOUS
 10
0.834882
 20
-3.253535
  0
VERTEX
  8
PLAN_1
  6
CONTINUOUS
 10
0.836547
 20
-3.256866
  0
VERTEX
  8
PLAN_1
  6
CONTINUOUS
 10
0.839047
 20
-3.259780
  0
VERTEX
  8
PLAN_1
  6
CONTINUOUS
 10
0.841961
 20
-3.263110
  0
VERTEX
  8
PLAN_1
  6
CONTINUOUS
 10
0.844874
 20
-3.265610
  0
VERTEX
  8
PLAN_1
  6
CONTINUOUS
 10
0.848205
 20
-3.268106
  0
VERTEX
  8
PLAN_1
  6
CONTINUOUS
 10
0.851953
 20
-3.269772
  0
VERTEX
  8
PLAN_1
  6
CONTINUOUS
 10
0.856114
 20
-3.271437
  0
VERTEX
  8
PLAN_1
  6
CONTINUOUS
 10
0.860280
 20
-3.272685
  0
VERTEX
  8
PLAN_1
  6
CONTINUOUS
 10
0.865276
 20
-3.273520
  0
VERTEX
  8
PLAN_1
  6
CONTINUOUS
 10
0.870272
 20
-3.273937
  0
SEQEND
  8
0
  0
POLYLINE
  8
PLAN_1
  6
CONTINUOUS
 66
     1
 40
0.003000
 41
0.003000
  0
VERTEX
  8
PLAN_1
  6
CONTINUOUS
 10
1.060945
 20
-3.243130
  0
VERTEX
  8
PLAN_1
  6
CONTINUOUS
 10
1.060945
 20
-3.290591
  0
VERTEX
  8
PLAN_1
  6
CONTINUOUS
 10
1.036799
 20
-3.290591
  0
VERTEX
  8
PLAN_1
  6
CONTINUOUS
 10
1.036799
 20
-3.243130
  0
VERTEX
  8
PLAN_1
  6
CONTINUOUS
 10
0.951453
 20
-3.243130
  0
VERTEX
  8
PLAN_1
  6
CONTINUOUS
 10
0.951453
 20
-3.218980
  0
VERTEX
  8
PLAN_1
  6
CONTINUOUS
 10
1.040965
 20
-3.095335
  0
VERTEX
  8
PLAN_1
  6
CONTINUOUS
 10
1.060945
 20
-3.095335
  0
VERTEX
  8
PLAN_1
  6
CONTINUOUS
 10
1.060945
 20
-3.221894
  0
VERTEX
  8
PLAN_1
  6
CONTINUOUS
 10
1.089673
 20
-3.221894
  0
VERTEX
  8
PLAN_1
  6
CONTINUOUS
 10
1.089673
 20
-3.243130
  0
VERTEX
  8
PLAN_1
  6
CONTINUOUS
 10
1.060945
 20
-3.243130
  0
SEQEND
  8
0
  0
SOLID
  8
PLAN_1
 10
0.973933
 20
-3.221894
 11
1.036799
 21
-3.221894
 12
1.035969
 22
-3.133220
 13
1.036799
 23
-3.133220
  0
POLYLINE
  8
PLAN_1
  6
CONTINUOUS
 66
     1
 40
0.003000
 41
0.003000
  0
VERTEX
  8
PLAN_1
  6
CONTINUOUS
 10
0.973933
 20
-3.221894
  0
VERTEX
  8
PLAN_1
  6
CONTINUOUS
 10
1.036799
 20
-3.221894
  0
VERTEX
  8
PLAN_1
  6
CONTINUOUS
 10
1.036799
 20
-3.133220
  0
VERTEX
  8
PLAN_1
  6
CONTINUOUS
 10
1.035969
 20
-3.133220
  0
VERTEX
  8
PLAN_1
  6
CONTINUOUS
 10
0.973933
 20
-3.221894
  0
SEQEND
  8
0
  0
SOLID
  8
PLAN_1
 10
1.098831
 20
-3.325142
 11
1.098831
 21
-3.311406
 12
1.253287
 22
-3.325142
 13
1.253287
 23
-3.311406
  0
POLYLINE
  8
PLAN_1
  6
CONTINUOUS
 66
     1
 40
0.003000
 41
0.003000
  0
VERTEX
  8
PLAN_1
  6
CONTINUOUS
 10
1.098831
 20
-3.325142
  0
VERTEX
  8
PLAN_1
  6
CONTINUOUS
 10
1.098831
 20
-3.311406
  0
VERTEX
  8
PLAN_1
  6
CONTINUOUS
 10
1.253287
 20
-3.311406
  0
VERTEX
  8
PLAN_1
  6
CONTINUOUS
 10
1.253287
 20
-3.325142
  0
VERTEX
  8
PLAN_1
  6
CONTINUOUS
 10
1.098831
 20
-3.325142
  0
SEQEND
  8
0
  0
POLYLINE
  8
PLAN_1
  6
CONTINUOUS
 66
     1
 40
0.003000
 41
0.003000
  0
VERTEX
  8
PLAN_1
  6
CONTINUOUS
 10
1.304079
 20
-3.290591
  0
VERTEX
  8
PLAN_1
  6
CONTINUOUS
 10
1.277016
 20
-3.290591
  0
VERTEX
  8
PLAN_1
  6
CONTINUOUS
 10
1.277016
 20
-3.091169
  0
VERTEX
  8
PLAN_1
  6
CONTINUOUS
 10
1.415236
 20
-3.091169
  0
VERTEX
  8
PLAN_1
  6
CONTINUOUS
 10
1.415236
 20
-3.114902
  0
VERTEX
  8
PLAN_1
  6
CONTINUOUS
 10
1.304079
 20
-3.114902
  0
VERTEX
  8
PLAN_1
  6
CONTINUOUS
 10
1.304079
 20
-3.176098
  0
VERTEX
  8
PLAN_1
  6
CONTINUOUS
 10
1.401913
 20
-3.176098
  0
VERTEX
  8
PLAN_1
  6
CONTINUOUS
 10
1.401913
 20
-3.199831
  0
VERTEX
  8
PLAN_1
  6
CONTINUOUS
 10
1.304079
 20
-3.199831
  0
VERTEX
  8
PLAN_1
  6
CONTINUOUS
 10
1.304079
 20
-3.290591
  0
SEQEND
  8
0
  0
SOLID
  8
PLAN_1
 10
1.434386
 20
-3.290591
 11
1.405244
 21
-3.290591
 12
1.434386
 22
-3.261031
 13
1.405244
 23
-3.261031
  0
POLYLINE
  8
PLAN_1
  6
CONTINUOUS
 66
     1
 40
0.003000
 41
0.003000
  0
VERTEX
  8
PLAN_1
  6
CONTINUOUS
 10
1.434386
 20
-3.290591
  0
VERTEX
  8
PLAN_1
  6
CONTINUOUS
 10
1.405244
 20
-3.290591
  0
VERTEX
  8
PLAN_1
  6
CONTINUOUS
 10
1.405244
 20
-3.261031
  0
VERTEX
  8
PLAN_1
  6
CONTINUOUS
 10
1.434386
 20
-3.261031
  0
VERTEX
  8
PLAN_1
  6
CONTINUOUS
 10
1.434386
 20
-3.290591
  0
SEQEND
  8
0
  0
POLYLINE
  8
PLAN_1
  6
CONTINUOUS
 66
     1
 40
0.003000
 41
0.003000
  0
VERTEX
  8
PLAN_1
  6
CONTINUOUS
 10
1.629224
 20
-3.290591
  0
VERTEX
  8
PLAN_1
  6
CONTINUOUS
 10
1.482264
 20
-3.290591
  0
VERTEX
  8
PLAN_1
  6
CONTINUOUS
 10
1.482264
 20
-3.091169
  0
VERTEX
  8
PLAN_1
  6
CONTINUOUS
 10
1.627559
 20
-3.091169
  0
VERTEX
  8
PLAN_1
  6
CONTINUOUS
 10
1.627559
 20
-3.114902
  0
VERTEX
  8
PLAN_1
  6
CONTINUOUS
 10
1.509323
 20
-3.114902
  0
VERTEX
  8
PLAN_1
  6
CONTINUOUS
 10
1.509323
 20
-3.176098
  0
VERTEX
  8
PLAN_1
  6
CONTINUOUS
 10
1.618402
 20
-3.176098
  0
VERTEX
  8
PLAN_1
  6
CONTINUOUS
 10
1.618402
 20
-3.199831
  0
VERTEX
  8
PLAN_1
  6
CONTINUOUS
 10
1.509323
 20
-3.199831
  0
VERTEX
  8
PLAN_1
  6
CONTINUOUS
 10
1.509323
 20
-3.266441
  0
VERTEX
  8
PLAN_1
  6
CONTINUOUS
 10
1.629224
 20
-3.266441
  0
VERTEX
  8
PLAN_1
  6
CONTINUOUS
 10
1.629224
 20
-3.290591
  0
SEQEND
  8
0
  0
POLYLINE
  8
PLAN_1
  6
CONTINUOUS
 66
     1
 40
0.003000
 41
0.003000
  0
VERTEX
  8
PLAN_1
  6
CONTINUOUS
 10
1.694587
 20
-3.290591
  0
VERTEX
  8
PLAN_1
  6
CONTINUOUS
 10
1.667528
 20
-3.290591
  0
VERTEX
  8
PLAN_1
  6
CONTINUOUS
 10
1.667528
 20
-3.091169
  0
VERTEX
  8
PLAN_1
  6
CONTINUOUS
 10
1.757035
 20
-3.091169
  0
VERTEX
  8
PLAN_1
  6
CONTINUOUS
 10
1.764114
 20
-3.091587
  0
VERTEX
  8
PLAN_1
  6
CONTINUOUS
 10
1.770358
 20
-3.092421
  0
VERTEX
  8
PLAN_1
  6
CONTINUOUS
 10
1.776185
 20
-3.093669
  0
VERTEX
  8
PLAN_1
  6
CONTINUOUS
 10
1.782016
 20
-3.095335
  0
VERTEX
  8
PLAN_1
  6
CONTINUOUS
 10
1.787425
 20
-3.097831
  0
VERTEX
  8
PLAN_1
  6
CONTINUOUS
 10
1.792008
 20
-3.100331
  0
VERTEX
  8
PLAN_1
  6
CONTINUOUS
 10
1.796587
 20
-3.103661
  0
VERTEX
  8
PLAN_1
  6
CONTINUOUS
 10
1.800748
 20
-3.106992
  0
VERTEX
  8
PLAN_1
  6
CONTINUOUS
 10
1.804079
 20
-3.111154
  0
VERTEX
  8
PLAN_1
  6
CONTINUOUS
 10
1.807409
 20
-3.115319
  0
VERTEX
  8
PLAN_1
  6
CONTINUOUS
 10
1.809909
 20
-3.119898
  0
VERTEX
  8
PLAN_1
  6
CONTINUOUS
 10
1.812406
 20
-3.124894
  0
VERTEX
  8
PLAN_1
  6
CONTINUOUS
 10
1.814071
 20
-3.130303
  0
VERTEX
  8
PLAN_1
  6
CONTINUOUS
 10
1.815319
 20
-3.135717
  0
VERTEX
  8
PLAN_1
  6
CONTINUOUS
 10
1.816154
 20
-3.141130
  0
VERTEX
  8
PLAN_1
  6
CONTINUOUS
 10
1.816154
 20
-3.147374
  0
VERTEX
  8
PLAN_1
  6
CONTINUOUS
 10
1.816154
 20
-3.152370
  0
VERTEX
  8
PLAN_1
  6
CONTINUOUS
 10
1.815736
 20
-3.157783
  0
VERTEX
  8
PLAN_1
  6
CONTINUOUS
 10
1.814488
 20
-3.163193
  0
VERTEX
  8
PLAN_1
  6
CONTINUOUS
 10
1.813240
 20
-3.168189
  0
VERTEX
  8
PLAN_1
  6
CONTINUOUS
 10
1.811157
 20
-3.173185
  0
VERTEX
  8
PLAN_1
  6
CONTINUOUS
 10
1.809075
 20
-3.178181
  0
VERTEX
  8
PLAN_1
  6
CONTINUOUS
 10
1.806161
 20
-3.182760
  0
VERTEX
  8
PLAN_1
  6
CONTINUOUS
 10
1.802831
 20
-3.187343
  0
VERTEX
  8
PLAN_1
  6
CONTINUOUS
 10
1.799083
 20
-3.191087
  0
VERTEX
  8
PLAN_1
  6
CONTINUOUS
 10
1.794921
 20
-3.194835
  0
VERTEX
  8
PLAN_1
  6
CONTINUOUS
 10
1.789925
 20
-3.198165
  0
VERTEX
  8
PLAN_1
  6
CONTINUOUS
 10
1.784512
 20
-3.201079
  0
VERTEX
  8
PLAN_1
  6
CONTINUOUS
 10
1.778685
 20
-3.203161
  0
VERTEX
  8
PLAN_1
  6
CONTINUOUS
 10
1.772024
 20
-3.204827
  0
VERTEX
  8
PLAN_1
  6
CONTINUOUS
 10
1.764945
 20
-3.206075
  0
VERTEX
  8
PLAN_1
  6
CONTINUOUS
 10
1.757035
 20
-3.206492
  0
VERTEX
  8
PLAN_1
  6
CONTINUOUS
 10
1.694587
 20
-3.206492
  0
VERTEX
  8
PLAN_1
  6
CONTINUOUS
 10
1.694587
 20
-3.290591
  0
SEQEND
  8
0
  0
POLYLINE
  8
PLAN_1
  6
CONTINUOUS
 66
     1
 40
0.003000
 41
0.003000
  0
VERTEX
  8
PLAN_1
  6
CONTINUOUS
 10
1.694587
 20
-3.183177
  0
VERTEX
  8
PLAN_1
  6
CONTINUOUS
 10
1.747878
 20
-3.183177
  0
VERTEX
  8
PLAN_1
  6
CONTINUOUS
 10
1.752457
 20
-3.183177
  0
VERTEX
  8
PLAN_1
  6
CONTINUOUS
 10
1.756618
 20
-3.182760
  0
VERTEX
  8
PLAN_1
  6
CONTINUOUS
 10
1.760783
 20
-3.182346
  0
VERTEX
  8
PLAN_1
  6
CONTINUOUS
 10
1.764528
 20
-3.181512
  0
VERTEX
  8
PLAN_1
  6
CONTINUOUS
 10
1.768276
 20
-3.180264
  0
VERTEX
  8
PLAN_1
  6
CONTINUOUS
 10
1.771606
 20
-3.179016
  0
VERTEX
  8
PLAN_1
  6
CONTINUOUS
 10
1.774520
 20
-3.177350
  0
VERTEX
  8
PLAN_1
  6
CONTINUOUS
 10
1.777437
 20
-3.175685
  0
VERTEX
  8
PLAN_1
  6
CONTINUOUS
 10
1.779933
 20
-3.173185
  0
VERTEX
  8
PLAN_1
  6
CONTINUOUS
 10
1.782016
 20
-3.170689
  0
VERTEX
  8
PLAN_1
  6
CONTINUOUS
 10
1.784098
 20
-3.167776
  0
VERTEX
  8
PLAN_1
  6
CONTINUOUS
 10
1.785760
 20
-3.164445
  0
VERTEX
  8
PLAN_1
  6
CONTINUOUS
 10
1.787012
 20
-3.160697
  0
VERTEX
  8
PLAN_1
  6
CONTINUOUS
 10
1.787843
 20
-3.156949
  0
VERTEX
  8
PLAN_1
  6
CONTINUOUS
 10
1.788260
 20
-3.152370
  0
VERTEX
  8
PLAN_1
  6
CONTINUOUS
 10
1.788677
 20
-3.147374
  0
VERTEX
  8
PLAN_1
  6
CONTINUOUS
 10
1.788260
 20
-3.142795
  0
VERTEX
  8
PLAN_1
  6
CONTINUOUS
 10
1.787843
 20
-3.138630
  0
VERTEX
  8
PLAN_1
  6
CONTINUOUS
 10
1.787012
 20
-3.134886
  0
VERTEX
  8
PLAN_1
  6
CONTINUOUS
 10
1.785346
 20
-3.131555
  0
VERTEX
  8
PLAN_1
  6
CONTINUOUS
 10
1.784098
 20
-3.128638
  0
VERTEX
  8
PLAN_1
  6
CONTINUOUS
 10
1.782016
 20
-3.125724
  0
VERTEX
  8
PLAN_1
  6
CONTINUOUS
 10
1.779516
 20
-3.123646
  0
VERTEX
  8
PLAN_1
  6
CONTINUOUS
 10
1.777020
 20
-3.121563
  0
VERTEX
  8
PLAN_1
  6
CONTINUOUS
 10
1.774520
 20
-3.119480
  0
VERTEX
  8
PLAN_1
  6
CONTINUOUS
 10
1.771189
 20
-3.118232
  0
VERTEX
  8
PLAN_1
  6
CONTINUOUS
 10
1.768276
 20
-3.116984
  0
VERTEX
  8
PLAN_1
  6
CONTINUOUS
 10
1.764528
 20
-3.115732
  0
VERTEX
  8
PLAN_1
  6
CONTINUOUS
 10
1.761201
 20
-3.115319
  0
VERTEX
  8
PLAN_1
  6
CONTINUOUS
 10
1.757035
 20
-3.114484
  0
VERTEX
  8
PLAN_1
  6
CONTINUOUS
 10
1.753287
 20
-3.114484
  0
VERTEX
  8
PLAN_1
  6
CONTINUOUS
 10
1.749126
 20
-3.114067
  0
VERTEX
  8
PLAN_1
  6
CONTINUOUS
 10
1.694587
 20
-3.114067
  0
VERTEX
  8
PLAN_1
  6
CONTINUOUS
 10
1.694587
 20
-3.183177
  0
SEQEND
  8
0
  0
POLYLINE
  8
PLAN_1
  6
CONTINUOUS
 66
     1
 40
0.003000
 41
0.003000
  0
VERTEX
  8
PLAN_1
  6
CONTINUOUS
 10
1.970193
 20
-3.149457
  0
VERTEX
  8
PLAN_1
  6
CONTINUOUS
 10
1.969776
 20
-3.144043
  0
VERTEX
  8
PLAN_1
  6
CONTINUOUS
 10
1.968528
 20
-3.139047
  0
VERTEX
  8
PLAN_1
  6
CONTINUOUS
 10
1.966862
 20
-3.134469
  0
VERTEX
  8
PLAN_1
  6
CONTINUOUS
 10
1.965197
 20
-3.130303
  0
VERTEX
  8
PLAN_1
  6
CONTINUOUS
 10
1.962697
 20
-3.126559
  0
VERTEX
  8
PLAN_1
  6
CONTINUOUS
 10
1.959783
 20
-3.123228
  0
VERTEX
  8
PLAN_1
  6
CONTINUOUS
 10
1.956870
 20
-3.120315
  0
VERTEX
  8
PLAN_1
  6
CONTINUOUS
 10
1.953539
 20
-3.117815
  0
VERTEX
  8
PLAN_1
  6
CONTINUOUS
 10
1.949791
 20
-3.115319
  0
VERTEX
  8
PLAN_1
  6
CONTINUOUS
 10
1.946047
 20
-3.113654
  0
VERTEX
  8
PLAN_1
  6
CONTINUOUS
 10
1.941882
 20
-3.111988
  0
VERTEX
  8
PLAN_1
  6
CONTINUOUS
 10
1.937720
 20
-3.110736
  0
VERTEX
  8
PLAN_1
  6
CONTINUOUS
 10
1.933555
 20
-3.109906
  0
VERTEX
  8
PLAN_1
  6
CONTINUOUS
 10
1.929394
 20
-3.109488
  0
VERTEX
  8
PLAN_1
  6
CONTINUOUS
 10
1.925228
 20
-3.109071
  0
VERTEX
  8
PLAN_1
  6
CONTINUOUS
 10
1.920650
 20
-3.109071
  0
VERTEX
  8
PLAN_1
  6
CONTINUOUS
 10
1.913988
 20
-3.109071
  0
VERTEX
  8
PLAN_1
  6
CONTINUOUS
 10
1.906496
 20
-3.110323
  0
VERTEX
  8
PLAN_1
  6
CONTINUOUS
 10
1.902748
 20
-3.111154
  0
VERTEX
  8
PLAN_1
  6
CONTINUOUS
 10
1.899000
 20
-3.111988
  0
VERTEX
  8
PLAN_1
  6
CONTINUOUS
 10
1.895256
 20
-3.113236
  0
VERTEX
  8
PLAN_1
  6
CONTINUOUS
 10
1.891508
 20
-3.114902
  0
VERTEX
  8
PLAN_1
  6
CONTINUOUS
 10
1.888177
 20
-3.116984
  0
VERTEX
  8
PLAN_1
  6
CONTINUOUS
 10
1.885264
 20
-3.119480
  0
VERTEX
  8
PLAN_1
  6
CONTINUOUS
 10
1.882346
 20
-3.122394
  0
VERTEX
  8
PLAN_1
  6
CONTINUOUS
 10
1.879850
 20
-3.125724
  0
VERTEX
  8
PLAN_1
  6
CONTINUOUS
 10
1.878185
 20
-3.129472
  0
VERTEX
  8
PLAN_1
  6
CONTINUOUS
 10
1.876520
 20
-3.133634
  0
VERTEX
  8
PLAN_1
  6
CONTINUOUS
 10
1.875689
 20
-3.138630
  0
VERTEX
  8
PLAN_1
  6
CONTINUOUS
 10
1.875272
 20
-3.144043
  0
VERTEX
  8
PLAN_1
  6
CONTINUOUS
 10
1.875272
 20
-3.146957
  0
VERTEX
  8
PLAN_1
  6
CONTINUOUS
 10
1.875689
 20
-3.149870
  0
VERTEX
  8
PLAN_1
  6
CONTINUOUS
 10
1.876520
 20
-3.152370
  0
VERTEX
  8
PLAN_1
  6
CONTINUOUS
 10
1.877354
 20
-3.154453
  0
VERTEX
  8
PLAN_1
  6
CONTINUOUS
 10
1.878185
 20
-3.156531
  0
VERTEX
  8
PLAN_1
  6
CONTINUOUS
 10
1.879850
 20
-3.158614
  0
VERTEX
  8
PLAN_1
  6
CONTINUOUS
 10
1.881098
 20
-3.160280
  0
VERTEX
  8
PLAN_1
  6
CONTINUOUS
 10
1.882764
 20
-3.161945
  0
VERTEX
  8
PLAN_1
  6
CONTINUOUS
 10
1.886094
 20
-3.164445
  0
VERTEX
  8
PLAN_1
  6
CONTINUOUS
 10
1.890260
 20
-3.166524
  0
VERTEX
  8
PLAN_1
  6
CONTINUOUS
 10
1.894421
 20
-3.167776
  0
VERTEX
  8
PLAN_1
  6
CONTINUOUS
 10
1.899000
 20
-3.169024
  0
VERTEX
  8
PLAN_1
  6
CONTINUOUS
 10
1.955622
 20
-3.182346
  0
VERTEX
  8
PLAN_1
  6
CONTINUOUS
 10
1.960618
 20
-3.183594
  0
VERTEX
  8
PLAN_1
  6
CONTINUOUS
 10
1.965197
 20
-3.184843
  0
VERTEX
  8
PLAN_1
  6
CONTINUOUS
 10
1.969358
 20
-3.186508
  0
VERTEX
  8
PLAN_1
  6
CONTINUOUS
 10
1.973524
 20
-3.188591
  0
VERTEX
  8
PLAN_1
  6
CONTINUOUS
 10
1.977685
 20
-3.191087
  0
VERTEX
  8
PLAN_1
  6
CONTINUOUS
 10
1.981433
 20
-3.193587
  0
VERTEX
  8
PLAN_1
  6
CONTINUOUS
 10
1.984764
 20
-3.196083
  0
VERTEX
  8
PLAN_1
  6
CONTINUOUS
 10
1.988094
 20
-3.199413
  0
VERTEX
  8
PLAN_1
  6
CONTINUOUS
 10
1.991008
 20
-3.202744
  0
VERTEX
  8
PLAN_1
  6
CONTINUOUS
 10
1.993508
 20
-3.206492
  0
VERTEX
  8
PLAN_1
  6
CONTINUOUS
 10
1.995587
 20
-3.210240
  0
VERTEX
  8
PLAN_1
  6
CONTINUOUS
 10
1.997669
 20
-3.214819
  0
VERTEX
  8
PLAN_1
  6
CONTINUOUS
 10
1.998917
 20
-3.219398
  0
VERTEX
  8
PLAN_1
  6
CONTINUOUS
 10
2.000169
 20
-3.224394
  0
VERTEX
  8
PLAN_1
  6
CONTINUOUS
 10
2.000583
 20
-3.229807
  0
VERTEX
  8
PLAN_1
  6
CONTINUOUS
 10
2.001000
 20
-3.235634
  0
VERTEX
  8
PLAN_1
  6
CONTINUOUS
 10
2.001000
 20
-3.239799
  0
VERTEX
  8
PLAN_1
  6
CONTINUOUS
 10
2.000583
 20
-3.243961
  0
VERTEX
  8
PLAN_1
  6
CONTINUOUS
 10
1.999752
 20
-3.247709
  0
VERTEX
  8
PLAN_1
  6
CONTINUOUS
 10
1.998917
 20
-3.251453
  0
VERTEX
  8
PLAN_1
  6
CONTINUOUS
 10
1.998087
 20
-3.255201
  0
VERTEX
  8
PLAN_1
  6
CONTINUOUS
 10
1.996839
 20
-3.258531
  0
VERTEX
  8
PLAN_1
  6
CONTINUOUS
 10
1.995173
 20
-3.261862
  0
VERTEX
  8
PLAN_1
  6
CONTINUOUS
 10
1.993508
 20
-3.264776
  0
VERTEX
  8
PLAN_1
  6
CONTINUOUS
 10
1.991843
 20
-3.267693
  0
VERTEX
  8
PLAN_1
  6
CONTINUOUS
 10
1.989760
 20
-3.270189
  0
VERTEX
  8
PLAN_1
  6
CONTINUOUS
 10
1.987677
 20
-3.273102
  0
VERTEX
  8
PLAN_1
  6
CONTINUOUS
 10
1.985181
 20
-3.275185
  0
VERTEX
  8
PLAN_1
  6
CONTINUOUS
 10
1.980185
 20
-3.279764
  0
VERTEX
  8
PLAN_1
  6
CONTINUOUS
 10
1.974772
 20
-3.283512
  0
VERTEX
  8
PLAN_1
  6
CONTINUOUS
 10
1.968945
 20
-3.286425
  0
VERTEX
  8
PLAN_1
  6
CONTINUOUS
 10
1.962697
 20
-3.288925
  0
VERTEX
  8
PLAN_1
  6
CONTINUOUS
 10
1.956035
 20
-3.291421
  0
VERTEX
  8
PLAN_1
  6
CONTINUOUS
 10
1.949791
 20
-3.293087
  0
VERTEX
  8
PLAN_1
  6
CONTINUOUS
 10
1.942717
 20
-3.294335
  0
VERTEX
  8
PLAN_1
  6
CONTINUOUS
 10
1.936055
 20
-3.295169
  0
VERTEX
  8
PLAN_1
  6
CONTINUOUS
 10
1.929394
 20
-3.295583
  0
VERTEX
  8
PLAN_1
  6
CONTINUOUS
 10
1.923150
 20
-3.295583
  0
VERTEX
  8
PLAN_1
  6
CONTINUOUS
 10
1.916488
 20
-3.295583
  0
VERTEX
  8
PLAN_1
  6
CONTINUOUS
 10
1.910240
 20
-3.295169
  0
VERTEX
  8
PLAN_1
  6
CONTINUOUS
 10
1.904413
 20
-3.294752
  0
VERTEX
  8
PLAN_1
  6
CONTINUOUS
 10
1.899417
 20
-3.293917
  0
VERTEX
  8
PLAN_1
  6
CONTINUOUS
 10
1.894421
 20
-3.293087
  0
VERTEX
  8
PLAN_1
  6
CONTINUOUS
 10
1.890260
 20
-3.291839
  0
VERTEX
  8
PLAN_1
  6
CONTINUOUS
 10
1.886094
 20
-3.290591
  0
VERTEX
  8
PLAN_1
  6
CONTINUOUS
 10
1.882346
 20
-3.289339
  0
VERTEX
  8
PLAN_1
  6
CONTINUOUS
 10
1.876102
 20
-3.286008
  0
VERTEX
  8
PLAN_1
  6
CONTINUOUS
 10
1.870693
 20
-3.283094
  0
VERTEX
  8
PLAN_1
  6
CONTINUOUS
 10
1.866528
 20
-3.279764
  0
VERTEX
  8
PLAN_1
  6
CONTINUOUS
 10
1.862780
 20
-3.276433
  0
VERTEX
  8
PLAN_1
  6
CONTINUOUS
 10
1.859866
 20
-3.273520
  0
VERTEX
  8
PLAN_1
  6
CONTINUOUS
 10
1.856953
 20
-3.270606
  0
VERTEX
  8
PLAN_1
  6
CONTINUOUS
 10
1.854457
 20
-3.267693
  0
VERTEX
  8
PLAN_1
  6
CONTINUOUS
 10
1.852374
 20
-3.264776
  0
VERTEX
  8
PLAN_1
  6
CONTINUOUS
 10
1.850709
 20
-3.261862
  0
VERTEX
  8
PLAN_1
  6
CONTINUOUS
 10
1.849043
 20
-3.258949
  0
VERTEX
  8
PLAN_1
  6
CONTINUOUS
 10
1.847378
 20
-3.255618
  0
VERTEX
  8
PLAN_1
  6
CONTINUOUS
 10
1.846130
 20
-3.252705
  0
VERTEX
  8
PLAN_1
  6
CONTINUOUS
 10
1.844465
 20
-3.246043
  0
VERTEX
  8
PLAN_1
  6
CONTINUOUS
 10
1.843213
 20
-3.239799
  0
VERTEX
  8
PLAN_1
  6
CONTINUOUS
 10
1.842799
 20
-3.233138
  0
VERTEX
  8
PLAN_1
  6
CONTINUOUS
 10
1.842382
 20
-3.226059
  0
VERTEX
  8
PLAN_1
  6
CONTINUOUS
 10
1.867776
 20
-3.226059
  0
VERTEX
  8
PLAN_1
  6
CONTINUOUS
 10
1.868193
 20
-3.232720
  0
VERTEX
  8
PLAN_1
  6
CONTINUOUS
 10
1.869028
 20
-3.238547
  0
VERTEX
  8
PLAN_1
  6
CONTINUOUS
 10
1.870693
 20
-3.243961
  0
VERTEX
  8
PLAN_1
  6
CONTINUOUS
 10
1.872772
 20
-3.248539
  0
VERTEX
  8
PLAN_1
  6
CONTINUOUS
 10
1.875272
 20
-3.252705
  0
VERTEX
  8
PLAN_1
  6
CONTINUOUS
 10
1.878602
 20
-3.256866
  0
VERTEX
  8
PLAN_1
  6
CONTINUOUS
 10
1.881933
 20
-3.260197
  0
VERTEX
  8
PLAN_1
  6
CONTINUOUS
 10
1.885677
 20
-3.263110
  0
VERTEX
  8
PLAN_1
  6
CONTINUOUS
 10
1.889843
 20
-3.265193
  0
VERTEX
  8
PLAN_1
  6
CONTINUOUS
 10
1.894004
 20
-3.267276
  0
VERTEX
  8
PLAN_1
  6
CONTINUOUS
 10
1.898587
 20
-3.268941
  0
VERTEX
  8
PLAN_1
  6
CONTINUOUS
 10
1.903165
 20
-3.270606
  0
VERTEX
  8
PLAN_1
  6
CONTINUOUS
 10
1.908161
 20
-3.271437
  0
VERTEX
  8
PLAN_1
  6
CONTINUOUS
 10
1.913157
 20
-3.272272
  0
VERTEX
  8
PLAN_1
  6
CONTINUOUS
 10
1.917736
 20
-3.272685
  0
VERTEX
  8
PLAN_1
  6
CONTINUOUS
 10
1.922732
 20
-3.272685
  0
VERTEX
  8
PLAN_1
  6
CONTINUOUS
 10
1.930642
 20
-3.272272
  0
VERTEX
  8
PLAN_1
  6
CONTINUOUS
 10
1.938969
 20
-3.271437
  0
VERTEX
  8
PLAN_1
  6
CONTINUOUS
 10
1.943547
 20
-3.270606
  0
VERTEX
  8
PLAN_1
  6
CONTINUOUS
 10
1.947713
 20
-3.269772
  0
VERTEX
  8
PLAN_1
  6
CONTINUOUS
 10
1.951874
 20
-3.268106
  0
VERTEX
  8
PLAN_1
  6
CONTINUOUS
 10
1.956035
 20
-3.266441
  0
VERTEX
  8
PLAN_1
  6
CONTINUOUS
 10
1.959783
 20
-3.264776
  0
VERTEX
  8
PLAN_1
  6
CONTINUOUS
 10
1.963531
 20
-3.262280
  0
VERTEX
  8
PLAN_1
  6
CONTINUOUS
 10
1.966862
 20
-3.259366
  0
VERTEX
  8
PLAN_1
  6
CONTINUOUS
 10
1.969358
 20
-3.256449
  0
VERTEX
  8
PLAN_1
  6
CONTINUOUS
 10
1.971858
 20
-3.252705
  0
VERTEX
  8
PLAN_1
  6
CONTINUOUS
 10
1.973524
 20
-3.248957
  0
VERTEX
  8
PLAN_1
  6
CONTINUOUS
 10
1.974354
 20
-3.244378
  0
VERTEX
  8
PLAN_1
  6
CONTINUOUS
 10
1.974772
 20
-3.238965
  0
VERTEX
  8
PLAN_1
  6
CONTINUOUS
 10
1.974772
 20
-3.235217
  0
VERTEX
  8
PLAN_1
  6
CONTINUOUS
 10
1.974354
 20
-3.231886
  0
VERTEX
  8
PLAN_1
  6
CONTINUOUS
 10
1.973941
 20
-3.228972
  0
VERTEX
  8
PLAN_1
  6
CONTINUOUS
 10
1.972689
 20
-3.226059
  0
VERTEX
  8
PLAN_1
  6
CONTINUOUS
 10
1.971441
 20
-3.223146
  0
VERTEX
  8
PLAN_1
  6
CONTINUOUS
 10
1.970193
 20
-3.221063
  0
VERTEX
  8
PLAN_1
  6
CONTINUOUS
 10
1.968110
 20
-3.218567
  0
VERTEX
  8
PLAN_1
  6
CONTINUOUS
 10
1.966028
 20
-3.216484
  0
VERTEX
  8
PLAN_1
  6
CONTINUOUS
 10
1.963114
 20
-3.214819
  0
VERTEX
  8
PLAN_1
  6
CONTINUOUS
 10
1.960201
 20
-3.212736
  0
VERTEX
  8
PLAN_1
  6
CONTINUOUS
 10
1.956870
 20
-3.211488
  0
VERTEX
  8
PLAN_1
  6
CONTINUOUS
 10
1.952709
 20
-3.209823
  0
VERTEX
  8
PLAN_1
  6
CONTINUOUS
 10
1.943547
 20
-3.206909
  0
VERTEX
  8
PLAN_1
  6
CONTINUOUS
 10
1.932307
 20
-3.203992
  0
VERTEX
  8
PLAN_1
  6
CONTINUOUS
 10
1.891508
 20
-3.194417
  0
VERTEX
  8
PLAN_1
  6
CONTINUOUS
 10
1.886094
 20
-3.192752
  0
VERTEX
  8
PLAN_1
  6
CONTINUOUS
 10
1.879433
 20
-3.190673
  0
VERTEX
  8
PLAN_1
  6
CONTINUOUS
 10
1.876102
 20
-3.189008
  0
VERTEX
  8
PLAN_1
  6
CONTINUOUS
 10
1.872358
 20
-3.187343
  0
VERTEX
  8
PLAN_1
  6
CONTINUOUS
 10
1.869028
 20
-3.185260
  0
VERTEX
  8
PLAN_1
  6
CONTINUOUS
 10
1.865697
 20
-3.182760
  0
VERTEX
  8
PLAN_1
  6
CONTINUOUS
 10
1.862366
 20
-3.179846
  0
VERTEX
  8
PLAN_1
  6
CONTINUOUS
 10
1.859035
 20
-3.176933
  0
VERTEX
  8
PLAN_1
  6
CONTINUOUS
 10
1.856535
 20
-3.173185
  0
VERTEX
  8
PLAN_1
  6
CONTINUOUS
 10
1.854039
 20
-3.169024
  0
VERTEX
  8
PLAN_1
  6
CONTINUOUS
 10
1.851957
 20
-3.164445
  0
VERTEX
  8
PLAN_1
  6
CONTINUOUS
 10
1.850291
 20
-3.159449
  0
VERTEX
  8
PLAN_1
  6
CONTINUOUS
 10
1.849461
 20
-3.153618
  0
VERTEX
  8
PLAN_1
  6
CONTINUOUS
 10
1.849043
 20
-3.147374
  0
VERTEX
  8
PLAN_1
  6
CONTINUOUS
 10
1.849461
 20
-3.141547
  0
VERTEX
  8
PLAN_1
  6
CONTINUOUS
 10
1.850291
 20
-3.136134
  0
VERTEX
  8
PLAN_1
  6
CONTINUOUS
 10
1.851539
 20
-3.130303
  0
VERTEX
  8
PLAN_1
  6
CONTINUOUS
 10
1.853205
 20
-3.124894
  0
VERTEX
  8
PLAN_1
  6
CONTINUOUS
 10
1.855287
 20
-3.119480
  0
VERTEX
  8
PLAN_1
  6
CONTINUOUS
 10
1.858201
 20
-3.114484
  0
VERTEX
  8
PLAN_1
  6
CONTINUOUS
 10
1.861531
 20
-3.109488
  0
VERTEX
  8
PLAN_1
  6
CONTINUOUS
 10
1.865280
 20
-3.104909
  0
VERTEX
  8
PLAN_1
  6
CONTINUOUS
 10
1.869858
 20
-3.100748
  0
VERTEX
  8
PLAN_1
  6
CONTINUOUS
 10
1.874854
 20
-3.097000
  0
VERTEX
  8
PLAN_1
  6
CONTINUOUS
 10
1.880268
 20
-3.094087
  0
VERTEX
  8
PLAN_1
  6
CONTINUOUS
 10
1.886512
 20
-3.091169
  0
VERTEX
  8
PLAN_1
  6
CONTINUOUS
 10
1.893591
 20
-3.089091
  0
VERTEX
  8
PLAN_1
  6
CONTINUOUS
 10
1.901083
 20
-3.087425
  0
VERTEX
  8
PLAN_1
  6
CONTINUOUS
 10
1.908992
 20
-3.086173
  0
VERTEX
  8
PLAN_1
  6
CONTINUOUS
 10
1.917736
 20
-3.085760
  0
VERTEX
  8
PLAN_1
  6
CONTINUOUS
 10
1.923980
 20
-3.086173
  0
VERTEX
  8
PLAN_1
  6
CONTINUOUS
 10
1.930224
 20
-3.086173
  0
VERTEX
  8
PLAN_1
  6
CONTINUOUS
 10
1.935638
 20
-3.087008
  0
VERTEX
  8
PLAN_1
  6
CONTINUOUS
 10
1.941051
 20
-3.087839
  0
VERTEX
  8
PLAN_1
  6
CONTINUOUS
 10
1.946047
 20
-3.088673
  0
VERTEX
  8
PLAN_1
  6
CONTINUOUS
 10
1.950626
 20
-3.089921
  0
VERTEX
  8
PLAN_1
  6
CONTINUOUS
 10
1.955205
 20
-3.091169
  0
VERTEX
  8
PLAN_1
  6
CONTINUOUS
 10
1.958953
 20
-3.092835
  0
VERTEX
  8
PLAN_1
  6
CONTINUOUS
 10
1.962697
 20
-3.094500
  0
VERTEX
  8
PLAN_1
  6
CONTINUOUS
 10
1.966445
 20
-3.096165
  0
VERTEX
  8
PLAN_1
  6
CONTINUOUS
 10
1.969776
 20
-3.098248
  0
VERTEX
  8
PLAN_1
  6
CONTINUOUS
 10
1.972689
 20
-3.100331
  0
VERTEX
  8
PLAN_1
  6
CONTINUOUS
 10
1.975189
 20
-3.102409
  0
VERTEX
  8
PLAN_1
  6
CONTINUOUS
 10
1.978102
 20
-3.104492
  0
VERTEX
  8
PLAN_1
  6
CONTINUOUS
 10
1.980185
 20
-3.106992
  0
VERTEX
  8
PLAN_1
  6
CONTINUOUS
 10
1.982264
 20
-3.109488
  0
VERTEX
  8
PLAN_1
  6
CONTINUOUS
 10
1.986012
 20
-3.114484
  0
VERTEX
  8
PLAN_1
  6
CONTINUOUS
 10
1.988925
 20
-3.119898
  0
VERTEX
  8
PLAN_1
  6
CONTINUOUS
 10
1.991008
 20
-3.124894
  0
VERTEX
  8
PLAN_1
  6
CONTINUOUS
 10
1.992673
 20
-3.130303
  0
VERTEX
  8
PLAN_1
  6
CONTINUOUS
 10
1.993921
 20
-3.135299
  0
VERTEX
  8
PLAN_1
  6
CONTINUOUS
 10
1.994756
 20
-3.140295
  0
VERTEX
  8
PLAN_1
  6
CONTINUOUS
 10
1.995173
 20
-3.145291
  0
VERTEX
  8
PLAN_1
  6
CONTINUOUS
 10
1.995587
 20
-3.149457
  0
VERTEX
  8
PLAN_1
  6
CONTINUOUS
 10
1.970193
 20
-3.149457
  0
SEQEND
  8
0
  0
POLYLINE
  8
PLAN_1
 62
     5
  6
CONTINUOUS
 66
     1
 40
0.003000
 41
0.003000
  0
VERTEX
  8
PLAN_1
 62
     5
  6
CONTINUOUS
 10
-1.901181
 20
1.331413
  0
VERTEX
  8
PLAN_1
 62
     5
  6
CONTINUOUS
 10
-1.901181
 20
1.339740
  0
SEQEND
  8
0
  0
POLYLINE
  8
PLAN_1
 62
     5
  6
CONTINUOUS
 66
     1
 40
0.003000
 41
0.003000
  0
VERTEX
  8
PLAN_1
 62
     5
  6
CONTINUOUS
 10
-1.901181
 20
1.348067
  0
VERTEX
  8
PLAN_1
 62
     5
  6
CONTINUOUS
 10
-1.901181
 20
1.356390
  0
SEQEND
  8
0
  0
POLYLINE
  8
PLAN_1
 62
     5
  6
CONTINUOUS
 66
     1
 40
0.003000
 41
0.003000
  0
VERTEX
  8
PLAN_1
 62
     5
  6
CONTINUOUS
 10
-1.901181
 20
1.364717
  0
VERTEX
  8
PLAN_1
 62
     5
  6
CONTINUOUS
 10
-1.901181
 20
1.373043
  0
SEQEND
  8
0
  0
POLYLINE
  8
PLAN_1
 62
     5
  6
CONTINUOUS
 66
     1
 40
0.003000
 41
0.003000
  0
VERTEX
  8
PLAN_1
 62
     5
  6
CONTINUOUS
 10
-1.901181
 20
1.381370
  0
VERTEX
  8
PLAN_1
 62
     5
  6
CONTINUOUS
 10
-1.901181
 20
1.389697
  0
SEQEND
  8
0
  0
POLYLINE
  8
PLAN_1
 62
     5
  6
CONTINUOUS
 66
     1
 40
0.003000
 41
0.003000
  0
VERTEX
  8
PLAN_1
 62
     5
  6
CONTINUOUS
 10
-1.901181
 20
1.398024
  0
VERTEX
  8
PLAN_1
 62
     5
  6
CONTINUOUS
 10
-1.901181
 20
1.406350
  0
SEQEND
  8
0
  0
POLYLINE
  8
PLAN_1
 62
     5
  6
CONTINUOUS
 66
     1
 40
0.003000
 41
0.003000
  0
VERTEX
  8
PLAN_1
 62
     5
  6
CONTINUOUS
 10
-1.901181
 20
1.414677
  0
VERTEX
  8
PLAN_1
 62
     5
  6
CONTINUOUS
 10
-1.901181
 20
1.423004
  0
SEQEND
  8
0
  0
POLYLINE
  8
PLAN_1
 62
     5
  6
CONTINUOUS
 66
     1
 40
0.003000
 41
0.003000
  0
VERTEX
  8
PLAN_1
 62
     5
  6
CONTINUOUS
 10
-1.901181
 20
1.431331
  0
VERTEX
  8
PLAN_1
 62
     5
  6
CONTINUOUS
 10
-1.901181
 20
1.439657
  0
SEQEND
  8
0
  0
POLYLINE
  8
PLAN_1
 62
     5
  6
CONTINUOUS
 66
     1
 40
0.003000
 41
0.003000
  0
VERTEX
  8
PLAN_1
 62
     5
  6
CONTINUOUS
 10
-1.901181
 20
1.447980
  0
VERTEX
  8
PLAN_1
 62
     5
  6
CONTINUOUS
 10
-1.901181
 20
1.456307
  0
SEQEND
  8
0
  0
POLYLINE
  8
PLAN_1
 62
     5
  6
CONTINUOUS
 66
     1
 40
0.003000
 41
0.003000
  0
VERTEX
  8
PLAN_1
 62
     5
  6
CONTINUOUS
 10
-1.901181
 20
1.464634
  0
VERTEX
  8
PLAN_1
 62
     5
  6
CONTINUOUS
 10
-1.901181
 20
1.472961
  0
SEQEND
  8
0
  0
POLYLINE
  8
PLAN_1
 62
     5
  6
CONTINUOUS
 66
     1
 40
0.003000
 41
0.003000
  0
VERTEX
  8
PLAN_1
 62
     5
  6
CONTINUOUS
 10
-1.901181
 20
1.481287
  0
VERTEX
  8
PLAN_1
 62
     5
  6
CONTINUOUS
 10
-1.901181
 20
1.489614
  0
SEQEND
  8
0
  0
POLYLINE
  8
PLAN_1
 62
     5
  6
CONTINUOUS
 66
     1
 40
0.003000
 41
0.003000
  0
VERTEX
  8
PLAN_1
 62
     5
  6
CONTINUOUS
 10
-1.901181
 20
1.497941
  0
VERTEX
  8
PLAN_1
 62
     5
  6
CONTINUOUS
 10
-1.901181
 20
1.506268
  0
SEQEND
  8
0
  0
POLYLINE
  8
PLAN_1
 62
     5
  6
CONTINUOUS
 66
     1
 40
0.003000
 41
0.003000
  0
VERTEX
  8
PLAN_1
 62
     5
  6
CONTINUOUS
 10
-1.901181
 20
1.514594
  0
VERTEX
  8
PLAN_1
 62
     5
  6
CONTINUOUS
 10
-1.901181
 20
1.522921
  0
SEQEND
  8
0
  0
POLYLINE
  8
PLAN_1
 62
     5
  6
CONTINUOUS
 66
     1
 40
0.003000
 41
0.003000
  0
VERTEX
  8
PLAN_1
 62
     5
  6
CONTINUOUS
 10
-1.901181
 20
1.531248
  0
VERTEX
  8
PLAN_1
 62
     5
  6
CONTINUOUS
 10
-1.901181
 20
1.539575
  0
SEQEND
  8
0
  0
POLYLINE
  8
PLAN_1
 62
     5
  6
CONTINUOUS
 66
     1
 40
0.003000
 41
0.003000
  0
VERTEX
  8
PLAN_1
 62
     5
  6
CONTINUOUS
 10
-1.901181
 20
1.547898
  0
VERTEX
  8
PLAN_1
 62
     5
  6
CONTINUOUS
 10
-1.901181
 20
1.556224
  0
SEQEND
  8
0
  0
POLYLINE
  8
PLAN_1
 62
     5
  6
CONTINUOUS
 66
     1
 40
0.003000
 41
0.003000
  0
VERTEX
  8
PLAN_1
 62
     5
  6
CONTINUOUS
 10
-1.901181
 20
1.564551
  0
VERTEX
  8
PLAN_1
 62
     5
  6
CONTINUOUS
 10
-1.901181
 20
1.572878
  0
SEQEND
  8
0
  0
POLYLINE
  8
PLAN_1
 62
     5
  6
CONTINUOUS
 66
     1
 40
0.003000
 41
0.003000
  0
VERTEX
  8
PLAN_1
 62
     5
  6
CONTINUOUS
 10
-1.901181
 20
1.581205
  0
VERTEX
  8
PLAN_1
 62
     5
  6
CONTINUOUS
 10
-1.901181
 20
1.589531
  0
SEQEND
  8
0
  0
POLYLINE
  8
PLAN_1
 62
     5
  6
CONTINUOUS
 66
     1
 40
0.003000
 41
0.003000
  0
VERTEX
  8
PLAN_1
 62
     5
  6
CONTINUOUS
 10
-1.901181
 20
1.597858
  0
VERTEX
  8
PLAN_1
 62
     5
  6
CONTINUOUS
 10
-1.901181
 20
1.606185
  0
SEQEND
  8
0
  0
POLYLINE
  8
PLAN_1
 62
     5
  6
CONTINUOUS
 66
     1
 40
0.003000
 41
0.003000
  0
VERTEX
  8
PLAN_1
 62
     5
  6
CONTINUOUS
 10
-1.901181
 20
1.614512
  0
VERTEX
  8
PLAN_1
 62
     5
  6
CONTINUOUS
 10
-1.901181
 20
1.622839
  0
SEQEND
  8
0
  0
POLYLINE
  8
PLAN_1
 62
     5
  6
CONTINUOUS
 66
     1
 40
0.003000
 41
0.003000
  0
VERTEX
  8
PLAN_1
 62
     5
  6
CONTINUOUS
 10
-1.901181
 20
1.631165
  0
VERTEX
  8
PLAN_1
 62
     5
  6
CONTINUOUS
 10
-1.901181
 20
1.639488
  0
SEQEND
  8
0
  0
POLYLINE
  8
PLAN_1
 62
     5
  6
CONTINUOUS
 66
     1
 40
0.003000
 41
0.003000
  0
VERTEX
  8
PLAN_1
 62
     5
  6
CONTINUOUS
 10
-1.901181
 20
1.647815
  0
VERTEX
  8
PLAN_1
 62
     5
  6
CONTINUOUS
 10
-1.901181
 20
1.656142
  0
SEQEND
  8
0
  0
POLYLINE
  8
PLAN_1
 62
     5
  6
CONTINUOUS
 66
     1
 40
0.003000
 41
0.003000
  0
VERTEX
  8
PLAN_1
 62
     5
  6
CONTINUOUS
 10
-1.901181
 20
1.664469
  0
VERTEX
  8
PLAN_1
 62
     5
  6
CONTINUOUS
 10
-1.901181
 20
1.672795
  0
SEQEND
  8
0
  0
POLYLINE
  8
PLAN_1
 62
     5
  6
CONTINUOUS
 66
     1
 40
0.003000
 41
0.003000
  0
VERTEX
  8
PLAN_1
 62
     5
  6
CONTINUOUS
 10
-1.901181
 20
1.681122
  0
VERTEX
  8
PLAN_1
 62
     5
  6
CONTINUOUS
 10
-1.901181
 20
1.689449
  0
SEQEND
  8
0
  0
POLYLINE
  8
PLAN_1
 62
     5
  6
CONTINUOUS
 66
     1
 40
0.003000
 41
0.003000
  0
VERTEX
  8
PLAN_1
 62
     5
  6
CONTINUOUS
 10
-1.901181
 20
1.697776
  0
VERTEX
  8
PLAN_1
 62
     5
  6
CONTINUOUS
 10
-1.901181
 20
1.706102
  0
SEQEND
  8
0
  0
POLYLINE
  8
PLAN_1
 62
     5
  6
CONTINUOUS
 66
     1
 40
0.003000
 41
0.003000
  0
VERTEX
  8
PLAN_1
 62
     5
  6
CONTINUOUS
 10
-1.901181
 20
1.714429
  0
VERTEX
  8
PLAN_1
 62
     5
  6
CONTINUOUS
 10
-1.901181
 20
1.722756
  0
SEQEND
  8
0
  0
POLYLINE
  8
PLAN_1
 62
     5
  6
CONTINUOUS
 66
     1
 40
0.003000
 41
0.003000
  0
VERTEX
  8
PLAN_1
 62
     5
  6
CONTINUOUS
 10
-1.901181
 20
1.731083
  0
VERTEX
  8
PLAN_1
 62
     5
  6
CONTINUOUS
 10
-1.901181
 20
1.739406
  0
SEQEND
  8
0
  0
POLYLINE
  8
PLAN_1
 62
     5
  6
CONTINUOUS
 66
     1
 40
0.003000
 41
0.003000
  0
VERTEX
  8
PLAN_1
 62
     5
  6
CONTINUOUS
 10
-1.901181
 20
1.747732
  0
VERTEX
  8
PLAN_1
 62
     5
  6
CONTINUOUS
 10
-1.901181
 20
1.756059
  0
SEQEND
  8
0
  0
POLYLINE
  8
PLAN_1
 62
     5
  6
CONTINUOUS
 66
     1
 40
0.003000
 41
0.003000
  0
VERTEX
  8
PLAN_1
 62
     5
  6
CONTINUOUS
 10
-1.901181
 20
1.764386
  0
VERTEX
  8
PLAN_1
 62
     5
  6
CONTINUOUS
 10
-1.901181
 20
1.772713
  0
SEQEND
  8
0
  0
POLYLINE
  8
PLAN_1
 62
     5
  6
CONTINUOUS
 66
     1
 40
0.003000
 41
0.003000
  0
VERTEX
  8
PLAN_1
 62
     5
  6
CONTINUOUS
 10
-1.901181
 20
1.781039
  0
VERTEX
  8
PLAN_1
 62
     5
  6
CONTINUOUS
 10
-1.901181
 20
1.789366
  0
SEQEND
  8
0
  0
POLYLINE
  8
PLAN_1
 62
     5
  6
CONTINUOUS
 66
     1
 40
0.003000
 41
0.003000
  0
VERTEX
  8
PLAN_1
 62
     5
  6
CONTINUOUS
 10
-1.901181
 20
1.797693
  0
VERTEX
  8
PLAN_1
 62
     5
  6
CONTINUOUS
 10
-1.901181
 20
1.806020
  0
SEQEND
  8
0
  0
POLYLINE
  8
PLAN_1
 62
     5
  6
CONTINUOUS
 66
     1
 40
0.003000
 41
0.003000
  0
VERTEX
  8
PLAN_1
 62
     5
  6
CONTINUOUS
 10
-1.901181
 20
1.814346
  0
VERTEX
  8
PLAN_1
 62
     5
  6
CONTINUOUS
 10
-1.901181
 20
1.822673
  0
SEQEND
  8
0
  0
POLYLINE
  8
PLAN_1
 62
     5
  6
CONTINUOUS
 66
     1
 40
0.003000
 41
0.003000
  0
VERTEX
  8
PLAN_1
 62
     5
  6
CONTINUOUS
 10
-1.901181
 20
1.830996
  0
VERTEX
  8
PLAN_1
 62
     5
  6
CONTINUOUS
 10
-1.901181
 20
1.839323
  0
SEQEND
  8
0
  0
POLYLINE
  8
PLAN_1
 62
     5
  6
CONTINUOUS
 66
     1
 40
0.003000
 41
0.003000
  0
VERTEX
  8
PLAN_1
 62
     5
  6
CONTINUOUS
 10
-1.901181
 20
1.847650
  0
VERTEX
  8
PLAN_1
 62
     5
  6
CONTINUOUS
 10
-1.901181
 20
1.855976
  0
SEQEND
  8
0
  0
POLYLINE
  8
PLAN_1
 62
     5
  6
CONTINUOUS
 66
     1
 40
0.003000
 41
0.003000
  0
VERTEX
  8
PLAN_1
 62
     5
  6
CONTINUOUS
 10
-1.901181
 20
1.864303
  0
VERTEX
  8
PLAN_1
 62
     5
  6
CONTINUOUS
 10
-1.901181
 20
1.872630
  0
SEQEND
  8
0
  0
POLYLINE
  8
PLAN_1
 62
     5
  6
CONTINUOUS
 66
     1
 40
0.003000
 41
0.003000
  0
VERTEX
  8
PLAN_1
 62
     5
  6
CONTINUOUS
 10
-1.901181
 20
1.880957
  0
VERTEX
  8
PLAN_1
 62
     5
  6
CONTINUOUS
 10
-1.901181
 20
1.889283
  0
SEQEND
  8
0
  0
POLYLINE
  8
PLAN_1
 62
     5
  6
CONTINUOUS
 66
     1
 40
0.003000
 41
0.003000
  0
VERTEX
  8
PLAN_1
 62
     5
  6
CONTINUOUS
 10
-1.901181
 20
1.897610
  0
VERTEX
  8
PLAN_1
 62
     5
  6
CONTINUOUS
 10
-1.901181
 20
1.905937
  0
SEQEND
  8
0
  0
POLYLINE
  8
PLAN_1
 62
     5
  6
CONTINUOUS
 66
     1
 40
0.003000
 41
0.003000
  0
VERTEX
  8
PLAN_1
 62
     5
  6
CONTINUOUS
 10
-1.901181
 20
1.914264
  0
VERTEX
  8
PLAN_1
 62
     5
  6
CONTINUOUS
 10
-1.901181
 20
1.922591
  0
SEQEND
  8
0
  0
POLYLINE
  8
PLAN_1
 62
     5
  6
CONTINUOUS
 66
     1
 40
0.003000
 41
0.003000
  0
VERTEX
  8
PLAN_1
 62
     5
  6
CONTINUOUS
 10
-1.901181
 20
1.930913
  0
VERTEX
  8
PLAN_1
 62
     5
  6
CONTINUOUS
 10
-1.901181
 20
1.939240
  0
SEQEND
  8
0
  0
POLYLINE
  8
PLAN_1
 62
     5
  6
CONTINUOUS
 66
     1
 40
0.003000
 41
0.003000
  0
VERTEX
  8
PLAN_1
 62
     5
  6
CONTINUOUS
 10
-1.901181
 20
1.947567
  0
VERTEX
  8
PLAN_1
 62
     5
  6
CONTINUOUS
 10
-1.901181
 20
1.955894
  0
SEQEND
  8
0
  0
POLYLINE
  8
PLAN_1
 62
     5
  6
CONTINUOUS
 66
     1
 40
0.003000
 41
0.003000
  0
VERTEX
  8
PLAN_1
 62
     5
  6
CONTINUOUS
 10
-1.901181
 20
1.964220
  0
VERTEX
  8
PLAN_1
 62
     5
  6
CONTINUOUS
 10
-1.901181
 20
1.972547
  0
SEQEND
  8
0
  0
POLYLINE
  8
PLAN_1
 62
     5
  6
CONTINUOUS
 66
     1
 40
0.003000
 41
0.003000
  0
VERTEX
  8
PLAN_1
 62
     5
  6
CONTINUOUS
 10
-1.901181
 20
1.980874
  0
VERTEX
  8
PLAN_1
 62
     5
  6
CONTINUOUS
 10
-1.901181
 20
1.989201
  0
SEQEND
  8
0
  0
POLYLINE
  8
PLAN_1
 62
     5
  6
CONTINUOUS
 66
     1
 40
0.003000
 41
0.003000
  0
VERTEX
  8
PLAN_1
 62
     5
  6
CONTINUOUS
 10
-1.901181
 20
1.997528
  0
VERTEX
  8
PLAN_1
 62
     5
  6
CONTINUOUS
 10
-1.901181
 20
2.005854
  0
SEQEND
  8
0
  0
POLYLINE
  8
PLAN_1
 62
     5
  6
CONTINUOUS
 66
     1
 40
0.003000
 41
0.003000
  0
VERTEX
  8
PLAN_1
 62
     5
  6
CONTINUOUS
 10
-1.901181
 20
2.014181
  0
VERTEX
  8
PLAN_1
 62
     5
  6
CONTINUOUS
 10
-1.901181
 20
2.022504
  0
SEQEND
  8
0
  0
POLYLINE
  8
PLAN_1
 62
     5
  6
CONTINUOUS
 66
     1
 40
0.003000
 41
0.003000
  0
VERTEX
  8
PLAN_1
 62
     5
  6
CONTINUOUS
 10
-1.901181
 20
2.030831
  0
VERTEX
  8
PLAN_1
 62
     5
  6
CONTINUOUS
 10
-1.901181
 20
2.039157
  0
SEQEND
  8
0
  0
POLYLINE
  8
PLAN_1
 62
     5
  6
CONTINUOUS
 66
     1
 40
0.003000
 41
0.003000
  0
VERTEX
  8
PLAN_1
 62
     5
  6
CONTINUOUS
 10
-1.901181
 20
2.047484
  0
VERTEX
  8
PLAN_1
 62
     5
  6
CONTINUOUS
 10
-1.901181
 20
2.055811
  0
SEQEND
  8
0
  0
POLYLINE
  8
PLAN_1
 62
     5
  6
CONTINUOUS
 66
     1
 40
0.003000
 41
0.003000
  0
VERTEX
  8
PLAN_1
 62
     5
  6
CONTINUOUS
 10
-1.901181
 20
2.064138
  0
VERTEX
  8
PLAN_1
 62
     5
  6
CONTINUOUS
 10
-1.901181
 20
2.072465
  0
SEQEND
  8
0
  0
POLYLINE
  8
PLAN_1
 62
     5
  6
CONTINUOUS
 66
     1
 40
0.003000
 41
0.003000
  0
VERTEX
  8
PLAN_1
 62
     5
  6
CONTINUOUS
 10
-1.901181
 20
2.074130
  0
VERTEX
  8
PLAN_1
 62
     5
  6
CONTINUOUS
 10
-1.901181
 20
2.078291
  0
VERTEX
  8
PLAN_1
 62
     5
  6
CONTINUOUS
 10
-1.901181
 20
2.082457
  0
SEQEND
  8
0
  0
POLYLINE
  8
PLAN_1
 62
     5
  6
CONTINUOUS
 66
     1
 40
0.003000
 41
0.003000
  0
VERTEX
  8
PLAN_1
 62
     5
  6
CONTINUOUS
 10
-1.899098
 20
2.090366
  0
VERTEX
  8
PLAN_1
 62
     5
  6
CONTINUOUS
 10
-1.897850
 20
2.093280
  0
VERTEX
  8
PLAN_1
 62
     5
  6
CONTINUOUS
 10
-1.896185
 20
2.096610
  0
VERTEX
  8
PLAN_1
 62
     5
  6
CONTINUOUS
 10
-1.895354
 20
2.097858
  0
SEQEND
  8
0
  0
POLYLINE
  8
PLAN_1
 62
     5
  6
CONTINUOUS
 66
     1
 40
0.003000
 41
0.003000
  0
VERTEX
  8
PLAN_1
 62
     5
  6
CONTINUOUS
 10
-1.889941
 20
2.104106
  0
VERTEX
  8
PLAN_1
 62
     5
  6
CONTINUOUS
 10
-1.889106
 20
2.105354
  0
VERTEX
  8
PLAN_1
 62
     5
  6
CONTINUOUS
 10
-1.885776
 20
2.107437
  0
VERTEX
  8
PLAN_1
 62
     5
  6
CONTINUOUS
 10
-1.883280
 20
2.109102
  0
SEQEND
  8
0
  0
POLYLINE
  8
PLAN_1
 62
     5
  6
CONTINUOUS
 66
     1
 40
0.003000
 41
0.003000
  0
VERTEX
  8
PLAN_1
 62
     5
  6
CONTINUOUS
 10
-1.875783
 20
2.112433
  0
VERTEX
  8
PLAN_1
 62
     5
  6
CONTINUOUS
 10
-1.872039
 20
2.113264
  0
VERTEX
  8
PLAN_1
 62
     5
  6
CONTINUOUS
 10
-1.867874
 20
2.114098
  0
VERTEX
  8
PLAN_1
 62
     5
  6
CONTINUOUS
 10
-1.867461
 20
2.114098
  0
SEQEND
  8
0
  0
POLYLINE
  8
PLAN_1
 62
     5
  6
CONTINUOUS
 66
     1
 40
0.003000
 41
0.003000
  0
VERTEX
  8
PLAN_1
 62
     5
  6
CONTINUOUS
 10
-1.863713
 20
2.114098
  0
VERTEX
  8
PLAN_1
 62
     5
  6
CONTINUOUS
 10
-1.855386
 20
2.114098
  0
SEQEND
  8
0
  0
POLYLINE
  8
PLAN_1
 62
     5
  6
CONTINUOUS
 66
     1
 40
0.003000
 41
0.003000
  0
VERTEX
  8
PLAN_1
 62
     5
  6
CONTINUOUS
 10
-1.847059
 20
2.114098
  0
VERTEX
  8
PLAN_1
 62
     5
  6
CONTINUOUS
 10
-1.838732
 20
2.114098
  0
SEQEND
  8
0
  0
POLYLINE
  8
PLAN_1
 62
     5
  6
CONTINUOUS
 66
     1
 40
0.003000
 41
0.003000
  0
VERTEX
  8
PLAN_1
 62
     5
  6
CONTINUOUS
 10
-1.830406
 20
2.114098
  0
VERTEX
  8
PLAN_1
 62
     5
  6
CONTINUOUS
 10
-1.822079
 20
2.114098
  0
SEQEND
  8
0
  0
POLYLINE
  8
PLAN_1
 62
     5
  6
CONTINUOUS
 66
     1
 40
0.003000
 41
0.003000
  0
VERTEX
  8
PLAN_1
 62
     5
  6
CONTINUOUS
 10
-1.813752
 20
2.114098
  0
VERTEX
  8
PLAN_1
 62
     5
  6
CONTINUOUS
 10
-1.805425
 20
2.114098
  0
SEQEND
  8
0
  0
POLYLINE
  8
PLAN_1
 62
     5
  6
CONTINUOUS
 66
     1
 40
0.003000
 41
0.003000
  0
VERTEX
  8
PLAN_1
 62
     5
  6
CONTINUOUS
 10
-1.797102
 20
2.114098
  0
VERTEX
  8
PLAN_1
 62
     5
  6
CONTINUOUS
 10
-1.788776
 20
2.114098
  0
SEQEND
  8
0
  0
POLYLINE
  8
PLAN_1
 62
     5
  6
CONTINUOUS
 66
     1
 40
0.003000
 41
0.003000
  0
VERTEX
  8
PLAN_1
 62
     5
  6
CONTINUOUS
 10
-1.780449
 20
2.114098
  0
VERTEX
  8
PLAN_1
 62
     5
  6
CONTINUOUS
 10
-1.772122
 20
2.114098
  0
SEQEND
  8
0
  0
POLYLINE
  8
PLAN_1
 62
     5
  6
CONTINUOUS
 66
     1
 40
0.003000
 41
0.003000
  0
VERTEX
  8
PLAN_1
 62
     5
  6
CONTINUOUS
 10
-1.763795
 20
2.114098
  0
VERTEX
  8
PLAN_1
 62
     5
  6
CONTINUOUS
 10
-1.755469
 20
2.114098
  0
SEQEND
  8
0
  0
POLYLINE
  8
PLAN_1
 62
     5
  6
CONTINUOUS
 66
     1
 40
0.003000
 41
0.003000
  0
VERTEX
  8
PLAN_1
 62
     5
  6
CONTINUOUS
 10
-1.747142
 20
2.114098
  0
VERTEX
  8
PLAN_1
 62
     5
  6
CONTINUOUS
 10
-1.738815
 20
2.114098
  0
SEQEND
  8
0
  0
POLYLINE
  8
PLAN_1
 62
     5
  6
CONTINUOUS
 66
     1
 40
0.003000
 41
0.003000
  0
VERTEX
  8
PLAN_1
 62
     5
  6
CONTINUOUS
 10
-1.730488
 20
2.114098
  0
VERTEX
  8
PLAN_1
 62
     5
  6
CONTINUOUS
 10
-1.722161
 20
2.114098
  0
SEQEND
  8
0
  0
POLYLINE
  8
PLAN_1
 62
     5
  6
CONTINUOUS
 66
     1
 40
0.003000
 41
0.003000
  0
VERTEX
  8
PLAN_1
 62
     5
  6
CONTINUOUS
 10
-1.713835
 20
2.114098
  0
VERTEX
  8
PLAN_1
 62
     5
  6
CONTINUOUS
 10
-1.705512
 20
2.114098
  0
SEQEND
  8
0
  0
POLYLINE
  8
PLAN_1
 62
     5
  6
CONTINUOUS
 66
     1
 40
0.003000
 41
0.003000
  0
VERTEX
  8
PLAN_1
 62
     5
  6
CONTINUOUS
 10
-1.697185
 20
2.114098
  0
VERTEX
  8
PLAN_1
 62
     5
  6
CONTINUOUS
 10
-1.688858
 20
2.114098
  0
SEQEND
  8
0
  0
POLYLINE
  8
PLAN_1
 62
     5
  6
CONTINUOUS
 66
     1
 40
0.003000
 41
0.003000
  0
VERTEX
  8
PLAN_1
 62
     5
  6
CONTINUOUS
 10
-1.680531
 20
2.114098
  0
VERTEX
  8
PLAN_1
 62
     5
  6
CONTINUOUS
 10
-1.672205
 20
2.114098
  0
SEQEND
  8
0
  0
POLYLINE
  8
PLAN_1
 62
     5
  6
CONTINUOUS
 66
     1
 40
0.003000
 41
0.003000
  0
VERTEX
  8
PLAN_1
 62
     5
  6
CONTINUOUS
 10
-1.663878
 20
2.114098
  0
VERTEX
  8
PLAN_1
 62
     5
  6
CONTINUOUS
 10
-1.655551
 20
2.114098
  0
SEQEND
  8
0
  0
POLYLINE
  8
PLAN_1
 62
     5
  6
CONTINUOUS
 66
     1
 40
0.003000
 41
0.003000
  0
VERTEX
  8
PLAN_1
 62
     5
  6
CONTINUOUS
 10
-1.647224
 20
2.114098
  0
VERTEX
  8
PLAN_1
 62
     5
  6
CONTINUOUS
 10
-1.638898
 20
2.114098
  0
SEQEND
  8
0
  0
POLYLINE
  8
PLAN_1
 62
     5
  6
CONTINUOUS
 66
     1
 40
0.003000
 41
0.003000
  0
VERTEX
  8
PLAN_1
 62
     5
  6
CONTINUOUS
 10
-1.630571
 20
2.114098
  0
VERTEX
  8
PLAN_1
 62
     5
  6
CONTINUOUS
 10
-1.622244
 20
2.114098
  0
SEQEND
  8
0
  0
POLYLINE
  8
PLAN_1
 62
     5
  6
CONTINUOUS
 66
     1
 40
0.003000
 41
0.003000
  0
VERTEX
  8
PLAN_1
 62
     5
  6
CONTINUOUS
 10
-1.613917
 20
2.114098
  0
VERTEX
  8
PLAN_1
 62
     5
  6
CONTINUOUS
 10
-1.605594
 20
2.114098
  0
SEQEND
  8
0
  0
POLYLINE
  8
PLAN_1
 62
     5
  6
CONTINUOUS
 66
     1
 40
0.003000
 41
0.003000
  0
VERTEX
  8
PLAN_1
 62
     5
  6
CONTINUOUS
 10
-1.597268
 20
2.114098
  0
VERTEX
  8
PLAN_1
 62
     5
  6
CONTINUOUS
 10
-1.588941
 20
2.114098
  0
SEQEND
  8
0
  0
POLYLINE
  8
PLAN_1
 62
     5
  6
CONTINUOUS
 66
     1
 40
0.003000
 41
0.003000
  0
VERTEX
  8
PLAN_1
 62
     5
  6
CONTINUOUS
 10
-1.580614
 20
2.114098
  0
VERTEX
  8
PLAN_1
 62
     5
  6
CONTINUOUS
 10
-1.572287
 20
2.114098
  0
SEQEND
  8
0
  0
POLYLINE
  8
PLAN_1
 62
     5
  6
CONTINUOUS
 66
     1
 40
0.003000
 41
0.003000
  0
VERTEX
  8
PLAN_1
 62
     5
  6
CONTINUOUS
 10
-1.563961
 20
2.114098
  0
VERTEX
  8
PLAN_1
 62
     5
  6
CONTINUOUS
 10
-1.555634
 20
2.114098
  0
SEQEND
  8
0
  0
POLYLINE
  8
PLAN_1
 62
     5
  6
CONTINUOUS
 66
     1
 40
0.003000
 41
0.003000
  0
VERTEX
  8
PLAN_1
 62
     5
  6
CONTINUOUS
 10
-1.547307
 20
2.114098
  0
VERTEX
  8
PLAN_1
 62
     5
  6
CONTINUOUS
 10
-1.538980
 20
2.114098
  0
SEQEND
  8
0
  0
POLYLINE
  8
PLAN_1
 62
     5
  6
CONTINUOUS
 66
     1
 40
0.003000
 41
0.003000
  0
VERTEX
  8
PLAN_1
 62
     5
  6
CONTINUOUS
 10
-1.530654
 20
2.114098
  0
VERTEX
  8
PLAN_1
 62
     5
  6
CONTINUOUS
 10
-1.522327
 20
2.114098
  0
SEQEND
  8
0
  0
POLYLINE
  8
PLAN_1
 62
     5
  6
CONTINUOUS
 66
     1
 40
0.003000
 41
0.003000
  0
VERTEX
  8
PLAN_1
 62
     5
  6
CONTINUOUS
 10
-1.514004
 20
2.114098
  0
VERTEX
  8
PLAN_1
 62
     5
  6
CONTINUOUS
 10
-1.505677
 20
2.114098
  0
SEQEND
  8
0
  0
POLYLINE
  8
PLAN_1
 62
     5
  6
CONTINUOUS
 66
     1
 40
0.003000
 41
0.003000
  0
VERTEX
  8
PLAN_1
 62
     5
  6
CONTINUOUS
 10
-1.497350
 20
2.114098
  0
VERTEX
  8
PLAN_1
 62
     5
  6
CONTINUOUS
 10
-1.489024
 20
2.114098
  0
SEQEND
  8
0
  0
POLYLINE
  8
PLAN_1
 62
     5
  6
CONTINUOUS
 66
     1
 40
0.003000
 41
0.003000
  0
VERTEX
  8
PLAN_1
 62
     5
  6
CONTINUOUS
 10
-1.480697
 20
2.114098
  0
VERTEX
  8
PLAN_1
 62
     5
  6
CONTINUOUS
 10
-1.472370
 20
2.114098
  0
SEQEND
  8
0
  0
POLYLINE
  8
PLAN_1
 62
     5
  6
CONTINUOUS
 66
     1
 40
0.003000
 41
0.003000
  0
VERTEX
  8
PLAN_1
 62
     5
  6
CONTINUOUS
 10
-1.464043
 20
2.114098
  0
VERTEX
  8
PLAN_1
 62
     5
  6
CONTINUOUS
 10
-1.455717
 20
2.114098
  0
SEQEND
  8
0
  0
POLYLINE
  8
PLAN_1
 62
     5
  6
CONTINUOUS
 66
     1
 40
0.003000
 41
0.003000
  0
VERTEX
  8
PLAN_1
 62
     5
  6
CONTINUOUS
 10
-1.447390
 20
2.114098
  0
VERTEX
  8
PLAN_1
 62
     5
  6
CONTINUOUS
 10
-1.439063
 20
2.114098
  0
SEQEND
  8
0
  0
POLYLINE
  8
PLAN_1
 62
     5
  6
CONTINUOUS
 66
     1
 40
0.003000
 41
0.003000
  0
VERTEX
  8
PLAN_1
 62
     5
  6
CONTINUOUS
 10
-1.430736
 20
2.114098
  0
VERTEX
  8
PLAN_1
 62
     5
  6
CONTINUOUS
 10
-1.422409
 20
2.114098
  0
SEQEND
  8
0
  0
POLYLINE
  8
PLAN_1
 62
     5
  6
CONTINUOUS
 66
     1
 40
0.003000
 41
0.003000
  0
VERTEX
  8
PLAN_1
 62
     5
  6
CONTINUOUS
 10
-1.414087
 20
2.114098
  0
VERTEX
  8
PLAN_1
 62
     5
  6
CONTINUOUS
 10
-1.405760
 20
2.114098
  0
SEQEND
  8
0
  0
POLYLINE
  8
PLAN_1
 62
     5
  6
CONTINUOUS
 66
     1
 40
0.003000
 41
0.003000
  0
VERTEX
  8
PLAN_1
 62
     5
  6
CONTINUOUS
 10
-1.397433
 20
2.114098
  0
VERTEX
  8
PLAN_1
 62
     5
  6
CONTINUOUS
 10
-1.389106
 20
2.114098
  0
SEQEND
  8
0
  0
POLYLINE
  8
PLAN_1
 62
     5
  6
CONTINUOUS
 66
     1
 40
0.003000
 41
0.003000
  0
VERTEX
  8
PLAN_1
 62
     5
  6
CONTINUOUS
 10
-1.380780
 20
2.114098
  0
VERTEX
  8
PLAN_1
 62
     5
  6
CONTINUOUS
 10
-1.372453
 20
2.114098
  0
SEQEND
  8
0
  0
POLYLINE
  8
PLAN_1
 62
     5
  6
CONTINUOUS
 66
     1
 40
0.003000
 41
0.003000
  0
VERTEX
  8
PLAN_1
 62
     5
  6
CONTINUOUS
 10
-1.364126
 20
2.114098
  0
VERTEX
  8
PLAN_1
 62
     5
  6
CONTINUOUS
 10
-1.355799
 20
2.114098
  0
SEQEND
  8
0
  0
POLYLINE
  8
PLAN_1
 62
     5
  6
CONTINUOUS
 66
     1
 40
0.003000
 41
0.003000
  0
VERTEX
  8
PLAN_1
 62
     5
  6
CONTINUOUS
 10
-1.347472
 20
2.114098
  0
VERTEX
  8
PLAN_1
 62
     5
  6
CONTINUOUS
 10
-1.339146
 20
2.114098
  0
SEQEND
  8
0
  0
POLYLINE
  8
PLAN_1
 62
     5
  6
CONTINUOUS
 66
     1
 40
0.003000
 41
0.003000
  0
VERTEX
  8
PLAN_1
 62
     5
  6
CONTINUOUS
 10
-1.330819
 20
2.114098
  0
VERTEX
  8
PLAN_1
 62
     5
  6
CONTINUOUS
 10
-1.322496
 20
2.114098
  0
SEQEND
  8
0
  0
POLYLINE
  8
PLAN_1
 62
     5
  6
CONTINUOUS
 66
     1
 40
0.003000
 41
0.003000
  0
VERTEX
  8
PLAN_1
 62
     5
  6
CONTINUOUS
 10
-1.314169
 20
2.114098
  0
VERTEX
  8
PLAN_1
 62
     5
  6
CONTINUOUS
 10
-1.305843
 20
2.114098
  0
SEQEND
  8
0
  0
POLYLINE
  8
PLAN_1
 62
     5
  6
CONTINUOUS
 66
     1
 40
0.003000
 41
0.003000
  0
VERTEX
  8
PLAN_1
 62
     5
  6
CONTINUOUS
 10
-1.297516
 20
2.114098
  0
VERTEX
  8
PLAN_1
 62
     5
  6
CONTINUOUS
 10
-1.289189
 20
2.114098
  0
SEQEND
  8
0
  0
POLYLINE
  8
PLAN_1
 62
     5
  6
CONTINUOUS
 66
     1
 40
0.003000
 41
0.003000
  0
VERTEX
  8
PLAN_1
 62
     5
  6
CONTINUOUS
 10
-1.280862
 20
2.114098
  0
VERTEX
  8
PLAN_1
 62
     5
  6
CONTINUOUS
 10
-1.272535
 20
2.114098
  0
SEQEND
  8
0
  0
POLYLINE
  8
PLAN_1
 62
     5
  6
CONTINUOUS
 66
     1
 40
0.003000
 41
0.003000
  0
VERTEX
  8
PLAN_1
 62
     5
  6
CONTINUOUS
 10
-1.264209
 20
2.114098
  0
VERTEX
  8
PLAN_1
 62
     5
  6
CONTINUOUS
 10
-1.255882
 20
2.114098
  0
SEQEND
  8
0
  0
POLYLINE
  8
PLAN_1
 62
     5
  6
CONTINUOUS
 66
     1
 40
0.003000
 41
0.003000
  0
VERTEX
  8
PLAN_1
 62
     5
  6
CONTINUOUS
 10
-1.247555
 20
2.114098
  0
VERTEX
  8
PLAN_1
 62
     5
  6
CONTINUOUS
 10
-1.239228
 20
2.114098
  0
SEQEND
  8
0
  0
POLYLINE
  8
PLAN_1
 62
     5
  6
CONTINUOUS
 66
     1
 40
0.003000
 41
0.003000
  0
VERTEX
  8
PLAN_1
 62
     5
  6
CONTINUOUS
 10
-1.230902
 20
2.114098
  0
VERTEX
  8
PLAN_1
 62
     5
  6
CONTINUOUS
 10
-1.222579
 20
2.114098
  0
SEQEND
  8
0
  0
POLYLINE
  8
PLAN_1
 62
     5
  6
CONTINUOUS
 66
     1
 40
0.003000
 41
0.003000
  0
VERTEX
  8
PLAN_1
 62
     5
  6
CONTINUOUS
 10
-1.214252
 20
2.114098
  0
VERTEX
  8
PLAN_1
 62
     5
  6
CONTINUOUS
 10
-1.205925
 20
2.114098
  0
SEQEND
  8
0
  0
POLYLINE
  8
PLAN_1
 62
     5
  6
CONTINUOUS
 66
     1
 40
0.003000
 41
0.003000
  0
VERTEX
  8
PLAN_1
 62
     5
  6
CONTINUOUS
 10
-1.197598
 20
2.114098
  0
VERTEX
  8
PLAN_1
 62
     5
  6
CONTINUOUS
 10
-1.189272
 20
2.114098
  0
SEQEND
  8
0
  0
POLYLINE
  8
PLAN_1
 62
     5
  6
CONTINUOUS
 66
     1
 40
0.003000
 41
0.003000
  0
VERTEX
  8
PLAN_1
 62
     5
  6
CONTINUOUS
 10
-1.180945
 20
2.114098
  0
VERTEX
  8
PLAN_1
 62
     5
  6
CONTINUOUS
 10
-1.172618
 20
2.114098
  0
SEQEND
  8
0
  0
POLYLINE
  8
PLAN_1
 62
     5
  6
CONTINUOUS
 66
     1
 40
0.003000
 41
0.003000
  0
VERTEX
  8
PLAN_1
 62
     5
  6
CONTINUOUS
 10
-1.164291
 20
2.114098
  0
VERTEX
  8
PLAN_1
 62
     5
  6
CONTINUOUS
 10
-1.155965
 20
2.114098
  0
SEQEND
  8
0
  0
POLYLINE
  8
PLAN_1
 62
     5
  6
CONTINUOUS
 66
     1
 40
0.003000
 41
0.003000
  0
VERTEX
  8
PLAN_1
 62
     5
  6
CONTINUOUS
 10
-1.147638
 20
2.114098
  0
VERTEX
  8
PLAN_1
 62
     5
  6
CONTINUOUS
 10
-1.139311
 20
2.114098
  0
SEQEND
  8
0
  0
POLYLINE
  8
PLAN_1
 62
     5
  6
CONTINUOUS
 66
     1
 40
0.003000
 41
0.003000
  0
VERTEX
  8
PLAN_1
 62
     5
  6
CONTINUOUS
 10
-1.130988
 20
2.114098
  0
VERTEX
  8
PLAN_1
 62
     5
  6
CONTINUOUS
 10
-1.122661
 20
2.114098
  0
SEQEND
  8
0
  0
POLYLINE
  8
PLAN_1
 62
     5
  6
CONTINUOUS
 66
     1
 40
0.003000
 41
0.003000
  0
VERTEX
  8
PLAN_1
 62
     5
  6
CONTINUOUS
 10
-1.114335
 20
2.114098
  0
VERTEX
  8
PLAN_1
 62
     5
  6
CONTINUOUS
 10
-1.106008
 20
2.114098
  0
SEQEND
  8
0
  0
POLYLINE
  8
PLAN_1
 62
     5
  6
CONTINUOUS
 66
     1
 40
0.003000
 41
0.003000
  0
VERTEX
  8
PLAN_1
 62
     5
  6
CONTINUOUS
 10
-1.097681
 20
2.114098
  0
VERTEX
  8
PLAN_1
 62
     5
  6
CONTINUOUS
 10
-1.089354
 20
2.114098
  0
SEQEND
  8
0
  0
POLYLINE
  8
PLAN_1
 62
     5
  6
CONTINUOUS
 66
     1
 40
0.003000
 41
0.003000
  0
VERTEX
  8
PLAN_1
 62
     5
  6
CONTINUOUS
 10
-1.081028
 20
2.114098
  0
VERTEX
  8
PLAN_1
 62
     5
  6
CONTINUOUS
 10
-1.072701
 20
2.114098
  0
SEQEND
  8
0
  0
POLYLINE
  8
PLAN_1
 62
     5
  6
CONTINUOUS
 66
     1
 40
0.003000
 41
0.003000
  0
VERTEX
  8
PLAN_1
 62
     5
  6
CONTINUOUS
 10
-1.064374
 20
2.114098
  0
VERTEX
  8
PLAN_1
 62
     5
  6
CONTINUOUS
 10
-1.056047
 20
2.114098
  0
SEQEND
  8
0
  0
POLYLINE
  8
PLAN_1
 62
     5
  6
CONTINUOUS
 66
     1
 40
0.003000
 41
0.003000
  0
VERTEX
  8
PLAN_1
 62
     5
  6
CONTINUOUS
 10
-1.047720
 20
2.114098
  0
VERTEX
  8
PLAN_1
 62
     5
  6
CONTINUOUS
 10
-1.039394
 20
2.114098
  0
SEQEND
  8
0
  0
POLYLINE
  8
PLAN_1
 62
     5
  6
CONTINUOUS
 66
     1
 40
0.003000
 41
0.003000
  0
VERTEX
  8
PLAN_1
 62
     5
  6
CONTINUOUS
 10
-1.031071
 20
2.114098
  0
VERTEX
  8
PLAN_1
 62
     5
  6
CONTINUOUS
 10
-1.022744
 20
2.114098
  0
SEQEND
  8
0
  0
POLYLINE
  8
PLAN_1
 62
     5
  6
CONTINUOUS
 66
     1
 40
0.003000
 41
0.003000
  0
VERTEX
  8
PLAN_1
 62
     5
  6
CONTINUOUS
 10
-1.014417
 20
2.114098
  0
VERTEX
  8
PLAN_1
 62
     5
  6
CONTINUOUS
 10
-1.006091
 20
2.114098
  0
SEQEND
  8
0
  0
POLYLINE
  8
PLAN_1
 62
     5
  6
CONTINUOUS
 66
     1
 40
0.003000
 41
0.003000
  0
VERTEX
  8
PLAN_1
 62
     5
  6
CONTINUOUS
 10
-0.997764
 20
2.114098
  0
VERTEX
  8
PLAN_1
 62
     5
  6
CONTINUOUS
 10
-0.989437
 20
2.114098
  0
SEQEND
  8
0
  0
POLYLINE
  8
PLAN_1
 62
     5
  6
CONTINUOUS
 66
     1
 40
0.003000
 41
0.003000
  0
VERTEX
  8
PLAN_1
 62
     5
  6
CONTINUOUS
 10
-0.981110
 20
2.114098
  0
VERTEX
  8
PLAN_1
 62
     5
  6
CONTINUOUS
 10
-0.972783
 20
2.114098
  0
SEQEND
  8
0
  0
POLYLINE
  8
PLAN_1
 62
     5
  6
CONTINUOUS
 66
     1
 40
0.003000
 41
0.003000
  0
VERTEX
  8
PLAN_1
 62
     5
  6
CONTINUOUS
 10
-0.964457
 20
2.114098
  0
VERTEX
  8
PLAN_1
 62
     5
  6
CONTINUOUS
 10
-0.956130
 20
2.114098
  0
SEQEND
  8
0
  0
POLYLINE
  8
PLAN_1
 62
     5
  6
CONTINUOUS
 66
     1
 40
0.003000
 41
0.003000
  0
VERTEX
  8
PLAN_1
 62
     5
  6
CONTINUOUS
 10
-0.947803
 20
2.114098
  0
VERTEX
  8
PLAN_1
 62
     5
  6
CONTINUOUS
 10
-0.939480
 20
2.114098
  0
SEQEND
  8
0
  0
POLYLINE
  8
PLAN_1
 62
     5
  6
CONTINUOUS
 66
     1
 40
0.003000
 41
0.003000
  0
VERTEX
  8
PLAN_1
 62
     5
  6
CONTINUOUS
 10
-0.931154
 20
2.114098
  0
VERTEX
  8
PLAN_1
 62
     5
  6
CONTINUOUS
 10
-0.922827
 20
2.114098
  0
SEQEND
  8
0
  0
POLYLINE
  8
PLAN_1
 62
     5
  6
CONTINUOUS
 66
     1
 40
0.003000
 41
0.003000
  0
VERTEX
  8
PLAN_1
 62
     5
  6
CONTINUOUS
 10
-0.914500
 20
2.114098
  0
VERTEX
  8
PLAN_1
 62
     5
  6
CONTINUOUS
 10
-0.906173
 20
2.114098
  0
SEQEND
  8
0
  0
POLYLINE
  8
PLAN_1
 62
     5
  6
CONTINUOUS
 66
     1
 40
0.003000
 41
0.003000
  0
VERTEX
  8
PLAN_1
 62
     5
  6
CONTINUOUS
 10
-0.897846
 20
2.114098
  0
VERTEX
  8
PLAN_1
 62
     5
  6
CONTINUOUS
 10
-0.889520
 20
2.114098
  0
SEQEND
  8
0
  0
POLYLINE
  8
PLAN_1
 62
     5
  6
CONTINUOUS
 66
     1
 40
0.003000
 41
0.003000
  0
VERTEX
  8
PLAN_1
 62
     5
  6
CONTINUOUS
 10
-0.881193
 20
2.114098
  0
VERTEX
  8
PLAN_1
 62
     5
  6
CONTINUOUS
 10
-0.872866
 20
2.114098
  0
SEQEND
  8
0
  0
POLYLINE
  8
PLAN_1
 62
     5
  6
CONTINUOUS
 66
     1
 40
0.003000
 41
0.003000
  0
VERTEX
  8
PLAN_1
 62
     5
  6
CONTINUOUS
 10
-0.864539
 20
2.114098
  0
VERTEX
  8
PLAN_1
 62
     5
  6
CONTINUOUS
 10
-0.856213
 20
2.114098
  0
SEQEND
  8
0
  0
POLYLINE
  8
PLAN_1
 62
     5
  6
CONTINUOUS
 66
     1
 40
0.003000
 41
0.003000
  0
VERTEX
  8
PLAN_1
 62
     5
  6
CONTINUOUS
 10
-0.847886
 20
2.114098
  0
VERTEX
  8
PLAN_1
 62
     5
  6
CONTINUOUS
 10
-0.839563
 20
2.114098
  0
SEQEND
  8
0
  0
POLYLINE
  8
PLAN_1
 62
     5
  6
CONTINUOUS
 66
     1
 40
0.003000
 41
0.003000
  0
VERTEX
  8
PLAN_1
 62
     5
  6
CONTINUOUS
 10
-0.831236
 20
2.114098
  0
VERTEX
  8
PLAN_1
 62
     5
  6
CONTINUOUS
 10
-0.822909
 20
2.114098
  0
SEQEND
  8
0
  0
POLYLINE
  8
PLAN_1
 62
     5
  6
CONTINUOUS
 66
     1
 40
0.003000
 41
0.003000
  0
VERTEX
  8
PLAN_1
 62
     5
  6
CONTINUOUS
 10
-0.814583
 20
2.114098
  0
VERTEX
  8
PLAN_1
 62
     5
  6
CONTINUOUS
 10
-0.806256
 20
2.114098
  0
SEQEND
  8
0
  0
POLYLINE
  8
PLAN_1
 62
     5
  6
CONTINUOUS
 66
     1
 40
0.003000
 41
0.003000
  0
VERTEX
  8
PLAN_1
 62
     5
  6
CONTINUOUS
 10
-0.797929
 20
2.114098
  0
VERTEX
  8
PLAN_1
 62
     5
  6
CONTINUOUS
 10
-0.789602
 20
2.114098
  0
SEQEND
  8
0
  0
POLYLINE
  8
PLAN_1
 62
     5
  6
CONTINUOUS
 66
     1
 40
0.003000
 41
0.003000
  0
VERTEX
  8
PLAN_1
 62
     5
  6
CONTINUOUS
 10
-0.781276
 20
2.114098
  0
VERTEX
  8
PLAN_1
 62
     5
  6
CONTINUOUS
 10
-0.772535
 20
2.114098
  0
SEQEND
  8
0
  0
POLYLINE
  8
PLAN_1
 62
     5
  6
CONTINUOUS
 66
     1
 40
0.003000
 41
0.003000
  0
VERTEX
  8
PLAN_1
 62
     5
  6
CONTINUOUS
 10
-0.764209
 20
2.114098
  0
VERTEX
  8
PLAN_1
 62
     5
  6
CONTINUOUS
 10
-0.755882
 20
2.114098
  0
SEQEND
  8
0
  0
POLYLINE
  8
PLAN_1
 62
     5
  6
CONTINUOUS
 66
     1
 40
0.003000
 41
0.003000
  0
VERTEX
  8
PLAN_1
 62
     5
  6
CONTINUOUS
 10
-0.747555
 20
2.114098
  0
VERTEX
  8
PLAN_1
 62
     5
  6
CONTINUOUS
 10
-0.739228
 20
2.114098
  0
SEQEND
  8
0
  0
POLYLINE
  8
PLAN_1
 62
     5
  6
CONTINUOUS
 66
     1
 40
0.003000
 41
0.003000
  0
VERTEX
  8
PLAN_1
 62
     5
  6
CONTINUOUS
 10
-0.730902
 20
2.114098
  0
VERTEX
  8
PLAN_1
 62
     5
  6
CONTINUOUS
 10
-0.722575
 20
2.114098
  0
SEQEND
  8
0
  0
POLYLINE
  8
PLAN_1
 62
     5
  6
CONTINUOUS
 66
     1
 40
0.003000
 41
0.003000
  0
VERTEX
  8
PLAN_1
 62
     5
  6
CONTINUOUS
 10
-0.714248
 20
2.114098
  0
VERTEX
  8
PLAN_1
 62
     5
  6
CONTINUOUS
 10
-0.705921
 20
2.114098
  0
SEQEND
  8
0
  0
POLYLINE
  8
PLAN_1
 62
     5
  6
CONTINUOUS
 66
     1
 40
0.003000
 41
0.003000
  0
VERTEX
  8
PLAN_1
 62
     5
  6
CONTINUOUS
 10
-0.697594
 20
2.114098
  0
VERTEX
  8
PLAN_1
 62
     5
  6
CONTINUOUS
 10
-0.689268
 20
2.114098
  0
SEQEND
  8
0
  0
POLYLINE
  8
PLAN_1
 62
     5
  6
CONTINUOUS
 66
     1
 40
0.003000
 41
0.003000
  0
VERTEX
  8
PLAN_1
 62
     5
  6
CONTINUOUS
 10
-0.680941
 20
2.114098
  0
VERTEX
  8
PLAN_1
 62
     5
  6
CONTINUOUS
 10
-0.672618
 20
2.114098
  0
SEQEND
  8
0
  0
POLYLINE
  8
PLAN_1
 62
     5
  6
CONTINUOUS
 66
     1
 40
0.003000
 41
0.003000
  0
VERTEX
  8
PLAN_1
 62
     5
  6
CONTINUOUS
 10
-0.664291
 20
2.114098
  0
VERTEX
  8
PLAN_1
 62
     5
  6
CONTINUOUS
 10
-0.655965
 20
2.114098
  0
SEQEND
  8
0
  0
POLYLINE
  8
PLAN_1
 62
     5
  6
CONTINUOUS
 66
     1
 40
0.003000
 41
0.003000
  0
VERTEX
  8
PLAN_1
 62
     5
  6
CONTINUOUS
 10
-0.647638
 20
2.114098
  0
VERTEX
  8
PLAN_1
 62
     5
  6
CONTINUOUS
 10
-0.639311
 20
2.114098
  0
SEQEND
  8
0
  0
POLYLINE
  8
PLAN_1
 62
     5
  6
CONTINUOUS
 66
     1
 40
0.003000
 41
0.003000
  0
VERTEX
  8
PLAN_1
 62
     5
  6
CONTINUOUS
 10
-0.630984
 20
2.114098
  0
VERTEX
  8
PLAN_1
 62
     5
  6
CONTINUOUS
 10
-0.622657
 20
2.114098
  0
SEQEND
  8
0
  0
POLYLINE
  8
PLAN_1
 62
     5
  6
CONTINUOUS
 66
     1
 40
0.003000
 41
0.003000
  0
VERTEX
  8
PLAN_1
 62
     5
  6
CONTINUOUS
 10
-0.614331
 20
2.114098
  0
VERTEX
  8
PLAN_1
 62
     5
  6
CONTINUOUS
 10
-0.606004
 20
2.114098
  0
SEQEND
  8
0
  0
POLYLINE
  8
PLAN_1
 62
     5
  6
CONTINUOUS
 66
     1
 40
0.003000
 41
0.003000
  0
VERTEX
  8
PLAN_1
 62
     5
  6
CONTINUOUS
 10
-0.597677
 20
2.114098
  0
VERTEX
  8
PLAN_1
 62
     5
  6
CONTINUOUS
 10
-0.589350
 20
2.114098
  0
SEQEND
  8
0
  0
POLYLINE
  8
PLAN_1
 62
     5
  6
CONTINUOUS
 66
     1
 40
0.003000
 41
0.003000
  0
VERTEX
  8
PLAN_1
 62
     5
  6
CONTINUOUS
 10
-0.581028
 20
2.114098
  0
VERTEX
  8
PLAN_1
 62
     5
  6
CONTINUOUS
 10
-0.572701
 20
2.114098
  0
SEQEND
  8
0
  0
POLYLINE
  8
PLAN_1
 62
     5
  6
CONTINUOUS
 66
     1
 40
0.003000
 41
0.003000
  0
VERTEX
  8
PLAN_1
 62
     5
  6
CONTINUOUS
 10
-0.564374
 20
2.114098
  0
VERTEX
  8
PLAN_1
 62
     5
  6
CONTINUOUS
 10
-0.556047
 20
2.114098
  0
SEQEND
  8
0
  0
POLYLINE
  8
PLAN_1
 62
     5
  6
CONTINUOUS
 66
     1
 40
0.003000
 41
0.003000
  0
VERTEX
  8
PLAN_1
 62
     5
  6
CONTINUOUS
 10
-0.547720
 20
2.114098
  0
VERTEX
  8
PLAN_1
 62
     5
  6
CONTINUOUS
 10
-0.539394
 20
2.114098
  0
SEQEND
  8
0
  0
POLYLINE
  8
PLAN_1
 62
     5
  6
CONTINUOUS
 66
     1
 40
0.003000
 41
0.003000
  0
VERTEX
  8
PLAN_1
 62
     5
  6
CONTINUOUS
 10
-0.531067
 20
2.114098
  0
VERTEX
  8
PLAN_1
 62
     5
  6
CONTINUOUS
 10
-0.522740
 20
2.114098
  0
SEQEND
  8
0
  0
POLYLINE
  8
PLAN_1
 62
     5
  6
CONTINUOUS
 66
     1
 40
0.003000
 41
0.003000
  0
VERTEX
  8
PLAN_1
 62
     5
  6
CONTINUOUS
 10
-0.514413
 20
2.114098
  0
VERTEX
  8
PLAN_1
 62
     5
  6
CONTINUOUS
 10
-0.506087
 20
2.114098
  0
SEQEND
  8
0
  0
POLYLINE
  8
PLAN_1
 62
     5
  6
CONTINUOUS
 66
     1
 40
0.003000
 41
0.003000
  0
VERTEX
  8
PLAN_1
 62
     5
  6
CONTINUOUS
 10
-0.497760
 20
2.114098
  0
VERTEX
  8
PLAN_1
 62
     5
  6
CONTINUOUS
 10
-0.489433
 20
2.114098
  0
SEQEND
  8
0
  0
POLYLINE
  8
PLAN_1
 62
     5
  6
CONTINUOUS
 66
     1
 40
0.003000
 41
0.003000
  0
VERTEX
  8
PLAN_1
 62
     5
  6
CONTINUOUS
 10
-0.481110
 20
2.114098
  0
VERTEX
  8
PLAN_1
 62
     5
  6
CONTINUOUS
 10
-0.472783
 20
2.114098
  0
SEQEND
  8
0
  0
POLYLINE
  8
PLAN_1
 62
     5
  6
CONTINUOUS
 66
     1
 40
0.003000
 41
0.003000
  0
VERTEX
  8
PLAN_1
 62
     5
  6
CONTINUOUS
 10
-0.464457
 20
2.114098
  0
VERTEX
  8
PLAN_1
 62
     5
  6
CONTINUOUS
 10
-0.456130
 20
2.114098
  0
SEQEND
  8
0
  0
POLYLINE
  8
PLAN_1
 62
     5
  6
CONTINUOUS
 66
     1
 40
0.003000
 41
0.003000
  0
VERTEX
  8
PLAN_1
 62
     5
  6
CONTINUOUS
 10
-0.447803
 20
2.114098
  0
VERTEX
  8
PLAN_1
 62
     5
  6
CONTINUOUS
 10
-0.439476
 20
2.114098
  0
SEQEND
  8
0
  0
POLYLINE
  8
PLAN_1
 62
     5
  6
CONTINUOUS
 66
     1
 40
0.003000
 41
0.003000
  0
VERTEX
  8
PLAN_1
 62
     5
  6
CONTINUOUS
 10
-0.431150
 20
2.114098
  0
VERTEX
  8
PLAN_1
 62
     5
  6
CONTINUOUS
 10
-0.422823
 20
2.114098
  0
SEQEND
  8
0
  0
POLYLINE
  8
PLAN_1
 62
     5
  6
CONTINUOUS
 66
     1
 40
0.003000
 41
0.003000
  0
VERTEX
  8
PLAN_1
 62
     5
  6
CONTINUOUS
 10
-0.414496
 20
2.114098
  0
VERTEX
  8
PLAN_1
 62
     5
  6
CONTINUOUS
 10
-0.406169
 20
2.114098
  0
SEQEND
  8
0
  0
POLYLINE
  8
PLAN_1
 62
     5
  6
CONTINUOUS
 66
     1
 40
0.003000
 41
0.003000
  0
VERTEX
  8
PLAN_1
 62
     5
  6
CONTINUOUS
 10
-0.397843
 20
2.114098
  0
VERTEX
  8
PLAN_1
 62
     5
  6
CONTINUOUS
 10
-0.389520
 20
2.114098
  0
SEQEND
  8
0
  0
POLYLINE
  8
PLAN_1
 62
     5
  6
CONTINUOUS
 66
     1
 40
0.003000
 41
0.003000
  0
VERTEX
  8
PLAN_1
 62
     5
  6
CONTINUOUS
 10
-0.381193
 20
2.114098
  0
VERTEX
  8
PLAN_1
 62
     5
  6
CONTINUOUS
 10
-0.372866
 20
2.114098
  0
SEQEND
  8
0
  0
POLYLINE
  8
PLAN_1
 62
     5
  6
CONTINUOUS
 66
     1
 40
0.003000
 41
0.003000
  0
VERTEX
  8
PLAN_1
 62
     5
  6
CONTINUOUS
 10
-0.364539
 20
2.114098
  0
VERTEX
  8
PLAN_1
 62
     5
  6
CONTINUOUS
 10
-0.356213
 20
2.114098
  0
SEQEND
  8
0
  0
POLYLINE
  8
PLAN_1
 62
     5
  6
CONTINUOUS
 66
     1
 40
0.003000
 41
0.003000
  0
VERTEX
  8
PLAN_1
 62
     5
  6
CONTINUOUS
 10
-0.347886
 20
2.114098
  0
VERTEX
  8
PLAN_1
 62
     5
  6
CONTINUOUS
 10
-0.339559
 20
2.114098
  0
SEQEND
  8
0
  0
POLYLINE
  8
PLAN_1
 62
     5
  6
CONTINUOUS
 66
     1
 40
0.003000
 41
0.003000
  0
VERTEX
  8
PLAN_1
 62
     5
  6
CONTINUOUS
 10
-0.331232
 20
2.114098
  0
VERTEX
  8
PLAN_1
 62
     5
  6
CONTINUOUS
 10
-0.322906
 20
2.114098
  0
SEQEND
  8
0
  0
POLYLINE
  8
PLAN_1
 62
     5
  6
CONTINUOUS
 66
     1
 40
0.003000
 41
0.003000
  0
VERTEX
  8
PLAN_1
 62
     5
  6
CONTINUOUS
 10
-0.314579
 20
2.114098
  0
VERTEX
  8
PLAN_1
 62
     5
  6
CONTINUOUS
 10
-0.306252
 20
2.114098
  0
SEQEND
  8
0
  0
POLYLINE
  8
PLAN_1
 62
     5
  6
CONTINUOUS
 66
     1
 40
0.003000
 41
0.003000
  0
VERTEX
  8
PLAN_1
 62
     5
  6
CONTINUOUS
 10
-0.297925
 20
2.114098
  0
VERTEX
  8
PLAN_1
 62
     5
  6
CONTINUOUS
 10
-0.289602
 20
2.114098
  0
SEQEND
  8
0
  0
POLYLINE
  8
PLAN_1
 62
     5
  6
CONTINUOUS
 66
     1
 40
0.003000
 41
0.003000
  0
VERTEX
  8
PLAN_1
 62
     5
  6
CONTINUOUS
 10
-0.289602
 20
2.114098
  0
VERTEX
  8
PLAN_1
 62
     5
  6
CONTINUOUS
 10
-0.285437
 20
2.114098
  0
VERTEX
  8
PLAN_1
 62
     5
  6
CONTINUOUS
 10
-0.281689
 20
2.113264
  0
VERTEX
  8
PLAN_1
 62
     5
  6
CONTINUOUS
 10
-0.281276
 20
2.113264
  0
SEQEND
  8
0
  0
POLYLINE
  8
PLAN_1
 62
     5
  6
CONTINUOUS
 66
     1
 40
0.003000
 41
0.003000
  0
VERTEX
  8
PLAN_1
 62
     5
  6
CONTINUOUS
 10
-0.273362
 20
2.110768
  0
VERTEX
  8
PLAN_1
 62
     5
  6
CONTINUOUS
 10
-0.270449
 20
2.109516
  0
VERTEX
  8
PLAN_1
 62
     5
  6
CONTINUOUS
 10
-0.267118
 20
2.107437
  0
VERTEX
  8
PLAN_1
 62
     5
  6
CONTINUOUS
 10
-0.266287
 20
2.106602
  0
SEQEND
  8
0
  0
POLYLINE
  8
PLAN_1
 62
     5
  6
CONTINUOUS
 66
     1
 40
0.003000
 41
0.003000
  0
VERTEX
  8
PLAN_1
 62
     5
  6
CONTINUOUS
 10
-0.260043
 20
2.101189
  0
VERTEX
  8
PLAN_1
 62
     5
  6
CONTINUOUS
 10
-0.258378
 20
2.099524
  0
VERTEX
  8
PLAN_1
 62
     5
  6
CONTINUOUS
 10
-0.256295
 20
2.096610
  0
VERTEX
  8
PLAN_1
 62
     5
  6
CONTINUOUS
 10
-0.254630
 20
2.094528
  0
SEQEND
  8
0
  0
POLYLINE
  8
PLAN_1
 62
     5
  6
CONTINUOUS
 66
     1
 40
0.003000
 41
0.003000
  0
VERTEX
  8
PLAN_1
 62
     5
  6
CONTINUOUS
 10
-0.250882
 20
2.087035
  0
VERTEX
  8
PLAN_1
 62
     5
  6
CONTINUOUS
 10
-0.250465
 20
2.086205
  0
VERTEX
  8
PLAN_1
 62
     5
  6
CONTINUOUS
 10
-0.249217
 20
2.082457
  0
VERTEX
  8
PLAN_1
 62
     5
  6
CONTINUOUS
 10
-0.248799
 20
2.079126
  0
SEQEND
  8
0
  0
POLYLINE
  8
PLAN_1
 62
     5
  6
CONTINUOUS
 66
     1
 40
0.003000
 41
0.003000
  0
VERTEX
  8
PLAN_1
 62
     5
  6
CONTINUOUS
 10
-0.247969
 20
2.074547
  0
VERTEX
  8
PLAN_1
 62
     5
  6
CONTINUOUS
 10
-0.247969
 20
2.066220
  0
SEQEND
  8
0
  0
POLYLINE
  8
PLAN_1
 62
     5
  6
CONTINUOUS
 66
     1
 40
0.003000
 41
0.003000
  0
VERTEX
  8
PLAN_1
 62
     5
  6
CONTINUOUS
 10
-0.247969
 20
2.057894
  0
VERTEX
  8
PLAN_1
 62
     5
  6
CONTINUOUS
 10
-0.247969
 20
2.049567
  0
SEQEND
  8
0
  0
POLYLINE
  8
PLAN_1
 62
     5
  6
CONTINUOUS
 66
     1
 40
0.003000
 41
0.003000
  0
VERTEX
  8
PLAN_1
 62
     5
  6
CONTINUOUS
 10
-0.247969
 20
2.041240
  0
VERTEX
  8
PLAN_1
 62
     5
  6
CONTINUOUS
 10
-0.247969
 20
2.032496
  0
SEQEND
  8
0
  0
POLYLINE
  8
PLAN_1
 62
     5
  6
CONTINUOUS
 66
     1
 40
0.003000
 41
0.003000
  0
VERTEX
  8
PLAN_1
 62
     5
  6
CONTINUOUS
 10
-0.247969
 20
2.024169
  0
VERTEX
  8
PLAN_1
 62
     5
  6
CONTINUOUS
 10
-0.247969
 20
2.015846
  0
SEQEND
  8
0
  0
POLYLINE
  8
PLAN_1
 62
     5
  6
CONTINUOUS
 66
     1
 40
0.003000
 41
0.003000
  0
VERTEX
  8
PLAN_1
 62
     5
  6
CONTINUOUS
 10
-0.247969
 20
2.007520
  0
VERTEX
  8
PLAN_1
 62
     5
  6
CONTINUOUS
 10
-0.247969
 20
1.999193
  0
SEQEND
  8
0
  0
POLYLINE
  8
PLAN_1
 62
     5
  6
CONTINUOUS
 66
     1
 40
0.003000
 41
0.003000
  0
VERTEX
  8
PLAN_1
 62
     5
  6
CONTINUOUS
 10
-0.247969
 20
1.990866
  0
VERTEX
  8
PLAN_1
 62
     5
  6
CONTINUOUS
 10
-0.247969
 20
1.982539
  0
SEQEND
  8
0
  0
POLYLINE
  8
PLAN_1
 62
     5
  6
CONTINUOUS
 66
     1
 40
0.003000
 41
0.003000
  0
VERTEX
  8
PLAN_1
 62
     5
  6
CONTINUOUS
 10
-0.247969
 20
1.974213
  0
VERTEX
  8
PLAN_1
 62
     5
  6
CONTINUOUS
 10
-0.247969
 20
1.965886
  0
SEQEND
  8
0
  0
POLYLINE
  8
PLAN_1
 62
     5
  6
CONTINUOUS
 66
     1
 40
0.003000
 41
0.003000
  0
VERTEX
  8
PLAN_1
 62
     5
  6
CONTINUOUS
 10
-0.247969
 20
1.957559
  0
VERTEX
  8
PLAN_1
 62
     5
  6
CONTINUOUS
 10
-0.247969
 20
1.949232
  0
SEQEND
  8
0
  0
POLYLINE
  8
PLAN_1
 62
     5
  6
CONTINUOUS
 66
     1
 40
0.003000
 41
0.003000
  0
VERTEX
  8
PLAN_1
 62
     5
  6
CONTINUOUS
 10
-0.247969
 20
1.940906
  0
VERTEX
  8
PLAN_1
 62
     5
  6
CONTINUOUS
 10
-0.247969
 20
1.932579
  0
SEQEND
  8
0
  0
POLYLINE
  8
PLAN_1
 62
     5
  6
CONTINUOUS
 66
     1
 40
0.003000
 41
0.003000
  0
VERTEX
  8
PLAN_1
 62
     5
  6
CONTINUOUS
 10
-0.247969
 20
1.924252
  0
VERTEX
  8
PLAN_1
 62
     5
  6
CONTINUOUS
 10
-0.247969
 20
1.915929
  0
SEQEND
  8
0
  0
POLYLINE
  8
PLAN_1
 62
     5
  6
CONTINUOUS
 66
     1
 40
0.003000
 41
0.003000
  0
VERTEX
  8
PLAN_1
 62
     5
  6
CONTINUOUS
 10
-0.247969
 20
1.907602
  0
VERTEX
  8
PLAN_1
 62
     5
  6
CONTINUOUS
 10
-0.247969
 20
1.899276
  0
SEQEND
  8
0
  0
POLYLINE
  8
PLAN_1
 62
     5
  6
CONTINUOUS
 66
     1
 40
0.003000
 41
0.003000
  0
VERTEX
  8
PLAN_1
 62
     5
  6
CONTINUOUS
 10
-0.247969
 20
1.890949
  0
VERTEX
  8
PLAN_1
 62
     5
  6
CONTINUOUS
 10
-0.247969
 20
1.882622
  0
SEQEND
  8
0
  0
POLYLINE
  8
PLAN_1
 62
     5
  6
CONTINUOUS
 66
     1
 40
0.003000
 41
0.003000
  0
VERTEX
  8
PLAN_1
 62
     5
  6
CONTINUOUS
 10
-0.247969
 20
1.874295
  0
VERTEX
  8
PLAN_1
 62
     5
  6
CONTINUOUS
 10
-0.247969
 20
1.865969
  0
SEQEND
  8
0
  0
POLYLINE
  8
PLAN_1
 62
     5
  6
CONTINUOUS
 66
     1
 40
0.003000
 41
0.003000
  0
VERTEX
  8
PLAN_1
 62
     5
  6
CONTINUOUS
 10
-0.247969
 20
1.857642
  0
VERTEX
  8
PLAN_1
 62
     5
  6
CONTINUOUS
 10
-0.247969
 20
1.849315
  0
SEQEND
  8
0
  0
POLYLINE
  8
PLAN_1
 62
     5
  6
CONTINUOUS
 66
     1
 40
0.003000
 41
0.003000
  0
VERTEX
  8
PLAN_1
 62
     5
  6
CONTINUOUS
 10
-0.247969
 20
1.840988
  0
VERTEX
  8
PLAN_1
 62
     5
  6
CONTINUOUS
 10
-0.247969
 20
1.832661
  0
SEQEND
  8
0
  0
POLYLINE
  8
PLAN_1
 62
     5
  6
CONTINUOUS
 66
     1
 40
0.003000
 41
0.003000
  0
VERTEX
  8
PLAN_1
 62
     5
  6
CONTINUOUS
 10
-0.247969
 20
1.824339
  0
VERTEX
  8
PLAN_1
 62
     5
  6
CONTINUOUS
 10
-0.247969
 20
1.816012
  0
SEQEND
  8
0
  0
POLYLINE
  8
PLAN_1
 62
     5
  6
CONTINUOUS
 66
     1
 40
0.003000
 41
0.003000
  0
VERTEX
  8
PLAN_1
 62
     5
  6
CONTINUOUS
 10
-0.247969
 20
1.807685
  0
VERTEX
  8
PLAN_1
 62
     5
  6
CONTINUOUS
 10
-0.247969
 20
1.799358
  0
SEQEND
  8
0
  0
POLYLINE
  8
PLAN_1
 62
     5
  6
CONTINUOUS
 66
     1
 40
0.003000
 41
0.003000
  0
VERTEX
  8
PLAN_1
 62
     5
  6
CONTINUOUS
 10
-0.247969
 20
1.791031
  0
VERTEX
  8
PLAN_1
 62
     5
  6
CONTINUOUS
 10
-0.247969
 20
1.782705
  0
SEQEND
  8
0
  0
POLYLINE
  8
PLAN_1
 62
     5
  6
CONTINUOUS
 66
     1
 40
0.003000
 41
0.003000
  0
VERTEX
  8
PLAN_1
 62
     5
  6
CONTINUOUS
 10
-0.247969
 20
1.774378
  0
VERTEX
  8
PLAN_1
 62
     5
  6
CONTINUOUS
 10
-0.247969
 20
1.766051
  0
SEQEND
  8
0
  0
POLYLINE
  8
PLAN_1
 62
     5
  6
CONTINUOUS
 66
     1
 40
0.003000
 41
0.003000
  0
VERTEX
  8
PLAN_1
 62
     5
  6
CONTINUOUS
 10
-0.247969
 20
1.757724
  0
VERTEX
  8
PLAN_1
 62
     5
  6
CONTINUOUS
 10
-0.247969
 20
1.749398
  0
SEQEND
  8
0
  0
POLYLINE
  8
PLAN_1
 62
     5
  6
CONTINUOUS
 66
     1
 40
0.003000
 41
0.003000
  0
VERTEX
  8
PLAN_1
 62
     5
  6
CONTINUOUS
 10
-0.247969
 20
1.741071
  0
VERTEX
  8
PLAN_1
 62
     5
  6
CONTINUOUS
 10
-0.247969
 20
1.732748
  0
SEQEND
  8
0
  0
POLYLINE
  8
PLAN_1
 62
     5
  6
CONTINUOUS
 66
     1
 40
0.003000
 41
0.003000
  0
VERTEX
  8
PLAN_1
 62
     5
  6
CONTINUOUS
 10
-0.247969
 20
1.724421
  0
VERTEX
  8
PLAN_1
 62
     5
  6
CONTINUOUS
 10
-0.247969
 20
1.716094
  0
SEQEND
  8
0
  0
POLYLINE
  8
PLAN_1
 62
     5
  6
CONTINUOUS
 66
     1
 40
0.003000
 41
0.003000
  0
VERTEX
  8
PLAN_1
 62
     5
  6
CONTINUOUS
 10
-0.247969
 20
1.707768
  0
VERTEX
  8
PLAN_1
 62
     5
  6
CONTINUOUS
 10
-0.247969
 20
1.699441
  0
SEQEND
  8
0
  0
POLYLINE
  8
PLAN_1
 62
     5
  6
CONTINUOUS
 66
     1
 40
0.003000
 41
0.003000
  0
VERTEX
  8
PLAN_1
 62
     5
  6
CONTINUOUS
 10
-0.247969
 20
1.691114
  0
VERTEX
  8
PLAN_1
 62
     5
  6
CONTINUOUS
 10
-0.247969
 20
1.682787
  0
SEQEND
  8
0
  0
POLYLINE
  8
PLAN_1
 62
     5
  6
CONTINUOUS
 66
     1
 40
0.003000
 41
0.003000
  0
VERTEX
  8
PLAN_1
 62
     5
  6
CONTINUOUS
 10
-0.247969
 20
1.674461
  0
VERTEX
  8
PLAN_1
 62
     5
  6
CONTINUOUS
 10
-0.247969
 20
1.666134
  0
SEQEND
  8
0
  0
POLYLINE
  8
PLAN_1
 62
     5
  6
CONTINUOUS
 66
     1
 40
0.003000
 41
0.003000
  0
VERTEX
  8
PLAN_1
 62
     5
  6
CONTINUOUS
 10
-0.247969
 20
1.657807
  0
VERTEX
  8
PLAN_1
 62
     5
  6
CONTINUOUS
 10
-0.247969
 20
1.649480
  0
SEQEND
  8
0
  0
POLYLINE
  8
PLAN_1
 62
     5
  6
CONTINUOUS
 66
     1
 40
0.003000
 41
0.003000
  0
VERTEX
  8
PLAN_1
 62
     5
  6
CONTINUOUS
 10
-0.247969
 20
1.641154
  0
VERTEX
  8
PLAN_1
 62
     5
  6
CONTINUOUS
 10
-0.247969
 20
1.632831
  0
SEQEND
  8
0
  0
POLYLINE
  8
PLAN_1
 62
     5
  6
CONTINUOUS
 66
     1
 40
0.003000
 41
0.003000
  0
VERTEX
  8
PLAN_1
 62
     5
  6
CONTINUOUS
 10
-0.247969
 20
1.624504
  0
VERTEX
  8
PLAN_1
 62
     5
  6
CONTINUOUS
 10
-0.247969
 20
1.616177
  0
SEQEND
  8
0
  0
POLYLINE
  8
PLAN_1
 62
     5
  6
CONTINUOUS
 66
     1
 40
0.003000
 41
0.003000
  0
VERTEX
  8
PLAN_1
 62
     5
  6
CONTINUOUS
 10
-0.247969
 20
1.607850
  0
VERTEX
  8
PLAN_1
 62
     5
  6
CONTINUOUS
 10
-0.247969
 20
1.599524
  0
SEQEND
  8
0
  0
POLYLINE
  8
PLAN_1
 62
     5
  6
CONTINUOUS
 66
     1
 40
0.003000
 41
0.003000
  0
VERTEX
  8
PLAN_1
 62
     5
  6
CONTINUOUS
 10
-0.247969
 20
1.591197
  0
VERTEX
  8
PLAN_1
 62
     5
  6
CONTINUOUS
 10
-0.247969
 20
1.582870
  0
SEQEND
  8
0
  0
POLYLINE
  8
PLAN_1
 62
     5
  6
CONTINUOUS
 66
     1
 40
0.003000
 41
0.003000
  0
VERTEX
  8
PLAN_1
 62
     5
  6
CONTINUOUS
 10
-0.247969
 20
1.574543
  0
VERTEX
  8
PLAN_1
 62
     5
  6
CONTINUOUS
 10
-0.247969
 20
1.566217
  0
SEQEND
  8
0
  0
POLYLINE
  8
PLAN_1
 62
     5
  6
CONTINUOUS
 66
     1
 40
0.003000
 41
0.003000
  0
VERTEX
  8
PLAN_1
 62
     5
  6
CONTINUOUS
 10
-0.247969
 20
1.557890
  0
VERTEX
  8
PLAN_1
 62
     5
  6
CONTINUOUS
 10
-0.247969
 20
1.549563
  0
SEQEND
  8
0
  0
POLYLINE
  8
PLAN_1
 62
     5
  6
CONTINUOUS
 66
     1
 40
0.003000
 41
0.003000
  0
VERTEX
  8
PLAN_1
 62
     5
  6
CONTINUOUS
 10
-0.247969
 20
1.541240
  0
VERTEX
  8
PLAN_1
 62
     5
  6
CONTINUOUS
 10
-0.247969
 20
1.532913
  0
SEQEND
  8
0
  0
POLYLINE
  8
PLAN_1
 62
     5
  6
CONTINUOUS
 66
     1
 40
0.003000
 41
0.003000
  0
VERTEX
  8
PLAN_1
 62
     5
  6
CONTINUOUS
 10
-0.247969
 20
1.524587
  0
VERTEX
  8
PLAN_1
 62
     5
  6
CONTINUOUS
 10
-0.247969
 20
1.516260
  0
SEQEND
  8
0
  0
POLYLINE
  8
PLAN_1
 62
     5
  6
CONTINUOUS
 66
     1
 40
0.003000
 41
0.003000
  0
VERTEX
  8
PLAN_1
 62
     5
  6
CONTINUOUS
 10
-0.247969
 20
1.507933
  0
VERTEX
  8
PLAN_1
 62
     5
  6
CONTINUOUS
 10
-0.247969
 20
1.499606
  0
SEQEND
  8
0
  0
POLYLINE
  8
PLAN_1
 62
     5
  6
CONTINUOUS
 66
     1
 40
0.003000
 41
0.003000
  0
VERTEX
  8
PLAN_1
 62
     5
  6
CONTINUOUS
 10
-0.247969
 20
1.491280
  0
VERTEX
  8
PLAN_1
 62
     5
  6
CONTINUOUS
 10
-0.247969
 20
1.482953
  0
SEQEND
  8
0
  0
POLYLINE
  8
PLAN_1
 62
     5
  6
CONTINUOUS
 66
     1
 40
0.003000
 41
0.003000
  0
VERTEX
  8
PLAN_1
 62
     5
  6
CONTINUOUS
 10
-0.247969
 20
1.474626
  0
VERTEX
  8
PLAN_1
 62
     5
  6
CONTINUOUS
 10
-0.247969
 20
1.466299
  0
SEQEND
  8
0
  0
POLYLINE
  8
PLAN_1
 62
     5
  6
CONTINUOUS
 66
     1
 40
0.003000
 41
0.003000
  0
VERTEX
  8
PLAN_1
 62
     5
  6
CONTINUOUS
 10
-0.247969
 20
1.457972
  0
VERTEX
  8
PLAN_1
 62
     5
  6
CONTINUOUS
 10
-0.247969
 20
1.449646
  0
SEQEND
  8
0
  0
POLYLINE
  8
PLAN_1
 62
     5
  6
CONTINUOUS
 66
     1
 40
0.003000
 41
0.003000
  0
VERTEX
  8
PLAN_1
 62
     5
  6
CONTINUOUS
 10
-0.247969
 20
1.441323
  0
VERTEX
  8
PLAN_1
 62
     5
  6
CONTINUOUS
 10
-0.247969
 20
1.432996
  0
SEQEND
  8
0
  0
POLYLINE
  8
PLAN_1
 62
     5
  6
CONTINUOUS
 66
     1
 40
0.003000
 41
0.003000
  0
VERTEX
  8
PLAN_1
 62
     5
  6
CONTINUOUS
 10
-0.247969
 20
1.424669
  0
VERTEX
  8
PLAN_1
 62
     5
  6
CONTINUOUS
 10
-0.247969
 20
1.416343
  0
SEQEND
  8
0
  0
POLYLINE
  8
PLAN_1
 62
     5
  6
CONTINUOUS
 66
     1
 40
0.003000
 41
0.003000
  0
VERTEX
  8
PLAN_1
 62
     5
  6
CONTINUOUS
 10
-0.247969
 20
1.408016
  0
VERTEX
  8
PLAN_1
 62
     5
  6
CONTINUOUS
 10
-0.247969
 20
1.399689
  0
SEQEND
  8
0
  0
POLYLINE
  8
PLAN_1
 62
     5
  6
CONTINUOUS
 66
     1
 40
0.003000
 41
0.003000
  0
VERTEX
  8
PLAN_1
 62
     5
  6
CONTINUOUS
 10
-0.247969
 20
1.391362
  0
VERTEX
  8
PLAN_1
 62
     5
  6
CONTINUOUS
 10
-0.247969
 20
1.383035
  0
SEQEND
  8
0
  0
POLYLINE
  8
PLAN_1
 62
     5
  6
CONTINUOUS
 66
     1
 40
0.003000
 41
0.003000
  0
VERTEX
  8
PLAN_1
 62
     5
  6
CONTINUOUS
 10
-0.247969
 20
1.374709
  0
VERTEX
  8
PLAN_1
 62
     5
  6
CONTINUOUS
 10
-0.247969
 20
1.366382
  0
SEQEND
  8
0
  0
POLYLINE
  8
PLAN_1
 62
     5
  6
CONTINUOUS
 66
     1
 40
0.003000
 41
0.003000
  0
VERTEX
  8
PLAN_1
 62
     5
  6
CONTINUOUS
 10
-0.247969
 20
1.358055
  0
VERTEX
  8
PLAN_1
 62
     5
  6
CONTINUOUS
 10
-0.247969
 20
1.349732
  0
SEQEND
  8
0
  0
POLYLINE
  8
PLAN_1
 62
     5
  6
CONTINUOUS
 66
     1
 40
0.003000
 41
0.003000
  0
VERTEX
  8
PLAN_1
 62
     5
  6
CONTINUOUS
 10
-0.247969
 20
1.341406
  0
VERTEX
  8
PLAN_1
 62
     5
  6
CONTINUOUS
 10
-0.247969
 20
1.333079
  0
SEQEND
  8
0
  0
POLYLINE
  8
PLAN_1
 62
     5
  6
CONTINUOUS
 66
     1
 40
0.003000
 41
0.003000
  0
VERTEX
  8
PLAN_1
 62
     5
  6
CONTINUOUS
 10
-0.578110
 20
1.838909
  0
VERTEX
  8
PLAN_1
 62
     5
  6
CONTINUOUS
 10
-0.569783
 20
1.838909
  0
SEQEND
  8
0
  0
POLYLINE
  8
PLAN_1
 62
     5
  6
CONTINUOUS
 66
     1
 40
0.003000
 41
0.003000
  0
VERTEX
  8
PLAN_1
 62
     5
  6
CONTINUOUS
 10
-0.561457
 20
1.838909
  0
VERTEX
  8
PLAN_1
 62
     5
  6
CONTINUOUS
 10
-0.553134
 20
1.838909
  0
SEQEND
  8
0
  0
POLYLINE
  8
PLAN_1
 62
     5
  6
CONTINUOUS
 66
     1
 40
0.003000
 41
0.003000
  0
VERTEX
  8
PLAN_1
 62
     5
  6
CONTINUOUS
 10
-0.544807
 20
1.838909
  0
VERTEX
  8
PLAN_1
 62
     5
  6
CONTINUOUS
 10
-0.536480
 20
1.838909
  0
SEQEND
  8
0
  0
POLYLINE
  8
PLAN_1
 62
     5
  6
CONTINUOUS
 66
     1
 40
0.003000
 41
0.003000
  0
VERTEX
  8
PLAN_1
 62
     5
  6
CONTINUOUS
 10
-0.528154
 20
1.838909
  0
VERTEX
  8
PLAN_1
 62
     5
  6
CONTINUOUS
 10
-0.519827
 20
1.838909
  0
SEQEND
  8
0
  0
POLYLINE
  8
PLAN_1
 62
     5
  6
CONTINUOUS
 66
     1
 40
0.003000
 41
0.003000
  0
VERTEX
  8
PLAN_1
 62
     5
  6
CONTINUOUS
 10
-0.511500
 20
1.838909
  0
VERTEX
  8
PLAN_1
 62
     5
  6
CONTINUOUS
 10
-0.503173
 20
1.838909
  0
SEQEND
  8
0
  0
POLYLINE
  8
PLAN_1
 62
     5
  6
CONTINUOUS
 66
     1
 40
0.003000
 41
0.003000
  0
VERTEX
  8
PLAN_1
 62
     5
  6
CONTINUOUS
 10
-0.494846
 20
1.838909
  0
VERTEX
  8
PLAN_1
 62
     5
  6
CONTINUOUS
 10
-0.486520
 20
1.838909
  0
SEQEND
  8
0
  0
POLYLINE
  8
PLAN_1
 62
     5
  6
CONTINUOUS
 66
     1
 40
0.003000
 41
0.003000
  0
VERTEX
  8
PLAN_1
 62
     5
  6
CONTINUOUS
 10
-0.478193
 20
1.838909
  0
VERTEX
  8
PLAN_1
 62
     5
  6
CONTINUOUS
 10
-0.469866
 20
1.838909
  0
SEQEND
  8
0
  0
POLYLINE
  8
PLAN_1
 62
     5
  6
CONTINUOUS
 66
     1
 40
0.003000
 41
0.003000
  0
VERTEX
  8
PLAN_1
 62
     5
  6
CONTINUOUS
 10
-0.461543
 20
1.838909
  0
VERTEX
  8
PLAN_1
 62
     5
  6
CONTINUOUS
 10
-0.453217
 20
1.838909
  0
SEQEND
  8
0
  0
POLYLINE
  8
PLAN_1
 62
     5
  6
CONTINUOUS
 66
     1
 40
0.003000
 41
0.003000
  0
VERTEX
  8
PLAN_1
 62
     5
  6
CONTINUOUS
 10
-0.444890
 20
1.838909
  0
VERTEX
  8
PLAN_1
 62
     5
  6
CONTINUOUS
 10
-0.436563
 20
1.838909
  0
SEQEND
  8
0
  0
POLYLINE
  8
PLAN_1
 62
     5
  6
CONTINUOUS
 66
     1
 40
0.003000
 41
0.003000
  0
VERTEX
  8
PLAN_1
 62
     5
  6
CONTINUOUS
 10
-0.428236
 20
1.838909
  0
VERTEX
  8
PLAN_1
 62
     5
  6
CONTINUOUS
 10
-0.419909
 20
1.838909
  0
SEQEND
  8
0
  0
POLYLINE
  8
PLAN_1
 62
     5
  6
CONTINUOUS
 66
     1
 40
0.003000
 41
0.003000
  0
VERTEX
  8
PLAN_1
 62
     5
  6
CONTINUOUS
 10
-0.411583
 20
1.838909
  0
VERTEX
  8
PLAN_1
 62
     5
  6
CONTINUOUS
 10
-0.403256
 20
1.838909
  0
SEQEND
  8
0
  0
POLYLINE
  8
PLAN_1
 62
     5
  6
CONTINUOUS
 66
     1
 40
0.003000
 41
0.003000
  0
VERTEX
  8
PLAN_1
 62
     5
  6
CONTINUOUS
 10
-0.394929
 20
1.838909
  0
VERTEX
  8
PLAN_1
 62
     5
  6
CONTINUOUS
 10
-0.386602
 20
1.838909
  0
SEQEND
  8
0
  0
POLYLINE
  8
PLAN_1
 62
     5
  6
CONTINUOUS
 66
     1
 40
0.003000
 41
0.003000
  0
VERTEX
  8
PLAN_1
 62
     5
  6
CONTINUOUS
 10
-0.378276
 20
1.838909
  0
VERTEX
  8
PLAN_1
 62
     5
  6
CONTINUOUS
 10
-0.369949
 20
1.838909
  0
SEQEND
  8
0
  0
POLYLINE
  8
PLAN_1
 62
     5
  6
CONTINUOUS
 66
     1
 40
0.003000
 41
0.003000
  0
VERTEX
  8
PLAN_1
 62
     5
  6
CONTINUOUS
 10
-0.361626
 20
1.838909
  0
VERTEX
  8
PLAN_1
 62
     5
  6
CONTINUOUS
 10
-0.353299
 20
1.838909
  0
SEQEND
  8
0
  0
POLYLINE
  8
PLAN_1
 62
     5
  6
CONTINUOUS
 66
     1
 40
0.003000
 41
0.003000
  0
VERTEX
  8
PLAN_1
 62
     5
  6
CONTINUOUS
 10
-0.344972
 20
1.838909
  0
VERTEX
  8
PLAN_1
 62
     5
  6
CONTINUOUS
 10
-0.336646
 20
1.838909
  0
SEQEND
  8
0
  0
POLYLINE
  8
PLAN_1
 62
     5
  6
CONTINUOUS
 66
     1
 40
0.003000
 41
0.003000
  0
VERTEX
  8
PLAN_1
 62
     5
  6
CONTINUOUS
 10
-0.328319
 20
1.838909
  0
VERTEX
  8
PLAN_1
 62
     5
  6
CONTINUOUS
 10
-0.319992
 20
1.838909
  0
SEQEND
  8
0
  0
POLYLINE
  8
PLAN_1
 62
     5
  6
CONTINUOUS
 66
     1
 40
0.003000
 41
0.003000
  0
VERTEX
  8
PLAN_1
 62
     5
  6
CONTINUOUS
 10
-0.311665
 20
1.838909
  0
VERTEX
  8
PLAN_1
 62
     5
  6
CONTINUOUS
 10
-0.303339
 20
1.838909
  0
SEQEND
  8
0
  0
POLYLINE
  8
PLAN_1
 62
     5
  6
CONTINUOUS
 66
     1
 40
0.003000
 41
0.003000
  0
VERTEX
  8
PLAN_1
 62
     5
  6
CONTINUOUS
 10
-0.295012
 20
1.838909
  0
VERTEX
  8
PLAN_1
 62
     5
  6
CONTINUOUS
 10
-0.286685
 20
1.838909
  0
SEQEND
  8
0
  0
POLYLINE
  8
PLAN_1
 62
     5
  6
CONTINUOUS
 66
     1
 40
0.003000
 41
0.003000
  0
VERTEX
  8
PLAN_1
 62
     5
  6
CONTINUOUS
 10
-0.278358
 20
1.838909
  0
VERTEX
  8
PLAN_1
 62
     5
  6
CONTINUOUS
 10
-0.270035
 20
1.838909
  0
SEQEND
  8
0
  0
POLYLINE
  8
PLAN_1
 62
     5
  6
CONTINUOUS
 66
     1
 40
0.003000
 41
0.003000
  0
VERTEX
  8
PLAN_1
 62
     5
  6
CONTINUOUS
 10
-0.261709
 20
1.838909
  0
VERTEX
  8
PLAN_1
 62
     5
  6
CONTINUOUS
 10
-0.253795
 20
1.838909
  0
SEQEND
  8
0
  0
POLYLINE
  8
PLAN_1
 62
     5
  6
CONTINUOUS
 66
     1
 40
0.003000
 41
0.003000
  0
VERTEX
  8
PLAN_1
 62
     5
  6
CONTINUOUS
 10
-0.261709
 20
1.838909
  0
VERTEX
  8
PLAN_1
 62
     5
  6
CONTINUOUS
 10
-0.253795
 20
1.838909
  0
SEQEND
  8
0
  0
POLYLINE
  8
PLAN_1
 62
     5
  6
CONTINUOUS
 66
     1
 40
0.003000
 41
0.003000
  0
VERTEX
  8
PLAN_1
 62
     5
  6
CONTINUOUS
 10
-0.439059
 20
1.705685
  0
VERTEX
  8
PLAN_1
 62
     5
  6
CONTINUOUS
 10
-0.439059
 20
1.714012
  0
SEQEND
  8
0
  0
POLYLINE
  8
PLAN_1
 62
     5
  6
CONTINUOUS
 66
     1
 40
0.003000
 41
0.003000
  0
VERTEX
  8
PLAN_1
 62
     5
  6
CONTINUOUS
 10
-0.439059
 20
1.722339
  0
VERTEX
  8
PLAN_1
 62
     5
  6
CONTINUOUS
 10
-0.439059
 20
1.730665
  0
SEQEND
  8
0
  0
POLYLINE
  8
PLAN_1
 62
     5
  6
CONTINUOUS
 66
     1
 40
0.003000
 41
0.003000
  0
VERTEX
  8
PLAN_1
 62
     5
  6
CONTINUOUS
 10
-0.439059
 20
1.738992
  0
VERTEX
  8
PLAN_1
 62
     5
  6
CONTINUOUS
 10
-0.439059
 20
1.747319
  0
SEQEND
  8
0
  0
POLYLINE
  8
PLAN_1
 62
     5
  6
CONTINUOUS
 66
     1
 40
0.003000
 41
0.003000
  0
VERTEX
  8
PLAN_1
 62
     5
  6
CONTINUOUS
 10
-0.439059
 20
1.755646
  0
VERTEX
  8
PLAN_1
 62
     5
  6
CONTINUOUS
 10
-0.439059
 20
1.763969
  0
SEQEND
  8
0
  0
POLYLINE
  8
PLAN_1
 62
     5
  6
CONTINUOUS
 66
     1
 40
0.003000
 41
0.003000
  0
VERTEX
  8
PLAN_1
 62
     5
  6
CONTINUOUS
 10
-0.439059
 20
1.772295
  0
VERTEX
  8
PLAN_1
 62
     5
  6
CONTINUOUS
 10
-0.439059
 20
1.780622
  0
SEQEND
  8
0
  0
POLYLINE
  8
PLAN_1
 62
     5
  6
CONTINUOUS
 66
     1
 40
0.003000
 41
0.003000
  0
VERTEX
  8
PLAN_1
 62
     5
  6
CONTINUOUS
 10
-0.439059
 20
1.788949
  0
VERTEX
  8
PLAN_1
 62
     5
  6
CONTINUOUS
 10
-0.439059
 20
1.797276
  0
SEQEND
  8
0
  0
POLYLINE
  8
PLAN_1
 62
     5
  6
CONTINUOUS
 66
     1
 40
0.003000
 41
0.003000
  0
VERTEX
  8
PLAN_1
 62
     5
  6
CONTINUOUS
 10
-0.439059
 20
1.805602
  0
VERTEX
  8
PLAN_1
 62
     5
  6
CONTINUOUS
 10
-0.439059
 20
1.813929
  0
SEQEND
  8
0
  0
POLYLINE
  8
PLAN_1
 62
     5
  6
CONTINUOUS
 66
     1
 40
0.003000
 41
0.003000
  0
VERTEX
  8
PLAN_1
 62
     5
  6
CONTINUOUS
 10
-0.439059
 20
1.822256
  0
VERTEX
  8
PLAN_1
 62
     5
  6
CONTINUOUS
 10
-0.439059
 20
1.830583
  0
SEQEND
  8
0
  0
POLYLINE
  8
PLAN_1
 62
     5
  6
CONTINUOUS
 66
     1
 40
0.003000
 41
0.003000
  0
VERTEX
  8
PLAN_1
 62
     5
  6
CONTINUOUS
 10
-0.439059
 20
1.838909
  0
VERTEX
  8
PLAN_1
 62
     5
  6
CONTINUOUS
 10
-0.439059
 20
1.847236
  0
SEQEND
  8
0
  0
POLYLINE
  8
PLAN_1
 62
     5
  6
CONTINUOUS
 66
     1
 40
0.003000
 41
0.003000
  0
VERTEX
  8
PLAN_1
 62
     5
  6
CONTINUOUS
 10
-0.439059
 20
1.855559
  0
VERTEX
  8
PLAN_1
 62
     5
  6
CONTINUOUS
 10
-0.439059
 20
1.863886
  0
SEQEND
  8
0
  0
POLYLINE
  8
PLAN_1
 62
     5
  6
CONTINUOUS
 66
     1
 40
0.003000
 41
0.003000
  0
VERTEX
  8
PLAN_1
 62
     5
  6
CONTINUOUS
 10
-0.439059
 20
1.872213
  0
VERTEX
  8
PLAN_1
 62
     5
  6
CONTINUOUS
 10
-0.439059
 20
1.880539
  0
SEQEND
  8
0
  0
POLYLINE
  8
PLAN_1
 62
     5
  6
CONTINUOUS
 66
     1
 40
0.003000
 41
0.003000
  0
VERTEX
  8
PLAN_1
 62
     5
  6
CONTINUOUS
 10
-0.439059
 20
1.888866
  0
VERTEX
  8
PLAN_1
 62
     5
  6
CONTINUOUS
 10
-0.439059
 20
1.897193
  0
SEQEND
  8
0
  0
POLYLINE
  8
PLAN_1
 62
     5
  6
CONTINUOUS
 66
     1
 40
0.003000
 41
0.003000
  0
VERTEX
  8
PLAN_1
 62
     5
  6
CONTINUOUS
 10
-0.439059
 20
1.905520
  0
VERTEX
  8
PLAN_1
 62
     5
  6
CONTINUOUS
 10
-0.439059
 20
1.913846
  0
SEQEND
  8
0
  0
POLYLINE
  8
PLAN_1
 62
     5
  6
CONTINUOUS
 66
     1
 40
0.003000
 41
0.003000
  0
VERTEX
  8
PLAN_1
 62
     5
  6
CONTINUOUS
 10
-0.439059
 20
1.922173
  0
VERTEX
  8
PLAN_1
 62
     5
  6
CONTINUOUS
 10
-0.439059
 20
1.930500
  0
SEQEND
  8
0
  0
POLYLINE
  8
PLAN_1
 62
     5
  6
CONTINUOUS
 66
     1
 40
0.003000
 41
0.003000
  0
VERTEX
  8
PLAN_1
 62
     5
  6
CONTINUOUS
 10
-0.439059
 20
1.938827
  0
VERTEX
  8
PLAN_1
 62
     5
  6
CONTINUOUS
 10
-0.439059
 20
1.947154
  0
SEQEND
  8
0
  0
POLYLINE
  8
PLAN_1
 62
     5
  6
CONTINUOUS
 66
     1
 40
0.003000
 41
0.003000
  0
VERTEX
  8
PLAN_1
 62
     5
  6
CONTINUOUS
 10
-0.439059
 20
1.955476
  0
VERTEX
  8
PLAN_1
 62
     5
  6
CONTINUOUS
 10
-0.439059
 20
1.963803
  0
SEQEND
  8
0
  0
POLYLINE
  8
PLAN_1
 62
     5
  6
CONTINUOUS
 66
     1
 40
0.003000
 41
0.003000
  0
VERTEX
  8
PLAN_1
 62
     5
  6
CONTINUOUS
 10
-0.439059
 20
1.972130
  0
VERTEX
  8
PLAN_1
 62
     5
  6
CONTINUOUS
 10
-0.439059
 20
1.977961
  0
SEQEND
  8
0
  0
POLYLINE
  8
PLAN_1
 62
     5
  6
CONTINUOUS
 66
     1
 40
0.003000
 41
0.003000
  0
VERTEX
  8
PLAN_1
 62
     5
  6
CONTINUOUS
 10
-0.439059
 20
1.972130
  0
VERTEX
  8
PLAN_1
 62
     5
  6
CONTINUOUS
 10
-0.439059
 20
1.977961
  0
SEQEND
  8
0
  0
POLYLINE
  8
PLAN_1
 62
     5
  6
CONTINUOUS
 66
     1
 40
0.003000
 41
0.003000
  0
VERTEX
  8
PLAN_1
 62
     5
  6
CONTINUOUS
 10
-1.857882
 20
1.838492
  0
VERTEX
  8
PLAN_1
 62
     5
  6
CONTINUOUS
 10
-1.849559
 20
1.838492
  0
SEQEND
  8
0
  0
POLYLINE
  8
PLAN_1
 62
     5
  6
CONTINUOUS
 66
     1
 40
0.003000
 41
0.003000
  0
VERTEX
  8
PLAN_1
 62
     5
  6
CONTINUOUS
 10
-1.841232
 20
1.838492
  0
VERTEX
  8
PLAN_1
 62
     5
  6
CONTINUOUS
 10
-1.832906
 20
1.838492
  0
SEQEND
  8
0
  0
POLYLINE
  8
PLAN_1
 62
     5
  6
CONTINUOUS
 66
     1
 40
0.003000
 41
0.003000
  0
VERTEX
  8
PLAN_1
 62
     5
  6
CONTINUOUS
 10
-1.824579
 20
1.838492
  0
VERTEX
  8
PLAN_1
 62
     5
  6
CONTINUOUS
 10
-1.816252
 20
1.838492
  0
SEQEND
  8
0
  0
POLYLINE
  8
PLAN_1
 62
     5
  6
CONTINUOUS
 66
     1
 40
0.003000
 41
0.003000
  0
VERTEX
  8
PLAN_1
 62
     5
  6
CONTINUOUS
 10
-1.807925
 20
1.838492
  0
VERTEX
  8
PLAN_1
 62
     5
  6
CONTINUOUS
 10
-1.799598
 20
1.838492
  0
SEQEND
  8
0
  0
POLYLINE
  8
PLAN_1
 62
     5
  6
CONTINUOUS
 66
     1
 40
0.003000
 41
0.003000
  0
VERTEX
  8
PLAN_1
 62
     5
  6
CONTINUOUS
 10
-1.791272
 20
1.838492
  0
VERTEX
  8
PLAN_1
 62
     5
  6
CONTINUOUS
 10
-1.782945
 20
1.838492
  0
SEQEND
  8
0
  0
POLYLINE
  8
PLAN_1
 62
     5
  6
CONTINUOUS
 66
     1
 40
0.003000
 41
0.003000
  0
VERTEX
  8
PLAN_1
 62
     5
  6
CONTINUOUS
 10
-1.774618
 20
1.838492
  0
VERTEX
  8
PLAN_1
 62
     5
  6
CONTINUOUS
 10
-1.766291
 20
1.838492
  0
SEQEND
  8
0
  0
POLYLINE
  8
PLAN_1
 62
     5
  6
CONTINUOUS
 66
     1
 40
0.003000
 41
0.003000
  0
VERTEX
  8
PLAN_1
 62
     5
  6
CONTINUOUS
 10
-1.757965
 20
1.838492
  0
VERTEX
  8
PLAN_1
 62
     5
  6
CONTINUOUS
 10
-1.749642
 20
1.838492
  0
SEQEND
  8
0
  0
POLYLINE
  8
PLAN_1
 62
     5
  6
CONTINUOUS
 66
     1
 40
0.003000
 41
0.003000
  0
VERTEX
  8
PLAN_1
 62
     5
  6
CONTINUOUS
 10
-1.741315
 20
1.838492
  0
VERTEX
  8
PLAN_1
 62
     5
  6
CONTINUOUS
 10
-1.732571
 20
1.838492
  0
SEQEND
  8
0
  0
POLYLINE
  8
PLAN_1
 62
     5
  6
CONTINUOUS
 66
     1
 40
0.003000
 41
0.003000
  0
VERTEX
  8
PLAN_1
 62
     5
  6
CONTINUOUS
 10
-1.724244
 20
1.838492
  0
VERTEX
  8
PLAN_1
 62
     5
  6
CONTINUOUS
 10
-1.715917
 20
1.838492
  0
SEQEND
  8
0
  0
POLYLINE
  8
PLAN_1
 62
     5
  6
CONTINUOUS
 66
     1
 40
0.003000
 41
0.003000
  0
VERTEX
  8
PLAN_1
 62
     5
  6
CONTINUOUS
 10
-1.707591
 20
1.838492
  0
VERTEX
  8
PLAN_1
 62
     5
  6
CONTINUOUS
 10
-1.699264
 20
1.838492
  0
SEQEND
  8
0
  0
POLYLINE
  8
PLAN_1
 62
     5
  6
CONTINUOUS
 66
     1
 40
0.003000
 41
0.003000
  0
VERTEX
  8
PLAN_1
 62
     5
  6
CONTINUOUS
 10
-1.690937
 20
1.838492
  0
VERTEX
  8
PLAN_1
 62
     5
  6
CONTINUOUS
 10
-1.682614
 20
1.838492
  0
SEQEND
  8
0
  0
POLYLINE
  8
PLAN_1
 62
     5
  6
CONTINUOUS
 66
     1
 40
0.003000
 41
0.003000
  0
VERTEX
  8
PLAN_1
 62
     5
  6
CONTINUOUS
 10
-1.674287
 20
1.838492
  0
VERTEX
  8
PLAN_1
 62
     5
  6
CONTINUOUS
 10
-1.665961
 20
1.838492
  0
SEQEND
  8
0
  0
POLYLINE
  8
PLAN_1
 62
     5
  6
CONTINUOUS
 66
     1
 40
0.003000
 41
0.003000
  0
VERTEX
  8
PLAN_1
 62
     5
  6
CONTINUOUS
 10
-1.657634
 20
1.838492
  0
VERTEX
  8
PLAN_1
 62
     5
  6
CONTINUOUS
 10
-1.649307
 20
1.838492
  0
SEQEND
  8
0
  0
POLYLINE
  8
PLAN_1
 62
     5
  6
CONTINUOUS
 66
     1
 40
0.003000
 41
0.003000
  0
VERTEX
  8
PLAN_1
 62
     5
  6
CONTINUOUS
 10
-1.640980
 20
1.838492
  0
VERTEX
  8
PLAN_1
 62
     5
  6
CONTINUOUS
 10
-1.632654
 20
1.838492
  0
SEQEND
  8
0
  0
POLYLINE
  8
PLAN_1
 62
     5
  6
CONTINUOUS
 66
     1
 40
0.003000
 41
0.003000
  0
VERTEX
  8
PLAN_1
 62
     5
  6
CONTINUOUS
 10
-1.624327
 20
1.838492
  0
VERTEX
  8
PLAN_1
 62
     5
  6
CONTINUOUS
 10
-1.616000
 20
1.838492
  0
SEQEND
  8
0
  0
POLYLINE
  8
PLAN_1
 62
     5
  6
CONTINUOUS
 66
     1
 40
0.003000
 41
0.003000
  0
VERTEX
  8
PLAN_1
 62
     5
  6
CONTINUOUS
 10
-1.607673
 20
1.838492
  0
VERTEX
  8
PLAN_1
 62
     5
  6
CONTINUOUS
 10
-1.599346
 20
1.838492
  0
SEQEND
  8
0
  0
POLYLINE
  8
PLAN_1
 62
     5
  6
CONTINUOUS
 66
     1
 40
0.003000
 41
0.003000
  0
VERTEX
  8
PLAN_1
 62
     5
  6
CONTINUOUS
 10
-1.591020
 20
1.838492
  0
VERTEX
  8
PLAN_1
 62
     5
  6
CONTINUOUS
 10
-1.582697
 20
1.838492
  0
SEQEND
  8
0
  0
POLYLINE
  8
PLAN_1
 62
     5
  6
CONTINUOUS
 66
     1
 40
0.003000
 41
0.003000
  0
VERTEX
  8
PLAN_1
 62
     5
  6
CONTINUOUS
 10
-1.574370
 20
1.838492
  0
VERTEX
  8
PLAN_1
 62
     5
  6
CONTINUOUS
 10
-1.573953
 20
1.838492
  0
SEQEND
  8
0
  0
POLYLINE
  8
PLAN_1
 62
     5
  6
CONTINUOUS
 66
     1
 40
0.003000
 41
0.003000
  0
VERTEX
  8
PLAN_1
 62
     5
  6
CONTINUOUS
 10
-1.574370
 20
1.838492
  0
VERTEX
  8
PLAN_1
 62
     5
  6
CONTINUOUS
 10
-1.573953
 20
1.838492
  0
SEQEND
  8
0
  0
POLYLINE
  8
PLAN_1
 62
     5
  6
CONTINUOUS
 66
     1
 40
0.003000
 41
0.003000
  0
VERTEX
  8
PLAN_1
 62
     5
  6
CONTINUOUS
 10
-1.718417
 20
1.690697
  0
VERTEX
  8
PLAN_1
 62
     5
  6
CONTINUOUS
 10
-1.718417
 20
1.699024
  0
SEQEND
  8
0
  0
POLYLINE
  8
PLAN_1
 62
     5
  6
CONTINUOUS
 66
     1
 40
0.003000
 41
0.003000
  0
VERTEX
  8
PLAN_1
 62
     5
  6
CONTINUOUS
 10
-1.718417
 20
1.707350
  0
VERTEX
  8
PLAN_1
 62
     5
  6
CONTINUOUS
 10
-1.718417
 20
1.715677
  0
SEQEND
  8
0
  0
POLYLINE
  8
PLAN_1
 62
     5
  6
CONTINUOUS
 66
     1
 40
0.003000
 41
0.003000
  0
VERTEX
  8
PLAN_1
 62
     5
  6
CONTINUOUS
 10
-1.718417
 20
1.724004
  0
VERTEX
  8
PLAN_1
 62
     5
  6
CONTINUOUS
 10
-1.718417
 20
1.732331
  0
SEQEND
  8
0
  0
POLYLINE
  8
PLAN_1
 62
     5
  6
CONTINUOUS
 66
     1
 40
0.003000
 41
0.003000
  0
VERTEX
  8
PLAN_1
 62
     5
  6
CONTINUOUS
 10
-1.718417
 20
1.740657
  0
VERTEX
  8
PLAN_1
 62
     5
  6
CONTINUOUS
 10
-1.718417
 20
1.748984
  0
SEQEND
  8
0
  0
POLYLINE
  8
PLAN_1
 62
     5
  6
CONTINUOUS
 66
     1
 40
0.003000
 41
0.003000
  0
VERTEX
  8
PLAN_1
 62
     5
  6
CONTINUOUS
 10
-1.718417
 20
1.757307
  0
VERTEX
  8
PLAN_1
 62
     5
  6
CONTINUOUS
 10
-1.718417
 20
1.765634
  0
SEQEND
  8
0
  0
POLYLINE
  8
PLAN_1
 62
     5
  6
CONTINUOUS
 66
     1
 40
0.003000
 41
0.003000
  0
VERTEX
  8
PLAN_1
 62
     5
  6
CONTINUOUS
 10
-1.718417
 20
1.773961
  0
VERTEX
  8
PLAN_1
 62
     5
  6
CONTINUOUS
 10
-1.718417
 20
1.782287
  0
SEQEND
  8
0
  0
POLYLINE
  8
PLAN_1
 62
     5
  6
CONTINUOUS
 66
     1
 40
0.003000
 41
0.003000
  0
VERTEX
  8
PLAN_1
 62
     5
  6
CONTINUOUS
 10
-1.718417
 20
1.790614
  0
VERTEX
  8
PLAN_1
 62
     5
  6
CONTINUOUS
 10
-1.718417
 20
1.798941
  0
SEQEND
  8
0
  0
POLYLINE
  8
PLAN_1
 62
     5
  6
CONTINUOUS
 66
     1
 40
0.003000
 41
0.003000
  0
VERTEX
  8
PLAN_1
 62
     5
  6
CONTINUOUS
 10
-1.718417
 20
1.807268
  0
VERTEX
  8
PLAN_1
 62
     5
  6
CONTINUOUS
 10
-1.718417
 20
1.815594
  0
SEQEND
  8
0
  0
POLYLINE
  8
PLAN_1
 62
     5
  6
CONTINUOUS
 66
     1
 40
0.003000
 41
0.003000
  0
VERTEX
  8
PLAN_1
 62
     5
  6
CONTINUOUS
 10
-1.718417
 20
1.823921
  0
VERTEX
  8
PLAN_1
 62
     5
  6
CONTINUOUS
 10
-1.718417
 20
1.832248
  0
SEQEND
  8
0
  0
POLYLINE
  8
PLAN_1
 62
     5
  6
CONTINUOUS
 66
     1
 40
0.003000
 41
0.003000
  0
VERTEX
  8
PLAN_1
 62
     5
  6
CONTINUOUS
 10
-1.718417
 20
1.840575
  0
VERTEX
  8
PLAN_1
 62
     5
  6
CONTINUOUS
 10
-1.718417
 20
1.848902
  0
SEQEND
  8
0
  0
POLYLINE
  8
PLAN_1
 62
     5
  6
CONTINUOUS
 66
     1
 40
0.003000
 41
0.003000
  0
VERTEX
  8
PLAN_1
 62
     5
  6
CONTINUOUS
 10
-1.718417
 20
1.857224
  0
VERTEX
  8
PLAN_1
 62
     5
  6
CONTINUOUS
 10
-1.718417
 20
1.865551
  0
SEQEND
  8
0
  0
POLYLINE
  8
PLAN_1
 62
     5
  6
CONTINUOUS
 66
     1
 40
0.003000
 41
0.003000
  0
VERTEX
  8
PLAN_1
 62
     5
  6
CONTINUOUS
 10
-1.718417
 20
1.873878
  0
VERTEX
  8
PLAN_1
 62
     5
  6
CONTINUOUS
 10
-1.718417
 20
1.882205
  0
SEQEND
  8
0
  0
POLYLINE
  8
PLAN_1
 62
     5
  6
CONTINUOUS
 66
     1
 40
0.003000
 41
0.003000
  0
VERTEX
  8
PLAN_1
 62
     5
  6
CONTINUOUS
 10
-1.718417
 20
1.890531
  0
VERTEX
  8
PLAN_1
 62
     5
  6
CONTINUOUS
 10
-1.718417
 20
1.898858
  0
SEQEND
  8
0
  0
POLYLINE
  8
PLAN_1
 62
     5
  6
CONTINUOUS
 66
     1
 40
0.003000
 41
0.003000
  0
VERTEX
  8
PLAN_1
 62
     5
  6
CONTINUOUS
 10
-1.718417
 20
1.907185
  0
VERTEX
  8
PLAN_1
 62
     5
  6
CONTINUOUS
 10
-1.718417
 20
1.915512
  0
SEQEND
  8
0
  0
POLYLINE
  8
PLAN_1
 62
     5
  6
CONTINUOUS
 66
     1
 40
0.003000
 41
0.003000
  0
VERTEX
  8
PLAN_1
 62
     5
  6
CONTINUOUS
 10
-1.718417
 20
1.923839
  0
VERTEX
  8
PLAN_1
 62
     5
  6
CONTINUOUS
 10
-1.718417
 20
1.932165
  0
SEQEND
  8
0
  0
POLYLINE
  8
PLAN_1
 62
     5
  6
CONTINUOUS
 66
     1
 40
0.003000
 41
0.003000
  0
VERTEX
  8
PLAN_1
 62
     5
  6
CONTINUOUS
 10
-1.718417
 20
1.940492
  0
VERTEX
  8
PLAN_1
 62
     5
  6
CONTINUOUS
 10
-1.718417
 20
1.948815
  0
SEQEND
  8
0
  0
POLYLINE
  8
PLAN_1
 62
     5
  6
CONTINUOUS
 66
     1
 40
0.003000
 41
0.003000
  0
VERTEX
  8
PLAN_1
 62
     5
  6
CONTINUOUS
 10
-1.718417
 20
1.957142
  0
VERTEX
  8
PLAN_1
 62
     5
  6
CONTINUOUS
 10
-1.718417
 20
1.965469
  0
SEQEND
  8
0
  0
POLYLINE
  8
PLAN_1
 62
     5
  6
CONTINUOUS
 66
     1
 40
0.003000
 41
0.003000
  0
VERTEX
  8
PLAN_1
 62
     5
  6
CONTINUOUS
 10
-1.718417
 20
1.973795
  0
VERTEX
  8
PLAN_1
 62
     5
  6
CONTINUOUS
 10
-1.718417
 20
1.982122
  0
SEQEND
  8
0
  0
POLYLINE
  8
PLAN_1
 62
     5
  6
CONTINUOUS
 66
     1
 40
0.003000
 41
0.003000
  0
VERTEX
  8
PLAN_1
 62
     5
  6
CONTINUOUS
 10
-1.718417
 20
1.990449
  0
VERTEX
  8
PLAN_1
 62
     5
  6
CONTINUOUS
 10
-1.718417
 20
1.998776
  0
SEQEND
  8
0
  0
POLYLINE
  8
PLAN_1
 62
     5
  6
CONTINUOUS
 66
     1
 40
0.003000
 41
0.003000
  0
VERTEX
  8
PLAN_1
 62
     5
  6
CONTINUOUS
 10
-1.718417
 20
2.007102
  0
VERTEX
  8
PLAN_1
 62
     5
  6
CONTINUOUS
 10
-1.718417
 20
2.015429
  0
SEQEND
  8
0
  0
POLYLINE
  8
PLAN_1
  6
CONTINUOUS
 66
     1
 40
0.008323
 41
0.008323
  0
VERTEX
  8
PLAN_1
  6
CONTINUOUS
 10
-1.762130
 20
3.070386
  0
VERTEX
  8
PLAN_1
  6
CONTINUOUS
 10
-1.762130
 20
2.114098
  0
VERTEX
  8
PLAN_1
  6
CONTINUOUS
 10
-0.395764
 20
2.114098
  0
VERTEX
  8
PLAN_1
  6
CONTINUOUS
 10
-0.395764
 20
3.070386
  0
VERTEX
  8
PLAN_1
  6
CONTINUOUS
 10
-1.762130
 20
3.070386
  0
SEQEND
  8
0
  0
POLYLINE
  8
PLAN_1
  6
CONTINUOUS
 66
     1
 40
0.008323
 41
0.008323
  0
VERTEX
  8
PLAN_1
  6
CONTINUOUS
 10
-1.761713
 20
2.313929
  0
VERTEX
  8
PLAN_1
  6
CONTINUOUS
 10
-1.419913
 20
2.313929
  0
VERTEX
  8
PLAN_1
  6
CONTINUOUS
 10
-1.419913
 20
2.114098
  0
SEQEND
  8
0
  0
POLYLINE
  8
PLAN_1
  6
CONTINUOUS
 66
     1
 40
0.008323
 41
0.008323
  0
VERTEX
  8
PLAN_1
  6
CONTINUOUS
 10
-0.742142
 20
2.114098
  0
VERTEX
  8
PLAN_1
  6
CONTINUOUS
 10
-0.742142
 20
2.313098
  0
VERTEX
  8
PLAN_1
  6
CONTINUOUS
 10
-0.394929
 20
2.313098
  0
SEQEND
  8
0
  0
POLYLINE
  8
PLAN_1
  6
CONTINUOUS
 66
     1
 40
0.008323
 41
0.008323
  0
VERTEX
  8
PLAN_1
  6
CONTINUOUS
 10
-1.514004
 20
2.313929
  0
VERTEX
  8
PLAN_1
  6
CONTINUOUS
 10
-1.514004
 20
2.114098
  0
SEQEND
  8
0
  0
POLYLINE
  8
PLAN_1
  6
CONTINUOUS
 66
     1
 40
0.008323
 41
0.008323
  0
VERTEX
  8
PLAN_1
  6
CONTINUOUS
 10
-0.639311
 20
2.313929
  0
VERTEX
  8
PLAN_1
  6
CONTINUOUS
 10
-0.639311
 20
2.114098
  0
SEQEND
  8
0
  0
POLYLINE
  8
PLAN_1
  6
CONTINUOUS
 66
     1
 40
0.008323
 41
0.008323
  0
VERTEX
  8
PLAN_1
  6
CONTINUOUS
 10
-0.870370
 20
1.681122
  0
VERTEX
  8
PLAN_1
  6
CONTINUOUS
 10
-0.870370
 20
1.729417
  0
VERTEX
  8
PLAN_1
  6
CONTINUOUS
 10
-1.287106
 20
1.729417
  0
VERTEX
  8
PLAN_1
  6
CONTINUOUS
 10
-1.287106
 20
1.681122
  0
VERTEX
  8
PLAN_1
  6
CONTINUOUS
 10
-0.870370
 20
1.681122
  0
SEQEND
  8
0
  0
POLYLINE
  8
PLAN_1
  6
CONTINUOUS
 66
     1
 40
0.008323
 41
0.008323
  0
VERTEX
  8
PLAN_1
  6
CONTINUOUS
 10
-0.518579
 20
2.090366
  0
VERTEX
  8
PLAN_1
  6
CONTINUOUS
 10
-0.518579
 20
2.114098
  0
VERTEX
  8
PLAN_1
  6
CONTINUOUS
 10
-1.638898
 20
2.114098
  0
VERTEX
  8
PLAN_1
  6
CONTINUOUS
 10
-1.638898
 20
2.090366
  0
VERTEX
  8
PLAN_1
  6
CONTINUOUS
 10
-0.518579
 20
2.090366
  0
SEQEND
  8
0
  0
POLYLINE
  8
PLAN_1
  6
CONTINUOUS
 66
     1
 40
0.008323
 41
0.008323
  0
VERTEX
  8
PLAN_1
  6
CONTINUOUS
 10
-0.735063
 20
1.729417
  0
VERTEX
  8
PLAN_1
  6
CONTINUOUS
 10
-0.735063
 20
2.090366
  0
VERTEX
  8
PLAN_1
  6
CONTINUOUS
 10
-1.422409
 20
2.090366
  0
VERTEX
  8
PLAN_1
  6
CONTINUOUS
 10
-1.422409
 20
1.729417
  0
VERTEX
  8
PLAN_1
  6
CONTINUOUS
 10
-0.735063
 20
1.729417
  0
SEQEND
  8
0
  0
POLYLINE
  8
PLAN_1
  6
CONTINUOUS
 66
     1
 40
0.008323
 41
0.008323
  0
VERTEX
  8
PLAN_1
  6
CONTINUOUS
 10
-1.077280
 20
2.258559
  0
VERTEX
  8
PLAN_1
  6
CONTINUOUS
 10
-1.058547
 20
2.258976
  0
VERTEX
  8
PLAN_1
  6
CONTINUOUS
 10
-1.040228
 20
2.260224
  0
VERTEX
  8
PLAN_1
  6
CONTINUOUS
 10
-1.021909
 20
2.262724
  0
VERTEX
  8
PLAN_1
  6
CONTINUOUS
 10
-1.004008
 20
2.265638
  0
VERTEX
  8
PLAN_1
  6
CONTINUOUS
 10
-0.986524
 20
2.269799
  0
VERTEX
  8
PLAN_1
  6
CONTINUOUS
 10
-0.969035
 20
2.274795
  0
VERTEX
  8
PLAN_1
  6
CONTINUOUS
 10
-0.951969
 20
2.280626
  0
VERTEX
  8
PLAN_1
  6
CONTINUOUS
 10
-0.935732
 20
2.286870
  0
VERTEX
  8
PLAN_1
  6
CONTINUOUS
 10
-0.919496
 20
2.294362
  0
VERTEX
  8
PLAN_1
  6
CONTINUOUS
 10
-0.903673
 20
2.302276
  0
VERTEX
  8
PLAN_1
  6
CONTINUOUS
 10
-0.888272
 20
2.311016
  0
VERTEX
  8
PLAN_1
  6
CONTINUOUS
 10
-0.873701
 20
2.320591
  0
VERTEX
  8
PLAN_1
  6
CONTINUOUS
 10
-0.859543
 20
2.331000
  0
VERTEX
  8
PLAN_1
  6
CONTINUOUS
 10
-0.845390
 20
2.341823
  0
VERTEX
  8
PLAN_1
  6
CONTINUOUS
 10
-0.832484
 20
2.353067
  0
VERTEX
  8
PLAN_1
  6
CONTINUOUS
 10
-0.819579
 20
2.365138
  0
VERTEX
  8
PLAN_1
  6
CONTINUOUS
 10
-0.807504
 20
2.377630
  0
VERTEX
  8
PLAN_1
  6
CONTINUOUS
 10
-0.796264
 20
2.390949
  0
VERTEX
  8
PLAN_1
  6
CONTINUOUS
 10
-0.785441
 20
2.404689
  0
VERTEX
  8
PLAN_1
  6
CONTINUOUS
 10
-0.775031
 20
2.419260
  0
VERTEX
  8
PLAN_1
  6
CONTINUOUS
 10
-0.765874
 20
2.433831
  0
VERTEX
  8
PLAN_1
  6
CONTINUOUS
 10
-0.756713
 20
2.449236
  0
VERTEX
  8
PLAN_1
  6
CONTINUOUS
 10
-0.748803
 20
2.465055
  0
VERTEX
  8
PLAN_1
  6
CONTINUOUS
 10
-0.741724
 20
2.480874
  0
VERTEX
  8
PLAN_1
  6
CONTINUOUS
 10
-0.735063
 20
2.497528
  0
VERTEX
  8
PLAN_1
  6
CONTINUOUS
 10
-0.729236
 20
2.514598
  0
VERTEX
  8
PLAN_1
  6
CONTINUOUS
 10
-0.724240
 20
2.531665
  0
VERTEX
  8
PLAN_1
  6
CONTINUOUS
 10
-0.720492
 20
2.549567
  0
VERTEX
  8
PLAN_1
  6
CONTINUOUS
 10
-0.717161
 20
2.567472
  0
VERTEX
  8
PLAN_1
  6
CONTINUOUS
 10
-0.714665
 20
2.585787
  0
VERTEX
  8
PLAN_1
  6
CONTINUOUS
 10
-0.713417
 20
2.604106
  0
VERTEX
  8
PLAN_1
  6
CONTINUOUS
 10
-0.713000
 20
2.622843
  0
VERTEX
  8
PLAN_1
  6
CONTINUOUS
 10
-0.713417
 20
2.641575
  0
VERTEX
  8
PLAN_1
  6
CONTINUOUS
 10
-0.714665
 20
2.660311
  0
VERTEX
  8
PLAN_1
  6
CONTINUOUS
 10
-0.717161
 20
2.678630
  0
VERTEX
  8
PLAN_1
  6
CONTINUOUS
 10
-0.720492
 20
2.696531
  0
VERTEX
  8
PLAN_1
  6
CONTINUOUS
 10
-0.724240
 20
2.714016
  0
VERTEX
  8
PLAN_1
  6
CONTINUOUS
 10
-0.729236
 20
2.731500
  0
VERTEX
  8
PLAN_1
  6
CONTINUOUS
 10
-0.735063
 20
2.748154
  0
VERTEX
  8
PLAN_1
  6
CONTINUOUS
 10
-0.741724
 20
2.764807
  0
VERTEX
  8
PLAN_1
  6
CONTINUOUS
 10
-0.748803
 20
2.781043
  0
VERTEX
  8
PLAN_1
  6
CONTINUOUS
 10
-0.756713
 20
2.796862
  0
VERTEX
  8
PLAN_1
  6
CONTINUOUS
 10
-0.765874
 20
2.811850
  0
VERTEX
  8
PLAN_1
  6
CONTINUOUS
 10
-0.775031
 20
2.826839
  0
VERTEX
  8
PLAN_1
  6
CONTINUOUS
 10
-0.785441
 20
2.840992
  0
VERTEX
  8
PLAN_1
  6
CONTINUOUS
 10
-0.796264
 20
2.854732
  0
VERTEX
  8
PLAN_1
  6
CONTINUOUS
 10
-0.807504
 20
2.868055
  0
VERTEX
  8
PLAN_1
  6
CONTINUOUS
 10
-0.819579
 20
2.880543
  0
VERTEX
  8
PLAN_1
  6
CONTINUOUS
 10
-0.832484
 20
2.892618
  0
VERTEX
  8
PLAN_1
  6
CONTINUOUS
 10
-0.845390
 20
2.904276
  0
VERTEX
  8
PLAN_1
  6
CONTINUOUS
 10
-0.859543
 20
2.915098
  0
VERTEX
  8
PLAN_1
  6
CONTINUOUS
 10
-0.873701
 20
2.925091
  0
VERTEX
  8
PLAN_1
  6
CONTINUOUS
 10
-0.888272
 20
2.934665
  0
VERTEX
  8
PLAN_1
  6
CONTINUOUS
 10
-0.903673
 20
2.943409
  0
VERTEX
  8
PLAN_1
  6
CONTINUOUS
 10
-0.919496
 20
2.951736
  0
VERTEX
  8
PLAN_1
  6
CONTINUOUS
 10
-0.935732
 20
2.958811
  0
VERTEX
  8
PLAN_1
  6
CONTINUOUS
 10
-0.951969
 20
2.965472
  0
VERTEX
  8
PLAN_1
  6
CONTINUOUS
 10
-0.969035
 20
2.971303
  0
VERTEX
  8
PLAN_1
  6
CONTINUOUS
 10
-0.986524
 20
2.975882
  0
VERTEX
  8
PLAN_1
  6
CONTINUOUS
 10
-1.004008
 20
2.980043
  0
VERTEX
  8
PLAN_1
  6
CONTINUOUS
 10
-1.021909
 20
2.983374
  0
VERTEX
  8
PLAN_1
  6
CONTINUOUS
 10
-1.040228
 20
2.985457
  0
VERTEX
  8
PLAN_1
  6
CONTINUOUS
 10
-1.058547
 20
2.987122
  0
VERTEX
  8
PLAN_1
  6
CONTINUOUS
 10
-1.077280
 20
2.987539
  0
VERTEX
  8
PLAN_1
  6
CONTINUOUS
 10
-1.096433
 20
2.987122
  0
VERTEX
  8
PLAN_1
  6
CONTINUOUS
 10
-1.114748
 20
2.985457
  0
VERTEX
  8
PLAN_1
  6
CONTINUOUS
 10
-1.133067
 20
2.983374
  0
VERTEX
  8
PLAN_1
  6
CONTINUOUS
 10
-1.150969
 20
2.980043
  0
VERTEX
  8
PLAN_1
  6
CONTINUOUS
 10
-1.168457
 20
2.975882
  0
VERTEX
  8
PLAN_1
  6
CONTINUOUS
 10
-1.185941
 20
2.971303
  0
VERTEX
  8
PLAN_1
  6
CONTINUOUS
 10
-1.203012
 20
2.965472
  0
VERTEX
  8
PLAN_1
  6
CONTINUOUS
 10
-1.219248
 20
2.958811
  0
VERTEX
  8
PLAN_1
  6
CONTINUOUS
 10
-1.235484
 20
2.951736
  0
VERTEX
  8
PLAN_1
  6
CONTINUOUS
 10
-1.251303
 20
2.943409
  0
VERTEX
  8
PLAN_1
  6
CONTINUOUS
 10
-1.266709
 20
2.934665
  0
VERTEX
  8
PLAN_1
  6
CONTINUOUS
 10
-1.281280
 20
2.925091
  0
VERTEX
  8
PLAN_1
  6
CONTINUOUS
 10
-1.295433
 20
2.915098
  0
VERTEX
  8
PLAN_1
  6
CONTINUOUS
 10
-1.309173
 20
2.904276
  0
VERTEX
  8
PLAN_1
  6
CONTINUOUS
 10
-1.322496
 20
2.892618
  0
VERTEX
  8
PLAN_1
  6
CONTINUOUS
 10
-1.335402
 20
2.880543
  0
VERTEX
  8
PLAN_1
  6
CONTINUOUS
 10
-1.347472
 20
2.868055
  0
VERTEX
  8
PLAN_1
  6
CONTINUOUS
 10
-1.358713
 20
2.854732
  0
VERTEX
  8
PLAN_1
  6
CONTINUOUS
 10
-1.369539
 20
2.840992
  0
VERTEX
  8
PLAN_1
  6
CONTINUOUS
 10
-1.379945
 20
2.826839
  0
VERTEX
  8
PLAN_1
  6
CONTINUOUS
 10
-1.389106
 20
2.811850
  0
VERTEX
  8
PLAN_1
  6
CONTINUOUS
 10
-1.397846
 20
2.796862
  0
VERTEX
  8
PLAN_1
  6
CONTINUOUS
 10
-1.406173
 20
2.781043
  0
VERTEX
  8
PLAN_1
  6
CONTINUOUS
 10
-1.413252
 20
2.764807
  0
VERTEX
  8
PLAN_1
  6
CONTINUOUS
 10
-1.419913
 20
2.748154
  0
VERTEX
  8
PLAN_1
  6
CONTINUOUS
 10
-1.425740
 20
2.731500
  0
VERTEX
  8
PLAN_1
  6
CONTINUOUS
 10
-1.430736
 20
2.714016
  0
VERTEX
  8
PLAN_1
  6
CONTINUOUS
 10
-1.434484
 20
2.696531
  0
VERTEX
  8
PLAN_1
  6
CONTINUOUS
 10
-1.437815
 20
2.678630
  0
VERTEX
  8
PLAN_1
  6
CONTINUOUS
 10
-1.440315
 20
2.660311
  0
VERTEX
  8
PLAN_1
  6
CONTINUOUS
 10
-1.441563
 20
2.641575
  0
VERTEX
  8
PLAN_1
  6
CONTINUOUS
 10
-1.441980
 20
2.622843
  0
VERTEX
  8
PLAN_1
  6
CONTINUOUS
 10
-1.441563
 20
2.604106
  0
VERTEX
  8
PLAN_1
  6
CONTINUOUS
 10
-1.440315
 20
2.585787
  0
VERTEX
  8
PLAN_1
  6
CONTINUOUS
 10
-1.437815
 20
2.567472
  0
VERTEX
  8
PLAN_1
  6
CONTINUOUS
 10
-1.434484
 20
2.549567
  0
VERTEX
  8
PLAN_1
  6
CONTINUOUS
 10
-1.430736
 20
2.531665
  0
VERTEX
  8
PLAN_1
  6
CONTINUOUS
 10
-1.425740
 20
2.514598
  0
VERTEX
  8
PLAN_1
  6
CONTINUOUS
 10
-1.419913
 20
2.497528
  0
VERTEX
  8
PLAN_1
  6
CONTINUOUS
 10
-1.413252
 20
2.480874
  0
VERTEX
  8
PLAN_1
  6
CONTINUOUS
 10
-1.406173
 20
2.465055
  0
VERTEX
  8
PLAN_1
  6
CONTINUOUS
 10
-1.397846
 20
2.449236
  0
VERTEX
  8
PLAN_1
  6
CONTINUOUS
 10
-1.389106
 20
2.433831
  0
VERTEX
  8
PLAN_1
  6
CONTINUOUS
 10
-1.379945
 20
2.419260
  0
VERTEX
  8
PLAN_1
  6
CONTINUOUS
 10
-1.369539
 20
2.404689
  0
VERTEX
  8
PLAN_1
  6
CONTINUOUS
 10
-1.358713
 20
2.390949
  0
VERTEX
  8
PLAN_1
  6
CONTINUOUS
 10
-1.347472
 20
2.377630
  0
VERTEX
  8
PLAN_1
  6
CONTINUOUS
 10
-1.335402
 20
2.365138
  0
VERTEX
  8
PLAN_1
  6
CONTINUOUS
 10
-1.322496
 20
2.353067
  0
VERTEX
  8
PLAN_1
  6
CONTINUOUS
 10
-1.309173
 20
2.341823
  0
VERTEX
  8
PLAN_1
  6
CONTINUOUS
 10
-1.295433
 20
2.331000
  0
VERTEX
  8
PLAN_1
  6
CONTINUOUS
 10
-1.281280
 20
2.320591
  0
VERTEX
  8
PLAN_1
  6
CONTINUOUS
 10
-1.266709
 20
2.311016
  0
VERTEX
  8
PLAN_1
  6
CONTINUOUS
 10
-1.251303
 20
2.302276
  0
VERTEX
  8
PLAN_1
  6
CONTINUOUS
 10
-1.235484
 20
2.294362
  0
VERTEX
  8
PLAN_1
  6
CONTINUOUS
 10
-1.219248
 20
2.286870
  0
VERTEX
  8
PLAN_1
  6
CONTINUOUS
 10
-1.203012
 20
2.280626
  0
VERTEX
  8
PLAN_1
  6
CONTINUOUS
 10
-1.185941
 20
2.274795
  0
VERTEX
  8
PLAN_1
  6
CONTINUOUS
 10
-1.168457
 20
2.269799
  0
VERTEX
  8
PLAN_1
  6
CONTINUOUS
 10
-1.150969
 20
2.265638
  0
VERTEX
  8
PLAN_1
  6
CONTINUOUS
 10
-1.133067
 20
2.262724
  0
VERTEX
  8
PLAN_1
  6
CONTINUOUS
 10
-1.114748
 20
2.260224
  0
VERTEX
  8
PLAN_1
  6
CONTINUOUS
 10
-1.096433
 20
2.258976
  0
VERTEX
  8
PLAN_1
  6
CONTINUOUS
 10
-1.077280
 20
2.258559
  0
SEQEND
  8
0
  0
POLYLINE
  8
PLAN_1
  6
CONTINUOUS
 66
     1
 40
0.008323
 41
0.008323
  0
VERTEX
  8
PLAN_1
  6
CONTINUOUS
 10
-1.077697
 20
2.312264
  0
VERTEX
  8
PLAN_1
  6
CONTINUOUS
 10
-1.061878
 20
2.312681
  0
VERTEX
  8
PLAN_1
  6
CONTINUOUS
 10
-1.046055
 20
2.313929
  0
VERTEX
  8
PLAN_1
  6
CONTINUOUS
 10
-1.030654
 20
2.316012
  0
VERTEX
  8
PLAN_1
  6
CONTINUOUS
 10
-1.015248
 20
2.318512
  0
VERTEX
  8
PLAN_1
  6
CONTINUOUS
 10
-1.000260
 20
2.321843
  0
VERTEX
  8
PLAN_1
  6
CONTINUOUS
 10
-0.985276
 20
2.326421
  0
VERTEX
  8
PLAN_1
  6
CONTINUOUS
 10
-0.971118
 20
2.331000
  0
VERTEX
  8
PLAN_1
  6
CONTINUOUS
 10
-0.956965
 20
2.336827
  0
VERTEX
  8
PLAN_1
  6
CONTINUOUS
 10
-0.943224
 20
2.343075
  0
VERTEX
  8
PLAN_1
  6
CONTINUOUS
 10
-0.929902
 20
2.349736
  0
VERTEX
  8
PLAN_1
  6
CONTINUOUS
 10
-0.916583
 20
2.357228
  0
VERTEX
  8
PLAN_1
  6
CONTINUOUS
 10
-0.904091
 20
2.365138
  0
VERTEX
  8
PLAN_1
  6
CONTINUOUS
 10
-0.892020
 20
2.373882
  0
VERTEX
  8
PLAN_1
  6
CONTINUOUS
 10
-0.880362
 20
2.383039
  0
VERTEX
  8
PLAN_1
  6
CONTINUOUS
 10
-0.869122
 20
2.393031
  0
VERTEX
  8
PLAN_1
  6
CONTINUOUS
 10
-0.858295
 20
2.403441
  0
VERTEX
  8
PLAN_1
  6
CONTINUOUS
 10
-0.847886
 20
2.413846
  0
VERTEX
  8
PLAN_1
  6
CONTINUOUS
 10
-0.837898
 20
2.425504
  0
VERTEX
  8
PLAN_1
  6
CONTINUOUS
 10
-0.828736
 20
2.437161
  0
VERTEX
  8
PLAN_1
  6
CONTINUOUS
 10
-0.820409
 20
2.449236
  0
VERTEX
  8
PLAN_1
  6
CONTINUOUS
 10
-0.812083
 20
2.461724
  0
VERTEX
  8
PLAN_1
  6
CONTINUOUS
 10
-0.804591
 20
2.475047
  0
VERTEX
  8
PLAN_1
  6
CONTINUOUS
 10
-0.797929
 20
2.488370
  0
VERTEX
  8
PLAN_1
  6
CONTINUOUS
 10
-0.791685
 20
2.502106
  0
VERTEX
  8
PLAN_1
  6
CONTINUOUS
 10
-0.785854
 20
2.516264
  0
VERTEX
  8
PLAN_1
  6
CONTINUOUS
 10
-0.781276
 20
2.530417
  0
VERTEX
  8
PLAN_1
  6
CONTINUOUS
 10
-0.777114
 20
2.545406
  0
VERTEX
  8
PLAN_1
  6
CONTINUOUS
 10
-0.773366
 20
2.560394
  0
VERTEX
  8
PLAN_1
  6
CONTINUOUS
 10
-0.770870
 20
2.575795
  0
VERTEX
  8
PLAN_1
  6
CONTINUOUS
 10
-0.768787
 20
2.591201
  0
VERTEX
  8
PLAN_1
  6
CONTINUOUS
 10
-0.767539
 20
2.607020
  0
VERTEX
  8
PLAN_1
  6
CONTINUOUS
 10
-0.767122
 20
2.622843
  0
VERTEX
  8
PLAN_1
  6
CONTINUOUS
 10
-0.767539
 20
2.639079
  0
VERTEX
  8
PLAN_1
  6
CONTINUOUS
 10
-0.768787
 20
2.654898
  0
VERTEX
  8
PLAN_1
  6
CONTINUOUS
 10
-0.770870
 20
2.670303
  0
VERTEX
  8
PLAN_1
  6
CONTINUOUS
 10
-0.773366
 20
2.685705
  0
VERTEX
  8
PLAN_1
  6
CONTINUOUS
 10
-0.777114
 20
2.700693
  0
VERTEX
  8
PLAN_1
  6
CONTINUOUS
 10
-0.781276
 20
2.715264
  0
VERTEX
  8
PLAN_1
  6
CONTINUOUS
 10
-0.785854
 20
2.729835
  0
VERTEX
  8
PLAN_1
  6
CONTINUOUS
 10
-0.791685
 20
2.743992
  0
VERTEX
  8
PLAN_1
  6
CONTINUOUS
 10
-0.797929
 20
2.757728
  0
VERTEX
  8
PLAN_1
  6
CONTINUOUS
 10
-0.804591
 20
2.771051
  0
VERTEX
  8
PLAN_1
  6
CONTINUOUS
 10
-0.812083
 20
2.783957
  0
VERTEX
  8
PLAN_1
  6
CONTINUOUS
 10
-0.820409
 20
2.796862
  0
VERTEX
  8
PLAN_1
  6
CONTINUOUS
 10
-0.828736
 20
2.808937
  0
VERTEX
  8
PLAN_1
  6
CONTINUOUS
 10
-0.837898
 20
2.820594
  0
VERTEX
  8
PLAN_1
  6
CONTINUOUS
 10
-0.847886
 20
2.831835
  0
VERTEX
  8
PLAN_1
  6
CONTINUOUS
 10
-0.858295
 20
2.842657
  0
VERTEX
  8
PLAN_1
  6
CONTINUOUS
 10
-0.869122
 20
2.853067
  0
VERTEX
  8
PLAN_1
  6
CONTINUOUS
 10
-0.880362
 20
2.862642
  0
VERTEX
  8
PLAN_1
  6
CONTINUOUS
 10
-0.892020
 20
2.871803
  0
VERTEX
  8
PLAN_1
  6
CONTINUOUS
 10
-0.904091
 20
2.880543
  0
VERTEX
  8
PLAN_1
  6
CONTINUOUS
 10
-0.916583
 20
2.888870
  0
VERTEX
  8
PLAN_1
  6
CONTINUOUS
 10
-0.929902
 20
2.896366
  0
VERTEX
  8
PLAN_1
  6
CONTINUOUS
 10
-0.943224
 20
2.903028
  0
VERTEX
  8
PLAN_1
  6
CONTINUOUS
 10
-0.956965
 20
2.909272
  0
VERTEX
  8
PLAN_1
  6
CONTINUOUS
 10
-0.971118
 20
2.914681
  0
VERTEX
  8
PLAN_1
  6
CONTINUOUS
 10
-0.985276
 20
2.919677
  0
VERTEX
  8
PLAN_1
  6
CONTINUOUS
 10
-1.000260
 20
2.923843
  0
VERTEX
  8
PLAN_1
  6
CONTINUOUS
 10
-1.015248
 20
2.927173
  0
VERTEX
  8
PLAN_1
  6
CONTINUOUS
 10
-1.030654
 20
2.930087
  0
VERTEX
  8
PLAN_1
  6
CONTINUOUS
 10
-1.046055
 20
2.932169
  0
VERTEX
  8
PLAN_1
  6
CONTINUOUS
 10
-1.061878
 20
2.933417
  0
VERTEX
  8
PLAN_1
  6
CONTINUOUS
 10
-1.077697
 20
2.933835
  0
VERTEX
  8
PLAN_1
  6
CONTINUOUS
 10
-1.093933
 20
2.933417
  0
VERTEX
  8
PLAN_1
  6
CONTINUOUS
 10
-1.109752
 20
2.932169
  0
VERTEX
  8
PLAN_1
  6
CONTINUOUS
 10
-1.125157
 20
2.930087
  0
VERTEX
  8
PLAN_1
  6
CONTINUOUS
 10
-1.140563
 20
2.927173
  0
VERTEX
  8
PLAN_1
  6
CONTINUOUS
 10
-1.155551
 20
2.923843
  0
VERTEX
  8
PLAN_1
  6
CONTINUOUS
 10
-1.170122
 20
2.919677
  0
VERTEX
  8
PLAN_1
  6
CONTINUOUS
 10
-1.184693
 20
2.914681
  0
VERTEX
  8
PLAN_1
  6
CONTINUOUS
 10
-1.198846
 20
2.909272
  0
VERTEX
  8
PLAN_1
  6
CONTINUOUS
 10
-1.212587
 20
2.903028
  0
VERTEX
  8
PLAN_1
  6
CONTINUOUS
 10
-1.225909
 20
2.896366
  0
VERTEX
  8
PLAN_1
  6
CONTINUOUS
 10
-1.238815
 20
2.888870
  0
VERTEX
  8
PLAN_1
  6
CONTINUOUS
 10
-1.251720
 20
2.880543
  0
VERTEX
  8
PLAN_1
  6
CONTINUOUS
 10
-1.263791
 20
2.871803
  0
VERTEX
  8
PLAN_1
  6
CONTINUOUS
 10
-1.275449
 20
2.862642
  0
VERTEX
  8
PLAN_1
  6
CONTINUOUS
 10
-1.286689
 20
2.853067
  0
VERTEX
  8
PLAN_1
  6
CONTINUOUS
 10
-1.297516
 20
2.842657
  0
VERTEX
  8
PLAN_1
  6
CONTINUOUS
 10
-1.307921
 20
2.831835
  0
VERTEX
  8
PLAN_1
  6
CONTINUOUS
 10
-1.317500
 20
2.820594
  0
VERTEX
  8
PLAN_1
  6
CONTINUOUS
 10
-1.326657
 20
2.808937
  0
VERTEX
  8
PLAN_1
  6
CONTINUOUS
 10
-1.335402
 20
2.796862
  0
VERTEX
  8
PLAN_1
  6
CONTINUOUS
 10
-1.343728
 20
2.783957
  0
VERTEX
  8
PLAN_1
  6
CONTINUOUS
 10
-1.351220
 20
2.771051
  0
VERTEX
  8
PLAN_1
  6
CONTINUOUS
 10
-1.357882
 20
2.757728
  0
VERTEX
  8
PLAN_1
  6
CONTINUOUS
 10
-1.364126
 20
2.743992
  0
VERTEX
  8
PLAN_1
  6
CONTINUOUS
 10
-1.369539
 20
2.729835
  0
VERTEX
  8
PLAN_1
  6
CONTINUOUS
 10
-1.374535
 20
2.715264
  0
VERTEX
  8
PLAN_1
  6
CONTINUOUS
 10
-1.378697
 20
2.700693
  0
VERTEX
  8
PLAN_1
  6
CONTINUOUS
 10
-1.382445
 20
2.685705
  0
VERTEX
  8
PLAN_1
  6
CONTINUOUS
 10
-1.384941
 20
2.670303
  0
VERTEX
  8
PLAN_1
  6
CONTINUOUS
 10
-1.387024
 20
2.654898
  0
VERTEX
  8
PLAN_1
  6
CONTINUOUS
 10
-1.388272
 20
2.639079
  0
VERTEX
  8
PLAN_1
  6
CONTINUOUS
 10
-1.388689
 20
2.622843
  0
VERTEX
  8
PLAN_1
  6
CONTINUOUS
 10
-1.388272
 20
2.607020
  0
VERTEX
  8
PLAN_1
  6
CONTINUOUS
 10
-1.387024
 20
2.591201
  0
VERTEX
  8
PLAN_1
  6
CONTINUOUS
 10
-1.384941
 20
2.575795
  0
VERTEX
  8
PLAN_1
  6
CONTINUOUS
 10
-1.382445
 20
2.560394
  0
VERTEX
  8
PLAN_1
  6
CONTINUOUS
 10
-1.378697
 20
2.545406
  0
VERTEX
  8
PLAN_1
  6
CONTINUOUS
 10
-1.374535
 20
2.530417
  0
VERTEX
  8
PLAN_1
  6
CONTINUOUS
 10
-1.369539
 20
2.516264
  0
VERTEX
  8
PLAN_1
  6
CONTINUOUS
 10
-1.364126
 20
2.502106
  0
VERTEX
  8
PLAN_1
  6
CONTINUOUS
 10
-1.357882
 20
2.488370
  0
VERTEX
  8
PLAN_1
  6
CONTINUOUS
 10
-1.351220
 20
2.475047
  0
VERTEX
  8
PLAN_1
  6
CONTINUOUS
 10
-1.343728
 20
2.461724
  0
VERTEX
  8
PLAN_1
  6
CONTINUOUS
 10
-1.335402
 20
2.449236
  0
VERTEX
  8
PLAN_1
  6
CONTINUOUS
 10
-1.326657
 20
2.437161
  0
VERTEX
  8
PLAN_1
  6
CONTINUOUS
 10
-1.317500
 20
2.425504
  0
VERTEX
  8
PLAN_1
  6
CONTINUOUS
 10
-1.307921
 20
2.413846
  0
VERTEX
  8
PLAN_1
  6
CONTINUOUS
 10
-1.297516
 20
2.403441
  0
VERTEX
  8
PLAN_1
  6
CONTINUOUS
 10
-1.286689
 20
2.393031
  0
VERTEX
  8
PLAN_1
  6
CONTINUOUS
 10
-1.275449
 20
2.383039
  0
VERTEX
  8
PLAN_1
  6
CONTINUOUS
 10
-1.263791
 20
2.373882
  0
VERTEX
  8
PLAN_1
  6
CONTINUOUS
 10
-1.251720
 20
2.365138
  0
VERTEX
  8
PLAN_1
  6
CONTINUOUS
 10
-1.238815
 20
2.357228
  0
VERTEX
  8
PLAN_1
  6
CONTINUOUS
 10
-1.225909
 20
2.349736
  0
VERTEX
  8
PLAN_1
  6
CONTINUOUS
 10
-1.212587
 20
2.343075
  0
VERTEX
  8
PLAN_1
  6
CONTINUOUS
 10
-1.198846
 20
2.336827
  0
VERTEX
  8
PLAN_1
  6
CONTINUOUS
 10
-1.184693
 20
2.331000
  0
VERTEX
  8
PLAN_1
  6
CONTINUOUS
 10
-1.170122
 20
2.326421
  0
VERTEX
  8
PLAN_1
  6
CONTINUOUS
 10
-1.155551
 20
2.321843
  0
VERTEX
  8
PLAN_1
  6
CONTINUOUS
 10
-1.140563
 20
2.318512
  0
VERTEX
  8
PLAN_1
  6
CONTINUOUS
 10
-1.125157
 20
2.316012
  0
VERTEX
  8
PLAN_1
  6
CONTINUOUS
 10
-1.109752
 20
2.313929
  0
VERTEX
  8
PLAN_1
  6
CONTINUOUS
 10
-1.093933
 20
2.312681
  0
VERTEX
  8
PLAN_1
  6
CONTINUOUS
 10
-1.077697
 20
2.312264
  0
SEQEND
  8
0
  0
POLYLINE
  8
PLAN_1
  6
CONTINUOUS
 66
     1
 40
0.008323
 41
0.008323
  0
VERTEX
  8
PLAN_1
  6
CONTINUOUS
 10
-1.076866
 20
2.415098
  0
VERTEX
  8
PLAN_1
  6
CONTINUOUS
 10
-1.066457
 20
2.415098
  0
VERTEX
  8
PLAN_1
  6
CONTINUOUS
 10
-1.055634
 20
2.415929
  0
VERTEX
  8
PLAN_1
  6
CONTINUOUS
 10
-1.045224
 20
2.417177
  0
VERTEX
  8
PLAN_1
  6
CONTINUOUS
 10
-1.035232
 20
2.419260
  0
VERTEX
  8
PLAN_1
  6
CONTINUOUS
 10
-1.025240
 20
2.421343
  0
VERTEX
  8
PLAN_1
  6
CONTINUOUS
 10
-1.015248
 20
2.424256
  0
VERTEX
  8
PLAN_1
  6
CONTINUOUS
 10
-1.005673
 20
2.427587
  0
VERTEX
  8
PLAN_1
  6
CONTINUOUS
 10
-0.996516
 20
2.431335
  0
VERTEX
  8
PLAN_1
  6
CONTINUOUS
 10
-0.986941
 20
2.435496
  0
VERTEX
  8
PLAN_1
  6
CONTINUOUS
 10
-0.978197
 20
2.440075
  0
VERTEX
  8
PLAN_1
  6
CONTINUOUS
 10
-0.969453
 20
2.445071
  0
VERTEX
  8
PLAN_1
  6
CONTINUOUS
 10
-0.961126
 20
2.450484
  0
VERTEX
  8
PLAN_1
  6
CONTINUOUS
 10
-0.952799
 20
2.455898
  0
VERTEX
  8
PLAN_1
  6
CONTINUOUS
 10
-0.945307
 20
2.462142
  0
VERTEX
  8
PLAN_1
  6
CONTINUOUS
 10
-0.937815
 20
2.468803
  0
VERTEX
  8
PLAN_1
  6
CONTINUOUS
 10
-0.930319
 20
2.475465
  0
VERTEX
  8
PLAN_1
  6
CONTINUOUS
 10
-0.923657
 20
2.482957
  0
VERTEX
  8
PLAN_1
  6
CONTINUOUS
 10
-0.916996
 20
2.490453
  0
VERTEX
  8
PLAN_1
  6
CONTINUOUS
 10
-0.911169
 20
2.497945
  0
VERTEX
  8
PLAN_1
  6
CONTINUOUS
 10
-0.905339
 20
2.506272
  0
VERTEX
  8
PLAN_1
  6
CONTINUOUS
 10
-0.899929
 20
2.514598
  0
VERTEX
  8
PLAN_1
  6
CONTINUOUS
 10
-0.894933
 20
2.523339
  0
VERTEX
  8
PLAN_1
  6
CONTINUOUS
 10
-0.890354
 20
2.532083
  0
VERTEX
  8
PLAN_1
  6
CONTINUOUS
 10
-0.886189
 20
2.541244
  0
VERTEX
  8
PLAN_1
  6
CONTINUOUS
 10
-0.882441
 20
2.550819
  0
VERTEX
  8
PLAN_1
  6
CONTINUOUS
 10
-0.879110
 20
2.560394
  0
VERTEX
  8
PLAN_1
  6
CONTINUOUS
 10
-0.876197
 20
2.570386
  0
VERTEX
  8
PLAN_1
  6
CONTINUOUS
 10
-0.874114
 20
2.580378
  0
VERTEX
  8
PLAN_1
  6
CONTINUOUS
 10
-0.872035
 20
2.590370
  0
VERTEX
  8
PLAN_1
  6
CONTINUOUS
 10
-0.870783
 20
2.600776
  0
VERTEX
  8
PLAN_1
  6
CONTINUOUS
 10
-0.869953
 20
2.611602
  0
VERTEX
  8
PLAN_1
  6
CONTINUOUS
 10
-0.869953
 20
2.622008
  0
VERTEX
  8
PLAN_1
  6
CONTINUOUS
 10
-0.869953
 20
2.632835
  0
VERTEX
  8
PLAN_1
  6
CONTINUOUS
 10
-0.870783
 20
2.643240
  0
VERTEX
  8
PLAN_1
  6
CONTINUOUS
 10
-0.872035
 20
2.653650
  0
VERTEX
  8
PLAN_1
  6
CONTINUOUS
 10
-0.874114
 20
2.663642
  0
VERTEX
  8
PLAN_1
  6
CONTINUOUS
 10
-0.876197
 20
2.673634
  0
VERTEX
  8
PLAN_1
  6
CONTINUOUS
 10
-0.879110
 20
2.683626
  0
VERTEX
  8
PLAN_1
  6
CONTINUOUS
 10
-0.882441
 20
2.693201
  0
VERTEX
  8
PLAN_1
  6
CONTINUOUS
 10
-0.886189
 20
2.702776
  0
VERTEX
  8
PLAN_1
  6
CONTINUOUS
 10
-0.890354
 20
2.711933
  0
VERTEX
  8
PLAN_1
  6
CONTINUOUS
 10
-0.894933
 20
2.720677
  0
VERTEX
  8
PLAN_1
  6
CONTINUOUS
 10
-0.899929
 20
2.729421
  0
VERTEX
  8
PLAN_1
  6
CONTINUOUS
 10
-0.905339
 20
2.737748
  0
VERTEX
  8
PLAN_1
  6
CONTINUOUS
 10
-0.911169
 20
2.746071
  0
VERTEX
  8
PLAN_1
  6
CONTINUOUS
 10
-0.916996
 20
2.753984
  0
VERTEX
  8
PLAN_1
  6
CONTINUOUS
 10
-0.923657
 20
2.761476
  0
VERTEX
  8
PLAN_1
  6
CONTINUOUS
 10
-0.930319
 20
2.768555
  0
VERTEX
  8
PLAN_1
  6
CONTINUOUS
 10
-0.937815
 20
2.775217
  0
VERTEX
  8
PLAN_1
  6
CONTINUOUS
 10
-0.945307
 20
2.781878
  0
VERTEX
  8
PLAN_1
  6
CONTINUOUS
 10
-0.952799
 20
2.788122
  0
VERTEX
  8
PLAN_1
  6
CONTINUOUS
 10
-0.961126
 20
2.793949
  0
VERTEX
  8
PLAN_1
  6
CONTINUOUS
 10
-0.969453
 20
2.799362
  0
VERTEX
  8
PLAN_1
  6
CONTINUOUS
 10
-0.978197
 20
2.804358
  0
VERTEX
  8
PLAN_1
  6
CONTINUOUS
 10
-0.986941
 20
2.808937
  0
VERTEX
  8
PLAN_1
  6
CONTINUOUS
 10
-0.996516
 20
2.813098
  0
VERTEX
  8
PLAN_1
  6
CONTINUOUS
 10
-1.005673
 20
2.816429
  0
VERTEX
  8
PLAN_1
  6
CONTINUOUS
 10
-1.015248
 20
2.819760
  0
VERTEX
  8
PLAN_1
  6
CONTINUOUS
 10
-1.025240
 20
2.822677
  0
VERTEX
  8
PLAN_1
  6
CONTINUOUS
 10
-1.035232
 20
2.825173
  0
VERTEX
  8
PLAN_1
  6
CONTINUOUS
 10
-1.045224
 20
2.826839
  0
VERTEX
  8
PLAN_1
  6
CONTINUOUS
 10
-1.055634
 20
2.828087
  0
VERTEX
  8
PLAN_1
  6
CONTINUOUS
 10
-1.066457
 20
2.828921
  0
VERTEX
  8
PLAN_1
  6
CONTINUOUS
 10
-1.076866
 20
2.829339
  0
VERTEX
  8
PLAN_1
  6
CONTINUOUS
 10
-1.087689
 20
2.828921
  0
VERTEX
  8
PLAN_1
  6
CONTINUOUS
 10
-1.098098
 20
2.828087
  0
VERTEX
  8
PLAN_1
  6
CONTINUOUS
 10
-1.108504
 20
2.826839
  0
VERTEX
  8
PLAN_1
  6
CONTINUOUS
 10
-1.118496
 20
2.825173
  0
VERTEX
  8
PLAN_1
  6
CONTINUOUS
 10
-1.128906
 20
2.822677
  0
VERTEX
  8
PLAN_1
  6
CONTINUOUS
 10
-1.138480
 20
2.819760
  0
VERTEX
  8
PLAN_1
  6
CONTINUOUS
 10
-1.148055
 20
2.816429
  0
VERTEX
  8
PLAN_1
  6
CONTINUOUS
 10
-1.157630
 20
2.813098
  0
VERTEX
  8
PLAN_1
  6
CONTINUOUS
 10
-1.166791
 20
2.808937
  0
VERTEX
  8
PLAN_1
  6
CONTINUOUS
 10
-1.175531
 20
2.804358
  0
VERTEX
  8
PLAN_1
  6
CONTINUOUS
 10
-1.184276
 20
2.799362
  0
VERTEX
  8
PLAN_1
  6
CONTINUOUS
 10
-1.192602
 20
2.793949
  0
VERTEX
  8
PLAN_1
  6
CONTINUOUS
 10
-1.200929
 20
2.788122
  0
VERTEX
  8
PLAN_1
  6
CONTINUOUS
 10
-1.208839
 20
2.781878
  0
VERTEX
  8
PLAN_1
  6
CONTINUOUS
 10
-1.216331
 20
2.775217
  0
VERTEX
  8
PLAN_1
  6
CONTINUOUS
 10
-1.223409
 20
2.768555
  0
VERTEX
  8
PLAN_1
  6
CONTINUOUS
 10
-1.230071
 20
2.761476
  0
VERTEX
  8
PLAN_1
  6
CONTINUOUS
 10
-1.236732
 20
2.753984
  0
VERTEX
  8
PLAN_1
  6
CONTINUOUS
 10
-1.242976
 20
2.746071
  0
VERTEX
  8
PLAN_1
  6
CONTINUOUS
 10
-1.248807
 20
2.737748
  0
VERTEX
  8
PLAN_1
  6
CONTINUOUS
 10
-1.254217
 20
2.729421
  0
VERTEX
  8
PLAN_1
  6
CONTINUOUS
 10
-1.259213
 20
2.720677
  0
VERTEX
  8
PLAN_1
  6
CONTINUOUS
 10
-1.263791
 20
2.711933
  0
VERTEX
  8
PLAN_1
  6
CONTINUOUS
 10
-1.267957
 20
2.702776
  0
VERTEX
  8
PLAN_1
  6
CONTINUOUS
 10
-1.271705
 20
2.693201
  0
VERTEX
  8
PLAN_1
  6
CONTINUOUS
 10
-1.274618
 20
2.683626
  0
VERTEX
  8
PLAN_1
  6
CONTINUOUS
 10
-1.277531
 20
2.673634
  0
VERTEX
  8
PLAN_1
  6
CONTINUOUS
 10
-1.280028
 20
2.663642
  0
VERTEX
  8
PLAN_1
  6
CONTINUOUS
 10
-1.281693
 20
2.653650
  0
VERTEX
  8
PLAN_1
  6
CONTINUOUS
 10
-1.282945
 20
2.643240
  0
VERTEX
  8
PLAN_1
  6
CONTINUOUS
 10
-1.283776
 20
2.632835
  0
VERTEX
  8
PLAN_1
  6
CONTINUOUS
 10
-1.284193
 20
2.622008
  0
VERTEX
  8
PLAN_1
  6
CONTINUOUS
 10
-1.283776
 20
2.611602
  0
VERTEX
  8
PLAN_1
  6
CONTINUOUS
 10
-1.282945
 20
2.600776
  0
VERTEX
  8
PLAN_1
  6
CONTINUOUS
 10
-1.281693
 20
2.590370
  0
VERTEX
  8
PLAN_1
  6
CONTINUOUS
 10
-1.280028
 20
2.580378
  0
VERTEX
  8
PLAN_1
  6
CONTINUOUS
 10
-1.277531
 20
2.570386
  0
VERTEX
  8
PLAN_1
  6
CONTINUOUS
 10
-1.274618
 20
2.560394
  0
VERTEX
  8
PLAN_1
  6
CONTINUOUS
 10
-1.271705
 20
2.550819
  0
VERTEX
  8
PLAN_1
  6
CONTINUOUS
 10
-1.267957
 20
2.541244
  0
VERTEX
  8
PLAN_1
  6
CONTINUOUS
 10
-1.263791
 20
2.532083
  0
VERTEX
  8
PLAN_1
  6
CONTINUOUS
 10
-1.259213
 20
2.523339
  0
VERTEX
  8
PLAN_1
  6
CONTINUOUS
 10
-1.254217
 20
2.514598
  0
VERTEX
  8
PLAN_1
  6
CONTINUOUS
 10
-1.248807
 20
2.506272
  0
VERTEX
  8
PLAN_1
  6
CONTINUOUS
 10
-1.242976
 20
2.497945
  0
VERTEX
  8
PLAN_1
  6
CONTINUOUS
 10
-1.236732
 20
2.490453
  0
VERTEX
  8
PLAN_1
  6
CONTINUOUS
 10
-1.230071
 20
2.482957
  0
VERTEX
  8
PLAN_1
  6
CONTINUOUS
 10
-1.223409
 20
2.475465
  0
VERTEX
  8
PLAN_1
  6
CONTINUOUS
 10
-1.216331
 20
2.468803
  0
VERTEX
  8
PLAN_1
  6
CONTINUOUS
 10
-1.208839
 20
2.462142
  0
VERTEX
  8
PLAN_1
  6
CONTINUOUS
 10
-1.200929
 20
2.455898
  0
VERTEX
  8
PLAN_1
  6
CONTINUOUS
 10
-1.192602
 20
2.450484
  0
VERTEX
  8
PLAN_1
  6
CONTINUOUS
 10
-1.184276
 20
2.445071
  0
VERTEX
  8
PLAN_1
  6
CONTINUOUS
 10
-1.175531
 20
2.440075
  0
VERTEX
  8
PLAN_1
  6
CONTINUOUS
 10
-1.166791
 20
2.435496
  0
VERTEX
  8
PLAN_1
  6
CONTINUOUS
 10
-1.157630
 20
2.431335
  0
VERTEX
  8
PLAN_1
  6
CONTINUOUS
 10
-1.148055
 20
2.427587
  0
VERTEX
  8
PLAN_1
  6
CONTINUOUS
 10
-1.138480
 20
2.424256
  0
VERTEX
  8
PLAN_1
  6
CONTINUOUS
 10
-1.128906
 20
2.421343
  0
VERTEX
  8
PLAN_1
  6
CONTINUOUS
 10
-1.118496
 20
2.419260
  0
VERTEX
  8
PLAN_1
  6
CONTINUOUS
 10
-1.108504
 20
2.417177
  0
VERTEX
  8
PLAN_1
  6
CONTINUOUS
 10
-1.098098
 20
2.415929
  0
VERTEX
  8
PLAN_1
  6
CONTINUOUS
 10
-1.087689
 20
2.415098
  0
VERTEX
  8
PLAN_1
  6
CONTINUOUS
 10
-1.076866
 20
2.415098
  0
SEQEND
  8
0
  0
POLYLINE
  8
PLAN_1
  6
CONTINUOUS
 66
     1
 40
0.008323
 41
0.008323
  0
VERTEX
  8
PLAN_1
  6
CONTINUOUS
 10
-0.829984
 20
2.519594
  0
VERTEX
  8
PLAN_1
  6
CONTINUOUS
 10
-0.829984
 20
2.726504
  0
VERTEX
  8
PLAN_1
  6
CONTINUOUS
 10
-1.327488
 20
2.726504
  0
VERTEX
  8
PLAN_1
  6
CONTINUOUS
 10
-1.327488
 20
2.519594
  0
VERTEX
  8
PLAN_1
  6
CONTINUOUS
 10
-0.829984
 20
2.519594
  0
SEQEND
  8
0
  0
POLYLINE
  8
PLAN_1
 62
     2
  6
CONTINUOUS
 66
     1
 40
0.004161
 41
0.004161
  0
VERTEX
  8
PLAN_1
 62
     2
  6
CONTINUOUS
 10
-0.063953
 20
1.838909
  0
VERTEX
  8
PLAN_1
 62
     2
  6
CONTINUOUS
 10
-0.224240
 20
1.838909
  0
SEQEND
  8
0
  0
POLYLINE
  8
PLAN_1
 62
     2
  6
CONTINUOUS
 66
     1
 40
0.004161
 41
0.004161
  0
VERTEX
  8
PLAN_1
 62
     2
  6
CONTINUOUS
 10
-0.068949
 20
2.624091
  0
VERTEX
  8
PLAN_1
 62
     2
  6
CONTINUOUS
 10
-0.809169
 20
2.624091
  0
SEQEND
  8
0
  0
POLYLINE
  8
PLAN_1
 62
     2
  6
CONTINUOUS
 66
     1
 40
0.004161
 41
0.004161
  0
VERTEX
  8
PLAN_1
 62
     2
  6
CONTINUOUS
 10
-0.087685
 20
1.867634
  0
VERTEX
  8
PLAN_1
 62
     2
  6
CONTINUOUS
 10
-0.087685
 20
2.594531
  0
SEQEND
  8
0
  0
POLYLINE
  8
PLAN_1
 62
     2
  6
CONTINUOUS
 66
     1
 40
0.013736
 41
0.013736
  0
VERTEX
  8
PLAN_1
 62
     2
  6
CONTINUOUS
 10
-0.087685
 20
2.624091
  0
VERTEX
  8
PLAN_1
 62
     2
  6
CONTINUOUS
 10
-0.103504
 20
2.564972
  0
VERTEX
  8
PLAN_1
 62
     2
  6
CONTINUOUS
 10
-0.071866
 20
2.564972
  0
VERTEX
  8
PLAN_1
 62
     2
  6
CONTINUOUS
 10
-0.087685
 20
2.624091
  0
SEQEND
  8
0
  0
POLYLINE
  8
PLAN_1
 62
     2
  6
CONTINUOUS
 66
     1
 40
0.013736
 41
0.013736
  0
VERTEX
  8
PLAN_1
 62
     2
  6
CONTINUOUS
 10
-0.087685
 20
1.838075
  0
VERTEX
  8
PLAN_1
 62
     2
  6
CONTINUOUS
 10
-0.103504
 20
1.897193
  0
VERTEX
  8
PLAN_1
 62
     2
  6
CONTINUOUS
 10
-0.071866
 20
1.897193
  0
VERTEX
  8
PLAN_1
 62
     2
  6
CONTINUOUS
 10
-0.087685
 20
1.838075
  0
SEQEND
  8
0
  0
POLYLINE
  8
PLAN_1
 62
     2
  6
CONTINUOUS
 66
     1
 40
0.013736
 41
0.013736
  0
VERTEX
  8
PLAN_1
 62
     2
  6
CONTINUOUS
 10
-0.158043
 20
2.177795
  0
VERTEX
  8
PLAN_1
 62
     2
  6
CONTINUOUS
 10
-0.162205
 20
2.177795
  0
VERTEX
  8
PLAN_1
 62
     2
  6
CONTINUOUS
 10
-0.165953
 20
2.178626
  0
VERTEX
  8
PLAN_1
 62
     2
  6
CONTINUOUS
 10
-0.169283
 20
2.179461
  0
VERTEX
  8
PLAN_1
 62
     2
  6
CONTINUOUS
 10
-0.172197
 20
2.180709
  0
VERTEX
  8
PLAN_1
 62
     2
  6
CONTINUOUS
 10
-0.174697
 20
2.181957
  0
VERTEX
  8
PLAN_1
 62
     2
  6
CONTINUOUS
 10
-0.176776
 20
2.183622
  0
VERTEX
  8
PLAN_1
 62
     2
  6
CONTINUOUS
 10
-0.178858
 20
2.185705
  0
VERTEX
  8
PLAN_1
 62
     2
  6
CONTINUOUS
 10
-0.180106
 20
2.187370
  0
VERTEX
  8
PLAN_1
 62
     2
  6
CONTINUOUS
 10
-0.181358
 20
2.189449
  0
VERTEX
  8
PLAN_1
 62
     2
  6
CONTINUOUS
 10
-0.182189
 20
2.191531
  0
VERTEX
  8
PLAN_1
 62
     2
  6
CONTINUOUS
 10
-0.183024
 20
2.193614
  0
VERTEX
  8
PLAN_1
 62
     2
  6
CONTINUOUS
 10
-0.183437
 20
2.195697
  0
VERTEX
  8
PLAN_1
 62
     2
  6
CONTINUOUS
 10
-0.184272
 20
2.199858
  0
VERTEX
  8
PLAN_1
 62
     2
  6
CONTINUOUS
 10
-0.184272
 20
2.203189
  0
VERTEX
  8
PLAN_1
 62
     2
  6
CONTINUOUS
 10
-0.183854
 20
2.207768
  0
VERTEX
  8
PLAN_1
 62
     2
  6
CONTINUOUS
 10
-0.183024
 20
2.211933
  0
VERTEX
  8
PLAN_1
 62
     2
  6
CONTINUOUS
 10
-0.182189
 20
2.214012
  0
VERTEX
  8
PLAN_1
 62
     2
  6
CONTINUOUS
 10
-0.180941
 20
2.215677
  0
VERTEX
  8
PLAN_1
 62
     2
  6
CONTINUOUS
 10
-0.179693
 20
2.217760
  0
VERTEX
  8
PLAN_1
 62
     2
  6
CONTINUOUS
 10
-0.178441
 20
2.219425
  0
VERTEX
  8
PLAN_1
 62
     2
  6
CONTINUOUS
 10
-0.177193
 20
2.220673
  0
VERTEX
  8
PLAN_1
 62
     2
  6
CONTINUOUS
 10
-0.175528
 20
2.221925
  0
VERTEX
  8
PLAN_1
 62
     2
  6
CONTINUOUS
 10
-0.173449
 20
2.223173
  0
VERTEX
  8
PLAN_1
 62
     2
  6
CONTINUOUS
 10
-0.171783
 20
2.224004
  0
VERTEX
  8
PLAN_1
 62
     2
  6
CONTINUOUS
 10
-0.169701
 20
2.224839
  0
VERTEX
  8
PLAN_1
 62
     2
  6
CONTINUOUS
 10
-0.167201
 20
2.225669
  0
VERTEX
  8
PLAN_1
 62
     2
  6
CONTINUOUS
 10
-0.165122
 20
2.225669
  0
VERTEX
  8
PLAN_1
 62
     2
  6
CONTINUOUS
 10
-0.162622
 20
2.226087
  0
VERTEX
  8
PLAN_1
 62
     2
  6
CONTINUOUS
 10
-0.158043
 20
2.225669
  0
VERTEX
  8
PLAN_1
 62
     2
  6
CONTINUOUS
 10
-0.153878
 20
2.224421
  0
VERTEX
  8
PLAN_1
 62
     2
  6
CONTINUOUS
 10
-0.150551
 20
2.222756
  0
VERTEX
  8
PLAN_1
 62
     2
  6
CONTINUOUS
 10
-0.147634
 20
2.220260
  0
VERTEX
  8
PLAN_1
 62
     2
  6
CONTINUOUS
 10
-0.144720
 20
2.217343
  0
VERTEX
  8
PLAN_1
 62
     2
  6
CONTINUOUS
 10
-0.142638
 20
2.214012
  0
VERTEX
  8
PLAN_1
 62
     2
  6
CONTINUOUS
 10
-0.140142
 20
2.210268
  0
VERTEX
  8
PLAN_1
 62
     2
  6
CONTINUOUS
 10
-0.138059
 20
2.206520
  0
VERTEX
  8
PLAN_1
 62
     2
  6
CONTINUOUS
 10
-0.133898
 20
2.198610
  0
VERTEX
  8
PLAN_1
 62
     2
  6
CONTINUOUS
 10
-0.131815
 20
2.195280
  0
VERTEX
  8
PLAN_1
 62
     2
  6
CONTINUOUS
 10
-0.129732
 20
2.192780
  0
VERTEX
  8
PLAN_1
 62
     2
  6
CONTINUOUS
 10
-0.127654
 20
2.190701
  0
VERTEX
  8
PLAN_1
 62
     2
  6
CONTINUOUS
 10
-0.125988
 20
2.189035
  0
VERTEX
  8
PLAN_1
 62
     2
  6
CONTINUOUS
 10
-0.123906
 20
2.187783
  0
VERTEX
  8
PLAN_1
 62
     2
  6
CONTINUOUS
 10
-0.122240
 20
2.186953
  0
VERTEX
  8
PLAN_1
 62
     2
  6
CONTINUOUS
 10
-0.120992
 20
2.186535
  0
VERTEX
  8
PLAN_1
 62
     2
  6
CONTINUOUS
 10
-0.119740
 20
2.186122
  0
VERTEX
  8
PLAN_1
 62
     2
  6
CONTINUOUS
 10
-0.119740
 20
2.226087
  0
VERTEX
  8
PLAN_1
 62
     2
  6
CONTINUOUS
 10
-0.111000
 20
2.226087
  0
VERTEX
  8
PLAN_1
 62
     2
  6
CONTINUOUS
 10
-0.111000
 20
2.175713
  0
VERTEX
  8
PLAN_1
 62
     2
  6
CONTINUOUS
 10
-0.116409
 20
2.176543
  0
VERTEX
  8
PLAN_1
 62
     2
  6
CONTINUOUS
 10
-0.121406
 20
2.177378
  0
VERTEX
  8
PLAN_1
 62
     2
  6
CONTINUOUS
 10
-0.125571
 20
2.179043
  0
VERTEX
  8
PLAN_1
 62
     2
  6
CONTINUOUS
 10
-0.129315
 20
2.181126
  0
VERTEX
  8
PLAN_1
 62
     2
  6
CONTINUOUS
 10
-0.132646
 20
2.183622
  0
VERTEX
  8
PLAN_1
 62
     2
  6
CONTINUOUS
 10
-0.135563
 20
2.186535
  0
VERTEX
  8
PLAN_1
 62
     2
  6
CONTINUOUS
 10
-0.138059
 20
2.189449
  0
VERTEX
  8
PLAN_1
 62
     2
  6
CONTINUOUS
 10
-0.140142
 20
2.193197
  0
VERTEX
  8
PLAN_1
 62
     2
  6
CONTINUOUS
 10
-0.145969
 20
2.202772
  0
VERTEX
  8
PLAN_1
 62
     2
  6
CONTINUOUS
 10
-0.147634
 20
2.205689
  0
VERTEX
  8
PLAN_1
 62
     2
  6
CONTINUOUS
 10
-0.148886
 20
2.208185
  0
VERTEX
  8
PLAN_1
 62
     2
  6
CONTINUOUS
 10
-0.150551
 20
2.210268
  0
VERTEX
  8
PLAN_1
 62
     2
  6
CONTINUOUS
 10
-0.152630
 20
2.212346
  0
VERTEX
  8
PLAN_1
 62
     2
  6
CONTINUOUS
 10
-0.154295
 20
2.214012
  0
VERTEX
  8
PLAN_1
 62
     2
  6
CONTINUOUS
 10
-0.156795
 20
2.215264
  0
VERTEX
  8
PLAN_1
 62
     2
  6
CONTINUOUS
 10
-0.159709
 20
2.216094
  0
VERTEX
  8
PLAN_1
 62
     2
  6
CONTINUOUS
 10
-0.163039
 20
2.216094
  0
VERTEX
  8
PLAN_1
 62
     2
  6
CONTINUOUS
 10
-0.165122
 20
2.216094
  0
VERTEX
  8
PLAN_1
 62
     2
  6
CONTINUOUS
 10
-0.167618
 20
2.215264
  0
VERTEX
  8
PLAN_1
 62
     2
  6
CONTINUOUS
 10
-0.169701
 20
2.214429
  0
VERTEX
  8
PLAN_1
 62
     2
  6
CONTINUOUS
 10
-0.171783
 20
2.212764
  0
VERTEX
  8
PLAN_1
 62
     2
  6
CONTINUOUS
 10
-0.173449
 20
2.211098
  0
VERTEX
  8
PLAN_1
 62
     2
  6
CONTINUOUS
 10
-0.174697
 20
2.208602
  0
VERTEX
  8
PLAN_1
 62
     2
  6
CONTINUOUS
 10
-0.175945
 20
2.205272
  0
VERTEX
  8
PLAN_1
 62
     2
  6
CONTINUOUS
 10
-0.175945
 20
2.201524
  0
VERTEX
  8
PLAN_1
 62
     2
  6
CONTINUOUS
 10
-0.175945
 20
2.199441
  0
VERTEX
  8
PLAN_1
 62
     2
  6
CONTINUOUS
 10
-0.175528
 20
2.196945
  0
VERTEX
  8
PLAN_1
 62
     2
  6
CONTINUOUS
 10
-0.174697
 20
2.195280
  0
VERTEX
  8
PLAN_1
 62
     2
  6
CONTINUOUS
 10
-0.173862
 20
2.193614
  0
VERTEX
  8
PLAN_1
 62
     2
  6
CONTINUOUS
 10
-0.173031
 20
2.192366
  0
VERTEX
  8
PLAN_1
 62
     2
  6
CONTINUOUS
 10
-0.171783
 20
2.191114
  0
VERTEX
  8
PLAN_1
 62
     2
  6
CONTINUOUS
 10
-0.170531
 20
2.189866
  0
VERTEX
  8
PLAN_1
 62
     2
  6
CONTINUOUS
 10
-0.168866
 20
2.189449
  0
VERTEX
  8
PLAN_1
 62
     2
  6
CONTINUOUS
 10
-0.165953
 20
2.188201
  0
VERTEX
  8
PLAN_1
 62
     2
  6
CONTINUOUS
 10
-0.163039
 20
2.187370
  0
VERTEX
  8
PLAN_1
 62
     2
  6
CONTINUOUS
 10
-0.160539
 20
2.186953
  0
VERTEX
  8
PLAN_1
 62
     2
  6
CONTINUOUS
 10
-0.158043
 20
2.186953
  0
VERTEX
  8
PLAN_1
 62
     2
  6
CONTINUOUS
 10
-0.158043
 20
2.177795
  0
SEQEND
  8
0
  0
POLYLINE
  8
PLAN_1
 62
     2
  6
CONTINUOUS
 66
     1
 40
0.013736
 41
0.013736
  0
VERTEX
  8
PLAN_1
 62
     2
  6
CONTINUOUS
 10
-0.109335
 20
2.259807
  0
VERTEX
  8
PLAN_1
 62
     2
  6
CONTINUOUS
 10
-0.109335
 20
2.256063
  0
VERTEX
  8
PLAN_1
 62
     2
  6
CONTINUOUS
 10
-0.110165
 20
2.252732
  0
VERTEX
  8
PLAN_1
 62
     2
  6
CONTINUOUS
 10
-0.111413
 20
2.249819
  0
VERTEX
  8
PLAN_1
 62
     2
  6
CONTINUOUS
 10
-0.113079
 20
2.247319
  0
VERTEX
  8
PLAN_1
 62
     2
  6
CONTINUOUS
 10
-0.114744
 20
2.244823
  0
VERTEX
  8
PLAN_1
 62
     2
  6
CONTINUOUS
 10
-0.117244
 20
2.242740
  0
VERTEX
  8
PLAN_1
 62
     2
  6
CONTINUOUS
 10
-0.119740
 20
2.241075
  0
VERTEX
  8
PLAN_1
 62
     2
  6
CONTINUOUS
 10
-0.122240
 20
2.239409
  0
VERTEX
  8
PLAN_1
 62
     2
  6
CONTINUOUS
 10
-0.125154
 20
2.238161
  0
VERTEX
  8
PLAN_1
 62
     2
  6
CONTINUOUS
 10
-0.128067
 20
2.237327
  0
VERTEX
  8
PLAN_1
 62
     2
  6
CONTINUOUS
 10
-0.131398
 20
2.236496
  0
VERTEX
  8
PLAN_1
 62
     2
  6
CONTINUOUS
 10
-0.134311
 20
2.236079
  0
VERTEX
  8
PLAN_1
 62
     2
  6
CONTINUOUS
 10
-0.140972
 20
2.235248
  0
VERTEX
  8
PLAN_1
 62
     2
  6
CONTINUOUS
 10
-0.146803
 20
2.234831
  0
VERTEX
  8
PLAN_1
 62
     2
  6
CONTINUOUS
 10
-0.152630
 20
2.235248
  0
VERTEX
  8
PLAN_1
 62
     2
  6
CONTINUOUS
 10
-0.158874
 20
2.236079
  0
VERTEX
  8
PLAN_1
 62
     2
  6
CONTINUOUS
 10
-0.162205
 20
2.236496
  0
VERTEX
  8
PLAN_1
 62
     2
  6
CONTINUOUS
 10
-0.165535
 20
2.237327
  0
VERTEX
  8
PLAN_1
 62
     2
  6
CONTINUOUS
 10
-0.168453
 20
2.238161
  0
VERTEX
  8
PLAN_1
 62
     2
  6
CONTINUOUS
 10
-0.171366
 20
2.239409
  0
VERTEX
  8
PLAN_1
 62
     2
  6
CONTINUOUS
 10
-0.173862
 20
2.241075
  0
VERTEX
  8
PLAN_1
 62
     2
  6
CONTINUOUS
 10
-0.176362
 20
2.242740
  0
VERTEX
  8
PLAN_1
 62
     2
  6
CONTINUOUS
 10
-0.178858
 20
2.244823
  0
VERTEX
  8
PLAN_1
 62
     2
  6
CONTINUOUS
 10
-0.180524
 20
2.247319
  0
VERTEX
  8
PLAN_1
 62
     2
  6
CONTINUOUS
 10
-0.182189
 20
2.249819
  0
VERTEX
  8
PLAN_1
 62
     2
  6
CONTINUOUS
 10
-0.183437
 20
2.252732
  0
VERTEX
  8
PLAN_1
 62
     2
  6
CONTINUOUS
 10
-0.184272
 20
2.256063
  0
VERTEX
  8
PLAN_1
 62
     2
  6
CONTINUOUS
 10
-0.184272
 20
2.259807
  0
VERTEX
  8
PLAN_1
 62
     2
  6
CONTINUOUS
 10
-0.184272
 20
2.263555
  0
VERTEX
  8
PLAN_1
 62
     2
  6
CONTINUOUS
 10
-0.183437
 20
2.267303
  0
VERTEX
  8
PLAN_1
 62
     2
  6
CONTINUOUS
 10
-0.182189
 20
2.270217
  0
VERTEX
  8
PLAN_1
 62
     2
  6
CONTINUOUS
 10
-0.180524
 20
2.272717
  0
VERTEX
  8
PLAN_1
 62
     2
  6
CONTINUOUS
 10
-0.178858
 20
2.275213
  0
VERTEX
  8
PLAN_1
 62
     2
  6
CONTINUOUS
 10
-0.176362
 20
2.277295
  0
VERTEX
  8
PLAN_1
 62
     2
  6
CONTINUOUS
 10
-0.173862
 20
2.278961
  0
VERTEX
  8
PLAN_1
 62
     2
  6
CONTINUOUS
 10
-0.171366
 20
2.280626
  0
VERTEX
  8
PLAN_1
 62
     2
  6
CONTINUOUS
 10
-0.168453
 20
2.281874
  0
VERTEX
  8
PLAN_1
 62
     2
  6
CONTINUOUS
 10
-0.165535
 20
2.282709
  0
VERTEX
  8
PLAN_1
 62
     2
  6
CONTINUOUS
 10
-0.162205
 20
2.283539
  0
VERTEX
  8
PLAN_1
 62
     2
  6
CONTINUOUS
 10
-0.158874
 20
2.283957
  0
VERTEX
  8
PLAN_1
 62
     2
  6
CONTINUOUS
 10
-0.152630
 20
2.284787
  0
VERTEX
  8
PLAN_1
 62
     2
  6
CONTINUOUS
 10
-0.146803
 20
2.285205
  0
VERTEX
  8
PLAN_1
 62
     2
  6
CONTINUOUS
 10
-0.140972
 20
2.284787
  0
VERTEX
  8
PLAN_1
 62
     2
  6
CONTINUOUS
 10
-0.134311
 20
2.283957
  0
VERTEX
  8
PLAN_1
 62
     2
  6
CONTINUOUS
 10
-0.131398
 20
2.283539
  0
VERTEX
  8
PLAN_1
 62
     2
  6
CONTINUOUS
 10
-0.128067
 20
2.282709
  0
VERTEX
  8
PLAN_1
 62
     2
  6
CONTINUOUS
 10
-0.125154
 20
2.281874
  0
VERTEX
  8
PLAN_1
 62
     2
  6
CONTINUOUS
 10
-0.122240
 20
2.280626
  0
VERTEX
  8
PLAN_1
 62
     2
  6
CONTINUOUS
 10
-0.119740
 20
2.278961
  0
VERTEX
  8
PLAN_1
 62
     2
  6
CONTINUOUS
 10
-0.117244
 20
2.277295
  0
VERTEX
  8
PLAN_1
 62
     2
  6
CONTINUOUS
 10
-0.114744
 20
2.275213
  0
VERTEX
  8
PLAN_1
 62
     2
  6
CONTINUOUS
 10
-0.113079
 20
2.272717
  0
VERTEX
  8
PLAN_1
 62
     2
  6
CONTINUOUS
 10
-0.111413
 20
2.270217
  0
VERTEX
  8
PLAN_1
 62
     2
  6
CONTINUOUS
 10
-0.110165
 20
2.267303
  0
VERTEX
  8
PLAN_1
 62
     2
  6
CONTINUOUS
 10
-0.109335
 20
2.263555
  0
VERTEX
  8
PLAN_1
 62
     2
  6
CONTINUOUS
 10
-0.109335
 20
2.259807
  0
SEQEND
  8
0
  0
POLYLINE
  8
PLAN_1
 62
     2
  6
CONTINUOUS
 66
     1
 40
0.013736
 41
0.013736
  0
VERTEX
  8
PLAN_1
 62
     2
  6
CONTINUOUS
 10
-0.175945
 20
2.259807
  0
VERTEX
  8
PLAN_1
 62
     2
  6
CONTINUOUS
 10
-0.175945
 20
2.258146
  0
VERTEX
  8
PLAN_1
 62
     2
  6
CONTINUOUS
 10
-0.175528
 20
2.256480
  0
VERTEX
  8
PLAN_1
 62
     2
  6
CONTINUOUS
 10
-0.175114
 20
2.254815
  0
VERTEX
  8
PLAN_1
 62
     2
  6
CONTINUOUS
 10
-0.174280
 20
2.253150
  0
VERTEX
  8
PLAN_1
 62
     2
  6
CONTINUOUS
 10
-0.173031
 20
2.251898
  0
VERTEX
  8
PLAN_1
 62
     2
  6
CONTINUOUS
 10
-0.171783
 20
2.250650
  0
VERTEX
  8
PLAN_1
 62
     2
  6
CONTINUOUS
 10
-0.170118
 20
2.249402
  0
VERTEX
  8
PLAN_1
 62
     2
  6
CONTINUOUS
 10
-0.168453
 20
2.248567
  0
VERTEX
  8
PLAN_1
 62
     2
  6
CONTINUOUS
 10
-0.164287
 20
2.246902
  0
VERTEX
  8
PLAN_1
 62
     2
  6
CONTINUOUS
 10
-0.159291
 20
2.245654
  0
VERTEX
  8
PLAN_1
 62
     2
  6
CONTINUOUS
 10
-0.153465
 20
2.244823
  0
VERTEX
  8
PLAN_1
 62
     2
  6
CONTINUOUS
 10
-0.146803
 20
2.244823
  0
VERTEX
  8
PLAN_1
 62
     2
  6
CONTINUOUS
 10
-0.140142
 20
2.244823
  0
VERTEX
  8
PLAN_1
 62
     2
  6
CONTINUOUS
 10
-0.134311
 20
2.245654
  0
VERTEX
  8
PLAN_1
 62
     2
  6
CONTINUOUS
 10
-0.129315
 20
2.246902
  0
VERTEX
  8
PLAN_1
 62
     2
  6
CONTINUOUS
 10
-0.125154
 20
2.248567
  0
VERTEX
  8
PLAN_1
 62
     2
  6
CONTINUOUS
 10
-0.123488
 20
2.249402
  0
VERTEX
  8
PLAN_1
 62
     2
  6
CONTINUOUS
 10
-0.121823
 20
2.250650
  0
VERTEX
  8
PLAN_1
 62
     2
  6
CONTINUOUS
 10
-0.120575
 20
2.251898
  0
VERTEX
  8
PLAN_1
 62
     2
  6
CONTINUOUS
 10
-0.119327
 20
2.253150
  0
VERTEX
  8
PLAN_1
 62
     2
  6
CONTINUOUS
 10
-0.118492
 20
2.254815
  0
VERTEX
  8
PLAN_1
 62
     2
  6
CONTINUOUS
 10
-0.118075
 20
2.256480
  0
VERTEX
  8
PLAN_1
 62
     2
  6
CONTINUOUS
 10
-0.117661
 20
2.258146
  0
VERTEX
  8
PLAN_1
 62
     2
  6
CONTINUOUS
 10
-0.117244
 20
2.259807
  0
VERTEX
  8
PLAN_1
 62
     2
  6
CONTINUOUS
 10
-0.117661
 20
2.261890
  0
VERTEX
  8
PLAN_1
 62
     2
  6
CONTINUOUS
 10
-0.118075
 20
2.263555
  0
VERTEX
  8
PLAN_1
 62
     2
  6
CONTINUOUS
 10
-0.118492
 20
2.265220
  0
VERTEX
  8
PLAN_1
 62
     2
  6
CONTINUOUS
 10
-0.119327
 20
2.266886
  0
VERTEX
  8
PLAN_1
 62
     2
  6
CONTINUOUS
 10
-0.120575
 20
2.268134
  0
VERTEX
  8
PLAN_1
 62
     2
  6
CONTINUOUS
 10
-0.121823
 20
2.269386
  0
VERTEX
  8
PLAN_1
 62
     2
  6
CONTINUOUS
 10
-0.123488
 20
2.270634
  0
VERTEX
  8
PLAN_1
 62
     2
  6
CONTINUOUS
 10
-0.125154
 20
2.271465
  0
VERTEX
  8
PLAN_1
 62
     2
  6
CONTINUOUS
 10
-0.129315
 20
2.273130
  0
VERTEX
  8
PLAN_1
 62
     2
  6
CONTINUOUS
 10
-0.134311
 20
2.274382
  0
VERTEX
  8
PLAN_1
 62
     2
  6
CONTINUOUS
 10
-0.140142
 20
2.275213
  0
VERTEX
  8
PLAN_1
 62
     2
  6
CONTINUOUS
 10
-0.146803
 20
2.275213
  0
VERTEX
  8
PLAN_1
 62
     2
  6
CONTINUOUS
 10
-0.153465
 20
2.275213
  0
VERTEX
  8
PLAN_1
 62
     2
  6
CONTINUOUS
 10
-0.159291
 20
2.274382
  0
VERTEX
  8
PLAN_1
 62
     2
  6
CONTINUOUS
 10
-0.164287
 20
2.273130
  0
VERTEX
  8
PLAN_1
 62
     2
  6
CONTINUOUS
 10
-0.168453
 20
2.271465
  0
VERTEX
  8
PLAN_1
 62
     2
  6
CONTINUOUS
 10
-0.170118
 20
2.270634
  0
VERTEX
  8
PLAN_1
 62
     2
  6
CONTINUOUS
 10
-0.171783
 20
2.269386
  0
VERTEX
  8
PLAN_1
 62
     2
  6
CONTINUOUS
 10
-0.173031
 20
2.268134
  0
VERTEX
  8
PLAN_1
 62
     2
  6
CONTINUOUS
 10
-0.174280
 20
2.266886
  0
VERTEX
  8
PLAN_1
 62
     2
  6
CONTINUOUS
 10
-0.175114
 20
2.265220
  0
VERTEX
  8
PLAN_1
 62
     2
  6
CONTINUOUS
 10
-0.175528
 20
2.263555
  0
VERTEX
  8
PLAN_1
 62
     2
  6
CONTINUOUS
 10
-0.175945
 20
2.261890
  0
VERTEX
  8
PLAN_1
 62
     2
  6
CONTINUOUS
 10
-0.175945
 20
2.259807
  0
SEQEND
  8
0
  0
POLYLINE
  8
PLAN_1
 62
     2
  6
CONTINUOUS
 66
     1
 40
0.004161
 41
0.004161
  0
VERTEX
  8
PLAN_1
 62
     2
  6
CONTINUOUS
 10
-0.087685
 20
2.653650
  0
VERTEX
  8
PLAN_1
 62
     2
  6
CONTINUOUS
 10
-0.087685
 20
3.040827
  0
SEQEND
  8
0
  0
POLYLINE
  8
PLAN_1
 62
     2
  6
CONTINUOUS
 66
     1
 40
0.013736
 41
0.013736
  0
VERTEX
  8
PLAN_1
 62
     2
  6
CONTINUOUS
 10
-0.087685
 20
3.070386
  0
VERTEX
  8
PLAN_1
 62
     2
  6
CONTINUOUS
 10
-0.103504
 20
3.011268
  0
VERTEX
  8
PLAN_1
 62
     2
  6
CONTINUOUS
 10
-0.071866
 20
3.011268
  0
VERTEX
  8
PLAN_1
 62
     2
  6
CONTINUOUS
 10
-0.087685
 20
3.070386
  0
SEQEND
  8
0
  0
POLYLINE
  8
PLAN_1
 62
     2
  6
CONTINUOUS
 66
     1
 40
0.013736
 41
0.013736
  0
VERTEX
  8
PLAN_1
 62
     2
  6
CONTINUOUS
 10
-0.087685
 20
2.624091
  0
VERTEX
  8
PLAN_1
 62
     2
  6
CONTINUOUS
 10
-0.103504
 20
2.683209
  0
VERTEX
  8
PLAN_1
 62
     2
  6
CONTINUOUS
 10
-0.071866
 20
2.683209
  0
VERTEX
  8
PLAN_1
 62
     2
  6
CONTINUOUS
 10
-0.087685
 20
2.624091
  0
SEQEND
  8
0
  0
POLYLINE
  8
PLAN_1
 62
     2
  6
CONTINUOUS
 66
     1
 40
0.013736
 41
0.013736
  0
VERTEX
  8
PLAN_1
 62
     2
  6
CONTINUOUS
 10
-0.111000
 20
2.826839
  0
VERTEX
  8
PLAN_1
 62
     2
  6
CONTINUOUS
 10
-0.111000
 20
2.816846
  0
VERTEX
  8
PLAN_1
 62
     2
  6
CONTINUOUS
 10
-0.163039
 20
2.816846
  0
VERTEX
  8
PLAN_1
 62
     2
  6
CONTINUOUS
 10
-0.163039
 20
2.799780
  0
VERTEX
  8
PLAN_1
 62
     2
  6
CONTINUOUS
 10
-0.170531
 20
2.799780
  0
VERTEX
  8
PLAN_1
 62
     2
  6
CONTINUOUS
 10
-0.170531
 20
2.803941
  0
VERTEX
  8
PLAN_1
 62
     2
  6
CONTINUOUS
 10
-0.171366
 20
2.807689
  0
VERTEX
  8
PLAN_1
 62
     2
  6
CONTINUOUS
 10
-0.172197
 20
2.810602
  0
VERTEX
  8
PLAN_1
 62
     2
  6
CONTINUOUS
 10
-0.173031
 20
2.813098
  0
VERTEX
  8
PLAN_1
 62
     2
  6
CONTINUOUS
 10
-0.174697
 20
2.815181
  0
VERTEX
  8
PLAN_1
 62
     2
  6
CONTINUOUS
 10
-0.177193
 20
2.816846
  0
VERTEX
  8
PLAN_1
 62
     2
  6
CONTINUOUS
 10
-0.180524
 20
2.818094
  0
VERTEX
  8
PLAN_1
 62
     2
  6
CONTINUOUS
 10
-0.184272
 20
2.819346
  0
VERTEX
  8
PLAN_1
 62
     2
  6
CONTINUOUS
 10
-0.184272
 20
2.826839
  0
VERTEX
  8
PLAN_1
 62
     2
  6
CONTINUOUS
 10
-0.111000
 20
2.826839
  0
SEQEND
  8
0
  0
POLYLINE
  8
PLAN_1
 62
     2
  6
CONTINUOUS
 66
     1
 40
0.013736
 41
0.013736
  0
VERTEX
  8
PLAN_1
 62
     2
  6
CONTINUOUS
 10
-0.109335
 20
2.875965
  0
VERTEX
  8
PLAN_1
 62
     2
  6
CONTINUOUS
 10
-0.109335
 20
2.872217
  0
VERTEX
  8
PLAN_1
 62
     2
  6
CONTINUOUS
 10
-0.110165
 20
2.868886
  0
VERTEX
  8
PLAN_1
 62
     2
  6
CONTINUOUS
 10
-0.111413
 20
2.865972
  0
VERTEX
  8
PLAN_1
 62
     2
  6
CONTINUOUS
 10
-0.113079
 20
2.863476
  0
VERTEX
  8
PLAN_1
 62
     2
  6
CONTINUOUS
 10
-0.114744
 20
2.860976
  0
VERTEX
  8
PLAN_1
 62
     2
  6
CONTINUOUS
 10
-0.117244
 20
2.858894
  0
VERTEX
  8
PLAN_1
 62
     2
  6
CONTINUOUS
 10
-0.119740
 20
2.857232
  0
VERTEX
  8
PLAN_1
 62
     2
  6
CONTINUOUS
 10
-0.122240
 20
2.855567
  0
VERTEX
  8
PLAN_1
 62
     2
  6
CONTINUOUS
 10
-0.125154
 20
2.854315
  0
VERTEX
  8
PLAN_1
 62
     2
  6
CONTINUOUS
 10
-0.128067
 20
2.853484
  0
VERTEX
  8
PLAN_1
 62
     2
  6
CONTINUOUS
 10
-0.131398
 20
2.852650
  0
VERTEX
  8
PLAN_1
 62
     2
  6
CONTINUOUS
 10
-0.134311
 20
2.852236
  0
VERTEX
  8
PLAN_1
 62
     2
  6
CONTINUOUS
 10
-0.140972
 20
2.851402
  0
VERTEX
  8
PLAN_1
 62
     2
  6
CONTINUOUS
 10
-0.146803
 20
2.850984
  0
VERTEX
  8
PLAN_1
 62
     2
  6
CONTINUOUS
 10
-0.152630
 20
2.851402
  0
VERTEX
  8
PLAN_1
 62
     2
  6
CONTINUOUS
 10
-0.158874
 20
2.852236
  0
VERTEX
  8
PLAN_1
 62
     2
  6
CONTINUOUS
 10
-0.162205
 20
2.852650
  0
VERTEX
  8
PLAN_1
 62
     2
  6
CONTINUOUS
 10
-0.165535
 20
2.853484
  0
VERTEX
  8
PLAN_1
 62
     2
  6
CONTINUOUS
 10
-0.168453
 20
2.854315
  0
VERTEX
  8
PLAN_1
 62
     2
  6
CONTINUOUS
 10
-0.171366
 20
2.855567
  0
VERTEX
  8
PLAN_1
 62
     2
  6
CONTINUOUS
 10
-0.173862
 20
2.857232
  0
VERTEX
  8
PLAN_1
 62
     2
  6
CONTINUOUS
 10
-0.176362
 20
2.858894
  0
VERTEX
  8
PLAN_1
 62
     2
  6
CONTINUOUS
 10
-0.178858
 20
2.860976
  0
VERTEX
  8
PLAN_1
 62
     2
  6
CONTINUOUS
 10
-0.180524
 20
2.863476
  0
VERTEX
  8
PLAN_1
 62
     2
  6
CONTINUOUS
 10
-0.182189
 20
2.865972
  0
VERTEX
  8
PLAN_1
 62
     2
  6
CONTINUOUS
 10
-0.183437
 20
2.868886
  0
VERTEX
  8
PLAN_1
 62
     2
  6
CONTINUOUS
 10
-0.184272
 20
2.872217
  0
VERTEX
  8
PLAN_1
 62
     2
  6
CONTINUOUS
 10
-0.184272
 20
2.875965
  0
VERTEX
  8
PLAN_1
 62
     2
  6
CONTINUOUS
 10
-0.184272
 20
2.879713
  0
VERTEX
  8
PLAN_1
 62
     2
  6
CONTINUOUS
 10
-0.183437
 20
2.883457
  0
VERTEX
  8
PLAN_1
 62
     2
  6
CONTINUOUS
 10
-0.182189
 20
2.886374
  0
VERTEX
  8
PLAN_1
 62
     2
  6
CONTINUOUS
 10
-0.180524
 20
2.888870
  0
VERTEX
  8
PLAN_1
 62
     2
  6
CONTINUOUS
 10
-0.178858
 20
2.891370
  0
VERTEX
  8
PLAN_1
 62
     2
  6
CONTINUOUS
 10
-0.176362
 20
2.893449
  0
VERTEX
  8
PLAN_1
 62
     2
  6
CONTINUOUS
 10
-0.173862
 20
2.895114
  0
VERTEX
  8
PLAN_1
 62
     2
  6
CONTINUOUS
 10
-0.171366
 20
2.896366
  0
VERTEX
  8
PLAN_1
 62
     2
  6
CONTINUOUS
 10
-0.168453
 20
2.897614
  0
VERTEX
  8
PLAN_1
 62
     2
  6
CONTINUOUS
 10
-0.165535
 20
2.898862
  0
VERTEX
  8
PLAN_1
 62
     2
  6
CONTINUOUS
 10
-0.162205
 20
2.899697
  0
VERTEX
  8
PLAN_1
 62
     2
  6
CONTINUOUS
 10
-0.158874
 20
2.900110
  0
VERTEX
  8
PLAN_1
 62
     2
  6
CONTINUOUS
 10
-0.152630
 20
2.900945
  0
VERTEX
  8
PLAN_1
 62
     2
  6
CONTINUOUS
 10
-0.146803
 20
2.901362
  0
VERTEX
  8
PLAN_1
 62
     2
  6
CONTINUOUS
 10
-0.140972
 20
2.900945
  0
VERTEX
  8
PLAN_1
 62
     2
  6
CONTINUOUS
 10
-0.134311
 20
2.900110
  0
VERTEX
  8
PLAN_1
 62
     2
  6
CONTINUOUS
 10
-0.131398
 20
2.899697
  0
VERTEX
  8
PLAN_1
 62
     2
  6
CONTINUOUS
 10
-0.128067
 20
2.898862
  0
VERTEX
  8
PLAN_1
 62
     2
  6
CONTINUOUS
 10
-0.125154
 20
2.897614
  0
VERTEX
  8
PLAN_1
 62
     2
  6
CONTINUOUS
 10
-0.122240
 20
2.896366
  0
VERTEX
  8
PLAN_1
 62
     2
  6
CONTINUOUS
 10
-0.119740
 20
2.895114
  0
VERTEX
  8
PLAN_1
 62
     2
  6
CONTINUOUS
 10
-0.117244
 20
2.893449
  0
VERTEX
  8
PLAN_1
 62
     2
  6
CONTINUOUS
 10
-0.114744
 20
2.891370
  0
VERTEX
  8
PLAN_1
 62
     2
  6
CONTINUOUS
 10
-0.113079
 20
2.888870
  0
VERTEX
  8
PLAN_1
 62
     2
  6
CONTINUOUS
 10
-0.111413
 20
2.886374
  0
VERTEX
  8
PLAN_1
 62
     2
  6
CONTINUOUS
 10
-0.110165
 20
2.883457
  0
VERTEX
  8
PLAN_1
 62
     2
  6
CONTINUOUS
 10
-0.109335
 20
2.879713
  0
VERTEX
  8
PLAN_1
 62
     2
  6
CONTINUOUS
 10
-0.109335
 20
2.875965
  0
SEQEND
  8
0
  0
POLYLINE
  8
PLAN_1
 62
     2
  6
CONTINUOUS
 66
     1
 40
0.013736
 41
0.013736
  0
VERTEX
  8
PLAN_1
 62
     2
  6
CONTINUOUS
 10
-0.175945
 20
2.875965
  0
VERTEX
  8
PLAN_1
 62
     2
  6
CONTINUOUS
 10
-0.175945
 20
2.874299
  0
VERTEX
  8
PLAN_1
 62
     2
  6
CONTINUOUS
 10
-0.175528
 20
2.872634
  0
VERTEX
  8
PLAN_1
 62
     2
  6
CONTINUOUS
 10
-0.175114
 20
2.870969
  0
VERTEX
  8
PLAN_1
 62
     2
  6
CONTINUOUS
 10
-0.174280
 20
2.869303
  0
VERTEX
  8
PLAN_1
 62
     2
  6
CONTINUOUS
 10
-0.173031
 20
2.868055
  0
VERTEX
  8
PLAN_1
 62
     2
  6
CONTINUOUS
 10
-0.171783
 20
2.866807
  0
VERTEX
  8
PLAN_1
 62
     2
  6
CONTINUOUS
 10
-0.170118
 20
2.865555
  0
VERTEX
  8
PLAN_1
 62
     2
  6
CONTINUOUS
 10
-0.168453
 20
2.864724
  0
VERTEX
  8
PLAN_1
 62
     2
  6
CONTINUOUS
 10
-0.164287
 20
2.863059
  0
VERTEX
  8
PLAN_1
 62
     2
  6
CONTINUOUS
 10
-0.159291
 20
2.861811
  0
VERTEX
  8
PLAN_1
 62
     2
  6
CONTINUOUS
 10
-0.153465
 20
2.860976
  0
VERTEX
  8
PLAN_1
 62
     2
  6
CONTINUOUS
 10
-0.146803
 20
2.860976
  0
VERTEX
  8
PLAN_1
 62
     2
  6
CONTINUOUS
 10
-0.140142
 20
2.860976
  0
VERTEX
  8
PLAN_1
 62
     2
  6
CONTINUOUS
 10
-0.134311
 20
2.861811
  0
VERTEX
  8
PLAN_1
 62
     2
  6
CONTINUOUS
 10
-0.129315
 20
2.863059
  0
VERTEX
  8
PLAN_1
 62
     2
  6
CONTINUOUS
 10
-0.125154
 20
2.864724
  0
VERTEX
  8
PLAN_1
 62
     2
  6
CONTINUOUS
 10
-0.123488
 20
2.865555
  0
VERTEX
  8
PLAN_1
 62
     2
  6
CONTINUOUS
 10
-0.121823
 20
2.866807
  0
VERTEX
  8
PLAN_1
 62
     2
  6
CONTINUOUS
 10
-0.120575
 20
2.868055
  0
VERTEX
  8
PLAN_1
 62
     2
  6
CONTINUOUS
 10
-0.119327
 20
2.869303
  0
VERTEX
  8
PLAN_1
 62
     2
  6
CONTINUOUS
 10
-0.118492
 20
2.870969
  0
VERTEX
  8
PLAN_1
 62
     2
  6
CONTINUOUS
 10
-0.118075
 20
2.872634
  0
VERTEX
  8
PLAN_1
 62
     2
  6
CONTINUOUS
 10
-0.117661
 20
2.874299
  0
VERTEX
  8
PLAN_1
 62
     2
  6
CONTINUOUS
 10
-0.117244
 20
2.875965
  0
VERTEX
  8
PLAN_1
 62
     2
  6
CONTINUOUS
 10
-0.117661
 20
2.878047
  0
VERTEX
  8
PLAN_1
 62
     2
  6
CONTINUOUS
 10
-0.118075
 20
2.879713
  0
VERTEX
  8
PLAN_1
 62
     2
  6
CONTINUOUS
 10
-0.118492
 20
2.881378
  0
VERTEX
  8
PLAN_1
 62
     2
  6
CONTINUOUS
 10
-0.119327
 20
2.883043
  0
VERTEX
  8
PLAN_1
 62
     2
  6
CONTINUOUS
 10
-0.120575
 20
2.884291
  0
VERTEX
  8
PLAN_1
 62
     2
  6
CONTINUOUS
 10
-0.121823
 20
2.885539
  0
VERTEX
  8
PLAN_1
 62
     2
  6
CONTINUOUS
 10
-0.123488
 20
2.886787
  0
VERTEX
  8
PLAN_1
 62
     2
  6
CONTINUOUS
 10
-0.125154
 20
2.887622
  0
VERTEX
  8
PLAN_1
 62
     2
  6
CONTINUOUS
 10
-0.129315
 20
2.889287
  0
VERTEX
  8
PLAN_1
 62
     2
  6
CONTINUOUS
 10
-0.134311
 20
2.890535
  0
VERTEX
  8
PLAN_1
 62
     2
  6
CONTINUOUS
 10
-0.140142
 20
2.891370
  0
VERTEX
  8
PLAN_1
 62
     2
  6
CONTINUOUS
 10
-0.146803
 20
2.891370
  0
VERTEX
  8
PLAN_1
 62
     2
  6
CONTINUOUS
 10
-0.153465
 20
2.891370
  0
VERTEX
  8
PLAN_1
 62
     2
  6
CONTINUOUS
 10
-0.159291
 20
2.890535
  0
VERTEX
  8
PLAN_1
 62
     2
  6
CONTINUOUS
 10
-0.164287
 20
2.889287
  0
VERTEX
  8
PLAN_1
 62
     2
  6
CONTINUOUS
 10
-0.168453
 20
2.887622
  0
VERTEX
  8
PLAN_1
 62
     2
  6
CONTINUOUS
 10
-0.170118
 20
2.886787
  0
VERTEX
  8
PLAN_1
 62
     2
  6
CONTINUOUS
 10
-0.171783
 20
2.885539
  0
VERTEX
  8
PLAN_1
 62
     2
  6
CONTINUOUS
 10
-0.173031
 20
2.884291
  0
VERTEX
  8
PLAN_1
 62
     2
  6
CONTINUOUS
 10
-0.174280
 20
2.883043
  0
VERTEX
  8
PLAN_1
 62
     2
  6
CONTINUOUS
 10
-0.175114
 20
2.881378
  0
VERTEX
  8
PLAN_1
 62
     2
  6
CONTINUOUS
 10
-0.175528
 20
2.879713
  0
VERTEX
  8
PLAN_1
 62
     2
  6
CONTINUOUS
 10
-0.175945
 20
2.878047
  0
VERTEX
  8
PLAN_1
 62
     2
  6
CONTINUOUS
 10
-0.175945
 20
2.875965
  0
SEQEND
  8
0
  0
POLYLINE
  8
PLAN_1
 62
     2
  6
CONTINUOUS
 66
     1
 40
0.004161
 41
0.004161
  0
VERTEX
  8
PLAN_1
 62
     2
  6
CONTINUOUS
 10
-0.063953
 20
3.070386
  0
VERTEX
  8
PLAN_1
 62
     2
  6
CONTINUOUS
 10
-0.372031
 20
3.070386
  0
SEQEND
  8
0
  0
POLYLINE
  8
PLAN_1
 62
     2
  6
CONTINUOUS
 66
     1
 40
0.004161
 41
0.004161
  0
VERTEX
  8
PLAN_1
 62
     2
  6
CONTINUOUS
 10
-1.297933
 20
3.225673
  0
VERTEX
  8
PLAN_1
 62
     2
  6
CONTINUOUS
 10
-0.857878
 20
3.225673
  0
SEQEND
  8
0
  0
POLYLINE
  8
PLAN_1
 62
     2
  6
CONTINUOUS
 66
     1
 40
0.013736
 41
0.013736
  0
VERTEX
  8
PLAN_1
 62
     2
  6
CONTINUOUS
 10
-0.828319
 20
3.225673
  0
VERTEX
  8
PLAN_1
 62
     2
  6
CONTINUOUS
 10
-0.887024
 20
3.241496
  0
VERTEX
  8
PLAN_1
 62
     2
  6
CONTINUOUS
 10
-0.887024
 20
3.209854
  0
VERTEX
  8
PLAN_1
 62
     2
  6
CONTINUOUS
 10
-0.828319
 20
3.225673
  0
SEQEND
  8
0
  0
POLYLINE
  8
PLAN_1
 62
     2
  6
CONTINUOUS
 66
     1
 40
0.013736
 41
0.013736
  0
VERTEX
  8
PLAN_1
 62
     2
  6
CONTINUOUS
 10
-1.327075
 20
3.225673
  0
VERTEX
  8
PLAN_1
 62
     2
  6
CONTINUOUS
 10
-1.268374
 20
3.241496
  0
VERTEX
  8
PLAN_1
 62
     2
  6
CONTINUOUS
 10
-1.268374
 20
3.209854
  0
VERTEX
  8
PLAN_1
 62
     2
  6
CONTINUOUS
 10
-1.327075
 20
3.225673
  0
SEQEND
  8
0
  0
POLYLINE
  8
PLAN_1
 62
     2
  6
CONTINUOUS
 66
     1
 40
0.013736
 41
0.013736
  0
VERTEX
  8
PLAN_1
 62
     2
  6
CONTINUOUS
 10
-1.107673
 20
3.313520
  0
VERTEX
  8
PLAN_1
 62
     2
  6
CONTINUOUS
 10
-1.105591
 20
3.310189
  0
VERTEX
  8
PLAN_1
 62
     2
  6
CONTINUOUS
 10
-1.103925
 20
3.307276
  0
VERTEX
  8
PLAN_1
 62
     2
  6
CONTINUOUS
 10
-1.102260
 20
3.303528
  0
VERTEX
  8
PLAN_1
 62
     2
  6
CONTINUOUS
 10
-1.101012
 20
3.300197
  0
VERTEX
  8
PLAN_1
 62
     2
  6
CONTINUOUS
 10
-1.100177
 20
3.296866
  0
VERTEX
  8
PLAN_1
 62
     2
  6
CONTINUOUS
 10
-1.099764
 20
3.293118
  0
VERTEX
  8
PLAN_1
 62
     2
  6
CONTINUOUS
 10
-1.099346
 20
3.289787
  0
VERTEX
  8
PLAN_1
 62
     2
  6
CONTINUOUS
 10
-1.099346
 20
3.286874
  0
VERTEX
  8
PLAN_1
 62
     2
  6
CONTINUOUS
 10
-1.099346
 20
3.283543
  0
VERTEX
  8
PLAN_1
 62
     2
  6
CONTINUOUS
 10
-1.099764
 20
3.280213
  0
VERTEX
  8
PLAN_1
 62
     2
  6
CONTINUOUS
 10
-1.100177
 20
3.277299
  0
VERTEX
  8
PLAN_1
 62
     2
  6
CONTINUOUS
 10
-1.101012
 20
3.273969
  0
VERTEX
  8
PLAN_1
 62
     2
  6
CONTINUOUS
 10
-1.102260
 20
3.270638
  0
VERTEX
  8
PLAN_1
 62
     2
  6
CONTINUOUS
 10
-1.103508
 20
3.267307
  0
VERTEX
  8
PLAN_1
 62
     2
  6
CONTINUOUS
 10
-1.105173
 20
3.263976
  0
VERTEX
  8
PLAN_1
 62
     2
  6
CONTINUOUS
 10
-1.106839
 20
3.261063
  0
VERTEX
  8
PLAN_1
 62
     2
  6
CONTINUOUS
 10
-1.109339
 20
3.258150
  0
VERTEX
  8
PLAN_1
 62
     2
  6
CONTINUOUS
 10
-1.111835
 20
3.255650
  0
VERTEX
  8
PLAN_1
 62
     2
  6
CONTINUOUS
 10
-1.114748
 20
3.253154
  0
VERTEX
  8
PLAN_1
 62
     2
  6
CONTINUOUS
 10
-1.118079
 20
3.251071
  0
VERTEX
  8
PLAN_1
 62
     2
  6
CONTINUOUS
 10
-1.121827
 20
3.249823
  0
VERTEX
  8
PLAN_1
 62
     2
  6
CONTINUOUS
 10
-1.125992
 20
3.248571
  0
VERTEX
  8
PLAN_1
 62
     2
  6
CONTINUOUS
 10
-1.130571
 20
3.247740
  0
VERTEX
  8
PLAN_1
 62
     2
  6
CONTINUOUS
 10
-1.135567
 20
3.247323
  0
VERTEX
  8
PLAN_1
 62
     2
  6
CONTINUOUS
 10
-1.139728
 20
3.247740
  0
VERTEX
  8
PLAN_1
 62
     2
  6
CONTINUOUS
 10
-1.143476
 20
3.248157
  0
VERTEX
  8
PLAN_1
 62
     2
  6
CONTINUOUS
 10
-1.146807
 20
3.248988
  0
VERTEX
  8
PLAN_1
 62
     2
  6
CONTINUOUS
 10
-1.149720
 20
3.249823
  0
VERTEX
  8
PLAN_1
 62
     2
  6
CONTINUOUS
 10
-1.152634
 20
3.251071
  0
VERTEX
  8
PLAN_1
 62
     2
  6
CONTINUOUS
 10
-1.155551
 20
3.252736
  0
VERTEX
  8
PLAN_1
 62
     2
  6
CONTINUOUS
 10
-1.158047
 20
3.254402
  0
VERTEX
  8
PLAN_1
 62
     2
  6
CONTINUOUS
 10
-1.160130
 20
3.256484
  0
VERTEX
  8
PLAN_1
 62
     2
  6
CONTINUOUS
 10
-1.168457
 20
3.247323
  0
VERTEX
  8
PLAN_1
 62
     2
  6
CONTINUOUS
 10
-1.171787
 20
3.250236
  0
VERTEX
  8
PLAN_1
 62
     2
  6
CONTINUOUS
 10
-1.163043
 20
3.259815
  0
VERTEX
  8
PLAN_1
 62
     2
  6
CONTINUOUS
 10
-1.165539
 20
3.262728
  0
VERTEX
  8
PLAN_1
 62
     2
  6
CONTINUOUS
 10
-1.167205
 20
3.266059
  0
VERTEX
  8
PLAN_1
 62
     2
  6
CONTINUOUS
 10
-1.168870
 20
3.269390
  0
VERTEX
  8
PLAN_1
 62
     2
  6
CONTINUOUS
 10
-1.170122
 20
3.273134
  0
VERTEX
  8
PLAN_1
 62
     2
  6
CONTINUOUS
 10
-1.170953
 20
3.276465
  0
VERTEX
  8
PLAN_1
 62
     2
  6
CONTINUOUS
 10
-1.171370
 20
3.280213
  0
VERTEX
  8
PLAN_1
 62
     2
  6
CONTINUOUS
 10
-1.171787
 20
3.283543
  0
VERTEX
  8
PLAN_1
 62
     2
  6
CONTINUOUS
 10
-1.172201
 20
3.286874
  0
VERTEX
  8
PLAN_1
 62
     2
  6
CONTINUOUS
 10
-1.171787
 20
3.289787
  0
VERTEX
  8
PLAN_1
 62
     2
  6
CONTINUOUS
 10
-1.171787
 20
3.293118
  0
VERTEX
  8
PLAN_1
 62
     2
  6
CONTINUOUS
 10
-1.170953
 20
3.296449
  0
VERTEX
  8
PLAN_1
 62
     2
  6
CONTINUOUS
 10
-1.170122
 20
3.299780
  0
VERTEX
  8
PLAN_1
 62
     2
  6
CONTINUOUS
 10
-1.169287
 20
3.303110
  0
VERTEX
  8
PLAN_1
 62
     2
  6
CONTINUOUS
 10
-1.168039
 20
3.306441
  0
VERTEX
  8
PLAN_1
 62
     2
  6
CONTINUOUS
 10
-1.166374
 20
3.309354
  0
VERTEX
  8
PLAN_1
 62
     2
  6
CONTINUOUS
 10
-1.164291
 20
3.312268
  0
VERTEX
  8
PLAN_1
 62
     2
  6
CONTINUOUS
 10
-1.162209
 20
3.315185
  0
VERTEX
  8
PLAN_1
 62
     2
  6
CONTINUOUS
 10
-1.159295
 20
3.317681
  0
VERTEX
  8
PLAN_1
 62
     2
  6
CONTINUOUS
 10
-1.156382
 20
3.320181
  0
VERTEX
  8
PLAN_1
 62
     2
  6
CONTINUOUS
 10
-1.153051
 20
3.322260
  0
VERTEX
  8
PLAN_1
 62
     2
  6
CONTINUOUS
 10
-1.149303
 20
3.323925
  0
VERTEX
  8
PLAN_1
 62
     2
  6
CONTINUOUS
 10
-1.145142
 20
3.325177
  0
VERTEX
  8
PLAN_1
 62
     2
  6
CONTINUOUS
 10
-1.140563
 20
3.325591
  0
VERTEX
  8
PLAN_1
 62
     2
  6
CONTINUOUS
 10
-1.135567
 20
3.326008
  0
VERTEX
  8
PLAN_1
 62
     2
  6
CONTINUOUS
 10
-1.131402
 20
3.326008
  0
VERTEX
  8
PLAN_1
 62
     2
  6
CONTINUOUS
 10
-1.127657
 20
3.325177
  0
VERTEX
  8
PLAN_1
 62
     2
  6
CONTINUOUS
 10
-1.124327
 20
3.324760
  0
VERTEX
  8
PLAN_1
 62
     2
  6
CONTINUOUS
 10
-1.120996
 20
3.323512
  0
VERTEX
  8
PLAN_1
 62
     2
  6
CONTINUOUS
 10
-1.118079
 20
3.322260
  0
VERTEX
  8
PLAN_1
 62
     2
  6
CONTINUOUS
 10
-1.115583
 20
3.320594
  0
VERTEX
  8
PLAN_1
 62
     2
  6
CONTINUOUS
 10
-1.113083
 20
3.318929
  0
VERTEX
  8
PLAN_1
 62
     2
  6
CONTINUOUS
 10
-1.110587
 20
3.316850
  0
VERTEX
  8
PLAN_1
 62
     2
  6
CONTINUOUS
 10
-1.102260
 20
3.326008
  0
VERTEX
  8
PLAN_1
 62
     2
  6
CONTINUOUS
 10
-1.098929
 20
3.323094
  0
VERTEX
  8
PLAN_1
 62
     2
  6
CONTINUOUS
 10
-1.107673
 20
3.313520
  0
SEQEND
  8
0
  0
POLYLINE
  8
PLAN_1
 62
     2
  6
CONTINUOUS
 66
     1
 40
0.013736
 41
0.013736
  0
VERTEX
  8
PLAN_1
 62
     2
  6
CONTINUOUS
 10
-1.153469
 20
3.263559
  0
VERTEX
  8
PLAN_1
 62
     2
  6
CONTINUOUS
 10
-1.151803
 20
3.261894
  0
VERTEX
  8
PLAN_1
 62
     2
  6
CONTINUOUS
 10
-1.150138
 20
3.260646
  0
VERTEX
  8
PLAN_1
 62
     2
  6
CONTINUOUS
 10
-1.148055
 20
3.259398
  0
VERTEX
  8
PLAN_1
 62
     2
  6
CONTINUOUS
 10
-1.145559
 20
3.258150
  0
VERTEX
  8
PLAN_1
 62
     2
  6
CONTINUOUS
 10
-1.143476
 20
3.257315
  0
VERTEX
  8
PLAN_1
 62
     2
  6
CONTINUOUS
 10
-1.140976
 20
3.256898
  0
VERTEX
  8
PLAN_1
 62
     2
  6
CONTINUOUS
 10
-1.138480
 20
3.256484
  0
VERTEX
  8
PLAN_1
 62
     2
  6
CONTINUOUS
 10
-1.135567
 20
3.256484
  0
VERTEX
  8
PLAN_1
 62
     2
  6
CONTINUOUS
 10
-1.132654
 20
3.256484
  0
VERTEX
  8
PLAN_1
 62
     2
  6
CONTINUOUS
 10
-1.129736
 20
3.256898
  0
VERTEX
  8
PLAN_1
 62
     2
  6
CONTINUOUS
 10
-1.127240
 20
3.257732
  0
VERTEX
  8
PLAN_1
 62
     2
  6
CONTINUOUS
 10
-1.124740
 20
3.258563
  0
VERTEX
  8
PLAN_1
 62
     2
  6
CONTINUOUS
 10
-1.122244
 20
3.259815
  0
VERTEX
  8
PLAN_1
 62
     2
  6
CONTINUOUS
 10
-1.120161
 20
3.261480
  0
VERTEX
  8
PLAN_1
 62
     2
  6
CONTINUOUS
 10
-1.118496
 20
3.263146
  0
VERTEX
  8
PLAN_1
 62
     2
  6
CONTINUOUS
 10
-1.116413
 20
3.264807
  0
VERTEX
  8
PLAN_1
 62
     2
  6
CONTINUOUS
 10
-1.115165
 20
3.266890
  0
VERTEX
  8
PLAN_1
 62
     2
  6
CONTINUOUS
 10
-1.113500
 20
3.269390
  0
VERTEX
  8
PLAN_1
 62
     2
  6
CONTINUOUS
 10
-1.112252
 20
3.271886
  0
VERTEX
  8
PLAN_1
 62
     2
  6
CONTINUOUS
 10
-1.111417
 20
3.274386
  0
VERTEX
  8
PLAN_1
 62
     2
  6
CONTINUOUS
 10
-1.110587
 20
3.277299
  0
VERTEX
  8
PLAN_1
 62
     2
  6
CONTINUOUS
 10
-1.110169
 20
3.280213
  0
VERTEX
  8
PLAN_1
 62
     2
  6
CONTINUOUS
 10
-1.109752
 20
3.283543
  0
VERTEX
  8
PLAN_1
 62
     2
  6
CONTINUOUS
 10
-1.109752
 20
3.286874
  0
VERTEX
  8
PLAN_1
 62
     2
  6
CONTINUOUS
 10
-1.109752
 20
3.289370
  0
VERTEX
  8
PLAN_1
 62
     2
  6
CONTINUOUS
 10
-1.109752
 20
3.292287
  0
VERTEX
  8
PLAN_1
 62
     2
  6
CONTINUOUS
 10
-1.110169
 20
3.294783
  0
VERTEX
  8
PLAN_1
 62
     2
  6
CONTINUOUS
 10
-1.111004
 20
3.297283
  0
VERTEX
  8
PLAN_1
 62
     2
  6
CONTINUOUS
 10
-1.111835
 20
3.299780
  0
VERTEX
  8
PLAN_1
 62
     2
  6
CONTINUOUS
 10
-1.112669
 20
3.301862
  0
VERTEX
  8
PLAN_1
 62
     2
  6
CONTINUOUS
 10
-1.113500
 20
3.303945
  0
VERTEX
  8
PLAN_1
 62
     2
  6
CONTINUOUS
 10
-1.114748
 20
3.306024
  0
VERTEX
  8
PLAN_1
 62
     2
  6
CONTINUOUS
 10
-1.153469
 20
3.263559
  0
SEQEND
  8
0
  0
POLYLINE
  8
PLAN_1
 62
     2
  6
CONTINUOUS
 66
     1
 40
0.013736
 41
0.013736
  0
VERTEX
  8
PLAN_1
 62
     2
  6
CONTINUOUS
 10
-1.117248
 20
3.309354
  0
VERTEX
  8
PLAN_1
 62
     2
  6
CONTINUOUS
 10
-1.119331
 20
3.311020
  0
VERTEX
  8
PLAN_1
 62
     2
  6
CONTINUOUS
 10
-1.120996
 20
3.312685
  0
VERTEX
  8
PLAN_1
 62
     2
  6
CONTINUOUS
 10
-1.123075
 20
3.313933
  0
VERTEX
  8
PLAN_1
 62
     2
  6
CONTINUOUS
 10
-1.125157
 20
3.315185
  0
VERTEX
  8
PLAN_1
 62
     2
  6
CONTINUOUS
 10
-1.127657
 20
3.316016
  0
VERTEX
  8
PLAN_1
 62
     2
  6
CONTINUOUS
 10
-1.130154
 20
3.316433
  0
VERTEX
  8
PLAN_1
 62
     2
  6
CONTINUOUS
 10
-1.132654
 20
3.316850
  0
VERTEX
  8
PLAN_1
 62
     2
  6
CONTINUOUS
 10
-1.135567
 20
3.317264
  0
VERTEX
  8
PLAN_1
 62
     2
  6
CONTINUOUS
 10
-1.138480
 20
3.316850
  0
VERTEX
  8
PLAN_1
 62
     2
  6
CONTINUOUS
 10
-1.141394
 20
3.316433
  0
VERTEX
  8
PLAN_1
 62
     2
  6
CONTINUOUS
 10
-1.143894
 20
3.315598
  0
VERTEX
  8
PLAN_1
 62
     2
  6
CONTINUOUS
 10
-1.146390
 20
3.314768
  0
VERTEX
  8
PLAN_1
 62
     2
  6
CONTINUOUS
 10
-1.148890
 20
3.313520
  0
VERTEX
  8
PLAN_1
 62
     2
  6
CONTINUOUS
 10
-1.150969
 20
3.312268
  0
VERTEX
  8
PLAN_1
 62
     2
  6
CONTINUOUS
 10
-1.153051
 20
3.310606
  0
VERTEX
  8
PLAN_1
 62
     2
  6
CONTINUOUS
 10
-1.154717
 20
3.308524
  0
VERTEX
  8
PLAN_1
 62
     2
  6
CONTINUOUS
 10
-1.156382
 20
3.306441
  0
VERTEX
  8
PLAN_1
 62
     2
  6
CONTINUOUS
 10
-1.157630
 20
3.303945
  0
VERTEX
  8
PLAN_1
 62
     2
  6
CONTINUOUS
 10
-1.158878
 20
3.301445
  0
VERTEX
  8
PLAN_1
 62
     2
  6
CONTINUOUS
 10
-1.159713
 20
3.298949
  0
VERTEX
  8
PLAN_1
 62
     2
  6
CONTINUOUS
 10
-1.160543
 20
3.296031
  0
VERTEX
  8
PLAN_1
 62
     2
  6
CONTINUOUS
 10
-1.161378
 20
3.293118
  0
VERTEX
  8
PLAN_1
 62
     2
  6
CONTINUOUS
 10
-1.161378
 20
3.289787
  0
VERTEX
  8
PLAN_1
 62
     2
  6
CONTINUOUS
 10
-1.161795
 20
3.286874
  0
VERTEX
  8
PLAN_1
 62
     2
  6
CONTINUOUS
 10
-1.161378
 20
3.283961
  0
VERTEX
  8
PLAN_1
 62
     2
  6
CONTINUOUS
 10
-1.161378
 20
3.281047
  0
VERTEX
  8
PLAN_1
 62
     2
  6
CONTINUOUS
 10
-1.160961
 20
3.278547
  0
VERTEX
  8
PLAN_1
 62
     2
  6
CONTINUOUS
 10
-1.160130
 20
3.276051
  0
VERTEX
  8
PLAN_1
 62
     2
  6
CONTINUOUS
 10
-1.159713
 20
3.273551
  0
VERTEX
  8
PLAN_1
 62
     2
  6
CONTINUOUS
 10
-1.158465
 20
3.271469
  0
VERTEX
  8
PLAN_1
 62
     2
  6
CONTINUOUS
 10
-1.157630
 20
3.269390
  0
VERTEX
  8
PLAN_1
 62
     2
  6
CONTINUOUS
 10
-1.156382
 20
3.267307
  0
VERTEX
  8
PLAN_1
 62
     2
  6
CONTINUOUS
 10
-1.117248
 20
3.309354
  0
SEQEND
  8
0
  0
POLYLINE
  8
PLAN_1
 62
     2
  6
CONTINUOUS
 66
     1
 40
0.013736
 41
0.013736
  0
VERTEX
  8
PLAN_1
 62
     2
  6
CONTINUOUS
 10
-1.057713
 20
3.249406
  0
VERTEX
  8
PLAN_1
 62
     2
  6
CONTINUOUS
 10
-1.067705
 20
3.249406
  0
VERTEX
  8
PLAN_1
 62
     2
  6
CONTINUOUS
 10
-1.067705
 20
3.301445
  0
VERTEX
  8
PLAN_1
 62
     2
  6
CONTINUOUS
 10
-1.084776
 20
3.301445
  0
VERTEX
  8
PLAN_1
 62
     2
  6
CONTINUOUS
 10
-1.084776
 20
3.308524
  0
VERTEX
  8
PLAN_1
 62
     2
  6
CONTINUOUS
 10
-1.080610
 20
3.308941
  0
VERTEX
  8
PLAN_1
 62
     2
  6
CONTINUOUS
 10
-1.076866
 20
3.309354
  0
VERTEX
  8
PLAN_1
 62
     2
  6
CONTINUOUS
 10
-1.073949
 20
3.310189
  0
VERTEX
  8
PLAN_1
 62
     2
  6
CONTINUOUS
 10
-1.071453
 20
3.311437
  0
VERTEX
  8
PLAN_1
 62
     2
  6
CONTINUOUS
 10
-1.069370
 20
3.313102
  0
VERTEX
  8
PLAN_1
 62
     2
  6
CONTINUOUS
 10
-1.067705
 20
3.315598
  0
VERTEX
  8
PLAN_1
 62
     2
  6
CONTINUOUS
 10
-1.066039
 20
3.318516
  0
VERTEX
  8
PLAN_1
 62
     2
  6
CONTINUOUS
 10
-1.064791
 20
3.322677
  0
VERTEX
  8
PLAN_1
 62
     2
  6
CONTINUOUS
 10
-1.057713
 20
3.322677
  0
VERTEX
  8
PLAN_1
 62
     2
  6
CONTINUOUS
 10
-1.057713
 20
3.249406
  0
SEQEND
  8
0
  0
POLYLINE
  8
PLAN_1
 62
     2
  6
CONTINUOUS
 66
     1
 40
0.013736
 41
0.013736
  0
VERTEX
  8
PLAN_1
 62
     2
  6
CONTINUOUS
 10
-1.032736
 20
3.296449
  0
VERTEX
  8
PLAN_1
 62
     2
  6
CONTINUOUS
 10
-1.032319
 20
3.300614
  0
VERTEX
  8
PLAN_1
 62
     2
  6
CONTINUOUS
 10
-1.031902
 20
3.304358
  0
VERTEX
  8
PLAN_1
 62
     2
  6
CONTINUOUS
 10
-1.031071
 20
3.307689
  0
VERTEX
  8
PLAN_1
 62
     2
  6
CONTINUOUS
 10
-1.029819
 20
3.310606
  0
VERTEX
  8
PLAN_1
 62
     2
  6
CONTINUOUS
 10
-1.028154
 20
3.313102
  0
VERTEX
  8
PLAN_1
 62
     2
  6
CONTINUOUS
 10
-1.026906
 20
3.315185
  0
VERTEX
  8
PLAN_1
 62
     2
  6
CONTINUOUS
 10
-1.024823
 20
3.316850
  0
VERTEX
  8
PLAN_1
 62
     2
  6
CONTINUOUS
 10
-1.023157
 20
3.318516
  0
VERTEX
  8
PLAN_1
 62
     2
  6
CONTINUOUS
 10
-1.021079
 20
3.319346
  0
VERTEX
  8
PLAN_1
 62
     2
  6
CONTINUOUS
 10
-1.018996
 20
3.320594
  0
VERTEX
  8
PLAN_1
 62
     2
  6
CONTINUOUS
 10
-1.016913
 20
3.321429
  0
VERTEX
  8
PLAN_1
 62
     2
  6
CONTINUOUS
 10
-1.014831
 20
3.321846
  0
VERTEX
  8
PLAN_1
 62
     2
  6
CONTINUOUS
 10
-1.010669
 20
3.322260
  0
VERTEX
  8
PLAN_1
 62
     2
  6
CONTINUOUS
 10
-1.007339
 20
3.322677
  0
VERTEX
  8
PLAN_1
 62
     2
  6
CONTINUOUS
 10
-1.002760
 20
3.322260
  0
VERTEX
  8
PLAN_1
 62
     2
  6
CONTINUOUS
 10
-0.998594
 20
3.321012
  0
VERTEX
  8
PLAN_1
 62
     2
  6
CONTINUOUS
 10
-0.994433
 20
3.319346
  0
VERTEX
  8
PLAN_1
 62
     2
  6
CONTINUOUS
 10
-0.991102
 20
3.316850
  0
VERTEX
  8
PLAN_1
 62
     2
  6
CONTINUOUS
 10
-0.989854
 20
3.315185
  0
VERTEX
  8
PLAN_1
 62
     2
  6
CONTINUOUS
 10
-0.988189
 20
3.313520
  0
VERTEX
  8
PLAN_1
 62
     2
  6
CONTINUOUS
 10
-0.987354
 20
3.311854
  0
VERTEX
  8
PLAN_1
 62
     2
  6
CONTINUOUS
 10
-0.986106
 20
3.309772
  0
VERTEX
  8
PLAN_1
 62
     2
  6
CONTINUOUS
 10
-0.985689
 20
3.307689
  0
VERTEX
  8
PLAN_1
 62
     2
  6
CONTINUOUS
 10
-0.984858
 20
3.305610
  0
VERTEX
  8
PLAN_1
 62
     2
  6
CONTINUOUS
 10
-0.984441
 20
3.303110
  0
VERTEX
  8
PLAN_1
 62
     2
  6
CONTINUOUS
 10
-0.984441
 20
3.300614
  0
VERTEX
  8
PLAN_1
 62
     2
  6
CONTINUOUS
 10
-0.984858
 20
3.296031
  0
VERTEX
  8
PLAN_1
 62
     2
  6
CONTINUOUS
 10
-0.986106
 20
3.292287
  0
VERTEX
  8
PLAN_1
 62
     2
  6
CONTINUOUS
 10
-0.987772
 20
3.288539
  0
VERTEX
  8
PLAN_1
 62
     2
  6
CONTINUOUS
 10
-0.990268
 20
3.285626
  0
VERTEX
  8
PLAN_1
 62
     2
  6
CONTINUOUS
 10
-0.993185
 20
3.283126
  0
VERTEX
  8
PLAN_1
 62
     2
  6
CONTINUOUS
 10
-0.996516
 20
3.280630
  0
VERTEX
  8
PLAN_1
 62
     2
  6
CONTINUOUS
 10
-0.999846
 20
3.278547
  0
VERTEX
  8
PLAN_1
 62
     2
  6
CONTINUOUS
 10
-1.004008
 20
3.276051
  0
VERTEX
  8
PLAN_1
 62
     2
  6
CONTINUOUS
 10
-1.011504
 20
3.271886
  0
VERTEX
  8
PLAN_1
 62
     2
  6
CONTINUOUS
 10
-1.014831
 20
3.269803
  0
VERTEX
  8
PLAN_1
 62
     2
  6
CONTINUOUS
 10
-1.017748
 20
3.268138
  0
VERTEX
  8
PLAN_1
 62
     2
  6
CONTINUOUS
 10
-1.019827
 20
3.266059
  0
VERTEX
  8
PLAN_1
 62
     2
  6
CONTINUOUS
 10
-1.021492
 20
3.263976
  0
VERTEX
  8
PLAN_1
 62
     2
  6
CONTINUOUS
 10
-1.022744
 20
3.262311
  0
VERTEX
  8
PLAN_1
 62
     2
  6
CONTINUOUS
 10
-1.023575
 20
3.260646
  0
VERTEX
  8
PLAN_1
 62
     2
  6
CONTINUOUS
 10
-1.023992
 20
3.259398
  0
VERTEX
  8
PLAN_1
 62
     2
  6
CONTINUOUS
 10
-1.023992
 20
3.258150
  0
VERTEX
  8
PLAN_1
 62
     2
  6
CONTINUOUS
 10
-0.984441
 20
3.258150
  0
VERTEX
  8
PLAN_1
 62
     2
  6
CONTINUOUS
 10
-0.984441
 20
3.249406
  0
VERTEX
  8
PLAN_1
 62
     2
  6
CONTINUOUS
 10
-1.034402
 20
3.249406
  0
VERTEX
  8
PLAN_1
 62
     2
  6
CONTINUOUS
 10
-1.033984
 20
3.254819
  0
VERTEX
  8
PLAN_1
 62
     2
  6
CONTINUOUS
 10
-1.033150
 20
3.259398
  0
VERTEX
  8
PLAN_1
 62
     2
  6
CONTINUOUS
 10
-1.031484
 20
3.263559
  0
VERTEX
  8
PLAN_1
 62
     2
  6
CONTINUOUS
 10
-1.029406
 20
3.267307
  0
VERTEX
  8
PLAN_1
 62
     2
  6
CONTINUOUS
 10
-1.026906
 20
3.270638
  0
VERTEX
  8
PLAN_1
 62
     2
  6
CONTINUOUS
 10
-1.023992
 20
3.273551
  0
VERTEX
  8
PLAN_1
 62
     2
  6
CONTINUOUS
 10
-1.020661
 20
3.276051
  0
VERTEX
  8
PLAN_1
 62
     2
  6
CONTINUOUS
 10
-1.017331
 20
3.278547
  0
VERTEX
  8
PLAN_1
 62
     2
  6
CONTINUOUS
 10
-1.007756
 20
3.283961
  0
VERTEX
  8
PLAN_1
 62
     2
  6
CONTINUOUS
 10
-1.004843
 20
3.285626
  0
VERTEX
  8
PLAN_1
 62
     2
  6
CONTINUOUS
 10
-1.002343
 20
3.287291
  0
VERTEX
  8
PLAN_1
 62
     2
  6
CONTINUOUS
 10
-0.999846
 20
3.288957
  0
VERTEX
  8
PLAN_1
 62
     2
  6
CONTINUOUS
 10
-0.998181
 20
3.290622
  0
VERTEX
  8
PLAN_1
 62
     2
  6
CONTINUOUS
 10
-0.996516
 20
3.292701
  0
VERTEX
  8
PLAN_1
 62
     2
  6
CONTINUOUS
 10
-0.995264
 20
3.295201
  0
VERTEX
  8
PLAN_1
 62
     2
  6
CONTINUOUS
 10
-0.994433
 20
3.297697
  0
VERTEX
  8
PLAN_1
 62
     2
  6
CONTINUOUS
 10
-0.994433
 20
3.301028
  0
VERTEX
  8
PLAN_1
 62
     2
  6
CONTINUOUS
 10
-0.994433
 20
3.303528
  0
VERTEX
  8
PLAN_1
 62
     2
  6
CONTINUOUS
 10
-0.994850
 20
3.305610
  0
VERTEX
  8
PLAN_1
 62
     2
  6
CONTINUOUS
 10
-0.996098
 20
3.307689
  0
VERTEX
  8
PLAN_1
 62
     2
  6
CONTINUOUS
 10
-0.997346
 20
3.309772
  0
VERTEX
  8
PLAN_1
 62
     2
  6
CONTINUOUS
 10
-0.999429
 20
3.311437
  0
VERTEX
  8
PLAN_1
 62
     2
  6
CONTINUOUS
 10
-1.001925
 20
3.313102
  0
VERTEX
  8
PLAN_1
 62
     2
  6
CONTINUOUS
 10
-1.004843
 20
3.313933
  0
VERTEX
  8
PLAN_1
 62
     2
  6
CONTINUOUS
 10
-1.008587
 20
3.314350
  0
VERTEX
  8
PLAN_1
 62
     2
  6
CONTINUOUS
 10
-1.011087
 20
3.314350
  0
VERTEX
  8
PLAN_1
 62
     2
  6
CONTINUOUS
 10
-1.013169
 20
3.313520
  0
VERTEX
  8
PLAN_1
 62
     2
  6
CONTINUOUS
 10
-1.015248
 20
3.313102
  0
VERTEX
  8
PLAN_1
 62
     2
  6
CONTINUOUS
 10
-1.016913
 20
3.312268
  0
VERTEX
  8
PLAN_1
 62
     2
  6
CONTINUOUS
 10
-1.018161
 20
3.311020
  0
VERTEX
  8
PLAN_1
 62
     2
  6
CONTINUOUS
 10
-1.019413
 20
3.309772
  0
VERTEX
  8
PLAN_1
 62
     2
  6
CONTINUOUS
 10
-1.020244
 20
3.308524
  0
VERTEX
  8
PLAN_1
 62
     2
  6
CONTINUOUS
 10
-1.021079
 20
3.307276
  0
VERTEX
  8
PLAN_1
 62
     2
  6
CONTINUOUS
 10
-1.022327
 20
3.304358
  0
VERTEX
  8
PLAN_1
 62
     2
  6
CONTINUOUS
 10
-1.023157
 20
3.301445
  0
VERTEX
  8
PLAN_1
 62
     2
  6
CONTINUOUS
 10
-1.023157
 20
3.298531
  0
VERTEX
  8
PLAN_1
 62
     2
  6
CONTINUOUS
 10
-1.023575
 20
3.296449
  0
VERTEX
  8
PLAN_1
 62
     2
  6
CONTINUOUS
 10
-1.032736
 20
3.296449
  0
SEQEND
  8
0
  0
POLYLINE
  8
PLAN_1
 62
     2
  6
CONTINUOUS
 66
     1
 40
0.004161
 41
0.004161
  0
VERTEX
  8
PLAN_1
 62
     2
  6
CONTINUOUS
 10
-1.917000
 20
2.549154
  0
VERTEX
  8
PLAN_1
 62
     2
  6
CONTINUOUS
 10
-1.917000
 20
2.697780
  0
SEQEND
  8
0
  0
POLYLINE
  8
PLAN_1
 62
     2
  6
CONTINUOUS
 66
     1
 40
0.013736
 41
0.013736
  0
VERTEX
  8
PLAN_1
 62
     2
  6
CONTINUOUS
 10
-1.917000
 20
2.727339
  0
VERTEX
  8
PLAN_1
 62
     2
  6
CONTINUOUS
 10
-1.932823
 20
2.668220
  0
VERTEX
  8
PLAN_1
 62
     2
  6
CONTINUOUS
 10
-1.901181
 20
2.668220
  0
VERTEX
  8
PLAN_1
 62
     2
  6
CONTINUOUS
 10
-1.917000
 20
2.727339
  0
SEQEND
  8
0
  0
POLYLINE
  8
PLAN_1
 62
     2
  6
CONTINUOUS
 66
     1
 40
0.013736
 41
0.013736
  0
VERTEX
  8
PLAN_1
 62
     2
  6
CONTINUOUS
 10
-1.917000
 20
2.519594
  0
VERTEX
  8
PLAN_1
 62
     2
  6
CONTINUOUS
 10
-1.932823
 20
2.578713
  0
VERTEX
  8
PLAN_1
 62
     2
  6
CONTINUOUS
 10
-1.901181
 20
2.578713
  0
VERTEX
  8
PLAN_1
 62
     2
  6
CONTINUOUS
 10
-1.917000
 20
2.519594
  0
SEQEND
  8
0
  0
POLYLINE
  8
PLAN_1
 62
     2
  6
CONTINUOUS
 66
     1
 40
0.013736
 41
0.013736
  0
VERTEX
  8
PLAN_1
 62
     2
  6
CONTINUOUS
 10
-1.983197
 20
2.609520
  0
VERTEX
  8
PLAN_1
 62
     2
  6
CONTINUOUS
 10
-1.984028
 20
2.610768
  0
VERTEX
  8
PLAN_1
 62
     2
  6
CONTINUOUS
 10
-1.984862
 20
2.612433
  0
VERTEX
  8
PLAN_1
 62
     2
  6
CONTINUOUS
 10
-1.985693
 20
2.613681
  0
VERTEX
  8
PLAN_1
 62
     2
  6
CONTINUOUS
 10
-1.986110
 20
2.615346
  0
VERTEX
  8
PLAN_1
 62
     2
  6
CONTINUOUS
 10
-1.986945
 20
2.617429
  0
VERTEX
  8
PLAN_1
 62
     2
  6
CONTINUOUS
 10
-1.987358
 20
2.619094
  0
VERTEX
  8
PLAN_1
 62
     2
  6
CONTINUOUS
 10
-1.987358
 20
2.621591
  0
VERTEX
  8
PLAN_1
 62
     2
  6
CONTINUOUS
 10
-1.987776
 20
2.623673
  0
VERTEX
  8
PLAN_1
 62
     2
  6
CONTINUOUS
 10
-1.987358
 20
2.628252
  0
VERTEX
  8
PLAN_1
 62
     2
  6
CONTINUOUS
 10
-1.986110
 20
2.632417
  0
VERTEX
  8
PLAN_1
 62
     2
  6
CONTINUOUS
 10
-1.984028
 20
2.636579
  0
VERTEX
  8
PLAN_1
 62
     2
  6
CONTINUOUS
 10
-1.981531
 20
2.640327
  0
VERTEX
  8
PLAN_1
 62
     2
  6
CONTINUOUS
 10
-1.979866
 20
2.641992
  0
VERTEX
  8
PLAN_1
 62
     2
  6
CONTINUOUS
 10
-1.978201
 20
2.643240
  0
VERTEX
  8
PLAN_1
 62
     2
  6
CONTINUOUS
 10
-1.976118
 20
2.644488
  0
VERTEX
  8
PLAN_1
 62
     2
  6
CONTINUOUS
 10
-1.974035
 20
2.645740
  0
VERTEX
  8
PLAN_1
 62
     2
  6
CONTINUOUS
 10
-1.971957
 20
2.646571
  0
VERTEX
  8
PLAN_1
 62
     2
  6
CONTINUOUS
 10
-1.969457
 20
2.647406
  0
VERTEX
  8
PLAN_1
 62
     2
  6
CONTINUOUS
 10
-1.966961
 20
2.647819
  0
VERTEX
  8
PLAN_1
 62
     2
  6
CONTINUOUS
 10
-1.964047
 20
2.647819
  0
VERTEX
  8
PLAN_1
 62
     2
  6
CONTINUOUS
 10
-1.960717
 20
2.647819
  0
VERTEX
  8
PLAN_1
 62
     2
  6
CONTINUOUS
 10
-1.956969
 20
2.646988
  0
VERTEX
  8
PLAN_1
 62
     2
  6
CONTINUOUS
 10
-1.952390
 20
2.645323
  0
VERTEX
  8
PLAN_1
 62
     2
  6
CONTINUOUS
 10
-1.948224
 20
2.643240
  0
VERTEX
  8
PLAN_1
 62
     2
  6
CONTINUOUS
 10
-1.946146
 20
2.641575
  0
VERTEX
  8
PLAN_1
 62
     2
  6
CONTINUOUS
 10
-1.944480
 20
2.639909
  0
VERTEX
  8
PLAN_1
 62
     2
  6
CONTINUOUS
 10
-1.942815
 20
2.637413
  0
VERTEX
  8
PLAN_1
 62
     2
  6
CONTINUOUS
 10
-1.941563
 20
2.635331
  0
VERTEX
  8
PLAN_1
 62
     2
  6
CONTINUOUS
 10
-1.940315
 20
2.632417
  0
VERTEX
  8
PLAN_1
 62
     2
  6
CONTINUOUS
 10
-1.939484
 20
2.629087
  0
VERTEX
  8
PLAN_1
 62
     2
  6
CONTINUOUS
 10
-1.938650
 20
2.625339
  0
VERTEX
  8
PLAN_1
 62
     2
  6
CONTINUOUS
 10
-1.938650
 20
2.621177
  0
VERTEX
  8
PLAN_1
 62
     2
  6
CONTINUOUS
 10
-1.938650
 20
2.617429
  0
VERTEX
  8
PLAN_1
 62
     2
  6
CONTINUOUS
 10
-1.939484
 20
2.613681
  0
VERTEX
  8
PLAN_1
 62
     2
  6
CONTINUOUS
 10
-1.940732
 20
2.609937
  0
VERTEX
  8
PLAN_1
 62
     2
  6
CONTINUOUS
 10
-1.942398
 20
2.606606
  0
VERTEX
  8
PLAN_1
 62
     2
  6
CONTINUOUS
 10
-1.943646
 20
2.604941
  0
VERTEX
  8
PLAN_1
 62
     2
  6
CONTINUOUS
 10
-1.945311
 20
2.603276
  0
VERTEX
  8
PLAN_1
 62
     2
  6
CONTINUOUS
 10
-1.946976
 20
2.602024
  0
VERTEX
  8
PLAN_1
 62
     2
  6
CONTINUOUS
 10
-1.948642
 20
2.600776
  0
VERTEX
  8
PLAN_1
 62
     2
  6
CONTINUOUS
 10
-1.950724
 20
2.599528
  0
VERTEX
  8
PLAN_1
 62
     2
  6
CONTINUOUS
 10
-1.953220
 20
2.598693
  0
VERTEX
  8
PLAN_1
 62
     2
  6
CONTINUOUS
 10
-1.955720
 20
2.598280
  0
VERTEX
  8
PLAN_1
 62
     2
  6
CONTINUOUS
 10
-1.958634
 20
2.597862
  0
VERTEX
  8
PLAN_1
 62
     2
  6
CONTINUOUS
 10
-1.958634
 20
2.607020
  0
VERTEX
  8
PLAN_1
 62
     2
  6
CONTINUOUS
 10
-1.955720
 20
2.607854
  0
VERTEX
  8
PLAN_1
 62
     2
  6
CONTINUOUS
 10
-1.953220
 20
2.608685
  0
VERTEX
  8
PLAN_1
 62
     2
  6
CONTINUOUS
 10
-1.951138
 20
2.610350
  0
VERTEX
  8
PLAN_1
 62
     2
  6
CONTINUOUS
 10
-1.949472
 20
2.612016
  0
VERTEX
  8
PLAN_1
 62
     2
  6
CONTINUOUS
 10
-1.948224
 20
2.614516
  0
VERTEX
  8
PLAN_1
 62
     2
  6
CONTINUOUS
 10
-1.946976
 20
2.617012
  0
VERTEX
  8
PLAN_1
 62
     2
  6
CONTINUOUS
 10
-1.946559
 20
2.619512
  0
VERTEX
  8
PLAN_1
 62
     2
  6
CONTINUOUS
 10
-1.946559
 20
2.622843
  0
VERTEX
  8
PLAN_1
 62
     2
  6
CONTINUOUS
 10
-1.946559
 20
2.626173
  0
VERTEX
  8
PLAN_1
 62
     2
  6
CONTINUOUS
 10
-1.947807
 20
2.629087
  0
VERTEX
  8
PLAN_1
 62
     2
  6
CONTINUOUS
 10
-1.949472
 20
2.631583
  0
VERTEX
  8
PLAN_1
 62
     2
  6
CONTINUOUS
 10
-1.951555
 20
2.634083
  0
VERTEX
  8
PLAN_1
 62
     2
  6
CONTINUOUS
 10
-1.954055
 20
2.635748
  0
VERTEX
  8
PLAN_1
 62
     2
  6
CONTINUOUS
 10
-1.956551
 20
2.636996
  0
VERTEX
  8
PLAN_1
 62
     2
  6
CONTINUOUS
 10
-1.959882
 20
2.637831
  0
VERTEX
  8
PLAN_1
 62
     2
  6
CONTINUOUS
 10
-1.963213
 20
2.638244
  0
VERTEX
  8
PLAN_1
 62
     2
  6
CONTINUOUS
 10
-1.966961
 20
2.637831
  0
VERTEX
  8
PLAN_1
 62
     2
  6
CONTINUOUS
 10
-1.970291
 20
2.636996
  0
VERTEX
  8
PLAN_1
 62
     2
  6
CONTINUOUS
 10
-1.972787
 20
2.635331
  0
VERTEX
  8
PLAN_1
 62
     2
  6
CONTINUOUS
 10
-1.975287
 20
2.633248
  0
VERTEX
  8
PLAN_1
 62
     2
  6
CONTINUOUS
 10
-1.976953
 20
2.630752
  0
VERTEX
  8
PLAN_1
 62
     2
  6
CONTINUOUS
 10
-1.978201
 20
2.628252
  0
VERTEX
  8
PLAN_1
 62
     2
  6
CONTINUOUS
 10
-1.979031
 20
2.625339
  0
VERTEX
  8
PLAN_1
 62
     2
  6
CONTINUOUS
 10
-1.979449
 20
2.622008
  0
VERTEX
  8
PLAN_1
 62
     2
  6
CONTINUOUS
 10
-1.979449
 20
2.619925
  0
VERTEX
  8
PLAN_1
 62
     2
  6
CONTINUOUS
 10
-1.979031
 20
2.617846
  0
VERTEX
  8
PLAN_1
 62
     2
  6
CONTINUOUS
 10
-1.978201
 20
2.616181
  0
VERTEX
  8
PLAN_1
 62
     2
  6
CONTINUOUS
 10
-1.977783
 20
2.614516
  0
VERTEX
  8
PLAN_1
 62
     2
  6
CONTINUOUS
 10
-1.976535
 20
2.612850
  0
VERTEX
  8
PLAN_1
 62
     2
  6
CONTINUOUS
 10
-1.975287
 20
2.611185
  0
VERTEX
  8
PLAN_1
 62
     2
  6
CONTINUOUS
 10
-1.974035
 20
2.609520
  0
VERTEX
  8
PLAN_1
 62
     2
  6
CONTINUOUS
 10
-1.972370
 20
2.608272
  0
VERTEX
  8
PLAN_1
 62
     2
  6
CONTINUOUS
 10
-1.972787
 20
2.600358
  0
VERTEX
  8
PLAN_1
 62
     2
  6
CONTINUOUS
 10
-2.011921
 20
2.605772
  0
VERTEX
  8
PLAN_1
 62
     2
  6
CONTINUOUS
 10
-2.011921
 20
2.643657
  0
VERTEX
  8
PLAN_1
 62
     2
  6
CONTINUOUS
 10
-2.003181
 20
2.643657
  0
VERTEX
  8
PLAN_1
 62
     2
  6
CONTINUOUS
 10
-2.003181
 20
2.612850
  0
VERTEX
  8
PLAN_1
 62
     2
  6
CONTINUOUS
 10
-1.983197
 20
2.609520
  0
SEQEND
  8
0
  0
POLYLINE
  8
PLAN_1
 62
     2
  6
CONTINUOUS
 66
     1
 40
0.004161
 41
0.004161
  0
VERTEX
  8
PLAN_1
 62
     2
  6
CONTINUOUS
 10
-1.354551
 20
2.519594
  0
VERTEX
  8
PLAN_1
 62
     2
  6
CONTINUOUS
 10
-1.940315
 20
2.519594
  0
SEQEND
  8
0
  0
POLYLINE
  8
PLAN_1
 62
     2
  6
CONTINUOUS
 66
     1
 40
0.004161
 41
0.004161
  0
VERTEX
  8
PLAN_1
 62
     2
  6
CONTINUOUS
 10
-1.354551
 20
2.727339
  0
VERTEX
  8
PLAN_1
 62
     2
  6
CONTINUOUS
 10
-1.944063
 20
2.727339
  0
SEQEND
  8
0
  0
POLYLINE
  8
PLAN_1
 62
     2
  6
CONTINUOUS
 66
     1
 40
0.004161
 41
0.004161
  0
VERTEX
  8
PLAN_1
 62
     2
  6
CONTINUOUS
 10
-1.327075
 20
2.735665
  0
VERTEX
  8
PLAN_1
 62
     2
  6
CONTINUOUS
 10
-1.327075
 20
3.249406
  0
SEQEND
  8
0
  0
POLYLINE
  8
PLAN_1
 62
     2
  6
CONTINUOUS
 66
     1
 40
0.004161
 41
0.004161
  0
VERTEX
  8
PLAN_1
 62
     2
  6
CONTINUOUS
 10
-0.828319
 20
2.735665
  0
VERTEX
  8
PLAN_1
 62
     2
  6
CONTINUOUS
 10
-0.828319
 20
3.249406
  0
SEQEND
  8
0
  0
ENDSEC
  0
EOF
