  0
SECTION
  2
HEADER
  9
$ACADVER
  1
AC1006
  9
$EXTMIN
 10
-1.944390
 20
-3.372992
  9
$EXTMAX
 10
1.941000
 20
3.375000
  9
$LTSCALE
 40
0.000394
  9
$PDMODE
 70
    35
  9
$PDSIZE
 40
0.000315
  0
ENDSEC
  0
SECTION
  2
TABLES
  0
TABLE
  2
LTYPE
 70
     9
  0
LTYPE
  2
CONTINUOUS
 70
    64
  3
Solid line
 72
    65
 73
     0
 40
0.000000
  0
LTYPE
  2
DASHED
 70
    64
  3
__ __ __ __ __ __ __ __ __ __ __ __ __ __ __
 72
    65
 73
     2
 40
0.000003
 49
0.000002
 49
-0.000001
  0
LTYPE
  2
HIDDEN
 70
    64
  3
 _ _ _ _ _ _ _ _ _ _ _ _ _ _ _ _ _ _ _ _ _ _
 72
    65
 73
     2
 40
0.000001
 49
0.000001
 49
-0.000000
  0
LTYPE
  2
CENTER
 70
    64
  3
____ _ ____ _ ____ _ ____ _ ____ _ ____ _ ____
 72
    65
 73
     4
 40
0.000008
 49
0.000005
 49
-0.000001
 49
0.000001
 49
-0.000001
  0
LTYPE
  2
PHANTOM
 70
    64
  3
_____ _ _ _____ _ _ _____ _ _ _____ _ _ ____
 72
    65
 73
     6
 40
0.000010
 49
0.000005
 49
-0.000001
 49
0.000001
 49
-0.000001
 49
0.000001
 49
-0.000001
  0
LTYPE
  2
DOT
 70
    64
  3
...............................................
 72
    65
 73
     2
 40
0.000001
 49
0.000000
 49
-0.000001
  0
LTYPE
  2
DASHDOT
 70
    64
  3
__ . __ . __ . __ . __ . __ . __ . __ . __ . __
 72
    65
 73
     4
 40
0.000004
 49
0.000002
 49
-0.000001
 49
0.000000
 49
-0.000001
  0
LTYPE
  2
BORDER
 70
    64
  3
__ __ . __ __ . __ __ . __ __ . __ __ . __ __
 72
    65
 73
     6
 40
0.000007
 49
0.000002
 49
-0.000001
 49
0.000002
 49
-0.000001
 49
0.000000
 49
-0.000001
  0
LTYPE
  2
DIVIDE
 70
    64
  3
__ . . __ . . __ . . __ . . __ . . __ . . __
 72
    65
 73
     6
 40
0.000005
 49
0.000002
 49
-0.000001
 49
0.000000
 49
-0.000001
 49
0.000000
 49
-0.000001
  0
LTYPE
  2
DOTDOT
 70
    64
  3
 . .  . .  . .  . .  . .  . . 
 72
    65
 73
     5
 40
0.000002
 49
-0.000001
 49
0.000000
 49
-0.000001
 49
0.000000
 49
-0.000001
  0
ENDTAB
  0
TABLE
  2
STYLE
 70
     0
  0
ENDTAB
  0
TABLE
  2
LAYER
 70
     3
  0
LAYER
  2
FOREGROUND
 70
    64
 62
     7
  6
CONTINUOUS
  0
LAYER
  2
BACKGROUND
 70
    65
 62
    -7
  6
CONTINUOUS
  0
LAYER
  2
PLAN_1
 70
    64
 62
     7
  6
CONTINUOUS
  0
ENDTAB
  0
ENDSEC
  0
SECTION
  2
ENTITIES
  0
POLYLINE
  8
PLAN_1
  6
CONTINUOUS
 66
     1
 40
0.003000
 41
0.003000
  0
VERTEX
  8
PLAN_1
  6
CONTINUOUS
 10
0.080661
 20
-3.338409
  0
VERTEX
  8
PLAN_1
  6
CONTINUOUS
 10
-0.076228
 20
-3.338409
  0
VERTEX
  8
PLAN_1
  6
CONTINUOUS
 10
-0.076228
 20
-3.315634
  0
VERTEX
  8
PLAN_1
  6
CONTINUOUS
 10
0.046079
 20
-3.162961
  0
VERTEX
  8
PLAN_1
  6
CONTINUOUS
 10
-0.066949
 20
-3.162961
  0
VERTEX
  8
PLAN_1
  6
CONTINUOUS
 10
-0.066949
 20
-3.138921
  0
VERTEX
  8
PLAN_1
  6
CONTINUOUS
 10
0.080661
 20
-3.138921
  0
VERTEX
  8
PLAN_1
  6
CONTINUOUS
 10
0.080661
 20
-3.162539
  0
VERTEX
  8
PLAN_1
  6
CONTINUOUS
 10
-0.042067
 20
-3.314370
  0
VERTEX
  8
PLAN_1
  6
CONTINUOUS
 10
0.080661
 20
-3.314370
  0
VERTEX
  8
PLAN_1
  6
CONTINUOUS
 10
0.080661
 20
-3.338409
  0
SEQEND
  8
0
  0
POLYLINE
  8
PLAN_1
  6
CONTINUOUS
 66
     1
 40
0.003000
 41
0.003000
  0
VERTEX
  8
PLAN_1
  6
CONTINUOUS
 10
0.248098
 20
-3.198811
  0
VERTEX
  8
PLAN_1
  6
CONTINUOUS
 10
0.246409
 20
-3.192906
  0
VERTEX
  8
PLAN_1
  6
CONTINUOUS
 10
0.244303
 20
-3.187000
  0
VERTEX
  8
PLAN_1
  6
CONTINUOUS
 10
0.241772
 20
-3.182362
  0
VERTEX
  8
PLAN_1
  6
CONTINUOUS
 10
0.238819
 20
-3.177720
  0
VERTEX
  8
PLAN_1
  6
CONTINUOUS
 10
0.235866
 20
-3.173925
  0
VERTEX
  8
PLAN_1
  6
CONTINUOUS
 10
0.232071
 20
-3.170551
  0
VERTEX
  8
PLAN_1
  6
CONTINUOUS
 10
0.228697
 20
-3.167598
  0
VERTEX
  8
PLAN_1
  6
CONTINUOUS
 10
0.224480
 20
-3.165071
  0
VERTEX
  8
PLAN_1
  6
CONTINUOUS
 10
0.220685
 20
-3.163382
  0
VERTEX
  8
PLAN_1
  6
CONTINUOUS
 10
0.216465
 20
-3.161697
  0
VERTEX
  8
PLAN_1
  6
CONTINUOUS
 10
0.212248
 20
-3.160008
  0
VERTEX
  8
PLAN_1
  6
CONTINUOUS
 10
0.208031
 20
-3.159165
  0
VERTEX
  8
PLAN_1
  6
CONTINUOUS
 10
0.200020
 20
-3.157902
  0
VERTEX
  8
PLAN_1
  6
CONTINUOUS
 10
0.192425
 20
-3.157476
  0
VERTEX
  8
PLAN_1
  6
CONTINUOUS
 10
0.185677
 20
-3.157902
  0
VERTEX
  8
PLAN_1
  6
CONTINUOUS
 10
0.179350
 20
-3.158744
  0
VERTEX
  8
PLAN_1
  6
CONTINUOUS
 10
0.173028
 20
-3.160429
  0
VERTEX
  8
PLAN_1
  6
CONTINUOUS
 10
0.167122
 20
-3.162539
  0
VERTEX
  8
PLAN_1
  6
CONTINUOUS
 10
0.161217
 20
-3.165492
  0
VERTEX
  8
PLAN_1
  6
CONTINUOUS
 10
0.155736
 20
-3.168866
  0
VERTEX
  8
PLAN_1
  6
CONTINUOUS
 10
0.150673
 20
-3.173083
  0
VERTEX
  8
PLAN_1
  6
CONTINUOUS
 10
0.146035
 20
-3.177720
  0
VERTEX
  8
PLAN_1
  6
CONTINUOUS
 10
0.141815
 20
-3.182783
  0
VERTEX
  8
PLAN_1
  6
CONTINUOUS
 10
0.138441
 20
-3.188689
  0
VERTEX
  8
PLAN_1
  6
CONTINUOUS
 10
0.135067
 20
-3.195016
  0
VERTEX
  8
PLAN_1
  6
CONTINUOUS
 10
0.132118
 20
-3.202185
  0
VERTEX
  8
PLAN_1
  6
CONTINUOUS
 10
0.130008
 20
-3.209776
  0
VERTEX
  8
PLAN_1
  6
CONTINUOUS
 10
0.128319
 20
-3.218209
  0
VERTEX
  8
PLAN_1
  6
CONTINUOUS
 10
0.127476
 20
-3.227067
  0
VERTEX
  8
PLAN_1
  6
CONTINUOUS
 10
0.127055
 20
-3.236768
  0
VERTEX
  8
PLAN_1
  6
CONTINUOUS
 10
0.127476
 20
-3.245201
  0
VERTEX
  8
PLAN_1
  6
CONTINUOUS
 10
0.127898
 20
-3.253638
  0
VERTEX
  8
PLAN_1
  6
CONTINUOUS
 10
0.129165
 20
-3.261650
  0
VERTEX
  8
PLAN_1
  6
CONTINUOUS
 10
0.130429
 20
-3.269665
  0
VERTEX
  8
PLAN_1
  6
CONTINUOUS
 10
0.132539
 20
-3.276835
  0
VERTEX
  8
PLAN_1
  6
CONTINUOUS
 10
0.135067
 20
-3.283583
  0
VERTEX
  8
PLAN_1
  6
CONTINUOUS
 10
0.138020
 20
-3.289909
  0
VERTEX
  8
PLAN_1
  6
CONTINUOUS
 10
0.141815
 20
-3.295811
  0
VERTEX
  8
PLAN_1
  6
CONTINUOUS
 10
0.143504
 20
-3.298343
  0
VERTEX
  8
PLAN_1
  6
CONTINUOUS
 10
0.145614
 20
-3.301295
  0
VERTEX
  8
PLAN_1
  6
CONTINUOUS
 10
0.148142
 20
-3.303402
  0
VERTEX
  8
PLAN_1
  6
CONTINUOUS
 10
0.150673
 20
-3.305933
  0
VERTEX
  8
PLAN_1
  6
CONTINUOUS
 10
0.153205
 20
-3.308043
  0
VERTEX
  8
PLAN_1
  6
CONTINUOUS
 10
0.156157
 20
-3.309728
  0
VERTEX
  8
PLAN_1
  6
CONTINUOUS
 10
0.159110
 20
-3.311839
  0
VERTEX
  8
PLAN_1
  6
CONTINUOUS
 10
0.162059
 20
-3.313524
  0
VERTEX
  8
PLAN_1
  6
CONTINUOUS
 10
0.165433
 20
-3.314791
  0
VERTEX
  8
PLAN_1
  6
CONTINUOUS
 10
0.168807
 20
-3.316055
  0
VERTEX
  8
PLAN_1
  6
CONTINUOUS
 10
0.172181
 20
-3.317323
  0
VERTEX
  8
PLAN_1
  6
CONTINUOUS
 10
0.175976
 20
-3.318165
  0
VERTEX
  8
PLAN_1
  6
CONTINUOUS
 10
0.180197
 20
-3.318587
  0
VERTEX
  8
PLAN_1
  6
CONTINUOUS
 10
0.184413
 20
-3.319429
  0
VERTEX
  8
PLAN_1
  6
CONTINUOUS
 10
0.188630
 20
-3.319429
  0
VERTEX
  8
PLAN_1
  6
CONTINUOUS
 10
0.193272
 20
-3.319850
  0
VERTEX
  8
PLAN_1
  6
CONTINUOUS
 10
0.196646
 20
-3.319429
  0
VERTEX
  8
PLAN_1
  6
CONTINUOUS
 10
0.200441
 20
-3.319429
  0
VERTEX
  8
PLAN_1
  6
CONTINUOUS
 10
0.204236
 20
-3.318587
  0
VERTEX
  8
PLAN_1
  6
CONTINUOUS
 10
0.208031
 20
-3.317744
  0
VERTEX
  8
PLAN_1
  6
CONTINUOUS
 10
0.212248
 20
-3.316476
  0
VERTEX
  8
PLAN_1
  6
CONTINUOUS
 10
0.216465
 20
-3.314791
  0
VERTEX
  8
PLAN_1
  6
CONTINUOUS
 10
0.220685
 20
-3.312260
  0
VERTEX
  8
PLAN_1
  6
CONTINUOUS
 10
0.224902
 20
-3.309728
  0
VERTEX
  8
PLAN_1
  6
CONTINUOUS
 10
0.228697
 20
-3.306354
  0
VERTEX
  8
PLAN_1
  6
CONTINUOUS
 10
0.232492
 20
-3.302559
  0
VERTEX
  8
PLAN_1
  6
CONTINUOUS
 10
0.236287
 20
-3.298343
  0
VERTEX
  8
PLAN_1
  6
CONTINUOUS
 10
0.239661
 20
-3.293283
  0
VERTEX
  8
PLAN_1
  6
CONTINUOUS
 10
0.243035
 20
-3.287378
  0
VERTEX
  8
PLAN_1
  6
CONTINUOUS
 10
0.245567
 20
-3.280630
  0
VERTEX
  8
PLAN_1
  6
CONTINUOUS
 10
0.248098
 20
-3.273461
  0
VERTEX
  8
PLAN_1
  6
CONTINUOUS
 10
0.250205
 20
-3.265024
  0
VERTEX
  8
PLAN_1
  6
CONTINUOUS
 10
0.276354
 20
-3.265024
  0
VERTEX
  8
PLAN_1
  6
CONTINUOUS
 10
0.275091
 20
-3.271772
  0
VERTEX
  8
PLAN_1
  6
CONTINUOUS
 10
0.273402
 20
-3.278520
  0
VERTEX
  8
PLAN_1
  6
CONTINUOUS
 10
0.271717
 20
-3.284425
  0
VERTEX
  8
PLAN_1
  6
CONTINUOUS
 10
0.270028
 20
-3.289909
  0
VERTEX
  8
PLAN_1
  6
CONTINUOUS
 10
0.267496
 20
-3.295390
  0
VERTEX
  8
PLAN_1
  6
CONTINUOUS
 10
0.265390
 20
-3.300028
  0
VERTEX
  8
PLAN_1
  6
CONTINUOUS
 10
0.262858
 20
-3.304669
  0
VERTEX
  8
PLAN_1
  6
CONTINUOUS
 10
0.259906
 20
-3.308886
  0
VERTEX
  8
PLAN_1
  6
CONTINUOUS
 10
0.256953
 20
-3.313102
  0
VERTEX
  8
PLAN_1
  6
CONTINUOUS
 10
0.254000
 20
-3.316476
  0
VERTEX
  8
PLAN_1
  6
CONTINUOUS
 10
0.251051
 20
-3.319850
  0
VERTEX
  8
PLAN_1
  6
CONTINUOUS
 10
0.247677
 20
-3.322803
  0
VERTEX
  8
PLAN_1
  6
CONTINUOUS
 10
0.244303
 20
-3.325756
  0
VERTEX
  8
PLAN_1
  6
CONTINUOUS
 10
0.240929
 20
-3.328287
  0
VERTEX
  8
PLAN_1
  6
CONTINUOUS
 10
0.237555
 20
-3.330394
  0
VERTEX
  8
PLAN_1
  6
CONTINUOUS
 10
0.234181
 20
-3.332504
  0
VERTEX
  8
PLAN_1
  6
CONTINUOUS
 10
0.227012
 20
-3.335878
  0
VERTEX
  8
PLAN_1
  6
CONTINUOUS
 10
0.220264
 20
-3.338409
  0
VERTEX
  8
PLAN_1
  6
CONTINUOUS
 10
0.213516
 20
-3.340516
  0
VERTEX
  8
PLAN_1
  6
CONTINUOUS
 10
0.207189
 20
-3.341783
  0
VERTEX
  8
PLAN_1
  6
CONTINUOUS
 10
0.196646
 20
-3.343469
  0
VERTEX
  8
PLAN_1
  6
CONTINUOUS
 10
0.189051
 20
-3.343469
  0
VERTEX
  8
PLAN_1
  6
CONTINUOUS
 10
0.180618
 20
-3.343047
  0
VERTEX
  8
PLAN_1
  6
CONTINUOUS
 10
0.172181
 20
-3.342205
  0
VERTEX
  8
PLAN_1
  6
CONTINUOUS
 10
0.163748
 20
-3.340516
  0
VERTEX
  8
PLAN_1
  6
CONTINUOUS
 10
0.155736
 20
-3.337988
  0
VERTEX
  8
PLAN_1
  6
CONTINUOUS
 10
0.151937
 20
-3.336299
  0
VERTEX
  8
PLAN_1
  6
CONTINUOUS
 10
0.148142
 20
-3.334614
  0
VERTEX
  8
PLAN_1
  6
CONTINUOUS
 10
0.144346
 20
-3.332504
  0
VERTEX
  8
PLAN_1
  6
CONTINUOUS
 10
0.140972
 20
-3.330394
  0
VERTEX
  8
PLAN_1
  6
CONTINUOUS
 10
0.137177
 20
-3.327866
  0
VERTEX
  8
PLAN_1
  6
CONTINUOUS
 10
0.133803
 20
-3.325335
  0
VERTEX
  8
PLAN_1
  6
CONTINUOUS
 10
0.130429
 20
-3.322382
  0
VERTEX
  8
PLAN_1
  6
CONTINUOUS
 10
0.127055
 20
-3.319429
  0
VERTEX
  8
PLAN_1
  6
CONTINUOUS
 10
0.124102
 20
-3.316055
  0
VERTEX
  8
PLAN_1
  6
CONTINUOUS
 10
0.121150
 20
-3.312681
  0
VERTEX
  8
PLAN_1
  6
CONTINUOUS
 10
0.118622
 20
-3.308886
  0
VERTEX
  8
PLAN_1
  6
CONTINUOUS
 10
0.115669
 20
-3.304669
  0
VERTEX
  8
PLAN_1
  6
CONTINUOUS
 10
0.113138
 20
-3.300453
  0
VERTEX
  8
PLAN_1
  6
CONTINUOUS
 10
0.111028
 20
-3.296232
  0
VERTEX
  8
PLAN_1
  6
CONTINUOUS
 10
0.108921
 20
-3.291594
  0
VERTEX
  8
PLAN_1
  6
CONTINUOUS
 10
0.107232
 20
-3.286535
  0
VERTEX
  8
PLAN_1
  6
CONTINUOUS
 10
0.105126
 20
-3.281051
  0
VERTEX
  8
PLAN_1
  6
CONTINUOUS
 10
0.103858
 20
-3.275988
  0
VERTEX
  8
PLAN_1
  6
CONTINUOUS
 10
0.102594
 20
-3.270087
  0
VERTEX
  8
PLAN_1
  6
CONTINUOUS
 10
0.101327
 20
-3.264181
  0
VERTEX
  8
PLAN_1
  6
CONTINUOUS
 10
0.100484
 20
-3.257854
  0
VERTEX
  8
PLAN_1
  6
CONTINUOUS
 10
0.100063
 20
-3.251528
  0
VERTEX
  8
PLAN_1
  6
CONTINUOUS
 10
0.099642
 20
-3.244780
  0
VERTEX
  8
PLAN_1
  6
CONTINUOUS
 10
0.099220
 20
-3.237610
  0
VERTEX
  8
PLAN_1
  6
CONTINUOUS
 10
0.099642
 20
-3.226224
  0
VERTEX
  8
PLAN_1
  6
CONTINUOUS
 10
0.100906
 20
-3.215681
  0
VERTEX
  8
PLAN_1
  6
CONTINUOUS
 10
0.101752
 20
-3.210197
  0
VERTEX
  8
PLAN_1
  6
CONTINUOUS
 10
0.103016
 20
-3.205138
  0
VERTEX
  8
PLAN_1
  6
CONTINUOUS
 10
0.104280
 20
-3.200496
  0
VERTEX
  8
PLAN_1
  6
CONTINUOUS
 10
0.105547
 20
-3.195437
  0
VERTEX
  8
PLAN_1
  6
CONTINUOUS
 10
0.107232
 20
-3.190795
  0
VERTEX
  8
PLAN_1
  6
CONTINUOUS
 10
0.109343
 20
-3.186157
  0
VERTEX
  8
PLAN_1
  6
CONTINUOUS
 10
0.111449
 20
-3.181941
  0
VERTEX
  8
PLAN_1
  6
CONTINUOUS
 10
0.113559
 20
-3.177720
  0
VERTEX
  8
PLAN_1
  6
CONTINUOUS
 10
0.116091
 20
-3.173925
  0
VERTEX
  8
PLAN_1
  6
CONTINUOUS
 10
0.118622
 20
-3.169709
  0
VERTEX
  8
PLAN_1
  6
CONTINUOUS
 10
0.121150
 20
-3.166335
  0
VERTEX
  8
PLAN_1
  6
CONTINUOUS
 10
0.124102
 20
-3.162539
  0
VERTEX
  8
PLAN_1
  6
CONTINUOUS
 10
0.127055
 20
-3.159165
  0
VERTEX
  8
PLAN_1
  6
CONTINUOUS
 10
0.130429
 20
-3.156213
  0
VERTEX
  8
PLAN_1
  6
CONTINUOUS
 10
0.133803
 20
-3.153260
  0
VERTEX
  8
PLAN_1
  6
CONTINUOUS
 10
0.137598
 20
-3.150307
  0
VERTEX
  8
PLAN_1
  6
CONTINUOUS
 10
0.140972
 20
-3.147780
  0
VERTEX
  8
PLAN_1
  6
CONTINUOUS
 10
0.145189
 20
-3.145669
  0
VERTEX
  8
PLAN_1
  6
CONTINUOUS
 10
0.148988
 20
-3.143138
  0
VERTEX
  8
PLAN_1
  6
CONTINUOUS
 10
0.153205
 20
-3.141453
  0
VERTEX
  8
PLAN_1
  6
CONTINUOUS
 10
0.157843
 20
-3.139764
  0
VERTEX
  8
PLAN_1
  6
CONTINUOUS
 10
0.162059
 20
-3.138079
  0
VERTEX
  8
PLAN_1
  6
CONTINUOUS
 10
0.166701
 20
-3.136811
  0
VERTEX
  8
PLAN_1
  6
CONTINUOUS
 10
0.171760
 20
-3.135547
  0
VERTEX
  8
PLAN_1
  6
CONTINUOUS
 10
0.176823
 20
-3.134705
  0
VERTEX
  8
PLAN_1
  6
CONTINUOUS
 10
0.181882
 20
-3.134283
  0
VERTEX
  8
PLAN_1
  6
CONTINUOUS
 10
0.186945
 20
-3.133858
  0
VERTEX
  8
PLAN_1
  6
CONTINUOUS
 10
0.192425
 20
-3.133858
  0
VERTEX
  8
PLAN_1
  6
CONTINUOUS
 10
0.201705
 20
-3.134283
  0
VERTEX
  8
PLAN_1
  6
CONTINUOUS
 10
0.210563
 20
-3.135126
  0
VERTEX
  8
PLAN_1
  6
CONTINUOUS
 10
0.218575
 20
-3.136811
  0
VERTEX
  8
PLAN_1
  6
CONTINUOUS
 10
0.226165
 20
-3.139343
  0
VERTEX
  8
PLAN_1
  6
CONTINUOUS
 10
0.233335
 20
-3.142295
  0
VERTEX
  8
PLAN_1
  6
CONTINUOUS
 10
0.239661
 20
-3.145669
  0
VERTEX
  8
PLAN_1
  6
CONTINUOUS
 10
0.245567
 20
-3.149465
  0
VERTEX
  8
PLAN_1
  6
CONTINUOUS
 10
0.251051
 20
-3.154102
  0
VERTEX
  8
PLAN_1
  6
CONTINUOUS
 10
0.255689
 20
-3.158744
  0
VERTEX
  8
PLAN_1
  6
CONTINUOUS
 10
0.260327
 20
-3.163803
  0
VERTEX
  8
PLAN_1
  6
CONTINUOUS
 10
0.263701
 20
-3.169287
  0
VERTEX
  8
PLAN_1
  6
CONTINUOUS
 10
0.267075
 20
-3.174772
  0
VERTEX
  8
PLAN_1
  6
CONTINUOUS
 10
0.269606
 20
-3.180673
  0
VERTEX
  8
PLAN_1
  6
CONTINUOUS
 10
0.271717
 20
-3.186579
  0
VERTEX
  8
PLAN_1
  6
CONTINUOUS
 10
0.273402
 20
-3.192906
  0
VERTEX
  8
PLAN_1
  6
CONTINUOUS
 10
0.274244
 20
-3.198811
  0
VERTEX
  8
PLAN_1
  6
CONTINUOUS
 10
0.248098
 20
-3.198811
  0
SEQEND
  8
0
  0
POLYLINE
  8
PLAN_1
  6
CONTINUOUS
 66
     1
 40
0.003000
 41
0.003000
  0
VERTEX
  8
PLAN_1
  6
CONTINUOUS
 10
0.335823
 20
-3.338409
  0
VERTEX
  8
PLAN_1
  6
CONTINUOUS
 10
0.308831
 20
-3.338409
  0
VERTEX
  8
PLAN_1
  6
CONTINUOUS
 10
0.308831
 20
-3.138921
  0
VERTEX
  8
PLAN_1
  6
CONTINUOUS
 10
0.335823
 20
-3.138921
  0
VERTEX
  8
PLAN_1
  6
CONTINUOUS
 10
0.335823
 20
-3.235500
  0
VERTEX
  8
PLAN_1
  6
CONTINUOUS
 10
0.431980
 20
-3.138921
  0
VERTEX
  8
PLAN_1
  6
CONTINUOUS
 10
0.469516
 20
-3.138921
  0
VERTEX
  8
PLAN_1
  6
CONTINUOUS
 10
0.386433
 20
-3.219476
  0
VERTEX
  8
PLAN_1
  6
CONTINUOUS
 10
0.471626
 20
-3.338409
  0
VERTEX
  8
PLAN_1
  6
CONTINUOUS
 10
0.436618
 20
-3.338409
  0
VERTEX
  8
PLAN_1
  6
CONTINUOUS
 10
0.367031
 20
-3.238453
  0
VERTEX
  8
PLAN_1
  6
CONTINUOUS
 10
0.335823
 20
-3.268398
  0
VERTEX
  8
PLAN_1
  6
CONTINUOUS
 10
0.335823
 20
-3.338409
  0
SEQEND
  8
0
  0
POLYLINE
  8
PLAN_1
  6
CONTINUOUS
 66
     1
 40
0.003000
 41
0.003000
  0
VERTEX
  8
PLAN_1
  6
CONTINUOUS
 10
0.643697
 20
-3.338409
  0
VERTEX
  8
PLAN_1
  6
CONTINUOUS
 10
0.496508
 20
-3.338409
  0
VERTEX
  8
PLAN_1
  6
CONTINUOUS
 10
0.496508
 20
-3.138921
  0
VERTEX
  8
PLAN_1
  6
CONTINUOUS
 10
0.641591
 20
-3.138921
  0
VERTEX
  8
PLAN_1
  6
CONTINUOUS
 10
0.641591
 20
-3.162961
  0
VERTEX
  8
PLAN_1
  6
CONTINUOUS
 10
0.523500
 20
-3.162961
  0
VERTEX
  8
PLAN_1
  6
CONTINUOUS
 10
0.523500
 20
-3.224114
  0
VERTEX
  8
PLAN_1
  6
CONTINUOUS
 10
0.632732
 20
-3.224114
  0
VERTEX
  8
PLAN_1
  6
CONTINUOUS
 10
0.632732
 20
-3.247732
  0
VERTEX
  8
PLAN_1
  6
CONTINUOUS
 10
0.523500
 20
-3.247732
  0
VERTEX
  8
PLAN_1
  6
CONTINUOUS
 10
0.523500
 20
-3.314370
  0
VERTEX
  8
PLAN_1
  6
CONTINUOUS
 10
0.643697
 20
-3.314370
  0
VERTEX
  8
PLAN_1
  6
CONTINUOUS
 10
0.643697
 20
-3.338409
  0
SEQEND
  8
0
  0
POLYLINE
  8
PLAN_1
  6
CONTINUOUS
 66
     1
 40
0.003000
 41
0.003000
  0
VERTEX
  8
PLAN_1
  6
CONTINUOUS
 10
0.773598
 20
-3.195016
  0
VERTEX
  8
PLAN_1
  6
CONTINUOUS
 10
0.772331
 20
-3.188689
  0
VERTEX
  8
PLAN_1
  6
CONTINUOUS
 10
0.770224
 20
-3.183205
  0
VERTEX
  8
PLAN_1
  6
CONTINUOUS
 10
0.768957
 20
-3.180673
  0
VERTEX
  8
PLAN_1
  6
CONTINUOUS
 10
0.767272
 20
-3.178146
  0
VERTEX
  8
PLAN_1
  6
CONTINUOUS
 10
0.765583
 20
-3.175614
  0
VERTEX
  8
PLAN_1
  6
CONTINUOUS
 10
0.763476
 20
-3.173504
  0
VERTEX
  8
PLAN_1
  6
CONTINUOUS
 10
0.761366
 20
-3.171819
  0
VERTEX
  8
PLAN_1
  6
CONTINUOUS
 10
0.759256
 20
-3.170130
  0
VERTEX
  8
PLAN_1
  6
CONTINUOUS
 10
0.756728
 20
-3.168445
  0
VERTEX
  8
PLAN_1
  6
CONTINUOUS
 10
0.753776
 20
-3.167598
  0
VERTEX
  8
PLAN_1
  6
CONTINUOUS
 10
0.750823
 20
-3.166335
  0
VERTEX
  8
PLAN_1
  6
CONTINUOUS
 10
0.747449
 20
-3.165913
  0
VERTEX
  8
PLAN_1
  6
CONTINUOUS
 10
0.744075
 20
-3.165492
  0
VERTEX
  8
PLAN_1
  6
CONTINUOUS
 10
0.740280
 20
-3.165071
  0
VERTEX
  8
PLAN_1
  6
CONTINUOUS
 10
0.736484
 20
-3.165492
  0
VERTEX
  8
PLAN_1
  6
CONTINUOUS
 10
0.733110
 20
-3.165913
  0
VERTEX
  8
PLAN_1
  6
CONTINUOUS
 10
0.730157
 20
-3.166335
  0
VERTEX
  8
PLAN_1
  6
CONTINUOUS
 10
0.727205
 20
-3.167598
  0
VERTEX
  8
PLAN_1
  6
CONTINUOUS
 10
0.724252
 20
-3.168445
  0
VERTEX
  8
PLAN_1
  6
CONTINUOUS
 10
0.721720
 20
-3.170130
  0
VERTEX
  8
PLAN_1
  6
CONTINUOUS
 10
0.719193
 20
-3.171819
  0
VERTEX
  8
PLAN_1
  6
CONTINUOUS
 10
0.716661
 20
-3.173504
  0
VERTEX
  8
PLAN_1
  6
CONTINUOUS
 10
0.712445
 20
-3.177720
  0
VERTEX
  8
PLAN_1
  6
CONTINUOUS
 10
0.708650
 20
-3.182362
  0
VERTEX
  8
PLAN_1
  6
CONTINUOUS
 10
0.705276
 20
-3.187843
  0
VERTEX
  8
PLAN_1
  6
CONTINUOUS
 10
0.702744
 20
-3.193327
  0
VERTEX
  8
PLAN_1
  6
CONTINUOUS
 10
0.700213
 20
-3.199232
  0
VERTEX
  8
PLAN_1
  6
CONTINUOUS
 10
0.698528
 20
-3.205559
  0
VERTEX
  8
PLAN_1
  6
CONTINUOUS
 10
0.696839
 20
-3.211461
  0
VERTEX
  8
PLAN_1
  6
CONTINUOUS
 10
0.695575
 20
-3.217366
  0
VERTEX
  8
PLAN_1
  6
CONTINUOUS
 10
0.694307
 20
-3.228331
  0
VERTEX
  8
PLAN_1
  6
CONTINUOUS
 10
0.693886
 20
-3.237189
  0
VERTEX
  8
PLAN_1
  6
CONTINUOUS
 10
0.694307
 20
-3.238031
  0
VERTEX
  8
PLAN_1
  6
CONTINUOUS
 10
0.696839
 20
-3.233815
  0
VERTEX
  8
PLAN_1
  6
CONTINUOUS
 10
0.700213
 20
-3.229598
  0
VERTEX
  8
PLAN_1
  6
CONTINUOUS
 10
0.704850
 20
-3.225803
  0
VERTEX
  8
PLAN_1
  6
CONTINUOUS
 10
0.709913
 20
-3.222004
  0
VERTEX
  8
PLAN_1
  6
CONTINUOUS
 10
0.712866
 20
-3.220319
  0
VERTEX
  8
PLAN_1
  6
CONTINUOUS
 10
0.715819
 20
-3.218630
  0
VERTEX
  8
PLAN_1
  6
CONTINUOUS
 10
0.719193
 20
-3.217366
  0
VERTEX
  8
PLAN_1
  6
CONTINUOUS
 10
0.722988
 20
-3.216102
  0
VERTEX
  8
PLAN_1
  6
CONTINUOUS
 10
0.727205
 20
-3.215256
  0
VERTEX
  8
PLAN_1
  6
CONTINUOUS
 10
0.731421
 20
-3.214413
  0
VERTEX
  8
PLAN_1
  6
CONTINUOUS
 10
0.735642
 20
-3.213992
  0
VERTEX
  8
PLAN_1
  6
CONTINUOUS
 10
0.740701
 20
-3.213992
  0
VERTEX
  8
PLAN_1
  6
CONTINUOUS
 10
0.745339
 20
-3.213992
  0
VERTEX
  8
PLAN_1
  6
CONTINUOUS
 10
0.749980
 20
-3.214835
  0
VERTEX
  8
PLAN_1
  6
CONTINUOUS
 10
0.755039
 20
-3.215681
  0
VERTEX
  8
PLAN_1
  6
CONTINUOUS
 10
0.760102
 20
-3.216945
  0
VERTEX
  8
PLAN_1
  6
CONTINUOUS
 10
0.765583
 20
-3.219055
  0
VERTEX
  8
PLAN_1
  6
CONTINUOUS
 10
0.770646
 20
-3.221161
  0
VERTEX
  8
PLAN_1
  6
CONTINUOUS
 10
0.775283
 20
-3.224114
  0
VERTEX
  8
PLAN_1
  6
CONTINUOUS
 10
0.780346
 20
-3.227488
  0
VERTEX
  8
PLAN_1
  6
CONTINUOUS
 10
0.784563
 20
-3.231283
  0
VERTEX
  8
PLAN_1
  6
CONTINUOUS
 10
0.788780
 20
-3.235925
  0
VERTEX
  8
PLAN_1
  6
CONTINUOUS
 10
0.792575
 20
-3.240984
  0
VERTEX
  8
PLAN_1
  6
CONTINUOUS
 10
0.795528
 20
-3.246469
  0
VERTEX
  8
PLAN_1
  6
CONTINUOUS
 10
0.798059
 20
-3.252795
  0
VERTEX
  8
PLAN_1
  6
CONTINUOUS
 10
0.800169
 20
-3.259965
  0
VERTEX
  8
PLAN_1
  6
CONTINUOUS
 10
0.800591
 20
-3.263760
  0
VERTEX
  8
PLAN_1
  6
CONTINUOUS
 10
0.801433
 20
-3.267555
  0
VERTEX
  8
PLAN_1
  6
CONTINUOUS
 10
0.801433
 20
-3.271772
  0
VERTEX
  8
PLAN_1
  6
CONTINUOUS
 10
0.801854
 20
-3.275988
  0
VERTEX
  8
PLAN_1
  6
CONTINUOUS
 10
0.801433
 20
-3.283161
  0
VERTEX
  8
PLAN_1
  6
CONTINUOUS
 10
0.800591
 20
-3.289909
  0
VERTEX
  8
PLAN_1
  6
CONTINUOUS
 10
0.799323
 20
-3.296232
  0
VERTEX
  8
PLAN_1
  6
CONTINUOUS
 10
0.797217
 20
-3.302559
  0
VERTEX
  8
PLAN_1
  6
CONTINUOUS
 10
0.794685
 20
-3.308043
  0
VERTEX
  8
PLAN_1
  6
CONTINUOUS
 10
0.791732
 20
-3.313949
  0
VERTEX
  8
PLAN_1
  6
CONTINUOUS
 10
0.787937
 20
-3.319429
  0
VERTEX
  8
PLAN_1
  6
CONTINUOUS
 10
0.783299
 20
-3.324913
  0
VERTEX
  8
PLAN_1
  6
CONTINUOUS
 10
0.779079
 20
-3.328709
  0
VERTEX
  8
PLAN_1
  6
CONTINUOUS
 10
0.774862
 20
-3.332504
  0
VERTEX
  8
PLAN_1
  6
CONTINUOUS
 10
0.770224
 20
-3.335878
  0
VERTEX
  8
PLAN_1
  6
CONTINUOUS
 10
0.764740
 20
-3.338409
  0
VERTEX
  8
PLAN_1
  6
CONTINUOUS
 10
0.758835
 20
-3.340516
  0
VERTEX
  8
PLAN_1
  6
CONTINUOUS
 10
0.751665
 20
-3.342205
  0
VERTEX
  8
PLAN_1
  6
CONTINUOUS
 10
0.743232
 20
-3.343047
  0
VERTEX
  8
PLAN_1
  6
CONTINUOUS
 10
0.733531
 20
-3.343469
  0
VERTEX
  8
PLAN_1
  6
CONTINUOUS
 10
0.728047
 20
-3.343047
  0
VERTEX
  8
PLAN_1
  6
CONTINUOUS
 10
0.721720
 20
-3.342205
  0
VERTEX
  8
PLAN_1
  6
CONTINUOUS
 10
0.714972
 20
-3.340516
  0
VERTEX
  8
PLAN_1
  6
CONTINUOUS
 10
0.708224
 20
-3.337567
  0
VERTEX
  8
PLAN_1
  6
CONTINUOUS
 10
0.704850
 20
-3.335878
  0
VERTEX
  8
PLAN_1
  6
CONTINUOUS
 10
0.701476
 20
-3.333768
  0
VERTEX
  8
PLAN_1
  6
CONTINUOUS
 10
0.698102
 20
-3.331240
  0
VERTEX
  8
PLAN_1
  6
CONTINUOUS
 10
0.695154
 20
-3.328709
  0
VERTEX
  8
PLAN_1
  6
CONTINUOUS
 10
0.692201
 20
-3.325756
  0
VERTEX
  8
PLAN_1
  6
CONTINUOUS
 10
0.688827
 20
-3.322803
  0
VERTEX
  8
PLAN_1
  6
CONTINUOUS
 10
0.686295
 20
-3.319008
  0
VERTEX
  8
PLAN_1
  6
CONTINUOUS
 10
0.683343
 20
-3.315213
  0
VERTEX
  8
PLAN_1
  6
CONTINUOUS
 10
0.681232
 20
-3.311839
  0
VERTEX
  8
PLAN_1
  6
CONTINUOUS
 10
0.679547
 20
-3.308043
  0
VERTEX
  8
PLAN_1
  6
CONTINUOUS
 10
0.677858
 20
-3.304248
  0
VERTEX
  8
PLAN_1
  6
CONTINUOUS
 10
0.676173
 20
-3.300453
  0
VERTEX
  8
PLAN_1
  6
CONTINUOUS
 10
0.673642
 20
-3.292437
  0
VERTEX
  8
PLAN_1
  6
CONTINUOUS
 10
0.671535
 20
-3.284004
  0
VERTEX
  8
PLAN_1
  6
CONTINUOUS
 10
0.670268
 20
-3.275567
  0
VERTEX
  8
PLAN_1
  6
CONTINUOUS
 10
0.669425
 20
-3.266291
  0
VERTEX
  8
PLAN_1
  6
CONTINUOUS
 10
0.668583
 20
-3.257012
  0
VERTEX
  8
PLAN_1
  6
CONTINUOUS
 10
0.668583
 20
-3.247732
  0
VERTEX
  8
PLAN_1
  6
CONTINUOUS
 10
0.668583
 20
-3.239299
  0
VERTEX
  8
PLAN_1
  6
CONTINUOUS
 10
0.669425
 20
-3.230862
  0
VERTEX
  8
PLAN_1
  6
CONTINUOUS
 10
0.670268
 20
-3.222004
  0
VERTEX
  8
PLAN_1
  6
CONTINUOUS
 10
0.671535
 20
-3.213150
  0
VERTEX
  8
PLAN_1
  6
CONTINUOUS
 10
0.673642
 20
-3.204291
  0
VERTEX
  8
PLAN_1
  6
CONTINUOUS
 10
0.676173
 20
-3.195858
  0
VERTEX
  8
PLAN_1
  6
CONTINUOUS
 10
0.679126
 20
-3.187421
  0
VERTEX
  8
PLAN_1
  6
CONTINUOUS
 10
0.682921
 20
-3.179409
  0
VERTEX
  8
PLAN_1
  6
CONTINUOUS
 10
0.685031
 20
-3.175614
  0
VERTEX
  8
PLAN_1
  6
CONTINUOUS
 10
0.687138
 20
-3.171819
  0
VERTEX
  8
PLAN_1
  6
CONTINUOUS
 10
0.689669
 20
-3.168445
  0
VERTEX
  8
PLAN_1
  6
CONTINUOUS
 10
0.692201
 20
-3.165071
  0
VERTEX
  8
PLAN_1
  6
CONTINUOUS
 10
0.695154
 20
-3.161697
  0
VERTEX
  8
PLAN_1
  6
CONTINUOUS
 10
0.698102
 20
-3.158744
  0
VERTEX
  8
PLAN_1
  6
CONTINUOUS
 10
0.701476
 20
-3.156213
  0
VERTEX
  8
PLAN_1
  6
CONTINUOUS
 10
0.704850
 20
-3.153681
  0
VERTEX
  8
PLAN_1
  6
CONTINUOUS
 10
0.708650
 20
-3.151154
  0
VERTEX
  8
PLAN_1
  6
CONTINUOUS
 10
0.712445
 20
-3.149043
  0
VERTEX
  8
PLAN_1
  6
CONTINUOUS
 10
0.716661
 20
-3.147354
  0
VERTEX
  8
PLAN_1
  6
CONTINUOUS
 10
0.720878
 20
-3.146091
  0
VERTEX
  8
PLAN_1
  6
CONTINUOUS
 10
0.725520
 20
-3.144827
  0
VERTEX
  8
PLAN_1
  6
CONTINUOUS
 10
0.730157
 20
-3.143980
  0
VERTEX
  8
PLAN_1
  6
CONTINUOUS
 10
0.735217
 20
-3.143559
  0
VERTEX
  8
PLAN_1
  6
CONTINUOUS
 10
0.740701
 20
-3.143138
  0
VERTEX
  8
PLAN_1
  6
CONTINUOUS
 10
0.744917
 20
-3.143559
  0
VERTEX
  8
PLAN_1
  6
CONTINUOUS
 10
0.749559
 20
-3.143980
  0
VERTEX
  8
PLAN_1
  6
CONTINUOUS
 10
0.754197
 20
-3.144827
  0
VERTEX
  8
PLAN_1
  6
CONTINUOUS
 10
0.758835
 20
-3.145669
  0
VERTEX
  8
PLAN_1
  6
CONTINUOUS
 10
0.763476
 20
-3.147354
  0
VERTEX
  8
PLAN_1
  6
CONTINUOUS
 10
0.767693
 20
-3.149043
  0
VERTEX
  8
PLAN_1
  6
CONTINUOUS
 10
0.772331
 20
-3.151575
  0
VERTEX
  8
PLAN_1
  6
CONTINUOUS
 10
0.776551
 20
-3.154102
  0
VERTEX
  8
PLAN_1
  6
CONTINUOUS
 10
0.780768
 20
-3.157476
  0
VERTEX
  8
PLAN_1
  6
CONTINUOUS
 10
0.784563
 20
-3.161276
  0
VERTEX
  8
PLAN_1
  6
CONTINUOUS
 10
0.787937
 20
-3.165492
  0
VERTEX
  8
PLAN_1
  6
CONTINUOUS
 10
0.790890
 20
-3.170130
  0
VERTEX
  8
PLAN_1
  6
CONTINUOUS
 10
0.793421
 20
-3.175614
  0
VERTEX
  8
PLAN_1
  6
CONTINUOUS
 10
0.795528
 20
-3.181520
  0
VERTEX
  8
PLAN_1
  6
CONTINUOUS
 10
0.796795
 20
-3.187843
  0
VERTEX
  8
PLAN_1
  6
CONTINUOUS
 10
0.797638
 20
-3.195016
  0
VERTEX
  8
PLAN_1
  6
CONTINUOUS
 10
0.773598
 20
-3.195016
  0
SEQEND
  8
0
  0
POLYLINE
  8
PLAN_1
  6
CONTINUOUS
 66
     1
 40
0.003000
 41
0.003000
  0
VERTEX
  8
PLAN_1
  6
CONTINUOUS
 10
0.738169
 20
-3.321539
  0
VERTEX
  8
PLAN_1
  6
CONTINUOUS
 10
0.742390
 20
-3.321539
  0
VERTEX
  8
PLAN_1
  6
CONTINUOUS
 10
0.746606
 20
-3.320697
  0
VERTEX
  8
PLAN_1
  6
CONTINUOUS
 10
0.750402
 20
-3.319850
  0
VERTEX
  8
PLAN_1
  6
CONTINUOUS
 10
0.754197
 20
-3.318587
  0
VERTEX
  8
PLAN_1
  6
CONTINUOUS
 10
0.757571
 20
-3.316476
  0
VERTEX
  8
PLAN_1
  6
CONTINUOUS
 10
0.760524
 20
-3.314370
  0
VERTEX
  8
PLAN_1
  6
CONTINUOUS
 10
0.763476
 20
-3.311839
  0
VERTEX
  8
PLAN_1
  6
CONTINUOUS
 10
0.766004
 20
-3.309307
  0
VERTEX
  8
PLAN_1
  6
CONTINUOUS
 10
0.768535
 20
-3.305933
  0
VERTEX
  8
PLAN_1
  6
CONTINUOUS
 10
0.770646
 20
-3.302559
  0
VERTEX
  8
PLAN_1
  6
CONTINUOUS
 10
0.772331
 20
-3.299185
  0
VERTEX
  8
PLAN_1
  6
CONTINUOUS
 10
0.773598
 20
-3.294969
  0
VERTEX
  8
PLAN_1
  6
CONTINUOUS
 10
0.774862
 20
-3.290752
  0
VERTEX
  8
PLAN_1
  6
CONTINUOUS
 10
0.775705
 20
-3.286535
  0
VERTEX
  8
PLAN_1
  6
CONTINUOUS
 10
0.776126
 20
-3.281894
  0
VERTEX
  8
PLAN_1
  6
CONTINUOUS
 10
0.776551
 20
-3.276835
  0
VERTEX
  8
PLAN_1
  6
CONTINUOUS
 10
0.776551
 20
-3.273882
  0
VERTEX
  8
PLAN_1
  6
CONTINUOUS
 10
0.776126
 20
-3.270087
  0
VERTEX
  8
PLAN_1
  6
CONTINUOUS
 10
0.775283
 20
-3.266713
  0
VERTEX
  8
PLAN_1
  6
CONTINUOUS
 10
0.774441
 20
-3.263339
  0
VERTEX
  8
PLAN_1
  6
CONTINUOUS
 10
0.773598
 20
-3.259965
  0
VERTEX
  8
PLAN_1
  6
CONTINUOUS
 10
0.771909
 20
-3.256591
  0
VERTEX
  8
PLAN_1
  6
CONTINUOUS
 10
0.770224
 20
-3.253217
  0
VERTEX
  8
PLAN_1
  6
CONTINUOUS
 10
0.768114
 20
-3.249843
  0
VERTEX
  8
PLAN_1
  6
CONTINUOUS
 10
0.765583
 20
-3.246890
  0
VERTEX
  8
PLAN_1
  6
CONTINUOUS
 10
0.762630
 20
-3.244358
  0
VERTEX
  8
PLAN_1
  6
CONTINUOUS
 10
0.759681
 20
-3.241827
  0
VERTEX
  8
PLAN_1
  6
CONTINUOUS
 10
0.755886
 20
-3.239720
  0
VERTEX
  8
PLAN_1
  6
CONTINUOUS
 10
0.752087
 20
-3.238031
  0
VERTEX
  8
PLAN_1
  6
CONTINUOUS
 10
0.747449
 20
-3.236768
  0
VERTEX
  8
PLAN_1
  6
CONTINUOUS
 10
0.742390
 20
-3.236346
  0
VERTEX
  8
PLAN_1
  6
CONTINUOUS
 10
0.736906
 20
-3.235925
  0
VERTEX
  8
PLAN_1
  6
CONTINUOUS
 10
0.732268
 20
-3.236346
  0
VERTEX
  8
PLAN_1
  6
CONTINUOUS
 10
0.727626
 20
-3.236768
  0
VERTEX
  8
PLAN_1
  6
CONTINUOUS
 10
0.723409
 20
-3.238031
  0
VERTEX
  8
PLAN_1
  6
CONTINUOUS
 10
0.719614
 20
-3.239299
  0
VERTEX
  8
PLAN_1
  6
CONTINUOUS
 10
0.715819
 20
-3.240984
  0
VERTEX
  8
PLAN_1
  6
CONTINUOUS
 10
0.712445
 20
-3.243094
  0
VERTEX
  8
PLAN_1
  6
CONTINUOUS
 10
0.709492
 20
-3.245622
  0
VERTEX
  8
PLAN_1
  6
CONTINUOUS
 10
0.706961
 20
-3.248575
  0
VERTEX
  8
PLAN_1
  6
CONTINUOUS
 10
0.704850
 20
-3.251528
  0
VERTEX
  8
PLAN_1
  6
CONTINUOUS
 10
0.702744
 20
-3.254902
  0
VERTEX
  8
PLAN_1
  6
CONTINUOUS
 10
0.701055
 20
-3.258276
  0
VERTEX
  8
PLAN_1
  6
CONTINUOUS
 10
0.699370
 20
-3.262071
  0
VERTEX
  8
PLAN_1
  6
CONTINUOUS
 10
0.698528
 20
-3.265866
  0
VERTEX
  8
PLAN_1
  6
CONTINUOUS
 10
0.697681
 20
-3.270087
  0
VERTEX
  8
PLAN_1
  6
CONTINUOUS
 10
0.697260
 20
-3.274303
  0
VERTEX
  8
PLAN_1
  6
CONTINUOUS
 10
0.697260
 20
-3.278520
  0
VERTEX
  8
PLAN_1
  6
CONTINUOUS
 10
0.697260
 20
-3.282315
  0
VERTEX
  8
PLAN_1
  6
CONTINUOUS
 10
0.697681
 20
-3.286110
  0
VERTEX
  8
PLAN_1
  6
CONTINUOUS
 10
0.698528
 20
-3.289909
  0
VERTEX
  8
PLAN_1
  6
CONTINUOUS
 10
0.699370
 20
-3.294126
  0
VERTEX
  8
PLAN_1
  6
CONTINUOUS
 10
0.701055
 20
-3.297500
  0
VERTEX
  8
PLAN_1
  6
CONTINUOUS
 10
0.702744
 20
-3.301295
  0
VERTEX
  8
PLAN_1
  6
CONTINUOUS
 10
0.704429
 20
-3.304669
  0
VERTEX
  8
PLAN_1
  6
CONTINUOUS
 10
0.706961
 20
-3.307622
  0
VERTEX
  8
PLAN_1
  6
CONTINUOUS
 10
0.709492
 20
-3.310575
  0
VERTEX
  8
PLAN_1
  6
CONTINUOUS
 10
0.712445
 20
-3.313524
  0
VERTEX
  8
PLAN_1
  6
CONTINUOUS
 10
0.715819
 20
-3.315634
  0
VERTEX
  8
PLAN_1
  6
CONTINUOUS
 10
0.719614
 20
-3.317744
  0
VERTEX
  8
PLAN_1
  6
CONTINUOUS
 10
0.723831
 20
-3.319429
  0
VERTEX
  8
PLAN_1
  6
CONTINUOUS
 10
0.728047
 20
-3.320697
  0
VERTEX
  8
PLAN_1
  6
CONTINUOUS
 10
0.733110
 20
-3.321539
  0
VERTEX
  8
PLAN_1
  6
CONTINUOUS
 10
0.738169
 20
-3.321539
  0
SEQEND
  8
0
  0
POLYLINE
  8
PLAN_1
  6
CONTINUOUS
 66
     1
 40
0.003000
 41
0.003000
  0
VERTEX
  8
PLAN_1
  6
CONTINUOUS
 10
0.911933
 20
-3.338409
  0
VERTEX
  8
PLAN_1
  6
CONTINUOUS
 10
0.885783
 20
-3.338409
  0
VERTEX
  8
PLAN_1
  6
CONTINUOUS
 10
0.885783
 20
-3.199654
  0
VERTEX
  8
PLAN_1
  6
CONTINUOUS
 10
0.840232
 20
-3.199654
  0
VERTEX
  8
PLAN_1
  6
CONTINUOUS
 10
0.840232
 20
-3.180252
  0
VERTEX
  8
PLAN_1
  6
CONTINUOUS
 10
0.851201
 20
-3.179409
  0
VERTEX
  8
PLAN_1
  6
CONTINUOUS
 10
0.860898
 20
-3.178146
  0
VERTEX
  8
PLAN_1
  6
CONTINUOUS
 10
0.865118
 20
-3.177299
  0
VERTEX
  8
PLAN_1
  6
CONTINUOUS
 10
0.868913
 20
-3.176035
  0
VERTEX
  8
PLAN_1
  6
CONTINUOUS
 10
0.872287
 20
-3.174772
  0
VERTEX
  8
PLAN_1
  6
CONTINUOUS
 10
0.875661
 20
-3.173083
  0
VERTEX
  8
PLAN_1
  6
CONTINUOUS
 10
0.878614
 20
-3.170972
  0
VERTEX
  8
PLAN_1
  6
CONTINUOUS
 10
0.881142
 20
-3.168445
  0
VERTEX
  8
PLAN_1
  6
CONTINUOUS
 10
0.883673
 20
-3.165492
  0
VERTEX
  8
PLAN_1
  6
CONTINUOUS
 10
0.885783
 20
-3.162118
  0
VERTEX
  8
PLAN_1
  6
CONTINUOUS
 10
0.887890
 20
-3.158323
  0
VERTEX
  8
PLAN_1
  6
CONTINUOUS
 10
0.889579
 20
-3.154102
  0
VERTEX
  8
PLAN_1
  6
CONTINUOUS
 10
0.891264
 20
-3.149043
  0
VERTEX
  8
PLAN_1
  6
CONTINUOUS
 10
0.892953
 20
-3.143138
  0
VERTEX
  8
PLAN_1
  6
CONTINUOUS
 10
0.911933
 20
-3.143138
  0
VERTEX
  8
PLAN_1
  6
CONTINUOUS
 10
0.911933
 20
-3.338409
  0
SEQEND
  8
0
  0
SOLID
  8
PLAN_1
 10
0.966760
 20
-3.372992
 11
0.966760
 21
-3.359075
 12
1.121118
 22
-3.372992
 13
1.121118
 23
-3.359075
  0
POLYLINE
  8
PLAN_1
  6
CONTINUOUS
 66
     1
 40
0.003000
 41
0.003000
  0
VERTEX
  8
PLAN_1
  6
CONTINUOUS
 10
0.966760
 20
-3.372992
  0
VERTEX
  8
PLAN_1
  6
CONTINUOUS
 10
0.966760
 20
-3.359075
  0
VERTEX
  8
PLAN_1
  6
CONTINUOUS
 10
1.121118
 20
-3.359075
  0
VERTEX
  8
PLAN_1
  6
CONTINUOUS
 10
1.121118
 20
-3.372992
  0
VERTEX
  8
PLAN_1
  6
CONTINUOUS
 10
0.966760
 20
-3.372992
  0
SEQEND
  8
0
  0
POLYLINE
  8
PLAN_1
  6
CONTINUOUS
 66
     1
 40
0.003000
 41
0.003000
  0
VERTEX
  8
PLAN_1
  6
CONTINUOUS
 10
1.172150
 20
-3.338409
  0
VERTEX
  8
PLAN_1
  6
CONTINUOUS
 10
1.145579
 20
-3.338409
  0
VERTEX
  8
PLAN_1
  6
CONTINUOUS
 10
1.145579
 20
-3.138921
  0
VERTEX
  8
PLAN_1
  6
CONTINUOUS
 10
1.237524
 20
-3.138921
  0
VERTEX
  8
PLAN_1
  6
CONTINUOUS
 10
1.243846
 20
-3.139343
  0
VERTEX
  8
PLAN_1
  6
CONTINUOUS
 10
1.249752
 20
-3.139764
  0
VERTEX
  8
PLAN_1
  6
CONTINUOUS
 10
1.255657
 20
-3.140185
  0
VERTEX
  8
PLAN_1
  6
CONTINUOUS
 10
1.261563
 20
-3.141453
  0
VERTEX
  8
PLAN_1
  6
CONTINUOUS
 10
1.267043
 20
-3.143138
  0
VERTEX
  8
PLAN_1
  6
CONTINUOUS
 10
1.272528
 20
-3.144827
  0
VERTEX
  8
PLAN_1
  6
CONTINUOUS
 10
1.277587
 20
-3.147354
  0
VERTEX
  8
PLAN_1
  6
CONTINUOUS
 10
1.282650
 20
-3.149886
  0
VERTEX
  8
PLAN_1
  6
CONTINUOUS
 10
1.286866
 20
-3.153260
  0
VERTEX
  8
PLAN_1
  6
CONTINUOUS
 10
1.291083
 20
-3.157055
  0
VERTEX
  8
PLAN_1
  6
CONTINUOUS
 10
1.294457
 20
-3.161697
  0
VERTEX
  8
PLAN_1
  6
CONTINUOUS
 10
1.297409
 20
-3.166335
  0
VERTEX
  8
PLAN_1
  6
CONTINUOUS
 10
1.299941
 20
-3.171819
  0
VERTEX
  8
PLAN_1
  6
CONTINUOUS
 10
1.301626
 20
-3.178146
  0
VERTEX
  8
PLAN_1
  6
CONTINUOUS
 10
1.302472
 20
-3.184894
  0
VERTEX
  8
PLAN_1
  6
CONTINUOUS
 10
1.302894
 20
-3.192484
  0
VERTEX
  8
PLAN_1
  6
CONTINUOUS
 10
1.302894
 20
-3.197965
  0
VERTEX
  8
PLAN_1
  6
CONTINUOUS
 10
1.302472
 20
-3.202606
  0
VERTEX
  8
PLAN_1
  6
CONTINUOUS
 10
1.301626
 20
-3.207244
  0
VERTEX
  8
PLAN_1
  6
CONTINUOUS
 10
1.300362
 20
-3.211461
  0
VERTEX
  8
PLAN_1
  6
CONTINUOUS
 10
1.299098
 20
-3.215256
  0
VERTEX
  8
PLAN_1
  6
CONTINUOUS
 10
1.297831
 20
-3.218630
  0
VERTEX
  8
PLAN_1
  6
CONTINUOUS
 10
1.295724
 20
-3.222004
  0
VERTEX
  8
PLAN_1
  6
CONTINUOUS
 10
1.294035
 20
-3.224535
  0
VERTEX
  8
PLAN_1
  6
CONTINUOUS
 10
1.291929
 20
-3.227488
  0
VERTEX
  8
PLAN_1
  6
CONTINUOUS
 10
1.289819
 20
-3.229598
  0
VERTEX
  8
PLAN_1
  6
CONTINUOUS
 10
1.287287
 20
-3.231705
  0
VERTEX
  8
PLAN_1
  6
CONTINUOUS
 10
1.285181
 20
-3.233815
  0
VERTEX
  8
PLAN_1
  6
CONTINUOUS
 10
1.280118
 20
-3.237189
  0
VERTEX
  8
PLAN_1
  6
CONTINUOUS
 10
1.275480
 20
-3.240142
  0
VERTEX
  8
PLAN_1
  6
CONTINUOUS
 10
1.279697
 20
-3.242248
  0
VERTEX
  8
PLAN_1
  6
CONTINUOUS
 10
1.283492
 20
-3.244358
  0
VERTEX
  8
PLAN_1
  6
CONTINUOUS
 10
1.285602
 20
-3.245622
  0
VERTEX
  8
PLAN_1
  6
CONTINUOUS
 10
1.287709
 20
-3.246890
  0
VERTEX
  8
PLAN_1
  6
CONTINUOUS
 10
1.289398
 20
-3.248575
  0
VERTEX
  8
PLAN_1
  6
CONTINUOUS
 10
1.291083
 20
-3.250264
  0
VERTEX
  8
PLAN_1
  6
CONTINUOUS
 10
1.292772
 20
-3.252370
  0
VERTEX
  8
PLAN_1
  6
CONTINUOUS
 10
1.294035
 20
-3.254902
  0
VERTEX
  8
PLAN_1
  6
CONTINUOUS
 10
1.295303
 20
-3.257854
  0
VERTEX
  8
PLAN_1
  6
CONTINUOUS
 10
1.296567
 20
-3.260807
  0
VERTEX
  8
PLAN_1
  6
CONTINUOUS
 10
1.297409
 20
-3.264602
  0
VERTEX
  8
PLAN_1
  6
CONTINUOUS
 10
1.298252
 20
-3.268398
  0
VERTEX
  8
PLAN_1
  6
CONTINUOUS
 10
1.298677
 20
-3.273039
  0
VERTEX
  8
PLAN_1
  6
CONTINUOUS
 10
1.299098
 20
-3.277677
  0
VERTEX
  8
PLAN_1
  6
CONTINUOUS
 10
1.300783
 20
-3.313949
  0
VERTEX
  8
PLAN_1
  6
CONTINUOUS
 10
1.300783
 20
-3.317744
  0
VERTEX
  8
PLAN_1
  6
CONTINUOUS
 10
1.301205
 20
-3.321118
  0
VERTEX
  8
PLAN_1
  6
CONTINUOUS
 10
1.302051
 20
-3.323646
  0
VERTEX
  8
PLAN_1
  6
CONTINUOUS
 10
1.302894
 20
-3.326177
  0
VERTEX
  8
PLAN_1
  6
CONTINUOUS
 10
1.304157
 20
-3.328287
  0
VERTEX
  8
PLAN_1
  6
CONTINUOUS
 10
1.305846
 20
-3.330394
  0
VERTEX
  8
PLAN_1
  6
CONTINUOUS
 10
1.307953
 20
-3.332083
  0
VERTEX
  8
PLAN_1
  6
CONTINUOUS
 10
1.310906
 20
-3.333768
  0
VERTEX
  8
PLAN_1
  6
CONTINUOUS
 10
1.310906
 20
-3.338409
  0
VERTEX
  8
PLAN_1
  6
CONTINUOUS
 10
1.277587
 20
-3.338409
  0
VERTEX
  8
PLAN_1
  6
CONTINUOUS
 10
1.276323
 20
-3.332925
  0
VERTEX
  8
PLAN_1
  6
CONTINUOUS
 10
1.275480
 20
-3.326598
  0
VERTEX
  8
PLAN_1
  6
CONTINUOUS
 10
1.274634
 20
-3.319008
  0
VERTEX
  8
PLAN_1
  6
CONTINUOUS
 10
1.273791
 20
-3.311417
  0
VERTEX
  8
PLAN_1
  6
CONTINUOUS
 10
1.273370
 20
-3.304248
  0
VERTEX
  8
PLAN_1
  6
CONTINUOUS
 10
1.273370
 20
-3.297500
  0
VERTEX
  8
PLAN_1
  6
CONTINUOUS
 10
1.272949
 20
-3.292016
  0
VERTEX
  8
PLAN_1
  6
CONTINUOUS
 10
1.272949
 20
-3.288220
  0
VERTEX
  8
PLAN_1
  6
CONTINUOUS
 10
1.272949
 20
-3.282315
  0
VERTEX
  8
PLAN_1
  6
CONTINUOUS
 10
1.272106
 20
-3.275988
  0
VERTEX
  8
PLAN_1
  6
CONTINUOUS
 10
1.271260
 20
-3.273039
  0
VERTEX
  8
PLAN_1
  6
CONTINUOUS
 10
1.270417
 20
-3.270087
  0
VERTEX
  8
PLAN_1
  6
CONTINUOUS
 10
1.269154
 20
-3.267134
  0
VERTEX
  8
PLAN_1
  6
CONTINUOUS
 10
1.267465
 20
-3.264602
  0
VERTEX
  8
PLAN_1
  6
CONTINUOUS
 10
1.265358
 20
-3.262071
  0
VERTEX
  8
PLAN_1
  6
CONTINUOUS
 10
1.262827
 20
-3.259965
  0
VERTEX
  8
PLAN_1
  6
CONTINUOUS
 10
1.259874
 20
-3.257854
  0
VERTEX
  8
PLAN_1
  6
CONTINUOUS
 10
1.256500
 20
-3.256169
  0
VERTEX
  8
PLAN_1
  6
CONTINUOUS
 10
1.252705
 20
-3.254902
  0
VERTEX
  8
PLAN_1
  6
CONTINUOUS
 10
1.248488
 20
-3.253638
  0
VERTEX
  8
PLAN_1
  6
CONTINUOUS
 10
1.243425
 20
-3.253217
  0
VERTEX
  8
PLAN_1
  6
CONTINUOUS
 10
1.237524
 20
-3.252795
  0
VERTEX
  8
PLAN_1
  6
CONTINUOUS
 10
1.172150
 20
-3.252795
  0
VERTEX
  8
PLAN_1
  6
CONTINUOUS
 10
1.172150
 20
-3.338409
  0
SEQEND
  8
0
  0
POLYLINE
  8
PLAN_1
  6
CONTINUOUS
 66
     1
 40
0.003000
 41
0.003000
  0
VERTEX
  8
PLAN_1
  6
CONTINUOUS
 10
1.172150
 20
-3.229598
  0
VERTEX
  8
PLAN_1
  6
CONTINUOUS
 10
1.234992
 20
-3.229598
  0
VERTEX
  8
PLAN_1
  6
CONTINUOUS
 10
1.242161
 20
-3.229598
  0
VERTEX
  8
PLAN_1
  6
CONTINUOUS
 10
1.249331
 20
-3.228752
  0
VERTEX
  8
PLAN_1
  6
CONTINUOUS
 10
1.252705
 20
-3.227909
  0
VERTEX
  8
PLAN_1
  6
CONTINUOUS
 10
1.256079
 20
-3.226646
  0
VERTEX
  8
PLAN_1
  6
CONTINUOUS
 10
1.259453
 20
-3.225378
  0
VERTEX
  8
PLAN_1
  6
CONTINUOUS
 10
1.262406
 20
-3.223693
  0
VERTEX
  8
PLAN_1
  6
CONTINUOUS
 10
1.265358
 20
-3.221583
  0
VERTEX
  8
PLAN_1
  6
CONTINUOUS
 10
1.267465
 20
-3.219055
  0
VERTEX
  8
PLAN_1
  6
CONTINUOUS
 10
1.269996
 20
-3.216524
  0
VERTEX
  8
PLAN_1
  6
CONTINUOUS
 10
1.271685
 20
-3.213150
  0
VERTEX
  8
PLAN_1
  6
CONTINUOUS
 10
1.273370
 20
-3.209354
  0
VERTEX
  8
PLAN_1
  6
CONTINUOUS
 10
1.274213
 20
-3.205138
  0
VERTEX
  8
PLAN_1
  6
CONTINUOUS
 10
1.275059
 20
-3.200496
  0
VERTEX
  8
PLAN_1
  6
CONTINUOUS
 10
1.275480
 20
-3.195437
  0
VERTEX
  8
PLAN_1
  6
CONTINUOUS
 10
1.275059
 20
-3.189953
  0
VERTEX
  8
PLAN_1
  6
CONTINUOUS
 10
1.274213
 20
-3.185315
  0
VERTEX
  8
PLAN_1
  6
CONTINUOUS
 10
1.272949
 20
-3.181094
  0
VERTEX
  8
PLAN_1
  6
CONTINUOUS
 10
1.271685
 20
-3.177299
  0
VERTEX
  8
PLAN_1
  6
CONTINUOUS
 10
1.269575
 20
-3.173925
  0
VERTEX
  8
PLAN_1
  6
CONTINUOUS
 10
1.267465
 20
-3.171398
  0
VERTEX
  8
PLAN_1
  6
CONTINUOUS
 10
1.264937
 20
-3.168866
  0
VERTEX
  8
PLAN_1
  6
CONTINUOUS
 10
1.262406
 20
-3.167177
  0
VERTEX
  8
PLAN_1
  6
CONTINUOUS
 10
1.259453
 20
-3.165492
  0
VERTEX
  8
PLAN_1
  6
CONTINUOUS
 10
1.256500
 20
-3.164650
  0
VERTEX
  8
PLAN_1
  6
CONTINUOUS
 10
1.253547
 20
-3.163803
  0
VERTEX
  8
PLAN_1
  6
CONTINUOUS
 10
1.250594
 20
-3.162961
  0
VERTEX
  8
PLAN_1
  6
CONTINUOUS
 10
1.244693
 20
-3.162118
  0
VERTEX
  8
PLAN_1
  6
CONTINUOUS
 10
1.239630
 20
-3.162118
  0
VERTEX
  8
PLAN_1
  6
CONTINUOUS
 10
1.172150
 20
-3.162118
  0
VERTEX
  8
PLAN_1
  6
CONTINUOUS
 10
1.172150
 20
-3.229598
  0
SEQEND
  8
0
  0
SOLID
  8
PLAN_1
 10
1.374591
 20
-3.338409
 11
1.345488
 21
-3.338409
 12
1.374591
 22
-3.308886
 13
1.345488
 23
-3.308886
  0
POLYLINE
  8
PLAN_1
  6
CONTINUOUS
 66
     1
 40
0.003000
 41
0.003000
  0
VERTEX
  8
PLAN_1
  6
CONTINUOUS
 10
1.374591
 20
-3.338409
  0
VERTEX
  8
PLAN_1
  6
CONTINUOUS
 10
1.345488
 20
-3.338409
  0
VERTEX
  8
PLAN_1
  6
CONTINUOUS
 10
1.345488
 20
-3.308886
  0
VERTEX
  8
PLAN_1
  6
CONTINUOUS
 10
1.374591
 20
-3.308886
  0
VERTEX
  8
PLAN_1
  6
CONTINUOUS
 10
1.374591
 20
-3.338409
  0
SEQEND
  8
0
  0
POLYLINE
  8
PLAN_1
  6
CONTINUOUS
 66
     1
 40
0.003000
 41
0.003000
  0
VERTEX
  8
PLAN_1
  6
CONTINUOUS
 10
1.569437
 20
-3.338409
  0
VERTEX
  8
PLAN_1
  6
CONTINUOUS
 10
1.422248
 20
-3.338409
  0
VERTEX
  8
PLAN_1
  6
CONTINUOUS
 10
1.422248
 20
-3.138921
  0
VERTEX
  8
PLAN_1
  6
CONTINUOUS
 10
1.567752
 20
-3.138921
  0
VERTEX
  8
PLAN_1
  6
CONTINUOUS
 10
1.567752
 20
-3.162961
  0
VERTEX
  8
PLAN_1
  6
CONTINUOUS
 10
1.449240
 20
-3.162961
  0
VERTEX
  8
PLAN_1
  6
CONTINUOUS
 10
1.449240
 20
-3.224114
  0
VERTEX
  8
PLAN_1
  6
CONTINUOUS
 10
1.558472
 20
-3.224114
  0
VERTEX
  8
PLAN_1
  6
CONTINUOUS
 10
1.558472
 20
-3.247732
  0
VERTEX
  8
PLAN_1
  6
CONTINUOUS
 10
1.449240
 20
-3.247732
  0
VERTEX
  8
PLAN_1
  6
CONTINUOUS
 10
1.449240
 20
-3.314370
  0
VERTEX
  8
PLAN_1
  6
CONTINUOUS
 10
1.569437
 20
-3.314370
  0
VERTEX
  8
PLAN_1
  6
CONTINUOUS
 10
1.569437
 20
-3.338409
  0
SEQEND
  8
0
  0
POLYLINE
  8
PLAN_1
  6
CONTINUOUS
 66
     1
 40
0.003000
 41
0.003000
  0
VERTEX
  8
PLAN_1
  6
CONTINUOUS
 10
1.634390
 20
-3.338409
  0
VERTEX
  8
PLAN_1
  6
CONTINUOUS
 10
1.607819
 20
-3.338409
  0
VERTEX
  8
PLAN_1
  6
CONTINUOUS
 10
1.607819
 20
-3.138921
  0
VERTEX
  8
PLAN_1
  6
CONTINUOUS
 10
1.697228
 20
-3.138921
  0
VERTEX
  8
PLAN_1
  6
CONTINUOUS
 10
1.703976
 20
-3.139343
  0
VERTEX
  8
PLAN_1
  6
CONTINUOUS
 10
1.710303
 20
-3.140185
  0
VERTEX
  8
PLAN_1
  6
CONTINUOUS
 10
1.716209
 20
-3.141453
  0
VERTEX
  8
PLAN_1
  6
CONTINUOUS
 10
1.722110
 20
-3.143138
  0
VERTEX
  8
PLAN_1
  6
CONTINUOUS
 10
1.727173
 20
-3.145669
  0
VERTEX
  8
PLAN_1
  6
CONTINUOUS
 10
1.732232
 20
-3.148201
  0
VERTEX
  8
PLAN_1
  6
CONTINUOUS
 10
1.736453
 20
-3.151575
  0
VERTEX
  8
PLAN_1
  6
CONTINUOUS
 10
1.740669
 20
-3.154949
  0
VERTEX
  8
PLAN_1
  6
CONTINUOUS
 10
1.744043
 20
-3.159165
  0
VERTEX
  8
PLAN_1
  6
CONTINUOUS
 10
1.747417
 20
-3.163382
  0
VERTEX
  8
PLAN_1
  6
CONTINUOUS
 10
1.749949
 20
-3.168024
  0
VERTEX
  8
PLAN_1
  6
CONTINUOUS
 10
1.752476
 20
-3.172661
  0
VERTEX
  8
PLAN_1
  6
CONTINUOUS
 10
1.754165
 20
-3.178146
  0
VERTEX
  8
PLAN_1
  6
CONTINUOUS
 10
1.755429
 20
-3.183626
  0
VERTEX
  8
PLAN_1
  6
CONTINUOUS
 10
1.756276
 20
-3.189110
  0
VERTEX
  8
PLAN_1
  6
CONTINUOUS
 10
1.756276
 20
-3.195016
  0
VERTEX
  8
PLAN_1
  6
CONTINUOUS
 10
1.756276
 20
-3.200496
  0
VERTEX
  8
PLAN_1
  6
CONTINUOUS
 10
1.755429
 20
-3.205559
  0
VERTEX
  8
PLAN_1
  6
CONTINUOUS
 10
1.754587
 20
-3.211039
  0
VERTEX
  8
PLAN_1
  6
CONTINUOUS
 10
1.753323
 20
-3.216102
  0
VERTEX
  8
PLAN_1
  6
CONTINUOUS
 10
1.751213
 20
-3.221161
  0
VERTEX
  8
PLAN_1
  6
CONTINUOUS
 10
1.749102
 20
-3.226224
  0
VERTEX
  8
PLAN_1
  6
CONTINUOUS
 10
1.746154
 20
-3.230862
  0
VERTEX
  8
PLAN_1
  6
CONTINUOUS
 10
1.743201
 20
-3.235079
  0
VERTEX
  8
PLAN_1
  6
CONTINUOUS
 10
1.739406
 20
-3.239299
  0
VERTEX
  8
PLAN_1
  6
CONTINUOUS
 10
1.735185
 20
-3.242673
  0
VERTEX
  8
PLAN_1
  6
CONTINUOUS
 10
1.730126
 20
-3.246047
  0
VERTEX
  8
PLAN_1
  6
CONTINUOUS
 10
1.724642
 20
-3.248996
  0
VERTEX
  8
PLAN_1
  6
CONTINUOUS
 10
1.718736
 20
-3.251106
  0
VERTEX
  8
PLAN_1
  6
CONTINUOUS
 10
1.712413
 20
-3.252795
  0
VERTEX
  8
PLAN_1
  6
CONTINUOUS
 10
1.705240
 20
-3.254059
  0
VERTEX
  8
PLAN_1
  6
CONTINUOUS
 10
1.697228
 20
-3.254059
  0
VERTEX
  8
PLAN_1
  6
CONTINUOUS
 10
1.634390
 20
-3.254059
  0
VERTEX
  8
PLAN_1
  6
CONTINUOUS
 10
1.634390
 20
-3.338409
  0
SEQEND
  8
0
  0
POLYLINE
  8
PLAN_1
  6
CONTINUOUS
 66
     1
 40
0.003000
 41
0.003000
  0
VERTEX
  8
PLAN_1
  6
CONTINUOUS
 10
1.634390
 20
-3.231283
  0
VERTEX
  8
PLAN_1
  6
CONTINUOUS
 10
1.687949
 20
-3.231283
  0
VERTEX
  8
PLAN_1
  6
CONTINUOUS
 10
1.692591
 20
-3.231283
  0
VERTEX
  8
PLAN_1
  6
CONTINUOUS
 10
1.696807
 20
-3.230862
  0
VERTEX
  8
PLAN_1
  6
CONTINUOUS
 10
1.700602
 20
-3.230020
  0
VERTEX
  8
PLAN_1
  6
CONTINUOUS
 10
1.704819
 20
-3.229177
  0
VERTEX
  8
PLAN_1
  6
CONTINUOUS
 10
1.708193
 20
-3.228331
  0
VERTEX
  8
PLAN_1
  6
CONTINUOUS
 10
1.711567
 20
-3.227067
  0
VERTEX
  8
PLAN_1
  6
CONTINUOUS
 10
1.714520
 20
-3.225378
  0
VERTEX
  8
PLAN_1
  6
CONTINUOUS
 10
1.717472
 20
-3.223272
  0
VERTEX
  8
PLAN_1
  6
CONTINUOUS
 10
1.720004
 20
-3.221161
  0
VERTEX
  8
PLAN_1
  6
CONTINUOUS
 10
1.722110
 20
-3.218630
  0
VERTEX
  8
PLAN_1
  6
CONTINUOUS
 10
1.724220
 20
-3.215681
  0
VERTEX
  8
PLAN_1
  6
CONTINUOUS
 10
1.725484
 20
-3.212307
  0
VERTEX
  8
PLAN_1
  6
CONTINUOUS
 10
1.726752
 20
-3.208512
  0
VERTEX
  8
PLAN_1
  6
CONTINUOUS
 10
1.728016
 20
-3.204713
  0
VERTEX
  8
PLAN_1
  6
CONTINUOUS
 10
1.728437
 20
-3.200075
  0
VERTEX
  8
PLAN_1
  6
CONTINUOUS
 10
1.728437
 20
-3.195437
  0
VERTEX
  8
PLAN_1
  6
CONTINUOUS
 10
1.728437
 20
-3.190795
  0
VERTEX
  8
PLAN_1
  6
CONTINUOUS
 10
1.728016
 20
-3.186579
  0
VERTEX
  8
PLAN_1
  6
CONTINUOUS
 10
1.726752
 20
-3.182783
  0
VERTEX
  8
PLAN_1
  6
CONTINUOUS
 10
1.725484
 20
-3.179409
  0
VERTEX
  8
PLAN_1
  6
CONTINUOUS
 10
1.723799
 20
-3.176457
  0
VERTEX
  8
PLAN_1
  6
CONTINUOUS
 10
1.722110
 20
-3.173925
  0
VERTEX
  8
PLAN_1
  6
CONTINUOUS
 10
1.719583
 20
-3.171398
  0
VERTEX
  8
PLAN_1
  6
CONTINUOUS
 10
1.717051
 20
-3.169287
  0
VERTEX
  8
PLAN_1
  6
CONTINUOUS
 10
1.714520
 20
-3.167598
  0
VERTEX
  8
PLAN_1
  6
CONTINUOUS
 10
1.711567
 20
-3.165913
  0
VERTEX
  8
PLAN_1
  6
CONTINUOUS
 10
1.708193
 20
-3.164650
  0
VERTEX
  8
PLAN_1
  6
CONTINUOUS
 10
1.704819
 20
-3.163803
  0
VERTEX
  8
PLAN_1
  6
CONTINUOUS
 10
1.701024
 20
-3.162961
  0
VERTEX
  8
PLAN_1
  6
CONTINUOUS
 10
1.697228
 20
-3.162539
  0
VERTEX
  8
PLAN_1
  6
CONTINUOUS
 10
1.693433
 20
-3.162118
  0
VERTEX
  8
PLAN_1
  6
CONTINUOUS
 10
1.689217
 20
-3.162118
  0
VERTEX
  8
PLAN_1
  6
CONTINUOUS
 10
1.634390
 20
-3.162118
  0
VERTEX
  8
PLAN_1
  6
CONTINUOUS
 10
1.634390
 20
-3.231283
  0
SEQEND
  8
0
  0
POLYLINE
  8
PLAN_1
  6
CONTINUOUS
 66
     1
 40
0.003000
 41
0.003000
  0
VERTEX
  8
PLAN_1
  6
CONTINUOUS
 10
1.910213
 20
-3.197543
  0
VERTEX
  8
PLAN_1
  6
CONTINUOUS
 10
1.909791
 20
-3.191642
  0
VERTEX
  8
PLAN_1
  6
CONTINUOUS
 10
1.908524
 20
-3.186579
  0
VERTEX
  8
PLAN_1
  6
CONTINUOUS
 10
1.906839
 20
-3.182362
  0
VERTEX
  8
PLAN_1
  6
CONTINUOUS
 10
1.905150
 20
-3.178146
  0
VERTEX
  8
PLAN_1
  6
CONTINUOUS
 10
1.902622
 20
-3.174346
  0
VERTEX
  8
PLAN_1
  6
CONTINUOUS
 10
1.899669
 20
-3.170972
  0
VERTEX
  8
PLAN_1
  6
CONTINUOUS
 10
1.896717
 20
-3.168024
  0
VERTEX
  8
PLAN_1
  6
CONTINUOUS
 10
1.893343
 20
-3.165492
  0
VERTEX
  8
PLAN_1
  6
CONTINUOUS
 10
1.889969
 20
-3.163382
  0
VERTEX
  8
PLAN_1
  6
CONTINUOUS
 10
1.885752
 20
-3.161697
  0
VERTEX
  8
PLAN_1
  6
CONTINUOUS
 10
1.881957
 20
-3.160008
  0
VERTEX
  8
PLAN_1
  6
CONTINUOUS
 10
1.877736
 20
-3.158744
  0
VERTEX
  8
PLAN_1
  6
CONTINUOUS
 10
1.873520
 20
-3.157902
  0
VERTEX
  8
PLAN_1
  6
CONTINUOUS
 10
1.869303
 20
-3.157476
  0
VERTEX
  8
PLAN_1
  6
CONTINUOUS
 10
1.865087
 20
-3.157055
  0
VERTEX
  8
PLAN_1
  6
CONTINUOUS
 10
1.860866
 20
-3.156634
  0
VERTEX
  8
PLAN_1
  6
CONTINUOUS
 10
1.854118
 20
-3.157055
  0
VERTEX
  8
PLAN_1
  6
CONTINUOUS
 10
1.846528
 20
-3.157902
  0
VERTEX
  8
PLAN_1
  6
CONTINUOUS
 10
1.842732
 20
-3.158744
  0
VERTEX
  8
PLAN_1
  6
CONTINUOUS
 10
1.838937
 20
-3.160008
  0
VERTEX
  8
PLAN_1
  6
CONTINUOUS
 10
1.835142
 20
-3.161276
  0
VERTEX
  8
PLAN_1
  6
CONTINUOUS
 10
1.831768
 20
-3.162961
  0
VERTEX
  8
PLAN_1
  6
CONTINUOUS
 10
1.828394
 20
-3.165071
  0
VERTEX
  8
PLAN_1
  6
CONTINUOUS
 10
1.825020
 20
-3.167598
  0
VERTEX
  8
PLAN_1
  6
CONTINUOUS
 10
1.822488
 20
-3.170130
  0
VERTEX
  8
PLAN_1
  6
CONTINUOUS
 10
1.819957
 20
-3.173504
  0
VERTEX
  8
PLAN_1
  6
CONTINUOUS
 10
1.817850
 20
-3.177299
  0
VERTEX
  8
PLAN_1
  6
CONTINUOUS
 10
1.816583
 20
-3.181520
  0
VERTEX
  8
PLAN_1
  6
CONTINUOUS
 10
1.815740
 20
-3.186579
  0
VERTEX
  8
PLAN_1
  6
CONTINUOUS
 10
1.815319
 20
-3.191642
  0
VERTEX
  8
PLAN_1
  6
CONTINUOUS
 10
1.815319
 20
-3.195016
  0
VERTEX
  8
PLAN_1
  6
CONTINUOUS
 10
1.815740
 20
-3.197543
  0
VERTEX
  8
PLAN_1
  6
CONTINUOUS
 10
1.816583
 20
-3.200075
  0
VERTEX
  8
PLAN_1
  6
CONTINUOUS
 10
1.817429
 20
-3.202606
  0
VERTEX
  8
PLAN_1
  6
CONTINUOUS
 10
1.818272
 20
-3.204713
  0
VERTEX
  8
PLAN_1
  6
CONTINUOUS
 10
1.819535
 20
-3.206402
  0
VERTEX
  8
PLAN_1
  6
CONTINUOUS
 10
1.821224
 20
-3.208087
  0
VERTEX
  8
PLAN_1
  6
CONTINUOUS
 10
1.822909
 20
-3.209776
  0
VERTEX
  8
PLAN_1
  6
CONTINUOUS
 10
1.826283
 20
-3.212307
  0
VERTEX
  8
PLAN_1
  6
CONTINUOUS
 10
1.830079
 20
-3.214413
  0
VERTEX
  8
PLAN_1
  6
CONTINUOUS
 10
1.834720
 20
-3.215681
  0
VERTEX
  8
PLAN_1
  6
CONTINUOUS
 10
1.838937
 20
-3.216945
  0
VERTEX
  8
PLAN_1
  6
CONTINUOUS
 10
1.895874
 20
-3.230020
  0
VERTEX
  8
PLAN_1
  6
CONTINUOUS
 10
1.900512
 20
-3.231283
  0
VERTEX
  8
PLAN_1
  6
CONTINUOUS
 10
1.905150
 20
-3.232972
  0
VERTEX
  8
PLAN_1
  6
CONTINUOUS
 10
1.909370
 20
-3.234657
  0
VERTEX
  8
PLAN_1
  6
CONTINUOUS
 10
1.913587
 20
-3.236346
  0
VERTEX
  8
PLAN_1
  6
CONTINUOUS
 10
1.917803
 20
-3.238874
  0
VERTEX
  8
PLAN_1
  6
CONTINUOUS
 10
1.921598
 20
-3.241406
  0
VERTEX
  8
PLAN_1
  6
CONTINUOUS
 10
1.924972
 20
-3.243937
  0
VERTEX
  8
PLAN_1
  6
CONTINUOUS
 10
1.927925
 20
-3.247311
  0
VERTEX
  8
PLAN_1
  6
CONTINUOUS
 10
1.930878
 20
-3.250685
  0
VERTEX
  8
PLAN_1
  6
CONTINUOUS
 10
1.933409
 20
-3.254059
  0
VERTEX
  8
PLAN_1
  6
CONTINUOUS
 10
1.935516
 20
-3.258276
  0
VERTEX
  8
PLAN_1
  6
CONTINUOUS
 10
1.937626
 20
-3.262492
  0
VERTEX
  8
PLAN_1
  6
CONTINUOUS
 10
1.938890
 20
-3.267134
  0
VERTEX
  8
PLAN_1
  6
CONTINUOUS
 10
1.940157
 20
-3.272193
  0
VERTEX
  8
PLAN_1
  6
CONTINUOUS
 10
1.940579
 20
-3.277677
  0
VERTEX
  8
PLAN_1
  6
CONTINUOUS
 10
1.941000
 20
-3.283161
  0
VERTEX
  8
PLAN_1
  6
CONTINUOUS
 10
1.941000
 20
-3.287799
  0
VERTEX
  8
PLAN_1
  6
CONTINUOUS
 10
1.940579
 20
-3.292016
  0
VERTEX
  8
PLAN_1
  6
CONTINUOUS
 10
1.939736
 20
-3.295811
  0
VERTEX
  8
PLAN_1
  6
CONTINUOUS
 10
1.938890
 20
-3.299606
  0
VERTEX
  8
PLAN_1
  6
CONTINUOUS
 10
1.938047
 20
-3.302980
  0
VERTEX
  8
PLAN_1
  6
CONTINUOUS
 10
1.936783
 20
-3.306354
  0
VERTEX
  8
PLAN_1
  6
CONTINUOUS
 10
1.935094
 20
-3.309728
  0
VERTEX
  8
PLAN_1
  6
CONTINUOUS
 10
1.933409
 20
-3.312681
  0
VERTEX
  8
PLAN_1
  6
CONTINUOUS
 10
1.931720
 20
-3.315634
  0
VERTEX
  8
PLAN_1
  6
CONTINUOUS
 10
1.929614
 20
-3.318165
  0
VERTEX
  8
PLAN_1
  6
CONTINUOUS
 10
1.927504
 20
-3.320697
  0
VERTEX
  8
PLAN_1
  6
CONTINUOUS
 10
1.925394
 20
-3.323224
  0
VERTEX
  8
PLAN_1
  6
CONTINUOUS
 10
1.920335
 20
-3.327445
  0
VERTEX
  8
PLAN_1
  6
CONTINUOUS
 10
1.914850
 20
-3.331240
  0
VERTEX
  8
PLAN_1
  6
CONTINUOUS
 10
1.908949
 20
-3.334193
  0
VERTEX
  8
PLAN_1
  6
CONTINUOUS
 10
1.902622
 20
-3.337142
  0
VERTEX
  8
PLAN_1
  6
CONTINUOUS
 10
1.896295
 20
-3.339252
  0
VERTEX
  8
PLAN_1
  6
CONTINUOUS
 10
1.889547
 20
-3.340941
  0
VERTEX
  8
PLAN_1
  6
CONTINUOUS
 10
1.882799
 20
-3.342205
  0
VERTEX
  8
PLAN_1
  6
CONTINUOUS
 10
1.876051
 20
-3.343047
  0
VERTEX
  8
PLAN_1
  6
CONTINUOUS
 10
1.869724
 20
-3.343469
  0
VERTEX
  8
PLAN_1
  6
CONTINUOUS
 10
1.862976
 20
-3.343469
  0
VERTEX
  8
PLAN_1
  6
CONTINUOUS
 10
1.856228
 20
-3.343469
  0
VERTEX
  8
PLAN_1
  6
CONTINUOUS
 10
1.850323
 20
-3.343047
  0
VERTEX
  8
PLAN_1
  6
CONTINUOUS
 10
1.844421
 20
-3.342626
  0
VERTEX
  8
PLAN_1
  6
CONTINUOUS
 10
1.839358
 20
-3.341783
  0
VERTEX
  8
PLAN_1
  6
CONTINUOUS
 10
1.834299
 20
-3.340941
  0
VERTEX
  8
PLAN_1
  6
CONTINUOUS
 10
1.830079
 20
-3.339673
  0
VERTEX
  8
PLAN_1
  6
CONTINUOUS
 10
1.825862
 20
-3.338409
  0
VERTEX
  8
PLAN_1
  6
CONTINUOUS
 10
1.822488
 20
-3.337142
  0
VERTEX
  8
PLAN_1
  6
CONTINUOUS
 10
1.816161
 20
-3.334193
  0
VERTEX
  8
PLAN_1
  6
CONTINUOUS
 10
1.810681
 20
-3.330819
  0
VERTEX
  8
PLAN_1
  6
CONTINUOUS
 10
1.806461
 20
-3.327445
  0
VERTEX
  8
PLAN_1
  6
CONTINUOUS
 10
1.802665
 20
-3.324492
  0
VERTEX
  8
PLAN_1
  6
CONTINUOUS
 10
1.799713
 20
-3.321539
  0
VERTEX
  8
PLAN_1
  6
CONTINUOUS
 10
1.797185
 20
-3.318587
  0
VERTEX
  8
PLAN_1
  6
CONTINUOUS
 10
1.794654
 20
-3.315634
  0
VERTEX
  8
PLAN_1
  6
CONTINUOUS
 10
1.792543
 20
-3.312681
  0
VERTEX
  8
PLAN_1
  6
CONTINUOUS
 10
1.790437
 20
-3.309728
  0
VERTEX
  8
PLAN_1
  6
CONTINUOUS
 10
1.788748
 20
-3.306776
  0
VERTEX
  8
PLAN_1
  6
CONTINUOUS
 10
1.787484
 20
-3.303402
  0
VERTEX
  8
PLAN_1
  6
CONTINUOUS
 10
1.786217
 20
-3.300453
  0
VERTEX
  8
PLAN_1
  6
CONTINUOUS
 10
1.784531
 20
-3.294126
  0
VERTEX
  8
PLAN_1
  6
CONTINUOUS
 10
1.783264
 20
-3.287378
  0
VERTEX
  8
PLAN_1
  6
CONTINUOUS
 10
1.782843
 20
-3.280630
  0
VERTEX
  8
PLAN_1
  6
CONTINUOUS
 10
1.782421
 20
-3.273882
  0
VERTEX
  8
PLAN_1
  6
CONTINUOUS
 10
1.807728
 20
-3.273882
  0
VERTEX
  8
PLAN_1
  6
CONTINUOUS
 10
1.808150
 20
-3.280209
  0
VERTEX
  8
PLAN_1
  6
CONTINUOUS
 10
1.808992
 20
-3.286110
  0
VERTEX
  8
PLAN_1
  6
CONTINUOUS
 10
1.810681
 20
-3.291594
  0
VERTEX
  8
PLAN_1
  6
CONTINUOUS
 10
1.812787
 20
-3.296232
  0
VERTEX
  8
PLAN_1
  6
CONTINUOUS
 10
1.815319
 20
-3.300874
  0
VERTEX
  8
PLAN_1
  6
CONTINUOUS
 10
1.818272
 20
-3.304669
  0
VERTEX
  8
PLAN_1
  6
CONTINUOUS
 10
1.822067
 20
-3.308043
  0
VERTEX
  8
PLAN_1
  6
CONTINUOUS
 10
1.825862
 20
-3.310575
  0
VERTEX
  8
PLAN_1
  6
CONTINUOUS
 10
1.829657
 20
-3.313102
  0
VERTEX
  8
PLAN_1
  6
CONTINUOUS
 10
1.834299
 20
-3.315213
  0
VERTEX
  8
PLAN_1
  6
CONTINUOUS
 10
1.838516
 20
-3.316898
  0
VERTEX
  8
PLAN_1
  6
CONTINUOUS
 10
1.843575
 20
-3.318165
  0
VERTEX
  8
PLAN_1
  6
CONTINUOUS
 10
1.848217
 20
-3.319429
  0
VERTEX
  8
PLAN_1
  6
CONTINUOUS
 10
1.852854
 20
-3.319850
  0
VERTEX
  8
PLAN_1
  6
CONTINUOUS
 10
1.857913
 20
-3.320272
  0
VERTEX
  8
PLAN_1
  6
CONTINUOUS
 10
1.862555
 20
-3.320697
  0
VERTEX
  8
PLAN_1
  6
CONTINUOUS
 10
1.870567
 20
-3.320272
  0
VERTEX
  8
PLAN_1
  6
CONTINUOUS
 10
1.879004
 20
-3.319429
  0
VERTEX
  8
PLAN_1
  6
CONTINUOUS
 10
1.883642
 20
-3.318587
  0
VERTEX
  8
PLAN_1
  6
CONTINUOUS
 10
1.887858
 20
-3.317323
  0
VERTEX
  8
PLAN_1
  6
CONTINUOUS
 10
1.892079
 20
-3.316055
  0
VERTEX
  8
PLAN_1
  6
CONTINUOUS
 10
1.896295
 20
-3.314370
  0
VERTEX
  8
PLAN_1
  6
CONTINUOUS
 10
1.900091
 20
-3.312681
  0
VERTEX
  8
PLAN_1
  6
CONTINUOUS
 10
1.903465
 20
-3.310150
  0
VERTEX
  8
PLAN_1
  6
CONTINUOUS
 10
1.906839
 20
-3.307622
  0
VERTEX
  8
PLAN_1
  6
CONTINUOUS
 10
1.909370
 20
-3.304248
  0
VERTEX
  8
PLAN_1
  6
CONTINUOUS
 10
1.911898
 20
-3.300874
  0
VERTEX
  8
PLAN_1
  6
CONTINUOUS
 10
1.913587
 20
-3.296657
  0
VERTEX
  8
PLAN_1
  6
CONTINUOUS
 10
1.914429
 20
-3.292016
  0
VERTEX
  8
PLAN_1
  6
CONTINUOUS
 10
1.914850
 20
-3.286957
  0
VERTEX
  8
PLAN_1
  6
CONTINUOUS
 10
1.914850
 20
-3.283161
  0
VERTEX
  8
PLAN_1
  6
CONTINUOUS
 10
1.914429
 20
-3.279787
  0
VERTEX
  8
PLAN_1
  6
CONTINUOUS
 10
1.913587
 20
-3.276835
  0
VERTEX
  8
PLAN_1
  6
CONTINUOUS
 10
1.912744
 20
-3.273882
  0
VERTEX
  8
PLAN_1
  6
CONTINUOUS
 10
1.911476
 20
-3.271350
  0
VERTEX
  8
PLAN_1
  6
CONTINUOUS
 10
1.910213
 20
-3.268819
  0
VERTEX
  8
PLAN_1
  6
CONTINUOUS
 10
1.908102
 20
-3.266713
  0
VERTEX
  8
PLAN_1
  6
CONTINUOUS
 10
1.905996
 20
-3.264602
  0
VERTEX
  8
PLAN_1
  6
CONTINUOUS
 10
1.903465
 20
-3.262492
  0
VERTEX
  8
PLAN_1
  6
CONTINUOUS
 10
1.900091
 20
-3.260807
  0
VERTEX
  8
PLAN_1
  6
CONTINUOUS
 10
1.896717
 20
-3.259118
  0
VERTEX
  8
PLAN_1
  6
CONTINUOUS
 10
1.892921
 20
-3.257433
  0
VERTEX
  8
PLAN_1
  6
CONTINUOUS
 10
1.883642
 20
-3.254480
  0
VERTEX
  8
PLAN_1
  6
CONTINUOUS
 10
1.872256
 20
-3.251528
  0
VERTEX
  8
PLAN_1
  6
CONTINUOUS
 10
1.831768
 20
-3.242248
  0
VERTEX
  8
PLAN_1
  6
CONTINUOUS
 10
1.826283
 20
-3.240984
  0
VERTEX
  8
PLAN_1
  6
CONTINUOUS
 10
1.819535
 20
-3.238453
  0
VERTEX
  8
PLAN_1
  6
CONTINUOUS
 10
1.816161
 20
-3.237189
  0
VERTEX
  8
PLAN_1
  6
CONTINUOUS
 10
1.812366
 20
-3.235079
  0
VERTEX
  8
PLAN_1
  6
CONTINUOUS
 10
1.808992
 20
-3.232972
  0
VERTEX
  8
PLAN_1
  6
CONTINUOUS
 10
1.805618
 20
-3.230862
  0
VERTEX
  8
PLAN_1
  6
CONTINUOUS
 10
1.802244
 20
-3.227909
  0
VERTEX
  8
PLAN_1
  6
CONTINUOUS
 10
1.799291
 20
-3.224535
  0
VERTEX
  8
PLAN_1
  6
CONTINUOUS
 10
1.796339
 20
-3.221161
  0
VERTEX
  8
PLAN_1
  6
CONTINUOUS
 10
1.793811
 20
-3.216945
  0
VERTEX
  8
PLAN_1
  6
CONTINUOUS
 10
1.792122
 20
-3.212307
  0
VERTEX
  8
PLAN_1
  6
CONTINUOUS
 10
1.790437
 20
-3.207244
  0
VERTEX
  8
PLAN_1
  6
CONTINUOUS
 10
1.789591
 20
-3.201764
  0
VERTEX
  8
PLAN_1
  6
CONTINUOUS
 10
1.789169
 20
-3.195437
  0
VERTEX
  8
PLAN_1
  6
CONTINUOUS
 10
1.789591
 20
-3.189531
  0
VERTEX
  8
PLAN_1
  6
CONTINUOUS
 10
1.790012
 20
-3.183626
  0
VERTEX
  8
PLAN_1
  6
CONTINUOUS
 10
1.791280
 20
-3.178146
  0
VERTEX
  8
PLAN_1
  6
CONTINUOUS
 10
1.792965
 20
-3.172661
  0
VERTEX
  8
PLAN_1
  6
CONTINUOUS
 10
1.795496
 20
-3.167177
  0
VERTEX
  8
PLAN_1
  6
CONTINUOUS
 10
1.798028
 20
-3.162118
  0
VERTEX
  8
PLAN_1
  6
CONTINUOUS
 10
1.801402
 20
-3.157476
  0
VERTEX
  8
PLAN_1
  6
CONTINUOUS
 10
1.805197
 20
-3.152839
  0
VERTEX
  8
PLAN_1
  6
CONTINUOUS
 10
1.809835
 20
-3.148622
  0
VERTEX
  8
PLAN_1
  6
CONTINUOUS
 10
1.814898
 20
-3.145248
  0
VERTEX
  8
PLAN_1
  6
CONTINUOUS
 10
1.820378
 20
-3.141874
  0
VERTEX
  8
PLAN_1
  6
CONTINUOUS
 10
1.826705
 20
-3.138921
  0
VERTEX
  8
PLAN_1
  6
CONTINUOUS
 10
1.833453
 20
-3.136811
  0
VERTEX
  8
PLAN_1
  6
CONTINUOUS
 10
1.841047
 20
-3.135126
  0
VERTEX
  8
PLAN_1
  6
CONTINUOUS
 10
1.849059
 20
-3.134283
  0
VERTEX
  8
PLAN_1
  6
CONTINUOUS
 10
1.857913
 20
-3.133858
  0
VERTEX
  8
PLAN_1
  6
CONTINUOUS
 10
1.864240
 20
-3.133858
  0
VERTEX
  8
PLAN_1
  6
CONTINUOUS
 10
1.870146
 20
-3.134283
  0
VERTEX
  8
PLAN_1
  6
CONTINUOUS
 10
1.875630
 20
-3.134705
  0
VERTEX
  8
PLAN_1
  6
CONTINUOUS
 10
1.881110
 20
-3.135547
  0
VERTEX
  8
PLAN_1
  6
CONTINUOUS
 10
1.886173
 20
-3.136811
  0
VERTEX
  8
PLAN_1
  6
CONTINUOUS
 10
1.890811
 20
-3.137657
  0
VERTEX
  8
PLAN_1
  6
CONTINUOUS
 10
1.895028
 20
-3.138921
  0
VERTEX
  8
PLAN_1
  6
CONTINUOUS
 10
1.899248
 20
-3.140606
  0
VERTEX
  8
PLAN_1
  6
CONTINUOUS
 10
1.903043
 20
-3.142295
  0
VERTEX
  8
PLAN_1
  6
CONTINUOUS
 10
1.906417
 20
-3.143980
  0
VERTEX
  8
PLAN_1
  6
CONTINUOUS
 10
1.909791
 20
-3.146091
  0
VERTEX
  8
PLAN_1
  6
CONTINUOUS
 10
1.912744
 20
-3.148201
  0
VERTEX
  8
PLAN_1
  6
CONTINUOUS
 10
1.915272
 20
-3.150307
  0
VERTEX
  8
PLAN_1
  6
CONTINUOUS
 10
1.917803
 20
-3.152417
  0
VERTEX
  8
PLAN_1
  6
CONTINUOUS
 10
1.920335
 20
-3.154949
  0
VERTEX
  8
PLAN_1
  6
CONTINUOUS
 10
1.922445
 20
-3.157476
  0
VERTEX
  8
PLAN_1
  6
CONTINUOUS
 10
1.925819
 20
-3.162539
  0
VERTEX
  8
PLAN_1
  6
CONTINUOUS
 10
1.928768
 20
-3.167598
  0
VERTEX
  8
PLAN_1
  6
CONTINUOUS
 10
1.930878
 20
-3.173083
  0
VERTEX
  8
PLAN_1
  6
CONTINUOUS
 10
1.932567
 20
-3.178146
  0
VERTEX
  8
PLAN_1
  6
CONTINUOUS
 10
1.933831
 20
-3.183205
  0
VERTEX
  8
PLAN_1
  6
CONTINUOUS
 10
1.934673
 20
-3.188268
  0
VERTEX
  8
PLAN_1
  6
CONTINUOUS
 10
1.935094
 20
-3.192906
  0
VERTEX
  8
PLAN_1
  6
CONTINUOUS
 10
1.935516
 20
-3.197543
  0
VERTEX
  8
PLAN_1
  6
CONTINUOUS
 10
1.910213
 20
-3.197543
  0
SEQEND
  8
0
  0
POLYLINE
  8
PLAN_1
  6
CONTINUOUS
 66
     1
 40
0.008433
 41
0.008433
  0
VERTEX
  8
PLAN_1
  6
CONTINUOUS
 10
-0.489122
 20
1.872307
  0
VERTEX
  8
PLAN_1
  6
CONTINUOUS
 10
-0.489122
 20
2.653386
  0
VERTEX
  8
PLAN_1
  6
CONTINUOUS
 10
-1.778409
 20
2.653386
  0
VERTEX
  8
PLAN_1
  6
CONTINUOUS
 10
-1.778409
 20
1.872307
  0
VERTEX
  8
PLAN_1
  6
CONTINUOUS
 10
-0.489122
 20
1.872307
  0
SEQEND
  8
0
  0
POLYLINE
  8
PLAN_1
  6
CONTINUOUS
 66
     1
 40
0.008433
 41
0.008433
  0
VERTEX
  8
PLAN_1
  6
CONTINUOUS
 10
-0.926476
 20
1.461102
  0
VERTEX
  8
PLAN_1
  6
CONTINUOUS
 10
-0.926476
 20
1.506650
  0
VERTEX
  8
PLAN_1
  6
CONTINUOUS
 10
-1.320390
 20
1.506650
  0
VERTEX
  8
PLAN_1
  6
CONTINUOUS
 10
-1.320390
 20
1.461102
  0
VERTEX
  8
PLAN_1
  6
CONTINUOUS
 10
-0.926476
 20
1.461102
  0
SEQEND
  8
0
  0
POLYLINE
  8
PLAN_1
  6
CONTINUOUS
 66
     1
 40
0.008433
 41
0.008433
  0
VERTEX
  8
PLAN_1
  6
CONTINUOUS
 10
-0.594138
 20
1.847846
  0
VERTEX
  8
PLAN_1
  6
CONTINUOUS
 10
-0.594138
 20
1.868091
  0
VERTEX
  8
PLAN_1
  6
CONTINUOUS
 10
-1.652728
 20
1.868091
  0
VERTEX
  8
PLAN_1
  6
CONTINUOUS
 10
-1.652728
 20
1.847846
  0
VERTEX
  8
PLAN_1
  6
CONTINUOUS
 10
-0.594138
 20
1.847846
  0
SEQEND
  8
0
  0
POLYLINE
  8
PLAN_1
  6
CONTINUOUS
 66
     1
 40
0.008433
 41
0.008433
  0
VERTEX
  8
PLAN_1
  6
CONTINUOUS
 10
-0.827362
 20
1.506650
  0
VERTEX
  8
PLAN_1
  6
CONTINUOUS
 10
-0.827362
 20
1.847846
  0
VERTEX
  8
PLAN_1
  6
CONTINUOUS
 10
-1.438902
 20
1.847846
  0
VERTEX
  8
PLAN_1
  6
CONTINUOUS
 10
-1.438902
 20
1.506650
  0
VERTEX
  8
PLAN_1
  6
CONTINUOUS
 10
-0.827362
 20
1.506650
  0
SEQEND
  8
0
  0
POLYLINE
  8
PLAN_1
 62
     5
  6
CONTINUOUS
 66
     1
 40
0.003000
 41
0.003000
  0
VERTEX
  8
PLAN_1
 62
     5
  6
CONTINUOUS
 10
-1.942890
 20
1.181480
  0
VERTEX
  8
PLAN_1
 62
     5
  6
CONTINUOUS
 10
-1.942890
 20
1.189917
  0
SEQEND
  8
0
  0
POLYLINE
  8
PLAN_1
 62
     5
  6
CONTINUOUS
 66
     1
 40
0.003000
 41
0.003000
  0
VERTEX
  8
PLAN_1
 62
     5
  6
CONTINUOUS
 10
-1.942890
 20
1.197929
  0
VERTEX
  8
PLAN_1
 62
     5
  6
CONTINUOUS
 10
-1.942890
 20
1.206362
  0
SEQEND
  8
0
  0
POLYLINE
  8
PLAN_1
 62
     5
  6
CONTINUOUS
 66
     1
 40
0.003000
 41
0.003000
  0
VERTEX
  8
PLAN_1
 62
     5
  6
CONTINUOUS
 10
-1.942890
 20
1.214799
  0
VERTEX
  8
PLAN_1
 62
     5
  6
CONTINUOUS
 10
-1.942890
 20
1.223232
  0
SEQEND
  8
0
  0
POLYLINE
  8
PLAN_1
 62
     5
  6
CONTINUOUS
 66
     1
 40
0.003000
 41
0.003000
  0
VERTEX
  8
PLAN_1
 62
     5
  6
CONTINUOUS
 10
-1.942890
 20
1.231248
  0
VERTEX
  8
PLAN_1
 62
     5
  6
CONTINUOUS
 10
-1.942890
 20
1.239681
  0
SEQEND
  8
0
  0
POLYLINE
  8
PLAN_1
 62
     5
  6
CONTINUOUS
 66
     1
 40
0.003000
 41
0.003000
  0
VERTEX
  8
PLAN_1
 62
     5
  6
CONTINUOUS
 10
-1.942890
 20
1.248118
  0
VERTEX
  8
PLAN_1
 62
     5
  6
CONTINUOUS
 10
-1.942890
 20
1.256551
  0
SEQEND
  8
0
  0
POLYLINE
  8
PLAN_1
 62
     5
  6
CONTINUOUS
 66
     1
 40
0.003000
 41
0.003000
  0
VERTEX
  8
PLAN_1
 62
     5
  6
CONTINUOUS
 10
-1.942890
 20
1.264567
  0
VERTEX
  8
PLAN_1
 62
     5
  6
CONTINUOUS
 10
-1.942890
 20
1.273000
  0
SEQEND
  8
0
  0
POLYLINE
  8
PLAN_1
 62
     5
  6
CONTINUOUS
 66
     1
 40
0.003000
 41
0.003000
  0
VERTEX
  8
PLAN_1
 62
     5
  6
CONTINUOUS
 10
-1.942890
 20
1.281437
  0
VERTEX
  8
PLAN_1
 62
     5
  6
CONTINUOUS
 10
-1.942890
 20
1.289870
  0
SEQEND
  8
0
  0
POLYLINE
  8
PLAN_1
 62
     5
  6
CONTINUOUS
 66
     1
 40
0.003000
 41
0.003000
  0
VERTEX
  8
PLAN_1
 62
     5
  6
CONTINUOUS
 10
-1.942890
 20
1.297882
  0
VERTEX
  8
PLAN_1
 62
     5
  6
CONTINUOUS
 10
-1.942890
 20
1.306319
  0
SEQEND
  8
0
  0
POLYLINE
  8
PLAN_1
 62
     5
  6
CONTINUOUS
 66
     1
 40
0.003000
 41
0.003000
  0
VERTEX
  8
PLAN_1
 62
     5
  6
CONTINUOUS
 10
-1.942890
 20
1.314752
  0
VERTEX
  8
PLAN_1
 62
     5
  6
CONTINUOUS
 10
-1.942890
 20
1.323189
  0
SEQEND
  8
0
  0
POLYLINE
  8
PLAN_1
 62
     5
  6
CONTINUOUS
 66
     1
 40
0.003000
 41
0.003000
  0
VERTEX
  8
PLAN_1
 62
     5
  6
CONTINUOUS
 10
-1.942890
 20
1.331201
  0
VERTEX
  8
PLAN_1
 62
     5
  6
CONTINUOUS
 10
-1.942890
 20
1.339638
  0
SEQEND
  8
0
  0
POLYLINE
  8
PLAN_1
 62
     5
  6
CONTINUOUS
 66
     1
 40
0.003000
 41
0.003000
  0
VERTEX
  8
PLAN_1
 62
     5
  6
CONTINUOUS
 10
-1.942890
 20
1.348071
  0
VERTEX
  8
PLAN_1
 62
     5
  6
CONTINUOUS
 10
-1.942890
 20
1.356508
  0
SEQEND
  8
0
  0
POLYLINE
  8
PLAN_1
 62
     5
  6
CONTINUOUS
 66
     1
 40
0.003000
 41
0.003000
  0
VERTEX
  8
PLAN_1
 62
     5
  6
CONTINUOUS
 10
-1.942890
 20
1.364520
  0
VERTEX
  8
PLAN_1
 62
     5
  6
CONTINUOUS
 10
-1.942890
 20
1.372957
  0
SEQEND
  8
0
  0
POLYLINE
  8
PLAN_1
 62
     5
  6
CONTINUOUS
 66
     1
 40
0.003000
 41
0.003000
  0
VERTEX
  8
PLAN_1
 62
     5
  6
CONTINUOUS
 10
-1.942890
 20
1.381390
  0
VERTEX
  8
PLAN_1
 62
     5
  6
CONTINUOUS
 10
-1.942890
 20
1.389402
  0
SEQEND
  8
0
  0
POLYLINE
  8
PLAN_1
 62
     5
  6
CONTINUOUS
 66
     1
 40
0.003000
 41
0.003000
  0
VERTEX
  8
PLAN_1
 62
     5
  6
CONTINUOUS
 10
-1.942890
 20
1.397839
  0
VERTEX
  8
PLAN_1
 62
     5
  6
CONTINUOUS
 10
-1.942890
 20
1.406272
  0
SEQEND
  8
0
  0
POLYLINE
  8
PLAN_1
 62
     5
  6
CONTINUOUS
 66
     1
 40
0.003000
 41
0.003000
  0
VERTEX
  8
PLAN_1
 62
     5
  6
CONTINUOUS
 10
-1.942890
 20
1.414709
  0
VERTEX
  8
PLAN_1
 62
     5
  6
CONTINUOUS
 10
-1.942890
 20
1.422720
  0
SEQEND
  8
0
  0
POLYLINE
  8
PLAN_1
 62
     5
  6
CONTINUOUS
 66
     1
 40
0.003000
 41
0.003000
  0
VERTEX
  8
PLAN_1
 62
     5
  6
CONTINUOUS
 10
-1.942890
 20
1.431157
  0
VERTEX
  8
PLAN_1
 62
     5
  6
CONTINUOUS
 10
-1.942890
 20
1.439591
  0
SEQEND
  8
0
  0
POLYLINE
  8
PLAN_1
 62
     5
  6
CONTINUOUS
 66
     1
 40
0.003000
 41
0.003000
  0
VERTEX
  8
PLAN_1
 62
     5
  6
CONTINUOUS
 10
-1.942890
 20
1.448028
  0
VERTEX
  8
PLAN_1
 62
     5
  6
CONTINUOUS
 10
-1.942890
 20
1.456039
  0
SEQEND
  8
0
  0
POLYLINE
  8
PLAN_1
 62
     5
  6
CONTINUOUS
 66
     1
 40
0.003000
 41
0.003000
  0
VERTEX
  8
PLAN_1
 62
     5
  6
CONTINUOUS
 10
-1.942890
 20
1.464476
  0
VERTEX
  8
PLAN_1
 62
     5
  6
CONTINUOUS
 10
-1.942890
 20
1.472909
  0
SEQEND
  8
0
  0
POLYLINE
  8
PLAN_1
 62
     5
  6
CONTINUOUS
 66
     1
 40
0.003000
 41
0.003000
  0
VERTEX
  8
PLAN_1
 62
     5
  6
CONTINUOUS
 10
-1.942890
 20
1.481346
  0
VERTEX
  8
PLAN_1
 62
     5
  6
CONTINUOUS
 10
-1.942890
 20
1.489358
  0
SEQEND
  8
0
  0
POLYLINE
  8
PLAN_1
 62
     5
  6
CONTINUOUS
 66
     1
 40
0.003000
 41
0.003000
  0
VERTEX
  8
PLAN_1
 62
     5
  6
CONTINUOUS
 10
-1.942890
 20
1.497791
  0
VERTEX
  8
PLAN_1
 62
     5
  6
CONTINUOUS
 10
-1.942890
 20
1.506228
  0
SEQEND
  8
0
  0
POLYLINE
  8
PLAN_1
 62
     5
  6
CONTINUOUS
 66
     1
 40
0.003000
 41
0.003000
  0
VERTEX
  8
PLAN_1
 62
     5
  6
CONTINUOUS
 10
-1.942890
 20
1.514661
  0
VERTEX
  8
PLAN_1
 62
     5
  6
CONTINUOUS
 10
-1.942890
 20
1.522677
  0
SEQEND
  8
0
  0
POLYLINE
  8
PLAN_1
 62
     5
  6
CONTINUOUS
 66
     1
 40
0.003000
 41
0.003000
  0
VERTEX
  8
PLAN_1
 62
     5
  6
CONTINUOUS
 10
-1.942890
 20
1.531110
  0
VERTEX
  8
PLAN_1
 62
     5
  6
CONTINUOUS
 10
-1.942890
 20
1.539547
  0
SEQEND
  8
0
  0
POLYLINE
  8
PLAN_1
 62
     5
  6
CONTINUOUS
 66
     1
 40
0.003000
 41
0.003000
  0
VERTEX
  8
PLAN_1
 62
     5
  6
CONTINUOUS
 10
-1.942890
 20
1.547980
  0
VERTEX
  8
PLAN_1
 62
     5
  6
CONTINUOUS
 10
-1.942890
 20
1.555996
  0
SEQEND
  8
0
  0
POLYLINE
  8
PLAN_1
 62
     5
  6
CONTINUOUS
 66
     1
 40
0.003000
 41
0.003000
  0
VERTEX
  8
PLAN_1
 62
     5
  6
CONTINUOUS
 10
-1.942890
 20
1.564429
  0
VERTEX
  8
PLAN_1
 62
     5
  6
CONTINUOUS
 10
-1.942890
 20
1.572866
  0
SEQEND
  8
0
  0
POLYLINE
  8
PLAN_1
 62
     5
  6
CONTINUOUS
 66
     1
 40
0.003000
 41
0.003000
  0
VERTEX
  8
PLAN_1
 62
     5
  6
CONTINUOUS
 10
-1.942890
 20
1.581299
  0
VERTEX
  8
PLAN_1
 62
     5
  6
CONTINUOUS
 10
-1.942890
 20
1.589311
  0
SEQEND
  8
0
  0
POLYLINE
  8
PLAN_1
 62
     5
  6
CONTINUOUS
 66
     1
 40
0.003000
 41
0.003000
  0
VERTEX
  8
PLAN_1
 62
     5
  6
CONTINUOUS
 10
-1.942890
 20
1.597748
  0
VERTEX
  8
PLAN_1
 62
     5
  6
CONTINUOUS
 10
-1.942890
 20
1.606181
  0
SEQEND
  8
0
  0
POLYLINE
  8
PLAN_1
 62
     5
  6
CONTINUOUS
 66
     1
 40
0.003000
 41
0.003000
  0
VERTEX
  8
PLAN_1
 62
     5
  6
CONTINUOUS
 10
-1.942890
 20
1.614618
  0
VERTEX
  8
PLAN_1
 62
     5
  6
CONTINUOUS
 10
-1.942890
 20
1.622630
  0
SEQEND
  8
0
  0
POLYLINE
  8
PLAN_1
 62
     5
  6
CONTINUOUS
 66
     1
 40
0.003000
 41
0.003000
  0
VERTEX
  8
PLAN_1
 62
     5
  6
CONTINUOUS
 10
-1.942890
 20
1.631067
  0
VERTEX
  8
PLAN_1
 62
     5
  6
CONTINUOUS
 10
-1.942890
 20
1.639500
  0
SEQEND
  8
0
  0
POLYLINE
  8
PLAN_1
 62
     5
  6
CONTINUOUS
 66
     1
 40
0.003000
 41
0.003000
  0
VERTEX
  8
PLAN_1
 62
     5
  6
CONTINUOUS
 10
-1.942890
 20
1.647937
  0
VERTEX
  8
PLAN_1
 62
     5
  6
CONTINUOUS
 10
-1.942890
 20
1.655949
  0
SEQEND
  8
0
  0
POLYLINE
  8
PLAN_1
 62
     5
  6
CONTINUOUS
 66
     1
 40
0.003000
 41
0.003000
  0
VERTEX
  8
PLAN_1
 62
     5
  6
CONTINUOUS
 10
-1.942890
 20
1.664386
  0
VERTEX
  8
PLAN_1
 62
     5
  6
CONTINUOUS
 10
-1.942890
 20
1.672819
  0
SEQEND
  8
0
  0
POLYLINE
  8
PLAN_1
 62
     5
  6
CONTINUOUS
 66
     1
 40
0.003000
 41
0.003000
  0
VERTEX
  8
PLAN_1
 62
     5
  6
CONTINUOUS
 10
-1.942890
 20
1.681256
  0
VERTEX
  8
PLAN_1
 62
     5
  6
CONTINUOUS
 10
-1.942890
 20
1.689268
  0
SEQEND
  8
0
  0
POLYLINE
  8
PLAN_1
 62
     5
  6
CONTINUOUS
 66
     1
 40
0.003000
 41
0.003000
  0
VERTEX
  8
PLAN_1
 62
     5
  6
CONTINUOUS
 10
-1.942890
 20
1.697701
  0
VERTEX
  8
PLAN_1
 62
     5
  6
CONTINUOUS
 10
-1.942890
 20
1.706138
  0
SEQEND
  8
0
  0
POLYLINE
  8
PLAN_1
 62
     5
  6
CONTINUOUS
 66
     1
 40
0.003000
 41
0.003000
  0
VERTEX
  8
PLAN_1
 62
     5
  6
CONTINUOUS
 10
-1.942890
 20
1.714571
  0
VERTEX
  8
PLAN_1
 62
     5
  6
CONTINUOUS
 10
-1.942890
 20
1.722587
  0
SEQEND
  8
0
  0
POLYLINE
  8
PLAN_1
 62
     5
  6
CONTINUOUS
 66
     1
 40
0.003000
 41
0.003000
  0
VERTEX
  8
PLAN_1
 62
     5
  6
CONTINUOUS
 10
-1.942890
 20
1.731020
  0
VERTEX
  8
PLAN_1
 62
     5
  6
CONTINUOUS
 10
-1.942890
 20
1.739457
  0
SEQEND
  8
0
  0
POLYLINE
  8
PLAN_1
 62
     5
  6
CONTINUOUS
 66
     1
 40
0.003000
 41
0.003000
  0
VERTEX
  8
PLAN_1
 62
     5
  6
CONTINUOUS
 10
-1.942890
 20
1.747469
  0
VERTEX
  8
PLAN_1
 62
     5
  6
CONTINUOUS
 10
-1.942890
 20
1.755906
  0
SEQEND
  8
0
  0
POLYLINE
  8
PLAN_1
 62
     5
  6
CONTINUOUS
 66
     1
 40
0.003000
 41
0.003000
  0
VERTEX
  8
PLAN_1
 62
     5
  6
CONTINUOUS
 10
-1.942890
 20
1.764339
  0
VERTEX
  8
PLAN_1
 62
     5
  6
CONTINUOUS
 10
-1.942890
 20
1.772772
  0
SEQEND
  8
0
  0
POLYLINE
  8
PLAN_1
 62
     5
  6
CONTINUOUS
 66
     1
 40
0.003000
 41
0.003000
  0
VERTEX
  8
PLAN_1
 62
     5
  6
CONTINUOUS
 10
-1.942890
 20
1.780787
  0
VERTEX
  8
PLAN_1
 62
     5
  6
CONTINUOUS
 10
-1.942890
 20
1.789220
  0
SEQEND
  8
0
  0
POLYLINE
  8
PLAN_1
 62
     5
  6
CONTINUOUS
 66
     1
 40
0.003000
 41
0.003000
  0
VERTEX
  8
PLAN_1
 62
     5
  6
CONTINUOUS
 10
-1.942890
 20
1.797657
  0
VERTEX
  8
PLAN_1
 62
     5
  6
CONTINUOUS
 10
-1.942890
 20
1.806091
  0
SEQEND
  8
0
  0
POLYLINE
  8
PLAN_1
 62
     5
  6
CONTINUOUS
 66
     1
 40
0.003000
 41
0.003000
  0
VERTEX
  8
PLAN_1
 62
     5
  6
CONTINUOUS
 10
-1.942890
 20
1.814106
  0
VERTEX
  8
PLAN_1
 62
     5
  6
CONTINUOUS
 10
-1.942890
 20
1.822539
  0
SEQEND
  8
0
  0
POLYLINE
  8
PLAN_1
 62
     5
  6
CONTINUOUS
 66
     1
 40
0.003000
 41
0.003000
  0
VERTEX
  8
PLAN_1
 62
     5
  6
CONTINUOUS
 10
-1.942890
 20
1.830976
  0
VERTEX
  8
PLAN_1
 62
     5
  6
CONTINUOUS
 10
-1.942890
 20
1.839409
  0
SEQEND
  8
0
  0
POLYLINE
  8
PLAN_1
 62
     5
  6
CONTINUOUS
 66
     1
 40
0.003000
 41
0.003000
  0
VERTEX
  8
PLAN_1
 62
     5
  6
CONTINUOUS
 10
-1.942890
 20
1.847425
  0
VERTEX
  8
PLAN_1
 62
     5
  6
CONTINUOUS
 10
-1.942890
 20
1.855858
  0
SEQEND
  8
0
  0
POLYLINE
  8
PLAN_1
 62
     5
  6
CONTINUOUS
 66
     1
 40
0.003000
 41
0.003000
  0
VERTEX
  8
PLAN_1
 62
     5
  6
CONTINUOUS
 10
-1.942890
 20
1.864291
  0
VERTEX
  8
PLAN_1
 62
     5
  6
CONTINUOUS
 10
-1.942890
 20
1.872728
  0
SEQEND
  8
0
  0
POLYLINE
  8
PLAN_1
 62
     5
  6
CONTINUOUS
 66
     1
 40
0.003000
 41
0.003000
  0
VERTEX
  8
PLAN_1
 62
     5
  6
CONTINUOUS
 10
-1.934457
 20
1.872728
  0
VERTEX
  8
PLAN_1
 62
     5
  6
CONTINUOUS
 10
-1.926445
 20
1.872728
  0
SEQEND
  8
0
  0
POLYLINE
  8
PLAN_1
 62
     5
  6
CONTINUOUS
 66
     1
 40
0.003000
 41
0.003000
  0
VERTEX
  8
PLAN_1
 62
     5
  6
CONTINUOUS
 10
-1.918008
 20
1.872728
  0
VERTEX
  8
PLAN_1
 62
     5
  6
CONTINUOUS
 10
-1.909575
 20
1.872728
  0
SEQEND
  8
0
  0
POLYLINE
  8
PLAN_1
 62
     5
  6
CONTINUOUS
 66
     1
 40
0.003000
 41
0.003000
  0
VERTEX
  8
PLAN_1
 62
     5
  6
CONTINUOUS
 10
-1.901138
 20
1.872728
  0
VERTEX
  8
PLAN_1
 62
     5
  6
CONTINUOUS
 10
-1.893126
 20
1.872728
  0
SEQEND
  8
0
  0
POLYLINE
  8
PLAN_1
 62
     5
  6
CONTINUOUS
 66
     1
 40
0.003000
 41
0.003000
  0
VERTEX
  8
PLAN_1
 62
     5
  6
CONTINUOUS
 10
-1.884689
 20
1.872728
  0
VERTEX
  8
PLAN_1
 62
     5
  6
CONTINUOUS
 10
-1.876256
 20
1.872728
  0
SEQEND
  8
0
  0
POLYLINE
  8
PLAN_1
 62
     5
  6
CONTINUOUS
 66
     1
 40
0.003000
 41
0.003000
  0
VERTEX
  8
PLAN_1
 62
     5
  6
CONTINUOUS
 10
-1.867819
 20
1.872728
  0
VERTEX
  8
PLAN_1
 62
     5
  6
CONTINUOUS
 10
-1.859807
 20
1.872728
  0
SEQEND
  8
0
  0
POLYLINE
  8
PLAN_1
 62
     5
  6
CONTINUOUS
 66
     1
 40
0.003000
 41
0.003000
  0
VERTEX
  8
PLAN_1
 62
     5
  6
CONTINUOUS
 10
-1.851370
 20
1.872728
  0
VERTEX
  8
PLAN_1
 62
     5
  6
CONTINUOUS
 10
-1.842937
 20
1.872728
  0
SEQEND
  8
0
  0
POLYLINE
  8
PLAN_1
 62
     5
  6
CONTINUOUS
 66
     1
 40
0.003000
 41
0.003000
  0
VERTEX
  8
PLAN_1
 62
     5
  6
CONTINUOUS
 10
-1.834500
 20
1.872728
  0
VERTEX
  8
PLAN_1
 62
     5
  6
CONTINUOUS
 10
-1.826488
 20
1.872728
  0
SEQEND
  8
0
  0
POLYLINE
  8
PLAN_1
 62
     5
  6
CONTINUOUS
 66
     1
 40
0.003000
 41
0.003000
  0
VERTEX
  8
PLAN_1
 62
     5
  6
CONTINUOUS
 10
-1.818055
 20
1.872728
  0
VERTEX
  8
PLAN_1
 62
     5
  6
CONTINUOUS
 10
-1.809618
 20
1.872728
  0
SEQEND
  8
0
  0
POLYLINE
  8
PLAN_1
 62
     5
  6
CONTINUOUS
 66
     1
 40
0.003000
 41
0.003000
  0
VERTEX
  8
PLAN_1
 62
     5
  6
CONTINUOUS
 10
-1.801185
 20
1.872728
  0
VERTEX
  8
PLAN_1
 62
     5
  6
CONTINUOUS
 10
-1.793169
 20
1.872728
  0
SEQEND
  8
0
  0
POLYLINE
  8
PLAN_1
 62
     5
  6
CONTINUOUS
 66
     1
 40
0.003000
 41
0.003000
  0
VERTEX
  8
PLAN_1
 62
     5
  6
CONTINUOUS
 10
-1.784736
 20
1.872728
  0
VERTEX
  8
PLAN_1
 62
     5
  6
CONTINUOUS
 10
-1.776299
 20
1.872728
  0
SEQEND
  8
0
  0
POLYLINE
  8
PLAN_1
 62
     5
  6
CONTINUOUS
 66
     1
 40
0.003000
 41
0.003000
  0
VERTEX
  8
PLAN_1
 62
     5
  6
CONTINUOUS
 10
-1.767866
 20
1.872728
  0
VERTEX
  8
PLAN_1
 62
     5
  6
CONTINUOUS
 10
-1.759850
 20
1.872728
  0
SEQEND
  8
0
  0
POLYLINE
  8
PLAN_1
 62
     5
  6
CONTINUOUS
 66
     1
 40
0.003000
 41
0.003000
  0
VERTEX
  8
PLAN_1
 62
     5
  6
CONTINUOUS
 10
-1.751417
 20
1.872728
  0
VERTEX
  8
PLAN_1
 62
     5
  6
CONTINUOUS
 10
-1.742980
 20
1.872728
  0
SEQEND
  8
0
  0
POLYLINE
  8
PLAN_1
 62
     5
  6
CONTINUOUS
 66
     1
 40
0.003000
 41
0.003000
  0
VERTEX
  8
PLAN_1
 62
     5
  6
CONTINUOUS
 10
-1.734547
 20
1.872728
  0
VERTEX
  8
PLAN_1
 62
     5
  6
CONTINUOUS
 10
-1.726535
 20
1.872728
  0
SEQEND
  8
0
  0
POLYLINE
  8
PLAN_1
 62
     5
  6
CONTINUOUS
 66
     1
 40
0.003000
 41
0.003000
  0
VERTEX
  8
PLAN_1
 62
     5
  6
CONTINUOUS
 10
-1.718098
 20
1.872728
  0
VERTEX
  8
PLAN_1
 62
     5
  6
CONTINUOUS
 10
-1.709665
 20
1.872728
  0
SEQEND
  8
0
  0
POLYLINE
  8
PLAN_1
 62
     5
  6
CONTINUOUS
 66
     1
 40
0.003000
 41
0.003000
  0
VERTEX
  8
PLAN_1
 62
     5
  6
CONTINUOUS
 10
-1.701228
 20
1.872728
  0
VERTEX
  8
PLAN_1
 62
     5
  6
CONTINUOUS
 10
-1.693217
 20
1.872728
  0
SEQEND
  8
0
  0
POLYLINE
  8
PLAN_1
 62
     5
  6
CONTINUOUS
 66
     1
 40
0.003000
 41
0.003000
  0
VERTEX
  8
PLAN_1
 62
     5
  6
CONTINUOUS
 10
-1.684780
 20
1.872728
  0
VERTEX
  8
PLAN_1
 62
     5
  6
CONTINUOUS
 10
-1.676346
 20
1.872728
  0
SEQEND
  8
0
  0
POLYLINE
  8
PLAN_1
 62
     5
  6
CONTINUOUS
 66
     1
 40
0.003000
 41
0.003000
  0
VERTEX
  8
PLAN_1
 62
     5
  6
CONTINUOUS
 10
-1.668331
 20
1.872728
  0
VERTEX
  8
PLAN_1
 62
     5
  6
CONTINUOUS
 10
-1.659898
 20
1.872728
  0
SEQEND
  8
0
  0
POLYLINE
  8
PLAN_1
 62
     5
  6
CONTINUOUS
 66
     1
 40
0.003000
 41
0.003000
  0
VERTEX
  8
PLAN_1
 62
     5
  6
CONTINUOUS
 10
-1.651461
 20
1.872728
  0
VERTEX
  8
PLAN_1
 62
     5
  6
CONTINUOUS
 10
-1.643028
 20
1.872728
  0
SEQEND
  8
0
  0
POLYLINE
  8
PLAN_1
 62
     5
  6
CONTINUOUS
 66
     1
 40
0.003000
 41
0.003000
  0
VERTEX
  8
PLAN_1
 62
     5
  6
CONTINUOUS
 10
-1.635016
 20
1.872728
  0
VERTEX
  8
PLAN_1
 62
     5
  6
CONTINUOUS
 10
-1.626579
 20
1.872728
  0
SEQEND
  8
0
  0
POLYLINE
  8
PLAN_1
 62
     5
  6
CONTINUOUS
 66
     1
 40
0.003000
 41
0.003000
  0
VERTEX
  8
PLAN_1
 62
     5
  6
CONTINUOUS
 10
-1.618146
 20
1.872728
  0
VERTEX
  8
PLAN_1
 62
     5
  6
CONTINUOUS
 10
-1.609709
 20
1.872728
  0
SEQEND
  8
0
  0
POLYLINE
  8
PLAN_1
 62
     5
  6
CONTINUOUS
 66
     1
 40
0.003000
 41
0.003000
  0
VERTEX
  8
PLAN_1
 62
     5
  6
CONTINUOUS
 10
-1.601697
 20
1.872728
  0
VERTEX
  8
PLAN_1
 62
     5
  6
CONTINUOUS
 10
-1.593260
 20
1.872728
  0
SEQEND
  8
0
  0
POLYLINE
  8
PLAN_1
 62
     5
  6
CONTINUOUS
 66
     1
 40
0.003000
 41
0.003000
  0
VERTEX
  8
PLAN_1
 62
     5
  6
CONTINUOUS
 10
-1.584827
 20
1.872728
  0
VERTEX
  8
PLAN_1
 62
     5
  6
CONTINUOUS
 10
-1.576390
 20
1.872728
  0
SEQEND
  8
0
  0
POLYLINE
  8
PLAN_1
 62
     5
  6
CONTINUOUS
 66
     1
 40
0.003000
 41
0.003000
  0
VERTEX
  8
PLAN_1
 62
     5
  6
CONTINUOUS
 10
-1.568378
 20
1.872728
  0
VERTEX
  8
PLAN_1
 62
     5
  6
CONTINUOUS
 10
-1.559941
 20
1.872728
  0
SEQEND
  8
0
  0
POLYLINE
  8
PLAN_1
 62
     5
  6
CONTINUOUS
 66
     1
 40
0.003000
 41
0.003000
  0
VERTEX
  8
PLAN_1
 62
     5
  6
CONTINUOUS
 10
-1.551508
 20
1.872728
  0
VERTEX
  8
PLAN_1
 62
     5
  6
CONTINUOUS
 10
-1.543071
 20
1.872728
  0
SEQEND
  8
0
  0
POLYLINE
  8
PLAN_1
 62
     5
  6
CONTINUOUS
 66
     1
 40
0.003000
 41
0.003000
  0
VERTEX
  8
PLAN_1
 62
     5
  6
CONTINUOUS
 10
-1.535059
 20
1.872728
  0
VERTEX
  8
PLAN_1
 62
     5
  6
CONTINUOUS
 10
-1.526626
 20
1.872728
  0
SEQEND
  8
0
  0
POLYLINE
  8
PLAN_1
 62
     5
  6
CONTINUOUS
 66
     1
 40
0.003000
 41
0.003000
  0
VERTEX
  8
PLAN_1
 62
     5
  6
CONTINUOUS
 10
-1.518189
 20
1.872728
  0
VERTEX
  8
PLAN_1
 62
     5
  6
CONTINUOUS
 10
-1.509756
 20
1.872728
  0
SEQEND
  8
0
  0
POLYLINE
  8
PLAN_1
 62
     5
  6
CONTINUOUS
 66
     1
 40
0.003000
 41
0.003000
  0
VERTEX
  8
PLAN_1
 62
     5
  6
CONTINUOUS
 10
-1.501740
 20
1.872728
  0
VERTEX
  8
PLAN_1
 62
     5
  6
CONTINUOUS
 10
-1.493307
 20
1.872728
  0
SEQEND
  8
0
  0
POLYLINE
  8
PLAN_1
 62
     5
  6
CONTINUOUS
 66
     1
 40
0.003000
 41
0.003000
  0
VERTEX
  8
PLAN_1
 62
     5
  6
CONTINUOUS
 10
-1.484870
 20
1.872728
  0
VERTEX
  8
PLAN_1
 62
     5
  6
CONTINUOUS
 10
-1.476437
 20
1.872728
  0
SEQEND
  8
0
  0
POLYLINE
  8
PLAN_1
 62
     5
  6
CONTINUOUS
 66
     1
 40
0.003000
 41
0.003000
  0
VERTEX
  8
PLAN_1
 62
     5
  6
CONTINUOUS
 10
-1.468421
 20
1.872728
  0
VERTEX
  8
PLAN_1
 62
     5
  6
CONTINUOUS
 10
-1.459988
 20
1.872728
  0
SEQEND
  8
0
  0
POLYLINE
  8
PLAN_1
 62
     5
  6
CONTINUOUS
 66
     1
 40
0.003000
 41
0.003000
  0
VERTEX
  8
PLAN_1
 62
     5
  6
CONTINUOUS
 10
-1.451551
 20
1.872728
  0
VERTEX
  8
PLAN_1
 62
     5
  6
CONTINUOUS
 10
-1.443118
 20
1.872728
  0
SEQEND
  8
0
  0
POLYLINE
  8
PLAN_1
 62
     5
  6
CONTINUOUS
 66
     1
 40
0.003000
 41
0.003000
  0
VERTEX
  8
PLAN_1
 62
     5
  6
CONTINUOUS
 10
-1.435106
 20
1.872728
  0
VERTEX
  8
PLAN_1
 62
     5
  6
CONTINUOUS
 10
-1.426669
 20
1.872728
  0
SEQEND
  8
0
  0
POLYLINE
  8
PLAN_1
 62
     5
  6
CONTINUOUS
 66
     1
 40
0.003000
 41
0.003000
  0
VERTEX
  8
PLAN_1
 62
     5
  6
CONTINUOUS
 10
-1.418236
 20
1.872728
  0
VERTEX
  8
PLAN_1
 62
     5
  6
CONTINUOUS
 10
-1.409799
 20
1.872728
  0
SEQEND
  8
0
  0
POLYLINE
  8
PLAN_1
 62
     5
  6
CONTINUOUS
 66
     1
 40
0.003000
 41
0.003000
  0
VERTEX
  8
PLAN_1
 62
     5
  6
CONTINUOUS
 10
-1.401787
 20
1.872728
  0
VERTEX
  8
PLAN_1
 62
     5
  6
CONTINUOUS
 10
-1.393350
 20
1.872728
  0
SEQEND
  8
0
  0
POLYLINE
  8
PLAN_1
 62
     5
  6
CONTINUOUS
 66
     1
 40
0.003000
 41
0.003000
  0
VERTEX
  8
PLAN_1
 62
     5
  6
CONTINUOUS
 10
-1.384917
 20
1.872728
  0
VERTEX
  8
PLAN_1
 62
     5
  6
CONTINUOUS
 10
-1.376902
 20
1.872728
  0
SEQEND
  8
0
  0
POLYLINE
  8
PLAN_1
 62
     5
  6
CONTINUOUS
 66
     1
 40
0.003000
 41
0.003000
  0
VERTEX
  8
PLAN_1
 62
     5
  6
CONTINUOUS
 10
-1.368469
 20
1.872728
  0
VERTEX
  8
PLAN_1
 62
     5
  6
CONTINUOUS
 10
-1.360031
 20
1.872728
  0
SEQEND
  8
0
  0
POLYLINE
  8
PLAN_1
 62
     5
  6
CONTINUOUS
 66
     1
 40
0.003000
 41
0.003000
  0
VERTEX
  8
PLAN_1
 62
     5
  6
CONTINUOUS
 10
-1.351598
 20
1.872728
  0
VERTEX
  8
PLAN_1
 62
     5
  6
CONTINUOUS
 10
-1.343587
 20
1.872728
  0
SEQEND
  8
0
  0
POLYLINE
  8
PLAN_1
 62
     5
  6
CONTINUOUS
 66
     1
 40
0.003000
 41
0.003000
  0
VERTEX
  8
PLAN_1
 62
     5
  6
CONTINUOUS
 10
-1.335150
 20
1.872728
  0
VERTEX
  8
PLAN_1
 62
     5
  6
CONTINUOUS
 10
-1.326717
 20
1.872728
  0
SEQEND
  8
0
  0
POLYLINE
  8
PLAN_1
 62
     5
  6
CONTINUOUS
 66
     1
 40
0.003000
 41
0.003000
  0
VERTEX
  8
PLAN_1
 62
     5
  6
CONTINUOUS
 10
-1.318280
 20
1.872728
  0
VERTEX
  8
PLAN_1
 62
     5
  6
CONTINUOUS
 10
-1.310268
 20
1.872728
  0
SEQEND
  8
0
  0
POLYLINE
  8
PLAN_1
 62
     5
  6
CONTINUOUS
 66
     1
 40
0.003000
 41
0.003000
  0
VERTEX
  8
PLAN_1
 62
     5
  6
CONTINUOUS
 10
-1.301831
 20
1.872728
  0
VERTEX
  8
PLAN_1
 62
     5
  6
CONTINUOUS
 10
-1.293398
 20
1.872728
  0
SEQEND
  8
0
  0
POLYLINE
  8
PLAN_1
 62
     5
  6
CONTINUOUS
 66
     1
 40
0.003000
 41
0.003000
  0
VERTEX
  8
PLAN_1
 62
     5
  6
CONTINUOUS
 10
-1.284961
 20
1.872728
  0
VERTEX
  8
PLAN_1
 62
     5
  6
CONTINUOUS
 10
-1.276949
 20
1.872728
  0
SEQEND
  8
0
  0
POLYLINE
  8
PLAN_1
 62
     5
  6
CONTINUOUS
 66
     1
 40
0.003000
 41
0.003000
  0
VERTEX
  8
PLAN_1
 62
     5
  6
CONTINUOUS
 10
-1.268516
 20
1.872728
  0
VERTEX
  8
PLAN_1
 62
     5
  6
CONTINUOUS
 10
-1.260079
 20
1.872728
  0
SEQEND
  8
0
  0
POLYLINE
  8
PLAN_1
 62
     5
  6
CONTINUOUS
 66
     1
 40
0.003000
 41
0.003000
  0
VERTEX
  8
PLAN_1
 62
     5
  6
CONTINUOUS
 10
-1.251646
 20
1.872728
  0
VERTEX
  8
PLAN_1
 62
     5
  6
CONTINUOUS
 10
-1.243630
 20
1.872728
  0
SEQEND
  8
0
  0
POLYLINE
  8
PLAN_1
 62
     5
  6
CONTINUOUS
 66
     1
 40
0.003000
 41
0.003000
  0
VERTEX
  8
PLAN_1
 62
     5
  6
CONTINUOUS
 10
-1.235197
 20
1.872728
  0
VERTEX
  8
PLAN_1
 62
     5
  6
CONTINUOUS
 10
-1.226760
 20
1.872728
  0
SEQEND
  8
0
  0
POLYLINE
  8
PLAN_1
 62
     5
  6
CONTINUOUS
 66
     1
 40
0.003000
 41
0.003000
  0
VERTEX
  8
PLAN_1
 62
     5
  6
CONTINUOUS
 10
-1.218327
 20
1.872728
  0
VERTEX
  8
PLAN_1
 62
     5
  6
CONTINUOUS
 10
-1.210311
 20
1.872728
  0
SEQEND
  8
0
  0
POLYLINE
  8
PLAN_1
 62
     5
  6
CONTINUOUS
 66
     1
 40
0.003000
 41
0.003000
  0
VERTEX
  8
PLAN_1
 62
     5
  6
CONTINUOUS
 10
-1.201878
 20
1.872728
  0
VERTEX
  8
PLAN_1
 62
     5
  6
CONTINUOUS
 10
-1.193441
 20
1.872728
  0
SEQEND
  8
0
  0
POLYLINE
  8
PLAN_1
 62
     5
  6
CONTINUOUS
 66
     1
 40
0.003000
 41
0.003000
  0
VERTEX
  8
PLAN_1
 62
     5
  6
CONTINUOUS
 10
-1.185008
 20
1.872728
  0
VERTEX
  8
PLAN_1
 62
     5
  6
CONTINUOUS
 10
-1.176996
 20
1.872728
  0
SEQEND
  8
0
  0
POLYLINE
  8
PLAN_1
 62
     5
  6
CONTINUOUS
 66
     1
 40
0.003000
 41
0.003000
  0
VERTEX
  8
PLAN_1
 62
     5
  6
CONTINUOUS
 10
-1.168559
 20
1.872728
  0
VERTEX
  8
PLAN_1
 62
     5
  6
CONTINUOUS
 10
-1.160126
 20
1.872728
  0
SEQEND
  8
0
  0
POLYLINE
  8
PLAN_1
 62
     5
  6
CONTINUOUS
 66
     1
 40
0.003000
 41
0.003000
  0
VERTEX
  8
PLAN_1
 62
     5
  6
CONTINUOUS
 10
-1.151689
 20
1.872728
  0
VERTEX
  8
PLAN_1
 62
     5
  6
CONTINUOUS
 10
-1.143677
 20
1.872728
  0
SEQEND
  8
0
  0
POLYLINE
  8
PLAN_1
 62
     5
  6
CONTINUOUS
 66
     1
 40
0.003000
 41
0.003000
  0
VERTEX
  8
PLAN_1
 62
     5
  6
CONTINUOUS
 10
-1.135240
 20
1.872728
  0
VERTEX
  8
PLAN_1
 62
     5
  6
CONTINUOUS
 10
-1.126807
 20
1.872728
  0
SEQEND
  8
0
  0
POLYLINE
  8
PLAN_1
 62
     5
  6
CONTINUOUS
 66
     1
 40
0.003000
 41
0.003000
  0
VERTEX
  8
PLAN_1
 62
     5
  6
CONTINUOUS
 10
-1.118370
 20
1.872728
  0
VERTEX
  8
PLAN_1
 62
     5
  6
CONTINUOUS
 10
-1.110358
 20
1.872728
  0
SEQEND
  8
0
  0
POLYLINE
  8
PLAN_1
 62
     5
  6
CONTINUOUS
 66
     1
 40
0.003000
 41
0.003000
  0
VERTEX
  8
PLAN_1
 62
     5
  6
CONTINUOUS
 10
-1.101921
 20
1.872728
  0
VERTEX
  8
PLAN_1
 62
     5
  6
CONTINUOUS
 10
-1.093488
 20
1.872728
  0
SEQEND
  8
0
  0
POLYLINE
  8
PLAN_1
 62
     5
  6
CONTINUOUS
 66
     1
 40
0.003000
 41
0.003000
  0
VERTEX
  8
PLAN_1
 62
     5
  6
CONTINUOUS
 10
-1.085051
 20
1.872728
  0
VERTEX
  8
PLAN_1
 62
     5
  6
CONTINUOUS
 10
-1.077039
 20
1.872728
  0
SEQEND
  8
0
  0
POLYLINE
  8
PLAN_1
 62
     5
  6
CONTINUOUS
 66
     1
 40
0.003000
 41
0.003000
  0
VERTEX
  8
PLAN_1
 62
     5
  6
CONTINUOUS
 10
-1.068606
 20
1.872728
  0
VERTEX
  8
PLAN_1
 62
     5
  6
CONTINUOUS
 10
-1.060169
 20
1.872728
  0
SEQEND
  8
0
  0
POLYLINE
  8
PLAN_1
 62
     5
  6
CONTINUOUS
 66
     1
 40
0.003000
 41
0.003000
  0
VERTEX
  8
PLAN_1
 62
     5
  6
CONTINUOUS
 10
-1.052157
 20
1.872728
  0
VERTEX
  8
PLAN_1
 62
     5
  6
CONTINUOUS
 10
-1.043720
 20
1.872728
  0
SEQEND
  8
0
  0
POLYLINE
  8
PLAN_1
 62
     5
  6
CONTINUOUS
 66
     1
 40
0.003000
 41
0.003000
  0
VERTEX
  8
PLAN_1
 62
     5
  6
CONTINUOUS
 10
-1.035287
 20
1.872728
  0
VERTEX
  8
PLAN_1
 62
     5
  6
CONTINUOUS
 10
-1.026850
 20
1.872728
  0
SEQEND
  8
0
  0
POLYLINE
  8
PLAN_1
 62
     5
  6
CONTINUOUS
 66
     1
 40
0.003000
 41
0.003000
  0
VERTEX
  8
PLAN_1
 62
     5
  6
CONTINUOUS
 10
-1.018839
 20
1.872728
  0
VERTEX
  8
PLAN_1
 62
     5
  6
CONTINUOUS
 10
-1.010402
 20
1.872728
  0
SEQEND
  8
0
  0
POLYLINE
  8
PLAN_1
 62
     5
  6
CONTINUOUS
 66
     1
 40
0.003000
 41
0.003000
  0
VERTEX
  8
PLAN_1
 62
     5
  6
CONTINUOUS
 10
-1.001969
 20
1.872728
  0
VERTEX
  8
PLAN_1
 62
     5
  6
CONTINUOUS
 10
-0.993531
 20
1.872728
  0
SEQEND
  8
0
  0
POLYLINE
  8
PLAN_1
 62
     5
  6
CONTINUOUS
 66
     1
 40
0.003000
 41
0.003000
  0
VERTEX
  8
PLAN_1
 62
     5
  6
CONTINUOUS
 10
-0.985520
 20
1.872728
  0
VERTEX
  8
PLAN_1
 62
     5
  6
CONTINUOUS
 10
-0.977087
 20
1.872728
  0
SEQEND
  8
0
  0
POLYLINE
  8
PLAN_1
 62
     5
  6
CONTINUOUS
 66
     1
 40
0.003000
 41
0.003000
  0
VERTEX
  8
PLAN_1
 62
     5
  6
CONTINUOUS
 10
-0.968650
 20
1.872728
  0
VERTEX
  8
PLAN_1
 62
     5
  6
CONTINUOUS
 10
-0.960217
 20
1.872728
  0
SEQEND
  8
0
  0
POLYLINE
  8
PLAN_1
 62
     5
  6
CONTINUOUS
 66
     1
 40
0.003000
 41
0.003000
  0
VERTEX
  8
PLAN_1
 62
     5
  6
CONTINUOUS
 10
-0.952201
 20
1.872728
  0
VERTEX
  8
PLAN_1
 62
     5
  6
CONTINUOUS
 10
-0.943768
 20
1.872728
  0
SEQEND
  8
0
  0
POLYLINE
  8
PLAN_1
 62
     5
  6
CONTINUOUS
 66
     1
 40
0.003000
 41
0.003000
  0
VERTEX
  8
PLAN_1
 62
     5
  6
CONTINUOUS
 10
-0.935331
 20
1.872728
  0
VERTEX
  8
PLAN_1
 62
     5
  6
CONTINUOUS
 10
-0.926898
 20
1.872728
  0
SEQEND
  8
0
  0
POLYLINE
  8
PLAN_1
 62
     5
  6
CONTINUOUS
 66
     1
 40
0.003000
 41
0.003000
  0
VERTEX
  8
PLAN_1
 62
     5
  6
CONTINUOUS
 10
-0.918882
 20
1.872728
  0
VERTEX
  8
PLAN_1
 62
     5
  6
CONTINUOUS
 10
-0.910449
 20
1.872728
  0
SEQEND
  8
0
  0
POLYLINE
  8
PLAN_1
 62
     5
  6
CONTINUOUS
 66
     1
 40
0.003000
 41
0.003000
  0
VERTEX
  8
PLAN_1
 62
     5
  6
CONTINUOUS
 10
-0.902012
 20
1.872728
  0
VERTEX
  8
PLAN_1
 62
     5
  6
CONTINUOUS
 10
-0.893579
 20
1.872728
  0
SEQEND
  8
0
  0
POLYLINE
  8
PLAN_1
 62
     5
  6
CONTINUOUS
 66
     1
 40
0.003000
 41
0.003000
  0
VERTEX
  8
PLAN_1
 62
     5
  6
CONTINUOUS
 10
-0.885567
 20
1.872728
  0
VERTEX
  8
PLAN_1
 62
     5
  6
CONTINUOUS
 10
-0.877130
 20
1.872728
  0
SEQEND
  8
0
  0
POLYLINE
  8
PLAN_1
 62
     5
  6
CONTINUOUS
 66
     1
 40
0.003000
 41
0.003000
  0
VERTEX
  8
PLAN_1
 62
     5
  6
CONTINUOUS
 10
-0.868697
 20
1.872728
  0
VERTEX
  8
PLAN_1
 62
     5
  6
CONTINUOUS
 10
-0.860260
 20
1.872728
  0
SEQEND
  8
0
  0
POLYLINE
  8
PLAN_1
 62
     5
  6
CONTINUOUS
 66
     1
 40
0.003000
 41
0.003000
  0
VERTEX
  8
PLAN_1
 62
     5
  6
CONTINUOUS
 10
-0.852248
 20
1.872728
  0
VERTEX
  8
PLAN_1
 62
     5
  6
CONTINUOUS
 10
-0.843811
 20
1.872728
  0
SEQEND
  8
0
  0
POLYLINE
  8
PLAN_1
 62
     5
  6
CONTINUOUS
 66
     1
 40
0.003000
 41
0.003000
  0
VERTEX
  8
PLAN_1
 62
     5
  6
CONTINUOUS
 10
-0.835378
 20
1.872728
  0
VERTEX
  8
PLAN_1
 62
     5
  6
CONTINUOUS
 10
-0.826941
 20
1.872728
  0
SEQEND
  8
0
  0
POLYLINE
  8
PLAN_1
 62
     5
  6
CONTINUOUS
 66
     1
 40
0.003000
 41
0.003000
  0
VERTEX
  8
PLAN_1
 62
     5
  6
CONTINUOUS
 10
-0.818929
 20
1.872728
  0
VERTEX
  8
PLAN_1
 62
     5
  6
CONTINUOUS
 10
-0.810492
 20
1.872728
  0
SEQEND
  8
0
  0
POLYLINE
  8
PLAN_1
 62
     5
  6
CONTINUOUS
 66
     1
 40
0.003000
 41
0.003000
  0
VERTEX
  8
PLAN_1
 62
     5
  6
CONTINUOUS
 10
-0.802059
 20
1.872728
  0
VERTEX
  8
PLAN_1
 62
     5
  6
CONTINUOUS
 10
-0.793622
 20
1.872728
  0
SEQEND
  8
0
  0
POLYLINE
  8
PLAN_1
 62
     5
  6
CONTINUOUS
 66
     1
 40
0.003000
 41
0.003000
  0
VERTEX
  8
PLAN_1
 62
     5
  6
CONTINUOUS
 10
-0.785610
 20
1.872728
  0
VERTEX
  8
PLAN_1
 62
     5
  6
CONTINUOUS
 10
-0.777177
 20
1.872728
  0
SEQEND
  8
0
  0
POLYLINE
  8
PLAN_1
 62
     5
  6
CONTINUOUS
 66
     1
 40
0.003000
 41
0.003000
  0
VERTEX
  8
PLAN_1
 62
     5
  6
CONTINUOUS
 10
-0.768740
 20
1.872728
  0
VERTEX
  8
PLAN_1
 62
     5
  6
CONTINUOUS
 10
-0.760728
 20
1.872728
  0
SEQEND
  8
0
  0
POLYLINE
  8
PLAN_1
 62
     5
  6
CONTINUOUS
 66
     1
 40
0.003000
 41
0.003000
  0
VERTEX
  8
PLAN_1
 62
     5
  6
CONTINUOUS
 10
-0.752291
 20
1.872728
  0
VERTEX
  8
PLAN_1
 62
     5
  6
CONTINUOUS
 10
-0.743858
 20
1.872728
  0
SEQEND
  8
0
  0
POLYLINE
  8
PLAN_1
 62
     5
  6
CONTINUOUS
 66
     1
 40
0.003000
 41
0.003000
  0
VERTEX
  8
PLAN_1
 62
     5
  6
CONTINUOUS
 10
-0.735421
 20
1.872728
  0
VERTEX
  8
PLAN_1
 62
     5
  6
CONTINUOUS
 10
-0.727409
 20
1.872728
  0
SEQEND
  8
0
  0
POLYLINE
  8
PLAN_1
 62
     5
  6
CONTINUOUS
 66
     1
 40
0.003000
 41
0.003000
  0
VERTEX
  8
PLAN_1
 62
     5
  6
CONTINUOUS
 10
-0.718972
 20
1.872728
  0
VERTEX
  8
PLAN_1
 62
     5
  6
CONTINUOUS
 10
-0.710539
 20
1.872728
  0
SEQEND
  8
0
  0
POLYLINE
  8
PLAN_1
 62
     5
  6
CONTINUOUS
 66
     1
 40
0.003000
 41
0.003000
  0
VERTEX
  8
PLAN_1
 62
     5
  6
CONTINUOUS
 10
-0.702102
 20
1.872728
  0
VERTEX
  8
PLAN_1
 62
     5
  6
CONTINUOUS
 10
-0.694091
 20
1.872728
  0
SEQEND
  8
0
  0
POLYLINE
  8
PLAN_1
 62
     5
  6
CONTINUOUS
 66
     1
 40
0.003000
 41
0.003000
  0
VERTEX
  8
PLAN_1
 62
     5
  6
CONTINUOUS
 10
-0.685657
 20
1.872728
  0
VERTEX
  8
PLAN_1
 62
     5
  6
CONTINUOUS
 10
-0.677220
 20
1.872728
  0
SEQEND
  8
0
  0
POLYLINE
  8
PLAN_1
 62
     5
  6
CONTINUOUS
 66
     1
 40
0.003000
 41
0.003000
  0
VERTEX
  8
PLAN_1
 62
     5
  6
CONTINUOUS
 10
-0.668787
 20
1.872728
  0
VERTEX
  8
PLAN_1
 62
     5
  6
CONTINUOUS
 10
-0.660772
 20
1.872728
  0
SEQEND
  8
0
  0
POLYLINE
  8
PLAN_1
 62
     5
  6
CONTINUOUS
 66
     1
 40
0.003000
 41
0.003000
  0
VERTEX
  8
PLAN_1
 62
     5
  6
CONTINUOUS
 10
-0.652339
 20
1.872728
  0
VERTEX
  8
PLAN_1
 62
     5
  6
CONTINUOUS
 10
-0.643902
 20
1.872728
  0
SEQEND
  8
0
  0
POLYLINE
  8
PLAN_1
 62
     5
  6
CONTINUOUS
 66
     1
 40
0.003000
 41
0.003000
  0
VERTEX
  8
PLAN_1
 62
     5
  6
CONTINUOUS
 10
-0.635469
 20
1.872728
  0
VERTEX
  8
PLAN_1
 62
     5
  6
CONTINUOUS
 10
-0.627453
 20
1.872728
  0
SEQEND
  8
0
  0
POLYLINE
  8
PLAN_1
 62
     5
  6
CONTINUOUS
 66
     1
 40
0.003000
 41
0.003000
  0
VERTEX
  8
PLAN_1
 62
     5
  6
CONTINUOUS
 10
-0.619020
 20
1.872728
  0
VERTEX
  8
PLAN_1
 62
     5
  6
CONTINUOUS
 10
-0.610583
 20
1.872728
  0
SEQEND
  8
0
  0
POLYLINE
  8
PLAN_1
 62
     5
  6
CONTINUOUS
 66
     1
 40
0.003000
 41
0.003000
  0
VERTEX
  8
PLAN_1
 62
     5
  6
CONTINUOUS
 10
-0.602150
 20
1.872728
  0
VERTEX
  8
PLAN_1
 62
     5
  6
CONTINUOUS
 10
-0.594138
 20
1.872728
  0
SEQEND
  8
0
  0
POLYLINE
  8
PLAN_1
 62
     5
  6
CONTINUOUS
 66
     1
 40
0.003000
 41
0.003000
  0
VERTEX
  8
PLAN_1
 62
     5
  6
CONTINUOUS
 10
-0.585701
 20
1.872728
  0
VERTEX
  8
PLAN_1
 62
     5
  6
CONTINUOUS
 10
-0.577268
 20
1.872728
  0
SEQEND
  8
0
  0
POLYLINE
  8
PLAN_1
 62
     5
  6
CONTINUOUS
 66
     1
 40
0.003000
 41
0.003000
  0
VERTEX
  8
PLAN_1
 62
     5
  6
CONTINUOUS
 10
-0.568831
 20
1.872728
  0
VERTEX
  8
PLAN_1
 62
     5
  6
CONTINUOUS
 10
-0.560819
 20
1.872728
  0
SEQEND
  8
0
  0
POLYLINE
  8
PLAN_1
 62
     5
  6
CONTINUOUS
 66
     1
 40
0.003000
 41
0.003000
  0
VERTEX
  8
PLAN_1
 62
     5
  6
CONTINUOUS
 10
-0.552382
 20
1.872728
  0
VERTEX
  8
PLAN_1
 62
     5
  6
CONTINUOUS
 10
-0.543949
 20
1.872728
  0
SEQEND
  8
0
  0
POLYLINE
  8
PLAN_1
 62
     5
  6
CONTINUOUS
 66
     1
 40
0.003000
 41
0.003000
  0
VERTEX
  8
PLAN_1
 62
     5
  6
CONTINUOUS
 10
-0.535512
 20
1.872728
  0
VERTEX
  8
PLAN_1
 62
     5
  6
CONTINUOUS
 10
-0.527500
 20
1.872728
  0
SEQEND
  8
0
  0
POLYLINE
  8
PLAN_1
 62
     5
  6
CONTINUOUS
 66
     1
 40
0.003000
 41
0.003000
  0
VERTEX
  8
PLAN_1
 62
     5
  6
CONTINUOUS
 10
-0.519063
 20
1.872728
  0
VERTEX
  8
PLAN_1
 62
     5
  6
CONTINUOUS
 10
-0.510630
 20
1.872728
  0
SEQEND
  8
0
  0
POLYLINE
  8
PLAN_1
 62
     5
  6
CONTINUOUS
 66
     1
 40
0.003000
 41
0.003000
  0
VERTEX
  8
PLAN_1
 62
     5
  6
CONTINUOUS
 10
-0.502197
 20
1.872728
  0
VERTEX
  8
PLAN_1
 62
     5
  6
CONTINUOUS
 10
-0.494181
 20
1.872728
  0
SEQEND
  8
0
  0
POLYLINE
  8
PLAN_1
 62
     5
  6
CONTINUOUS
 66
     1
 40
0.003000
 41
0.003000
  0
VERTEX
  8
PLAN_1
 62
     5
  6
CONTINUOUS
 10
-0.490386
 20
1.868091
  0
VERTEX
  8
PLAN_1
 62
     5
  6
CONTINUOUS
 10
-0.490386
 20
1.859654
  0
SEQEND
  8
0
  0
POLYLINE
  8
PLAN_1
 62
     5
  6
CONTINUOUS
 66
     1
 40
0.003000
 41
0.003000
  0
VERTEX
  8
PLAN_1
 62
     5
  6
CONTINUOUS
 10
-0.490386
 20
1.851220
  0
VERTEX
  8
PLAN_1
 62
     5
  6
CONTINUOUS
 10
-0.490386
 20
1.842783
  0
SEQEND
  8
0
  0
POLYLINE
  8
PLAN_1
 62
     5
  6
CONTINUOUS
 66
     1
 40
0.003000
 41
0.003000
  0
VERTEX
  8
PLAN_1
 62
     5
  6
CONTINUOUS
 10
-0.490386
 20
1.834772
  0
VERTEX
  8
PLAN_1
 62
     5
  6
CONTINUOUS
 10
-0.490386
 20
1.826335
  0
SEQEND
  8
0
  0
POLYLINE
  8
PLAN_1
 62
     5
  6
CONTINUOUS
 66
     1
 40
0.003000
 41
0.003000
  0
VERTEX
  8
PLAN_1
 62
     5
  6
CONTINUOUS
 10
-0.490386
 20
1.817902
  0
VERTEX
  8
PLAN_1
 62
     5
  6
CONTINUOUS
 10
-0.490386
 20
1.809465
  0
SEQEND
  8
0
  0
POLYLINE
  8
PLAN_1
 62
     5
  6
CONTINUOUS
 66
     1
 40
0.003000
 41
0.003000
  0
VERTEX
  8
PLAN_1
 62
     5
  6
CONTINUOUS
 10
-0.490386
 20
1.801453
  0
VERTEX
  8
PLAN_1
 62
     5
  6
CONTINUOUS
 10
-0.490386
 20
1.793016
  0
SEQEND
  8
0
  0
POLYLINE
  8
PLAN_1
 62
     5
  6
CONTINUOUS
 66
     1
 40
0.003000
 41
0.003000
  0
VERTEX
  8
PLAN_1
 62
     5
  6
CONTINUOUS
 10
-0.490386
 20
1.784583
  0
VERTEX
  8
PLAN_1
 62
     5
  6
CONTINUOUS
 10
-0.490386
 20
1.776146
  0
SEQEND
  8
0
  0
POLYLINE
  8
PLAN_1
 62
     5
  6
CONTINUOUS
 66
     1
 40
0.003000
 41
0.003000
  0
VERTEX
  8
PLAN_1
 62
     5
  6
CONTINUOUS
 10
-0.490386
 20
1.768134
  0
VERTEX
  8
PLAN_1
 62
     5
  6
CONTINUOUS
 10
-0.490386
 20
1.759701
  0
SEQEND
  8
0
  0
POLYLINE
  8
PLAN_1
 62
     5
  6
CONTINUOUS
 66
     1
 40
0.003000
 41
0.003000
  0
VERTEX
  8
PLAN_1
 62
     5
  6
CONTINUOUS
 10
-0.490386
 20
1.751264
  0
VERTEX
  8
PLAN_1
 62
     5
  6
CONTINUOUS
 10
-0.490386
 20
1.742831
  0
SEQEND
  8
0
  0
POLYLINE
  8
PLAN_1
 62
     5
  6
CONTINUOUS
 66
     1
 40
0.003000
 41
0.003000
  0
VERTEX
  8
PLAN_1
 62
     5
  6
CONTINUOUS
 10
-0.490386
 20
1.734815
  0
VERTEX
  8
PLAN_1
 62
     5
  6
CONTINUOUS
 10
-0.490386
 20
1.731862
  0
VERTEX
  8
PLAN_1
 62
     5
  6
CONTINUOUS
 10
-0.484902
 20
1.731862
  0
SEQEND
  8
0
  0
POLYLINE
  8
PLAN_1
 62
     5
  6
CONTINUOUS
 66
     1
 40
0.003000
 41
0.003000
  0
VERTEX
  8
PLAN_1
 62
     5
  6
CONTINUOUS
 10
-0.476469
 20
1.731862
  0
VERTEX
  8
PLAN_1
 62
     5
  6
CONTINUOUS
 10
-0.468031
 20
1.731862
  0
SEQEND
  8
0
  0
POLYLINE
  8
PLAN_1
 62
     5
  6
CONTINUOUS
 66
     1
 40
0.003000
 41
0.003000
  0
VERTEX
  8
PLAN_1
 62
     5
  6
CONTINUOUS
 10
-0.460020
 20
1.731862
  0
VERTEX
  8
PLAN_1
 62
     5
  6
CONTINUOUS
 10
-0.451587
 20
1.731862
  0
SEQEND
  8
0
  0
POLYLINE
  8
PLAN_1
 62
     5
  6
CONTINUOUS
 66
     1
 40
0.003000
 41
0.003000
  0
VERTEX
  8
PLAN_1
 62
     5
  6
CONTINUOUS
 10
-0.451587
 20
1.723429
  0
VERTEX
  8
PLAN_1
 62
     5
  6
CONTINUOUS
 10
-0.451587
 20
1.714992
  0
SEQEND
  8
0
  0
POLYLINE
  8
PLAN_1
 62
     5
  6
CONTINUOUS
 66
     1
 40
0.003000
 41
0.003000
  0
VERTEX
  8
PLAN_1
 62
     5
  6
CONTINUOUS
 10
-0.451587
 20
1.706559
  0
VERTEX
  8
PLAN_1
 62
     5
  6
CONTINUOUS
 10
-0.451587
 20
1.698547
  0
SEQEND
  8
0
  0
POLYLINE
  8
PLAN_1
 62
     5
  6
CONTINUOUS
 66
     1
 40
0.003000
 41
0.003000
  0
VERTEX
  8
PLAN_1
 62
     5
  6
CONTINUOUS
 10
-0.451587
 20
1.690110
  0
VERTEX
  8
PLAN_1
 62
     5
  6
CONTINUOUS
 10
-0.451587
 20
1.681677
  0
SEQEND
  8
0
  0
POLYLINE
  8
PLAN_1
 62
     5
  6
CONTINUOUS
 66
     1
 40
0.003000
 41
0.003000
  0
VERTEX
  8
PLAN_1
 62
     5
  6
CONTINUOUS
 10
-0.451587
 20
1.673240
  0
VERTEX
  8
PLAN_1
 62
     5
  6
CONTINUOUS
 10
-0.451587
 20
1.665228
  0
SEQEND
  8
0
  0
POLYLINE
  8
PLAN_1
 62
     5
  6
CONTINUOUS
 66
     1
 40
0.003000
 41
0.003000
  0
VERTEX
  8
PLAN_1
 62
     5
  6
CONTINUOUS
 10
-0.451587
 20
1.656791
  0
VERTEX
  8
PLAN_1
 62
     5
  6
CONTINUOUS
 10
-0.451587
 20
1.648358
  0
SEQEND
  8
0
  0
POLYLINE
  8
PLAN_1
 62
     5
  6
CONTINUOUS
 66
     1
 40
0.003000
 41
0.003000
  0
VERTEX
  8
PLAN_1
 62
     5
  6
CONTINUOUS
 10
-0.451587
 20
1.640343
  0
VERTEX
  8
PLAN_1
 62
     5
  6
CONTINUOUS
 10
-0.451587
 20
1.631909
  0
SEQEND
  8
0
  0
POLYLINE
  8
PLAN_1
 62
     5
  6
CONTINUOUS
 66
     1
 40
0.003000
 41
0.003000
  0
VERTEX
  8
PLAN_1
 62
     5
  6
CONTINUOUS
 10
-0.451587
 20
1.623472
  0
VERTEX
  8
PLAN_1
 62
     5
  6
CONTINUOUS
 10
-0.451587
 20
1.615039
  0
SEQEND
  8
0
  0
POLYLINE
  8
PLAN_1
 62
     5
  6
CONTINUOUS
 66
     1
 40
0.003000
 41
0.003000
  0
VERTEX
  8
PLAN_1
 62
     5
  6
CONTINUOUS
 10
-0.451587
 20
1.607028
  0
VERTEX
  8
PLAN_1
 62
     5
  6
CONTINUOUS
 10
-0.451587
 20
1.598591
  0
SEQEND
  8
0
  0
POLYLINE
  8
PLAN_1
 62
     5
  6
CONTINUOUS
 66
     1
 40
0.003000
 41
0.003000
  0
VERTEX
  8
PLAN_1
 62
     5
  6
CONTINUOUS
 10
-0.451587
 20
1.590157
  0
VERTEX
  8
PLAN_1
 62
     5
  6
CONTINUOUS
 10
-0.451587
 20
1.581720
  0
SEQEND
  8
0
  0
POLYLINE
  8
PLAN_1
 62
     5
  6
CONTINUOUS
 66
     1
 40
0.003000
 41
0.003000
  0
VERTEX
  8
PLAN_1
 62
     5
  6
CONTINUOUS
 10
-0.451587
 20
1.573709
  0
VERTEX
  8
PLAN_1
 62
     5
  6
CONTINUOUS
 10
-0.451587
 20
1.565272
  0
SEQEND
  8
0
  0
POLYLINE
  8
PLAN_1
 62
     5
  6
CONTINUOUS
 66
     1
 40
0.003000
 41
0.003000
  0
VERTEX
  8
PLAN_1
 62
     5
  6
CONTINUOUS
 10
-0.451587
 20
1.556839
  0
VERTEX
  8
PLAN_1
 62
     5
  6
CONTINUOUS
 10
-0.451587
 20
1.548402
  0
SEQEND
  8
0
  0
POLYLINE
  8
PLAN_1
 62
     5
  6
CONTINUOUS
 66
     1
 40
0.003000
 41
0.003000
  0
VERTEX
  8
PLAN_1
 62
     5
  6
CONTINUOUS
 10
-0.451587
 20
1.540390
  0
VERTEX
  8
PLAN_1
 62
     5
  6
CONTINUOUS
 10
-0.451587
 20
1.531953
  0
SEQEND
  8
0
  0
POLYLINE
  8
PLAN_1
 62
     5
  6
CONTINUOUS
 66
     1
 40
0.003000
 41
0.003000
  0
VERTEX
  8
PLAN_1
 62
     5
  6
CONTINUOUS
 10
-0.451587
 20
1.523520
  0
VERTEX
  8
PLAN_1
 62
     5
  6
CONTINUOUS
 10
-0.451587
 20
1.515087
  0
SEQEND
  8
0
  0
POLYLINE
  8
PLAN_1
 62
     5
  6
CONTINUOUS
 66
     1
 40
0.003000
 41
0.003000
  0
VERTEX
  8
PLAN_1
 62
     5
  6
CONTINUOUS
 10
-0.451587
 20
1.507071
  0
VERTEX
  8
PLAN_1
 62
     5
  6
CONTINUOUS
 10
-0.451587
 20
1.498638
  0
SEQEND
  8
0
  0
POLYLINE
  8
PLAN_1
 62
     5
  6
CONTINUOUS
 66
     1
 40
0.003000
 41
0.003000
  0
VERTEX
  8
PLAN_1
 62
     5
  6
CONTINUOUS
 10
-0.451587
 20
1.490201
  0
VERTEX
  8
PLAN_1
 62
     5
  6
CONTINUOUS
 10
-0.451587
 20
1.481768
  0
SEQEND
  8
0
  0
POLYLINE
  8
PLAN_1
 62
     5
  6
CONTINUOUS
 66
     1
 40
0.003000
 41
0.003000
  0
VERTEX
  8
PLAN_1
 62
     5
  6
CONTINUOUS
 10
-0.451587
 20
1.473752
  0
VERTEX
  8
PLAN_1
 62
     5
  6
CONTINUOUS
 10
-0.451587
 20
1.465319
  0
SEQEND
  8
0
  0
POLYLINE
  8
PLAN_1
 62
     5
  6
CONTINUOUS
 66
     1
 40
0.003000
 41
0.003000
  0
VERTEX
  8
PLAN_1
 62
     5
  6
CONTINUOUS
 10
-0.451587
 20
1.456882
  0
VERTEX
  8
PLAN_1
 62
     5
  6
CONTINUOUS
 10
-0.451587
 20
1.450555
  0
VERTEX
  8
PLAN_1
 62
     5
  6
CONTINUOUS
 10
-0.453693
 20
1.450555
  0
SEQEND
  8
0
  0
POLYLINE
  8
PLAN_1
 62
     5
  6
CONTINUOUS
 66
     1
 40
0.003000
 41
0.003000
  0
VERTEX
  8
PLAN_1
 62
     5
  6
CONTINUOUS
 10
-0.461709
 20
1.450555
  0
VERTEX
  8
PLAN_1
 62
     5
  6
CONTINUOUS
 10
-0.470142
 20
1.450555
  0
SEQEND
  8
0
  0
POLYLINE
  8
PLAN_1
 62
     5
  6
CONTINUOUS
 66
     1
 40
0.003000
 41
0.003000
  0
VERTEX
  8
PLAN_1
 62
     5
  6
CONTINUOUS
 10
-0.478579
 20
1.450555
  0
VERTEX
  8
PLAN_1
 62
     5
  6
CONTINUOUS
 10
-0.487012
 20
1.450555
  0
SEQEND
  8
0
  0
POLYLINE
  8
PLAN_1
 62
     5
  6
CONTINUOUS
 66
     1
 40
0.003000
 41
0.003000
  0
VERTEX
  8
PLAN_1
 62
     5
  6
CONTINUOUS
 10
-0.490386
 20
1.445496
  0
VERTEX
  8
PLAN_1
 62
     5
  6
CONTINUOUS
 10
-0.490386
 20
1.437484
  0
SEQEND
  8
0
  0
POLYLINE
  8
PLAN_1
 62
     5
  6
CONTINUOUS
 66
     1
 40
0.003000
 41
0.003000
  0
VERTEX
  8
PLAN_1
 62
     5
  6
CONTINUOUS
 10
-0.490386
 20
1.429047
  0
VERTEX
  8
PLAN_1
 62
     5
  6
CONTINUOUS
 10
-0.490386
 20
1.420614
  0
SEQEND
  8
0
  0
POLYLINE
  8
PLAN_1
 62
     5
  6
CONTINUOUS
 66
     1
 40
0.003000
 41
0.003000
  0
VERTEX
  8
PLAN_1
 62
     5
  6
CONTINUOUS
 10
-0.490386
 20
1.412177
  0
VERTEX
  8
PLAN_1
 62
     5
  6
CONTINUOUS
 10
-0.490386
 20
1.404165
  0
SEQEND
  8
0
  0
POLYLINE
  8
PLAN_1
 62
     5
  6
CONTINUOUS
 66
     1
 40
0.003000
 41
0.003000
  0
VERTEX
  8
PLAN_1
 62
     5
  6
CONTINUOUS
 10
-0.490386
 20
1.395728
  0
VERTEX
  8
PLAN_1
 62
     5
  6
CONTINUOUS
 10
-0.490386
 20
1.387295
  0
SEQEND
  8
0
  0
POLYLINE
  8
PLAN_1
 62
     5
  6
CONTINUOUS
 66
     1
 40
0.003000
 41
0.003000
  0
VERTEX
  8
PLAN_1
 62
     5
  6
CONTINUOUS
 10
-0.490386
 20
1.378858
  0
VERTEX
  8
PLAN_1
 62
     5
  6
CONTINUOUS
 10
-0.490386
 20
1.370846
  0
SEQEND
  8
0
  0
POLYLINE
  8
PLAN_1
 62
     5
  6
CONTINUOUS
 66
     1
 40
0.003000
 41
0.003000
  0
VERTEX
  8
PLAN_1
 62
     5
  6
CONTINUOUS
 10
-0.490386
 20
1.362409
  0
VERTEX
  8
PLAN_1
 62
     5
  6
CONTINUOUS
 10
-0.490386
 20
1.353976
  0
SEQEND
  8
0
  0
POLYLINE
  8
PLAN_1
 62
     5
  6
CONTINUOUS
 66
     1
 40
0.003000
 41
0.003000
  0
VERTEX
  8
PLAN_1
 62
     5
  6
CONTINUOUS
 10
-0.490386
 20
1.345965
  0
VERTEX
  8
PLAN_1
 62
     5
  6
CONTINUOUS
 10
-0.490386
 20
1.337528
  0
SEQEND
  8
0
  0
POLYLINE
  8
PLAN_1
 62
     5
  6
CONTINUOUS
 66
     1
 40
0.003000
 41
0.003000
  0
VERTEX
  8
PLAN_1
 62
     5
  6
CONTINUOUS
 10
-0.490386
 20
1.329094
  0
VERTEX
  8
PLAN_1
 62
     5
  6
CONTINUOUS
 10
-0.490386
 20
1.320657
  0
SEQEND
  8
0
  0
POLYLINE
  8
PLAN_1
 62
     5
  6
CONTINUOUS
 66
     1
 40
0.003000
 41
0.003000
  0
VERTEX
  8
PLAN_1
 62
     5
  6
CONTINUOUS
 10
-0.490386
 20
1.312646
  0
VERTEX
  8
PLAN_1
 62
     5
  6
CONTINUOUS
 10
-0.490386
 20
1.304209
  0
SEQEND
  8
0
  0
POLYLINE
  8
PLAN_1
 62
     5
  6
CONTINUOUS
 66
     1
 40
0.003000
 41
0.003000
  0
VERTEX
  8
PLAN_1
 62
     5
  6
CONTINUOUS
 10
-0.490386
 20
1.295776
  0
VERTEX
  8
PLAN_1
 62
     5
  6
CONTINUOUS
 10
-0.490386
 20
1.287339
  0
SEQEND
  8
0
  0
POLYLINE
  8
PLAN_1
 62
     5
  6
CONTINUOUS
 66
     1
 40
0.003000
 41
0.003000
  0
VERTEX
  8
PLAN_1
 62
     5
  6
CONTINUOUS
 10
-0.490386
 20
1.279327
  0
VERTEX
  8
PLAN_1
 62
     5
  6
CONTINUOUS
 10
-0.490386
 20
1.270890
  0
SEQEND
  8
0
  0
POLYLINE
  8
PLAN_1
 62
     5
  6
CONTINUOUS
 66
     1
 40
0.003000
 41
0.003000
  0
VERTEX
  8
PLAN_1
 62
     5
  6
CONTINUOUS
 10
-0.490386
 20
1.262457
  0
VERTEX
  8
PLAN_1
 62
     5
  6
CONTINUOUS
 10
-0.490386
 20
1.254024
  0
SEQEND
  8
0
  0
POLYLINE
  8
PLAN_1
 62
     5
  6
CONTINUOUS
 66
     1
 40
0.003000
 41
0.003000
  0
VERTEX
  8
PLAN_1
 62
     5
  6
CONTINUOUS
 10
-0.490386
 20
1.246008
  0
VERTEX
  8
PLAN_1
 62
     5
  6
CONTINUOUS
 10
-0.490386
 20
1.237575
  0
SEQEND
  8
0
  0
POLYLINE
  8
PLAN_1
 62
     5
  6
CONTINUOUS
 66
     1
 40
0.003000
 41
0.003000
  0
VERTEX
  8
PLAN_1
 62
     5
  6
CONTINUOUS
 10
-0.490386
 20
1.229138
  0
VERTEX
  8
PLAN_1
 62
     5
  6
CONTINUOUS
 10
-0.490386
 20
1.220705
  0
SEQEND
  8
0
  0
POLYLINE
  8
PLAN_1
 62
     5
  6
CONTINUOUS
 66
     1
 40
0.003000
 41
0.003000
  0
VERTEX
  8
PLAN_1
 62
     5
  6
CONTINUOUS
 10
-0.490386
 20
1.212689
  0
VERTEX
  8
PLAN_1
 62
     5
  6
CONTINUOUS
 10
-0.490386
 20
1.204256
  0
SEQEND
  8
0
  0
POLYLINE
  8
PLAN_1
 62
     5
  6
CONTINUOUS
 66
     1
 40
0.003000
 41
0.003000
  0
VERTEX
  8
PLAN_1
 62
     5
  6
CONTINUOUS
 10
-0.490386
 20
1.195819
  0
VERTEX
  8
PLAN_1
 62
     5
  6
CONTINUOUS
 10
-0.490386
 20
1.187386
  0
SEQEND
  8
0
  0
POLYLINE
  8
PLAN_1
  6
CONTINUOUS
 66
     1
 40
0.008433
 41
0.008433
  0
VERTEX
  8
PLAN_1
  6
CONTINUOUS
 10
-1.438480
 20
1.873992
  0
VERTEX
  8
PLAN_1
  6
CONTINUOUS
 10
-1.438480
 20
2.044803
  0
VERTEX
  8
PLAN_1
  6
CONTINUOUS
 10
-1.782626
 20
2.044803
  0
SEQEND
  8
0
  0
POLYLINE
  8
PLAN_1
  6
CONTINUOUS
 66
     1
 40
0.008433
 41
0.008433
  0
VERTEX
  8
PLAN_1
  6
CONTINUOUS
 10
-0.488276
 20
2.044803
  0
VERTEX
  8
PLAN_1
  6
CONTINUOUS
 10
-0.813866
 20
2.044803
  0
VERTEX
  8
PLAN_1
  6
CONTINUOUS
 10
-0.813866
 20
1.873992
  0
SEQEND
  8
0
  0
POLYLINE
  8
PLAN_1
  6
CONTINUOUS
 66
     1
 40
0.008433
 41
0.008433
  0
VERTEX
  8
PLAN_1
  6
CONTINUOUS
 10
-1.541807
 20
1.876102
  0
VERTEX
  8
PLAN_1
  6
CONTINUOUS
 10
-1.541807
 20
2.044803
  0
SEQEND
  8
0
  0
POLYLINE
  8
PLAN_1
  6
CONTINUOUS
 66
     1
 40
0.008433
 41
0.008433
  0
VERTEX
  8
PLAN_1
  6
CONTINUOUS
 10
-0.726146
 20
1.876102
  0
VERTEX
  8
PLAN_1
  6
CONTINUOUS
 10
-0.726146
 20
2.044803
  0
SEQEND
  8
0
  0
POLYLINE
  8
PLAN_1
  6
CONTINUOUS
 66
     1
 40
0.008433
 41
0.008433
  0
VERTEX
  8
PLAN_1
  6
CONTINUOUS
 10
-0.764945
 20
2.653807
  0
VERTEX
  8
PLAN_1
  6
CONTINUOUS
 10
-0.764945
 20
2.671524
  0
VERTEX
  8
PLAN_1
  6
CONTINUOUS
 10
-1.454083
 20
2.671524
  0
VERTEX
  8
PLAN_1
  6
CONTINUOUS
 10
-1.454083
 20
2.653807
  0
VERTEX
  8
PLAN_1
  6
CONTINUOUS
 10
-0.764945
 20
2.653807
  0
SEQEND
  8
0
  0
POLYLINE
  8
PLAN_1
  6
CONTINUOUS
 66
     1
 40
0.008433
 41
0.008433
  0
VERTEX
  8
PLAN_1
  6
CONTINUOUS
 10
-0.916354
 20
3.044346
  0
VERTEX
  8
PLAN_1
  6
CONTINUOUS
 10
-0.937020
 20
3.059531
  0
VERTEX
  8
PLAN_1
  6
CONTINUOUS
 10
-0.957264
 20
3.073028
  0
VERTEX
  8
PLAN_1
  6
CONTINUOUS
 10
-0.977508
 20
3.084413
  0
VERTEX
  8
PLAN_1
  6
CONTINUOUS
 10
-0.996906
 20
3.094535
  0
VERTEX
  8
PLAN_1
  6
CONTINUOUS
 10
-1.016307
 20
3.102551
  0
VERTEX
  8
PLAN_1
  6
CONTINUOUS
 10
-1.034866
 20
3.109299
  0
VERTEX
  8
PLAN_1
  6
CONTINUOUS
 10
-1.053421
 20
3.114358
  0
VERTEX
  8
PLAN_1
  6
CONTINUOUS
 10
-1.071134
 20
3.118154
  0
VERTEX
  8
PLAN_1
  6
CONTINUOUS
 10
-1.088425
 20
3.120685
  0
VERTEX
  8
PLAN_1
  6
CONTINUOUS
 10
-1.105295
 20
3.121949
  0
VERTEX
  8
PLAN_1
  6
CONTINUOUS
 10
-1.121323
 20
3.121949
  0
VERTEX
  8
PLAN_1
  6
CONTINUOUS
 10
-1.136929
 20
3.121106
  0
VERTEX
  8
PLAN_1
  6
CONTINUOUS
 10
-1.152110
 20
3.119421
  0
VERTEX
  8
PLAN_1
  6
CONTINUOUS
 10
-1.166874
 20
3.116890
  0
VERTEX
  8
PLAN_1
  6
CONTINUOUS
 10
-1.180370
 20
3.113516
  0
VERTEX
  8
PLAN_1
  6
CONTINUOUS
 10
-1.193862
 20
3.109720
  0
VERTEX
  8
PLAN_1
  6
CONTINUOUS
 10
-1.206516
 20
3.105504
  0
VERTEX
  8
PLAN_1
  6
CONTINUOUS
 10
-1.218327
 20
3.100862
  0
VERTEX
  8
PLAN_1
  6
CONTINUOUS
 10
-1.229713
 20
3.095803
  0
VERTEX
  8
PLAN_1
  6
CONTINUOUS
 10
-1.240256
 20
3.090319
  0
VERTEX
  8
PLAN_1
  6
CONTINUOUS
 10
-1.249957
 20
3.084835
  0
VERTEX
  8
PLAN_1
  6
CONTINUOUS
 10
-1.259236
 20
3.079354
  0
VERTEX
  8
PLAN_1
  6
CONTINUOUS
 10
-1.267248
 20
3.073870
  0
VERTEX
  8
PLAN_1
  6
CONTINUOUS
 10
-1.274839
 20
3.068811
  0
VERTEX
  8
PLAN_1
  6
CONTINUOUS
 10
-1.287492
 20
3.059110
  0
VERTEX
  8
PLAN_1
  6
CONTINUOUS
 10
-1.296772
 20
3.051520
  0
VERTEX
  8
PLAN_1
  6
CONTINUOUS
 10
-1.302252
 20
3.046035
  0
VERTEX
  8
PLAN_1
  6
CONTINUOUS
 10
-1.303941
 20
3.044346
  0
SEQEND
  8
0
  0
POLYLINE
  8
PLAN_1
  6
CONTINUOUS
 66
     1
 40
0.008433
 41
0.008433
  0
VERTEX
  8
PLAN_1
  6
CONTINUOUS
 10
-1.303941
 20
3.044346
  0
VERTEX
  8
PLAN_1
  6
CONTINUOUS
 10
-1.303941
 20
2.676583
  0
VERTEX
  8
PLAN_1
  6
CONTINUOUS
 10
-0.916776
 20
2.676583
  0
VERTEX
  8
PLAN_1
  6
CONTINUOUS
 10
-0.916354
 20
3.044346
  0
SEQEND
  8
0
  0
POLYLINE
  8
PLAN_1
  6
CONTINUOUS
 66
     1
 40
0.008433
 41
0.008433
  0
VERTEX
  8
PLAN_1
  6
CONTINUOUS
 10
-0.916776
 20
3.043083
  0
VERTEX
  8
PLAN_1
  6
CONTINUOUS
 10
-1.303941
 20
3.043083
  0
SEQEND
  8
0
  0
POLYLINE
  8
PLAN_1
 62
     2
  6
CONTINUOUS
 66
     1
 40
0.004217
 41
0.004217
  0
VERTEX
  8
PLAN_1
 62
     2
  6
CONTINUOUS
 10
-1.094752
 20
3.278421
  0
VERTEX
  8
PLAN_1
 62
     2
  6
CONTINUOUS
 10
-0.484902
 20
3.278421
  0
SEQEND
  8
0
  0
SOLID
  8
PLAN_1
 62
     2
 10
-0.455382
 20
3.278421
 11
-0.514425
 21
3.294024
 12
-0.455382
 22
3.278421
 13
-0.514425
 23
3.262394
  0
POLYLINE
  8
PLAN_1
 62
     2
  6
CONTINUOUS
 66
     1
 40
0.003000
 41
0.003000
  0
VERTEX
  8
PLAN_1
 62
     2
  6
CONTINUOUS
 10
-0.455382
 20
3.278421
  0
VERTEX
  8
PLAN_1
 62
     2
  6
CONTINUOUS
 10
-0.514425
 20
3.294024
  0
VERTEX
  8
PLAN_1
 62
     2
  6
CONTINUOUS
 10
-0.514425
 20
3.262394
  0
VERTEX
  8
PLAN_1
 62
     2
  6
CONTINUOUS
 10
-0.455382
 20
3.278421
  0
SEQEND
  8
0
  0
SOLID
  8
PLAN_1
 62
     2
 10
-1.124276
 20
3.278421
 11
-1.065232
 21
3.294024
 12
-1.124276
 22
3.278421
 13
-1.065232
 23
3.262394
  0
POLYLINE
  8
PLAN_1
 62
     2
  6
CONTINUOUS
 66
     1
 40
0.003000
 41
0.003000
  0
VERTEX
  8
PLAN_1
 62
     2
  6
CONTINUOUS
 10
-1.124276
 20
3.278421
  0
VERTEX
  8
PLAN_1
 62
     2
  6
CONTINUOUS
 10
-1.065232
 20
3.294024
  0
VERTEX
  8
PLAN_1
 62
     2
  6
CONTINUOUS
 10
-1.065232
 20
3.262394
  0
VERTEX
  8
PLAN_1
 62
     2
  6
CONTINUOUS
 10
-1.124276
 20
3.278421
  0
SEQEND
  8
0
  0
POLYLINE
  8
PLAN_1
 62
     2
  6
CONTINUOUS
 66
     1
 40
0.003000
 41
0.003000
  0
VERTEX
  8
PLAN_1
 62
     2
  6
CONTINUOUS
 10
-0.810492
 20
3.302035
  0
VERTEX
  8
PLAN_1
 62
     2
  6
CONTINUOUS
 10
-0.820193
 20
3.302035
  0
VERTEX
  8
PLAN_1
 62
     2
  6
CONTINUOUS
 10
-0.820193
 20
3.353913
  0
VERTEX
  8
PLAN_1
 62
     2
  6
CONTINUOUS
 10
-0.837484
 20
3.353913
  0
VERTEX
  8
PLAN_1
 62
     2
  6
CONTINUOUS
 10
-0.837484
 20
3.361083
  0
VERTEX
  8
PLAN_1
 62
     2
  6
CONTINUOUS
 10
-0.833268
 20
3.361504
  0
VERTEX
  8
PLAN_1
 62
     2
  6
CONTINUOUS
 10
-0.829894
 20
3.361925
  0
VERTEX
  8
PLAN_1
 62
     2
  6
CONTINUOUS
 10
-0.826520
 20
3.362768
  0
VERTEX
  8
PLAN_1
 62
     2
  6
CONTINUOUS
 10
-0.823988
 20
3.364035
  0
VERTEX
  8
PLAN_1
 62
     2
  6
CONTINUOUS
 10
-0.821882
 20
3.365720
  0
VERTEX
  8
PLAN_1
 62
     2
  6
CONTINUOUS
 10
-0.820193
 20
3.367831
  0
VERTEX
  8
PLAN_1
 62
     2
  6
CONTINUOUS
 10
-0.818929
 20
3.371205
  0
VERTEX
  8
PLAN_1
 62
     2
  6
CONTINUOUS
 10
-0.817665
 20
3.375000
  0
VERTEX
  8
PLAN_1
 62
     2
  6
CONTINUOUS
 10
-0.810492
 20
3.375000
  0
VERTEX
  8
PLAN_1
 62
     2
  6
CONTINUOUS
 10
-0.810492
 20
3.302035
  0
SEQEND
  8
0
  0
POLYLINE
  8
PLAN_1
 62
     2
  6
CONTINUOUS
 66
     1
 40
0.003000
 41
0.003000
  0
VERTEX
  8
PLAN_1
 62
     2
  6
CONTINUOUS
 10
-0.786031
 20
3.373315
  0
VERTEX
  8
PLAN_1
 62
     2
  6
CONTINUOUS
 10
-0.735421
 20
3.373315
  0
VERTEX
  8
PLAN_1
 62
     2
  6
CONTINUOUS
 10
-0.735421
 20
3.365299
  0
VERTEX
  8
PLAN_1
 62
     2
  6
CONTINUOUS
 10
-0.738795
 20
3.361925
  0
VERTEX
  8
PLAN_1
 62
     2
  6
CONTINUOUS
 10
-0.742591
 20
3.356866
  0
VERTEX
  8
PLAN_1
 62
     2
  6
CONTINUOUS
 10
-0.746811
 20
3.350539
  0
VERTEX
  8
PLAN_1
 62
     2
  6
CONTINUOUS
 10
-0.751449
 20
3.342949
  0
VERTEX
  8
PLAN_1
 62
     2
  6
CONTINUOUS
 10
-0.755665
 20
3.334512
  0
VERTEX
  8
PLAN_1
 62
     2
  6
CONTINUOUS
 10
-0.759886
 20
3.324390
  0
VERTEX
  8
PLAN_1
 62
     2
  6
CONTINUOUS
 10
-0.761571
 20
3.319331
  0
VERTEX
  8
PLAN_1
 62
     2
  6
CONTINUOUS
 10
-0.763256
 20
3.313846
  0
VERTEX
  8
PLAN_1
 62
     2
  6
CONTINUOUS
 10
-0.764524
 20
3.307941
  0
VERTEX
  8
PLAN_1
 62
     2
  6
CONTINUOUS
 10
-0.765787
 20
3.302035
  0
VERTEX
  8
PLAN_1
 62
     2
  6
CONTINUOUS
 10
-0.775909
 20
3.302035
  0
VERTEX
  8
PLAN_1
 62
     2
  6
CONTINUOUS
 10
-0.774224
 20
3.309630
  0
VERTEX
  8
PLAN_1
 62
     2
  6
CONTINUOUS
 10
-0.772114
 20
3.317642
  0
VERTEX
  8
PLAN_1
 62
     2
  6
CONTINUOUS
 10
-0.768740
 20
3.326079
  0
VERTEX
  8
PLAN_1
 62
     2
  6
CONTINUOUS
 10
-0.764945
 20
3.334512
  0
VERTEX
  8
PLAN_1
 62
     2
  6
CONTINUOUS
 10
-0.760728
 20
3.342949
  0
VERTEX
  8
PLAN_1
 62
     2
  6
CONTINUOUS
 10
-0.756087
 20
3.350539
  0
VERTEX
  8
PLAN_1
 62
     2
  6
CONTINUOUS
 10
-0.751028
 20
3.358130
  0
VERTEX
  8
PLAN_1
 62
     2
  6
CONTINUOUS
 10
-0.745965
 20
3.364457
  0
VERTEX
  8
PLAN_1
 62
     2
  6
CONTINUOUS
 10
-0.786031
 20
3.364457
  0
VERTEX
  8
PLAN_1
 62
     2
  6
CONTINUOUS
 10
-0.786031
 20
3.373315
  0
SEQEND
  8
0
  0
POLYLINE
  8
PLAN_1
 62
     2
  6
CONTINUOUS
 66
     1
 40
0.004217
 41
0.004217
  0
VERTEX
  8
PLAN_1
 62
     2
  6
CONTINUOUS
 10
-1.124276
 20
3.302035
  0
VERTEX
  8
PLAN_1
 62
     2
  6
CONTINUOUS
 10
-1.124276
 20
3.138819
  0
SEQEND
  8
0
  0
POLYLINE
  8
PLAN_1
 62
     2
  6
CONTINUOUS
 66
     1
 40
0.004217
 41
0.004217
  0
VERTEX
  8
PLAN_1
 62
     2
  6
CONTINUOUS
 10
-0.455382
 20
1.755480
  0
VERTEX
  8
PLAN_1
 62
     2
  6
CONTINUOUS
 10
-0.455382
 20
3.300772
  0
SEQEND
  8
0
  0
ENDSEC
  0
EOF
