  0
SECTION
  2
HEADER
  9
$ACADVER
  1
AC1006
  9
$EXTMIN
 10
-1.962232
 20
-3.630598
  9
$EXTMAX
 10
1.955000
 20
3.630000
  9
$LTSCALE
 40
0.000394
  9
$PDMODE
 70
    35
  9
$PDSIZE
 40
0.000315
  0
ENDSEC
  0
SECTION
  2
TABLES
  0
TABLE
  2
LTYPE
 70
     9
  0
LTYPE
  2
CONTINUOUS
 70
    64
  3
Solid line
 72
    65
 73
     0
 40
0.000000
  0
LTYPE
  2
DASHED
 70
    64
  3
__ __ __ __ __ __ __ __ __ __ __ __ __ __ __
 72
    65
 73
     2
 40
0.000003
 49
0.000002
 49
-0.000001
  0
LTYPE
  2
HIDDEN
 70
    64
  3
 _ _ _ _ _ _ _ _ _ _ _ _ _ _ _ _ _ _ _ _ _ _
 72
    65
 73
     2
 40
0.000001
 49
0.000001
 49
-0.000000
  0
LTYPE
  2
CENTER
 70
    64
  3
____ _ ____ _ ____ _ ____ _ ____ _ ____ _ ____
 72
    65
 73
     4
 40
0.000008
 49
0.000005
 49
-0.000001
 49
0.000001
 49
-0.000001
  0
LTYPE
  2
PHANTOM
 70
    64
  3
_____ _ _ _____ _ _ _____ _ _ _____ _ _ ____
 72
    65
 73
     6
 40
0.000010
 49
0.000005
 49
-0.000001
 49
0.000001
 49
-0.000001
 49
0.000001
 49
-0.000001
  0
LTYPE
  2
DOT
 70
    64
  3
...............................................
 72
    65
 73
     2
 40
0.000001
 49
0.000000
 49
-0.000001
  0
LTYPE
  2
DASHDOT
 70
    64
  3
__ . __ . __ . __ . __ . __ . __ . __ . __ . __
 72
    65
 73
     4
 40
0.000004
 49
0.000002
 49
-0.000001
 49
0.000000
 49
-0.000001
  0
LTYPE
  2
BORDER
 70
    64
  3
__ __ . __ __ . __ __ . __ __ . __ __ . __ __
 72
    65
 73
     6
 40
0.000007
 49
0.000002
 49
-0.000001
 49
0.000002
 49
-0.000001
 49
0.000000
 49
-0.000001
  0
LTYPE
  2
DIVIDE
 70
    64
  3
__ . . __ . . __ . . __ . . __ . . __ . . __
 72
    65
 73
     6
 40
0.000005
 49
0.000002
 49
-0.000001
 49
0.000000
 49
-0.000001
 49
0.000000
 49
-0.000001
  0
LTYPE
  2
DOTDOT
 70
    64
  3
 . .  . .  . .  . .  . .  . . 
 72
    65
 73
     5
 40
0.000002
 49
-0.000001
 49
0.000000
 49
-0.000001
 49
0.000000
 49
-0.000001
  0
ENDTAB
  0
TABLE
  2
STYLE
 70
     0
  0
ENDTAB
  0
TABLE
  2
LAYER
 70
     3
  0
LAYER
  2
FOREGROUND
 70
    64
 62
     7
  6
CONTINUOUS
  0
LAYER
  2
BACKGROUND
 70
    65
 62
    -7
  6
CONTINUOUS
  0
LAYER
  2
PLAN_1
 70
    64
 62
     7
  6
CONTINUOUS
  0
ENDTAB
  0
ENDSEC
  0
SECTION
  2
ENTITIES
  0
POLYLINE
  8
PLAN_1
  6
CONTINUOUS
 66
     1
 40
0.003000
 41
0.003000
  0
VERTEX
  8
PLAN_1
  6
CONTINUOUS
 10
0.094472
 20
-3.596110
  0
VERTEX
  8
PLAN_1
  6
CONTINUOUS
 10
-0.062539
 20
-3.596110
  0
VERTEX
  8
PLAN_1
  6
CONTINUOUS
 10
-0.062539
 20
-3.573421
  0
VERTEX
  8
PLAN_1
  6
CONTINUOUS
 10
0.059531
 20
-3.420492
  0
VERTEX
  8
PLAN_1
  6
CONTINUOUS
 10
-0.053465
 20
-3.420492
  0
VERTEX
  8
PLAN_1
  6
CONTINUOUS
 10
-0.053465
 20
-3.396445
  0
VERTEX
  8
PLAN_1
  6
CONTINUOUS
 10
0.094472
 20
-3.396445
  0
VERTEX
  8
PLAN_1
  6
CONTINUOUS
 10
0.094472
 20
-3.420039
  0
VERTEX
  8
PLAN_1
  6
CONTINUOUS
 10
-0.028504
 20
-3.572059
  0
VERTEX
  8
PLAN_1
  6
CONTINUOUS
 10
0.094472
 20
-3.572059
  0
VERTEX
  8
PLAN_1
  6
CONTINUOUS
 10
0.094472
 20
-3.596110
  0
SEQEND
  8
0
  0
POLYLINE
  8
PLAN_1
  6
CONTINUOUS
 66
     1
 40
0.003000
 41
0.003000
  0
VERTEX
  8
PLAN_1
  6
CONTINUOUS
 10
0.261921
 20
-3.456343
  0
VERTEX
  8
PLAN_1
  6
CONTINUOUS
 10
0.260102
 20
-3.450445
  0
VERTEX
  8
PLAN_1
  6
CONTINUOUS
 10
0.257835
 20
-3.444543
  0
VERTEX
  8
PLAN_1
  6
CONTINUOUS
 10
0.255567
 20
-3.439555
  0
VERTEX
  8
PLAN_1
  6
CONTINUOUS
 10
0.252390
 20
-3.435469
  0
VERTEX
  8
PLAN_1
  6
CONTINUOUS
 10
0.249213
 20
-3.431386
  0
VERTEX
  8
PLAN_1
  6
CONTINUOUS
 10
0.246035
 20
-3.428209
  0
VERTEX
  8
PLAN_1
  6
CONTINUOUS
 10
0.241953
 20
-3.425031
  0
VERTEX
  8
PLAN_1
  6
CONTINUOUS
 10
0.238323
 20
-3.422764
  0
VERTEX
  8
PLAN_1
  6
CONTINUOUS
 10
0.234240
 20
-3.420949
  0
VERTEX
  8
PLAN_1
  6
CONTINUOUS
 10
0.230154
 20
-3.419134
  0
VERTEX
  8
PLAN_1
  6
CONTINUOUS
 10
0.226071
 20
-3.417772
  0
VERTEX
  8
PLAN_1
  6
CONTINUOUS
 10
0.221531
 20
-3.416862
  0
VERTEX
  8
PLAN_1
  6
CONTINUOUS
 10
0.213362
 20
-3.415504
  0
VERTEX
  8
PLAN_1
  6
CONTINUOUS
 10
0.206102
 20
-3.415047
  0
VERTEX
  8
PLAN_1
  6
CONTINUOUS
 10
0.199295
 20
-3.415504
  0
VERTEX
  8
PLAN_1
  6
CONTINUOUS
 10
0.192945
 20
-3.416409
  0
VERTEX
  8
PLAN_1
  6
CONTINUOUS
 10
0.186591
 20
-3.418224
  0
VERTEX
  8
PLAN_1
  6
CONTINUOUS
 10
0.180693
 20
-3.420039
  0
VERTEX
  8
PLAN_1
  6
CONTINUOUS
 10
0.174791
 20
-3.423217
  0
VERTEX
  8
PLAN_1
  6
CONTINUOUS
 10
0.169346
 20
-3.426394
  0
VERTEX
  8
PLAN_1
  6
CONTINUOUS
 10
0.164354
 20
-3.430476
  0
VERTEX
  8
PLAN_1
  6
CONTINUOUS
 10
0.159819
 20
-3.435016
  0
VERTEX
  8
PLAN_1
  6
CONTINUOUS
 10
0.155732
 20
-3.440461
  0
VERTEX
  8
PLAN_1
  6
CONTINUOUS
 10
0.151650
 20
-3.446358
  0
VERTEX
  8
PLAN_1
  6
CONTINUOUS
 10
0.148472
 20
-3.452713
  0
VERTEX
  8
PLAN_1
  6
CONTINUOUS
 10
0.145748
 20
-3.459972
  0
VERTEX
  8
PLAN_1
  6
CONTINUOUS
 10
0.143480
 20
-3.467689
  0
VERTEX
  8
PLAN_1
  6
CONTINUOUS
 10
0.142118
 20
-3.475854
  0
VERTEX
  8
PLAN_1
  6
CONTINUOUS
 10
0.141213
 20
-3.484933
  0
VERTEX
  8
PLAN_1
  6
CONTINUOUS
 10
0.140760
 20
-3.494461
  0
VERTEX
  8
PLAN_1
  6
CONTINUOUS
 10
0.140760
 20
-3.503083
  0
VERTEX
  8
PLAN_1
  6
CONTINUOUS
 10
0.141665
 20
-3.511252
  0
VERTEX
  8
PLAN_1
  6
CONTINUOUS
 10
0.142575
 20
-3.519421
  0
VERTEX
  8
PLAN_1
  6
CONTINUOUS
 10
0.143933
 20
-3.527134
  0
VERTEX
  8
PLAN_1
  6
CONTINUOUS
 10
0.146205
 20
-3.534394
  0
VERTEX
  8
PLAN_1
  6
CONTINUOUS
 10
0.148472
 20
-3.541201
  0
VERTEX
  8
PLAN_1
  6
CONTINUOUS
 10
0.151650
 20
-3.547555
  0
VERTEX
  8
PLAN_1
  6
CONTINUOUS
 10
0.155280
 20
-3.553453
  0
VERTEX
  8
PLAN_1
  6
CONTINUOUS
 10
0.159362
 20
-3.558898
  0
VERTEX
  8
PLAN_1
  6
CONTINUOUS
 10
0.164354
 20
-3.563437
  0
VERTEX
  8
PLAN_1
  6
CONTINUOUS
 10
0.166626
 20
-3.565705
  0
VERTEX
  8
PLAN_1
  6
CONTINUOUS
 10
0.169799
 20
-3.567520
  0
VERTEX
  8
PLAN_1
  6
CONTINUOUS
 10
0.172524
 20
-3.569335
  0
VERTEX
  8
PLAN_1
  6
CONTINUOUS
 10
0.175701
 20
-3.571150
  0
VERTEX
  8
PLAN_1
  6
CONTINUOUS
 10
0.178878
 20
-3.572512
  0
VERTEX
  8
PLAN_1
  6
CONTINUOUS
 10
0.182508
 20
-3.573874
  0
VERTEX
  8
PLAN_1
  6
CONTINUOUS
 10
0.186138
 20
-3.574783
  0
VERTEX
  8
PLAN_1
  6
CONTINUOUS
 10
0.189768
 20
-3.575689
  0
VERTEX
  8
PLAN_1
  6
CONTINUOUS
 10
0.197937
 20
-3.577051
  0
VERTEX
  8
PLAN_1
  6
CONTINUOUS
 10
0.207012
 20
-3.577504
  0
VERTEX
  8
PLAN_1
  6
CONTINUOUS
 10
0.210189
 20
-3.577051
  0
VERTEX
  8
PLAN_1
  6
CONTINUOUS
 10
0.213819
 20
-3.577051
  0
VERTEX
  8
PLAN_1
  6
CONTINUOUS
 10
0.217902
 20
-3.576142
  0
VERTEX
  8
PLAN_1
  6
CONTINUOUS
 10
0.221984
 20
-3.575236
  0
VERTEX
  8
PLAN_1
  6
CONTINUOUS
 10
0.226071
 20
-3.573874
  0
VERTEX
  8
PLAN_1
  6
CONTINUOUS
 10
0.230154
 20
-3.572059
  0
VERTEX
  8
PLAN_1
  6
CONTINUOUS
 10
0.234240
 20
-3.570244
  0
VERTEX
  8
PLAN_1
  6
CONTINUOUS
 10
0.238323
 20
-3.567520
  0
VERTEX
  8
PLAN_1
  6
CONTINUOUS
 10
0.242406
 20
-3.564346
  0
VERTEX
  8
PLAN_1
  6
CONTINUOUS
 10
0.246492
 20
-3.560260
  0
VERTEX
  8
PLAN_1
  6
CONTINUOUS
 10
0.250122
 20
-3.555724
  0
VERTEX
  8
PLAN_1
  6
CONTINUOUS
 10
0.253299
 20
-3.550732
  0
VERTEX
  8
PLAN_1
  6
CONTINUOUS
 10
0.256472
 20
-3.544831
  0
VERTEX
  8
PLAN_1
  6
CONTINUOUS
 10
0.259197
 20
-3.538480
  0
VERTEX
  8
PLAN_1
  6
CONTINUOUS
 10
0.261921
 20
-3.530764
  0
VERTEX
  8
PLAN_1
  6
CONTINUOUS
 10
0.263736
 20
-3.522594
  0
VERTEX
  8
PLAN_1
  6
CONTINUOUS
 10
0.289602
 20
-3.522594
  0
VERTEX
  8
PLAN_1
  6
CONTINUOUS
 10
0.288693
 20
-3.529402
  0
VERTEX
  8
PLAN_1
  6
CONTINUOUS
 10
0.287331
 20
-3.535756
  0
VERTEX
  8
PLAN_1
  6
CONTINUOUS
 10
0.285516
 20
-3.542110
  0
VERTEX
  8
PLAN_1
  6
CONTINUOUS
 10
0.283248
 20
-3.547555
  0
VERTEX
  8
PLAN_1
  6
CONTINUOUS
 10
0.281433
 20
-3.553000
  0
VERTEX
  8
PLAN_1
  6
CONTINUOUS
 10
0.278709
 20
-3.557992
  0
VERTEX
  8
PLAN_1
  6
CONTINUOUS
 10
0.276441
 20
-3.562531
  0
VERTEX
  8
PLAN_1
  6
CONTINUOUS
 10
0.273717
 20
-3.566614
  0
VERTEX
  8
PLAN_1
  6
CONTINUOUS
 10
0.270543
 20
-3.570697
  0
VERTEX
  8
PLAN_1
  6
CONTINUOUS
 10
0.267819
 20
-3.574327
  0
VERTEX
  8
PLAN_1
  6
CONTINUOUS
 10
0.264642
 20
-3.577504
  0
VERTEX
  8
PLAN_1
  6
CONTINUOUS
 10
0.261465
 20
-3.580681
  0
VERTEX
  8
PLAN_1
  6
CONTINUOUS
 10
0.257835
 20
-3.583406
  0
VERTEX
  8
PLAN_1
  6
CONTINUOUS
 10
0.254657
 20
-3.585673
  0
VERTEX
  8
PLAN_1
  6
CONTINUOUS
 10
0.251028
 20
-3.587941
  0
VERTEX
  8
PLAN_1
  6
CONTINUOUS
 10
0.247850
 20
-3.590209
  0
VERTEX
  8
PLAN_1
  6
CONTINUOUS
 10
0.240591
 20
-3.593386
  0
VERTEX
  8
PLAN_1
  6
CONTINUOUS
 10
0.233783
 20
-3.596110
  0
VERTEX
  8
PLAN_1
  6
CONTINUOUS
 10
0.227433
 20
-3.597925
  0
VERTEX
  8
PLAN_1
  6
CONTINUOUS
 10
0.221079
 20
-3.599287
  0
VERTEX
  8
PLAN_1
  6
CONTINUOUS
 10
0.210189
 20
-3.601102
  0
VERTEX
  8
PLAN_1
  6
CONTINUOUS
 10
0.202472
 20
-3.601102
  0
VERTEX
  8
PLAN_1
  6
CONTINUOUS
 10
0.194303
 20
-3.600650
  0
VERTEX
  8
PLAN_1
  6
CONTINUOUS
 10
0.185685
 20
-3.599740
  0
VERTEX
  8
PLAN_1
  6
CONTINUOUS
 10
0.177516
 20
-3.597925
  0
VERTEX
  8
PLAN_1
  6
CONTINUOUS
 10
0.169346
 20
-3.595201
  0
VERTEX
  8
PLAN_1
  6
CONTINUOUS
 10
0.161634
 20
-3.592028
  0
VERTEX
  8
PLAN_1
  6
CONTINUOUS
 10
0.154370
 20
-3.587941
  0
VERTEX
  8
PLAN_1
  6
CONTINUOUS
 10
0.150740
 20
-3.585220
  0
VERTEX
  8
PLAN_1
  6
CONTINUOUS
 10
0.147567
 20
-3.582949
  0
VERTEX
  8
PLAN_1
  6
CONTINUOUS
 10
0.143933
 20
-3.579772
  0
VERTEX
  8
PLAN_1
  6
CONTINUOUS
 10
0.140760
 20
-3.577051
  0
VERTEX
  8
PLAN_1
  6
CONTINUOUS
 10
0.137583
 20
-3.573421
  0
VERTEX
  8
PLAN_1
  6
CONTINUOUS
 10
0.134858
 20
-3.570244
  0
VERTEX
  8
PLAN_1
  6
CONTINUOUS
 10
0.132138
 20
-3.566161
  0
VERTEX
  8
PLAN_1
  6
CONTINUOUS
 10
0.129413
 20
-3.562531
  0
VERTEX
  8
PLAN_1
  6
CONTINUOUS
 10
0.127146
 20
-3.557992
  0
VERTEX
  8
PLAN_1
  6
CONTINUOUS
 10
0.124874
 20
-3.553909
  0
VERTEX
  8
PLAN_1
  6
CONTINUOUS
 10
0.122606
 20
-3.548917
  0
VERTEX
  8
PLAN_1
  6
CONTINUOUS
 10
0.120791
 20
-3.543925
  0
VERTEX
  8
PLAN_1
  6
CONTINUOUS
 10
0.118976
 20
-3.538933
  0
VERTEX
  8
PLAN_1
  6
CONTINUOUS
 10
0.117161
 20
-3.533488
  0
VERTEX
  8
PLAN_1
  6
CONTINUOUS
 10
0.116252
 20
-3.527587
  0
VERTEX
  8
PLAN_1
  6
CONTINUOUS
 10
0.114894
 20
-3.521689
  0
VERTEX
  8
PLAN_1
  6
CONTINUOUS
 10
0.113984
 20
-3.515335
  0
VERTEX
  8
PLAN_1
  6
CONTINUOUS
 10
0.113531
 20
-3.508984
  0
VERTEX
  8
PLAN_1
  6
CONTINUOUS
 10
0.113079
 20
-3.502177
  0
VERTEX
  8
PLAN_1
  6
CONTINUOUS
 10
0.113079
 20
-3.495370
  0
VERTEX
  8
PLAN_1
  6
CONTINUOUS
 10
0.113531
 20
-3.484024
  0
VERTEX
  8
PLAN_1
  6
CONTINUOUS
 10
0.114437
 20
-3.473134
  0
VERTEX
  8
PLAN_1
  6
CONTINUOUS
 10
0.116709
 20
-3.462697
  0
VERTEX
  8
PLAN_1
  6
CONTINUOUS
 10
0.119429
 20
-3.453165
  0
VERTEX
  8
PLAN_1
  6
CONTINUOUS
 10
0.120791
 20
-3.448630
  0
VERTEX
  8
PLAN_1
  6
CONTINUOUS
 10
0.123059
 20
-3.444091
  0
VERTEX
  8
PLAN_1
  6
CONTINUOUS
 10
0.124874
 20
-3.439555
  0
VERTEX
  8
PLAN_1
  6
CONTINUOUS
 10
0.127146
 20
-3.435469
  0
VERTEX
  8
PLAN_1
  6
CONTINUOUS
 10
0.129413
 20
-3.431386
  0
VERTEX
  8
PLAN_1
  6
CONTINUOUS
 10
0.132138
 20
-3.427299
  0
VERTEX
  8
PLAN_1
  6
CONTINUOUS
 10
0.134858
 20
-3.423669
  0
VERTEX
  8
PLAN_1
  6
CONTINUOUS
 10
0.137583
 20
-3.420039
  0
VERTEX
  8
PLAN_1
  6
CONTINUOUS
 10
0.140760
 20
-3.416862
  0
VERTEX
  8
PLAN_1
  6
CONTINUOUS
 10
0.143933
 20
-3.413689
  0
VERTEX
  8
PLAN_1
  6
CONTINUOUS
 10
0.147567
 20
-3.410965
  0
VERTEX
  8
PLAN_1
  6
CONTINUOUS
 10
0.151197
 20
-3.408240
  0
VERTEX
  8
PLAN_1
  6
CONTINUOUS
 10
0.154827
 20
-3.405520
  0
VERTEX
  8
PLAN_1
  6
CONTINUOUS
 10
0.158909
 20
-3.403252
  0
VERTEX
  8
PLAN_1
  6
CONTINUOUS
 10
0.162539
 20
-3.400980
  0
VERTEX
  8
PLAN_1
  6
CONTINUOUS
 10
0.167079
 20
-3.398713
  0
VERTEX
  8
PLAN_1
  6
CONTINUOUS
 10
0.171161
 20
-3.397350
  0
VERTEX
  8
PLAN_1
  6
CONTINUOUS
 10
0.175701
 20
-3.395535
  0
VERTEX
  8
PLAN_1
  6
CONTINUOUS
 10
0.180693
 20
-3.394173
  0
VERTEX
  8
PLAN_1
  6
CONTINUOUS
 10
0.185228
 20
-3.393268
  0
VERTEX
  8
PLAN_1
  6
CONTINUOUS
 10
0.190220
 20
-3.392358
  0
VERTEX
  8
PLAN_1
  6
CONTINUOUS
 10
0.195213
 20
-3.391906
  0
VERTEX
  8
PLAN_1
  6
CONTINUOUS
 10
0.200657
 20
-3.391453
  0
VERTEX
  8
PLAN_1
  6
CONTINUOUS
 10
0.206102
 20
-3.391453
  0
VERTEX
  8
PLAN_1
  6
CONTINUOUS
 10
0.215181
 20
-3.391906
  0
VERTEX
  8
PLAN_1
  6
CONTINUOUS
 10
0.224256
 20
-3.392815
  0
VERTEX
  8
PLAN_1
  6
CONTINUOUS
 10
0.232421
 20
-3.394630
  0
VERTEX
  8
PLAN_1
  6
CONTINUOUS
 10
0.239685
 20
-3.396898
  0
VERTEX
  8
PLAN_1
  6
CONTINUOUS
 10
0.246945
 20
-3.399618
  0
VERTEX
  8
PLAN_1
  6
CONTINUOUS
 10
0.253299
 20
-3.403252
  0
VERTEX
  8
PLAN_1
  6
CONTINUOUS
 10
0.259197
 20
-3.407335
  0
VERTEX
  8
PLAN_1
  6
CONTINUOUS
 10
0.264642
 20
-3.411417
  0
VERTEX
  8
PLAN_1
  6
CONTINUOUS
 10
0.269634
 20
-3.416409
  0
VERTEX
  8
PLAN_1
  6
CONTINUOUS
 10
0.273717
 20
-3.421402
  0
VERTEX
  8
PLAN_1
  6
CONTINUOUS
 10
0.277346
 20
-3.426846
  0
VERTEX
  8
PLAN_1
  6
CONTINUOUS
 10
0.280524
 20
-3.432291
  0
VERTEX
  8
PLAN_1
  6
CONTINUOUS
 10
0.283248
 20
-3.438193
  0
VERTEX
  8
PLAN_1
  6
CONTINUOUS
 10
0.285516
 20
-3.444091
  0
VERTEX
  8
PLAN_1
  6
CONTINUOUS
 10
0.286878
 20
-3.450445
  0
VERTEX
  8
PLAN_1
  6
CONTINUOUS
 10
0.287783
 20
-3.456343
  0
VERTEX
  8
PLAN_1
  6
CONTINUOUS
 10
0.261921
 20
-3.456343
  0
SEQEND
  8
0
  0
POLYLINE
  8
PLAN_1
  6
CONTINUOUS
 66
     1
 40
0.003000
 41
0.003000
  0
VERTEX
  8
PLAN_1
  6
CONTINUOUS
 10
0.349047
 20
-3.596110
  0
VERTEX
  8
PLAN_1
  6
CONTINUOUS
 10
0.322272
 20
-3.596110
  0
VERTEX
  8
PLAN_1
  6
CONTINUOUS
 10
0.322272
 20
-3.396445
  0
VERTEX
  8
PLAN_1
  6
CONTINUOUS
 10
0.349047
 20
-3.396445
  0
VERTEX
  8
PLAN_1
  6
CONTINUOUS
 10
0.349047
 20
-3.493098
  0
VERTEX
  8
PLAN_1
  6
CONTINUOUS
 10
0.445705
 20
-3.396445
  0
VERTEX
  8
PLAN_1
  6
CONTINUOUS
 10
0.482913
 20
-3.396445
  0
VERTEX
  8
PLAN_1
  6
CONTINUOUS
 10
0.399870
 20
-3.477217
  0
VERTEX
  8
PLAN_1
  6
CONTINUOUS
 10
0.485181
 20
-3.596110
  0
VERTEX
  8
PLAN_1
  6
CONTINUOUS
 10
0.450240
 20
-3.596110
  0
VERTEX
  8
PLAN_1
  6
CONTINUOUS
 10
0.380811
 20
-3.495823
  0
VERTEX
  8
PLAN_1
  6
CONTINUOUS
 10
0.349047
 20
-3.525772
  0
VERTEX
  8
PLAN_1
  6
CONTINUOUS
 10
0.349047
 20
-3.596110
  0
SEQEND
  8
0
  0
POLYLINE
  8
PLAN_1
  6
CONTINUOUS
 66
     1
 40
0.003000
 41
0.003000
  0
VERTEX
  8
PLAN_1
  6
CONTINUOUS
 10
0.657622
 20
-3.596110
  0
VERTEX
  8
PLAN_1
  6
CONTINUOUS
 10
0.510142
 20
-3.596110
  0
VERTEX
  8
PLAN_1
  6
CONTINUOUS
 10
0.510142
 20
-3.396445
  0
VERTEX
  8
PLAN_1
  6
CONTINUOUS
 10
0.655354
 20
-3.396445
  0
VERTEX
  8
PLAN_1
  6
CONTINUOUS
 10
0.655354
 20
-3.420492
  0
VERTEX
  8
PLAN_1
  6
CONTINUOUS
 10
0.537370
 20
-3.420492
  0
VERTEX
  8
PLAN_1
  6
CONTINUOUS
 10
0.537370
 20
-3.481756
  0
VERTEX
  8
PLAN_1
  6
CONTINUOUS
 10
0.646276
 20
-3.481756
  0
VERTEX
  8
PLAN_1
  6
CONTINUOUS
 10
0.646276
 20
-3.505350
  0
VERTEX
  8
PLAN_1
  6
CONTINUOUS
 10
0.537370
 20
-3.505350
  0
VERTEX
  8
PLAN_1
  6
CONTINUOUS
 10
0.537370
 20
-3.572059
  0
VERTEX
  8
PLAN_1
  6
CONTINUOUS
 10
0.657622
 20
-3.572059
  0
VERTEX
  8
PLAN_1
  6
CONTINUOUS
 10
0.657622
 20
-3.596110
  0
SEQEND
  8
0
  0
POLYLINE
  8
PLAN_1
  6
CONTINUOUS
 66
     1
 40
0.003000
 41
0.003000
  0
VERTEX
  8
PLAN_1
  6
CONTINUOUS
 10
0.683941
 20
-3.470866
  0
VERTEX
  8
PLAN_1
  6
CONTINUOUS
 10
0.683941
 20
-3.464965
  0
VERTEX
  8
PLAN_1
  6
CONTINUOUS
 10
0.684394
 20
-3.459520
  0
VERTEX
  8
PLAN_1
  6
CONTINUOUS
 10
0.684850
 20
-3.454528
  0
VERTEX
  8
PLAN_1
  6
CONTINUOUS
 10
0.685756
 20
-3.449535
  0
VERTEX
  8
PLAN_1
  6
CONTINUOUS
 10
0.687118
 20
-3.445000
  0
VERTEX
  8
PLAN_1
  6
CONTINUOUS
 10
0.688480
 20
-3.440461
  0
VERTEX
  8
PLAN_1
  6
CONTINUOUS
 10
0.689843
 20
-3.436831
  0
VERTEX
  8
PLAN_1
  6
CONTINUOUS
 10
0.691657
 20
-3.433201
  0
VERTEX
  8
PLAN_1
  6
CONTINUOUS
 10
0.693472
 20
-3.429571
  0
VERTEX
  8
PLAN_1
  6
CONTINUOUS
 10
0.695287
 20
-3.426394
  0
VERTEX
  8
PLAN_1
  6
CONTINUOUS
 10
0.697555
 20
-3.423217
  0
VERTEX
  8
PLAN_1
  6
CONTINUOUS
 10
0.699823
 20
-3.420492
  0
VERTEX
  8
PLAN_1
  6
CONTINUOUS
 10
0.704362
 20
-3.415957
  0
VERTEX
  8
PLAN_1
  6
CONTINUOUS
 10
0.709807
 20
-3.411874
  0
VERTEX
  8
PLAN_1
  6
CONTINUOUS
 10
0.715252
 20
-3.408697
  0
VERTEX
  8
PLAN_1
  6
CONTINUOUS
 10
0.720697
 20
-3.405972
  0
VERTEX
  8
PLAN_1
  6
CONTINUOUS
 10
0.726146
 20
-3.404157
  0
VERTEX
  8
PLAN_1
  6
CONTINUOUS
 10
0.732043
 20
-3.402795
  0
VERTEX
  8
PLAN_1
  6
CONTINUOUS
 10
0.737488
 20
-3.401890
  0
VERTEX
  8
PLAN_1
  6
CONTINUOUS
 10
0.742480
 20
-3.400980
  0
VERTEX
  8
PLAN_1
  6
CONTINUOUS
 10
0.747020
 20
-3.400980
  0
VERTEX
  8
PLAN_1
  6
CONTINUOUS
 10
0.751555
 20
-3.400980
  0
VERTEX
  8
PLAN_1
  6
CONTINUOUS
 10
0.757457
 20
-3.400980
  0
VERTEX
  8
PLAN_1
  6
CONTINUOUS
 10
0.763807
 20
-3.401890
  0
VERTEX
  8
PLAN_1
  6
CONTINUOUS
 10
0.769709
 20
-3.403252
  0
VERTEX
  8
PLAN_1
  6
CONTINUOUS
 10
0.775154
 20
-3.404610
  0
VERTEX
  8
PLAN_1
  6
CONTINUOUS
 10
0.780598
 20
-3.406882
  0
VERTEX
  8
PLAN_1
  6
CONTINUOUS
 10
0.785591
 20
-3.409602
  0
VERTEX
  8
PLAN_1
  6
CONTINUOUS
 10
0.790126
 20
-3.412780
  0
VERTEX
  8
PLAN_1
  6
CONTINUOUS
 10
0.794665
 20
-3.416409
  0
VERTEX
  8
PLAN_1
  6
CONTINUOUS
 10
0.798295
 20
-3.420039
  0
VERTEX
  8
PLAN_1
  6
CONTINUOUS
 10
0.801925
 20
-3.424579
  0
VERTEX
  8
PLAN_1
  6
CONTINUOUS
 10
0.805102
 20
-3.429571
  0
VERTEX
  8
PLAN_1
  6
CONTINUOUS
 10
0.807827
 20
-3.434563
  0
VERTEX
  8
PLAN_1
  6
CONTINUOUS
 10
0.809642
 20
-3.440008
  0
VERTEX
  8
PLAN_1
  6
CONTINUOUS
 10
0.811004
 20
-3.445906
  0
VERTEX
  8
PLAN_1
  6
CONTINUOUS
 10
0.811909
 20
-3.452260
  0
VERTEX
  8
PLAN_1
  6
CONTINUOUS
 10
0.812362
 20
-3.459067
  0
VERTEX
  8
PLAN_1
  6
CONTINUOUS
 10
0.812362
 20
-3.465417
  0
VERTEX
  8
PLAN_1
  6
CONTINUOUS
 10
0.811457
 20
-3.471319
  0
VERTEX
  8
PLAN_1
  6
CONTINUOUS
 10
0.810094
 20
-3.476764
  0
VERTEX
  8
PLAN_1
  6
CONTINUOUS
 10
0.808280
 20
-3.481756
  0
VERTEX
  8
PLAN_1
  6
CONTINUOUS
 10
0.806012
 20
-3.486748
  0
VERTEX
  8
PLAN_1
  6
CONTINUOUS
 10
0.803740
 20
-3.490831
  0
VERTEX
  8
PLAN_1
  6
CONTINUOUS
 10
0.800567
 20
-3.494913
  0
VERTEX
  8
PLAN_1
  6
CONTINUOUS
 10
0.797390
 20
-3.499000
  0
VERTEX
  8
PLAN_1
  6
CONTINUOUS
 10
0.793760
 20
-3.502630
  0
VERTEX
  8
PLAN_1
  6
CONTINUOUS
 10
0.789673
 20
-3.506260
  0
VERTEX
  8
PLAN_1
  6
CONTINUOUS
 10
0.785138
 20
-3.509437
  0
VERTEX
  8
PLAN_1
  6
CONTINUOUS
 10
0.780598
 20
-3.512614
  0
VERTEX
  8
PLAN_1
  6
CONTINUOUS
 10
0.771067
 20
-3.518512
  0
VERTEX
  8
PLAN_1
  6
CONTINUOUS
 10
0.760177
 20
-3.524409
  0
VERTEX
  8
PLAN_1
  6
CONTINUOUS
 10
0.740213
 20
-3.535303
  0
VERTEX
  8
PLAN_1
  6
CONTINUOUS
 10
0.735220
 20
-3.538024
  0
VERTEX
  8
PLAN_1
  6
CONTINUOUS
 10
0.731134
 20
-3.540748
  0
VERTEX
  8
PLAN_1
  6
CONTINUOUS
 10
0.727051
 20
-3.543469
  0
VERTEX
  8
PLAN_1
  6
CONTINUOUS
 10
0.723421
 20
-3.546193
  0
VERTEX
  8
PLAN_1
  6
CONTINUOUS
 10
0.717976
 20
-3.551638
  0
VERTEX
  8
PLAN_1
  6
CONTINUOUS
 10
0.713437
 20
-3.556630
  0
VERTEX
  8
PLAN_1
  6
CONTINUOUS
 10
0.710260
 20
-3.561622
  0
VERTEX
  8
PLAN_1
  6
CONTINUOUS
 10
0.708445
 20
-3.565705
  0
VERTEX
  8
PLAN_1
  6
CONTINUOUS
 10
0.707087
 20
-3.569791
  0
VERTEX
  8
PLAN_1
  6
CONTINUOUS
 10
0.706177
 20
-3.572969
  0
VERTEX
  8
PLAN_1
  6
CONTINUOUS
 10
0.812362
 20
-3.572969
  0
VERTEX
  8
PLAN_1
  6
CONTINUOUS
 10
0.812362
 20
-3.596110
  0
VERTEX
  8
PLAN_1
  6
CONTINUOUS
 10
0.678949
 20
-3.596110
  0
VERTEX
  8
PLAN_1
  6
CONTINUOUS
 10
0.679406
 20
-3.588394
  0
VERTEX
  8
PLAN_1
  6
CONTINUOUS
 10
0.680311
 20
-3.581591
  0
VERTEX
  8
PLAN_1
  6
CONTINUOUS
 10
0.681220
 20
-3.575236
  0
VERTEX
  8
PLAN_1
  6
CONTINUOUS
 10
0.683035
 20
-3.568882
  0
VERTEX
  8
PLAN_1
  6
CONTINUOUS
 10
0.684850
 20
-3.562984
  0
VERTEX
  8
PLAN_1
  6
CONTINUOUS
 10
0.687118
 20
-3.557539
  0
VERTEX
  8
PLAN_1
  6
CONTINUOUS
 10
0.689843
 20
-3.552547
  0
VERTEX
  8
PLAN_1
  6
CONTINUOUS
 10
0.692563
 20
-3.547555
  0
VERTEX
  8
PLAN_1
  6
CONTINUOUS
 10
0.695740
 20
-3.543016
  0
VERTEX
  8
PLAN_1
  6
CONTINUOUS
 10
0.698917
 20
-3.538933
  0
VERTEX
  8
PLAN_1
  6
CONTINUOUS
 10
0.703000
 20
-3.534850
  0
VERTEX
  8
PLAN_1
  6
CONTINUOUS
 10
0.706630
 20
-3.531217
  0
VERTEX
  8
PLAN_1
  6
CONTINUOUS
 10
0.710717
 20
-3.528043
  0
VERTEX
  8
PLAN_1
  6
CONTINUOUS
 10
0.715252
 20
-3.524409
  0
VERTEX
  8
PLAN_1
  6
CONTINUOUS
 10
0.719791
 20
-3.521236
  0
VERTEX
  8
PLAN_1
  6
CONTINUOUS
 10
0.724783
 20
-3.518512
  0
VERTEX
  8
PLAN_1
  6
CONTINUOUS
 10
0.750650
 20
-3.503535
  0
VERTEX
  8
PLAN_1
  6
CONTINUOUS
 10
0.757909
 20
-3.499000
  0
VERTEX
  8
PLAN_1
  6
CONTINUOUS
 10
0.764717
 20
-3.494913
  0
VERTEX
  8
PLAN_1
  6
CONTINUOUS
 10
0.771067
 20
-3.490378
  0
VERTEX
  8
PLAN_1
  6
CONTINUOUS
 10
0.776059
 20
-3.485839
  0
VERTEX
  8
PLAN_1
  6
CONTINUOUS
 10
0.778331
 20
-3.483118
  0
VERTEX
  8
PLAN_1
  6
CONTINUOUS
 10
0.780598
 20
-3.480394
  0
VERTEX
  8
PLAN_1
  6
CONTINUOUS
 10
0.782413
 20
-3.477217
  0
VERTEX
  8
PLAN_1
  6
CONTINUOUS
 10
0.783776
 20
-3.474039
  0
VERTEX
  8
PLAN_1
  6
CONTINUOUS
 10
0.784681
 20
-3.470409
  0
VERTEX
  8
PLAN_1
  6
CONTINUOUS
 10
0.785591
 20
-3.466780
  0
VERTEX
  8
PLAN_1
  6
CONTINUOUS
 10
0.786043
 20
-3.462697
  0
VERTEX
  8
PLAN_1
  6
CONTINUOUS
 10
0.786496
 20
-3.458157
  0
VERTEX
  8
PLAN_1
  6
CONTINUOUS
 10
0.786043
 20
-3.454980
  0
VERTEX
  8
PLAN_1
  6
CONTINUOUS
 10
0.786043
 20
-3.451807
  0
VERTEX
  8
PLAN_1
  6
CONTINUOUS
 10
0.785138
 20
-3.449083
  0
VERTEX
  8
PLAN_1
  6
CONTINUOUS
 10
0.784228
 20
-3.445906
  0
VERTEX
  8
PLAN_1
  6
CONTINUOUS
 10
0.783323
 20
-3.442728
  0
VERTEX
  8
PLAN_1
  6
CONTINUOUS
 10
0.781508
 20
-3.440008
  0
VERTEX
  8
PLAN_1
  6
CONTINUOUS
 10
0.779689
 20
-3.437283
  0
VERTEX
  8
PLAN_1
  6
CONTINUOUS
 10
0.777874
 20
-3.434563
  0
VERTEX
  8
PLAN_1
  6
CONTINUOUS
 10
0.775154
 20
-3.431839
  0
VERTEX
  8
PLAN_1
  6
CONTINUOUS
 10
0.772429
 20
-3.429571
  0
VERTEX
  8
PLAN_1
  6
CONTINUOUS
 10
0.769252
 20
-3.427756
  0
VERTEX
  8
PLAN_1
  6
CONTINUOUS
 10
0.765622
 20
-3.425941
  0
VERTEX
  8
PLAN_1
  6
CONTINUOUS
 10
0.761992
 20
-3.424579
  0
VERTEX
  8
PLAN_1
  6
CONTINUOUS
 10
0.757457
 20
-3.423669
  0
VERTEX
  8
PLAN_1
  6
CONTINUOUS
 10
0.752917
 20
-3.422764
  0
VERTEX
  8
PLAN_1
  6
CONTINUOUS
 10
0.747925
 20
-3.422764
  0
VERTEX
  8
PLAN_1
  6
CONTINUOUS
 10
0.741118
 20
-3.423217
  0
VERTEX
  8
PLAN_1
  6
CONTINUOUS
 10
0.735673
 20
-3.424126
  0
VERTEX
  8
PLAN_1
  6
CONTINUOUS
 10
0.730681
 20
-3.425941
  0
VERTEX
  8
PLAN_1
  6
CONTINUOUS
 10
0.726146
 20
-3.428209
  0
VERTEX
  8
PLAN_1
  6
CONTINUOUS
 10
0.722512
 20
-3.430933
  0
VERTEX
  8
PLAN_1
  6
CONTINUOUS
 10
0.719339
 20
-3.434106
  0
VERTEX
  8
PLAN_1
  6
CONTINUOUS
 10
0.716614
 20
-3.437736
  0
VERTEX
  8
PLAN_1
  6
CONTINUOUS
 10
0.714346
 20
-3.441823
  0
VERTEX
  8
PLAN_1
  6
CONTINUOUS
 10
0.712984
 20
-3.445453
  0
VERTEX
  8
PLAN_1
  6
CONTINUOUS
 10
0.711622
 20
-3.449535
  0
VERTEX
  8
PLAN_1
  6
CONTINUOUS
 10
0.710260
 20
-3.453622
  0
VERTEX
  8
PLAN_1
  6
CONTINUOUS
 10
0.709807
 20
-3.457705
  0
VERTEX
  8
PLAN_1
  6
CONTINUOUS
 10
0.708902
 20
-3.464965
  0
VERTEX
  8
PLAN_1
  6
CONTINUOUS
 10
0.708445
 20
-3.470866
  0
VERTEX
  8
PLAN_1
  6
CONTINUOUS
 10
0.683941
 20
-3.470866
  0
SEQEND
  8
0
  0
POLYLINE
  8
PLAN_1
  6
CONTINUOUS
 66
     1
 40
0.003000
 41
0.003000
  0
VERTEX
  8
PLAN_1
  6
CONTINUOUS
 10
0.925811
 20
-3.596110
  0
VERTEX
  8
PLAN_1
  6
CONTINUOUS
 10
0.899492
 20
-3.596110
  0
VERTEX
  8
PLAN_1
  6
CONTINUOUS
 10
0.899492
 20
-3.457252
  0
VERTEX
  8
PLAN_1
  6
CONTINUOUS
 10
0.854110
 20
-3.457252
  0
VERTEX
  8
PLAN_1
  6
CONTINUOUS
 10
0.854110
 20
-3.438193
  0
VERTEX
  8
PLAN_1
  6
CONTINUOUS
 10
0.865004
 20
-3.436831
  0
VERTEX
  8
PLAN_1
  6
CONTINUOUS
 10
0.874531
 20
-3.435921
  0
VERTEX
  8
PLAN_1
  6
CONTINUOUS
 10
0.878618
 20
-3.435016
  0
VERTEX
  8
PLAN_1
  6
CONTINUOUS
 10
0.882701
 20
-3.433654
  0
VERTEX
  8
PLAN_1
  6
CONTINUOUS
 10
0.885878
 20
-3.432291
  0
VERTEX
  8
PLAN_1
  6
CONTINUOUS
 10
0.889508
 20
-3.430476
  0
VERTEX
  8
PLAN_1
  6
CONTINUOUS
 10
0.892228
 20
-3.428661
  0
VERTEX
  8
PLAN_1
  6
CONTINUOUS
 10
0.894953
 20
-3.425941
  0
VERTEX
  8
PLAN_1
  6
CONTINUOUS
 10
0.897220
 20
-3.423217
  0
VERTEX
  8
PLAN_1
  6
CONTINUOUS
 10
0.899492
 20
-3.419587
  0
VERTEX
  8
PLAN_1
  6
CONTINUOUS
 10
0.901760
 20
-3.415957
  0
VERTEX
  8
PLAN_1
  6
CONTINUOUS
 10
0.903575
 20
-3.411417
  0
VERTEX
  8
PLAN_1
  6
CONTINUOUS
 10
0.904937
 20
-3.406425
  0
VERTEX
  8
PLAN_1
  6
CONTINUOUS
 10
0.906752
 20
-3.400980
  0
VERTEX
  8
PLAN_1
  6
CONTINUOUS
 10
0.925811
 20
-3.400980
  0
VERTEX
  8
PLAN_1
  6
CONTINUOUS
 10
0.925811
 20
-3.596110
  0
SEQEND
  8
0
  0
SOLID
  8
PLAN_1
 10
0.980264
 20
-3.630598
 11
0.980264
 21
-3.616531
 12
1.134551
 22
-3.630598
 13
1.134551
 23
-3.616531
  0
POLYLINE
  8
PLAN_1
  6
CONTINUOUS
 66
     1
 40
0.003000
 41
0.003000
  0
VERTEX
  8
PLAN_1
  6
CONTINUOUS
 10
0.980264
 20
-3.630598
  0
VERTEX
  8
PLAN_1
  6
CONTINUOUS
 10
0.980264
 20
-3.616531
  0
VERTEX
  8
PLAN_1
  6
CONTINUOUS
 10
1.134551
 20
-3.616531
  0
VERTEX
  8
PLAN_1
  6
CONTINUOUS
 10
1.134551
 20
-3.630598
  0
VERTEX
  8
PLAN_1
  6
CONTINUOUS
 10
0.980264
 20
-3.630598
  0
SEQEND
  8
0
  0
POLYLINE
  8
PLAN_1
  6
CONTINUOUS
 66
     1
 40
0.003000
 41
0.003000
  0
VERTEX
  8
PLAN_1
  6
CONTINUOUS
 10
1.186283
 20
-3.596110
  0
VERTEX
  8
PLAN_1
  6
CONTINUOUS
 10
1.159055
 20
-3.596110
  0
VERTEX
  8
PLAN_1
  6
CONTINUOUS
 10
1.159055
 20
-3.396445
  0
VERTEX
  8
PLAN_1
  6
CONTINUOUS
 10
1.251630
 20
-3.396445
  0
VERTEX
  8
PLAN_1
  6
CONTINUOUS
 10
1.257528
 20
-3.396898
  0
VERTEX
  8
PLAN_1
  6
CONTINUOUS
 10
1.263429
 20
-3.397350
  0
VERTEX
  8
PLAN_1
  6
CONTINUOUS
 10
1.269780
 20
-3.397803
  0
VERTEX
  8
PLAN_1
  6
CONTINUOUS
 10
1.275681
 20
-3.399165
  0
VERTEX
  8
PLAN_1
  6
CONTINUOUS
 10
1.281126
 20
-3.400528
  0
VERTEX
  8
PLAN_1
  6
CONTINUOUS
 10
1.286571
 20
-3.402343
  0
VERTEX
  8
PLAN_1
  6
CONTINUOUS
 10
1.291563
 20
-3.404610
  0
VERTEX
  8
PLAN_1
  6
CONTINUOUS
 10
1.296555
 20
-3.407787
  0
VERTEX
  8
PLAN_1
  6
CONTINUOUS
 10
1.300638
 20
-3.410965
  0
VERTEX
  8
PLAN_1
  6
CONTINUOUS
 10
1.304724
 20
-3.414594
  0
VERTEX
  8
PLAN_1
  6
CONTINUOUS
 10
1.308354
 20
-3.419134
  0
VERTEX
  8
PLAN_1
  6
CONTINUOUS
 10
1.311075
 20
-3.424126
  0
VERTEX
  8
PLAN_1
  6
CONTINUOUS
 10
1.313799
 20
-3.429571
  0
VERTEX
  8
PLAN_1
  6
CONTINUOUS
 10
1.315614
 20
-3.435921
  0
VERTEX
  8
PLAN_1
  6
CONTINUOUS
 10
1.316520
 20
-3.442728
  0
VERTEX
  8
PLAN_1
  6
CONTINUOUS
 10
1.316976
 20
-3.449992
  0
VERTEX
  8
PLAN_1
  6
CONTINUOUS
 10
1.316520
 20
-3.455437
  0
VERTEX
  8
PLAN_1
  6
CONTINUOUS
 10
1.316067
 20
-3.460429
  0
VERTEX
  8
PLAN_1
  6
CONTINUOUS
 10
1.315614
 20
-3.464965
  0
VERTEX
  8
PLAN_1
  6
CONTINUOUS
 10
1.314252
 20
-3.469051
  0
VERTEX
  8
PLAN_1
  6
CONTINUOUS
 10
1.312890
 20
-3.472681
  0
VERTEX
  8
PLAN_1
  6
CONTINUOUS
 10
1.311531
 20
-3.476311
  0
VERTEX
  8
PLAN_1
  6
CONTINUOUS
 10
1.309713
 20
-3.479488
  0
VERTEX
  8
PLAN_1
  6
CONTINUOUS
 10
1.307898
 20
-3.482209
  0
VERTEX
  8
PLAN_1
  6
CONTINUOUS
 10
1.303362
 20
-3.487201
  0
VERTEX
  8
PLAN_1
  6
CONTINUOUS
 10
1.298823
 20
-3.491283
  0
VERTEX
  8
PLAN_1
  6
CONTINUOUS
 10
1.293831
 20
-3.494913
  0
VERTEX
  8
PLAN_1
  6
CONTINUOUS
 10
1.289295
 20
-3.498091
  0
VERTEX
  8
PLAN_1
  6
CONTINUOUS
 10
1.293378
 20
-3.499906
  0
VERTEX
  8
PLAN_1
  6
CONTINUOUS
 10
1.297461
 20
-3.501720
  0
VERTEX
  8
PLAN_1
  6
CONTINUOUS
 10
1.301547
 20
-3.504445
  0
VERTEX
  8
PLAN_1
  6
CONTINUOUS
 10
1.304724
 20
-3.508075
  0
VERTEX
  8
PLAN_1
  6
CONTINUOUS
 10
1.306539
 20
-3.510343
  0
VERTEX
  8
PLAN_1
  6
CONTINUOUS
 10
1.307898
 20
-3.512614
  0
VERTEX
  8
PLAN_1
  6
CONTINUOUS
 10
1.309260
 20
-3.515335
  0
VERTEX
  8
PLAN_1
  6
CONTINUOUS
 10
1.310622
 20
-3.518512
  0
VERTEX
  8
PLAN_1
  6
CONTINUOUS
 10
1.311531
 20
-3.522142
  0
VERTEX
  8
PLAN_1
  6
CONTINUOUS
 10
1.311984
 20
-3.526228
  0
VERTEX
  8
PLAN_1
  6
CONTINUOUS
 10
1.312890
 20
-3.530311
  0
VERTEX
  8
PLAN_1
  6
CONTINUOUS
 10
1.312890
 20
-3.535303
  0
VERTEX
  8
PLAN_1
  6
CONTINUOUS
 10
1.314705
 20
-3.571606
  0
VERTEX
  8
PLAN_1
  6
CONTINUOUS
 10
1.314705
 20
-3.575236
  0
VERTEX
  8
PLAN_1
  6
CONTINUOUS
 10
1.315161
 20
-3.578413
  0
VERTEX
  8
PLAN_1
  6
CONTINUOUS
 10
1.315614
 20
-3.581591
  0
VERTEX
  8
PLAN_1
  6
CONTINUOUS
 10
1.316520
 20
-3.583858
  0
VERTEX
  8
PLAN_1
  6
CONTINUOUS
 10
1.317882
 20
-3.586126
  0
VERTEX
  8
PLAN_1
  6
CONTINUOUS
 10
1.319697
 20
-3.587941
  0
VERTEX
  8
PLAN_1
  6
CONTINUOUS
 10
1.321969
 20
-3.589756
  0
VERTEX
  8
PLAN_1
  6
CONTINUOUS
 10
1.324689
 20
-3.591571
  0
VERTEX
  8
PLAN_1
  6
CONTINUOUS
 10
1.324689
 20
-3.596110
  0
VERTEX
  8
PLAN_1
  6
CONTINUOUS
 10
1.291563
 20
-3.596110
  0
VERTEX
  8
PLAN_1
  6
CONTINUOUS
 10
1.290201
 20
-3.590665
  0
VERTEX
  8
PLAN_1
  6
CONTINUOUS
 10
1.289295
 20
-3.583858
  0
VERTEX
  8
PLAN_1
  6
CONTINUOUS
 10
1.288386
 20
-3.576598
  0
VERTEX
  8
PLAN_1
  6
CONTINUOUS
 10
1.287933
 20
-3.569335
  0
VERTEX
  8
PLAN_1
  6
CONTINUOUS
 10
1.287480
 20
-3.561622
  0
VERTEX
  8
PLAN_1
  6
CONTINUOUS
 10
1.287024
 20
-3.555268
  0
VERTEX
  8
PLAN_1
  6
CONTINUOUS
 10
1.287024
 20
-3.549823
  0
VERTEX
  8
PLAN_1
  6
CONTINUOUS
 10
1.287024
 20
-3.545740
  0
VERTEX
  8
PLAN_1
  6
CONTINUOUS
 10
1.286571
 20
-3.539839
  0
VERTEX
  8
PLAN_1
  6
CONTINUOUS
 10
1.286118
 20
-3.533488
  0
VERTEX
  8
PLAN_1
  6
CONTINUOUS
 10
1.285209
 20
-3.530311
  0
VERTEX
  8
PLAN_1
  6
CONTINUOUS
 10
1.284303
 20
-3.527587
  0
VERTEX
  8
PLAN_1
  6
CONTINUOUS
 10
1.282941
 20
-3.524866
  0
VERTEX
  8
PLAN_1
  6
CONTINUOUS
 10
1.281126
 20
-3.522142
  0
VERTEX
  8
PLAN_1
  6
CONTINUOUS
 10
1.279311
 20
-3.519421
  0
VERTEX
  8
PLAN_1
  6
CONTINUOUS
 10
1.276587
 20
-3.517150
  0
VERTEX
  8
PLAN_1
  6
CONTINUOUS
 10
1.273866
 20
-3.515335
  0
VERTEX
  8
PLAN_1
  6
CONTINUOUS
 10
1.270689
 20
-3.513520
  0
VERTEX
  8
PLAN_1
  6
CONTINUOUS
 10
1.266606
 20
-3.512157
  0
VERTEX
  8
PLAN_1
  6
CONTINUOUS
 10
1.262067
 20
-3.511252
  0
VERTEX
  8
PLAN_1
  6
CONTINUOUS
 10
1.257075
 20
-3.510799
  0
VERTEX
  8
PLAN_1
  6
CONTINUOUS
 10
1.251630
 20
-3.510343
  0
VERTEX
  8
PLAN_1
  6
CONTINUOUS
 10
1.186283
 20
-3.510343
  0
VERTEX
  8
PLAN_1
  6
CONTINUOUS
 10
1.186283
 20
-3.596110
  0
SEQEND
  8
0
  0
POLYLINE
  8
PLAN_1
  6
CONTINUOUS
 66
     1
 40
0.003000
 41
0.003000
  0
VERTEX
  8
PLAN_1
  6
CONTINUOUS
 10
1.186283
 20
-3.487201
  0
VERTEX
  8
PLAN_1
  6
CONTINUOUS
 10
1.248453
 20
-3.487201
  0
VERTEX
  8
PLAN_1
  6
CONTINUOUS
 10
1.256169
 20
-3.487201
  0
VERTEX
  8
PLAN_1
  6
CONTINUOUS
 10
1.263429
 20
-3.486291
  0
VERTEX
  8
PLAN_1
  6
CONTINUOUS
 10
1.266606
 20
-3.485386
  0
VERTEX
  8
PLAN_1
  6
CONTINUOUS
 10
1.270236
 20
-3.484024
  0
VERTEX
  8
PLAN_1
  6
CONTINUOUS
 10
1.273409
 20
-3.482661
  0
VERTEX
  8
PLAN_1
  6
CONTINUOUS
 10
1.276134
 20
-3.481303
  0
VERTEX
  8
PLAN_1
  6
CONTINUOUS
 10
1.278858
 20
-3.479031
  0
VERTEX
  8
PLAN_1
  6
CONTINUOUS
 10
1.281579
 20
-3.476764
  0
VERTEX
  8
PLAN_1
  6
CONTINUOUS
 10
1.283850
 20
-3.474039
  0
VERTEX
  8
PLAN_1
  6
CONTINUOUS
 10
1.285665
 20
-3.470866
  0
VERTEX
  8
PLAN_1
  6
CONTINUOUS
 10
1.287024
 20
-3.467232
  0
VERTEX
  8
PLAN_1
  6
CONTINUOUS
 10
1.288386
 20
-3.462697
  0
VERTEX
  8
PLAN_1
  6
CONTINUOUS
 10
1.288839
 20
-3.458157
  0
VERTEX
  8
PLAN_1
  6
CONTINUOUS
 10
1.289295
 20
-3.453165
  0
VERTEX
  8
PLAN_1
  6
CONTINUOUS
 10
1.288839
 20
-3.447720
  0
VERTEX
  8
PLAN_1
  6
CONTINUOUS
 10
1.287933
 20
-3.442728
  0
VERTEX
  8
PLAN_1
  6
CONTINUOUS
 10
1.287024
 20
-3.438646
  0
VERTEX
  8
PLAN_1
  6
CONTINUOUS
 10
1.285209
 20
-3.434563
  0
VERTEX
  8
PLAN_1
  6
CONTINUOUS
 10
1.283394
 20
-3.431386
  0
VERTEX
  8
PLAN_1
  6
CONTINUOUS
 10
1.281126
 20
-3.428661
  0
VERTEX
  8
PLAN_1
  6
CONTINUOUS
 10
1.278858
 20
-3.426846
  0
VERTEX
  8
PLAN_1
  6
CONTINUOUS
 10
1.276134
 20
-3.424579
  0
VERTEX
  8
PLAN_1
  6
CONTINUOUS
 10
1.273409
 20
-3.423217
  0
VERTEX
  8
PLAN_1
  6
CONTINUOUS
 10
1.270689
 20
-3.421854
  0
VERTEX
  8
PLAN_1
  6
CONTINUOUS
 10
1.267512
 20
-3.421402
  0
VERTEX
  8
PLAN_1
  6
CONTINUOUS
 10
1.264335
 20
-3.420492
  0
VERTEX
  8
PLAN_1
  6
CONTINUOUS
 10
1.258890
 20
-3.420039
  0
VERTEX
  8
PLAN_1
  6
CONTINUOUS
 10
1.253445
 20
-3.419587
  0
VERTEX
  8
PLAN_1
  6
CONTINUOUS
 10
1.186283
 20
-3.419587
  0
VERTEX
  8
PLAN_1
  6
CONTINUOUS
 10
1.186283
 20
-3.487201
  0
SEQEND
  8
0
  0
SOLID
  8
PLAN_1
 10
1.388220
 20
-3.596110
 11
1.359630
 21
-3.596110
 12
1.388220
 22
-3.566614
 13
1.359630
 23
-3.566614
  0
POLYLINE
  8
PLAN_1
  6
CONTINUOUS
 66
     1
 40
0.003000
 41
0.003000
  0
VERTEX
  8
PLAN_1
  6
CONTINUOUS
 10
1.388220
 20
-3.596110
  0
VERTEX
  8
PLAN_1
  6
CONTINUOUS
 10
1.359630
 20
-3.596110
  0
VERTEX
  8
PLAN_1
  6
CONTINUOUS
 10
1.359630
 20
-3.566614
  0
VERTEX
  8
PLAN_1
  6
CONTINUOUS
 10
1.388220
 20
-3.566614
  0
VERTEX
  8
PLAN_1
  6
CONTINUOUS
 10
1.388220
 20
-3.596110
  0
SEQEND
  8
0
  0
POLYLINE
  8
PLAN_1
  6
CONTINUOUS
 66
     1
 40
0.003000
 41
0.003000
  0
VERTEX
  8
PLAN_1
  6
CONTINUOUS
 10
1.583346
 20
-3.596110
  0
VERTEX
  8
PLAN_1
  6
CONTINUOUS
 10
1.436323
 20
-3.596110
  0
VERTEX
  8
PLAN_1
  6
CONTINUOUS
 10
1.436323
 20
-3.396445
  0
VERTEX
  8
PLAN_1
  6
CONTINUOUS
 10
1.581531
 20
-3.396445
  0
VERTEX
  8
PLAN_1
  6
CONTINUOUS
 10
1.581531
 20
-3.420492
  0
VERTEX
  8
PLAN_1
  6
CONTINUOUS
 10
1.463094
 20
-3.420492
  0
VERTEX
  8
PLAN_1
  6
CONTINUOUS
 10
1.463094
 20
-3.481756
  0
VERTEX
  8
PLAN_1
  6
CONTINUOUS
 10
1.572457
 20
-3.481756
  0
VERTEX
  8
PLAN_1
  6
CONTINUOUS
 10
1.572457
 20
-3.505350
  0
VERTEX
  8
PLAN_1
  6
CONTINUOUS
 10
1.463094
 20
-3.505350
  0
VERTEX
  8
PLAN_1
  6
CONTINUOUS
 10
1.463094
 20
-3.572059
  0
VERTEX
  8
PLAN_1
  6
CONTINUOUS
 10
1.583346
 20
-3.572059
  0
VERTEX
  8
PLAN_1
  6
CONTINUOUS
 10
1.583346
 20
-3.596110
  0
SEQEND
  8
0
  0
POLYLINE
  8
PLAN_1
  6
CONTINUOUS
 66
     1
 40
0.003000
 41
0.003000
  0
VERTEX
  8
PLAN_1
  6
CONTINUOUS
 10
1.648693
 20
-3.596110
  0
VERTEX
  8
PLAN_1
  6
CONTINUOUS
 10
1.621465
 20
-3.596110
  0
VERTEX
  8
PLAN_1
  6
CONTINUOUS
 10
1.621465
 20
-3.396445
  0
VERTEX
  8
PLAN_1
  6
CONTINUOUS
 10
1.711315
 20
-3.396445
  0
VERTEX
  8
PLAN_1
  6
CONTINUOUS
 10
1.718122
 20
-3.396898
  0
VERTEX
  8
PLAN_1
  6
CONTINUOUS
 10
1.724476
 20
-3.397803
  0
VERTEX
  8
PLAN_1
  6
CONTINUOUS
 10
1.730374
 20
-3.399165
  0
VERTEX
  8
PLAN_1
  6
CONTINUOUS
 10
1.735819
 20
-3.400980
  0
VERTEX
  8
PLAN_1
  6
CONTINUOUS
 10
1.741268
 20
-3.403252
  0
VERTEX
  8
PLAN_1
  6
CONTINUOUS
 10
1.746256
 20
-3.405972
  0
VERTEX
  8
PLAN_1
  6
CONTINUOUS
 10
1.750795
 20
-3.409150
  0
VERTEX
  8
PLAN_1
  6
CONTINUOUS
 10
1.754425
 20
-3.412780
  0
VERTEX
  8
PLAN_1
  6
CONTINUOUS
 10
1.758055
 20
-3.416409
  0
VERTEX
  8
PLAN_1
  6
CONTINUOUS
 10
1.761232
 20
-3.420949
  0
VERTEX
  8
PLAN_1
  6
CONTINUOUS
 10
1.763957
 20
-3.425484
  0
VERTEX
  8
PLAN_1
  6
CONTINUOUS
 10
1.766224
 20
-3.430476
  0
VERTEX
  8
PLAN_1
  6
CONTINUOUS
 10
1.768039
 20
-3.435469
  0
VERTEX
  8
PLAN_1
  6
CONTINUOUS
 10
1.769402
 20
-3.440913
  0
VERTEX
  8
PLAN_1
  6
CONTINUOUS
 10
1.769854
 20
-3.446815
  0
VERTEX
  8
PLAN_1
  6
CONTINUOUS
 10
1.770307
 20
-3.452713
  0
VERTEX
  8
PLAN_1
  6
CONTINUOUS
 10
1.770307
 20
-3.457705
  0
VERTEX
  8
PLAN_1
  6
CONTINUOUS
 10
1.769402
 20
-3.463150
  0
VERTEX
  8
PLAN_1
  6
CONTINUOUS
 10
1.768492
 20
-3.468594
  0
VERTEX
  8
PLAN_1
  6
CONTINUOUS
 10
1.767134
 20
-3.473587
  0
VERTEX
  8
PLAN_1
  6
CONTINUOUS
 10
1.765315
 20
-3.478579
  0
VERTEX
  8
PLAN_1
  6
CONTINUOUS
 10
1.763047
 20
-3.483571
  0
VERTEX
  8
PLAN_1
  6
CONTINUOUS
 10
1.760327
 20
-3.488110
  0
VERTEX
  8
PLAN_1
  6
CONTINUOUS
 10
1.757150
 20
-3.492646
  0
VERTEX
  8
PLAN_1
  6
CONTINUOUS
 10
1.753063
 20
-3.496732
  0
VERTEX
  8
PLAN_1
  6
CONTINUOUS
 10
1.748980
 20
-3.500362
  0
VERTEX
  8
PLAN_1
  6
CONTINUOUS
 10
1.743988
 20
-3.503535
  0
VERTEX
  8
PLAN_1
  6
CONTINUOUS
 10
1.738543
 20
-3.506260
  0
VERTEX
  8
PLAN_1
  6
CONTINUOUS
 10
1.732646
 20
-3.508528
  0
VERTEX
  8
PLAN_1
  6
CONTINUOUS
 10
1.726291
 20
-3.510343
  0
VERTEX
  8
PLAN_1
  6
CONTINUOUS
 10
1.719031
 20
-3.511252
  0
VERTEX
  8
PLAN_1
  6
CONTINUOUS
 10
1.711315
 20
-3.511705
  0
VERTEX
  8
PLAN_1
  6
CONTINUOUS
 10
1.648693
 20
-3.511705
  0
VERTEX
  8
PLAN_1
  6
CONTINUOUS
 10
1.648693
 20
-3.596110
  0
SEQEND
  8
0
  0
POLYLINE
  8
PLAN_1
  6
CONTINUOUS
 66
     1
 40
0.003000
 41
0.003000
  0
VERTEX
  8
PLAN_1
  6
CONTINUOUS
 10
1.648693
 20
-3.488563
  0
VERTEX
  8
PLAN_1
  6
CONTINUOUS
 10
1.702240
 20
-3.488563
  0
VERTEX
  8
PLAN_1
  6
CONTINUOUS
 10
1.706323
 20
-3.488563
  0
VERTEX
  8
PLAN_1
  6
CONTINUOUS
 10
1.710862
 20
-3.488110
  0
VERTEX
  8
PLAN_1
  6
CONTINUOUS
 10
1.714945
 20
-3.487654
  0
VERTEX
  8
PLAN_1
  6
CONTINUOUS
 10
1.718579
 20
-3.486748
  0
VERTEX
  8
PLAN_1
  6
CONTINUOUS
 10
1.722209
 20
-3.485839
  0
VERTEX
  8
PLAN_1
  6
CONTINUOUS
 10
1.725382
 20
-3.484476
  0
VERTEX
  8
PLAN_1
  6
CONTINUOUS
 10
1.728559
 20
-3.483118
  0
VERTEX
  8
PLAN_1
  6
CONTINUOUS
 10
1.731283
 20
-3.480846
  0
VERTEX
  8
PLAN_1
  6
CONTINUOUS
 10
1.734004
 20
-3.478579
  0
VERTEX
  8
PLAN_1
  6
CONTINUOUS
 10
1.736276
 20
-3.476311
  0
VERTEX
  8
PLAN_1
  6
CONTINUOUS
 10
1.738091
 20
-3.473134
  0
VERTEX
  8
PLAN_1
  6
CONTINUOUS
 10
1.739453
 20
-3.469957
  0
VERTEX
  8
PLAN_1
  6
CONTINUOUS
 10
1.740811
 20
-3.466327
  0
VERTEX
  8
PLAN_1
  6
CONTINUOUS
 10
1.741720
 20
-3.462244
  0
VERTEX
  8
PLAN_1
  6
CONTINUOUS
 10
1.742173
 20
-3.457705
  0
VERTEX
  8
PLAN_1
  6
CONTINUOUS
 10
1.742626
 20
-3.453165
  0
VERTEX
  8
PLAN_1
  6
CONTINUOUS
 10
1.742173
 20
-3.448630
  0
VERTEX
  8
PLAN_1
  6
CONTINUOUS
 10
1.741720
 20
-3.444091
  0
VERTEX
  8
PLAN_1
  6
CONTINUOUS
 10
1.740811
 20
-3.440461
  0
VERTEX
  8
PLAN_1
  6
CONTINUOUS
 10
1.739453
 20
-3.437283
  0
VERTEX
  8
PLAN_1
  6
CONTINUOUS
 10
1.738091
 20
-3.434106
  0
VERTEX
  8
PLAN_1
  6
CONTINUOUS
 10
1.735819
 20
-3.431386
  0
VERTEX
  8
PLAN_1
  6
CONTINUOUS
 10
1.733551
 20
-3.429114
  0
VERTEX
  8
PLAN_1
  6
CONTINUOUS
 10
1.731283
 20
-3.426846
  0
VERTEX
  8
PLAN_1
  6
CONTINUOUS
 10
1.728559
 20
-3.425031
  0
VERTEX
  8
PLAN_1
  6
CONTINUOUS
 10
1.725382
 20
-3.423669
  0
VERTEX
  8
PLAN_1
  6
CONTINUOUS
 10
1.722209
 20
-3.422311
  0
VERTEX
  8
PLAN_1
  6
CONTINUOUS
 10
1.718579
 20
-3.421402
  0
VERTEX
  8
PLAN_1
  6
CONTINUOUS
 10
1.714945
 20
-3.420492
  0
VERTEX
  8
PLAN_1
  6
CONTINUOUS
 10
1.711315
 20
-3.420039
  0
VERTEX
  8
PLAN_1
  6
CONTINUOUS
 10
1.707232
 20
-3.419587
  0
VERTEX
  8
PLAN_1
  6
CONTINUOUS
 10
1.703150
 20
-3.419587
  0
VERTEX
  8
PLAN_1
  6
CONTINUOUS
 10
1.648693
 20
-3.419587
  0
VERTEX
  8
PLAN_1
  6
CONTINUOUS
 10
1.648693
 20
-3.488563
  0
SEQEND
  8
0
  0
POLYLINE
  8
PLAN_1
  6
CONTINUOUS
 66
     1
 40
0.003000
 41
0.003000
  0
VERTEX
  8
PLAN_1
  6
CONTINUOUS
 10
1.924142
 20
-3.454980
  0
VERTEX
  8
PLAN_1
  6
CONTINUOUS
 10
1.923689
 20
-3.449535
  0
VERTEX
  8
PLAN_1
  6
CONTINUOUS
 10
1.922780
 20
-3.444543
  0
VERTEX
  8
PLAN_1
  6
CONTINUOUS
 10
1.920965
 20
-3.439555
  0
VERTEX
  8
PLAN_1
  6
CONTINUOUS
 10
1.919150
 20
-3.435469
  0
VERTEX
  8
PLAN_1
  6
CONTINUOUS
 10
1.916429
 20
-3.431839
  0
VERTEX
  8
PLAN_1
  6
CONTINUOUS
 10
1.913705
 20
-3.428661
  0
VERTEX
  8
PLAN_1
  6
CONTINUOUS
 10
1.910984
 20
-3.425484
  0
VERTEX
  8
PLAN_1
  6
CONTINUOUS
 10
1.907350
 20
-3.423217
  0
VERTEX
  8
PLAN_1
  6
CONTINUOUS
 10
1.903720
 20
-3.420949
  0
VERTEX
  8
PLAN_1
  6
CONTINUOUS
 10
1.900091
 20
-3.419134
  0
VERTEX
  8
PLAN_1
  6
CONTINUOUS
 10
1.896008
 20
-3.417772
  0
VERTEX
  8
PLAN_1
  6
CONTINUOUS
 10
1.891925
 20
-3.416409
  0
VERTEX
  8
PLAN_1
  6
CONTINUOUS
 10
1.887386
 20
-3.415504
  0
VERTEX
  8
PLAN_1
  6
CONTINUOUS
 10
1.883303
 20
-3.415047
  0
VERTEX
  8
PLAN_1
  6
CONTINUOUS
 10
1.879217
 20
-3.414594
  0
VERTEX
  8
PLAN_1
  6
CONTINUOUS
 10
1.874681
 20
-3.414594
  0
VERTEX
  8
PLAN_1
  6
CONTINUOUS
 10
1.867874
 20
-3.414594
  0
VERTEX
  8
PLAN_1
  6
CONTINUOUS
 10
1.860614
 20
-3.415504
  0
VERTEX
  8
PLAN_1
  6
CONTINUOUS
 10
1.856528
 20
-3.416409
  0
VERTEX
  8
PLAN_1
  6
CONTINUOUS
 10
1.852898
 20
-3.417319
  0
VERTEX
  8
PLAN_1
  6
CONTINUOUS
 10
1.849268
 20
-3.418677
  0
VERTEX
  8
PLAN_1
  6
CONTINUOUS
 10
1.845638
 20
-3.420492
  0
VERTEX
  8
PLAN_1
  6
CONTINUOUS
 10
1.842461
 20
-3.422764
  0
VERTEX
  8
PLAN_1
  6
CONTINUOUS
 10
1.839283
 20
-3.425031
  0
VERTEX
  8
PLAN_1
  6
CONTINUOUS
 10
1.836563
 20
-3.427756
  0
VERTEX
  8
PLAN_1
  6
CONTINUOUS
 10
1.833839
 20
-3.430933
  0
VERTEX
  8
PLAN_1
  6
CONTINUOUS
 10
1.832024
 20
-3.435016
  0
VERTEX
  8
PLAN_1
  6
CONTINUOUS
 10
1.830661
 20
-3.439098
  0
VERTEX
  8
PLAN_1
  6
CONTINUOUS
 10
1.829756
 20
-3.444091
  0
VERTEX
  8
PLAN_1
  6
CONTINUOUS
 10
1.829299
 20
-3.449535
  0
VERTEX
  8
PLAN_1
  6
CONTINUOUS
 10
1.829299
 20
-3.452260
  0
VERTEX
  8
PLAN_1
  6
CONTINUOUS
 10
1.829756
 20
-3.454980
  0
VERTEX
  8
PLAN_1
  6
CONTINUOUS
 10
1.830661
 20
-3.457705
  0
VERTEX
  8
PLAN_1
  6
CONTINUOUS
 10
1.831114
 20
-3.459972
  0
VERTEX
  8
PLAN_1
  6
CONTINUOUS
 10
1.832476
 20
-3.462244
  0
VERTEX
  8
PLAN_1
  6
CONTINUOUS
 10
1.833839
 20
-3.464059
  0
VERTEX
  8
PLAN_1
  6
CONTINUOUS
 10
1.835201
 20
-3.465874
  0
VERTEX
  8
PLAN_1
  6
CONTINUOUS
 10
1.836563
 20
-3.467232
  0
VERTEX
  8
PLAN_1
  6
CONTINUOUS
 10
1.840193
 20
-3.469957
  0
VERTEX
  8
PLAN_1
  6
CONTINUOUS
 10
1.844276
 20
-3.471772
  0
VERTEX
  8
PLAN_1
  6
CONTINUOUS
 10
1.848358
 20
-3.473587
  0
VERTEX
  8
PLAN_1
  6
CONTINUOUS
 10
1.852898
 20
-3.474496
  0
VERTEX
  8
PLAN_1
  6
CONTINUOUS
 10
1.909622
 20
-3.487654
  0
VERTEX
  8
PLAN_1
  6
CONTINUOUS
 10
1.914614
 20
-3.489016
  0
VERTEX
  8
PLAN_1
  6
CONTINUOUS
 10
1.919150
 20
-3.490378
  0
VERTEX
  8
PLAN_1
  6
CONTINUOUS
 10
1.923689
 20
-3.492193
  0
VERTEX
  8
PLAN_1
  6
CONTINUOUS
 10
1.927772
 20
-3.494008
  0
VERTEX
  8
PLAN_1
  6
CONTINUOUS
 10
1.931858
 20
-3.496276
  0
VERTEX
  8
PLAN_1
  6
CONTINUOUS
 10
1.935488
 20
-3.499000
  0
VERTEX
  8
PLAN_1
  6
CONTINUOUS
 10
1.938665
 20
-3.501720
  0
VERTEX
  8
PLAN_1
  6
CONTINUOUS
 10
1.941839
 20
-3.504898
  0
VERTEX
  8
PLAN_1
  6
CONTINUOUS
 10
1.945016
 20
-3.508075
  0
VERTEX
  8
PLAN_1
  6
CONTINUOUS
 10
1.947287
 20
-3.511705
  0
VERTEX
  8
PLAN_1
  6
CONTINUOUS
 10
1.949555
 20
-3.515791
  0
VERTEX
  8
PLAN_1
  6
CONTINUOUS
 10
1.951370
 20
-3.520327
  0
VERTEX
  8
PLAN_1
  6
CONTINUOUS
 10
1.953185
 20
-3.524866
  0
VERTEX
  8
PLAN_1
  6
CONTINUOUS
 10
1.954091
 20
-3.529858
  0
VERTEX
  8
PLAN_1
  6
CONTINUOUS
 10
1.954547
 20
-3.535303
  0
VERTEX
  8
PLAN_1
  6
CONTINUOUS
 10
1.955000
 20
-3.540748
  0
VERTEX
  8
PLAN_1
  6
CONTINUOUS
 10
1.955000
 20
-3.545287
  0
VERTEX
  8
PLAN_1
  6
CONTINUOUS
 10
1.954547
 20
-3.549370
  0
VERTEX
  8
PLAN_1
  6
CONTINUOUS
 10
1.954091
 20
-3.553453
  0
VERTEX
  8
PLAN_1
  6
CONTINUOUS
 10
1.953185
 20
-3.557083
  0
VERTEX
  8
PLAN_1
  6
CONTINUOUS
 10
1.951823
 20
-3.560713
  0
VERTEX
  8
PLAN_1
  6
CONTINUOUS
 10
1.950917
 20
-3.563890
  0
VERTEX
  8
PLAN_1
  6
CONTINUOUS
 10
1.949102
 20
-3.567067
  0
VERTEX
  8
PLAN_1
  6
CONTINUOUS
 10
1.947740
 20
-3.570244
  0
VERTEX
  8
PLAN_1
  6
CONTINUOUS
 10
1.943654
 20
-3.575689
  0
VERTEX
  8
PLAN_1
  6
CONTINUOUS
 10
1.939118
 20
-3.580681
  0
VERTEX
  8
PLAN_1
  6
CONTINUOUS
 10
1.934126
 20
-3.585220
  0
VERTEX
  8
PLAN_1
  6
CONTINUOUS
 10
1.928681
 20
-3.588850
  0
VERTEX
  8
PLAN_1
  6
CONTINUOUS
 10
1.922780
 20
-3.592028
  0
VERTEX
  8
PLAN_1
  6
CONTINUOUS
 10
1.916882
 20
-3.594748
  0
VERTEX
  8
PLAN_1
  6
CONTINUOUS
 10
1.910075
 20
-3.596563
  0
VERTEX
  8
PLAN_1
  6
CONTINUOUS
 10
1.903720
 20
-3.598378
  0
VERTEX
  8
PLAN_1
  6
CONTINUOUS
 10
1.896913
 20
-3.599740
  0
VERTEX
  8
PLAN_1
  6
CONTINUOUS
 10
1.890110
 20
-3.600650
  0
VERTEX
  8
PLAN_1
  6
CONTINUOUS
 10
1.883303
 20
-3.601102
  0
VERTEX
  8
PLAN_1
  6
CONTINUOUS
 10
1.876949
 20
-3.601102
  0
VERTEX
  8
PLAN_1
  6
CONTINUOUS
 10
1.870142
 20
-3.601102
  0
VERTEX
  8
PLAN_1
  6
CONTINUOUS
 10
1.864244
 20
-3.600650
  0
VERTEX
  8
PLAN_1
  6
CONTINUOUS
 10
1.858343
 20
-3.600193
  0
VERTEX
  8
PLAN_1
  6
CONTINUOUS
 10
1.853350
 20
-3.599287
  0
VERTEX
  8
PLAN_1
  6
CONTINUOUS
 10
1.848358
 20
-3.598378
  0
VERTEX
  8
PLAN_1
  6
CONTINUOUS
 10
1.844276
 20
-3.597472
  0
VERTEX
  8
PLAN_1
  6
CONTINUOUS
 10
1.840193
 20
-3.596110
  0
VERTEX
  8
PLAN_1
  6
CONTINUOUS
 10
1.836563
 20
-3.594748
  0
VERTEX
  8
PLAN_1
  6
CONTINUOUS
 10
1.830209
 20
-3.591571
  0
VERTEX
  8
PLAN_1
  6
CONTINUOUS
 10
1.824764
 20
-3.588394
  0
VERTEX
  8
PLAN_1
  6
CONTINUOUS
 10
1.820224
 20
-3.585220
  0
VERTEX
  8
PLAN_1
  6
CONTINUOUS
 10
1.816594
 20
-3.582043
  0
VERTEX
  8
PLAN_1
  6
CONTINUOUS
 10
1.813874
 20
-3.579319
  0
VERTEX
  8
PLAN_1
  6
CONTINUOUS
 10
1.811150
 20
-3.576142
  0
VERTEX
  8
PLAN_1
  6
CONTINUOUS
 10
1.808425
 20
-3.573421
  0
VERTEX
  8
PLAN_1
  6
CONTINUOUS
 10
1.806610
 20
-3.570244
  0
VERTEX
  8
PLAN_1
  6
CONTINUOUS
 10
1.802980
 20
-3.564346
  0
VERTEX
  8
PLAN_1
  6
CONTINUOUS
 10
1.800260
 20
-3.557992
  0
VERTEX
  8
PLAN_1
  6
CONTINUOUS
 10
1.798445
 20
-3.551638
  0
VERTEX
  8
PLAN_1
  6
CONTINUOUS
 10
1.797083
 20
-3.545287
  0
VERTEX
  8
PLAN_1
  6
CONTINUOUS
 10
1.796630
 20
-3.538480
  0
VERTEX
  8
PLAN_1
  6
CONTINUOUS
 10
1.796630
 20
-3.531673
  0
VERTEX
  8
PLAN_1
  6
CONTINUOUS
 10
1.821587
 20
-3.531673
  0
VERTEX
  8
PLAN_1
  6
CONTINUOUS
 10
1.822039
 20
-3.538024
  0
VERTEX
  8
PLAN_1
  6
CONTINUOUS
 10
1.822949
 20
-3.543925
  0
VERTEX
  8
PLAN_1
  6
CONTINUOUS
 10
1.824764
 20
-3.549370
  0
VERTEX
  8
PLAN_1
  6
CONTINUOUS
 10
1.826579
 20
-3.553909
  0
VERTEX
  8
PLAN_1
  6
CONTINUOUS
 10
1.829299
 20
-3.558445
  0
VERTEX
  8
PLAN_1
  6
CONTINUOUS
 10
1.832476
 20
-3.562075
  0
VERTEX
  8
PLAN_1
  6
CONTINUOUS
 10
1.835654
 20
-3.565252
  0
VERTEX
  8
PLAN_1
  6
CONTINUOUS
 10
1.839736
 20
-3.568429
  0
VERTEX
  8
PLAN_1
  6
CONTINUOUS
 10
1.843823
 20
-3.570697
  0
VERTEX
  8
PLAN_1
  6
CONTINUOUS
 10
1.847906
 20
-3.572969
  0
VERTEX
  8
PLAN_1
  6
CONTINUOUS
 10
1.852445
 20
-3.574783
  0
VERTEX
  8
PLAN_1
  6
CONTINUOUS
 10
1.857437
 20
-3.576142
  0
VERTEX
  8
PLAN_1
  6
CONTINUOUS
 10
1.861972
 20
-3.577051
  0
VERTEX
  8
PLAN_1
  6
CONTINUOUS
 10
1.866965
 20
-3.577504
  0
VERTEX
  8
PLAN_1
  6
CONTINUOUS
 10
1.871957
 20
-3.577957
  0
VERTEX
  8
PLAN_1
  6
CONTINUOUS
 10
1.876949
 20
-3.577957
  0
VERTEX
  8
PLAN_1
  6
CONTINUOUS
 10
1.884661
 20
-3.577957
  0
VERTEX
  8
PLAN_1
  6
CONTINUOUS
 10
1.893283
 20
-3.577051
  0
VERTEX
  8
PLAN_1
  6
CONTINUOUS
 10
1.897370
 20
-3.576142
  0
VERTEX
  8
PLAN_1
  6
CONTINUOUS
 10
1.901906
 20
-3.575236
  0
VERTEX
  8
PLAN_1
  6
CONTINUOUS
 10
1.905992
 20
-3.573874
  0
VERTEX
  8
PLAN_1
  6
CONTINUOUS
 10
1.910075
 20
-3.572059
  0
VERTEX
  8
PLAN_1
  6
CONTINUOUS
 10
1.914157
 20
-3.570244
  0
VERTEX
  8
PLAN_1
  6
CONTINUOUS
 10
1.917335
 20
-3.567976
  0
VERTEX
  8
PLAN_1
  6
CONTINUOUS
 10
1.920512
 20
-3.564799
  0
VERTEX
  8
PLAN_1
  6
CONTINUOUS
 10
1.923689
 20
-3.562075
  0
VERTEX
  8
PLAN_1
  6
CONTINUOUS
 10
1.925957
 20
-3.558445
  0
VERTEX
  8
PLAN_1
  6
CONTINUOUS
 10
1.927319
 20
-3.554362
  0
VERTEX
  8
PLAN_1
  6
CONTINUOUS
 10
1.928681
 20
-3.549823
  0
VERTEX
  8
PLAN_1
  6
CONTINUOUS
 10
1.929134
 20
-3.544378
  0
VERTEX
  8
PLAN_1
  6
CONTINUOUS
 10
1.928681
 20
-3.540748
  0
VERTEX
  8
PLAN_1
  6
CONTINUOUS
 10
1.928228
 20
-3.537571
  0
VERTEX
  8
PLAN_1
  6
CONTINUOUS
 10
1.927772
 20
-3.534394
  0
VERTEX
  8
PLAN_1
  6
CONTINUOUS
 10
1.926866
 20
-3.531217
  0
VERTEX
  8
PLAN_1
  6
CONTINUOUS
 10
1.925504
 20
-3.528949
  0
VERTEX
  8
PLAN_1
  6
CONTINUOUS
 10
1.924142
 20
-3.526228
  0
VERTEX
  8
PLAN_1
  6
CONTINUOUS
 10
1.922327
 20
-3.523957
  0
VERTEX
  8
PLAN_1
  6
CONTINUOUS
 10
1.920059
 20
-3.522142
  0
VERTEX
  8
PLAN_1
  6
CONTINUOUS
 10
1.917335
 20
-3.520327
  0
VERTEX
  8
PLAN_1
  6
CONTINUOUS
 10
1.914157
 20
-3.518512
  0
VERTEX
  8
PLAN_1
  6
CONTINUOUS
 10
1.910984
 20
-3.516697
  0
VERTEX
  8
PLAN_1
  6
CONTINUOUS
 10
1.906898
 20
-3.515335
  0
VERTEX
  8
PLAN_1
  6
CONTINUOUS
 10
1.897823
 20
-3.512157
  0
VERTEX
  8
PLAN_1
  6
CONTINUOUS
 10
1.886476
 20
-3.509437
  0
VERTEX
  8
PLAN_1
  6
CONTINUOUS
 10
1.845638
 20
-3.499906
  0
VERTEX
  8
PLAN_1
  6
CONTINUOUS
 10
1.840193
 20
-3.498547
  0
VERTEX
  8
PLAN_1
  6
CONTINUOUS
 10
1.833386
 20
-3.496276
  0
VERTEX
  8
PLAN_1
  6
CONTINUOUS
 10
1.830209
 20
-3.494461
  0
VERTEX
  8
PLAN_1
  6
CONTINUOUS
 10
1.826579
 20
-3.492646
  0
VERTEX
  8
PLAN_1
  6
CONTINUOUS
 10
1.822949
 20
-3.490831
  0
VERTEX
  8
PLAN_1
  6
CONTINUOUS
 10
1.819319
 20
-3.488110
  0
VERTEX
  8
PLAN_1
  6
CONTINUOUS
 10
1.816142
 20
-3.485386
  0
VERTEX
  8
PLAN_1
  6
CONTINUOUS
 10
1.812965
 20
-3.482209
  0
VERTEX
  8
PLAN_1
  6
CONTINUOUS
 10
1.810240
 20
-3.478579
  0
VERTEX
  8
PLAN_1
  6
CONTINUOUS
 10
1.807972
 20
-3.474496
  0
VERTEX
  8
PLAN_1
  6
CONTINUOUS
 10
1.806157
 20
-3.469957
  0
VERTEX
  8
PLAN_1
  6
CONTINUOUS
 10
1.804343
 20
-3.464965
  0
VERTEX
  8
PLAN_1
  6
CONTINUOUS
 10
1.803433
 20
-3.459067
  0
VERTEX
  8
PLAN_1
  6
CONTINUOUS
 10
1.802980
 20
-3.453165
  0
VERTEX
  8
PLAN_1
  6
CONTINUOUS
 10
1.803433
 20
-3.447268
  0
VERTEX
  8
PLAN_1
  6
CONTINUOUS
 10
1.804343
 20
-3.441370
  0
VERTEX
  8
PLAN_1
  6
CONTINUOUS
 10
1.805252
 20
-3.435921
  0
VERTEX
  8
PLAN_1
  6
CONTINUOUS
 10
1.807067
 20
-3.430024
  0
VERTEX
  8
PLAN_1
  6
CONTINUOUS
 10
1.809335
 20
-3.425031
  0
VERTEX
  8
PLAN_1
  6
CONTINUOUS
 10
1.812055
 20
-3.419587
  0
VERTEX
  8
PLAN_1
  6
CONTINUOUS
 10
1.815232
 20
-3.415047
  0
VERTEX
  8
PLAN_1
  6
CONTINUOUS
 10
1.819319
 20
-3.410512
  0
VERTEX
  8
PLAN_1
  6
CONTINUOUS
 10
1.823854
 20
-3.406425
  0
VERTEX
  8
PLAN_1
  6
CONTINUOUS
 10
1.828846
 20
-3.402795
  0
VERTEX
  8
PLAN_1
  6
CONTINUOUS
 10
1.834291
 20
-3.399165
  0
VERTEX
  8
PLAN_1
  6
CONTINUOUS
 10
1.840646
 20
-3.396445
  0
VERTEX
  8
PLAN_1
  6
CONTINUOUS
 10
1.847453
 20
-3.394173
  0
VERTEX
  8
PLAN_1
  6
CONTINUOUS
 10
1.854713
 20
-3.392815
  0
VERTEX
  8
PLAN_1
  6
CONTINUOUS
 10
1.862882
 20
-3.391906
  0
VERTEX
  8
PLAN_1
  6
CONTINUOUS
 10
1.871957
 20
-3.391453
  0
VERTEX
  8
PLAN_1
  6
CONTINUOUS
 10
1.878311
 20
-3.391453
  0
VERTEX
  8
PLAN_1
  6
CONTINUOUS
 10
1.884209
 20
-3.391906
  0
VERTEX
  8
PLAN_1
  6
CONTINUOUS
 10
1.889654
 20
-3.392358
  0
VERTEX
  8
PLAN_1
  6
CONTINUOUS
 10
1.895098
 20
-3.393268
  0
VERTEX
  8
PLAN_1
  6
CONTINUOUS
 10
1.900091
 20
-3.394173
  0
VERTEX
  8
PLAN_1
  6
CONTINUOUS
 10
1.904630
 20
-3.395535
  0
VERTEX
  8
PLAN_1
  6
CONTINUOUS
 10
1.909169
 20
-3.396898
  0
VERTEX
  8
PLAN_1
  6
CONTINUOUS
 10
1.913252
 20
-3.398260
  0
VERTEX
  8
PLAN_1
  6
CONTINUOUS
 10
1.916882
 20
-3.400075
  0
VERTEX
  8
PLAN_1
  6
CONTINUOUS
 10
1.920512
 20
-3.401890
  0
VERTEX
  8
PLAN_1
  6
CONTINUOUS
 10
1.923689
 20
-3.403705
  0
VERTEX
  8
PLAN_1
  6
CONTINUOUS
 10
1.926866
 20
-3.405520
  0
VERTEX
  8
PLAN_1
  6
CONTINUOUS
 10
1.931858
 20
-3.410055
  0
VERTEX
  8
PLAN_1
  6
CONTINUOUS
 10
1.936394
 20
-3.415047
  0
VERTEX
  8
PLAN_1
  6
CONTINUOUS
 10
1.940024
 20
-3.420039
  0
VERTEX
  8
PLAN_1
  6
CONTINUOUS
 10
1.942748
 20
-3.425031
  0
VERTEX
  8
PLAN_1
  6
CONTINUOUS
 10
1.945016
 20
-3.430476
  0
VERTEX
  8
PLAN_1
  6
CONTINUOUS
 10
1.946831
 20
-3.435921
  0
VERTEX
  8
PLAN_1
  6
CONTINUOUS
 10
1.947740
 20
-3.440913
  0
VERTEX
  8
PLAN_1
  6
CONTINUOUS
 10
1.948646
 20
-3.445906
  0
VERTEX
  8
PLAN_1
  6
CONTINUOUS
 10
1.949102
 20
-3.450445
  0
VERTEX
  8
PLAN_1
  6
CONTINUOUS
 10
1.949555
 20
-3.454980
  0
VERTEX
  8
PLAN_1
  6
CONTINUOUS
 10
1.924142
 20
-3.454980
  0
SEQEND
  8
0
  0
POLYLINE
  8
PLAN_1
  6
CONTINUOUS
 66
     1
 40
0.006803
 41
0.006803
  0
VERTEX
  8
PLAN_1
  6
CONTINUOUS
 10
-0.968299
 20
1.854783
  0
VERTEX
  8
PLAN_1
  6
CONTINUOUS
 10
-0.756835
 20
1.854783
  0
VERTEX
  8
PLAN_1
  6
CONTINUOUS
 10
-0.756835
 20
2.285882
  0
VERTEX
  8
PLAN_1
  6
CONTINUOUS
 10
-0.968299
 20
2.285882
  0
SEQEND
  8
0
  0
POLYLINE
  8
PLAN_1
  6
CONTINUOUS
 66
     1
 40
0.006803
 41
0.006803
  0
VERTEX
  8
PLAN_1
  6
CONTINUOUS
 10
-0.968299
 20
1.940551
  0
VERTEX
  8
PLAN_1
  6
CONTINUOUS
 10
-0.756835
 20
1.940551
  0
SEQEND
  8
0
  0
POLYLINE
  8
PLAN_1
  6
CONTINUOUS
 66
     1
 40
0.006803
 41
0.006803
  0
VERTEX
  8
PLAN_1
  6
CONTINUOUS
 10
-1.413008
 20
2.285882
  0
VERTEX
  8
PLAN_1
  6
CONTINUOUS
 10
-1.624476
 20
2.285882
  0
VERTEX
  8
PLAN_1
  6
CONTINUOUS
 10
-1.624476
 20
1.854783
  0
VERTEX
  8
PLAN_1
  6
CONTINUOUS
 10
-1.413008
 20
1.854783
  0
SEQEND
  8
0
  0
POLYLINE
  8
PLAN_1
  6
CONTINUOUS
 66
     1
 40
0.006803
 41
0.006803
  0
VERTEX
  8
PLAN_1
  6
CONTINUOUS
 10
-1.624476
 20
1.940551
  0
VERTEX
  8
PLAN_1
  6
CONTINUOUS
 10
-1.413008
 20
1.940551
  0
SEQEND
  8
0
  0
POLYLINE
  8
PLAN_1
  6
CONTINUOUS
 66
     1
 40
0.008165
 41
0.008165
  0
VERTEX
  8
PLAN_1
  6
CONTINUOUS
 10
-0.999157
 20
1.873390
  0
VERTEX
  8
PLAN_1
  6
CONTINUOUS
 10
-0.999157
 20
2.233697
  0
VERTEX
  8
PLAN_1
  6
CONTINUOUS
 10
-1.379429
 20
2.233697
  0
VERTEX
  8
PLAN_1
  6
CONTINUOUS
 10
-1.379429
 20
1.873390
  0
VERTEX
  8
PLAN_1
  6
CONTINUOUS
 10
-0.999157
 20
1.873390
  0
SEQEND
  8
0
  0
POLYLINE
  8
PLAN_1
  6
CONTINUOUS
 66
     1
 40
0.008165
 41
0.008165
  0
VERTEX
  8
PLAN_1
  6
CONTINUOUS
 10
-1.379882
 20
2.235059
  0
VERTEX
  8
PLAN_1
  6
CONTINUOUS
 10
-1.378067
 20
2.236874
  0
VERTEX
  8
PLAN_1
  6
CONTINUOUS
 10
-1.372622
 20
2.241866
  0
VERTEX
  8
PLAN_1
  6
CONTINUOUS
 10
-1.363547
 20
2.249579
  0
VERTEX
  8
PLAN_1
  6
CONTINUOUS
 10
-1.351295
 20
2.259110
  0
VERTEX
  8
PLAN_1
  6
CONTINUOUS
 10
-1.343579
 20
2.264098
  0
VERTEX
  8
PLAN_1
  6
CONTINUOUS
 10
-1.335413
 20
2.269547
  0
VERTEX
  8
PLAN_1
  6
CONTINUOUS
 10
-1.326791
 20
2.274992
  0
VERTEX
  8
PLAN_1
  6
CONTINUOUS
 10
-1.317260
 20
2.280437
  0
VERTEX
  8
PLAN_1
  6
CONTINUOUS
 10
-1.306823
 20
2.285429
  0
VERTEX
  8
PLAN_1
  6
CONTINUOUS
 10
-1.295480
 20
2.290421
  0
VERTEX
  8
PLAN_1
  6
CONTINUOUS
 10
-1.283681
 20
2.294957
  0
VERTEX
  8
PLAN_1
  6
CONTINUOUS
 10
-1.271429
 20
2.299496
  0
VERTEX
  8
PLAN_1
  6
CONTINUOUS
 10
-1.258268
 20
2.303126
  0
VERTEX
  8
PLAN_1
  6
CONTINUOUS
 10
-1.244654
 20
2.306303
  0
VERTEX
  8
PLAN_1
  6
CONTINUOUS
 10
-1.230587
 20
2.309024
  0
VERTEX
  8
PLAN_1
  6
CONTINUOUS
 10
-1.215614
 20
2.310386
  0
VERTEX
  8
PLAN_1
  6
CONTINUOUS
 10
-1.200185
 20
2.311295
  0
VERTEX
  8
PLAN_1
  6
CONTINUOUS
 10
-1.184299
 20
2.311295
  0
VERTEX
  8
PLAN_1
  6
CONTINUOUS
 10
-1.167965
 20
2.309933
  0
VERTEX
  8
PLAN_1
  6
CONTINUOUS
 10
-1.150720
 20
2.307665
  0
VERTEX
  8
PLAN_1
  6
CONTINUOUS
 10
-1.133476
 20
2.304031
  0
VERTEX
  8
PLAN_1
  6
CONTINUOUS
 10
-1.115327
 20
2.298587
  0
VERTEX
  8
PLAN_1
  6
CONTINUOUS
 10
-1.097173
 20
2.292236
  0
VERTEX
  8
PLAN_1
  6
CONTINUOUS
 10
-1.078114
 20
2.284520
  0
VERTEX
  8
PLAN_1
  6
CONTINUOUS
 10
-1.059055
 20
2.274535
  0
VERTEX
  8
PLAN_1
  6
CONTINUOUS
 10
-1.039091
 20
2.263193
  0
VERTEX
  8
PLAN_1
  6
CONTINUOUS
 10
-1.019122
 20
2.250031
  0
VERTEX
  8
PLAN_1
  6
CONTINUOUS
 10
-0.998701
 20
2.235059
  0
SEQEND
  8
0
  0
POLYLINE
  8
PLAN_1
  6
CONTINUOUS
 66
     1
 40
0.008165
 41
0.008165
  0
VERTEX
  8
PLAN_1
  6
CONTINUOUS
 10
-0.831709
 20
1.855236
  0
VERTEX
  8
PLAN_1
  6
CONTINUOUS
 10
-0.831709
 20
1.873843
  0
VERTEX
  8
PLAN_1
  6
CONTINUOUS
 10
-1.516472
 20
1.873843
  0
VERTEX
  8
PLAN_1
  6
CONTINUOUS
 10
-1.516472
 20
1.855236
  0
VERTEX
  8
PLAN_1
  6
CONTINUOUS
 10
-0.831709
 20
1.855236
  0
SEQEND
  8
0
  0
POLYLINE
  8
PLAN_1
  6
CONTINUOUS
 66
     1
 40
0.008165
 41
0.008165
  0
VERTEX
  8
PLAN_1
  6
CONTINUOUS
 10
-0.916567
 20
2.581299
  0
VERTEX
  8
PLAN_1
  6
CONTINUOUS
 10
-0.916567
 20
3.017843
  0
VERTEX
  8
PLAN_1
  6
CONTINUOUS
 10
-0.949693
 20
3.017843
  0
VERTEX
  8
PLAN_1
  6
CONTINUOUS
 10
-0.949693
 20
2.581299
  0
VERTEX
  8
PLAN_1
  6
CONTINUOUS
 10
-0.916567
 20
2.581299
  0
SEQEND
  8
0
  0
POLYLINE
  8
PLAN_1
  6
CONTINUOUS
 66
     1
 40
0.008165
 41
0.008165
  0
VERTEX
  8
PLAN_1
  6
CONTINUOUS
 10
-0.966484
 20
2.374823
  0
VERTEX
  8
PLAN_1
  6
CONTINUOUS
 10
-0.966484
 20
2.311295
  0
VERTEX
  8
PLAN_1
  6
CONTINUOUS
 10
-1.413008
 20
2.311295
  0
VERTEX
  8
PLAN_1
  6
CONTINUOUS
 10
-1.413008
 20
2.374823
  0
VERTEX
  8
PLAN_1
  6
CONTINUOUS
 10
-0.966484
 20
2.374823
  0
SEQEND
  8
0
  0
POLYLINE
  8
PLAN_1
  6
CONTINUOUS
 66
     1
 40
0.008165
 41
0.008165
  0
VERTEX
  8
PLAN_1
  6
CONTINUOUS
 10
-1.413008
 20
2.510961
  0
VERTEX
  8
PLAN_1
  6
CONTINUOUS
 10
-1.413008
 20
2.604894
  0
SEQEND
  8
0
  0
POLYLINE
  8
PLAN_1
  6
CONTINUOUS
 66
     1
 40
0.008165
 41
0.008165
  0
VERTEX
  8
PLAN_1
  6
CONTINUOUS
 10
-0.966484
 20
2.510961
  0
VERTEX
  8
PLAN_1
  6
CONTINUOUS
 10
-0.966484
 20
2.604894
  0
SEQEND
  8
0
  0
POLYLINE
  8
PLAN_1
  6
CONTINUOUS
 66
     1
 40
0.008165
 41
0.008165
  0
VERTEX
  8
PLAN_1
  6
CONTINUOUS
 10
-1.413008
 20
2.510961
  0
VERTEX
  8
PLAN_1
  6
CONTINUOUS
 10
-1.413008
 20
1.873390
  0
VERTEX
  8
PLAN_1
  6
CONTINUOUS
 10
-0.966484
 20
1.873390
  0
VERTEX
  8
PLAN_1
  6
CONTINUOUS
 10
-0.966484
 20
2.510961
  0
SEQEND
  8
0
  0
POLYLINE
  8
PLAN_1
  6
CONTINUOUS
 66
     1
 40
0.008165
 41
0.008165
  0
VERTEX
  8
PLAN_1
  6
CONTINUOUS
 10
-1.319075
 20
3.147626
  0
VERTEX
  8
PLAN_1
  6
CONTINUOUS
 10
-1.429799
 20
3.147626
  0
VERTEX
  8
PLAN_1
  6
CONTINUOUS
 10
-1.429799
 20
2.510961
  0
VERTEX
  8
PLAN_1
  6
CONTINUOUS
 10
-1.413008
 20
2.510961
  0
SEQEND
  8
0
  0
POLYLINE
  8
PLAN_1
  6
CONTINUOUS
 66
     1
 40
0.008165
 41
0.008165
  0
VERTEX
  8
PLAN_1
  6
CONTINUOUS
 10
-1.052701
 20
3.147626
  0
VERTEX
  8
PLAN_1
  6
CONTINUOUS
 10
-0.949693
 20
3.147626
  0
VERTEX
  8
PLAN_1
  6
CONTINUOUS
 10
-0.949693
 20
2.510961
  0
VERTEX
  8
PLAN_1
  6
CONTINUOUS
 10
-0.966484
 20
2.510961
  0
SEQEND
  8
0
  0
POLYLINE
  8
PLAN_1
  6
CONTINUOUS
 66
     1
 40
0.008165
 41
0.008165
  0
VERTEX
  8
PLAN_1
  6
CONTINUOUS
 10
-1.052701
 20
3.147626
  0
VERTEX
  8
PLAN_1
  6
CONTINUOUS
 10
-1.052701
 20
2.417933
  0
VERTEX
  8
PLAN_1
  6
CONTINUOUS
 10
-1.319075
 20
2.417933
  0
VERTEX
  8
PLAN_1
  6
CONTINUOUS
 10
-1.319075
 20
3.147626
  0
SEQEND
  8
0
  0
POLYLINE
  8
PLAN_1
  6
CONTINUOUS
 66
     1
 40
0.008165
 41
0.008165
  0
VERTEX
  8
PLAN_1
  6
CONTINUOUS
 10
-1.052701
 20
3.147626
  0
VERTEX
  8
PLAN_1
  6
CONTINUOUS
 10
-1.052701
 20
3.194362
  0
VERTEX
  8
PLAN_1
  6
CONTINUOUS
 10
-1.319075
 20
3.194362
  0
VERTEX
  8
PLAN_1
  6
CONTINUOUS
 10
-1.319075
 20
3.147626
  0
SEQEND
  8
0
  0
POLYLINE
  8
PLAN_1
  6
CONTINUOUS
 66
     1
 40
0.008165
 41
0.008165
  0
VERTEX
  8
PLAN_1
  6
CONTINUOUS
 10
-0.547638
 20
1.126909
  0
VERTEX
  8
PLAN_1
  6
CONTINUOUS
 10
-0.547638
 20
1.855693
  0
VERTEX
  8
PLAN_1
  6
CONTINUOUS
 10
-1.800996
 20
1.855693
  0
VERTEX
  8
PLAN_1
  6
CONTINUOUS
 10
-1.800996
 20
1.126909
  0
VERTEX
  8
PLAN_1
  6
CONTINUOUS
 10
-0.547638
 20
1.126909
  0
SEQEND
  8
0
  0
POLYLINE
  8
PLAN_1
  6
CONTINUOUS
 66
     1
 40
0.008165
 41
0.008165
  0
VERTEX
  8
PLAN_1
  6
CONTINUOUS
 10
-0.972835
 20
0.731661
  0
VERTEX
  8
PLAN_1
  6
CONTINUOUS
 10
-0.972835
 20
0.776130
  0
VERTEX
  8
PLAN_1
  6
CONTINUOUS
 10
-1.355831
 20
0.776130
  0
VERTEX
  8
PLAN_1
  6
CONTINUOUS
 10
-1.355831
 20
0.731661
  0
VERTEX
  8
PLAN_1
  6
CONTINUOUS
 10
-0.972835
 20
0.731661
  0
SEQEND
  8
0
  0
POLYLINE
  8
PLAN_1
  6
CONTINUOUS
 66
     1
 40
0.008165
 41
0.008165
  0
VERTEX
  8
PLAN_1
  6
CONTINUOUS
 10
-0.649740
 20
1.107398
  0
VERTEX
  8
PLAN_1
  6
CONTINUOUS
 10
-0.649740
 20
1.127362
  0
VERTEX
  8
PLAN_1
  6
CONTINUOUS
 10
-1.678929
 20
1.127362
  0
VERTEX
  8
PLAN_1
  6
CONTINUOUS
 10
-1.678929
 20
1.107398
  0
VERTEX
  8
PLAN_1
  6
CONTINUOUS
 10
-0.649740
 20
1.107398
  0
SEQEND
  8
0
  0
POLYLINE
  8
PLAN_1
  6
CONTINUOUS
 66
     1
 40
0.008165
 41
0.008165
  0
VERTEX
  8
PLAN_1
  6
CONTINUOUS
 10
-0.876181
 20
0.776130
  0
VERTEX
  8
PLAN_1
  6
CONTINUOUS
 10
-0.876181
 20
1.107398
  0
VERTEX
  8
PLAN_1
  6
CONTINUOUS
 10
-1.470642
 20
1.107398
  0
VERTEX
  8
PLAN_1
  6
CONTINUOUS
 10
-1.470642
 20
0.776130
  0
VERTEX
  8
PLAN_1
  6
CONTINUOUS
 10
-0.876181
 20
0.776130
  0
SEQEND
  8
0
  0
POLYLINE
  8
PLAN_1
 62
     5
  6
CONTINUOUS
 66
     1
 40
0.003000
 41
0.003000
  0
VERTEX
  8
PLAN_1
 62
     5
  6
CONTINUOUS
 10
-1.960732
 20
0.455303
  0
VERTEX
  8
PLAN_1
 62
     5
  6
CONTINUOUS
 10
-1.960732
 20
0.463472
  0
SEQEND
  8
0
  0
POLYLINE
  8
PLAN_1
 62
     5
  6
CONTINUOUS
 66
     1
 40
0.003000
 41
0.003000
  0
VERTEX
  8
PLAN_1
 62
     5
  6
CONTINUOUS
 10
-1.960732
 20
0.472094
  0
VERTEX
  8
PLAN_1
 62
     5
  6
CONTINUOUS
 10
-1.960732
 20
0.480264
  0
SEQEND
  8
0
  0
POLYLINE
  8
PLAN_1
 62
     5
  6
CONTINUOUS
 66
     1
 40
0.003000
 41
0.003000
  0
VERTEX
  8
PLAN_1
 62
     5
  6
CONTINUOUS
 10
-1.960732
 20
0.488429
  0
VERTEX
  8
PLAN_1
 62
     5
  6
CONTINUOUS
 10
-1.960732
 20
0.497051
  0
SEQEND
  8
0
  0
POLYLINE
  8
PLAN_1
 62
     5
  6
CONTINUOUS
 66
     1
 40
0.003000
 41
0.003000
  0
VERTEX
  8
PLAN_1
 62
     5
  6
CONTINUOUS
 10
-1.960732
 20
0.505220
  0
VERTEX
  8
PLAN_1
 62
     5
  6
CONTINUOUS
 10
-1.960732
 20
0.513843
  0
SEQEND
  8
0
  0
POLYLINE
  8
PLAN_1
 62
     5
  6
CONTINUOUS
 66
     1
 40
0.003000
 41
0.003000
  0
VERTEX
  8
PLAN_1
 62
     5
  6
CONTINUOUS
 10
-1.960732
 20
0.522012
  0
VERTEX
  8
PLAN_1
 62
     5
  6
CONTINUOUS
 10
-1.960732
 20
0.530177
  0
SEQEND
  8
0
  0
POLYLINE
  8
PLAN_1
 62
     5
  6
CONTINUOUS
 66
     1
 40
0.003000
 41
0.003000
  0
VERTEX
  8
PLAN_1
 62
     5
  6
CONTINUOUS
 10
-1.960732
 20
0.538799
  0
VERTEX
  8
PLAN_1
 62
     5
  6
CONTINUOUS
 10
-1.960732
 20
0.546969
  0
SEQEND
  8
0
  0
POLYLINE
  8
PLAN_1
 62
     5
  6
CONTINUOUS
 66
     1
 40
0.003000
 41
0.003000
  0
VERTEX
  8
PLAN_1
 62
     5
  6
CONTINUOUS
 10
-1.960732
 20
0.555138
  0
VERTEX
  8
PLAN_1
 62
     5
  6
CONTINUOUS
 10
-1.960732
 20
0.563760
  0
SEQEND
  8
0
  0
POLYLINE
  8
PLAN_1
 62
     5
  6
CONTINUOUS
 66
     1
 40
0.003000
 41
0.003000
  0
VERTEX
  8
PLAN_1
 62
     5
  6
CONTINUOUS
 10
-1.960732
 20
0.571925
  0
VERTEX
  8
PLAN_1
 62
     5
  6
CONTINUOUS
 10
-1.960732
 20
0.580094
  0
SEQEND
  8
0
  0
POLYLINE
  8
PLAN_1
 62
     5
  6
CONTINUOUS
 66
     1
 40
0.003000
 41
0.003000
  0
VERTEX
  8
PLAN_1
 62
     5
  6
CONTINUOUS
 10
-1.960732
 20
0.588717
  0
VERTEX
  8
PLAN_1
 62
     5
  6
CONTINUOUS
 10
-1.960732
 20
0.596886
  0
SEQEND
  8
0
  0
POLYLINE
  8
PLAN_1
 62
     5
  6
CONTINUOUS
 66
     1
 40
0.003000
 41
0.003000
  0
VERTEX
  8
PLAN_1
 62
     5
  6
CONTINUOUS
 10
-1.960732
 20
0.605055
  0
VERTEX
  8
PLAN_1
 62
     5
  6
CONTINUOUS
 10
-1.960732
 20
0.613677
  0
SEQEND
  8
0
  0
POLYLINE
  8
PLAN_1
 62
     5
  6
CONTINUOUS
 66
     1
 40
0.003000
 41
0.003000
  0
VERTEX
  8
PLAN_1
 62
     5
  6
CONTINUOUS
 10
-1.960732
 20
0.621843
  0
VERTEX
  8
PLAN_1
 62
     5
  6
CONTINUOUS
 10
-1.960732
 20
0.630012
  0
SEQEND
  8
0
  0
POLYLINE
  8
PLAN_1
 62
     5
  6
CONTINUOUS
 66
     1
 40
0.003000
 41
0.003000
  0
VERTEX
  8
PLAN_1
 62
     5
  6
CONTINUOUS
 10
-1.960732
 20
0.638634
  0
VERTEX
  8
PLAN_1
 62
     5
  6
CONTINUOUS
 10
-1.960732
 20
0.646803
  0
SEQEND
  8
0
  0
POLYLINE
  8
PLAN_1
 62
     5
  6
CONTINUOUS
 66
     1
 40
0.003000
 41
0.003000
  0
VERTEX
  8
PLAN_1
 62
     5
  6
CONTINUOUS
 10
-1.960732
 20
0.655425
  0
VERTEX
  8
PLAN_1
 62
     5
  6
CONTINUOUS
 10
-1.960732
 20
0.663591
  0
SEQEND
  8
0
  0
POLYLINE
  8
PLAN_1
 62
     5
  6
CONTINUOUS
 66
     1
 40
0.003000
 41
0.003000
  0
VERTEX
  8
PLAN_1
 62
     5
  6
CONTINUOUS
 10
-1.960732
 20
0.671760
  0
VERTEX
  8
PLAN_1
 62
     5
  6
CONTINUOUS
 10
-1.960732
 20
0.680382
  0
SEQEND
  8
0
  0
POLYLINE
  8
PLAN_1
 62
     5
  6
CONTINUOUS
 66
     1
 40
0.003000
 41
0.003000
  0
VERTEX
  8
PLAN_1
 62
     5
  6
CONTINUOUS
 10
-1.960732
 20
0.688551
  0
VERTEX
  8
PLAN_1
 62
     5
  6
CONTINUOUS
 10
-1.960732
 20
0.696720
  0
SEQEND
  8
0
  0
POLYLINE
  8
PLAN_1
 62
     5
  6
CONTINUOUS
 66
     1
 40
0.003000
 41
0.003000
  0
VERTEX
  8
PLAN_1
 62
     5
  6
CONTINUOUS
 10
-1.960732
 20
0.705339
  0
VERTEX
  8
PLAN_1
 62
     5
  6
CONTINUOUS
 10
-1.960732
 20
0.713508
  0
SEQEND
  8
0
  0
POLYLINE
  8
PLAN_1
 62
     5
  6
CONTINUOUS
 66
     1
 40
0.003000
 41
0.003000
  0
VERTEX
  8
PLAN_1
 62
     5
  6
CONTINUOUS
 10
-1.960732
 20
0.721677
  0
VERTEX
  8
PLAN_1
 62
     5
  6
CONTINUOUS
 10
-1.960732
 20
0.730299
  0
SEQEND
  8
0
  0
POLYLINE
  8
PLAN_1
 62
     5
  6
CONTINUOUS
 66
     1
 40
0.003000
 41
0.003000
  0
VERTEX
  8
PLAN_1
 62
     5
  6
CONTINUOUS
 10
-1.960732
 20
0.738469
  0
VERTEX
  8
PLAN_1
 62
     5
  6
CONTINUOUS
 10
-1.960732
 20
0.746634
  0
SEQEND
  8
0
  0
POLYLINE
  8
PLAN_1
 62
     5
  6
CONTINUOUS
 66
     1
 40
0.003000
 41
0.003000
  0
VERTEX
  8
PLAN_1
 62
     5
  6
CONTINUOUS
 10
-1.960732
 20
0.755256
  0
VERTEX
  8
PLAN_1
 62
     5
  6
CONTINUOUS
 10
-1.960732
 20
0.763425
  0
SEQEND
  8
0
  0
POLYLINE
  8
PLAN_1
 62
     5
  6
CONTINUOUS
 66
     1
 40
0.003000
 41
0.003000
  0
VERTEX
  8
PLAN_1
 62
     5
  6
CONTINUOUS
 10
-1.960732
 20
0.771594
  0
VERTEX
  8
PLAN_1
 62
     5
  6
CONTINUOUS
 10
-1.960732
 20
0.780217
  0
SEQEND
  8
0
  0
POLYLINE
  8
PLAN_1
 62
     5
  6
CONTINUOUS
 66
     1
 40
0.003000
 41
0.003000
  0
VERTEX
  8
PLAN_1
 62
     5
  6
CONTINUOUS
 10
-1.960732
 20
0.788382
  0
VERTEX
  8
PLAN_1
 62
     5
  6
CONTINUOUS
 10
-1.960732
 20
0.797004
  0
SEQEND
  8
0
  0
POLYLINE
  8
PLAN_1
 62
     5
  6
CONTINUOUS
 66
     1
 40
0.003000
 41
0.003000
  0
VERTEX
  8
PLAN_1
 62
     5
  6
CONTINUOUS
 10
-1.960732
 20
0.805173
  0
VERTEX
  8
PLAN_1
 62
     5
  6
CONTINUOUS
 10
-1.960732
 20
0.813343
  0
SEQEND
  8
0
  0
POLYLINE
  8
PLAN_1
 62
     5
  6
CONTINUOUS
 66
     1
 40
0.003000
 41
0.003000
  0
VERTEX
  8
PLAN_1
 62
     5
  6
CONTINUOUS
 10
-1.960732
 20
0.821965
  0
VERTEX
  8
PLAN_1
 62
     5
  6
CONTINUOUS
 10
-1.960732
 20
0.830134
  0
SEQEND
  8
0
  0
POLYLINE
  8
PLAN_1
 62
     5
  6
CONTINUOUS
 66
     1
 40
0.003000
 41
0.003000
  0
VERTEX
  8
PLAN_1
 62
     5
  6
CONTINUOUS
 10
-1.960732
 20
0.838299
  0
VERTEX
  8
PLAN_1
 62
     5
  6
CONTINUOUS
 10
-1.960732
 20
0.846921
  0
SEQEND
  8
0
  0
POLYLINE
  8
PLAN_1
 62
     5
  6
CONTINUOUS
 66
     1
 40
0.003000
 41
0.003000
  0
VERTEX
  8
PLAN_1
 62
     5
  6
CONTINUOUS
 10
-1.960732
 20
0.855091
  0
VERTEX
  8
PLAN_1
 62
     5
  6
CONTINUOUS
 10
-1.960732
 20
0.863260
  0
SEQEND
  8
0
  0
POLYLINE
  8
PLAN_1
 62
     5
  6
CONTINUOUS
 66
     1
 40
0.003000
 41
0.003000
  0
VERTEX
  8
PLAN_1
 62
     5
  6
CONTINUOUS
 10
-1.960732
 20
0.871882
  0
VERTEX
  8
PLAN_1
 62
     5
  6
CONTINUOUS
 10
-1.960732
 20
0.880047
  0
SEQEND
  8
0
  0
POLYLINE
  8
PLAN_1
 62
     5
  6
CONTINUOUS
 66
     1
 40
0.003000
 41
0.003000
  0
VERTEX
  8
PLAN_1
 62
     5
  6
CONTINUOUS
 10
-1.960732
 20
0.888217
  0
VERTEX
  8
PLAN_1
 62
     5
  6
CONTINUOUS
 10
-1.960732
 20
0.896839
  0
SEQEND
  8
0
  0
POLYLINE
  8
PLAN_1
 62
     5
  6
CONTINUOUS
 66
     1
 40
0.003000
 41
0.003000
  0
VERTEX
  8
PLAN_1
 62
     5
  6
CONTINUOUS
 10
-1.960732
 20
0.905008
  0
VERTEX
  8
PLAN_1
 62
     5
  6
CONTINUOUS
 10
-1.960732
 20
0.913630
  0
SEQEND
  8
0
  0
POLYLINE
  8
PLAN_1
 62
     5
  6
CONTINUOUS
 66
     1
 40
0.003000
 41
0.003000
  0
VERTEX
  8
PLAN_1
 62
     5
  6
CONTINUOUS
 10
-1.960732
 20
0.921795
  0
VERTEX
  8
PLAN_1
 62
     5
  6
CONTINUOUS
 10
-1.960732
 20
0.929965
  0
SEQEND
  8
0
  0
POLYLINE
  8
PLAN_1
 62
     5
  6
CONTINUOUS
 66
     1
 40
0.003000
 41
0.003000
  0
VERTEX
  8
PLAN_1
 62
     5
  6
CONTINUOUS
 10
-1.960732
 20
0.938587
  0
VERTEX
  8
PLAN_1
 62
     5
  6
CONTINUOUS
 10
-1.960732
 20
0.946756
  0
SEQEND
  8
0
  0
POLYLINE
  8
PLAN_1
 62
     5
  6
CONTINUOUS
 66
     1
 40
0.003000
 41
0.003000
  0
VERTEX
  8
PLAN_1
 62
     5
  6
CONTINUOUS
 10
-1.960732
 20
0.954925
  0
VERTEX
  8
PLAN_1
 62
     5
  6
CONTINUOUS
 10
-1.960732
 20
0.963547
  0
SEQEND
  8
0
  0
POLYLINE
  8
PLAN_1
 62
     5
  6
CONTINUOUS
 66
     1
 40
0.003000
 41
0.003000
  0
VERTEX
  8
PLAN_1
 62
     5
  6
CONTINUOUS
 10
-1.960732
 20
0.971713
  0
VERTEX
  8
PLAN_1
 62
     5
  6
CONTINUOUS
 10
-1.960732
 20
0.979882
  0
SEQEND
  8
0
  0
POLYLINE
  8
PLAN_1
 62
     5
  6
CONTINUOUS
 66
     1
 40
0.003000
 41
0.003000
  0
VERTEX
  8
PLAN_1
 62
     5
  6
CONTINUOUS
 10
-1.960732
 20
0.988504
  0
VERTEX
  8
PLAN_1
 62
     5
  6
CONTINUOUS
 10
-1.960732
 20
0.996673
  0
SEQEND
  8
0
  0
POLYLINE
  8
PLAN_1
 62
     5
  6
CONTINUOUS
 66
     1
 40
0.003000
 41
0.003000
  0
VERTEX
  8
PLAN_1
 62
     5
  6
CONTINUOUS
 10
-1.960732
 20
1.004839
  0
VERTEX
  8
PLAN_1
 62
     5
  6
CONTINUOUS
 10
-1.960732
 20
1.013461
  0
SEQEND
  8
0
  0
POLYLINE
  8
PLAN_1
 62
     5
  6
CONTINUOUS
 66
     1
 40
0.003000
 41
0.003000
  0
VERTEX
  8
PLAN_1
 62
     5
  6
CONTINUOUS
 10
-1.960732
 20
1.021630
  0
VERTEX
  8
PLAN_1
 62
     5
  6
CONTINUOUS
 10
-1.960732
 20
1.029799
  0
SEQEND
  8
0
  0
POLYLINE
  8
PLAN_1
 62
     5
  6
CONTINUOUS
 66
     1
 40
0.003000
 41
0.003000
  0
VERTEX
  8
PLAN_1
 62
     5
  6
CONTINUOUS
 10
-1.960732
 20
1.038421
  0
VERTEX
  8
PLAN_1
 62
     5
  6
CONTINUOUS
 10
-1.960732
 20
1.046591
  0
SEQEND
  8
0
  0
POLYLINE
  8
PLAN_1
 62
     5
  6
CONTINUOUS
 66
     1
 40
0.003000
 41
0.003000
  0
VERTEX
  8
PLAN_1
 62
     5
  6
CONTINUOUS
 10
-1.960732
 20
1.055209
  0
VERTEX
  8
PLAN_1
 62
     5
  6
CONTINUOUS
 10
-1.960732
 20
1.063378
  0
SEQEND
  8
0
  0
POLYLINE
  8
PLAN_1
 62
     5
  6
CONTINUOUS
 66
     1
 40
0.003000
 41
0.003000
  0
VERTEX
  8
PLAN_1
 62
     5
  6
CONTINUOUS
 10
-1.960732
 20
1.071547
  0
VERTEX
  8
PLAN_1
 62
     5
  6
CONTINUOUS
 10
-1.960732
 20
1.080169
  0
SEQEND
  8
0
  0
POLYLINE
  8
PLAN_1
 62
     5
  6
CONTINUOUS
 66
     1
 40
0.003000
 41
0.003000
  0
VERTEX
  8
PLAN_1
 62
     5
  6
CONTINUOUS
 10
-1.960732
 20
1.088339
  0
VERTEX
  8
PLAN_1
 62
     5
  6
CONTINUOUS
 10
-1.960732
 20
1.096504
  0
SEQEND
  8
0
  0
POLYLINE
  8
PLAN_1
 62
     5
  6
CONTINUOUS
 66
     1
 40
0.003000
 41
0.003000
  0
VERTEX
  8
PLAN_1
 62
     5
  6
CONTINUOUS
 10
-1.960732
 20
1.105126
  0
VERTEX
  8
PLAN_1
 62
     5
  6
CONTINUOUS
 10
-1.960732
 20
1.113295
  0
SEQEND
  8
0
  0
POLYLINE
  8
PLAN_1
 62
     5
  6
CONTINUOUS
 66
     1
 40
0.003000
 41
0.003000
  0
VERTEX
  8
PLAN_1
 62
     5
  6
CONTINUOUS
 10
-1.960732
 20
1.121465
  0
VERTEX
  8
PLAN_1
 62
     5
  6
CONTINUOUS
 10
-1.960732
 20
1.127362
  0
VERTEX
  8
PLAN_1
 62
     5
  6
CONTINUOUS
 10
-1.958008
 20
1.127362
  0
SEQEND
  8
0
  0
POLYLINE
  8
PLAN_1
 62
     5
  6
CONTINUOUS
 66
     1
 40
0.003000
 41
0.003000
  0
VERTEX
  8
PLAN_1
 62
     5
  6
CONTINUOUS
 10
-1.949839
 20
1.127362
  0
VERTEX
  8
PLAN_1
 62
     5
  6
CONTINUOUS
 10
-1.941673
 20
1.127362
  0
SEQEND
  8
0
  0
POLYLINE
  8
PLAN_1
 62
     5
  6
CONTINUOUS
 66
     1
 40
0.003000
 41
0.003000
  0
VERTEX
  8
PLAN_1
 62
     5
  6
CONTINUOUS
 10
-1.933051
 20
1.127362
  0
VERTEX
  8
PLAN_1
 62
     5
  6
CONTINUOUS
 10
-1.924882
 20
1.127362
  0
SEQEND
  8
0
  0
POLYLINE
  8
PLAN_1
 62
     5
  6
CONTINUOUS
 66
     1
 40
0.003000
 41
0.003000
  0
VERTEX
  8
PLAN_1
 62
     5
  6
CONTINUOUS
 10
-1.916713
 20
1.127362
  0
VERTEX
  8
PLAN_1
 62
     5
  6
CONTINUOUS
 10
-1.908091
 20
1.127362
  0
SEQEND
  8
0
  0
POLYLINE
  8
PLAN_1
 62
     5
  6
CONTINUOUS
 66
     1
 40
0.003000
 41
0.003000
  0
VERTEX
  8
PLAN_1
 62
     5
  6
CONTINUOUS
 10
-1.899925
 20
1.127362
  0
VERTEX
  8
PLAN_1
 62
     5
  6
CONTINUOUS
 10
-1.891756
 20
1.127362
  0
SEQEND
  8
0
  0
POLYLINE
  8
PLAN_1
 62
     5
  6
CONTINUOUS
 66
     1
 40
0.003000
 41
0.003000
  0
VERTEX
  8
PLAN_1
 62
     5
  6
CONTINUOUS
 10
-1.883134
 20
1.127362
  0
VERTEX
  8
PLAN_1
 62
     5
  6
CONTINUOUS
 10
-1.874965
 20
1.127362
  0
SEQEND
  8
0
  0
POLYLINE
  8
PLAN_1
 62
     5
  6
CONTINUOUS
 66
     1
 40
0.003000
 41
0.003000
  0
VERTEX
  8
PLAN_1
 62
     5
  6
CONTINUOUS
 10
-1.866343
 20
1.127362
  0
VERTEX
  8
PLAN_1
 62
     5
  6
CONTINUOUS
 10
-1.858173
 20
1.127362
  0
SEQEND
  8
0
  0
POLYLINE
  8
PLAN_1
 62
     5
  6
CONTINUOUS
 66
     1
 40
0.003000
 41
0.003000
  0
VERTEX
  8
PLAN_1
 62
     5
  6
CONTINUOUS
 10
-1.850008
 20
1.127362
  0
VERTEX
  8
PLAN_1
 62
     5
  6
CONTINUOUS
 10
-1.841386
 20
1.127362
  0
SEQEND
  8
0
  0
POLYLINE
  8
PLAN_1
 62
     5
  6
CONTINUOUS
 66
     1
 40
0.003000
 41
0.003000
  0
VERTEX
  8
PLAN_1
 62
     5
  6
CONTINUOUS
 10
-1.833217
 20
1.127362
  0
VERTEX
  8
PLAN_1
 62
     5
  6
CONTINUOUS
 10
-1.825047
 20
1.127362
  0
SEQEND
  8
0
  0
POLYLINE
  8
PLAN_1
 62
     5
  6
CONTINUOUS
 66
     1
 40
0.003000
 41
0.003000
  0
VERTEX
  8
PLAN_1
 62
     5
  6
CONTINUOUS
 10
-1.816425
 20
1.127362
  0
VERTEX
  8
PLAN_1
 62
     5
  6
CONTINUOUS
 10
-1.808260
 20
1.127362
  0
SEQEND
  8
0
  0
POLYLINE
  8
PLAN_1
 62
     5
  6
CONTINUOUS
 66
     1
 40
0.003000
 41
0.003000
  0
VERTEX
  8
PLAN_1
 62
     5
  6
CONTINUOUS
 10
-1.800091
 20
1.127362
  0
VERTEX
  8
PLAN_1
 62
     5
  6
CONTINUOUS
 10
-1.791469
 20
1.127362
  0
SEQEND
  8
0
  0
POLYLINE
  8
PLAN_1
 62
     5
  6
CONTINUOUS
 66
     1
 40
0.003000
 41
0.003000
  0
VERTEX
  8
PLAN_1
 62
     5
  6
CONTINUOUS
 10
-1.783299
 20
1.127362
  0
VERTEX
  8
PLAN_1
 62
     5
  6
CONTINUOUS
 10
-1.775134
 20
1.127362
  0
SEQEND
  8
0
  0
POLYLINE
  8
PLAN_1
 62
     5
  6
CONTINUOUS
 66
     1
 40
0.003000
 41
0.003000
  0
VERTEX
  8
PLAN_1
 62
     5
  6
CONTINUOUS
 10
-1.766512
 20
1.127362
  0
VERTEX
  8
PLAN_1
 62
     5
  6
CONTINUOUS
 10
-1.758343
 20
1.127362
  0
SEQEND
  8
0
  0
POLYLINE
  8
PLAN_1
 62
     5
  6
CONTINUOUS
 66
     1
 40
0.003000
 41
0.003000
  0
VERTEX
  8
PLAN_1
 62
     5
  6
CONTINUOUS
 10
-1.750173
 20
1.127362
  0
VERTEX
  8
PLAN_1
 62
     5
  6
CONTINUOUS
 10
-1.741551
 20
1.127362
  0
SEQEND
  8
0
  0
POLYLINE
  8
PLAN_1
 62
     5
  6
CONTINUOUS
 66
     1
 40
0.003000
 41
0.003000
  0
VERTEX
  8
PLAN_1
 62
     5
  6
CONTINUOUS
 10
-1.733382
 20
1.127362
  0
VERTEX
  8
PLAN_1
 62
     5
  6
CONTINUOUS
 10
-1.724760
 20
1.127362
  0
SEQEND
  8
0
  0
POLYLINE
  8
PLAN_1
 62
     5
  6
CONTINUOUS
 66
     1
 40
0.003000
 41
0.003000
  0
VERTEX
  8
PLAN_1
 62
     5
  6
CONTINUOUS
 10
-1.716594
 20
1.127362
  0
VERTEX
  8
PLAN_1
 62
     5
  6
CONTINUOUS
 10
-1.708425
 20
1.127362
  0
SEQEND
  8
0
  0
POLYLINE
  8
PLAN_1
 62
     5
  6
CONTINUOUS
 66
     1
 40
0.003000
 41
0.003000
  0
VERTEX
  8
PLAN_1
 62
     5
  6
CONTINUOUS
 10
-1.699803
 20
1.127362
  0
VERTEX
  8
PLAN_1
 62
     5
  6
CONTINUOUS
 10
-1.691634
 20
1.127362
  0
SEQEND
  8
0
  0
POLYLINE
  8
PLAN_1
 62
     5
  6
CONTINUOUS
 66
     1
 40
0.003000
 41
0.003000
  0
VERTEX
  8
PLAN_1
 62
     5
  6
CONTINUOUS
 10
-1.683469
 20
1.127362
  0
VERTEX
  8
PLAN_1
 62
     5
  6
CONTINUOUS
 10
-1.674846
 20
1.127362
  0
SEQEND
  8
0
  0
POLYLINE
  8
PLAN_1
 62
     5
  6
CONTINUOUS
 66
     1
 40
0.003000
 41
0.003000
  0
VERTEX
  8
PLAN_1
 62
     5
  6
CONTINUOUS
 10
-1.666677
 20
1.127362
  0
VERTEX
  8
PLAN_1
 62
     5
  6
CONTINUOUS
 10
-1.658508
 20
1.127362
  0
SEQEND
  8
0
  0
POLYLINE
  8
PLAN_1
 62
     5
  6
CONTINUOUS
 66
     1
 40
0.003000
 41
0.003000
  0
VERTEX
  8
PLAN_1
 62
     5
  6
CONTINUOUS
 10
-1.649886
 20
1.127362
  0
VERTEX
  8
PLAN_1
 62
     5
  6
CONTINUOUS
 10
-1.641720
 20
1.127362
  0
SEQEND
  8
0
  0
POLYLINE
  8
PLAN_1
 62
     5
  6
CONTINUOUS
 66
     1
 40
0.003000
 41
0.003000
  0
VERTEX
  8
PLAN_1
 62
     5
  6
CONTINUOUS
 10
-1.633551
 20
1.127362
  0
VERTEX
  8
PLAN_1
 62
     5
  6
CONTINUOUS
 10
-1.624929
 20
1.127362
  0
SEQEND
  8
0
  0
POLYLINE
  8
PLAN_1
 62
     5
  6
CONTINUOUS
 66
     1
 40
0.003000
 41
0.003000
  0
VERTEX
  8
PLAN_1
 62
     5
  6
CONTINUOUS
 10
-1.616760
 20
1.127362
  0
VERTEX
  8
PLAN_1
 62
     5
  6
CONTINUOUS
 10
-1.608591
 20
1.127362
  0
SEQEND
  8
0
  0
POLYLINE
  8
PLAN_1
 62
     5
  6
CONTINUOUS
 66
     1
 40
0.003000
 41
0.003000
  0
VERTEX
  8
PLAN_1
 62
     5
  6
CONTINUOUS
 10
-1.599969
 20
1.127362
  0
VERTEX
  8
PLAN_1
 62
     5
  6
CONTINUOUS
 10
-1.591803
 20
1.127362
  0
SEQEND
  8
0
  0
POLYLINE
  8
PLAN_1
 62
     5
  6
CONTINUOUS
 66
     1
 40
0.003000
 41
0.003000
  0
VERTEX
  8
PLAN_1
 62
     5
  6
CONTINUOUS
 10
-1.583181
 20
1.127362
  0
VERTEX
  8
PLAN_1
 62
     5
  6
CONTINUOUS
 10
-1.575012
 20
1.127362
  0
SEQEND
  8
0
  0
POLYLINE
  8
PLAN_1
 62
     5
  6
CONTINUOUS
 66
     1
 40
0.003000
 41
0.003000
  0
VERTEX
  8
PLAN_1
 62
     5
  6
CONTINUOUS
 10
-1.566843
 20
1.127362
  0
VERTEX
  8
PLAN_1
 62
     5
  6
CONTINUOUS
 10
-1.558220
 20
1.127362
  0
SEQEND
  8
0
  0
POLYLINE
  8
PLAN_1
 62
     5
  6
CONTINUOUS
 66
     1
 40
0.003000
 41
0.003000
  0
VERTEX
  8
PLAN_1
 62
     5
  6
CONTINUOUS
 10
-1.550055
 20
1.127362
  0
VERTEX
  8
PLAN_1
 62
     5
  6
CONTINUOUS
 10
-1.541886
 20
1.127362
  0
SEQEND
  8
0
  0
POLYLINE
  8
PLAN_1
 62
     5
  6
CONTINUOUS
 66
     1
 40
0.003000
 41
0.003000
  0
VERTEX
  8
PLAN_1
 62
     5
  6
CONTINUOUS
 10
-1.533264
 20
1.127362
  0
VERTEX
  8
PLAN_1
 62
     5
  6
CONTINUOUS
 10
-1.525094
 20
1.127362
  0
SEQEND
  8
0
  0
POLYLINE
  8
PLAN_1
 62
     5
  6
CONTINUOUS
 66
     1
 40
0.003000
 41
0.003000
  0
VERTEX
  8
PLAN_1
 62
     5
  6
CONTINUOUS
 10
-1.516925
 20
1.127362
  0
VERTEX
  8
PLAN_1
 62
     5
  6
CONTINUOUS
 10
-1.508303
 20
1.127362
  0
SEQEND
  8
0
  0
POLYLINE
  8
PLAN_1
 62
     5
  6
CONTINUOUS
 66
     1
 40
0.003000
 41
0.003000
  0
VERTEX
  8
PLAN_1
 62
     5
  6
CONTINUOUS
 10
-1.500138
 20
1.127362
  0
VERTEX
  8
PLAN_1
 62
     5
  6
CONTINUOUS
 10
-1.491969
 20
1.127362
  0
SEQEND
  8
0
  0
POLYLINE
  8
PLAN_1
 62
     5
  6
CONTINUOUS
 66
     1
 40
0.003000
 41
0.003000
  0
VERTEX
  8
PLAN_1
 62
     5
  6
CONTINUOUS
 10
-1.483346
 20
1.127362
  0
VERTEX
  8
PLAN_1
 62
     5
  6
CONTINUOUS
 10
-1.475177
 20
1.127362
  0
SEQEND
  8
0
  0
POLYLINE
  8
PLAN_1
 62
     5
  6
CONTINUOUS
 66
     1
 40
0.003000
 41
0.003000
  0
VERTEX
  8
PLAN_1
 62
     5
  6
CONTINUOUS
 10
-1.466555
 20
1.127362
  0
VERTEX
  8
PLAN_1
 62
     5
  6
CONTINUOUS
 10
-1.458390
 20
1.127362
  0
SEQEND
  8
0
  0
POLYLINE
  8
PLAN_1
 62
     5
  6
CONTINUOUS
 66
     1
 40
0.003000
 41
0.003000
  0
VERTEX
  8
PLAN_1
 62
     5
  6
CONTINUOUS
 10
-1.450220
 20
1.127362
  0
VERTEX
  8
PLAN_1
 62
     5
  6
CONTINUOUS
 10
-1.441598
 20
1.127362
  0
SEQEND
  8
0
  0
POLYLINE
  8
PLAN_1
 62
     5
  6
CONTINUOUS
 66
     1
 40
0.003000
 41
0.003000
  0
VERTEX
  8
PLAN_1
 62
     5
  6
CONTINUOUS
 10
-1.433429
 20
1.127362
  0
VERTEX
  8
PLAN_1
 62
     5
  6
CONTINUOUS
 10
-1.425264
 20
1.127362
  0
SEQEND
  8
0
  0
POLYLINE
  8
PLAN_1
 62
     5
  6
CONTINUOUS
 66
     1
 40
0.003000
 41
0.003000
  0
VERTEX
  8
PLAN_1
 62
     5
  6
CONTINUOUS
 10
-1.416642
 20
1.127362
  0
VERTEX
  8
PLAN_1
 62
     5
  6
CONTINUOUS
 10
-1.408472
 20
1.127362
  0
SEQEND
  8
0
  0
POLYLINE
  8
PLAN_1
 62
     5
  6
CONTINUOUS
 66
     1
 40
0.003000
 41
0.003000
  0
VERTEX
  8
PLAN_1
 62
     5
  6
CONTINUOUS
 10
-1.400303
 20
1.127362
  0
VERTEX
  8
PLAN_1
 62
     5
  6
CONTINUOUS
 10
-1.391681
 20
1.127362
  0
SEQEND
  8
0
  0
POLYLINE
  8
PLAN_1
 62
     5
  6
CONTINUOUS
 66
     1
 40
0.003000
 41
0.003000
  0
VERTEX
  8
PLAN_1
 62
     5
  6
CONTINUOUS
 10
-1.383512
 20
1.127362
  0
VERTEX
  8
PLAN_1
 62
     5
  6
CONTINUOUS
 10
-1.375346
 20
1.127362
  0
SEQEND
  8
0
  0
POLYLINE
  8
PLAN_1
 62
     5
  6
CONTINUOUS
 66
     1
 40
0.003000
 41
0.003000
  0
VERTEX
  8
PLAN_1
 62
     5
  6
CONTINUOUS
 10
-1.366724
 20
1.127362
  0
VERTEX
  8
PLAN_1
 62
     5
  6
CONTINUOUS
 10
-1.358555
 20
1.127362
  0
SEQEND
  8
0
  0
POLYLINE
  8
PLAN_1
 62
     5
  6
CONTINUOUS
 66
     1
 40
0.003000
 41
0.003000
  0
VERTEX
  8
PLAN_1
 62
     5
  6
CONTINUOUS
 10
-1.350386
 20
1.127362
  0
VERTEX
  8
PLAN_1
 62
     5
  6
CONTINUOUS
 10
-1.341764
 20
1.127362
  0
SEQEND
  8
0
  0
POLYLINE
  8
PLAN_1
 62
     5
  6
CONTINUOUS
 66
     1
 40
0.003000
 41
0.003000
  0
VERTEX
  8
PLAN_1
 62
     5
  6
CONTINUOUS
 10
-1.333598
 20
1.127362
  0
VERTEX
  8
PLAN_1
 62
     5
  6
CONTINUOUS
 10
-1.324976
 20
1.127362
  0
SEQEND
  8
0
  0
POLYLINE
  8
PLAN_1
 62
     5
  6
CONTINUOUS
 66
     1
 40
0.003000
 41
0.003000
  0
VERTEX
  8
PLAN_1
 62
     5
  6
CONTINUOUS
 10
-1.316807
 20
1.127362
  0
VERTEX
  8
PLAN_1
 62
     5
  6
CONTINUOUS
 10
-1.308638
 20
1.127362
  0
SEQEND
  8
0
  0
POLYLINE
  8
PLAN_1
 62
     5
  6
CONTINUOUS
 66
     1
 40
0.003000
 41
0.003000
  0
VERTEX
  8
PLAN_1
 62
     5
  6
CONTINUOUS
 10
-1.300016
 20
1.127362
  0
VERTEX
  8
PLAN_1
 62
     5
  6
CONTINUOUS
 10
-1.291850
 20
1.127362
  0
SEQEND
  8
0
  0
POLYLINE
  8
PLAN_1
 62
     5
  6
CONTINUOUS
 66
     1
 40
0.003000
 41
0.003000
  0
VERTEX
  8
PLAN_1
 62
     5
  6
CONTINUOUS
 10
-1.283681
 20
1.127362
  0
VERTEX
  8
PLAN_1
 62
     5
  6
CONTINUOUS
 10
-1.275059
 20
1.127362
  0
SEQEND
  8
0
  0
POLYLINE
  8
PLAN_1
 62
     5
  6
CONTINUOUS
 66
     1
 40
0.003000
 41
0.003000
  0
VERTEX
  8
PLAN_1
 62
     5
  6
CONTINUOUS
 10
-1.266890
 20
1.127362
  0
VERTEX
  8
PLAN_1
 62
     5
  6
CONTINUOUS
 10
-1.258720
 20
1.127362
  0
SEQEND
  8
0
  0
POLYLINE
  8
PLAN_1
 62
     5
  6
CONTINUOUS
 66
     1
 40
0.003000
 41
0.003000
  0
VERTEX
  8
PLAN_1
 62
     5
  6
CONTINUOUS
 10
-1.250098
 20
1.127362
  0
VERTEX
  8
PLAN_1
 62
     5
  6
CONTINUOUS
 10
-1.241933
 20
1.127362
  0
SEQEND
  8
0
  0
POLYLINE
  8
PLAN_1
 62
     5
  6
CONTINUOUS
 66
     1
 40
0.003000
 41
0.003000
  0
VERTEX
  8
PLAN_1
 62
     5
  6
CONTINUOUS
 10
-1.233764
 20
1.127362
  0
VERTEX
  8
PLAN_1
 62
     5
  6
CONTINUOUS
 10
-1.225142
 20
1.127362
  0
SEQEND
  8
0
  0
POLYLINE
  8
PLAN_1
 62
     5
  6
CONTINUOUS
 66
     1
 40
0.003000
 41
0.003000
  0
VERTEX
  8
PLAN_1
 62
     5
  6
CONTINUOUS
 10
-1.216972
 20
1.127362
  0
VERTEX
  8
PLAN_1
 62
     5
  6
CONTINUOUS
 10
-1.208807
 20
1.127362
  0
SEQEND
  8
0
  0
POLYLINE
  8
PLAN_1
 62
     5
  6
CONTINUOUS
 66
     1
 40
0.003000
 41
0.003000
  0
VERTEX
  8
PLAN_1
 62
     5
  6
CONTINUOUS
 10
-1.200185
 20
1.127362
  0
VERTEX
  8
PLAN_1
 62
     5
  6
CONTINUOUS
 10
-1.192016
 20
1.127362
  0
SEQEND
  8
0
  0
POLYLINE
  8
PLAN_1
 62
     5
  6
CONTINUOUS
 66
     1
 40
0.003000
 41
0.003000
  0
VERTEX
  8
PLAN_1
 62
     5
  6
CONTINUOUS
 10
-1.183394
 20
1.127362
  0
VERTEX
  8
PLAN_1
 62
     5
  6
CONTINUOUS
 10
-1.175224
 20
1.127362
  0
SEQEND
  8
0
  0
POLYLINE
  8
PLAN_1
 62
     5
  6
CONTINUOUS
 66
     1
 40
0.003000
 41
0.003000
  0
VERTEX
  8
PLAN_1
 62
     5
  6
CONTINUOUS
 10
-1.167055
 20
1.127362
  0
VERTEX
  8
PLAN_1
 62
     5
  6
CONTINUOUS
 10
-1.158433
 20
1.127362
  0
SEQEND
  8
0
  0
POLYLINE
  8
PLAN_1
 62
     5
  6
CONTINUOUS
 66
     1
 40
0.003000
 41
0.003000
  0
VERTEX
  8
PLAN_1
 62
     5
  6
CONTINUOUS
 10
-1.150268
 20
1.127362
  0
VERTEX
  8
PLAN_1
 62
     5
  6
CONTINUOUS
 10
-1.142098
 20
1.127362
  0
SEQEND
  8
0
  0
POLYLINE
  8
PLAN_1
 62
     5
  6
CONTINUOUS
 66
     1
 40
0.003000
 41
0.003000
  0
VERTEX
  8
PLAN_1
 62
     5
  6
CONTINUOUS
 10
-1.133476
 20
1.127362
  0
VERTEX
  8
PLAN_1
 62
     5
  6
CONTINUOUS
 10
-1.125307
 20
1.127362
  0
SEQEND
  8
0
  0
POLYLINE
  8
PLAN_1
 62
     5
  6
CONTINUOUS
 66
     1
 40
0.003000
 41
0.003000
  0
VERTEX
  8
PLAN_1
 62
     5
  6
CONTINUOUS
 10
-1.117142
 20
1.127362
  0
VERTEX
  8
PLAN_1
 62
     5
  6
CONTINUOUS
 10
-1.108520
 20
1.127362
  0
SEQEND
  8
0
  0
POLYLINE
  8
PLAN_1
 62
     5
  6
CONTINUOUS
 66
     1
 40
0.003000
 41
0.003000
  0
VERTEX
  8
PLAN_1
 62
     5
  6
CONTINUOUS
 10
-1.100350
 20
1.127362
  0
VERTEX
  8
PLAN_1
 62
     5
  6
CONTINUOUS
 10
-1.092181
 20
1.127362
  0
SEQEND
  8
0
  0
POLYLINE
  8
PLAN_1
 62
     5
  6
CONTINUOUS
 66
     1
 40
0.003000
 41
0.003000
  0
VERTEX
  8
PLAN_1
 62
     5
  6
CONTINUOUS
 10
-1.083559
 20
1.127362
  0
VERTEX
  8
PLAN_1
 62
     5
  6
CONTINUOUS
 10
-1.075394
 20
1.127362
  0
SEQEND
  8
0
  0
POLYLINE
  8
PLAN_1
 62
     5
  6
CONTINUOUS
 66
     1
 40
0.003000
 41
0.003000
  0
VERTEX
  8
PLAN_1
 62
     5
  6
CONTINUOUS
 10
-1.067224
 20
1.127362
  0
VERTEX
  8
PLAN_1
 62
     5
  6
CONTINUOUS
 10
-1.058602
 20
1.127362
  0
SEQEND
  8
0
  0
POLYLINE
  8
PLAN_1
 62
     5
  6
CONTINUOUS
 66
     1
 40
0.003000
 41
0.003000
  0
VERTEX
  8
PLAN_1
 62
     5
  6
CONTINUOUS
 10
-1.050433
 20
1.127362
  0
VERTEX
  8
PLAN_1
 62
     5
  6
CONTINUOUS
 10
-1.041811
 20
1.127362
  0
SEQEND
  8
0
  0
POLYLINE
  8
PLAN_1
 62
     5
  6
CONTINUOUS
 66
     1
 40
0.003000
 41
0.003000
  0
VERTEX
  8
PLAN_1
 62
     5
  6
CONTINUOUS
 10
-1.033642
 20
1.127362
  0
VERTEX
  8
PLAN_1
 62
     5
  6
CONTINUOUS
 10
-1.025476
 20
1.127362
  0
SEQEND
  8
0
  0
POLYLINE
  8
PLAN_1
 62
     5
  6
CONTINUOUS
 66
     1
 40
0.003000
 41
0.003000
  0
VERTEX
  8
PLAN_1
 62
     5
  6
CONTINUOUS
 10
-1.016854
 20
1.127362
  0
VERTEX
  8
PLAN_1
 62
     5
  6
CONTINUOUS
 10
-1.008685
 20
1.127362
  0
SEQEND
  8
0
  0
POLYLINE
  8
PLAN_1
 62
     5
  6
CONTINUOUS
 66
     1
 40
0.003000
 41
0.003000
  0
VERTEX
  8
PLAN_1
 62
     5
  6
CONTINUOUS
 10
-1.000516
 20
1.127362
  0
VERTEX
  8
PLAN_1
 62
     5
  6
CONTINUOUS
 10
-0.991894
 20
1.127362
  0
SEQEND
  8
0
  0
POLYLINE
  8
PLAN_1
 62
     5
  6
CONTINUOUS
 66
     1
 40
0.003000
 41
0.003000
  0
VERTEX
  8
PLAN_1
 62
     5
  6
CONTINUOUS
 10
-0.983728
 20
1.127362
  0
VERTEX
  8
PLAN_1
 62
     5
  6
CONTINUOUS
 10
-0.975559
 20
1.127362
  0
SEQEND
  8
0
  0
POLYLINE
  8
PLAN_1
 62
     5
  6
CONTINUOUS
 66
     1
 40
0.003000
 41
0.003000
  0
VERTEX
  8
PLAN_1
 62
     5
  6
CONTINUOUS
 10
-0.966937
 20
1.127362
  0
VERTEX
  8
PLAN_1
 62
     5
  6
CONTINUOUS
 10
-0.958768
 20
1.127362
  0
SEQEND
  8
0
  0
POLYLINE
  8
PLAN_1
 62
     5
  6
CONTINUOUS
 66
     1
 40
0.003000
 41
0.003000
  0
VERTEX
  8
PLAN_1
 62
     5
  6
CONTINUOUS
 10
-0.950602
 20
1.127362
  0
VERTEX
  8
PLAN_1
 62
     5
  6
CONTINUOUS
 10
-0.941980
 20
1.127362
  0
SEQEND
  8
0
  0
POLYLINE
  8
PLAN_1
 62
     5
  6
CONTINUOUS
 66
     1
 40
0.003000
 41
0.003000
  0
VERTEX
  8
PLAN_1
 62
     5
  6
CONTINUOUS
 10
-0.933811
 20
1.127362
  0
VERTEX
  8
PLAN_1
 62
     5
  6
CONTINUOUS
 10
-0.925642
 20
1.127362
  0
SEQEND
  8
0
  0
POLYLINE
  8
PLAN_1
 62
     5
  6
CONTINUOUS
 66
     1
 40
0.003000
 41
0.003000
  0
VERTEX
  8
PLAN_1
 62
     5
  6
CONTINUOUS
 10
-0.917020
 20
1.127362
  0
VERTEX
  8
PLAN_1
 62
     5
  6
CONTINUOUS
 10
-0.908850
 20
1.127362
  0
SEQEND
  8
0
  0
POLYLINE
  8
PLAN_1
 62
     5
  6
CONTINUOUS
 66
     1
 40
0.003000
 41
0.003000
  0
VERTEX
  8
PLAN_1
 62
     5
  6
CONTINUOUS
 10
-0.900228
 20
1.127362
  0
VERTEX
  8
PLAN_1
 62
     5
  6
CONTINUOUS
 10
-0.892063
 20
1.127362
  0
SEQEND
  8
0
  0
POLYLINE
  8
PLAN_1
 62
     5
  6
CONTINUOUS
 66
     1
 40
0.003000
 41
0.003000
  0
VERTEX
  8
PLAN_1
 62
     5
  6
CONTINUOUS
 10
-0.883894
 20
1.127362
  0
VERTEX
  8
PLAN_1
 62
     5
  6
CONTINUOUS
 10
-0.875272
 20
1.127362
  0
SEQEND
  8
0
  0
POLYLINE
  8
PLAN_1
 62
     5
  6
CONTINUOUS
 66
     1
 40
0.003000
 41
0.003000
  0
VERTEX
  8
PLAN_1
 62
     5
  6
CONTINUOUS
 10
-0.867102
 20
1.127362
  0
VERTEX
  8
PLAN_1
 62
     5
  6
CONTINUOUS
 10
-0.858937
 20
1.127362
  0
SEQEND
  8
0
  0
POLYLINE
  8
PLAN_1
 62
     5
  6
CONTINUOUS
 66
     1
 40
0.003000
 41
0.003000
  0
VERTEX
  8
PLAN_1
 62
     5
  6
CONTINUOUS
 10
-0.850315
 20
1.127362
  0
VERTEX
  8
PLAN_1
 62
     5
  6
CONTINUOUS
 10
-0.842146
 20
1.127362
  0
SEQEND
  8
0
  0
POLYLINE
  8
PLAN_1
 62
     5
  6
CONTINUOUS
 66
     1
 40
0.003000
 41
0.003000
  0
VERTEX
  8
PLAN_1
 62
     5
  6
CONTINUOUS
 10
-0.833976
 20
1.127362
  0
VERTEX
  8
PLAN_1
 62
     5
  6
CONTINUOUS
 10
-0.825354
 20
1.127362
  0
SEQEND
  8
0
  0
POLYLINE
  8
PLAN_1
 62
     5
  6
CONTINUOUS
 66
     1
 40
0.003000
 41
0.003000
  0
VERTEX
  8
PLAN_1
 62
     5
  6
CONTINUOUS
 10
-0.817185
 20
1.127362
  0
VERTEX
  8
PLAN_1
 62
     5
  6
CONTINUOUS
 10
-0.809020
 20
1.127362
  0
SEQEND
  8
0
  0
POLYLINE
  8
PLAN_1
 62
     5
  6
CONTINUOUS
 66
     1
 40
0.003000
 41
0.003000
  0
VERTEX
  8
PLAN_1
 62
     5
  6
CONTINUOUS
 10
-0.800398
 20
1.127362
  0
VERTEX
  8
PLAN_1
 62
     5
  6
CONTINUOUS
 10
-0.792228
 20
1.127362
  0
SEQEND
  8
0
  0
POLYLINE
  8
PLAN_1
 62
     5
  6
CONTINUOUS
 66
     1
 40
0.003000
 41
0.003000
  0
VERTEX
  8
PLAN_1
 62
     5
  6
CONTINUOUS
 10
-0.784059
 20
1.127362
  0
VERTEX
  8
PLAN_1
 62
     5
  6
CONTINUOUS
 10
-0.775437
 20
1.127362
  0
SEQEND
  8
0
  0
POLYLINE
  8
PLAN_1
 62
     5
  6
CONTINUOUS
 66
     1
 40
0.003000
 41
0.003000
  0
VERTEX
  8
PLAN_1
 62
     5
  6
CONTINUOUS
 10
-0.767272
 20
1.127362
  0
VERTEX
  8
PLAN_1
 62
     5
  6
CONTINUOUS
 10
-0.758650
 20
1.127362
  0
SEQEND
  8
0
  0
POLYLINE
  8
PLAN_1
 62
     5
  6
CONTINUOUS
 66
     1
 40
0.003000
 41
0.003000
  0
VERTEX
  8
PLAN_1
 62
     5
  6
CONTINUOUS
 10
-0.750480
 20
1.127362
  0
VERTEX
  8
PLAN_1
 62
     5
  6
CONTINUOUS
 10
-0.742311
 20
1.127362
  0
SEQEND
  8
0
  0
POLYLINE
  8
PLAN_1
 62
     5
  6
CONTINUOUS
 66
     1
 40
0.003000
 41
0.003000
  0
VERTEX
  8
PLAN_1
 62
     5
  6
CONTINUOUS
 10
-0.733689
 20
1.127362
  0
VERTEX
  8
PLAN_1
 62
     5
  6
CONTINUOUS
 10
-0.725524
 20
1.127362
  0
SEQEND
  8
0
  0
POLYLINE
  8
PLAN_1
 62
     5
  6
CONTINUOUS
 66
     1
 40
0.003000
 41
0.003000
  0
VERTEX
  8
PLAN_1
 62
     5
  6
CONTINUOUS
 10
-0.717354
 20
1.127362
  0
VERTEX
  8
PLAN_1
 62
     5
  6
CONTINUOUS
 10
-0.708732
 20
1.127362
  0
SEQEND
  8
0
  0
POLYLINE
  8
PLAN_1
 62
     5
  6
CONTINUOUS
 66
     1
 40
0.003000
 41
0.003000
  0
VERTEX
  8
PLAN_1
 62
     5
  6
CONTINUOUS
 10
-0.700563
 20
1.127362
  0
VERTEX
  8
PLAN_1
 62
     5
  6
CONTINUOUS
 10
-0.692394
 20
1.127362
  0
SEQEND
  8
0
  0
POLYLINE
  8
PLAN_1
 62
     5
  6
CONTINUOUS
 66
     1
 40
0.003000
 41
0.003000
  0
VERTEX
  8
PLAN_1
 62
     5
  6
CONTINUOUS
 10
-0.683772
 20
1.127362
  0
VERTEX
  8
PLAN_1
 62
     5
  6
CONTINUOUS
 10
-0.675606
 20
1.127362
  0
SEQEND
  8
0
  0
POLYLINE
  8
PLAN_1
 62
     5
  6
CONTINUOUS
 66
     1
 40
0.003000
 41
0.003000
  0
VERTEX
  8
PLAN_1
 62
     5
  6
CONTINUOUS
 10
-0.667437
 20
1.127362
  0
VERTEX
  8
PLAN_1
 62
     5
  6
CONTINUOUS
 10
-0.658815
 20
1.127362
  0
SEQEND
  8
0
  0
POLYLINE
  8
PLAN_1
 62
     5
  6
CONTINUOUS
 66
     1
 40
0.003000
 41
0.003000
  0
VERTEX
  8
PLAN_1
 62
     5
  6
CONTINUOUS
 10
-0.650646
 20
1.127362
  0
VERTEX
  8
PLAN_1
 62
     5
  6
CONTINUOUS
 10
-0.642480
 20
1.127362
  0
SEQEND
  8
0
  0
POLYLINE
  8
PLAN_1
 62
     5
  6
CONTINUOUS
 66
     1
 40
0.003000
 41
0.003000
  0
VERTEX
  8
PLAN_1
 62
     5
  6
CONTINUOUS
 10
-0.633858
 20
1.127362
  0
VERTEX
  8
PLAN_1
 62
     5
  6
CONTINUOUS
 10
-0.625689
 20
1.127362
  0
SEQEND
  8
0
  0
POLYLINE
  8
PLAN_1
 62
     5
  6
CONTINUOUS
 66
     1
 40
0.003000
 41
0.003000
  0
VERTEX
  8
PLAN_1
 62
     5
  6
CONTINUOUS
 10
-0.617067
 20
1.127362
  0
VERTEX
  8
PLAN_1
 62
     5
  6
CONTINUOUS
 10
-0.608898
 20
1.127362
  0
SEQEND
  8
0
  0
POLYLINE
  8
PLAN_1
 62
     5
  6
CONTINUOUS
 66
     1
 40
0.003000
 41
0.003000
  0
VERTEX
  8
PLAN_1
 62
     5
  6
CONTINUOUS
 10
-0.600732
 20
1.127362
  0
VERTEX
  8
PLAN_1
 62
     5
  6
CONTINUOUS
 10
-0.592110
 20
1.127362
  0
SEQEND
  8
0
  0
POLYLINE
  8
PLAN_1
 62
     5
  6
CONTINUOUS
 66
     1
 40
0.003000
 41
0.003000
  0
VERTEX
  8
PLAN_1
 62
     5
  6
CONTINUOUS
 10
-0.583941
 20
1.127362
  0
VERTEX
  8
PLAN_1
 62
     5
  6
CONTINUOUS
 10
-0.575772
 20
1.127362
  0
SEQEND
  8
0
  0
POLYLINE
  8
PLAN_1
 62
     5
  6
CONTINUOUS
 66
     1
 40
0.003000
 41
0.003000
  0
VERTEX
  8
PLAN_1
 62
     5
  6
CONTINUOUS
 10
-0.567150
 20
1.127362
  0
VERTEX
  8
PLAN_1
 62
     5
  6
CONTINUOUS
 10
-0.558980
 20
1.127362
  0
SEQEND
  8
0
  0
POLYLINE
  8
PLAN_1
 62
     5
  6
CONTINUOUS
 66
     1
 40
0.003000
 41
0.003000
  0
VERTEX
  8
PLAN_1
 62
     5
  6
CONTINUOUS
 10
-0.550815
 20
1.127362
  0
VERTEX
  8
PLAN_1
 62
     5
  6
CONTINUOUS
 10
-0.549000
 20
1.127362
  0
VERTEX
  8
PLAN_1
 62
     5
  6
CONTINUOUS
 10
-0.549000
 20
1.120555
  0
SEQEND
  8
0
  0
POLYLINE
  8
PLAN_1
 62
     5
  6
CONTINUOUS
 66
     1
 40
0.003000
 41
0.003000
  0
VERTEX
  8
PLAN_1
 62
     5
  6
CONTINUOUS
 10
-0.549000
 20
1.112386
  0
VERTEX
  8
PLAN_1
 62
     5
  6
CONTINUOUS
 10
-0.549000
 20
1.104220
  0
SEQEND
  8
0
  0
POLYLINE
  8
PLAN_1
 62
     5
  6
CONTINUOUS
 66
     1
 40
0.003000
 41
0.003000
  0
VERTEX
  8
PLAN_1
 62
     5
  6
CONTINUOUS
 10
-0.549000
 20
1.095598
  0
VERTEX
  8
PLAN_1
 62
     5
  6
CONTINUOUS
 10
-0.549000
 20
1.087429
  0
SEQEND
  8
0
  0
POLYLINE
  8
PLAN_1
 62
     5
  6
CONTINUOUS
 66
     1
 40
0.003000
 41
0.003000
  0
VERTEX
  8
PLAN_1
 62
     5
  6
CONTINUOUS
 10
-0.549000
 20
1.078807
  0
VERTEX
  8
PLAN_1
 62
     5
  6
CONTINUOUS
 10
-0.549000
 20
1.070638
  0
SEQEND
  8
0
  0
POLYLINE
  8
PLAN_1
 62
     5
  6
CONTINUOUS
 66
     1
 40
0.003000
 41
0.003000
  0
VERTEX
  8
PLAN_1
 62
     5
  6
CONTINUOUS
 10
-0.549000
 20
1.062472
  0
VERTEX
  8
PLAN_1
 62
     5
  6
CONTINUOUS
 10
-0.549000
 20
1.053850
  0
SEQEND
  8
0
  0
POLYLINE
  8
PLAN_1
 62
     5
  6
CONTINUOUS
 66
     1
 40
0.003000
 41
0.003000
  0
VERTEX
  8
PLAN_1
 62
     5
  6
CONTINUOUS
 10
-0.549000
 20
1.045681
  0
VERTEX
  8
PLAN_1
 62
     5
  6
CONTINUOUS
 10
-0.549000
 20
1.037512
  0
SEQEND
  8
0
  0
POLYLINE
  8
PLAN_1
 62
     5
  6
CONTINUOUS
 66
     1
 40
0.003000
 41
0.003000
  0
VERTEX
  8
PLAN_1
 62
     5
  6
CONTINUOUS
 10
-0.549000
 20
1.028890
  0
VERTEX
  8
PLAN_1
 62
     5
  6
CONTINUOUS
 10
-0.549000
 20
1.020724
  0
SEQEND
  8
0
  0
POLYLINE
  8
PLAN_1
 62
     5
  6
CONTINUOUS
 66
     1
 40
0.003000
 41
0.003000
  0
VERTEX
  8
PLAN_1
 62
     5
  6
CONTINUOUS
 10
-0.549000
 20
1.012555
  0
VERTEX
  8
PLAN_1
 62
     5
  6
CONTINUOUS
 10
-0.549000
 20
1.003933
  0
SEQEND
  8
0
  0
POLYLINE
  8
PLAN_1
 62
     5
  6
CONTINUOUS
 66
     1
 40
0.003000
 41
0.003000
  0
VERTEX
  8
PLAN_1
 62
     5
  6
CONTINUOUS
 10
-0.549000
 20
0.995764
  0
VERTEX
  8
PLAN_1
 62
     5
  6
CONTINUOUS
 10
-0.549000
 20
0.990319
  0
VERTEX
  8
PLAN_1
 62
     5
  6
CONTINUOUS
 10
-0.545823
 20
0.990319
  0
SEQEND
  8
0
  0
POLYLINE
  8
PLAN_1
 62
     5
  6
CONTINUOUS
 66
     1
 40
0.003000
 41
0.003000
  0
VERTEX
  8
PLAN_1
 62
     5
  6
CONTINUOUS
 10
-0.537654
 20
0.990319
  0
VERTEX
  8
PLAN_1
 62
     5
  6
CONTINUOUS
 10
-0.529031
 20
0.990319
  0
SEQEND
  8
0
  0
POLYLINE
  8
PLAN_1
 62
     5
  6
CONTINUOUS
 66
     1
 40
0.003000
 41
0.003000
  0
VERTEX
  8
PLAN_1
 62
     5
  6
CONTINUOUS
 10
-0.520862
 20
0.990319
  0
VERTEX
  8
PLAN_1
 62
     5
  6
CONTINUOUS
 10
-0.512697
 20
0.990319
  0
SEQEND
  8
0
  0
POLYLINE
  8
PLAN_1
 62
     5
  6
CONTINUOUS
 66
     1
 40
0.003000
 41
0.003000
  0
VERTEX
  8
PLAN_1
 62
     5
  6
CONTINUOUS
 10
-0.511335
 20
0.983512
  0
VERTEX
  8
PLAN_1
 62
     5
  6
CONTINUOUS
 10
-0.511335
 20
0.974890
  0
SEQEND
  8
0
  0
POLYLINE
  8
PLAN_1
 62
     5
  6
CONTINUOUS
 66
     1
 40
0.003000
 41
0.003000
  0
VERTEX
  8
PLAN_1
 62
     5
  6
CONTINUOUS
 10
-0.511335
 20
0.966720
  0
VERTEX
  8
PLAN_1
 62
     5
  6
CONTINUOUS
 10
-0.511335
 20
0.958555
  0
SEQEND
  8
0
  0
POLYLINE
  8
PLAN_1
 62
     5
  6
CONTINUOUS
 66
     1
 40
0.003000
 41
0.003000
  0
VERTEX
  8
PLAN_1
 62
     5
  6
CONTINUOUS
 10
-0.511335
 20
0.949933
  0
VERTEX
  8
PLAN_1
 62
     5
  6
CONTINUOUS
 10
-0.511335
 20
0.941764
  0
SEQEND
  8
0
  0
POLYLINE
  8
PLAN_1
 62
     5
  6
CONTINUOUS
 66
     1
 40
0.003000
 41
0.003000
  0
VERTEX
  8
PLAN_1
 62
     5
  6
CONTINUOUS
 10
-0.511335
 20
0.933594
  0
VERTEX
  8
PLAN_1
 62
     5
  6
CONTINUOUS
 10
-0.511335
 20
0.924972
  0
SEQEND
  8
0
  0
POLYLINE
  8
PLAN_1
 62
     5
  6
CONTINUOUS
 66
     1
 40
0.003000
 41
0.003000
  0
VERTEX
  8
PLAN_1
 62
     5
  6
CONTINUOUS
 10
-0.511335
 20
0.916807
  0
VERTEX
  8
PLAN_1
 62
     5
  6
CONTINUOUS
 10
-0.511335
 20
0.908638
  0
SEQEND
  8
0
  0
POLYLINE
  8
PLAN_1
 62
     5
  6
CONTINUOUS
 66
     1
 40
0.003000
 41
0.003000
  0
VERTEX
  8
PLAN_1
 62
     5
  6
CONTINUOUS
 10
-0.511335
 20
0.900016
  0
VERTEX
  8
PLAN_1
 62
     5
  6
CONTINUOUS
 10
-0.511335
 20
0.891846
  0
SEQEND
  8
0
  0
POLYLINE
  8
PLAN_1
 62
     5
  6
CONTINUOUS
 66
     1
 40
0.003000
 41
0.003000
  0
VERTEX
  8
PLAN_1
 62
     5
  6
CONTINUOUS
 10
-0.511335
 20
0.883224
  0
VERTEX
  8
PLAN_1
 62
     5
  6
CONTINUOUS
 10
-0.511335
 20
0.875055
  0
SEQEND
  8
0
  0
POLYLINE
  8
PLAN_1
 62
     5
  6
CONTINUOUS
 66
     1
 40
0.003000
 41
0.003000
  0
VERTEX
  8
PLAN_1
 62
     5
  6
CONTINUOUS
 10
-0.511335
 20
0.866890
  0
VERTEX
  8
PLAN_1
 62
     5
  6
CONTINUOUS
 10
-0.511335
 20
0.858268
  0
SEQEND
  8
0
  0
POLYLINE
  8
PLAN_1
 62
     5
  6
CONTINUOUS
 66
     1
 40
0.003000
 41
0.003000
  0
VERTEX
  8
PLAN_1
 62
     5
  6
CONTINUOUS
 10
-0.511335
 20
0.850098
  0
VERTEX
  8
PLAN_1
 62
     5
  6
CONTINUOUS
 10
-0.511335
 20
0.841929
  0
SEQEND
  8
0
  0
POLYLINE
  8
PLAN_1
 62
     5
  6
CONTINUOUS
 66
     1
 40
0.003000
 41
0.003000
  0
VERTEX
  8
PLAN_1
 62
     5
  6
CONTINUOUS
 10
-0.511335
 20
0.833307
  0
VERTEX
  8
PLAN_1
 62
     5
  6
CONTINUOUS
 10
-0.511335
 20
0.825142
  0
SEQEND
  8
0
  0
POLYLINE
  8
PLAN_1
 62
     5
  6
CONTINUOUS
 66
     1
 40
0.003000
 41
0.003000
  0
VERTEX
  8
PLAN_1
 62
     5
  6
CONTINUOUS
 10
-0.511335
 20
0.816972
  0
VERTEX
  8
PLAN_1
 62
     5
  6
CONTINUOUS
 10
-0.511335
 20
0.808350
  0
SEQEND
  8
0
  0
POLYLINE
  8
PLAN_1
 62
     5
  6
CONTINUOUS
 66
     1
 40
0.003000
 41
0.003000
  0
VERTEX
  8
PLAN_1
 62
     5
  6
CONTINUOUS
 10
-0.511335
 20
0.800181
  0
VERTEX
  8
PLAN_1
 62
     5
  6
CONTINUOUS
 10
-0.511335
 20
0.792016
  0
SEQEND
  8
0
  0
POLYLINE
  8
PLAN_1
 62
     5
  6
CONTINUOUS
 66
     1
 40
0.003000
 41
0.003000
  0
VERTEX
  8
PLAN_1
 62
     5
  6
CONTINUOUS
 10
-0.511335
 20
0.783394
  0
VERTEX
  8
PLAN_1
 62
     5
  6
CONTINUOUS
 10
-0.511335
 20
0.775224
  0
SEQEND
  8
0
  0
POLYLINE
  8
PLAN_1
 62
     5
  6
CONTINUOUS
 66
     1
 40
0.003000
 41
0.003000
  0
VERTEX
  8
PLAN_1
 62
     5
  6
CONTINUOUS
 10
-0.511335
 20
0.767055
  0
VERTEX
  8
PLAN_1
 62
     5
  6
CONTINUOUS
 10
-0.511335
 20
0.758433
  0
SEQEND
  8
0
  0
POLYLINE
  8
PLAN_1
 62
     5
  6
CONTINUOUS
 66
     1
 40
0.003000
 41
0.003000
  0
VERTEX
  8
PLAN_1
 62
     5
  6
CONTINUOUS
 10
-0.511335
 20
0.750264
  0
VERTEX
  8
PLAN_1
 62
     5
  6
CONTINUOUS
 10
-0.511335
 20
0.741642
  0
SEQEND
  8
0
  0
POLYLINE
  8
PLAN_1
 62
     5
  6
CONTINUOUS
 66
     1
 40
0.003000
 41
0.003000
  0
VERTEX
  8
PLAN_1
 62
     5
  6
CONTINUOUS
 10
-0.511335
 20
0.733476
  0
VERTEX
  8
PLAN_1
 62
     5
  6
CONTINUOUS
 10
-0.511335
 20
0.725307
  0
SEQEND
  8
0
  0
POLYLINE
  8
PLAN_1
 62
     5
  6
CONTINUOUS
 66
     1
 40
0.003000
 41
0.003000
  0
VERTEX
  8
PLAN_1
 62
     5
  6
CONTINUOUS
 10
-0.511335
 20
0.716685
  0
VERTEX
  8
PLAN_1
 62
     5
  6
CONTINUOUS
 10
-0.519504
 20
0.716685
  0
SEQEND
  8
0
  0
POLYLINE
  8
PLAN_1
 62
     5
  6
CONTINUOUS
 66
     1
 40
0.003000
 41
0.003000
  0
VERTEX
  8
PLAN_1
 62
     5
  6
CONTINUOUS
 10
-0.528126
 20
0.716685
  0
VERTEX
  8
PLAN_1
 62
     5
  6
CONTINUOUS
 10
-0.536291
 20
0.716685
  0
SEQEND
  8
0
  0
POLYLINE
  8
PLAN_1
 62
     5
  6
CONTINUOUS
 66
     1
 40
0.003000
 41
0.003000
  0
VERTEX
  8
PLAN_1
 62
     5
  6
CONTINUOUS
 10
-0.544461
 20
0.716685
  0
VERTEX
  8
PLAN_1
 62
     5
  6
CONTINUOUS
 10
-0.549000
 20
0.716685
  0
VERTEX
  8
PLAN_1
 62
     5
  6
CONTINUOUS
 10
-0.549000
 20
0.712602
  0
SEQEND
  8
0
  0
POLYLINE
  8
PLAN_1
 62
     5
  6
CONTINUOUS
 66
     1
 40
0.003000
 41
0.003000
  0
VERTEX
  8
PLAN_1
 62
     5
  6
CONTINUOUS
 10
-0.549000
 20
0.704433
  0
VERTEX
  8
PLAN_1
 62
     5
  6
CONTINUOUS
 10
-0.549000
 20
0.696264
  0
SEQEND
  8
0
  0
POLYLINE
  8
PLAN_1
 62
     5
  6
CONTINUOUS
 66
     1
 40
0.003000
 41
0.003000
  0
VERTEX
  8
PLAN_1
 62
     5
  6
CONTINUOUS
 10
-0.549000
 20
0.687642
  0
VERTEX
  8
PLAN_1
 62
     5
  6
CONTINUOUS
 10
-0.549000
 20
0.679476
  0
SEQEND
  8
0
  0
POLYLINE
  8
PLAN_1
 62
     5
  6
CONTINUOUS
 66
     1
 40
0.003000
 41
0.003000
  0
VERTEX
  8
PLAN_1
 62
     5
  6
CONTINUOUS
 10
-0.549000
 20
0.671307
  0
VERTEX
  8
PLAN_1
 62
     5
  6
CONTINUOUS
 10
-0.549000
 20
0.662685
  0
SEQEND
  8
0
  0
POLYLINE
  8
PLAN_1
 62
     5
  6
CONTINUOUS
 66
     1
 40
0.003000
 41
0.003000
  0
VERTEX
  8
PLAN_1
 62
     5
  6
CONTINUOUS
 10
-0.549000
 20
0.654516
  0
VERTEX
  8
PLAN_1
 62
     5
  6
CONTINUOUS
 10
-0.549000
 20
0.646346
  0
SEQEND
  8
0
  0
POLYLINE
  8
PLAN_1
 62
     5
  6
CONTINUOUS
 66
     1
 40
0.003000
 41
0.003000
  0
VERTEX
  8
PLAN_1
 62
     5
  6
CONTINUOUS
 10
-0.549000
 20
0.637724
  0
VERTEX
  8
PLAN_1
 62
     5
  6
CONTINUOUS
 10
-0.549000
 20
0.629559
  0
SEQEND
  8
0
  0
POLYLINE
  8
PLAN_1
 62
     5
  6
CONTINUOUS
 66
     1
 40
0.003000
 41
0.003000
  0
VERTEX
  8
PLAN_1
 62
     5
  6
CONTINUOUS
 10
-0.549000
 20
0.621390
  0
VERTEX
  8
PLAN_1
 62
     5
  6
CONTINUOUS
 10
-0.549000
 20
0.612768
  0
SEQEND
  8
0
  0
POLYLINE
  8
PLAN_1
 62
     5
  6
CONTINUOUS
 66
     1
 40
0.003000
 41
0.003000
  0
VERTEX
  8
PLAN_1
 62
     5
  6
CONTINUOUS
 10
-0.549000
 20
0.604598
  0
VERTEX
  8
PLAN_1
 62
     5
  6
CONTINUOUS
 10
-0.549000
 20
0.596433
  0
SEQEND
  8
0
  0
POLYLINE
  8
PLAN_1
 62
     5
  6
CONTINUOUS
 66
     1
 40
0.003000
 41
0.003000
  0
VERTEX
  8
PLAN_1
 62
     5
  6
CONTINUOUS
 10
-0.549000
 20
0.587811
  0
VERTEX
  8
PLAN_1
 62
     5
  6
CONTINUOUS
 10
-0.549000
 20
0.579642
  0
SEQEND
  8
0
  0
POLYLINE
  8
PLAN_1
 62
     5
  6
CONTINUOUS
 66
     1
 40
0.003000
 41
0.003000
  0
VERTEX
  8
PLAN_1
 62
     5
  6
CONTINUOUS
 10
-0.549000
 20
0.571020
  0
VERTEX
  8
PLAN_1
 62
     5
  6
CONTINUOUS
 10
-0.549000
 20
0.562850
  0
SEQEND
  8
0
  0
POLYLINE
  8
PLAN_1
 62
     5
  6
CONTINUOUS
 66
     1
 40
0.003000
 41
0.003000
  0
VERTEX
  8
PLAN_1
 62
     5
  6
CONTINUOUS
 10
-0.549000
 20
0.554685
  0
VERTEX
  8
PLAN_1
 62
     5
  6
CONTINUOUS
 10
-0.549000
 20
0.546063
  0
SEQEND
  8
0
  0
POLYLINE
  8
PLAN_1
 62
     5
  6
CONTINUOUS
 66
     1
 40
0.003000
 41
0.003000
  0
VERTEX
  8
PLAN_1
 62
     5
  6
CONTINUOUS
 10
-0.549000
 20
0.537894
  0
VERTEX
  8
PLAN_1
 62
     5
  6
CONTINUOUS
 10
-0.549000
 20
0.529724
  0
SEQEND
  8
0
  0
POLYLINE
  8
PLAN_1
 62
     5
  6
CONTINUOUS
 66
     1
 40
0.003000
 41
0.003000
  0
VERTEX
  8
PLAN_1
 62
     5
  6
CONTINUOUS
 10
-0.549000
 20
0.521102
  0
VERTEX
  8
PLAN_1
 62
     5
  6
CONTINUOUS
 10
-0.549000
 20
0.512933
  0
SEQEND
  8
0
  0
POLYLINE
  8
PLAN_1
 62
     5
  6
CONTINUOUS
 66
     1
 40
0.003000
 41
0.003000
  0
VERTEX
  8
PLAN_1
 62
     5
  6
CONTINUOUS
 10
-0.549000
 20
0.504768
  0
VERTEX
  8
PLAN_1
 62
     5
  6
CONTINUOUS
 10
-0.549000
 20
0.496146
  0
SEQEND
  8
0
  0
POLYLINE
  8
PLAN_1
 62
     5
  6
CONTINUOUS
 66
     1
 40
0.003000
 41
0.003000
  0
VERTEX
  8
PLAN_1
 62
     5
  6
CONTINUOUS
 10
-0.549000
 20
0.487976
  0
VERTEX
  8
PLAN_1
 62
     5
  6
CONTINUOUS
 10
-0.549000
 20
0.479807
  0
SEQEND
  8
0
  0
POLYLINE
  8
PLAN_1
 62
     5
  6
CONTINUOUS
 66
     1
 40
0.003000
 41
0.003000
  0
VERTEX
  8
PLAN_1
 62
     5
  6
CONTINUOUS
 10
-0.549000
 20
0.471185
  0
VERTEX
  8
PLAN_1
 62
     5
  6
CONTINUOUS
 10
-0.549000
 20
0.463020
  0
SEQEND
  8
0
  0
POLYLINE
  8
PLAN_1
  6
CONTINUOUS
 66
     1
 40
0.008165
 41
0.008165
  0
VERTEX
  8
PLAN_1
  6
CONTINUOUS
 10
-1.470642
 20
1.128724
  0
VERTEX
  8
PLAN_1
  6
CONTINUOUS
 10
-1.470642
 20
1.294811
  0
VERTEX
  8
PLAN_1
  6
CONTINUOUS
 10
-1.805083
 20
1.294811
  0
SEQEND
  8
0
  0
POLYLINE
  8
PLAN_1
  6
CONTINUOUS
 66
     1
 40
0.008165
 41
0.008165
  0
VERTEX
  8
PLAN_1
  6
CONTINUOUS
 10
-0.546728
 20
1.294811
  0
VERTEX
  8
PLAN_1
  6
CONTINUOUS
 10
-0.863020
 20
1.294811
  0
VERTEX
  8
PLAN_1
  6
CONTINUOUS
 10
-0.863020
 20
1.128724
  0
SEQEND
  8
0
  0
POLYLINE
  8
PLAN_1
  6
CONTINUOUS
 66
     1
 40
0.008165
 41
0.008165
  0
VERTEX
  8
PLAN_1
  6
CONTINUOUS
 10
-1.570929
 20
1.130539
  0
VERTEX
  8
PLAN_1
  6
CONTINUOUS
 10
-1.570929
 20
1.294811
  0
SEQEND
  8
0
  0
POLYLINE
  8
PLAN_1
  6
CONTINUOUS
 66
     1
 40
0.008165
 41
0.008165
  0
VERTEX
  8
PLAN_1
  6
CONTINUOUS
 10
-0.777709
 20
1.130539
  0
VERTEX
  8
PLAN_1
  6
CONTINUOUS
 10
-0.777709
 20
1.294811
  0
SEQEND
  8
0
  0
POLYLINE
  8
PLAN_1
  6
CONTINUOUS
 66
     1
 40
0.004083
 41
0.004083
  0
VERTEX
  8
PLAN_1
  6
CONTINUOUS
 10
-1.184756
 20
3.162598
  0
VERTEX
  8
PLAN_1
  6
CONTINUOUS
 10
-1.184756
 20
3.250634
  0
SEQEND
  8
0
  0
POLYLINE
  8
PLAN_1
 62
     2
  6
CONTINUOUS
 66
     1
 40
0.004083
 41
0.004083
  0
VERTEX
  8
PLAN_1
 62
     2
  6
CONTINUOUS
 10
-1.155260
 20
3.533343
  0
VERTEX
  8
PLAN_1
 62
     2
  6
CONTINUOUS
 10
-0.544913
 20
3.533343
  0
SEQEND
  8
0
  0
SOLID
  8
PLAN_1
 62
     2
 10
-0.515417
 20
3.533343
 11
-0.574409
 21
3.548772
 12
-0.515417
 22
3.533343
 13
-0.574409
 23
3.517461
  0
POLYLINE
  8
PLAN_1
 62
     2
  6
CONTINUOUS
 66
     1
 40
0.003000
 41
0.003000
  0
VERTEX
  8
PLAN_1
 62
     2
  6
CONTINUOUS
 10
-0.515417
 20
3.533343
  0
VERTEX
  8
PLAN_1
 62
     2
  6
CONTINUOUS
 10
-0.574409
 20
3.548772
  0
VERTEX
  8
PLAN_1
 62
     2
  6
CONTINUOUS
 10
-0.574409
 20
3.517461
  0
VERTEX
  8
PLAN_1
 62
     2
  6
CONTINUOUS
 10
-0.515417
 20
3.533343
  0
SEQEND
  8
0
  0
SOLID
  8
PLAN_1
 62
     2
 10
-1.184756
 20
3.533343
 11
-1.125764
 21
3.548772
 12
-1.184756
 22
3.533343
 13
-1.125764
 23
3.517461
  0
POLYLINE
  8
PLAN_1
 62
     2
  6
CONTINUOUS
 66
     1
 40
0.003000
 41
0.003000
  0
VERTEX
  8
PLAN_1
 62
     2
  6
CONTINUOUS
 10
-1.184756
 20
3.533343
  0
VERTEX
  8
PLAN_1
 62
     2
  6
CONTINUOUS
 10
-1.125764
 20
3.548772
  0
VERTEX
  8
PLAN_1
 62
     2
  6
CONTINUOUS
 10
-1.125764
 20
3.517461
  0
VERTEX
  8
PLAN_1
 62
     2
  6
CONTINUOUS
 10
-1.184756
 20
3.533343
  0
SEQEND
  8
0
  0
POLYLINE
  8
PLAN_1
 62
     2
  6
CONTINUOUS
 66
     1
 40
0.003000
 41
0.003000
  0
VERTEX
  8
PLAN_1
 62
     2
  6
CONTINUOUS
 10
-0.870732
 20
3.556941
  0
VERTEX
  8
PLAN_1
 62
     2
  6
CONTINUOUS
 10
-0.880264
 20
3.556941
  0
VERTEX
  8
PLAN_1
 62
     2
  6
CONTINUOUS
 10
-0.880264
 20
3.608673
  0
VERTEX
  8
PLAN_1
 62
     2
  6
CONTINUOUS
 10
-0.897508
 20
3.608673
  0
VERTEX
  8
PLAN_1
 62
     2
  6
CONTINUOUS
 10
-0.897508
 20
3.615933
  0
VERTEX
  8
PLAN_1
 62
     2
  6
CONTINUOUS
 10
-0.893421
 20
3.616386
  0
VERTEX
  8
PLAN_1
 62
     2
  6
CONTINUOUS
 10
-0.889791
 20
3.616839
  0
VERTEX
  8
PLAN_1
 62
     2
  6
CONTINUOUS
 10
-0.886618
 20
3.617748
  0
VERTEX
  8
PLAN_1
 62
     2
  6
CONTINUOUS
 10
-0.884346
 20
3.618654
  0
VERTEX
  8
PLAN_1
 62
     2
  6
CONTINUOUS
 10
-0.882079
 20
3.620469
  0
VERTEX
  8
PLAN_1
 62
     2
  6
CONTINUOUS
 10
-0.880264
 20
3.622740
  0
VERTEX
  8
PLAN_1
 62
     2
  6
CONTINUOUS
 10
-0.878902
 20
3.625917
  0
VERTEX
  8
PLAN_1
 62
     2
  6
CONTINUOUS
 10
-0.877539
 20
3.630000
  0
VERTEX
  8
PLAN_1
 62
     2
  6
CONTINUOUS
 10
-0.870732
 20
3.630000
  0
VERTEX
  8
PLAN_1
 62
     2
  6
CONTINUOUS
 10
-0.870732
 20
3.556941
  0
SEQEND
  8
0
  0
POLYLINE
  8
PLAN_1
 62
     2
  6
CONTINUOUS
 66
     1
 40
0.003000
 41
0.003000
  0
VERTEX
  8
PLAN_1
 62
     2
  6
CONTINUOUS
 10
-0.846228
 20
3.628638
  0
VERTEX
  8
PLAN_1
 62
     2
  6
CONTINUOUS
 10
-0.795406
 20
3.628638
  0
VERTEX
  8
PLAN_1
 62
     2
  6
CONTINUOUS
 10
-0.795406
 20
3.620469
  0
VERTEX
  8
PLAN_1
 62
     2
  6
CONTINUOUS
 10
-0.798583
 20
3.616839
  0
VERTEX
  8
PLAN_1
 62
     2
  6
CONTINUOUS
 10
-0.802665
 20
3.611850
  0
VERTEX
  8
PLAN_1
 62
     2
  6
CONTINUOUS
 10
-0.806748
 20
3.605496
  0
VERTEX
  8
PLAN_1
 62
     2
  6
CONTINUOUS
 10
-0.811287
 20
3.598236
  0
VERTEX
  8
PLAN_1
 62
     2
  6
CONTINUOUS
 10
-0.815827
 20
3.589157
  0
VERTEX
  8
PLAN_1
 62
     2
  6
CONTINUOUS
 10
-0.819909
 20
3.579630
  0
VERTEX
  8
PLAN_1
 62
     2
  6
CONTINUOUS
 10
-0.821724
 20
3.574185
  0
VERTEX
  8
PLAN_1
 62
     2
  6
CONTINUOUS
 10
-0.823087
 20
3.568740
  0
VERTEX
  8
PLAN_1
 62
     2
  6
CONTINUOUS
 10
-0.824449
 20
3.562839
  0
VERTEX
  8
PLAN_1
 62
     2
  6
CONTINUOUS
 10
-0.825807
 20
3.556941
  0
VERTEX
  8
PLAN_1
 62
     2
  6
CONTINUOUS
 10
-0.835791
 20
3.556941
  0
VERTEX
  8
PLAN_1
 62
     2
  6
CONTINUOUS
 10
-0.834429
 20
3.564654
  0
VERTEX
  8
PLAN_1
 62
     2
  6
CONTINUOUS
 10
-0.832161
 20
3.572823
  0
VERTEX
  8
PLAN_1
 62
     2
  6
CONTINUOUS
 10
-0.828984
 20
3.580992
  0
VERTEX
  8
PLAN_1
 62
     2
  6
CONTINUOUS
 10
-0.825354
 20
3.589614
  0
VERTEX
  8
PLAN_1
 62
     2
  6
CONTINUOUS
 10
-0.820819
 20
3.597780
  0
VERTEX
  8
PLAN_1
 62
     2
  6
CONTINUOUS
 10
-0.816280
 20
3.605496
  0
VERTEX
  8
PLAN_1
 62
     2
  6
CONTINUOUS
 10
-0.811287
 20
3.612756
  0
VERTEX
  8
PLAN_1
 62
     2
  6
CONTINUOUS
 10
-0.805843
 20
3.619563
  0
VERTEX
  8
PLAN_1
 62
     2
  6
CONTINUOUS
 10
-0.846228
 20
3.619563
  0
VERTEX
  8
PLAN_1
 62
     2
  6
CONTINUOUS
 10
-0.846228
 20
3.628638
  0
SEQEND
  8
0
  0
POLYLINE
  8
PLAN_1
 62
     2
  6
CONTINUOUS
 66
     1
 40
0.004083
 41
0.004083
  0
VERTEX
  8
PLAN_1
 62
     2
  6
CONTINUOUS
 10
-1.290941
 20
3.352283
  0
VERTEX
  8
PLAN_1
 62
     2
  6
CONTINUOUS
 10
-1.082197
 20
3.352283
  0
SEQEND
  8
0
  0
SOLID
  8
PLAN_1
 62
     2
 10
-1.052701
 20
3.352283
 11
-1.111697
 21
3.367713
 12
-1.052701
 22
3.352283
 13
-1.111697
 23
3.336398
  0
POLYLINE
  8
PLAN_1
 62
     2
  6
CONTINUOUS
 66
     1
 40
0.003000
 41
0.003000
  0
VERTEX
  8
PLAN_1
 62
     2
  6
CONTINUOUS
 10
-1.052701
 20
3.352283
  0
VERTEX
  8
PLAN_1
 62
     2
  6
CONTINUOUS
 10
-1.111697
 20
3.367713
  0
VERTEX
  8
PLAN_1
 62
     2
  6
CONTINUOUS
 10
-1.111697
 20
3.336398
  0
VERTEX
  8
PLAN_1
 62
     2
  6
CONTINUOUS
 10
-1.052701
 20
3.352283
  0
SEQEND
  8
0
  0
SOLID
  8
PLAN_1
 62
     2
 10
-1.320437
 20
3.352283
 11
-1.261445
 21
3.367713
 12
-1.320437
 22
3.352283
 13
-1.261445
 23
3.336398
  0
POLYLINE
  8
PLAN_1
 62
     2
  6
CONTINUOUS
 66
     1
 40
0.003000
 41
0.003000
  0
VERTEX
  8
PLAN_1
 62
     2
  6
CONTINUOUS
 10
-1.320437
 20
3.352283
  0
VERTEX
  8
PLAN_1
 62
     2
  6
CONTINUOUS
 10
-1.261445
 20
3.367713
  0
VERTEX
  8
PLAN_1
 62
     2
  6
CONTINUOUS
 10
-1.261445
 20
3.336398
  0
VERTEX
  8
PLAN_1
 62
     2
  6
CONTINUOUS
 10
-1.320437
 20
3.352283
  0
SEQEND
  8
0
  0
POLYLINE
  8
PLAN_1
 62
     2
  6
CONTINUOUS
 66
     1
 40
0.003000
 41
0.003000
  0
VERTEX
  8
PLAN_1
 62
     2
  6
CONTINUOUS
 10
-1.211528
 20
3.447122
  0
VERTEX
  8
PLAN_1
 62
     2
  6
CONTINUOUS
 10
-1.161157
 20
3.447122
  0
VERTEX
  8
PLAN_1
 62
     2
  6
CONTINUOUS
 10
-1.161157
 20
3.439409
  0
VERTEX
  8
PLAN_1
 62
     2
  6
CONTINUOUS
 10
-1.164335
 20
3.435780
  0
VERTEX
  8
PLAN_1
 62
     2
  6
CONTINUOUS
 10
-1.167965
 20
3.430787
  0
VERTEX
  8
PLAN_1
 62
     2
  6
CONTINUOUS
 10
-1.172504
 20
3.424433
  0
VERTEX
  8
PLAN_1
 62
     2
  6
CONTINUOUS
 10
-1.177039
 20
3.417173
  0
VERTEX
  8
PLAN_1
 62
     2
  6
CONTINUOUS
 10
-1.181126
 20
3.408098
  0
VERTEX
  8
PLAN_1
 62
     2
  6
CONTINUOUS
 10
-1.185209
 20
3.398567
  0
VERTEX
  8
PLAN_1
 62
     2
  6
CONTINUOUS
 10
-1.187024
 20
3.393122
  0
VERTEX
  8
PLAN_1
 62
     2
  6
CONTINUOUS
 10
-1.188839
 20
3.387677
  0
VERTEX
  8
PLAN_1
 62
     2
  6
CONTINUOUS
 10
-1.190201
 20
3.381780
  0
VERTEX
  8
PLAN_1
 62
     2
  6
CONTINUOUS
 10
-1.191106
 20
3.375878
  0
VERTEX
  8
PLAN_1
 62
     2
  6
CONTINUOUS
 10
-1.201091
 20
3.375878
  0
VERTEX
  8
PLAN_1
 62
     2
  6
CONTINUOUS
 10
-1.199728
 20
3.383594
  0
VERTEX
  8
PLAN_1
 62
     2
  6
CONTINUOUS
 10
-1.197461
 20
3.391760
  0
VERTEX
  8
PLAN_1
 62
     2
  6
CONTINUOUS
 10
-1.194283
 20
3.399929
  0
VERTEX
  8
PLAN_1
 62
     2
  6
CONTINUOUS
 10
-1.190654
 20
3.408551
  0
VERTEX
  8
PLAN_1
 62
     2
  6
CONTINUOUS
 10
-1.186571
 20
3.416720
  0
VERTEX
  8
PLAN_1
 62
     2
  6
CONTINUOUS
 10
-1.181579
 20
3.424433
  0
VERTEX
  8
PLAN_1
 62
     2
  6
CONTINUOUS
 10
-1.176587
 20
3.431697
  0
VERTEX
  8
PLAN_1
 62
     2
  6
CONTINUOUS
 10
-1.171594
 20
3.438500
  0
VERTEX
  8
PLAN_1
 62
     2
  6
CONTINUOUS
 10
-1.211528
 20
3.438500
  0
VERTEX
  8
PLAN_1
 62
     2
  6
CONTINUOUS
 10
-1.211528
 20
3.447122
  0
SEQEND
  8
0
  0
POLYLINE
  8
PLAN_1
 62
     2
  6
CONTINUOUS
 66
     1
 40
0.004083
 41
0.004083
  0
VERTEX
  8
PLAN_1
 62
     2
  6
CONTINUOUS
 10
-1.320437
 20
3.217961
  0
VERTEX
  8
PLAN_1
 62
     2
  6
CONTINUOUS
 10
-1.320437
 20
3.375878
  0
SEQEND
  8
0
  0
POLYLINE
  8
PLAN_1
 62
     2
  6
CONTINUOUS
 66
     1
 40
0.004083
 41
0.004083
  0
VERTEX
  8
PLAN_1
 62
     2
  6
CONTINUOUS
 10
-1.052701
 20
3.217961
  0
VERTEX
  8
PLAN_1
 62
     2
  6
CONTINUOUS
 10
-1.052701
 20
3.375878
  0
SEQEND
  8
0
  0
POLYLINE
  8
PLAN_1
 62
     2
  6
CONTINUOUS
 66
     1
 40
0.004083
 41
0.004083
  0
VERTEX
  8
PLAN_1
 62
     2
  6
CONTINUOUS
 10
-1.184756
 20
3.474803
  0
VERTEX
  8
PLAN_1
 62
     2
  6
CONTINUOUS
 10
-1.184756
 20
3.556941
  0
SEQEND
  8
0
  0
POLYLINE
  8
PLAN_1
 62
     2
  6
CONTINUOUS
 66
     1
 40
0.004083
 41
0.004083
  0
VERTEX
  8
PLAN_1
 62
     2
  6
CONTINUOUS
 10
-0.515417
 20
1.013917
  0
VERTEX
  8
PLAN_1
 62
     2
  6
CONTINUOUS
 10
-0.515417
 20
3.563748
  0
SEQEND
  8
0
  0
ENDSEC
  0
EOF
