999
DXF file: C:\Users\sesa63760\Dev\_Creo\CAD\MCADID0004773_3D-CAD\drw0001_6.dxf
999
Pro/ENGINEER 2019471 by Parametric Technology Corporation
  0
SECTION
  2
HEADER
  9
$ACADVER
  1
AC1024
  9
$DWGCODEPAGE
  3
ANSI_1252
  9
$EXTMAX
 10
180.1289702274
 20
254.7538293217
 30
0.0
  9
$EXTMIN
 10
0.0
 20
0.0
 30
0.0
  9
$LIMMIN
 10
0.0
 20
0.0
  9
$LIMMAX
 10
180.1289702274
 20
254.7538293217
  9
$VIEWCTR
 10
90.0644851137
 20
127.3769146608
  9
$VIEWSIZE
 40
254.7538293217
  9
$CLAYER
  8
0
  9
$LTSCALE
 40
16.606175541
  9
$CELTYPE
  6
BYLAYER
  9
$DIMSCALE
 40
1.0
  9
$DIMASZ
 40
2.1443925027
  9
$DIMEXO
 40
1.0
  9
$DIMDLI
 40
11.4733576465
  9
$DIMEXE
 40
1.0
  9
$DIMCEN
 40
2.7173741794
  9
$DIMLFAC
 40
1.0
  9
$DIMBLK
  1
_FILLED
  9
$DIMALT
 70
0
  9
$DIMALTF
 40
0.0393700787
  9
$DIMTXT
 40
3.0021495038
  9
$DIMTOL
 70
1
  9
$DIMLIM
 70
0
  9
$DIMTFAC
 40
1.0
  9
$DIMTP
 40
0.01
  9
$DIMTM
 40
0.01
  9
$DIMGAP
 40
0.625
  9
$DIMDSEP
 70
46
  9
$AUNITS
 70
0
  9
$PDMODE
 70
3
  9
$PDSIZE
 40
0.3125
  9
$HANDSEED
  5
282
  9
$TILEMODE
 70
1
  9
$MEASUREMENT
 70
1
  9
$INSUNITS
 70
4
  0
ENDSEC
  0
SECTION
  2
CLASSES
  0
CLASS
  1
ACDBDICTIONARYWDFLT
  2
AcDbDictionaryWithDefault
  3
AutoCAD 2000
 90
0
 91
1
280
0
281
0
  0
CLASS
  1
ACDBPLACEHOLDER
  2
AcDbPlaceHolder
  3
AutoCAD 2000
 90
0
 91
1
280
0
281
0
  0
CLASS
  1
LAYOUT
  2
AcDbLayout
  3
AutoCAD 2000
 90
0
 91
0
280
0
281
0
  0
ENDSEC
  0
SECTION
  2
TABLES
  0
TABLE
  2
VPORT
  5
8
100
AcDbSymbolTable
 70
2
  0
VPORT
  5
1F4
100
AcDbSymbolTableRecord
100
AcDbViewportTableRecord
  2
*ACTIVE
 70
0
 10
0.0
 20
0.0
 11
1.0
 21
1.0
 12
90.0644851137
 22
127.3769146608
 13
0.0
 23
0.0
 14
1.0
 24
1.0
 15
0.0
 25
0.0
 16
0.0
 26
0.0
 36
1.0
 17
0.0
 27
0.0
 37
0.0
 40
254.7538293217
 41
0.7070707071
 42
50.0
 43
0.0
 44
0.0
 50
0.0
 51
0.0
 71
0
 72
100
 73
1
 74
1
 75
0
 76
0
 77
0
 78
0
  0
ENDTAB
  0
TABLE
  2
LTYPE
  5
5
100
AcDbSymbolTable
 70
6
  0
LTYPE
  5
14
100
AcDbSymbolTableRecord
100
AcDbLinetypeTableRecord
  2
BYBLOCK
 70
0
  3

 72
65
 73
0
 40
0.0
  0
LTYPE
  5
15
100
AcDbSymbolTableRecord
100
AcDbLinetypeTableRecord
  2
BYLAYER
 70
0
  3

 72
65
 73
0
 40
0.0
  0
LTYPE
  5
16
100
AcDbSymbolTableRecord
100
AcDbLinetypeTableRecord
  2
CONTINUOUS
 70
64
  3
Solid line
 72
65
 73
0
 40
0.0
  0
LTYPE
  5
1F5
100
AcDbSymbolTableRecord
100
AcDbLinetypeTableRecord
  2
CENTER
 70
64
  3
____ _ ____ _ ____ _ ____ _ ____ _ ____ _ ____
 72
65
 73
4
 40
0.6
 49
0.375
 74
0
 49
-0.075
 74
0
 49
0.075
 74
0
 49
-0.075
 74
0
  0
LTYPE
  5
1F6
100
AcDbSymbolTableRecord
100
AcDbLinetypeTableRecord
  2
HIDDEN
 70
64
  3
- - - - - - - - - - - - - - - - - - - -
 72
65
 73
2
 40
0.2
 49
0.1
 74
0
 49
-0.1
 74
0
  0
LTYPE
  5
1F7
100
AcDbSymbolTableRecord
100
AcDbLinetypeTableRecord
  2
PHANTOM
 70
64
  3
_____ _ _ _____ _ _ _____ _ _ _____
 72
65
 73
6
 40
0.8
 49
0.45
 74
0
 49
-0.05
 74
0
 49
0.1
 74
0
 49
-0.05
 74
0
 49
0.1
 74
0
 49
-0.05
 74
0
  0
LTYPE
  5
1F8
100
AcDbSymbolTableRecord
100
AcDbLinetypeTableRecord
  2
DOT
 70
64
  3
. . . . . . . . . . . . . . . . . . . .
 72
65
 73
2
 40
0.2
 49
0.1
 74
0
 49
-0.1
 74
0
  0
LTYPE
  5
1F9
100
AcDbSymbolTableRecord
100
AcDbLinetypeTableRecord
  2
DASHED
 70
64
  3
- - - - - - - - - - - - - - - - - - - -
 72
65
 73
2
 40
0.2
 49
0.1
 74
0
 49
-0.1
 74
0
  0
ENDTAB
  0
TABLE
  2
LAYER
  5
2
100
AcDbSymbolTable
 70
36
  0
LAYER
  5
10
100
AcDbSymbolTableRecord
100
AcDbLayerTableRecord
  2
0
 70
0
 62
7
  6
CONTINUOUS
370
-3
390
F
  0
LAYER
  5
1FA
100
AcDbSymbolTableRecord
100
AcDbLayerTableRecord
  2
DEFAULT_1
 70
0
 62
7
  6
CENTER
370
-3
390
F
  0
LAYER
  5
1FB
100
AcDbSymbolTableRecord
100
AcDbLayerTableRecord
  2
DEFAULT_2
 70
0
 62
7
  6
HIDDEN
370
-3
390
F
  0
LAYER
  5
1FC
100
AcDbSymbolTableRecord
100
AcDbLayerTableRecord
  2
DEFAULT_3
 70
0
 62
7
  6
PHANTOM
370
-3
390
F
  0
LAYER
  5
1FD
100
AcDbSymbolTableRecord
100
AcDbLayerTableRecord
  2
00_COMPONENTS
 70
0
 62
7
  6
CONTINUOUS
370
-3
390
F
  0
LAYER
  5
1FE
100
AcDbSymbolTableRecord
100
AcDbLayerTableRecord
  2
01_1_DEFAULT_DATUMS
 70
0
 62
7
  6
CONTINUOUS
370
-3
390
F
  0
LAYER
  5
1FF
100
AcDbSymbolTableRecord
100
AcDbLayerTableRecord
  2
01_PLANES
 70
0
 62
7
  6
CONTINUOUS
370
-3
390
F
  0
LAYER
  5
200
100
AcDbSymbolTableRecord
100
AcDbLayerTableRecord
  2
02_COORD_SYS
 70
0
 62
7
  6
CONTINUOUS
370
-3
390
F
  0
LAYER
  5
201
100
AcDbSymbolTableRecord
100
AcDbLayerTableRecord
  2
03_AXES
 70
0
 62
7
  6
CONTINUOUS
370
-3
390
F
  0
LAYER
  5
202
100
AcDbSymbolTableRecord
100
AcDbLayerTableRecord
  2
04_POINTS
 70
0
 62
7
  6
CONTINUOUS
370
-3
390
F
  0
LAYER
  5
203
100
AcDbSymbolTableRecord
100
AcDbLayerTableRecord
  2
05_CURVES
 70
0
 62
7
  6
CONTINUOUS
370
-3
390
F
  0
LAYER
  5
204
100
AcDbSymbolTableRecord
100
AcDbLayerTableRecord
  2
06_SURFS
 70
0
 62
7
  6
CONTINUOUS
370
-3
390
F
  0
LAYER
  5
205
100
AcDbSymbolTableRecord
100
AcDbLayerTableRecord
  2
07_COSMETICS
 70
0
 62
7
  6
CONTINUOUS
370
-3
390
F
  0
LAYER
  5
206
100
AcDbSymbolTableRecord
100
AcDbLayerTableRecord
  2
10_NOTES
 70
0
 62
7
  6
CONTINUOUS
370
-3
390
F
  0
LAYER
  5
207
100
AcDbSymbolTableRecord
100
AcDbLayerTableRecord
  2
11_NOTES_PUB
 70
0
 62
7
  6
CONTINUOUS
370
-3
390
F
  0
LAYER
  5
208
100
AcDbSymbolTableRecord
100
AcDbLayerTableRecord
  2
13_REF_GTOL
 70
0
 62
7
  6
CONTINUOUS
370
-3
390
F
  0
LAYER
  5
209
100
AcDbSymbolTableRecord
100
AcDbLayerTableRecord
  2
16_MISC
 70
0
 62
7
  6
CONTINUOUS
370
-3
390
F
  0
LAYER
  5
20A
100
AcDbSymbolTableRecord
100
AcDbLayerTableRecord
  2
17_NO_PRINT
 70
0
 62
7
  6
CONTINUOUS
370
-3
390
F
  0
LAYER
  5
20B
100
AcDbSymbolTableRecord
100
AcDbLayerTableRecord
  2
18_DATUM_CAMS_JOINTS
 70
0
 62
7
  6
CONTINUOUS
370
-3
390
F
  0
LAYER
  5
20C
100
AcDbSymbolTableRecord
100
AcDbLayerTableRecord
  2
19_DATUM_FUNCTIONAL
 70
0
 62
7
  6
CONTINUOUS
370
-3
390
F
  0
LAYER
  5
20D
100
AcDbSymbolTableRecord
100
AcDbLayerTableRecord
  2
20_DATUM_KINEMATIC_SCHEME
 70
0
 62
7
  6
CONTINUOUS
370
-3
390
F
  0
ENDTAB
  0
TABLE
  2
STYLE
  5
3
100
AcDbSymbolTable
 70
1
  0
STYLE
  5
11
100
AcDbSymbolTableRecord
100
AcDbTextStyleTableRecord
  2
STANDARD
 70
0
 40
0.0
 41
1.0
 50
0.0
 71
0
 42
0.2
  3
ARIAL.TTF
  4

  0
STYLE
  5
20E
100
AcDbSymbolTableRecord
100
AcDbTextStyleTableRecord
  2
TEXTSTYLE_1
 70
0
 40
0.0
 41
0.8
 50
0.0
 71
0
 42
0.2
  3
gdt
  4

  0
ENDTAB
  0
TABLE
  2
VIEW
  5
6
100
AcDbSymbolTable
 70
0
  0
ENDTAB
  0
TABLE
  2
UCS
  5
7
100
AcDbSymbolTable
 70
0
  0
ENDTAB
  0
TABLE
  2
APPID
  5
9
100
AcDbSymbolTable
 70
1
  0
APPID
  5
20F
100
AcDbSymbolTableRecord
100
AcDbRegAppTableRecord
  2
ACAD
 70
0
  0
ENDTAB
  0
TABLE
  2
BLOCK_RECORD
  5
1
100
AcDbSymbolTable
 70
0
  0
BLOCK_RECORD
  5
210
100
AcDbSymbolTableRecord
100
AcDbBlockTableRecord
  2
*Model_Space
  0
BLOCK_RECORD
  5
211
100
AcDbSymbolTableRecord
100
AcDbBlockTableRecord
  2
*Paper_Space
  0
BLOCK_RECORD
  5
212
100
AcDbSymbolTableRecord
100
AcDbBlockTableRecord
  2
_FILLED
  0
ENDTAB
  0
TABLE
  2
DIMSTYLE
  5
A
100
AcDbSymbolTable
 70
1
100
AcDbDimStyleTable
 71
0
  0
DIMSTYLE
105
213
100
AcDbSymbolTableRecord
100
AcDbDimStyleTableRecord
  2
STANDARD
 70
0
  3

  4

 40
1.0
 41
2.1443925027
 42
1.0
 43
0.38
 44
1.0
 45
0.0
 46
0.0
 47
0.01
 48
0.01
140
3.0021495038
141
0.09
142
0.0
143
25.4
144
1.0
145
0.0
146
1.0
147
0.625
 71
1
 72
0
 73
0
 74
0
 75
0
 76
0
 77
1
 78
8
 79
2
170
0
171
1
172
0
173
0
174
0
175
0
176
0
177
0
178
0
270
2
179
2
271
2
272
2
273
2
274
2
275
0
280
0
281
0
282
0
283
1
284
8
285
0
286
0
287
3
288
0
340
11
278
46
341
212
342
212
343
212
344
212
  0
ENDTAB
  0
ENDSEC
  0
SECTION
  2
BLOCKS
  0
BLOCK
  5
20
100
AcDbEntity
  8
0
100
AcDbBlockBegin
  2
*Model_Space
 70
0
 10
0.0
 20
0.0
 30
0.0
  3
*Model_Space
  1

  0
ENDBLK
  5
21
100
AcDbEntity
  8
0
100
AcDbBlockEnd
  0
BLOCK
  5
1C
100
AcDbEntity
  8
0
100
AcDbBlockBegin
  2
*Paper_Space
 70
0
 10
0.0
 20
0.0
 30
0.0
  3
*Paper_Space
  1

  0
ENDBLK
  5
1D
100
AcDbEntity
  8
0
100
AcDbBlockEnd
  0
BLOCK
  5
214
100
AcDbEntity
  8
0
100
AcDbBlockBegin
  2
_FILLED
 70
64
 10
0.0
 20
0.0
  3
_FILLED
  1

  0
SOLID
  5
215
100
AcDbEntity
  8
0
  6
BYBLOCK
 62
0
100
AcDbTrace
 10
0.0
 20
0.0
 11
-1.0
 21
0.25
 12
-1.0
 22
-0.25
 13
-1.0
 23
-0.25
  0
ENDBLK
  5
216
100
AcDbEntity
  8
0
  6
BYBLOCK
 62
0
100
AcDbBlockEnd
  0
ENDSEC
  0
SECTION
  2
ENTITIES
  0
LINE
  5
217
100
AcDbEntity
  8
0
100
AcDbLine
 62
7
  6
BYLAYER
 10
20.3735660765
 20
120.3769242204
 11
20.3735660765
 21
134.3769051013
  0
LINE
  5
218
100
AcDbEntity
  8
0
100
AcDbLine
 62
7
  6
BYLAYER
 10
29.6735660765
 20
113.6270908415
 11
29.6735660765
 21
141.1267384802
  0
LINE
  5
219
100
AcDbEntity
  8
0
100
AcDbLine
 62
7
  6
BYLAYER
 10
29.8735660765
 20
113.7769771697
 11
29.8735660765
 21
116.9768521519
  0
LINE
  5
21A
100
AcDbEntity
  8
0
100
AcDbLine
 62
7
  6
BYLAYER
 10
29.8735660765
 20
137.7769771697
 11
29.8735660765
 21
140.9768521519
  0
LINE
  5
21B
100
AcDbEntity
  8
0
100
AcDbLine
 62
7
  6
BYLAYER
 10
30.2735660765
 20
113.3769146608
 11
30.2735660765
 21
117.3769146608
  0
LINE
  5
21C
100
AcDbEntity
  8
0
100
AcDbLine
 62
7
  6
BYLAYER
 10
30.2735660765
 20
137.3769146608
 11
30.2735660765
 21
141.3769146608
  0
LINE
  5
21D
100
AcDbEntity
  8
0
100
AcDbLine
 62
7
  6
BYLAYER
 10
30.4735660765
 20
135.4593480951
 11
30.4735660765
 21
119.2944774217
  0
LINE
  5
21E
100
AcDbEntity
  8
0
100
AcDbLine
 62
7
  6
BYLAYER
 10
30.6735660765
 20
135.5769146608
 11
30.6735660765
 21
119.1769146611
  0
LINE
  5
21F
100
AcDbEntity
  8
0
100
AcDbLine
 62
7
  6
BYLAYER
 10
30.6735660765
 20
111.0769146608
 11
30.6735660765
 21
113.3769146608
  0
LINE
  5
220
100
AcDbEntity
  8
0
100
AcDbLine
 62
7
  6
BYLAYER
 10
30.6735660765
 20
141.3769146608
 11
30.6735660765
 21
143.6769146608
  0
LINE
  5
221
100
AcDbEntity
  8
0
100
AcDbLine
 62
7
  6
BYLAYER
 10
30.8735660765
 20
110.8769146608
 11
30.873550886
 21
113.3769146608
  0
LINE
  5
222
100
AcDbEntity
  8
0
100
AcDbLine
 62
7
  6
BYLAYER
 10
30.8735661381
 20
118.9002121548
 11
30.8735421582
 21
135.8536171585
  0
LINE
  5
223
100
AcDbEntity
  8
0
100
AcDbLine
 62
7
  6
BYLAYER
 10
30.8735660833
 20
141.3769146608
 11
30.8735660765
 21
143.8769146608
  0
LINE
  5
224
100
AcDbEntity
  8
0
100
AcDbLine
 62
7
  6
BYLAYER
 10
35.0735660767
 20
143.6769202744
 11
35.0735660766
 21
141.3769146608
  0
LINE
  5
225
100
AcDbEntity
  8
0
100
AcDbLine
 62
7
  6
BYLAYER
 10
35.0735660765
 20
137.3769146608
 11
35.0735660765
 21
135.7769146608
  0
LINE
  5
226
100
AcDbEntity
  8
0
100
AcDbLine
 62
7
  6
BYLAYER
 10
35.0735660765
 20
118.9769146608
 11
35.0735660765
 21
117.3769146608
  0
LINE
  5
227
100
AcDbEntity
  8
0
100
AcDbLine
 62
7
  6
BYLAYER
 10
35.073566102
 20
111.076914164
 11
35.0735660961
 21
113.3769146608
  0
LINE
  5
228
100
AcDbEntity
  8
0
100
AcDbLine
 62
7
  6
BYLAYER
 10
35.2735660765
 20
111.0769146609
 11
35.2735660765
 21
118.7769145698
  0
LINE
  5
229
100
AcDbEntity
  8
0
100
AcDbLine
 62
7
  6
BYLAYER
 10
35.2735660765
 20
135.9769126058
 11
35.2735660765
 21
143.6769176779
  0
LINE
  5
22A
100
AcDbEntity
  8
0
100
AcDbLine
 62
7
  6
BYLAYER
 10
35.4735660765
 20
110.8769146608
 11
35.4735660765
 21
118.7769145484
  0
LINE
  5
22B
100
AcDbEntity
  8
0
100
AcDbLine
 62
7
  6
BYLAYER
 10
35.4735661388
 20
135.9769141391
 11
35.4735660765
 21
143.8769146608
  0
LINE
  5
22C
100
AcDbEntity
  8
0
100
AcDbLine
 62
7
  6
BYLAYER
 10
29.8735660765
 20
140.9769146608
 11
30.2735660765
 21
141.3769146608
  0
LINE
  5
22D
100
AcDbEntity
  8
0
100
AcDbLine
 62
7
  6
BYLAYER
 10
29.8735660765
 20
113.7769146608
 11
30.2735660765
 21
113.3769146608
  0
LINE
  5
22E
100
AcDbEntity
  8
0
100
AcDbLine
 62
7
  6
BYLAYER
 10
49.6735660765
 20
110.8769146608
 11
49.6735660765
 21
143.8769146608
  0
LINE
  5
22F
100
AcDbEntity
  8
0
100
AcDbLine
 62
7
  6
BYLAYER
 10
49.8735660765
 20
110.8769146608
 11
49.8735660765
 21
143.8769146608
  0
LINE
  5
230
100
AcDbEntity
  8
0
100
AcDbLine
 62
7
  6
BYLAYER
 10
50.2735660765
 20
127.8769146608
 11
50.2735660765
 21
127.3769146608
  0
LINE
  5
231
100
AcDbEntity
  8
0
100
AcDbLine
 62
7
  6
BYLAYER
 10
50.8735660765
 20
127.8769146608
 11
50.8735660765
 21
126.8769146608
  0
LINE
  5
232
100
AcDbEntity
  8
0
100
AcDbLine
 62
7
  6
BYLAYER
 10
55.3735660765
 20
143.8769146608
 11
55.3735660765
 21
110.8769146608
  0
LINE
  5
233
100
AcDbEntity
  8
0
100
AcDbLine
 62
7
  6
BYLAYER
 10
55.8735660765
 20
143.3769144811
 11
55.8735660765
 21
111.3769147777
  0
LINE
  5
234
100
AcDbEntity
  8
0
100
AcDbLine
 62
7
  6
BYLAYER
 10
56.3428324663
 20
120.9980245652
 11
56.3428324663
 21
133.7558047565
  0
LINE
  5
235
100
AcDbEntity
  8
0
100
AcDbLine
 62
7
  6
BYLAYER
 10
29.8735660765
 20
116.9769146608
 11
30.2735660765
 21
117.3769146608
  0
LINE
  5
236
100
AcDbEntity
  8
0
100
AcDbLine
 62
7
  6
BYLAYER
 10
29.8735660765
 20
137.7769146608
 11
30.2735660765
 21
137.3769146608
  0
LINE
  5
237
100
AcDbEntity
  8
0
100
AcDbLine
 62
7
  6
BYLAYER
 10
58.9391619926
 20
133.5286553562
 11
58.9391619926
 21
121.2251739655
  0
LINE
  5
238
100
AcDbEntity
  8
0
100
AcDbLine
 62
7
  6
BYLAYER
 10
60.6735660765
 20
123.1180525798
 11
60.6735660765
 21
131.6357767419
  0
LINE
  5
239
100
AcDbEntity
  8
0
100
AcDbLine
 62
7
  6
BYLAYER
 10
60.8200129703
 20
123.9733615546
 11
60.8200129703
 21
130.780467767
  0
LINE
  5
23A
100
AcDbEntity
  8
0
100
AcDbLine
 62
7
  6
BYLAYER
 10
61.8735660765
 20
124.2771206316
 11
61.8735660765
 21
130.47670869
  0
LINE
  5
23B
100
AcDbEntity
  8
0
100
AcDbLine
 62
7
  6
BYLAYER
 10
61.8735660765
 20
125.0269146608
 11
60.8200129703
 21
123.9733615546
  0
LINE
  5
23C
100
AcDbEntity
  8
0
100
AcDbLine
 62
7
  6
BYLAYER
 10
61.8735660765
 20
129.7269146608
 11
60.8200129703
 21
130.780467767
  0
LINE
  5
23D
100
AcDbEntity
  8
0
100
AcDbLine
 62
7
  6
BYLAYER
 10
30.8735660765
 20
110.8769146608
 11
49.6735661611
 21
110.8769146608
  0
LINE
  5
23E
100
AcDbEntity
  8
0
100
AcDbLine
 62
7
  6
BYLAYER
 10
49.8735660765
 20
110.8769146608
 11
55.3735660765
 21
110.8769146608
  0
LINE
  5
23F
100
AcDbEntity
  8
0
100
AcDbLine
 62
7
  6
BYLAYER
 10
35.2735660765
 20
111.0769147947
 11
30.6735660765
 21
111.0769146608
  0
LINE
  5
240
100
AcDbEntity
  8
0
100
AcDbLine
 62
7
  6
BYLAYER
 10
35.2735660765
 20
112.3769146616
 11
55.8735660765
 21
112.3769146608
  0
LINE
  5
241
100
AcDbEntity
  8
0
100
AcDbLine
 62
7
  6
BYLAYER
 10
35.2735660765
 20
113.3769146608
 11
30.2735660765
 21
113.3769146608
  0
LINE
  5
242
100
AcDbEntity
  8
0
100
AcDbLine
 62
7
  6
BYLAYER
 10
30.0235660765
 20
113.6269146608
 11
29.6735660765
 21
113.6269146608
  0
LINE
  5
243
100
AcDbEntity
  8
0
100
AcDbLine
 62
7
  6
BYLAYER
 10
35.2735660765
 20
117.3769146608
 11
30.2735660765
 21
117.3769146608
  0
LINE
  5
244
100
AcDbEntity
  8
0
100
AcDbLine
 62
7
  6
BYLAYER
 10
35.2735660765
 20
118.7769146671
 11
35.4735660765
 21
118.7769146671
  0
LINE
  5
245
100
AcDbEntity
  8
0
100
AcDbLine
 62
7
  6
BYLAYER
 10
35.0735660765
 20
118.9002121548
 11
30.8735661865
 21
118.9002121548
  0
LINE
  5
246
100
AcDbEntity
  8
0
100
AcDbLine
 62
7
  6
BYLAYER
 10
35.0735660766
 20
118.9769146608
 11
30.8735658912
 21
118.9769146608
  0
LINE
  5
247
100
AcDbEntity
  8
0
100
AcDbLine
 62
7
  6
BYLAYER
 10
35.0735646399
 20
119.176914435
 11
30.6735660765
 21
119.1769146608
  0
LINE
  5
248
100
AcDbEntity
  8
0
100
AcDbLine
 62
7
  6
BYLAYER
 10
20.3735660765
 20
120.3769146608
 11
29.6735660765
 21
120.3769146608
  0
LINE
  5
249
100
AcDbEntity
  8
0
100
AcDbLine
 62
7
  6
BYLAYER
 10
58.9391619877
 20
121.2251739651
 11
56.3428324663
 21
120.9980245652
  0
LINE
  5
24A
100
AcDbEntity
  8
0
100
AcDbLine
 62
7
  6
BYLAYER
 10
61.8735660765
 20
124.2769146608
 11
162.8735660765
 21
124.2769146608
  0
LINE
  5
24B
100
AcDbEntity
  8
0
100
AcDbLine
 62
7
  6
BYLAYER
 10
50.8735660765
 20
126.8769146608
 11
49.8735660765
 21
126.8769146608
  0
LINE
  5
24C
100
AcDbEntity
  8
0
100
AcDbLine
 62
7
  6
BYLAYER
 10
49.8735660765
 20
127.8769146608
 11
50.8735660765
 21
127.8769146608
  0
LINE
  5
24D
100
AcDbEntity
  8
0
100
AcDbLine
 62
7
  6
BYLAYER
 10
61.8735660765
 20
130.4769146608
 11
162.8735660765
 21
130.4769146608
  0
LINE
  5
24E
100
AcDbEntity
  8
0
100
AcDbLine
 62
7
  6
BYLAYER
 10
58.9391619877
 20
133.5286553566
 11
56.3428324663
 21
133.7558047565
  0
LINE
  5
24F
100
AcDbEntity
  8
0
100
AcDbLine
 62
7
  6
BYLAYER
 10
20.3735660765
 20
134.3769146608
 11
29.6735660765
 21
134.3769146608
  0
LINE
  5
250
100
AcDbEntity
  8
0
100
AcDbLine
 62
7
  6
BYLAYER
 10
30.6735660765
 20
135.5769146608
 11
35.0727860462
 21
135.5769146609
  0
LINE
  5
251
100
AcDbEntity
  8
0
100
AcDbLine
 62
7
  6
BYLAYER
 10
30.8735579333
 20
135.7769146608
 11
35.073566102
 21
135.7769146608
  0
LINE
  5
252
100
AcDbEntity
  8
0
100
AcDbLine
 62
7
  6
BYLAYER
 10
30.8735660955
 20
135.8536171585
 11
35.0735660765
 21
135.8536171585
  0
LINE
  5
253
100
AcDbEntity
  8
0
100
AcDbLine
 62
7
  6
BYLAYER
 10
35.4735661076
 20
135.9769142947
 11
35.2735660765
 21
135.9769142947
  0
LINE
  5
254
100
AcDbEntity
  8
0
100
AcDbLine
 62
7
  6
BYLAYER
 10
35.2735660765
 20
137.3769146608
 11
30.2735660765
 21
137.3769146608
  0
LINE
  5
255
100
AcDbEntity
  8
0
100
AcDbLine
 62
7
  6
BYLAYER
 10
30.0235660765
 20
141.1269146608
 11
29.6735660765
 21
141.1269146608
  0
LINE
  5
256
100
AcDbEntity
  8
0
100
AcDbLine
 62
7
  6
BYLAYER
 10
35.2735660765
 20
141.3769146608
 11
30.2735660765
 21
141.3769146608
  0
LINE
  5
257
100
AcDbEntity
  8
0
100
AcDbLine
 62
7
  6
BYLAYER
 10
35.2735660765
 20
142.3769146608
 11
55.8735660765
 21
142.3769146608
  0
LINE
  5
258
100
AcDbEntity
  8
0
100
AcDbLine
 62
7
  6
BYLAYER
 10
35.2735660765
 20
143.6769207104
 11
30.6735660765
 21
143.6769146608
  0
LINE
  5
259
100
AcDbEntity
  8
0
100
AcDbLine
 62
7
  6
BYLAYER
 10
55.3735660765
 20
143.8769146608
 11
49.8735660765
 21
143.8769146608
  0
LINE
  5
25A
100
AcDbEntity
  8
0
100
AcDbLine
 62
7
  6
BYLAYER
 10
30.8735660765
 20
143.8769146608
 11
49.6735660765
 21
143.8769146608
  0
LINE
  5
25B
100
AcDbEntity
  8
0
100
AcDbLine
 62
7
  6
BYLAYER
 10
162.8735660765
 20
130.47670869
 11
162.8735660765
 21
124.2771206316
  0
ARC
  5
25C
100
AcDbEntity
  8
0
100
AcDbCircle
 62
7
  6
BYLAYER
 10
58.7735660765
 20
131.6358854302
 40
1.9
100
AcDbArc
 50
0.0
 51
84.9999998541
  0
ARC
  5
25D
100
AcDbEntity
  8
0
100
AcDbCircle
 62
7
  6
BYLAYER
 10
58.7735660765
 20
123.1179438915
 40
1.9
100
AcDbArc
 50
275.0000001459
 51
360.0
  0
ARC
  5
25E
100
AcDbEntity
  8
0
100
AcDbCircle
 62
7
  6
BYLAYER
 10
56.4735660765
 20
135.250096804
 40
1.5
100
AcDbArc
 50
243.1239780751
 51
265.0
  0
ARC
  5
25F
100
AcDbEntity
  8
0
100
AcDbCircle
 62
7
  6
BYLAYER
 10
56.4735660765
 20
119.5037325177
 40
1.5
100
AcDbArc
 50
95.0
 51
116.8760219249
  0
ARC
  5
260
100
AcDbEntity
  8
0
100
AcDbCircle
 62
7
  6
BYLAYER
 10
55.3735660765
 20
143.3769146608
 40
0.5
100
AcDbArc
 50
359.999979146
 51
90.0
  0
ARC
  5
261
100
AcDbEntity
  8
0
100
AcDbCircle
 62
7
  6
BYLAYER
 10
55.3735660765
 20
111.3769146608
 40
0.5
100
AcDbArc
 50
270.0
 51
360.0
  0
ARC
  5
262
100
AcDbEntity
  8
0
100
AcDbCircle
 62
7
  6
BYLAYER
 10
61.1735660765
 20
131.134021442
 40
0.5
100
AcDbArc
 50
180.0000731243
 51
225.0
  0
ARC
  5
263
100
AcDbEntity
  8
0
100
AcDbCircle
 62
7
  6
BYLAYER
 10
61.1735660765
 20
123.6198078796
 40
0.5
100
AcDbArc
 50
135.0
 51
179.9999268757
  0
ARC
  5
264
100
AcDbEntity
  8
0
100
AcDbCircle
 62
7
  6
BYLAYER
 10
30.8699082749
 20
119.3007874916
 40
0.3993901703
100
AcDbArc
 50
238.0436084399
 51
244.8851311574
  0
ARC
  5
265
100
AcDbEntity
  8
0
100
AcDbCircle
 62
7
  6
BYLAYER
 10
30.8704202684
 20
135.4890399312
 40
0.3645907993
100
AcDbArc
 50
89.5056242424
 51
92.845720145
  0
ARC
  5
266
100
AcDbEntity
  8
0
100
AcDbCircle
 62
7
  6
BYLAYER
 10
30.8624959638
 20
119.1748911106
 40
0.2749019436
100
AcDbArc
 50
268.0004226722
 51
272.3079087406
  0
ARC
  5
267
100
AcDbEntity
  8
0
100
AcDbCircle
 62
7
  6
BYLAYER
 10
49.6735660765
 20
143.6769146608
 40
0.2
100
AcDbArc
 50
0.0
 51
90.0
  0
ARC
  5
268
100
AcDbEntity
  8
0
100
AcDbCircle
 62
7
  6
BYLAYER
 10
49.6735660765
 20
111.0769146608
 40
0.2
100
AcDbArc
 50
270.0000121104
 51
0.0001128409
  0
ARC
  5
269
100
AcDbEntity
  8
0
100
AcDbCircle
 62
7
  6
BYLAYER
 10
35.4735660765
 20
111.0769146608
 40
0.2
100
AcDbArc
 50
180.0001307972
 51
270.0000089173
  0
ARC
  5
26A
100
AcDbEntity
  8
0
100
AcDbCircle
 62
7
  6
BYLAYER
 10
30.8735660765
 20
119.1769146608
 40
0.2
100
AcDbArc
 50
180.0005144014
 51
269.9999762765
  0
ARC
  5
26B
100
AcDbEntity
  8
0
100
AcDbCircle
 62
7
  6
BYLAYER
 10
30.8735660765
 20
135.5769146608
 40
0.2
100
AcDbArc
 50
90.0046659016
 51
180.0
  0
ARC
  5
26C
100
AcDbEntity
  8
0
100
AcDbCircle
 62
7
  6
BYLAYER
 10
35.4735660765
 20
143.6769146608
 40
0.2
100
AcDbArc
 50
90.0000000052
 51
180.0
  0
ARC
  5
26D
100
AcDbEntity
  8
0
100
AcDbCircle
 62
7
  6
BYLAYER
 10
30.8735660765
 20
111.0769146608
 40
0.2
100
AcDbArc
 50
180.0
 51
270.0
  0
ARC
  5
26E
100
AcDbEntity
  8
0
100
AcDbCircle
 62
7
  6
BYLAYER
 10
30.8735660765
 20
143.6769146608
 40
0.2
100
AcDbArc
 50
90.0
 51
180.0
  0
ARC
  5
26F
100
AcDbEntity
  8
0
100
AcDbCircle
 62
7
  6
BYLAYER
 10
35.0735652723
 20
135.9769152558
 40
0.1999976281
100
AcDbArc
 50
270.0002361774
 51
359.9998295689
  0
ARC
  5
270
100
AcDbEntity
  8
0
100
AcDbCircle
 62
7
  6
BYLAYER
 10
35.0735662819
 20
118.776913725
 40
0.199997233
100
AcDbArc
 50
0.0005031613
 51
90.0000588164
  0
SPLINE
  5
271
100
AcDbEntity
  8
0
100
AcDbSpline
 62
7
  6
BYLAYER
 70
0
 71
3
 72
11
 73
7
 74
0
 42
0.0000001
 43
0.0000001
 44
0.0000000001
 40
0.0
 40
0.0
 40
0.0
 40
0.0
 40
0.2500434838
 40
0.5000252791
 40
0.7499478667
 40
1.0
 40
1.0
 40
1.0
 40
1.0
 10
35.0735646399
 20
119.176914435
 30
0.0
 10
35.1256199428
 20
119.1769146622
 30
0.0
 10
35.2310954815
 20
119.1569799228
 30
0.0
 10
35.3636390727
 20
119.0670288219
 30
0.0
 10
35.4528029103
 20
118.9342574489
 30
0.0
 10
35.473565892
 20
118.828971652
 30
0.0
 10
35.4735660765
 20
118.7769145484
 30
0.0
  0
SPLINE
  5
272
100
AcDbEntity
  8
0
100
AcDbSpline
 62
7
  6
BYLAYER
 70
0
 71
3
 72
11
 73
7
 74
0
 42
0.0000001
 43
0.0000001
 44
0.0000000001
 40
0.0
 40
0.0
 40
0.0
 40
0.0
 40
0.250043313
 40
0.5000243716
 40
0.7499475347
 40
1.0
 40
1.0
 40
1.0
 40
1.0
 10
35.4735661388
 20
135.9769141391
 30
0.0
 10
35.4735659169
 20
135.9247950386
 30
0.0
 10
35.4535875139
 20
135.8191857434
 30
0.0
 10
35.363416697
 20
135.6865392559
 30
0.0
 10
35.2303641605
 20
135.5974281438
 30
0.0
 10
35.1249069556
 20
135.576813176
 30
0.0
 10
35.0727860462
 20
135.5769146609
 30
0.0
  0
SPLINE
  5
273
100
AcDbEntity
  8
0
100
AcDbSpline
 62
7
  6
BYLAYER
 70
0
 71
3
 72
19
 73
15
 74
0
 42
0.0000001
 43
0.0000001
 44
0.0000000001
 40
0.0
 40
0.0
 40
0.0
 40
0.0
 40
0.0048684599
 40
0.010903477
 40
0.0193082397
 40
0.0431332384
 40
0.0761585482
 40
0.1181485871
 40
0.1686217708
 40
0.2928584476
 40
0.4444279875
 40
0.617442593
 40
0.8053639698
 40
1.0
 40
1.0
 40
1.0
 40
1.0
 10
35.0735660769
 20
118.9769146608
 30
0.0
 10
35.0738907577
 20
118.9769159418
 30
0.0
 10
35.07348065
 20
118.9781479614
 30
0.0
 10
35.0737377923
 20
118.9791758905
 30
0.0
 10
35.0736382464
 20
118.9818740888
 30
0.0
 10
35.0737125644
 20
118.9861183101
 30
0.0
 10
35.0735356672
 20
118.9927604243
 30
0.0
 10
35.0732695389
 20
119.00110513
 30
0.0
 10
35.07283747
 20
119.015559732
 30
0.0
 10
35.0727711833
 20
119.0373228247
 30
0.0
 10
35.0741694991
 20
119.0672286478
 30
0.0
 10
35.0754187567
 20
119.1013888367
 30
0.0
 10
35.0751249323
 20
119.1384511603
 30
0.0
 10
35.0741729004
 20
119.1639483005
 30
0.0
 10
35.0735646375
 20
119.1769145479
 30
0.0
  0
SPLINE
  5
274
100
AcDbEntity
  8
0
100
AcDbSpline
 62
7
  6
BYLAYER
 70
0
 71
3
 72
19
 73
15
 74
0
 42
0.0000001
 43
0.0000001
 44
0.0000000001
 40
0.0
 40
0.0
 40
0.0
 40
0.0
 40
0.1946848496
 40
0.3826792182
 40
0.5556330923
 40
0.70709958
 40
0.8313808286
 40
0.881870907
 40
0.9238720367
 40
0.9569027698
 40
0.9807215808
 40
0.9891198339
 40
0.9951471605
 40
1.0
 40
1.0
 40
1.0
 40
1.0
 10
35.0727860273
 20
135.5769146608
 30
0.0
 10
35.0728129482
 20
135.5898937978
 30
0.0
 10
35.0728681422
 20
135.6154059741
 30
0.0
 10
35.0729591504
 20
135.6524488066
 30
0.0
 10
35.0730608753
 20
135.6866093324
 30
0.0
 10
35.0731641768
 20
135.7165253294
 30
0.0
 10
35.0732617556
 20
135.7382688959
 30
0.0
 10
35.0733276429
 20
135.7527295104
 30
0.0
 10
35.0733953434
 20
135.7610778434
 30
0.0
 10
35.0733943535
 20
135.7677196659
 30
0.0
 10
35.0735336105
 20
135.7719606283
 30
0.0
 10
35.0734298735
 20
135.7746575567
 30
0.0
 10
35.0736920675
 20
135.7756815809
 30
0.0
 10
35.0732425757
 20
135.7769144644
 30
0.0
 10
35.0735661026
 20
135.7769146608
 30
0.0
  0
SPLINE
  5
275
100
AcDbEntity
  8
0
100
AcDbSpline
 62
7
  6
BYLAYER
 70
0
 71
3
 72
11
 73
7
 74
0
 42
0.0000001
 43
0.0000001
 44
0.0000000001
 40
0.0
 40
0.0
 40
0.0
 40
0.0
 40
0.3014417713
 40
0.5757255499
 40
0.806237198
 40
1.0
 40
1.0
 40
1.0
 40
1.0
 10
35.0735660765
 20
135.8536171698
 30
0.0
 10
35.0992900638
 20
135.8536171698
 30
0.0
 10
35.14868019
 20
135.8593626223
 30
0.0
 10
35.213520166
 20
135.8846969512
 30
0.0
 10
35.2605104926
 20
135.9240597807
 30
0.0
 10
35.2735836783
 20
135.9605430695
 30
0.0
 10
35.2735659008
 20
135.9770781004
 30
0.0
  0
SPLINE
  5
276
100
AcDbEntity
  8
0
100
AcDbSpline
 62
7
  6
BYLAYER
 70
0
 71
3
 72
16
 73
12
 74
0
 42
0.0000001
 43
0.0000001
 44
0.0000000001
 40
0.0
 40
0.0
 40
0.0
 40
0.0
 40
0.3819760489
 40
0.5545632829
 40
0.7056530088
 40
0.8297932403
 40
0.9222894995
 40
0.9552573977
 40
0.9790465659
 40
0.9936968194
 40
1.0
 40
1.0
 40
1.0
 40
1.0
 10
35.073566077
 20
143.6769193205
 30
0.0
 10
35.0736476301
 20
143.702437132
 30
0.0
 10
35.073924658
 20
143.7394917772
 30
0.0
 10
35.0729835011
 20
143.7866163751
 30
0.0
 10
35.0726579153
 20
143.8165519247
 30
0.0
 10
35.0738275486
 20
143.8410684492
 30
0.0
 10
35.075065307
 20
143.8577665056
 30
0.0
 10
35.0753149993
 20
143.8676453065
 30
0.0
 10
35.0750217399
 20
143.8725742633
 30
0.0
 10
35.0747268066
 20
143.8752433672
 30
0.0
 10
35.0739857222
 20
143.8769146558
 30
0.0
 10
35.0735646377
 20
143.8769146608
 30
0.0
  0
SPLINE
  5
277
100
AcDbEntity
  8
0
100
AcDbSpline
 62
7
  6
BYLAYER
 70
0
 71
3
 72
9
 73
5
 74
0
 42
0.0000001
 43
0.0000001
 44
0.0000000001
 40
0.0
 40
0.0
 40
0.0
 40
0.0
 40
0.4924789287
 40
1.0
 40
1.0
 40
1.0
 40
1.0
 10
30.4735660765
 20
135.4593480951
 30
0.0
 10
30.4762959114
 20
135.5032097753
 30
0.0
 10
30.4878445442
 20
135.5931144285
 30
0.0
 10
30.5339523551
 20
135.6726859822
 30
0.0
 10
30.5628079088
 20
135.7075920833
 30
0.0
  0
SPLINE
  5
278
100
AcDbEntity
  8
0
100
AcDbSpline
 62
7
  6
BYLAYER
 70
0
 71
3
 72
9
 73
5
 74
0
 42
0.0000001
 43
0.0000001
 44
0.0000000001
 40
0.0
 40
0.0
 40
0.0
 40
0.0
 40
0.4793365089
 40
1.0
 40
1.0
 40
1.0
 40
1.0
 10
30.5628079088
 20
135.7075920833
 30
0.0
 10
30.596521265
 20
135.7483745905
 30
0.0
 10
30.6844617386
 20
135.8202955454
 30
0.0
 10
30.7949145474
 20
135.8503409281
 30
0.0
 10
30.8523195134
 20
135.8531811313
 30
0.0
  0
SPLINE
  5
279
100
AcDbEntity
  8
0
100
AcDbSpline
 62
7
  6
BYLAYER
 70
0
 71
3
 72
19
 73
15
 74
0
 42
0.0000001
 43
0.0000001
 44
0.0000000001
 40
0.0
 40
0.0
 40
0.0
 40
0.0
 40
0.0048527313
 40
0.0108800047
 40
0.0192782069
 40
0.0430969261
 40
0.0761275833
 40
0.1181286528
 40
0.1686186852
 40
0.2928998919
 40
0.4443664074
 40
0.6173203847
 40
0.8053149278
 40
1.0
 40
1.0
 40
1.0
 40
1.0
 10
35.0727860272
 20
110.8769146608
 30
0.0
 10
35.0731095466
 20
110.8769146608
 30
0.0
 10
35.0726601319
 20
110.8781478294
 30
0.0
 10
35.0729223195
 20
110.8791716818
 30
0.0
 10
35.0728186248
 20
110.8818686827
 30
0.0
 10
35.0729578995
 20
110.8861095591
 30
0.0
 10
35.0729569415
 20
110.8927513896
 30
0.0
 10
35.0730246616
 20
110.901099688
 30
0.0
 10
35.0730905725
 20
110.9155602804
 30
0.0
 10
35.0731881597
 20
110.9373038126
 30
0.0
 10
35.0732914461
 20
110.9672197803
 30
0.0
 10
35.0733931309
 20
111.0013802842
 30
0.0
 10
35.0734840769
 20
111.038423105
 30
0.0
 10
35.0735392144
 20
111.0639352765
 30
0.0
 10
35.0735661026
 20
111.0769144124
 30
0.0
  0
SPLINE
  5
27A
100
AcDbEntity
  8
0
100
AcDbSpline
 62
7
  6
BYLAYER
 70
0
 71
3
 72
9
 73
5
 74
0
 42
0.0000001
 43
0.0000001
 44
0.0000000001
 40
0.0
 40
0.0
 40
0.0
 40
0.0
 40
0.506643671
 40
1.0
 40
1.0
 40
1.0
 40
1.0
 10
30.852904051
 20
118.900156559
 30
0.0
 10
30.8262103889
 20
118.9010715227
 30
0.0
 10
30.7737617557
 20
118.9101230685
 30
0.0
 10
30.7239348017
 20
118.9280990614
 30
0.0
 10
30.7003933425
 20
118.9391561934
 30
0.0
  0
SPLINE
  5
27B
100
AcDbEntity
  8
0
100
AcDbSpline
 62
7
  6
BYLAYER
 70
0
 71
3
 72
9
 73
5
 74
0
 42
0.0000001
 43
0.0000001
 44
0.0000000001
 40
0.0
 40
0.0
 40
0.0
 40
0.0
 40
0.2563427501
 40
1.0
 40
1.0
 40
1.0
 40
1.0
 10
30.6585215808
 20
118.9619244312
 30
0.0
 10
30.6496486951
 20
118.9674702244
 30
0.0
 10
30.6159280267
 20
118.9905147869
 30
0.0
 10
30.5859181501
 20
119.0188850546
 30
0.0
 10
30.5662636597
 20
119.0420175664
 30
0.0
  0
SPLINE
  5
27C
100
AcDbEntity
  8
0
100
AcDbSpline
 62
7
  6
BYLAYER
 70
0
 71
3
 72
9
 73
5
 74
0
 42
0.0000001
 43
0.0000001
 44
0.0000000001
 40
0.0
 40
0.0
 40
0.0
 40
0.0
 40
0.5080433536
 40
1.0
 40
1.0
 40
1.0
 40
1.0
 10
30.5662636597
 20
119.0420175664
 30
0.0
 10
30.5363145245
 20
119.0772664438
 30
0.0
 10
30.4884596528
 20
119.1579773829
 30
0.0
 10
30.4758220739
 20
119.2497448465
 30
0.0
 10
30.4735660765
 20
119.2944774217
 30
0.0
  0
SPLINE
  5
27D
100
AcDbEntity
  8
0
100
AcDbSpline
 62
7
  6
BYLAYER
 70
0
 71
3
 72
11
 73
7
 74
0
 42
0.0000001
 43
0.0000001
 44
0.0000000001
 40
0.0
 40
0.0
 40
0.0
 40
0.0
 40
0.193762789
 40
0.4242744087
 40
0.6985581933
 40
1.0
 40
1.0
 40
1.0
 40
1.0
 10
35.2735659006
 20
118.7767511209
 30
0.0
 10
35.2735836885
 20
118.7932861569
 30
0.0
 10
35.260510556
 20
118.829769475
 30
0.0
 10
35.2135202204
 20
118.8691323421
 30
0.0
 10
35.1486802262
 20
118.8944666939
 30
0.0
 10
35.0992900766
 20
118.9002121519
 30
0.0
 10
35.0735660765
 20
118.9002121519
 30
0.0
  0
SPLINE
  5
27E
100
AcDbEntity
  8
0
100
AcDbSpline
 62
7
  6
BYLAYER
 70
0
 71
3
 72
12
 73
8
 74
0
 42
0.0000001
 43
0.0000001
 44
0.0000000001
 40
0.0
 40
0.0
 40
0.0
 40
0.0
 40
0.2935390313
 40
0.5815229411
 40
0.7083854604
 40
0.8197408443
 40
1.0
 40
1.0
 40
1.0
 40
1.0
 10
30.4735660766
 20
119.2944777867
 30
0.0
 10
30.4982609859
 20
119.2944765374
 30
0.0
 10
30.5472779423
 20
119.2892050176
 30
0.0
 10
30.6043246809
 20
119.268749747
 30
0.0
 10
30.6406242057
 20
119.2428637584
 30
0.0
 10
30.664600455
 20
119.2168732089
 30
0.0
 10
30.6735603739
 20
119.1920651878
 30
0.0
 10
30.6735571859
 20
119.1769003104
 30
0.0
  0
SPLINE
  5
27F
100
AcDbEntity
  8
0
100
AcDbSpline
 62
7
  6
BYLAYER
 70
0
 71
3
 72
12
 73
8
 74
0
 42
0.0000001
 43
0.0000001
 44
0.0000000001
 40
0.0
 40
0.0
 40
0.0
 40
0.0
 40
0.1802579878
 40
0.2916128451
 40
0.418475236
 40
0.7064598119
 40
1.0
 40
1.0
 40
1.0
 40
1.0
 10
30.6735573645
 20
135.5769301003
 30
0.0
 10
30.6735609381
 20
135.5617652204
 30
0.0
 10
30.6646014733
 20
135.5369569413
 30
0.0
 10
30.6406254595
 20
135.5109660527
 30
0.0
 10
30.6043258876
 20
135.4850796004
 30
0.0
 10
30.547278679
 20
135.464623937
 30
0.0
 10
30.4982612474
 20
135.459352287
 30
0.0
 10
30.4735660765
 20
135.459351024
 30
0.0
  0
ENDSEC
  0
SECTION
  2
OBJECTS
  0
DICTIONARY
  5
C
100
AcDbDictionary
280
0
281
1
  3
ACAD_GROUP
350
D
  3
ACAD_MLINESTYLE
350
17
  3
ACAD_LAYOUT
350
1A
  3
ACAD_PLOTSETTINGS
350
19
  3
ACAD_PLOTSTYLENAME
350
E
  0
DICTIONARY
  5
D
102
{ACAD_REACTORS
330
C
102
}
100
AcDbDictionary
280
0
281
1
  0
ACDBDICTIONARYWDFLT
  5
E
102
{ACAD_REACTORS
330
C
102
}
100
AcDbDictionary
281
1
  3
Normal
350
F
100
AcDbDictionaryWithDefault
340
F
  0
DICTIONARY
  5
17
102
{ACAD_REACTORS
330
C
102
}
100
AcDbDictionary
280
0
281
1
  3
Standard
350
18
  0
DICTIONARY
  5
19
102
{ACAD_REACTORS
330
C
102
}
100
AcDbDictionary
281
1
  0
DICTIONARY
  5
1A
102
{ACAD_REACTORS
330
C
102
}
100
AcDbDictionary
281
1
  3
Model
350
280
  3
Layout1
350
281
  0
ACDBPLACEHOLDER
  5
F
102
{ACAD_REACTORS
330
E
102
}
  0
MLINESTYLE
  5
18
102
{ACAD_REACTORS
330
17
102
}
100
AcDbMlineStyle
  2
STANDARD
 70
0
  3

 62
256
 51
90.0
 52
90.0
 71
2
 49
0.5
 62
256
  6
BYLAYER
 49
-0.5
 62
256
  6
BYLAYER
  0
LAYOUT
  5
280
102
{ACAD_REACTORS
330
1A
102
}
100
AcDbPlotSettings
  1

  2
none_device
  4

  6

 40
0.0
 41
0.0
 42
0.0
 43
0.0
 44
210.0
 45
297.0
 46
0.0
 47
0.0
 48
0.0
 49
0.0
140
0.0
141
0.0
142
1.0
143
1.0
 70
1024
 72
1
 73
0
 74
0
  7

 75
0
147
1.0
148
0.0
149
0.0
100
AcDbLayout
  1
Model
 70
0
 71
0
 10
0.0
 20
0.0
 11
210.0
 21
297.0
 12
0.0
 22
0.0
 32
0.0
 14
0.0
 24
0.0
 34
0.0
 15
0.0
 25
0.0
 35
0.0
146
0.0
 13
0.0
 23
0.0
 33
0.0
 16
1.0
 26
0.0
 36
0.0
 17
0.0
 27
1.0
 37
0.0
 76
0
330
210
345
0
346
0
  0
LAYOUT
  5
281
102
{ACAD_REACTORS
330
1A
102
}
100
AcDbPlotSettings
  1

  2
none_device
  4

  6

 40
0.0
 41
0.0
 42
0.0
 43
0.0
 44
210.0
 45
297.0
 46
0.0
 47
0.0
 48
0.0
 49
0.0
140
0.0
141
0.0
142
1.0
143
1.0
 70
0
 72
1
 73
0
 74
0
  7

 75
0
147
1.0
148
0.0
149
0.0
100
AcDbLayout
  1
Layout1
 70
0
 71
1
 10
0.0
 20
0.0
 11
210.0
 21
297.0
 12
0.0
 22
0.0
 32
0.0
 14
0.0
 24
0.0
 34
0.0
 15
0.0
 25
0.0
 35
0.0
146
0.0
 13
0.0
 23
0.0
 33
0.0
 16
1.0
 26
0.0
 36
0.0
 17
0.0
 27
1.0
 37
0.0
 76
0
330
211
345
0
346
0
  0
ENDSEC
  0
EOF
