  0
SECTION
  2
HEADER
  9
$ACADVER
  1
AC1006
  9
$EXTMIN
 10
-2.131000
 20
-4.372610
  9
$EXTMAX
 10
2.130000
 20
4.378000
  9
$LTSCALE
 40
0.000394
  9
$PDMODE
 70
    35
  9
$PDSIZE
 40
0.000315
  0
ENDSEC
  0
SECTION
  2
TABLES
  0
TABLE
  2
LTYPE
 70
     9
  0
LTYPE
  2
CONTINUOUS
 70
    64
  3
Solid line
 72
    65
 73
     0
 40
0.000000
  0
LTYPE
  2
DASHED
 70
    64
  3
__ __ __ __ __ __ __ __ __ __ __ __ __ __ __
 72
    65
 73
     2
 40
0.000003
 49
0.000002
 49
-0.000001
  0
LTYPE
  2
HIDDEN
 70
    64
  3
 _ _ _ _ _ _ _ _ _ _ _ _ _ _ _ _ _ _ _ _ _ _
 72
    65
 73
     2
 40
0.000001
 49
0.000001
 49
-0.000000
  0
LTYPE
  2
CENTER
 70
    64
  3
____ _ ____ _ ____ _ ____ _ ____ _ ____ _ ____
 72
    65
 73
     4
 40
0.000008
 49
0.000005
 49
-0.000001
 49
0.000001
 49
-0.000001
  0
LTYPE
  2
PHANTOM
 70
    64
  3
_____ _ _ _____ _ _ _____ _ _ _____ _ _ ____
 72
    65
 73
     6
 40
0.000010
 49
0.000005
 49
-0.000001
 49
0.000001
 49
-0.000001
 49
0.000001
 49
-0.000001
  0
LTYPE
  2
DOT
 70
    64
  3
...............................................
 72
    65
 73
     2
 40
0.000001
 49
0.000000
 49
-0.000001
  0
LTYPE
  2
DASHDOT
 70
    64
  3
__ . __ . __ . __ . __ . __ . __ . __ . __ . __
 72
    65
 73
     4
 40
0.000004
 49
0.000002
 49
-0.000001
 49
0.000000
 49
-0.000001
  0
LTYPE
  2
BORDER
 70
    64
  3
__ __ . __ __ . __ __ . __ __ . __ __ . __ __
 72
    65
 73
     6
 40
0.000007
 49
0.000002
 49
-0.000001
 49
0.000002
 49
-0.000001
 49
0.000000
 49
-0.000001
  0
LTYPE
  2
DIVIDE
 70
    64
  3
__ . . __ . . __ . . __ . . __ . . __ . . __
 72
    65
 73
     6
 40
0.000005
 49
0.000002
 49
-0.000001
 49
0.000000
 49
-0.000001
 49
0.000000
 49
-0.000001
  0
LTYPE
  2
DOTDOT
 70
    64
  3
 . .  . .  . .  . .  . .  . . 
 72
    65
 73
     5
 40
0.000002
 49
-0.000001
 49
0.000000
 49
-0.000001
 49
0.000000
 49
-0.000001
  0
ENDTAB
  0
TABLE
  2
STYLE
 70
     0
  0
ENDTAB
  0
TABLE
  2
LAYER
 70
     3
  0
LAYER
  2
FOREGROUND
 70
    64
 62
     7
  6
CONTINUOUS
  0
LAYER
  2
BACKGROUND
 70
    65
 62
    -7
  6
CONTINUOUS
  0
LAYER
  2
PLAN_1
 70
    64
 62
     7
  6
CONTINUOUS
  0
ENDTAB
  0
ENDSEC
  0
SECTION
  2
ENTITIES
  0
POLYLINE
  8
PLAN_1
  6
CONTINUOUS
 66
     1
 40
0.003000
 41
0.003000
  0
VERTEX
  8
PLAN_1
  6
CONTINUOUS
 10
0.254087
 20
-4.338154
  0
VERTEX
  8
PLAN_1
  6
CONTINUOUS
 10
0.097669
 20
-4.338154
  0
VERTEX
  8
PLAN_1
  6
CONTINUOUS
 10
0.097669
 20
-4.315185
  0
VERTEX
  8
PLAN_1
  6
CONTINUOUS
 10
0.219634
 20
-4.162594
  0
VERTEX
  8
PLAN_1
  6
CONTINUOUS
 10
0.106421
 20
-4.162594
  0
VERTEX
  8
PLAN_1
  6
CONTINUOUS
 10
0.106421
 20
-4.138531
  0
VERTEX
  8
PLAN_1
  6
CONTINUOUS
 10
0.254087
 20
-4.138531
  0
VERTEX
  8
PLAN_1
  6
CONTINUOUS
 10
0.254087
 20
-4.162047
  0
VERTEX
  8
PLAN_1
  6
CONTINUOUS
 10
0.131579
 20
-4.314091
  0
VERTEX
  8
PLAN_1
  6
CONTINUOUS
 10
0.254087
 20
-4.314091
  0
VERTEX
  8
PLAN_1
  6
CONTINUOUS
 10
0.254087
 20
-4.338154
  0
SEQEND
  8
0
  0
POLYLINE
  8
PLAN_1
  6
CONTINUOUS
 66
     1
 40
0.003000
 41
0.003000
  0
VERTEX
  8
PLAN_1
  6
CONTINUOUS
 10
0.421445
 20
-4.198693
  0
VERTEX
  8
PLAN_1
  6
CONTINUOUS
 10
0.419803
 20
-4.192130
  0
VERTEX
  8
PLAN_1
  6
CONTINUOUS
 10
0.418161
 20
-4.186657
  0
VERTEX
  8
PLAN_1
  6
CONTINUOUS
 10
0.415429
 20
-4.181736
  0
VERTEX
  8
PLAN_1
  6
CONTINUOUS
 10
0.412693
 20
-4.177362
  0
VERTEX
  8
PLAN_1
  6
CONTINUOUS
 10
0.409409
 20
-4.173531
  0
VERTEX
  8
PLAN_1
  6
CONTINUOUS
 10
0.405583
 20
-4.170252
  0
VERTEX
  8
PLAN_1
  6
CONTINUOUS
 10
0.402303
 20
-4.167516
  0
VERTEX
  8
PLAN_1
  6
CONTINUOUS
 10
0.397925
 20
-4.164783
  0
VERTEX
  8
PLAN_1
  6
CONTINUOUS
 10
0.394098
 20
-4.162594
  0
VERTEX
  8
PLAN_1
  6
CONTINUOUS
 10
0.389724
 20
-4.160953
  0
VERTEX
  8
PLAN_1
  6
CONTINUOUS
 10
0.385894
 20
-4.159862
  0
VERTEX
  8
PLAN_1
  6
CONTINUOUS
 10
0.381520
 20
-4.158768
  0
VERTEX
  8
PLAN_1
  6
CONTINUOUS
 10
0.373315
 20
-4.157673
  0
VERTEX
  8
PLAN_1
  6
CONTINUOUS
 10
0.365657
 20
-4.157126
  0
VERTEX
  8
PLAN_1
  6
CONTINUOUS
 10
0.359094
 20
-4.157673
  0
VERTEX
  8
PLAN_1
  6
CONTINUOUS
 10
0.352531
 20
-4.158768
  0
VERTEX
  8
PLAN_1
  6
CONTINUOUS
 10
0.346516
 20
-4.159862
  0
VERTEX
  8
PLAN_1
  6
CONTINUOUS
 10
0.340500
 20
-4.162047
  0
VERTEX
  8
PLAN_1
  6
CONTINUOUS
 10
0.335031
 20
-4.164783
  0
VERTEX
  8
PLAN_1
  6
CONTINUOUS
 10
0.329563
 20
-4.168610
  0
VERTEX
  8
PLAN_1
  6
CONTINUOUS
 10
0.324642
 20
-4.172441
  0
VERTEX
  8
PLAN_1
  6
CONTINUOUS
 10
0.319717
 20
-4.177362
  0
VERTEX
  8
PLAN_1
  6
CONTINUOUS
 10
0.315343
 20
-4.182283
  0
VERTEX
  8
PLAN_1
  6
CONTINUOUS
 10
0.312059
 20
-4.188299
  0
VERTEX
  8
PLAN_1
  6
CONTINUOUS
 10
0.308780
 20
-4.194862
  0
VERTEX
  8
PLAN_1
  6
CONTINUOUS
 10
0.306043
 20
-4.201972
  0
VERTEX
  8
PLAN_1
  6
CONTINUOUS
 10
0.303858
 20
-4.209630
  0
VERTEX
  8
PLAN_1
  6
CONTINUOUS
 10
0.302217
 20
-4.217835
  0
VERTEX
  8
PLAN_1
  6
CONTINUOUS
 10
0.301122
 20
-4.226583
  0
VERTEX
  8
PLAN_1
  6
CONTINUOUS
 10
0.300575
 20
-4.236429
  0
VERTEX
  8
PLAN_1
  6
CONTINUOUS
 10
0.301122
 20
-4.245177
  0
VERTEX
  8
PLAN_1
  6
CONTINUOUS
 10
0.301669
 20
-4.253382
  0
VERTEX
  8
PLAN_1
  6
CONTINUOUS
 10
0.302764
 20
-4.261587
  0
VERTEX
  8
PLAN_1
  6
CONTINUOUS
 10
0.303858
 20
-4.269244
  0
VERTEX
  8
PLAN_1
  6
CONTINUOUS
 10
0.306043
 20
-4.276354
  0
VERTEX
  8
PLAN_1
  6
CONTINUOUS
 10
0.308780
 20
-4.283465
  0
VERTEX
  8
PLAN_1
  6
CONTINUOUS
 10
0.311516
 20
-4.289480
  0
VERTEX
  8
PLAN_1
  6
CONTINUOUS
 10
0.315343
 20
-4.295496
  0
VERTEX
  8
PLAN_1
  6
CONTINUOUS
 10
0.319169
 20
-4.300965
  0
VERTEX
  8
PLAN_1
  6
CONTINUOUS
 10
0.324094
 20
-4.305339
  0
VERTEX
  8
PLAN_1
  6
CONTINUOUS
 10
0.329563
 20
-4.309717
  0
VERTEX
  8
PLAN_1
  6
CONTINUOUS
 10
0.335579
 20
-4.312996
  0
VERTEX
  8
PLAN_1
  6
CONTINUOUS
 10
0.342142
 20
-4.315732
  0
VERTEX
  8
PLAN_1
  6
CONTINUOUS
 10
0.349799
 20
-4.317917
  0
VERTEX
  8
PLAN_1
  6
CONTINUOUS
 10
0.358000
 20
-4.319012
  0
VERTEX
  8
PLAN_1
  6
CONTINUOUS
 10
0.366752
 20
-4.319559
  0
VERTEX
  8
PLAN_1
  6
CONTINUOUS
 10
0.373862
 20
-4.319012
  0
VERTEX
  8
PLAN_1
  6
CONTINUOUS
 10
0.381520
 20
-4.317370
  0
VERTEX
  8
PLAN_1
  6
CONTINUOUS
 10
0.385894
 20
-4.315732
  0
VERTEX
  8
PLAN_1
  6
CONTINUOUS
 10
0.390268
 20
-4.314091
  0
VERTEX
  8
PLAN_1
  6
CONTINUOUS
 10
0.394098
 20
-4.311902
  0
VERTEX
  8
PLAN_1
  6
CONTINUOUS
 10
0.398472
 20
-4.309169
  0
VERTEX
  8
PLAN_1
  6
CONTINUOUS
 10
0.402303
 20
-4.305886
  0
VERTEX
  8
PLAN_1
  6
CONTINUOUS
 10
0.406130
 20
-4.302059
  0
VERTEX
  8
PLAN_1
  6
CONTINUOUS
 10
0.409957
 20
-4.297681
  0
VERTEX
  8
PLAN_1
  6
CONTINUOUS
 10
0.413240
 20
-4.292760
  0
VERTEX
  8
PLAN_1
  6
CONTINUOUS
 10
0.416520
 20
-4.286744
  0
VERTEX
  8
PLAN_1
  6
CONTINUOUS
 10
0.419256
 20
-4.280181
  0
VERTEX
  8
PLAN_1
  6
CONTINUOUS
 10
0.421445
 20
-4.273071
  0
VERTEX
  8
PLAN_1
  6
CONTINUOUS
 10
0.423630
 20
-4.264866
  0
VERTEX
  8
PLAN_1
  6
CONTINUOUS
 10
0.449882
 20
-4.264866
  0
VERTEX
  8
PLAN_1
  6
CONTINUOUS
 10
0.448787
 20
-4.271429
  0
VERTEX
  8
PLAN_1
  6
CONTINUOUS
 10
0.447150
 20
-4.277992
  0
VERTEX
  8
PLAN_1
  6
CONTINUOUS
 10
0.445508
 20
-4.284008
  0
VERTEX
  8
PLAN_1
  6
CONTINUOUS
 10
0.443319
 20
-4.289480
  0
VERTEX
  8
PLAN_1
  6
CONTINUOUS
 10
0.441134
 20
-4.294949
  0
VERTEX
  8
PLAN_1
  6
CONTINUOUS
 10
0.438945
 20
-4.299870
  0
VERTEX
  8
PLAN_1
  6
CONTINUOUS
 10
0.436209
 20
-4.304244
  0
VERTEX
  8
PLAN_1
  6
CONTINUOUS
 10
0.433476
 20
-4.308622
  0
VERTEX
  8
PLAN_1
  6
CONTINUOUS
 10
0.430740
 20
-4.312449
  0
VERTEX
  8
PLAN_1
  6
CONTINUOUS
 10
0.427461
 20
-4.316280
  0
VERTEX
  8
PLAN_1
  6
CONTINUOUS
 10
0.424177
 20
-4.319559
  0
VERTEX
  8
PLAN_1
  6
CONTINUOUS
 10
0.421445
 20
-4.322295
  0
VERTEX
  8
PLAN_1
  6
CONTINUOUS
 10
0.414335
 20
-4.327764
  0
VERTEX
  8
PLAN_1
  6
CONTINUOUS
 10
0.407772
 20
-4.332138
  0
VERTEX
  8
PLAN_1
  6
CONTINUOUS
 10
0.400661
 20
-4.335421
  0
VERTEX
  8
PLAN_1
  6
CONTINUOUS
 10
0.393551
 20
-4.338154
  0
VERTEX
  8
PLAN_1
  6
CONTINUOUS
 10
0.386988
 20
-4.340343
  0
VERTEX
  8
PLAN_1
  6
CONTINUOUS
 10
0.380972
 20
-4.341437
  0
VERTEX
  8
PLAN_1
  6
CONTINUOUS
 10
0.370035
 20
-4.343075
  0
VERTEX
  8
PLAN_1
  6
CONTINUOUS
 10
0.362378
 20
-4.343075
  0
VERTEX
  8
PLAN_1
  6
CONTINUOUS
 10
0.354173
 20
-4.343075
  0
VERTEX
  8
PLAN_1
  6
CONTINUOUS
 10
0.345969
 20
-4.341984
  0
VERTEX
  8
PLAN_1
  6
CONTINUOUS
 10
0.337768
 20
-4.339795
  0
VERTEX
  8
PLAN_1
  6
CONTINUOUS
 10
0.329563
 20
-4.337606
  0
VERTEX
  8
PLAN_1
  6
CONTINUOUS
 10
0.321906
 20
-4.333780
  0
VERTEX
  8
PLAN_1
  6
CONTINUOUS
 10
0.314248
 20
-4.329949
  0
VERTEX
  8
PLAN_1
  6
CONTINUOUS
 10
0.307138
 20
-4.325028
  0
VERTEX
  8
PLAN_1
  6
CONTINUOUS
 10
0.300575
 20
-4.319012
  0
VERTEX
  8
PLAN_1
  6
CONTINUOUS
 10
0.294559
 20
-4.311902
  0
VERTEX
  8
PLAN_1
  6
CONTINUOUS
 10
0.289091
 20
-4.304244
  0
VERTEX
  8
PLAN_1
  6
CONTINUOUS
 10
0.284717
 20
-4.295496
  0
VERTEX
  8
PLAN_1
  6
CONTINUOUS
 10
0.280339
 20
-4.286197
  0
VERTEX
  8
PLAN_1
  6
CONTINUOUS
 10
0.277059
 20
-4.275260
  0
VERTEX
  8
PLAN_1
  6
CONTINUOUS
 10
0.274870
 20
-4.263776
  0
VERTEX
  8
PLAN_1
  6
CONTINUOUS
 10
0.273228
 20
-4.251197
  0
VERTEX
  8
PLAN_1
  6
CONTINUOUS
 10
0.272685
 20
-4.236976
  0
VERTEX
  8
PLAN_1
  6
CONTINUOUS
 10
0.273228
 20
-4.226035
  0
VERTEX
  8
PLAN_1
  6
CONTINUOUS
 10
0.274323
 20
-4.215098
  0
VERTEX
  8
PLAN_1
  6
CONTINUOUS
 10
0.276512
 20
-4.204709
  0
VERTEX
  8
PLAN_1
  6
CONTINUOUS
 10
0.279244
 20
-4.194862
  0
VERTEX
  8
PLAN_1
  6
CONTINUOUS
 10
0.283075
 20
-4.186114
  0
VERTEX
  8
PLAN_1
  6
CONTINUOUS
 10
0.286902
 20
-4.177362
  0
VERTEX
  8
PLAN_1
  6
CONTINUOUS
 10
0.291827
 20
-4.169705
  0
VERTEX
  8
PLAN_1
  6
CONTINUOUS
 10
0.297843
 20
-4.162047
  0
VERTEX
  8
PLAN_1
  6
CONTINUOUS
 10
0.303858
 20
-4.156031
  0
VERTEX
  8
PLAN_1
  6
CONTINUOUS
 10
0.310969
 20
-4.150016
  0
VERTEX
  8
PLAN_1
  6
CONTINUOUS
 10
0.318622
 20
-4.145094
  0
VERTEX
  8
PLAN_1
  6
CONTINUOUS
 10
0.326827
 20
-4.140720
  0
VERTEX
  8
PLAN_1
  6
CONTINUOUS
 10
0.335579
 20
-4.137437
  0
VERTEX
  8
PLAN_1
  6
CONTINUOUS
 10
0.345421
 20
-4.135248
  0
VERTEX
  8
PLAN_1
  6
CONTINUOUS
 10
0.355268
 20
-4.133610
  0
VERTEX
  8
PLAN_1
  6
CONTINUOUS
 10
0.365657
 20
-4.133610
  0
VERTEX
  8
PLAN_1
  6
CONTINUOUS
 10
0.375504
 20
-4.133610
  0
VERTEX
  8
PLAN_1
  6
CONTINUOUS
 10
0.384252
 20
-4.134701
  0
VERTEX
  8
PLAN_1
  6
CONTINUOUS
 10
0.391909
 20
-4.136343
  0
VERTEX
  8
PLAN_1
  6
CONTINUOUS
 10
0.399567
 20
-4.139079
  0
VERTEX
  8
PLAN_1
  6
CONTINUOUS
 10
0.406677
 20
-4.141811
  0
VERTEX
  8
PLAN_1
  6
CONTINUOUS
 10
0.413240
 20
-4.145094
  0
VERTEX
  8
PLAN_1
  6
CONTINUOUS
 10
0.419256
 20
-4.148921
  0
VERTEX
  8
PLAN_1
  6
CONTINUOUS
 10
0.424724
 20
-4.153299
  0
VERTEX
  8
PLAN_1
  6
CONTINUOUS
 10
0.429646
 20
-4.158220
  0
VERTEX
  8
PLAN_1
  6
CONTINUOUS
 10
0.433476
 20
-4.163142
  0
VERTEX
  8
PLAN_1
  6
CONTINUOUS
 10
0.437303
 20
-4.168610
  0
VERTEX
  8
PLAN_1
  6
CONTINUOUS
 10
0.440587
 20
-4.174626
  0
VERTEX
  8
PLAN_1
  6
CONTINUOUS
 10
0.443319
 20
-4.180094
  0
VERTEX
  8
PLAN_1
  6
CONTINUOUS
 10
0.445508
 20
-4.186114
  0
VERTEX
  8
PLAN_1
  6
CONTINUOUS
 10
0.446602
 20
-4.192130
  0
VERTEX
  8
PLAN_1
  6
CONTINUOUS
 10
0.447697
 20
-4.198693
  0
VERTEX
  8
PLAN_1
  6
CONTINUOUS
 10
0.421445
 20
-4.198693
  0
SEQEND
  8
0
  0
POLYLINE
  8
PLAN_1
  6
CONTINUOUS
 66
     1
 40
0.003000
 41
0.003000
  0
VERTEX
  8
PLAN_1
  6
CONTINUOUS
 10
0.508949
 20
-4.338154
  0
VERTEX
  8
PLAN_1
  6
CONTINUOUS
 10
0.482150
 20
-4.338154
  0
VERTEX
  8
PLAN_1
  6
CONTINUOUS
 10
0.482150
 20
-4.138531
  0
VERTEX
  8
PLAN_1
  6
CONTINUOUS
 10
0.508949
 20
-4.138531
  0
VERTEX
  8
PLAN_1
  6
CONTINUOUS
 10
0.508949
 20
-4.235335
  0
VERTEX
  8
PLAN_1
  6
CONTINUOUS
 10
0.605752
 20
-4.138531
  0
VERTEX
  8
PLAN_1
  6
CONTINUOUS
 10
0.642945
 20
-4.138531
  0
VERTEX
  8
PLAN_1
  6
CONTINUOUS
 10
0.559811
 20
-4.218925
  0
VERTEX
  8
PLAN_1
  6
CONTINUOUS
 10
0.645130
 20
-4.338154
  0
VERTEX
  8
PLAN_1
  6
CONTINUOUS
 10
0.610130
 20
-4.338154
  0
VERTEX
  8
PLAN_1
  6
CONTINUOUS
 10
0.540669
 20
-4.238071
  0
VERTEX
  8
PLAN_1
  6
CONTINUOUS
 10
0.508949
 20
-4.268150
  0
VERTEX
  8
PLAN_1
  6
CONTINUOUS
 10
0.508949
 20
-4.338154
  0
SEQEND
  8
0
  0
POLYLINE
  8
PLAN_1
  6
CONTINUOUS
 66
     1
 40
0.003000
 41
0.003000
  0
VERTEX
  8
PLAN_1
  6
CONTINUOUS
 10
0.668650
 20
-4.138531
  0
VERTEX
  8
PLAN_1
  6
CONTINUOUS
 10
0.749591
 20
-4.138531
  0
VERTEX
  8
PLAN_1
  6
CONTINUOUS
 10
0.758890
 20
-4.139079
  0
VERTEX
  8
PLAN_1
  6
CONTINUOUS
 10
0.768185
 20
-4.140720
  0
VERTEX
  8
PLAN_1
  6
CONTINUOUS
 10
0.776390
 20
-4.142906
  0
VERTEX
  8
PLAN_1
  6
CONTINUOUS
 10
0.784594
 20
-4.145642
  0
VERTEX
  8
PLAN_1
  6
CONTINUOUS
 10
0.792252
 20
-4.149469
  0
VERTEX
  8
PLAN_1
  6
CONTINUOUS
 10
0.798815
 20
-4.154390
  0
VERTEX
  8
PLAN_1
  6
CONTINUOUS
 10
0.805378
 20
-4.159315
  0
VERTEX
  8
PLAN_1
  6
CONTINUOUS
 10
0.810846
 20
-4.165331
  0
VERTEX
  8
PLAN_1
  6
CONTINUOUS
 10
0.816315
 20
-4.172441
  0
VERTEX
  8
PLAN_1
  6
CONTINUOUS
 10
0.820689
 20
-4.179551
  0
VERTEX
  8
PLAN_1
  6
CONTINUOUS
 10
0.824520
 20
-4.187752
  0
VERTEX
  8
PLAN_1
  6
CONTINUOUS
 10
0.827799
 20
-4.195957
  0
VERTEX
  8
PLAN_1
  6
CONTINUOUS
 10
0.829988
 20
-4.205256
  0
VERTEX
  8
PLAN_1
  6
CONTINUOUS
 10
0.832177
 20
-4.215098
  0
VERTEX
  8
PLAN_1
  6
CONTINUOUS
 10
0.833268
 20
-4.224945
  0
VERTEX
  8
PLAN_1
  6
CONTINUOUS
 10
0.833268
 20
-4.235335
  0
VERTEX
  8
PLAN_1
  6
CONTINUOUS
 10
0.833268
 20
-4.244087
  0
VERTEX
  8
PLAN_1
  6
CONTINUOUS
 10
0.832720
 20
-4.252835
  0
VERTEX
  8
PLAN_1
  6
CONTINUOUS
 10
0.831083
 20
-4.261587
  0
VERTEX
  8
PLAN_1
  6
CONTINUOUS
 10
0.829441
 20
-4.270339
  0
VERTEX
  8
PLAN_1
  6
CONTINUOUS
 10
0.826705
 20
-4.279087
  0
VERTEX
  8
PLAN_1
  6
CONTINUOUS
 10
0.823972
 20
-4.287291
  0
VERTEX
  8
PLAN_1
  6
CONTINUOUS
 10
0.820142
 20
-4.295496
  0
VERTEX
  8
PLAN_1
  6
CONTINUOUS
 10
0.815768
 20
-4.303697
  0
VERTEX
  8
PLAN_1
  6
CONTINUOUS
 10
0.810299
 20
-4.310807
  0
VERTEX
  8
PLAN_1
  6
CONTINUOUS
 10
0.804283
 20
-4.317370
  0
VERTEX
  8
PLAN_1
  6
CONTINUOUS
 10
0.801000
 20
-4.320106
  0
VERTEX
  8
PLAN_1
  6
CONTINUOUS
 10
0.797173
 20
-4.323386
  0
VERTEX
  8
PLAN_1
  6
CONTINUOUS
 10
0.793343
 20
-4.325575
  0
VERTEX
  8
PLAN_1
  6
CONTINUOUS
 10
0.789516
 20
-4.328311
  0
VERTEX
  8
PLAN_1
  6
CONTINUOUS
 10
0.785142
 20
-4.330496
  0
VERTEX
  8
PLAN_1
  6
CONTINUOUS
 10
0.780764
 20
-4.332138
  0
VERTEX
  8
PLAN_1
  6
CONTINUOUS
 10
0.775843
 20
-4.333780
  0
VERTEX
  8
PLAN_1
  6
CONTINUOUS
 10
0.770921
 20
-4.335421
  0
VERTEX
  8
PLAN_1
  6
CONTINUOUS
 10
0.766000
 20
-4.336512
  0
VERTEX
  8
PLAN_1
  6
CONTINUOUS
 10
0.760531
 20
-4.337059
  0
VERTEX
  8
PLAN_1
  6
CONTINUOUS
 10
0.754512
 20
-4.337606
  0
VERTEX
  8
PLAN_1
  6
CONTINUOUS
 10
0.748496
 20
-4.338154
  0
VERTEX
  8
PLAN_1
  6
CONTINUOUS
 10
0.668650
 20
-4.338154
  0
VERTEX
  8
PLAN_1
  6
CONTINUOUS
 10
0.668650
 20
-4.138531
  0
SEQEND
  8
0
  0
POLYLINE
  8
PLAN_1
  6
CONTINUOUS
 66
     1
 40
0.003000
 41
0.003000
  0
VERTEX
  8
PLAN_1
  6
CONTINUOUS
 10
0.695992
 20
-4.314638
  0
VERTEX
  8
PLAN_1
  6
CONTINUOUS
 10
0.747949
 20
-4.314638
  0
VERTEX
  8
PLAN_1
  6
CONTINUOUS
 10
0.754512
 20
-4.314638
  0
VERTEX
  8
PLAN_1
  6
CONTINUOUS
 10
0.760531
 20
-4.313543
  0
VERTEX
  8
PLAN_1
  6
CONTINUOUS
 10
0.766000
 20
-4.311902
  0
VERTEX
  8
PLAN_1
  6
CONTINUOUS
 10
0.771469
 20
-4.309717
  0
VERTEX
  8
PLAN_1
  6
CONTINUOUS
 10
0.776937
 20
-4.306980
  0
VERTEX
  8
PLAN_1
  6
CONTINUOUS
 10
0.781311
 20
-4.303697
  0
VERTEX
  8
PLAN_1
  6
CONTINUOUS
 10
0.785689
 20
-4.299323
  0
VERTEX
  8
PLAN_1
  6
CONTINUOUS
 10
0.790063
 20
-4.294949
  0
VERTEX
  8
PLAN_1
  6
CONTINUOUS
 10
0.793343
 20
-4.289480
  0
VERTEX
  8
PLAN_1
  6
CONTINUOUS
 10
0.796626
 20
-4.284008
  0
VERTEX
  8
PLAN_1
  6
CONTINUOUS
 10
0.799362
 20
-4.277445
  0
VERTEX
  8
PLAN_1
  6
CONTINUOUS
 10
0.801547
 20
-4.270339
  0
VERTEX
  8
PLAN_1
  6
CONTINUOUS
 10
0.803189
 20
-4.263228
  0
VERTEX
  8
PLAN_1
  6
CONTINUOUS
 10
0.804831
 20
-4.255024
  0
VERTEX
  8
PLAN_1
  6
CONTINUOUS
 10
0.805378
 20
-4.246272
  0
VERTEX
  8
PLAN_1
  6
CONTINUOUS
 10
0.805925
 20
-4.236976
  0
VERTEX
  8
PLAN_1
  6
CONTINUOUS
 10
0.805378
 20
-4.228224
  0
VERTEX
  8
PLAN_1
  6
CONTINUOUS
 10
0.804831
 20
-4.219472
  0
VERTEX
  8
PLAN_1
  6
CONTINUOUS
 10
0.803189
 20
-4.211819
  0
VERTEX
  8
PLAN_1
  6
CONTINUOUS
 10
0.801547
 20
-4.204161
  0
VERTEX
  8
PLAN_1
  6
CONTINUOUS
 10
0.799362
 20
-4.197598
  0
VERTEX
  8
PLAN_1
  6
CONTINUOUS
 10
0.796626
 20
-4.191035
  0
VERTEX
  8
PLAN_1
  6
CONTINUOUS
 10
0.793343
 20
-4.185567
  0
VERTEX
  8
PLAN_1
  6
CONTINUOUS
 10
0.789516
 20
-4.180642
  0
VERTEX
  8
PLAN_1
  6
CONTINUOUS
 10
0.785689
 20
-4.176268
  0
VERTEX
  8
PLAN_1
  6
CONTINUOUS
 10
0.780764
 20
-4.172441
  0
VERTEX
  8
PLAN_1
  6
CONTINUOUS
 10
0.775843
 20
-4.169157
  0
VERTEX
  8
PLAN_1
  6
CONTINUOUS
 10
0.770921
 20
-4.166425
  0
VERTEX
  8
PLAN_1
  6
CONTINUOUS
 10
0.764906
 20
-4.164236
  0
VERTEX
  8
PLAN_1
  6
CONTINUOUS
 10
0.758890
 20
-4.163142
  0
VERTEX
  8
PLAN_1
  6
CONTINUOUS
 10
0.752874
 20
-4.162047
  0
VERTEX
  8
PLAN_1
  6
CONTINUOUS
 10
0.745764
 20
-4.161500
  0
VERTEX
  8
PLAN_1
  6
CONTINUOUS
 10
0.695992
 20
-4.161500
  0
VERTEX
  8
PLAN_1
  6
CONTINUOUS
 10
0.695992
 20
-4.314638
  0
SEQEND
  8
0
  0
POLYLINE
  8
PLAN_1
  6
CONTINUOUS
 66
     1
 40
0.003000
 41
0.003000
  0
VERTEX
  8
PLAN_1
  6
CONTINUOUS
 10
0.858425
 20
-4.209630
  0
VERTEX
  8
PLAN_1
  6
CONTINUOUS
 10
0.858972
 20
-4.203067
  0
VERTEX
  8
PLAN_1
  6
CONTINUOUS
 10
0.859520
 20
-4.196504
  0
VERTEX
  8
PLAN_1
  6
CONTINUOUS
 10
0.860614
 20
-4.190488
  0
VERTEX
  8
PLAN_1
  6
CONTINUOUS
 10
0.862256
 20
-4.184472
  0
VERTEX
  8
PLAN_1
  6
CONTINUOUS
 10
0.864988
 20
-4.178457
  0
VERTEX
  8
PLAN_1
  6
CONTINUOUS
 10
0.867724
 20
-4.172988
  0
VERTEX
  8
PLAN_1
  6
CONTINUOUS
 10
0.871008
 20
-4.167516
  0
VERTEX
  8
PLAN_1
  6
CONTINUOUS
 10
0.874287
 20
-4.163142
  0
VERTEX
  8
PLAN_1
  6
CONTINUOUS
 10
0.878661
 20
-4.158768
  0
VERTEX
  8
PLAN_1
  6
CONTINUOUS
 10
0.883587
 20
-4.154390
  0
VERTEX
  8
PLAN_1
  6
CONTINUOUS
 10
0.888508
 20
-4.151110
  0
VERTEX
  8
PLAN_1
  6
CONTINUOUS
 10
0.893976
 20
-4.148374
  0
VERTEX
  8
PLAN_1
  6
CONTINUOUS
 10
0.899992
 20
-4.146189
  0
VERTEX
  8
PLAN_1
  6
CONTINUOUS
 10
0.906555
 20
-4.144000
  0
VERTEX
  8
PLAN_1
  6
CONTINUOUS
 10
0.913665
 20
-4.143453
  0
VERTEX
  8
PLAN_1
  6
CONTINUOUS
 10
0.921323
 20
-4.142906
  0
VERTEX
  8
PLAN_1
  6
CONTINUOUS
 10
0.926791
 20
-4.142906
  0
VERTEX
  8
PLAN_1
  6
CONTINUOUS
 10
0.932260
 20
-4.143453
  0
VERTEX
  8
PLAN_1
  6
CONTINUOUS
 10
0.937181
 20
-4.144547
  0
VERTEX
  8
PLAN_1
  6
CONTINUOUS
 10
0.942106
 20
-4.145642
  0
VERTEX
  8
PLAN_1
  6
CONTINUOUS
 10
0.946480
 20
-4.146736
  0
VERTEX
  8
PLAN_1
  6
CONTINUOUS
 10
0.950854
 20
-4.148374
  0
VERTEX
  8
PLAN_1
  6
CONTINUOUS
 10
0.954685
 20
-4.150563
  0
VERTEX
  8
PLAN_1
  6
CONTINUOUS
 10
0.957965
 20
-4.152752
  0
VERTEX
  8
PLAN_1
  6
CONTINUOUS
 10
0.961248
 20
-4.154937
  0
VERTEX
  8
PLAN_1
  6
CONTINUOUS
 10
0.964528
 20
-4.157673
  0
VERTEX
  8
PLAN_1
  6
CONTINUOUS
 10
0.967264
 20
-4.160406
  0
VERTEX
  8
PLAN_1
  6
CONTINUOUS
 10
0.969996
 20
-4.163142
  0
VERTEX
  8
PLAN_1
  6
CONTINUOUS
 10
0.974921
 20
-4.169157
  0
VERTEX
  8
PLAN_1
  6
CONTINUOUS
 10
0.978748
 20
-4.176268
  0
VERTEX
  8
PLAN_1
  6
CONTINUOUS
 10
0.982028
 20
-4.183378
  0
VERTEX
  8
PLAN_1
  6
CONTINUOUS
 10
0.984217
 20
-4.191035
  0
VERTEX
  8
PLAN_1
  6
CONTINUOUS
 10
0.986406
 20
-4.198146
  0
VERTEX
  8
PLAN_1
  6
CONTINUOUS
 10
0.987500
 20
-4.205799
  0
VERTEX
  8
PLAN_1
  6
CONTINUOUS
 10
0.989138
 20
-4.220567
  0
VERTEX
  8
PLAN_1
  6
CONTINUOUS
 10
0.989685
 20
-4.233146
  0
VERTEX
  8
PLAN_1
  6
CONTINUOUS
 10
0.989138
 20
-4.244087
  0
VERTEX
  8
PLAN_1
  6
CONTINUOUS
 10
0.988047
 20
-4.259398
  0
VERTEX
  8
PLAN_1
  6
CONTINUOUS
 10
0.986406
 20
-4.268150
  0
VERTEX
  8
PLAN_1
  6
CONTINUOUS
 10
0.984764
 20
-4.277445
  0
VERTEX
  8
PLAN_1
  6
CONTINUOUS
 10
0.982575
 20
-4.286744
  0
VERTEX
  8
PLAN_1
  6
CONTINUOUS
 10
0.979295
 20
-4.296043
  0
VERTEX
  8
PLAN_1
  6
CONTINUOUS
 10
0.975465
 20
-4.305339
  0
VERTEX
  8
PLAN_1
  6
CONTINUOUS
 10
0.970543
 20
-4.314091
  0
VERTEX
  8
PLAN_1
  6
CONTINUOUS
 10
0.967811
 20
-4.317917
  0
VERTEX
  8
PLAN_1
  6
CONTINUOUS
 10
0.965075
 20
-4.321748
  0
VERTEX
  8
PLAN_1
  6
CONTINUOUS
 10
0.961795
 20
-4.325575
  0
VERTEX
  8
PLAN_1
  6
CONTINUOUS
 10
0.957965
 20
-4.328858
  0
VERTEX
  8
PLAN_1
  6
CONTINUOUS
 10
0.954138
 20
-4.332138
  0
VERTEX
  8
PLAN_1
  6
CONTINUOUS
 10
0.950307
 20
-4.334874
  0
VERTEX
  8
PLAN_1
  6
CONTINUOUS
 10
0.945933
 20
-4.337059
  0
VERTEX
  8
PLAN_1
  6
CONTINUOUS
 10
0.941012
 20
-4.339248
  0
VERTEX
  8
PLAN_1
  6
CONTINUOUS
 10
0.936091
 20
-4.340890
  0
VERTEX
  8
PLAN_1
  6
CONTINUOUS
 10
0.930618
 20
-4.341984
  0
VERTEX
  8
PLAN_1
  6
CONTINUOUS
 10
0.924602
 20
-4.343075
  0
VERTEX
  8
PLAN_1
  6
CONTINUOUS
 10
0.918587
 20
-4.343075
  0
VERTEX
  8
PLAN_1
  6
CONTINUOUS
 10
0.910382
 20
-4.343075
  0
VERTEX
  8
PLAN_1
  6
CONTINUOUS
 10
0.903276
 20
-4.341984
  0
VERTEX
  8
PLAN_1
  6
CONTINUOUS
 10
0.896165
 20
-4.339795
  0
VERTEX
  8
PLAN_1
  6
CONTINUOUS
 10
0.890150
 20
-4.337606
  0
VERTEX
  8
PLAN_1
  6
CONTINUOUS
 10
0.885224
 20
-4.334874
  0
VERTEX
  8
PLAN_1
  6
CONTINUOUS
 10
0.880303
 20
-4.331591
  0
VERTEX
  8
PLAN_1
  6
CONTINUOUS
 10
0.875929
 20
-4.328311
  0
VERTEX
  8
PLAN_1
  6
CONTINUOUS
 10
0.872646
 20
-4.323933
  0
VERTEX
  8
PLAN_1
  6
CONTINUOUS
 10
0.869366
 20
-4.320106
  0
VERTEX
  8
PLAN_1
  6
CONTINUOUS
 10
0.867177
 20
-4.315732
  0
VERTEX
  8
PLAN_1
  6
CONTINUOUS
 10
0.864988
 20
-4.311354
  0
VERTEX
  8
PLAN_1
  6
CONTINUOUS
 10
0.863350
 20
-4.306980
  0
VERTEX
  8
PLAN_1
  6
CONTINUOUS
 10
0.862256
 20
-4.302606
  0
VERTEX
  8
PLAN_1
  6
CONTINUOUS
 10
0.861161
 20
-4.298776
  0
VERTEX
  8
PLAN_1
  6
CONTINUOUS
 10
0.860614
 20
-4.294949
  0
VERTEX
  8
PLAN_1
  6
CONTINUOUS
 10
0.860614
 20
-4.291118
  0
VERTEX
  8
PLAN_1
  6
CONTINUOUS
 10
0.885224
 20
-4.291118
  0
VERTEX
  8
PLAN_1
  6
CONTINUOUS
 10
0.886319
 20
-4.298228
  0
VERTEX
  8
PLAN_1
  6
CONTINUOUS
 10
0.887961
 20
-4.304244
  0
VERTEX
  8
PLAN_1
  6
CONTINUOUS
 10
0.889602
 20
-4.306980
  0
VERTEX
  8
PLAN_1
  6
CONTINUOUS
 10
0.890697
 20
-4.309717
  0
VERTEX
  8
PLAN_1
  6
CONTINUOUS
 10
0.892882
 20
-4.312449
  0
VERTEX
  8
PLAN_1
  6
CONTINUOUS
 10
0.894524
 20
-4.314638
  0
VERTEX
  8
PLAN_1
  6
CONTINUOUS
 10
0.896713
 20
-4.316280
  0
VERTEX
  8
PLAN_1
  6
CONTINUOUS
 10
0.899445
 20
-4.317917
  0
VERTEX
  8
PLAN_1
  6
CONTINUOUS
 10
0.902181
 20
-4.319559
  0
VERTEX
  8
PLAN_1
  6
CONTINUOUS
 10
0.904913
 20
-4.320654
  0
VERTEX
  8
PLAN_1
  6
CONTINUOUS
 10
0.907650
 20
-4.321748
  0
VERTEX
  8
PLAN_1
  6
CONTINUOUS
 10
0.910929
 20
-4.322295
  0
VERTEX
  8
PLAN_1
  6
CONTINUOUS
 10
0.914760
 20
-4.322843
  0
VERTEX
  8
PLAN_1
  6
CONTINUOUS
 10
0.918039
 20
-4.322843
  0
VERTEX
  8
PLAN_1
  6
CONTINUOUS
 10
0.922965
 20
-4.322843
  0
VERTEX
  8
PLAN_1
  6
CONTINUOUS
 10
0.927339
 20
-4.321748
  0
VERTEX
  8
PLAN_1
  6
CONTINUOUS
 10
0.931713
 20
-4.320654
  0
VERTEX
  8
PLAN_1
  6
CONTINUOUS
 10
0.936091
 20
-4.318465
  0
VERTEX
  8
PLAN_1
  6
CONTINUOUS
 10
0.939370
 20
-4.316280
  0
VERTEX
  8
PLAN_1
  6
CONTINUOUS
 10
0.943197
 20
-4.312996
  0
VERTEX
  8
PLAN_1
  6
CONTINUOUS
 10
0.946480
 20
-4.309717
  0
VERTEX
  8
PLAN_1
  6
CONTINUOUS
 10
0.949217
 20
-4.305339
  0
VERTEX
  8
PLAN_1
  6
CONTINUOUS
 10
0.951949
 20
-4.300417
  0
VERTEX
  8
PLAN_1
  6
CONTINUOUS
 10
0.954685
 20
-4.295496
  0
VERTEX
  8
PLAN_1
  6
CONTINUOUS
 10
0.956870
 20
-4.289480
  0
VERTEX
  8
PLAN_1
  6
CONTINUOUS
 10
0.959059
 20
-4.282917
  0
VERTEX
  8
PLAN_1
  6
CONTINUOUS
 10
0.960701
 20
-4.275260
  0
VERTEX
  8
PLAN_1
  6
CONTINUOUS
 10
0.962339
 20
-4.267602
  0
VERTEX
  8
PLAN_1
  6
CONTINUOUS
 10
0.963980
 20
-4.258850
  0
VERTEX
  8
PLAN_1
  6
CONTINUOUS
 10
0.965075
 20
-4.250102
  0
VERTEX
  8
PLAN_1
  6
CONTINUOUS
 10
0.964528
 20
-4.249555
  0
VERTEX
  8
PLAN_1
  6
CONTINUOUS
 10
0.962886
 20
-4.252287
  0
VERTEX
  8
PLAN_1
  6
CONTINUOUS
 10
0.961248
 20
-4.254476
  0
VERTEX
  8
PLAN_1
  6
CONTINUOUS
 10
0.959059
 20
-4.257213
  0
VERTEX
  8
PLAN_1
  6
CONTINUOUS
 10
0.956870
 20
-4.259398
  0
VERTEX
  8
PLAN_1
  6
CONTINUOUS
 10
0.951949
 20
-4.263228
  0
VERTEX
  8
PLAN_1
  6
CONTINUOUS
 10
0.946480
 20
-4.266508
  0
VERTEX
  8
PLAN_1
  6
CONTINUOUS
 10
0.939917
 20
-4.269244
  0
VERTEX
  8
PLAN_1
  6
CONTINUOUS
 10
0.933354
 20
-4.271429
  0
VERTEX
  8
PLAN_1
  6
CONTINUOUS
 10
0.926791
 20
-4.272524
  0
VERTEX
  8
PLAN_1
  6
CONTINUOUS
 10
0.919681
 20
-4.272524
  0
VERTEX
  8
PLAN_1
  6
CONTINUOUS
 10
0.913118
 20
-4.272524
  0
VERTEX
  8
PLAN_1
  6
CONTINUOUS
 10
0.907102
 20
-4.271429
  0
VERTEX
  8
PLAN_1
  6
CONTINUOUS
 10
0.900539
 20
-4.270339
  0
VERTEX
  8
PLAN_1
  6
CONTINUOUS
 10
0.895071
 20
-4.268150
  0
VERTEX
  8
PLAN_1
  6
CONTINUOUS
 10
0.889602
 20
-4.265961
  0
VERTEX
  8
PLAN_1
  6
CONTINUOUS
 10
0.884677
 20
-4.263228
  0
VERTEX
  8
PLAN_1
  6
CONTINUOUS
 10
0.879756
 20
-4.259398
  0
VERTEX
  8
PLAN_1
  6
CONTINUOUS
 10
0.875382
 20
-4.255571
  0
VERTEX
  8
PLAN_1
  6
CONTINUOUS
 10
0.871551
 20
-4.251740
  0
VERTEX
  8
PLAN_1
  6
CONTINUOUS
 10
0.868272
 20
-4.246819
  0
VERTEX
  8
PLAN_1
  6
CONTINUOUS
 10
0.865535
 20
-4.241350
  0
VERTEX
  8
PLAN_1
  6
CONTINUOUS
 10
0.862803
 20
-4.235882
  0
VERTEX
  8
PLAN_1
  6
CONTINUOUS
 10
0.861161
 20
-4.229866
  0
VERTEX
  8
PLAN_1
  6
CONTINUOUS
 10
0.859520
 20
-4.223303
  0
VERTEX
  8
PLAN_1
  6
CONTINUOUS
 10
0.858972
 20
-4.216740
  0
VERTEX
  8
PLAN_1
  6
CONTINUOUS
 10
0.858425
 20
-4.209630
  0
SEQEND
  8
0
  0
POLYLINE
  8
PLAN_1
  6
CONTINUOUS
 66
     1
 40
0.003000
 41
0.003000
  0
VERTEX
  8
PLAN_1
  6
CONTINUOUS
 10
0.960701
 20
-4.206346
  0
VERTEX
  8
PLAN_1
  6
CONTINUOUS
 10
0.960701
 20
-4.202520
  0
VERTEX
  8
PLAN_1
  6
CONTINUOUS
 10
0.960154
 20
-4.198146
  0
VERTEX
  8
PLAN_1
  6
CONTINUOUS
 10
0.959606
 20
-4.194315
  0
VERTEX
  8
PLAN_1
  6
CONTINUOUS
 10
0.958512
 20
-4.190488
  0
VERTEX
  8
PLAN_1
  6
CONTINUOUS
 10
0.957417
 20
-4.186657
  0
VERTEX
  8
PLAN_1
  6
CONTINUOUS
 10
0.955780
 20
-4.183378
  0
VERTEX
  8
PLAN_1
  6
CONTINUOUS
 10
0.954138
 20
-4.180094
  0
VERTEX
  8
PLAN_1
  6
CONTINUOUS
 10
0.951949
 20
-4.177362
  0
VERTEX
  8
PLAN_1
  6
CONTINUOUS
 10
0.949217
 20
-4.174626
  0
VERTEX
  8
PLAN_1
  6
CONTINUOUS
 10
0.946480
 20
-4.171894
  0
VERTEX
  8
PLAN_1
  6
CONTINUOUS
 10
0.943197
 20
-4.169705
  0
VERTEX
  8
PLAN_1
  6
CONTINUOUS
 10
0.939370
 20
-4.168063
  0
VERTEX
  8
PLAN_1
  6
CONTINUOUS
 10
0.935543
 20
-4.166425
  0
VERTEX
  8
PLAN_1
  6
CONTINUOUS
 10
0.931165
 20
-4.165878
  0
VERTEX
  8
PLAN_1
  6
CONTINUOUS
 10
0.926791
 20
-4.164783
  0
VERTEX
  8
PLAN_1
  6
CONTINUOUS
 10
0.921323
 20
-4.164783
  0
VERTEX
  8
PLAN_1
  6
CONTINUOUS
 10
0.917492
 20
-4.164783
  0
VERTEX
  8
PLAN_1
  6
CONTINUOUS
 10
0.913118
 20
-4.165331
  0
VERTEX
  8
PLAN_1
  6
CONTINUOUS
 10
0.909291
 20
-4.166425
  0
VERTEX
  8
PLAN_1
  6
CONTINUOUS
 10
0.906008
 20
-4.168063
  0
VERTEX
  8
PLAN_1
  6
CONTINUOUS
 10
0.902728
 20
-4.169705
  0
VERTEX
  8
PLAN_1
  6
CONTINUOUS
 10
0.899445
 20
-4.171894
  0
VERTEX
  8
PLAN_1
  6
CONTINUOUS
 10
0.896713
 20
-4.174079
  0
VERTEX
  8
PLAN_1
  6
CONTINUOUS
 10
0.893976
 20
-4.176815
  0
VERTEX
  8
PLAN_1
  6
CONTINUOUS
 10
0.891787
 20
-4.180094
  0
VERTEX
  8
PLAN_1
  6
CONTINUOUS
 10
0.889602
 20
-4.183378
  0
VERTEX
  8
PLAN_1
  6
CONTINUOUS
 10
0.887961
 20
-4.186657
  0
VERTEX
  8
PLAN_1
  6
CONTINUOUS
 10
0.886319
 20
-4.190488
  0
VERTEX
  8
PLAN_1
  6
CONTINUOUS
 10
0.885224
 20
-4.194862
  0
VERTEX
  8
PLAN_1
  6
CONTINUOUS
 10
0.884677
 20
-4.199240
  0
VERTEX
  8
PLAN_1
  6
CONTINUOUS
 10
0.884134
 20
-4.203614
  0
VERTEX
  8
PLAN_1
  6
CONTINUOUS
 10
0.883587
 20
-4.208535
  0
VERTEX
  8
PLAN_1
  6
CONTINUOUS
 10
0.884134
 20
-4.215098
  0
VERTEX
  8
PLAN_1
  6
CONTINUOUS
 10
0.884677
 20
-4.221114
  0
VERTEX
  8
PLAN_1
  6
CONTINUOUS
 10
0.885772
 20
-4.226583
  0
VERTEX
  8
PLAN_1
  6
CONTINUOUS
 10
0.887413
 20
-4.230961
  0
VERTEX
  8
PLAN_1
  6
CONTINUOUS
 10
0.889602
 20
-4.234787
  0
VERTEX
  8
PLAN_1
  6
CONTINUOUS
 10
0.891787
 20
-4.238614
  0
VERTEX
  8
PLAN_1
  6
CONTINUOUS
 10
0.894524
 20
-4.241350
  0
VERTEX
  8
PLAN_1
  6
CONTINUOUS
 10
0.897256
 20
-4.243539
  0
VERTEX
  8
PLAN_1
  6
CONTINUOUS
 10
0.900539
 20
-4.245724
  0
VERTEX
  8
PLAN_1
  6
CONTINUOUS
 10
0.903819
 20
-4.247366
  0
VERTEX
  8
PLAN_1
  6
CONTINUOUS
 10
0.907102
 20
-4.248461
  0
VERTEX
  8
PLAN_1
  6
CONTINUOUS
 10
0.910382
 20
-4.249555
  0
VERTEX
  8
PLAN_1
  6
CONTINUOUS
 10
0.916945
 20
-4.250650
  0
VERTEX
  8
PLAN_1
  6
CONTINUOUS
 10
0.923508
 20
-4.250650
  0
VERTEX
  8
PLAN_1
  6
CONTINUOUS
 10
0.928980
 20
-4.250650
  0
VERTEX
  8
PLAN_1
  6
CONTINUOUS
 10
0.934449
 20
-4.249008
  0
VERTEX
  8
PLAN_1
  6
CONTINUOUS
 10
0.937728
 20
-4.248461
  0
VERTEX
  8
PLAN_1
  6
CONTINUOUS
 10
0.941012
 20
-4.246819
  0
VERTEX
  8
PLAN_1
  6
CONTINUOUS
 10
0.943744
 20
-4.245177
  0
VERTEX
  8
PLAN_1
  6
CONTINUOUS
 10
0.947028
 20
-4.242992
  0
VERTEX
  8
PLAN_1
  6
CONTINUOUS
 10
0.949760
 20
-4.240256
  0
VERTEX
  8
PLAN_1
  6
CONTINUOUS
 10
0.952496
 20
-4.237524
  0
VERTEX
  8
PLAN_1
  6
CONTINUOUS
 10
0.954685
 20
-4.233693
  0
VERTEX
  8
PLAN_1
  6
CONTINUOUS
 10
0.956870
 20
-4.229319
  0
VERTEX
  8
PLAN_1
  6
CONTINUOUS
 10
0.958512
 20
-4.224945
  0
VERTEX
  8
PLAN_1
  6
CONTINUOUS
 10
0.959606
 20
-4.219472
  0
VERTEX
  8
PLAN_1
  6
CONTINUOUS
 10
0.960701
 20
-4.213457
  0
VERTEX
  8
PLAN_1
  6
CONTINUOUS
 10
0.960701
 20
-4.206346
  0
SEQEND
  8
0
  0
POLYLINE
  8
PLAN_1
  6
CONTINUOUS
 66
     1
 40
0.003000
 41
0.003000
  0
VERTEX
  8
PLAN_1
  6
CONTINUOUS
 10
1.100709
 20
-4.338154
  0
VERTEX
  8
PLAN_1
  6
CONTINUOUS
 10
1.075004
 20
-4.338154
  0
VERTEX
  8
PLAN_1
  6
CONTINUOUS
 10
1.075004
 20
-4.199240
  0
VERTEX
  8
PLAN_1
  6
CONTINUOUS
 10
1.029063
 20
-4.199240
  0
VERTEX
  8
PLAN_1
  6
CONTINUOUS
 10
1.029063
 20
-4.180094
  0
VERTEX
  8
PLAN_1
  6
CONTINUOUS
 10
1.040004
 20
-4.179004
  0
VERTEX
  8
PLAN_1
  6
CONTINUOUS
 10
1.049846
 20
-4.177909
  0
VERTEX
  8
PLAN_1
  6
CONTINUOUS
 10
1.053673
 20
-4.176815
  0
VERTEX
  8
PLAN_1
  6
CONTINUOUS
 10
1.057504
 20
-4.175720
  0
VERTEX
  8
PLAN_1
  6
CONTINUOUS
 10
1.061331
 20
-4.174079
  0
VERTEX
  8
PLAN_1
  6
CONTINUOUS
 10
1.064614
 20
-4.172441
  0
VERTEX
  8
PLAN_1
  6
CONTINUOUS
 10
1.067346
 20
-4.170252
  0
VERTEX
  8
PLAN_1
  6
CONTINUOUS
 10
1.070083
 20
-4.168063
  0
VERTEX
  8
PLAN_1
  6
CONTINUOUS
 10
1.072272
 20
-4.165331
  0
VERTEX
  8
PLAN_1
  6
CONTINUOUS
 10
1.074457
 20
-4.162047
  0
VERTEX
  8
PLAN_1
  6
CONTINUOUS
 10
1.076646
 20
-4.157673
  0
VERTEX
  8
PLAN_1
  6
CONTINUOUS
 10
1.078287
 20
-4.153299
  0
VERTEX
  8
PLAN_1
  6
CONTINUOUS
 10
1.079925
 20
-4.148374
  0
VERTEX
  8
PLAN_1
  6
CONTINUOUS
 10
1.081567
 20
-4.142906
  0
VERTEX
  8
PLAN_1
  6
CONTINUOUS
 10
1.100709
 20
-4.142906
  0
VERTEX
  8
PLAN_1
  6
CONTINUOUS
 10
1.100709
 20
-4.338154
  0
SEQEND
  8
0
  0
SOLID
  8
PLAN_1
 10
1.155402
 20
-4.372610
 11
1.155402
 21
-4.358937
 12
1.309630
 22
-4.372610
 13
1.309630
 23
-4.358937
  0
POLYLINE
  8
PLAN_1
  6
CONTINUOUS
 66
     1
 40
0.003000
 41
0.003000
  0
VERTEX
  8
PLAN_1
  6
CONTINUOUS
 10
1.155402
 20
-4.372610
  0
VERTEX
  8
PLAN_1
  6
CONTINUOUS
 10
1.155402
 20
-4.358937
  0
VERTEX
  8
PLAN_1
  6
CONTINUOUS
 10
1.309630
 20
-4.358937
  0
VERTEX
  8
PLAN_1
  6
CONTINUOUS
 10
1.309630
 20
-4.372610
  0
VERTEX
  8
PLAN_1
  6
CONTINUOUS
 10
1.155402
 20
-4.372610
  0
SEQEND
  8
0
  0
POLYLINE
  8
PLAN_1
  6
CONTINUOUS
 66
     1
 40
0.003000
 41
0.003000
  0
VERTEX
  8
PLAN_1
  6
CONTINUOUS
 10
1.361039
 20
-4.338154
  0
VERTEX
  8
PLAN_1
  6
CONTINUOUS
 10
1.334240
 20
-4.338154
  0
VERTEX
  8
PLAN_1
  6
CONTINUOUS
 10
1.334240
 20
-4.138531
  0
VERTEX
  8
PLAN_1
  6
CONTINUOUS
 10
1.426669
 20
-4.138531
  0
VERTEX
  8
PLAN_1
  6
CONTINUOUS
 10
1.432685
 20
-4.138531
  0
VERTEX
  8
PLAN_1
  6
CONTINUOUS
 10
1.438701
 20
-4.139079
  0
VERTEX
  8
PLAN_1
  6
CONTINUOUS
 10
1.444717
 20
-4.140173
  0
VERTEX
  8
PLAN_1
  6
CONTINUOUS
 10
1.450732
 20
-4.141264
  0
VERTEX
  8
PLAN_1
  6
CONTINUOUS
 10
1.456205
 20
-4.142358
  0
VERTEX
  8
PLAN_1
  6
CONTINUOUS
 10
1.461673
 20
-4.144547
  0
VERTEX
  8
PLAN_1
  6
CONTINUOUS
 10
1.466594
 20
-4.146736
  0
VERTEX
  8
PLAN_1
  6
CONTINUOUS
 10
1.471516
 20
-4.149469
  0
VERTEX
  8
PLAN_1
  6
CONTINUOUS
 10
1.475894
 20
-4.152752
  0
VERTEX
  8
PLAN_1
  6
CONTINUOUS
 10
1.479720
 20
-4.156579
  0
VERTEX
  8
PLAN_1
  6
CONTINUOUS
 10
1.483547
 20
-4.160953
  0
VERTEX
  8
PLAN_1
  6
CONTINUOUS
 10
1.486283
 20
-4.165878
  0
VERTEX
  8
PLAN_1
  6
CONTINUOUS
 10
1.488472
 20
-4.171346
  0
VERTEX
  8
PLAN_1
  6
CONTINUOUS
 10
1.490657
 20
-4.177909
  0
VERTEX
  8
PLAN_1
  6
CONTINUOUS
 10
1.491752
 20
-4.184472
  0
VERTEX
  8
PLAN_1
  6
CONTINUOUS
 10
1.491752
 20
-4.192130
  0
VERTEX
  8
PLAN_1
  6
CONTINUOUS
 10
1.491752
 20
-4.197598
  0
VERTEX
  8
PLAN_1
  6
CONTINUOUS
 10
1.491205
 20
-4.202520
  0
VERTEX
  8
PLAN_1
  6
CONTINUOUS
 10
1.490657
 20
-4.206894
  0
VERTEX
  8
PLAN_1
  6
CONTINUOUS
 10
1.489563
 20
-4.211272
  0
VERTEX
  8
PLAN_1
  6
CONTINUOUS
 10
1.487925
 20
-4.214551
  0
VERTEX
  8
PLAN_1
  6
CONTINUOUS
 10
1.486831
 20
-4.218382
  0
VERTEX
  8
PLAN_1
  6
CONTINUOUS
 10
1.484642
 20
-4.221661
  0
VERTEX
  8
PLAN_1
  6
CONTINUOUS
 10
1.483000
 20
-4.224398
  0
VERTEX
  8
PLAN_1
  6
CONTINUOUS
 10
1.478626
 20
-4.229319
  0
VERTEX
  8
PLAN_1
  6
CONTINUOUS
 10
1.473705
 20
-4.233693
  0
VERTEX
  8
PLAN_1
  6
CONTINUOUS
 10
1.469331
 20
-4.236976
  0
VERTEX
  8
PLAN_1
  6
CONTINUOUS
 10
1.464406
 20
-4.239709
  0
VERTEX
  8
PLAN_1
  6
CONTINUOUS
 10
1.468236
 20
-4.241898
  0
VERTEX
  8
PLAN_1
  6
CONTINUOUS
 10
1.472610
 20
-4.244087
  0
VERTEX
  8
PLAN_1
  6
CONTINUOUS
 10
1.476437
 20
-4.246819
  0
VERTEX
  8
PLAN_1
  6
CONTINUOUS
 10
1.480268
 20
-4.250102
  0
VERTEX
  8
PLAN_1
  6
CONTINUOUS
 10
1.481362
 20
-4.252287
  0
VERTEX
  8
PLAN_1
  6
CONTINUOUS
 10
1.483000
 20
-4.254476
  0
VERTEX
  8
PLAN_1
  6
CONTINUOUS
 10
1.484094
 20
-4.257213
  0
VERTEX
  8
PLAN_1
  6
CONTINUOUS
 10
1.485736
 20
-4.260492
  0
VERTEX
  8
PLAN_1
  6
CONTINUOUS
 10
1.486283
 20
-4.264323
  0
VERTEX
  8
PLAN_1
  6
CONTINUOUS
 10
1.487378
 20
-4.268150
  0
VERTEX
  8
PLAN_1
  6
CONTINUOUS
 10
1.487925
 20
-4.272524
  0
VERTEX
  8
PLAN_1
  6
CONTINUOUS
 10
1.487925
 20
-4.277445
  0
VERTEX
  8
PLAN_1
  6
CONTINUOUS
 10
1.489563
 20
-4.313543
  0
VERTEX
  8
PLAN_1
  6
CONTINUOUS
 10
1.490110
 20
-4.317370
  0
VERTEX
  8
PLAN_1
  6
CONTINUOUS
 10
1.490110
 20
-4.320654
  0
VERTEX
  8
PLAN_1
  6
CONTINUOUS
 10
1.490657
 20
-4.323386
  0
VERTEX
  8
PLAN_1
  6
CONTINUOUS
 10
1.491752
 20
-4.326122
  0
VERTEX
  8
PLAN_1
  6
CONTINUOUS
 10
1.492846
 20
-4.327764
  0
VERTEX
  8
PLAN_1
  6
CONTINUOUS
 10
1.494488
 20
-4.329949
  0
VERTEX
  8
PLAN_1
  6
CONTINUOUS
 10
1.496673
 20
-4.331591
  0
VERTEX
  8
PLAN_1
  6
CONTINUOUS
 10
1.499957
 20
-4.333232
  0
VERTEX
  8
PLAN_1
  6
CONTINUOUS
 10
1.499957
 20
-4.338154
  0
VERTEX
  8
PLAN_1
  6
CONTINUOUS
 10
1.466594
 20
-4.338154
  0
VERTEX
  8
PLAN_1
  6
CONTINUOUS
 10
1.465500
 20
-4.332685
  0
VERTEX
  8
PLAN_1
  6
CONTINUOUS
 10
1.464406
 20
-4.326122
  0
VERTEX
  8
PLAN_1
  6
CONTINUOUS
 10
1.463311
 20
-4.318465
  0
VERTEX
  8
PLAN_1
  6
CONTINUOUS
 10
1.462768
 20
-4.311354
  0
VERTEX
  8
PLAN_1
  6
CONTINUOUS
 10
1.462220
 20
-4.303697
  0
VERTEX
  8
PLAN_1
  6
CONTINUOUS
 10
1.462220
 20
-4.297134
  0
VERTEX
  8
PLAN_1
  6
CONTINUOUS
 10
1.462220
 20
-4.291665
  0
VERTEX
  8
PLAN_1
  6
CONTINUOUS
 10
1.462220
 20
-4.287839
  0
VERTEX
  8
PLAN_1
  6
CONTINUOUS
 10
1.461673
 20
-4.281823
  0
VERTEX
  8
PLAN_1
  6
CONTINUOUS
 10
1.461126
 20
-4.275260
  0
VERTEX
  8
PLAN_1
  6
CONTINUOUS
 10
1.460031
 20
-4.272524
  0
VERTEX
  8
PLAN_1
  6
CONTINUOUS
 10
1.459484
 20
-4.269791
  0
VERTEX
  8
PLAN_1
  6
CONTINUOUS
 10
1.457843
 20
-4.266508
  0
VERTEX
  8
PLAN_1
  6
CONTINUOUS
 10
1.456205
 20
-4.264323
  0
VERTEX
  8
PLAN_1
  6
CONTINUOUS
 10
1.454563
 20
-4.261587
  0
VERTEX
  8
PLAN_1
  6
CONTINUOUS
 10
1.451827
 20
-4.259398
  0
VERTEX
  8
PLAN_1
  6
CONTINUOUS
 10
1.449094
 20
-4.257213
  0
VERTEX
  8
PLAN_1
  6
CONTINUOUS
 10
1.445811
 20
-4.255571
  0
VERTEX
  8
PLAN_1
  6
CONTINUOUS
 10
1.441437
 20
-4.254476
  0
VERTEX
  8
PLAN_1
  6
CONTINUOUS
 10
1.437063
 20
-4.253382
  0
VERTEX
  8
PLAN_1
  6
CONTINUOUS
 10
1.432138
 20
-4.252835
  0
VERTEX
  8
PLAN_1
  6
CONTINUOUS
 10
1.426669
 20
-4.252287
  0
VERTEX
  8
PLAN_1
  6
CONTINUOUS
 10
1.361039
 20
-4.252287
  0
VERTEX
  8
PLAN_1
  6
CONTINUOUS
 10
1.361039
 20
-4.338154
  0
SEQEND
  8
0
  0
POLYLINE
  8
PLAN_1
  6
CONTINUOUS
 66
     1
 40
0.003000
 41
0.003000
  0
VERTEX
  8
PLAN_1
  6
CONTINUOUS
 10
1.361039
 20
-4.229319
  0
VERTEX
  8
PLAN_1
  6
CONTINUOUS
 10
1.423937
 20
-4.229319
  0
VERTEX
  8
PLAN_1
  6
CONTINUOUS
 10
1.431043
 20
-4.229319
  0
VERTEX
  8
PLAN_1
  6
CONTINUOUS
 10
1.438154
 20
-4.228224
  0
VERTEX
  8
PLAN_1
  6
CONTINUOUS
 10
1.441984
 20
-4.227130
  0
VERTEX
  8
PLAN_1
  6
CONTINUOUS
 10
1.445264
 20
-4.226035
  0
VERTEX
  8
PLAN_1
  6
CONTINUOUS
 10
1.448547
 20
-4.224945
  0
VERTEX
  8
PLAN_1
  6
CONTINUOUS
 10
1.451280
 20
-4.223303
  0
VERTEX
  8
PLAN_1
  6
CONTINUOUS
 10
1.454016
 20
-4.221114
  0
VERTEX
  8
PLAN_1
  6
CONTINUOUS
 10
1.456748
 20
-4.218925
  0
VERTEX
  8
PLAN_1
  6
CONTINUOUS
 10
1.458937
 20
-4.216193
  0
VERTEX
  8
PLAN_1
  6
CONTINUOUS
 10
1.460579
 20
-4.212909
  0
VERTEX
  8
PLAN_1
  6
CONTINUOUS
 10
1.462220
 20
-4.209083
  0
VERTEX
  8
PLAN_1
  6
CONTINUOUS
 10
1.463311
 20
-4.204709
  0
VERTEX
  8
PLAN_1
  6
CONTINUOUS
 10
1.463858
 20
-4.200331
  0
VERTEX
  8
PLAN_1
  6
CONTINUOUS
 10
1.464406
 20
-4.194862
  0
VERTEX
  8
PLAN_1
  6
CONTINUOUS
 10
1.463858
 20
-4.189394
  0
VERTEX
  8
PLAN_1
  6
CONTINUOUS
 10
1.463311
 20
-4.184472
  0
VERTEX
  8
PLAN_1
  6
CONTINUOUS
 10
1.462220
 20
-4.180642
  0
VERTEX
  8
PLAN_1
  6
CONTINUOUS
 10
1.460579
 20
-4.176815
  0
VERTEX
  8
PLAN_1
  6
CONTINUOUS
 10
1.458390
 20
-4.173531
  0
VERTEX
  8
PLAN_1
  6
CONTINUOUS
 10
1.456205
 20
-4.170799
  0
VERTEX
  8
PLAN_1
  6
CONTINUOUS
 10
1.454016
 20
-4.168610
  0
VERTEX
  8
PLAN_1
  6
CONTINUOUS
 10
1.451280
 20
-4.166969
  0
VERTEX
  8
PLAN_1
  6
CONTINUOUS
 10
1.448547
 20
-4.165331
  0
VERTEX
  8
PLAN_1
  6
CONTINUOUS
 10
1.445811
 20
-4.164236
  0
VERTEX
  8
PLAN_1
  6
CONTINUOUS
 10
1.442531
 20
-4.163142
  0
VERTEX
  8
PLAN_1
  6
CONTINUOUS
 10
1.439795
 20
-4.162594
  0
VERTEX
  8
PLAN_1
  6
CONTINUOUS
 10
1.433780
 20
-4.162047
  0
VERTEX
  8
PLAN_1
  6
CONTINUOUS
 10
1.428311
 20
-4.161500
  0
VERTEX
  8
PLAN_1
  6
CONTINUOUS
 10
1.361039
 20
-4.161500
  0
VERTEX
  8
PLAN_1
  6
CONTINUOUS
 10
1.361039
 20
-4.229319
  0
SEQEND
  8
0
  0
SOLID
  8
PLAN_1
 10
1.563398
 20
-4.338154
 11
1.534413
 21
-4.338154
 12
1.563398
 22
-4.308622
 13
1.534413
 23
-4.308622
  0
POLYLINE
  8
PLAN_1
  6
CONTINUOUS
 66
     1
 40
0.003000
 41
0.003000
  0
VERTEX
  8
PLAN_1
  6
CONTINUOUS
 10
1.563398
 20
-4.338154
  0
VERTEX
  8
PLAN_1
  6
CONTINUOUS
 10
1.534413
 20
-4.338154
  0
VERTEX
  8
PLAN_1
  6
CONTINUOUS
 10
1.534413
 20
-4.308622
  0
VERTEX
  8
PLAN_1
  6
CONTINUOUS
 10
1.563398
 20
-4.308622
  0
VERTEX
  8
PLAN_1
  6
CONTINUOUS
 10
1.563398
 20
-4.338154
  0
SEQEND
  8
0
  0
POLYLINE
  8
PLAN_1
  6
CONTINUOUS
 66
     1
 40
0.003000
 41
0.003000
  0
VERTEX
  8
PLAN_1
  6
CONTINUOUS
 10
1.758646
 20
-4.338154
  0
VERTEX
  8
PLAN_1
  6
CONTINUOUS
 10
1.611528
 20
-4.338154
  0
VERTEX
  8
PLAN_1
  6
CONTINUOUS
 10
1.611528
 20
-4.138531
  0
VERTEX
  8
PLAN_1
  6
CONTINUOUS
 10
1.756457
 20
-4.138531
  0
VERTEX
  8
PLAN_1
  6
CONTINUOUS
 10
1.756457
 20
-4.162594
  0
VERTEX
  8
PLAN_1
  6
CONTINUOUS
 10
1.638327
 20
-4.162594
  0
VERTEX
  8
PLAN_1
  6
CONTINUOUS
 10
1.638327
 20
-4.223850
  0
VERTEX
  8
PLAN_1
  6
CONTINUOUS
 10
1.747161
 20
-4.223850
  0
VERTEX
  8
PLAN_1
  6
CONTINUOUS
 10
1.747161
 20
-4.247366
  0
VERTEX
  8
PLAN_1
  6
CONTINUOUS
 10
1.638327
 20
-4.247366
  0
VERTEX
  8
PLAN_1
  6
CONTINUOUS
 10
1.638327
 20
-4.314091
  0
VERTEX
  8
PLAN_1
  6
CONTINUOUS
 10
1.758646
 20
-4.314091
  0
VERTEX
  8
PLAN_1
  6
CONTINUOUS
 10
1.758646
 20
-4.338154
  0
SEQEND
  8
0
  0
POLYLINE
  8
PLAN_1
  6
CONTINUOUS
 66
     1
 40
0.003000
 41
0.003000
  0
VERTEX
  8
PLAN_1
  6
CONTINUOUS
 10
1.823728
 20
-4.338154
  0
VERTEX
  8
PLAN_1
  6
CONTINUOUS
 10
1.796382
 20
-4.338154
  0
VERTEX
  8
PLAN_1
  6
CONTINUOUS
 10
1.796382
 20
-4.138531
  0
VERTEX
  8
PLAN_1
  6
CONTINUOUS
 10
1.886075
 20
-4.138531
  0
VERTEX
  8
PLAN_1
  6
CONTINUOUS
 10
1.893185
 20
-4.139079
  0
VERTEX
  8
PLAN_1
  6
CONTINUOUS
 10
1.899201
 20
-4.139626
  0
VERTEX
  8
PLAN_1
  6
CONTINUOUS
 10
1.905220
 20
-4.141264
  0
VERTEX
  8
PLAN_1
  6
CONTINUOUS
 10
1.911236
 20
-4.142906
  0
VERTEX
  8
PLAN_1
  6
CONTINUOUS
 10
1.916157
 20
-4.145094
  0
VERTEX
  8
PLAN_1
  6
CONTINUOUS
 10
1.921079
 20
-4.147827
  0
VERTEX
  8
PLAN_1
  6
CONTINUOUS
 10
1.925453
 20
-4.151110
  0
VERTEX
  8
PLAN_1
  6
CONTINUOUS
 10
1.929831
 20
-4.154390
  0
VERTEX
  8
PLAN_1
  6
CONTINUOUS
 10
1.933110
 20
-4.158768
  0
VERTEX
  8
PLAN_1
  6
CONTINUOUS
 10
1.936394
 20
-4.162594
  0
VERTEX
  8
PLAN_1
  6
CONTINUOUS
 10
1.939126
 20
-4.167516
  0
VERTEX
  8
PLAN_1
  6
CONTINUOUS
 10
1.941315
 20
-4.172441
  0
VERTEX
  8
PLAN_1
  6
CONTINUOUS
 10
1.942957
 20
-4.177362
  0
VERTEX
  8
PLAN_1
  6
CONTINUOUS
 10
1.944051
 20
-4.182831
  0
VERTEX
  8
PLAN_1
  6
CONTINUOUS
 10
1.945142
 20
-4.188846
  0
VERTEX
  8
PLAN_1
  6
CONTINUOUS
 10
1.945142
 20
-4.194862
  0
VERTEX
  8
PLAN_1
  6
CONTINUOUS
 10
1.945142
 20
-4.199783
  0
VERTEX
  8
PLAN_1
  6
CONTINUOUS
 10
1.944598
 20
-4.205256
  0
VERTEX
  8
PLAN_1
  6
CONTINUOUS
 10
1.943504
 20
-4.210724
  0
VERTEX
  8
PLAN_1
  6
CONTINUOUS
 10
1.942409
 20
-4.215646
  0
VERTEX
  8
PLAN_1
  6
CONTINUOUS
 10
1.940220
 20
-4.220567
  0
VERTEX
  8
PLAN_1
  6
CONTINUOUS
 10
1.938035
 20
-4.225488
  0
VERTEX
  8
PLAN_1
  6
CONTINUOUS
 10
1.935299
 20
-4.230413
  0
VERTEX
  8
PLAN_1
  6
CONTINUOUS
 10
1.932016
 20
-4.234787
  0
VERTEX
  8
PLAN_1
  6
CONTINUOUS
 10
1.928189
 20
-4.238614
  0
VERTEX
  8
PLAN_1
  6
CONTINUOUS
 10
1.923815
 20
-4.242445
  0
VERTEX
  8
PLAN_1
  6
CONTINUOUS
 10
1.918890
 20
-4.245724
  0
VERTEX
  8
PLAN_1
  6
CONTINUOUS
 10
1.913969
 20
-4.248461
  0
VERTEX
  8
PLAN_1
  6
CONTINUOUS
 10
1.907953
 20
-4.250650
  0
VERTEX
  8
PLAN_1
  6
CONTINUOUS
 10
1.901390
 20
-4.252287
  0
VERTEX
  8
PLAN_1
  6
CONTINUOUS
 10
1.894280
 20
-4.253382
  0
VERTEX
  8
PLAN_1
  6
CONTINUOUS
 10
1.886075
 20
-4.253929
  0
VERTEX
  8
PLAN_1
  6
CONTINUOUS
 10
1.823728
 20
-4.253929
  0
VERTEX
  8
PLAN_1
  6
CONTINUOUS
 10
1.823728
 20
-4.338154
  0
SEQEND
  8
0
  0
POLYLINE
  8
PLAN_1
  6
CONTINUOUS
 66
     1
 40
0.003000
 41
0.003000
  0
VERTEX
  8
PLAN_1
  6
CONTINUOUS
 10
1.823728
 20
-4.230961
  0
VERTEX
  8
PLAN_1
  6
CONTINUOUS
 10
1.877327
 20
-4.230961
  0
VERTEX
  8
PLAN_1
  6
CONTINUOUS
 10
1.885531
 20
-4.230413
  0
VERTEX
  8
PLAN_1
  6
CONTINUOUS
 10
1.893732
 20
-4.228772
  0
VERTEX
  8
PLAN_1
  6
CONTINUOUS
 10
1.897016
 20
-4.227677
  0
VERTEX
  8
PLAN_1
  6
CONTINUOUS
 10
1.900295
 20
-4.226583
  0
VERTEX
  8
PLAN_1
  6
CONTINUOUS
 10
1.903579
 20
-4.224945
  0
VERTEX
  8
PLAN_1
  6
CONTINUOUS
 10
1.906311
 20
-4.222756
  0
VERTEX
  8
PLAN_1
  6
CONTINUOUS
 10
1.909047
 20
-4.220567
  0
VERTEX
  8
PLAN_1
  6
CONTINUOUS
 10
1.911236
 20
-4.218382
  0
VERTEX
  8
PLAN_1
  6
CONTINUOUS
 10
1.912874
 20
-4.215098
  0
VERTEX
  8
PLAN_1
  6
CONTINUOUS
 10
1.914516
 20
-4.211819
  0
VERTEX
  8
PLAN_1
  6
CONTINUOUS
 10
1.916157
 20
-4.208535
  0
VERTEX
  8
PLAN_1
  6
CONTINUOUS
 10
1.916705
 20
-4.204161
  0
VERTEX
  8
PLAN_1
  6
CONTINUOUS
 10
1.917252
 20
-4.199783
  0
VERTEX
  8
PLAN_1
  6
CONTINUOUS
 10
1.917799
 20
-4.194862
  0
VERTEX
  8
PLAN_1
  6
CONTINUOUS
 10
1.917252
 20
-4.190488
  0
VERTEX
  8
PLAN_1
  6
CONTINUOUS
 10
1.916705
 20
-4.186114
  0
VERTEX
  8
PLAN_1
  6
CONTINUOUS
 10
1.915610
 20
-4.182283
  0
VERTEX
  8
PLAN_1
  6
CONTINUOUS
 10
1.914516
 20
-4.179004
  0
VERTEX
  8
PLAN_1
  6
CONTINUOUS
 10
1.912874
 20
-4.176268
  0
VERTEX
  8
PLAN_1
  6
CONTINUOUS
 10
1.911236
 20
-4.173531
  0
VERTEX
  8
PLAN_1
  6
CONTINUOUS
 10
1.908500
 20
-4.170799
  0
VERTEX
  8
PLAN_1
  6
CONTINUOUS
 10
1.906311
 20
-4.168610
  0
VERTEX
  8
PLAN_1
  6
CONTINUOUS
 10
1.903579
 20
-4.166969
  0
VERTEX
  8
PLAN_1
  6
CONTINUOUS
 10
1.900295
 20
-4.165331
  0
VERTEX
  8
PLAN_1
  6
CONTINUOUS
 10
1.897016
 20
-4.164236
  0
VERTEX
  8
PLAN_1
  6
CONTINUOUS
 10
1.893732
 20
-4.163142
  0
VERTEX
  8
PLAN_1
  6
CONTINUOUS
 10
1.886075
 20
-4.162047
  0
VERTEX
  8
PLAN_1
  6
CONTINUOUS
 10
1.878421
 20
-4.161500
  0
VERTEX
  8
PLAN_1
  6
CONTINUOUS
 10
1.823728
 20
-4.161500
  0
VERTEX
  8
PLAN_1
  6
CONTINUOUS
 10
1.823728
 20
-4.230961
  0
SEQEND
  8
0
  0
POLYLINE
  8
PLAN_1
  6
CONTINUOUS
 66
     1
 40
0.003000
 41
0.003000
  0
VERTEX
  8
PLAN_1
  6
CONTINUOUS
 10
2.099374
 20
-4.197051
  0
VERTEX
  8
PLAN_1
  6
CONTINUOUS
 10
2.098827
 20
-4.191583
  0
VERTEX
  8
PLAN_1
  6
CONTINUOUS
 10
2.097732
 20
-4.186114
  0
VERTEX
  8
PLAN_1
  6
CONTINUOUS
 10
2.096091
 20
-4.181736
  0
VERTEX
  8
PLAN_1
  6
CONTINUOUS
 10
2.093906
 20
-4.177362
  0
VERTEX
  8
PLAN_1
  6
CONTINUOUS
 10
2.091717
 20
-4.174079
  0
VERTEX
  8
PLAN_1
  6
CONTINUOUS
 10
2.088980
 20
-4.170799
  0
VERTEX
  8
PLAN_1
  6
CONTINUOUS
 10
2.085701
 20
-4.167516
  0
VERTEX
  8
PLAN_1
  6
CONTINUOUS
 10
2.082417
 20
-4.165331
  0
VERTEX
  8
PLAN_1
  6
CONTINUOUS
 10
2.078591
 20
-4.163142
  0
VERTEX
  8
PLAN_1
  6
CONTINUOUS
 10
2.074760
 20
-4.160953
  0
VERTEX
  8
PLAN_1
  6
CONTINUOUS
 10
2.070933
 20
-4.159862
  0
VERTEX
  8
PLAN_1
  6
CONTINUOUS
 10
2.066559
 20
-4.158220
  0
VERTEX
  8
PLAN_1
  6
CONTINUOUS
 10
2.058354
 20
-4.157126
  0
VERTEX
  8
PLAN_1
  6
CONTINUOUS
 10
2.049602
 20
-4.156579
  0
VERTEX
  8
PLAN_1
  6
CONTINUOUS
 10
2.043039
 20
-4.156579
  0
VERTEX
  8
PLAN_1
  6
CONTINUOUS
 10
2.035386
 20
-4.157673
  0
VERTEX
  8
PLAN_1
  6
CONTINUOUS
 10
2.031555
 20
-4.158220
  0
VERTEX
  8
PLAN_1
  6
CONTINUOUS
 10
2.027728
 20
-4.159315
  0
VERTEX
  8
PLAN_1
  6
CONTINUOUS
 10
2.024445
 20
-4.160953
  0
VERTEX
  8
PLAN_1
  6
CONTINUOUS
 10
2.020618
 20
-4.162594
  0
VERTEX
  8
PLAN_1
  6
CONTINUOUS
 10
2.017335
 20
-4.164783
  0
VERTEX
  8
PLAN_1
  6
CONTINUOUS
 10
2.014055
 20
-4.166969
  0
VERTEX
  8
PLAN_1
  6
CONTINUOUS
 10
2.011319
 20
-4.169705
  0
VERTEX
  8
PLAN_1
  6
CONTINUOUS
 10
2.009134
 20
-4.172988
  0
VERTEX
  8
PLAN_1
  6
CONTINUOUS
 10
2.006945
 20
-4.176815
  0
VERTEX
  8
PLAN_1
  6
CONTINUOUS
 10
2.005303
 20
-4.181189
  0
VERTEX
  8
PLAN_1
  6
CONTINUOUS
 10
2.004756
 20
-4.186114
  0
VERTEX
  8
PLAN_1
  6
CONTINUOUS
 10
2.004209
 20
-4.191583
  0
VERTEX
  8
PLAN_1
  6
CONTINUOUS
 10
2.004209
 20
-4.194315
  0
VERTEX
  8
PLAN_1
  6
CONTINUOUS
 10
2.004756
 20
-4.197051
  0
VERTEX
  8
PLAN_1
  6
CONTINUOUS
 10
2.005303
 20
-4.199783
  0
VERTEX
  8
PLAN_1
  6
CONTINUOUS
 10
2.006398
 20
-4.201972
  0
VERTEX
  8
PLAN_1
  6
CONTINUOUS
 10
2.008587
 20
-4.206346
  0
VERTEX
  8
PLAN_1
  6
CONTINUOUS
 10
2.011866
 20
-4.209083
  0
VERTEX
  8
PLAN_1
  6
CONTINUOUS
 10
2.015150
 20
-4.211819
  0
VERTEX
  8
PLAN_1
  6
CONTINUOUS
 10
2.019524
 20
-4.214004
  0
VERTEX
  8
PLAN_1
  6
CONTINUOUS
 10
2.023350
 20
-4.215646
  0
VERTEX
  8
PLAN_1
  6
CONTINUOUS
 10
2.027728
 20
-4.216740
  0
VERTEX
  8
PLAN_1
  6
CONTINUOUS
 10
2.084606
 20
-4.229866
  0
VERTEX
  8
PLAN_1
  6
CONTINUOUS
 10
2.089528
 20
-4.230961
  0
VERTEX
  8
PLAN_1
  6
CONTINUOUS
 10
2.093906
 20
-4.232598
  0
VERTEX
  8
PLAN_1
  6
CONTINUOUS
 10
2.098280
 20
-4.234240
  0
VERTEX
  8
PLAN_1
  6
CONTINUOUS
 10
2.102654
 20
-4.235882
  0
VERTEX
  8
PLAN_1
  6
CONTINUOUS
 10
2.106484
 20
-4.238614
  0
VERTEX
  8
PLAN_1
  6
CONTINUOUS
 10
2.110311
 20
-4.240803
  0
VERTEX
  8
PLAN_1
  6
CONTINUOUS
 10
2.114138
 20
-4.243539
  0
VERTEX
  8
PLAN_1
  6
CONTINUOUS
 10
2.116874
 20
-4.246819
  0
VERTEX
  8
PLAN_1
  6
CONTINUOUS
 10
2.120157
 20
-4.250102
  0
VERTEX
  8
PLAN_1
  6
CONTINUOUS
 10
2.122343
 20
-4.253929
  0
VERTEX
  8
PLAN_1
  6
CONTINUOUS
 10
2.124531
 20
-4.257760
  0
VERTEX
  8
PLAN_1
  6
CONTINUOUS
 10
2.126720
 20
-4.262134
  0
VERTEX
  8
PLAN_1
  6
CONTINUOUS
 10
2.127811
 20
-4.267055
  0
VERTEX
  8
PLAN_1
  6
CONTINUOUS
 10
2.128906
 20
-4.271976
  0
VERTEX
  8
PLAN_1
  6
CONTINUOUS
 10
2.130000
 20
-4.277445
  0
VERTEX
  8
PLAN_1
  6
CONTINUOUS
 10
2.130000
 20
-4.282917
  0
VERTEX
  8
PLAN_1
  6
CONTINUOUS
 10
2.129453
 20
-4.291665
  0
VERTEX
  8
PLAN_1
  6
CONTINUOUS
 10
2.127811
 20
-4.299323
  0
VERTEX
  8
PLAN_1
  6
CONTINUOUS
 10
2.125626
 20
-4.305886
  0
VERTEX
  8
PLAN_1
  6
CONTINUOUS
 10
2.122343
 20
-4.312449
  0
VERTEX
  8
PLAN_1
  6
CONTINUOUS
 10
2.118516
 20
-4.317917
  0
VERTEX
  8
PLAN_1
  6
CONTINUOUS
 10
2.114138
 20
-4.322843
  0
VERTEX
  8
PLAN_1
  6
CONTINUOUS
 10
2.109217
 20
-4.327217
  0
VERTEX
  8
PLAN_1
  6
CONTINUOUS
 10
2.103748
 20
-4.331043
  0
VERTEX
  8
PLAN_1
  6
CONTINUOUS
 10
2.097732
 20
-4.333780
  0
VERTEX
  8
PLAN_1
  6
CONTINUOUS
 10
2.091717
 20
-4.336512
  0
VERTEX
  8
PLAN_1
  6
CONTINUOUS
 10
2.085154
 20
-4.338701
  0
VERTEX
  8
PLAN_1
  6
CONTINUOUS
 10
2.078591
 20
-4.340343
  0
VERTEX
  8
PLAN_1
  6
CONTINUOUS
 10
2.072028
 20
-4.341437
  0
VERTEX
  8
PLAN_1
  6
CONTINUOUS
 10
2.064917
 20
-4.342528
  0
VERTEX
  8
PLAN_1
  6
CONTINUOUS
 10
2.058354
 20
-4.343075
  0
VERTEX
  8
PLAN_1
  6
CONTINUOUS
 10
2.051791
 20
-4.343075
  0
VERTEX
  8
PLAN_1
  6
CONTINUOUS
 10
2.039213
 20
-4.342528
  0
VERTEX
  8
PLAN_1
  6
CONTINUOUS
 10
2.028276
 20
-4.341437
  0
VERTEX
  8
PLAN_1
  6
CONTINUOUS
 10
2.018976
 20
-4.339248
  0
VERTEX
  8
PLAN_1
  6
CONTINUOUS
 10
2.011319
 20
-4.336512
  0
VERTEX
  8
PLAN_1
  6
CONTINUOUS
 10
2.004756
 20
-4.333780
  0
VERTEX
  8
PLAN_1
  6
CONTINUOUS
 10
1.999835
 20
-4.330496
  0
VERTEX
  8
PLAN_1
  6
CONTINUOUS
 10
1.995461
 20
-4.327217
  0
VERTEX
  8
PLAN_1
  6
CONTINUOUS
 10
1.991630
 20
-4.323933
  0
VERTEX
  8
PLAN_1
  6
CONTINUOUS
 10
1.986161
 20
-4.318465
  0
VERTEX
  8
PLAN_1
  6
CONTINUOUS
 10
1.981240
 20
-4.312449
  0
VERTEX
  8
PLAN_1
  6
CONTINUOUS
 10
1.977957
 20
-4.306433
  0
VERTEX
  8
PLAN_1
  6
CONTINUOUS
 10
1.975224
 20
-4.299870
  0
VERTEX
  8
PLAN_1
  6
CONTINUOUS
 10
1.973583
 20
-4.293854
  0
VERTEX
  8
PLAN_1
  6
CONTINUOUS
 10
1.972488
 20
-4.287291
  0
VERTEX
  8
PLAN_1
  6
CONTINUOUS
 10
1.971941
 20
-4.280181
  0
VERTEX
  8
PLAN_1
  6
CONTINUOUS
 10
1.971394
 20
-4.273618
  0
VERTEX
  8
PLAN_1
  6
CONTINUOUS
 10
1.996555
 20
-4.273618
  0
VERTEX
  8
PLAN_1
  6
CONTINUOUS
 10
1.997098
 20
-4.280181
  0
VERTEX
  8
PLAN_1
  6
CONTINUOUS
 10
1.998193
 20
-4.285650
  0
VERTEX
  8
PLAN_1
  6
CONTINUOUS
 10
1.999835
 20
-4.291118
  0
VERTEX
  8
PLAN_1
  6
CONTINUOUS
 10
2.002024
 20
-4.296043
  0
VERTEX
  8
PLAN_1
  6
CONTINUOUS
 10
2.004209
 20
-4.300417
  0
VERTEX
  8
PLAN_1
  6
CONTINUOUS
 10
2.007492
 20
-4.304244
  0
VERTEX
  8
PLAN_1
  6
CONTINUOUS
 10
2.010772
 20
-4.307528
  0
VERTEX
  8
PLAN_1
  6
CONTINUOUS
 10
2.014602
 20
-4.310260
  0
VERTEX
  8
PLAN_1
  6
CONTINUOUS
 10
2.018976
 20
-4.312996
  0
VERTEX
  8
PLAN_1
  6
CONTINUOUS
 10
2.023350
 20
-4.315185
  0
VERTEX
  8
PLAN_1
  6
CONTINUOUS
 10
2.027728
 20
-4.316823
  0
VERTEX
  8
PLAN_1
  6
CONTINUOUS
 10
2.032650
 20
-4.317917
  0
VERTEX
  8
PLAN_1
  6
CONTINUOUS
 10
2.037024
 20
-4.319012
  0
VERTEX
  8
PLAN_1
  6
CONTINUOUS
 10
2.041949
 20
-4.319559
  0
VERTEX
  8
PLAN_1
  6
CONTINUOUS
 10
2.046870
 20
-4.320106
  0
VERTEX
  8
PLAN_1
  6
CONTINUOUS
 10
2.051791
 20
-4.320106
  0
VERTEX
  8
PLAN_1
  6
CONTINUOUS
 10
2.059449
 20
-4.320106
  0
VERTEX
  8
PLAN_1
  6
CONTINUOUS
 10
2.068201
 20
-4.319012
  0
VERTEX
  8
PLAN_1
  6
CONTINUOUS
 10
2.072575
 20
-4.317917
  0
VERTEX
  8
PLAN_1
  6
CONTINUOUS
 10
2.076949
 20
-4.316823
  0
VERTEX
  8
PLAN_1
  6
CONTINUOUS
 10
2.080780
 20
-4.315732
  0
VERTEX
  8
PLAN_1
  6
CONTINUOUS
 10
2.085154
 20
-4.314091
  0
VERTEX
  8
PLAN_1
  6
CONTINUOUS
 10
2.088980
 20
-4.311902
  0
VERTEX
  8
PLAN_1
  6
CONTINUOUS
 10
2.092264
 20
-4.309717
  0
VERTEX
  8
PLAN_1
  6
CONTINUOUS
 10
2.095543
 20
-4.306980
  0
VERTEX
  8
PLAN_1
  6
CONTINUOUS
 10
2.098280
 20
-4.303697
  0
VERTEX
  8
PLAN_1
  6
CONTINUOUS
 10
2.101012
 20
-4.300417
  0
VERTEX
  8
PLAN_1
  6
CONTINUOUS
 10
2.102654
 20
-4.296043
  0
VERTEX
  8
PLAN_1
  6
CONTINUOUS
 10
2.103748
 20
-4.291665
  0
VERTEX
  8
PLAN_1
  6
CONTINUOUS
 10
2.103748
 20
-4.286744
  0
VERTEX
  8
PLAN_1
  6
CONTINUOUS
 10
2.103748
 20
-4.282917
  0
VERTEX
  8
PLAN_1
  6
CONTINUOUS
 10
2.103201
 20
-4.279634
  0
VERTEX
  8
PLAN_1
  6
CONTINUOUS
 10
2.102654
 20
-4.276354
  0
VERTEX
  8
PLAN_1
  6
CONTINUOUS
 10
2.102106
 20
-4.273618
  0
VERTEX
  8
PLAN_1
  6
CONTINUOUS
 10
2.100469
 20
-4.270882
  0
VERTEX
  8
PLAN_1
  6
CONTINUOUS
 10
2.099374
 20
-4.268150
  0
VERTEX
  8
PLAN_1
  6
CONTINUOUS
 10
2.097185
 20
-4.265961
  0
VERTEX
  8
PLAN_1
  6
CONTINUOUS
 10
2.094996
 20
-4.264323
  0
VERTEX
  8
PLAN_1
  6
CONTINUOUS
 10
2.092264
 20
-4.262134
  0
VERTEX
  8
PLAN_1
  6
CONTINUOUS
 10
2.089528
 20
-4.260492
  0
VERTEX
  8
PLAN_1
  6
CONTINUOUS
 10
2.085701
 20
-4.258850
  0
VERTEX
  8
PLAN_1
  6
CONTINUOUS
 10
2.081870
 20
-4.257213
  0
VERTEX
  8
PLAN_1
  6
CONTINUOUS
 10
2.072575
 20
-4.254476
  0
VERTEX
  8
PLAN_1
  6
CONTINUOUS
 10
2.061638
 20
-4.251197
  0
VERTEX
  8
PLAN_1
  6
CONTINUOUS
 10
2.020618
 20
-4.241898
  0
VERTEX
  8
PLAN_1
  6
CONTINUOUS
 10
2.015150
 20
-4.240256
  0
VERTEX
  8
PLAN_1
  6
CONTINUOUS
 10
2.008587
 20
-4.238071
  0
VERTEX
  8
PLAN_1
  6
CONTINUOUS
 10
2.004756
 20
-4.236429
  0
VERTEX
  8
PLAN_1
  6
CONTINUOUS
 10
2.001476
 20
-4.234787
  0
VERTEX
  8
PLAN_1
  6
CONTINUOUS
 10
1.998193
 20
-4.232598
  0
VERTEX
  8
PLAN_1
  6
CONTINUOUS
 10
1.994366
 20
-4.230413
  0
VERTEX
  8
PLAN_1
  6
CONTINUOUS
 10
1.991083
 20
-4.227677
  0
VERTEX
  8
PLAN_1
  6
CONTINUOUS
 10
1.988350
 20
-4.224398
  0
VERTEX
  8
PLAN_1
  6
CONTINUOUS
 10
1.985614
 20
-4.220567
  0
VERTEX
  8
PLAN_1
  6
CONTINUOUS
 10
1.982882
 20
-4.216740
  0
VERTEX
  8
PLAN_1
  6
CONTINUOUS
 10
1.981240
 20
-4.211819
  0
VERTEX
  8
PLAN_1
  6
CONTINUOUS
 10
1.979598
 20
-4.206894
  0
VERTEX
  8
PLAN_1
  6
CONTINUOUS
 10
1.978504
 20
-4.201425
  0
VERTEX
  8
PLAN_1
  6
CONTINUOUS
 10
1.977957
 20
-4.194862
  0
VERTEX
  8
PLAN_1
  6
CONTINUOUS
 10
1.978504
 20
-4.189394
  0
VERTEX
  8
PLAN_1
  6
CONTINUOUS
 10
1.979051
 20
-4.183378
  0
VERTEX
  8
PLAN_1
  6
CONTINUOUS
 10
1.980146
 20
-4.177909
  0
VERTEX
  8
PLAN_1
  6
CONTINUOUS
 10
1.982335
 20
-4.172441
  0
VERTEX
  8
PLAN_1
  6
CONTINUOUS
 10
1.984520
 20
-4.166969
  0
VERTEX
  8
PLAN_1
  6
CONTINUOUS
 10
1.987256
 20
-4.162047
  0
VERTEX
  8
PLAN_1
  6
CONTINUOUS
 10
1.990535
 20
-4.157126
  0
VERTEX
  8
PLAN_1
  6
CONTINUOUS
 10
1.994366
 20
-4.152752
  0
VERTEX
  8
PLAN_1
  6
CONTINUOUS
 10
1.998740
 20
-4.148374
  0
VERTEX
  8
PLAN_1
  6
CONTINUOUS
 10
2.003661
 20
-4.144547
  0
VERTEX
  8
PLAN_1
  6
CONTINUOUS
 10
2.009677
 20
-4.141264
  0
VERTEX
  8
PLAN_1
  6
CONTINUOUS
 10
2.015697
 20
-4.138531
  0
VERTEX
  8
PLAN_1
  6
CONTINUOUS
 10
2.022260
 20
-4.136343
  0
VERTEX
  8
PLAN_1
  6
CONTINUOUS
 10
2.029913
 20
-4.134701
  0
VERTEX
  8
PLAN_1
  6
CONTINUOUS
 10
2.038118
 20
-4.133610
  0
VERTEX
  8
PLAN_1
  6
CONTINUOUS
 10
2.046870
 20
-4.133610
  0
VERTEX
  8
PLAN_1
  6
CONTINUOUS
 10
2.058902
 20
-4.133610
  0
VERTEX
  8
PLAN_1
  6
CONTINUOUS
 10
2.069839
 20
-4.135248
  0
VERTEX
  8
PLAN_1
  6
CONTINUOUS
 10
2.079685
 20
-4.137437
  0
VERTEX
  8
PLAN_1
  6
CONTINUOUS
 10
2.087886
 20
-4.140173
  0
VERTEX
  8
PLAN_1
  6
CONTINUOUS
 10
2.095543
 20
-4.143453
  0
VERTEX
  8
PLAN_1
  6
CONTINUOUS
 10
2.101559
 20
-4.147827
  0
VERTEX
  8
PLAN_1
  6
CONTINUOUS
 10
2.107031
 20
-4.152205
  0
VERTEX
  8
PLAN_1
  6
CONTINUOUS
 10
2.111406
 20
-4.157126
  0
VERTEX
  8
PLAN_1
  6
CONTINUOUS
 10
2.114685
 20
-4.162047
  0
VERTEX
  8
PLAN_1
  6
CONTINUOUS
 10
2.117969
 20
-4.166969
  0
VERTEX
  8
PLAN_1
  6
CONTINUOUS
 10
2.120157
 20
-4.172441
  0
VERTEX
  8
PLAN_1
  6
CONTINUOUS
 10
2.121795
 20
-4.177909
  0
VERTEX
  8
PLAN_1
  6
CONTINUOUS
 10
2.123437
 20
-4.187752
  0
VERTEX
  8
PLAN_1
  6
CONTINUOUS
 10
2.124531
 20
-4.197051
  0
VERTEX
  8
PLAN_1
  6
CONTINUOUS
 10
2.099374
 20
-4.197051
  0
SEQEND
  8
0
  0
POLYLINE
  8
PLAN_1
  6
CONTINUOUS
 66
     1
 40
0.008201
 41
0.008201
  0
VERTEX
  8
PLAN_1
  6
CONTINUOUS
 10
-1.412902
 20
-0.698996
  0
VERTEX
  8
PLAN_1
  6
CONTINUOUS
 10
-1.412902
 20
0.073248
  0
VERTEX
  8
PLAN_1
  6
CONTINUOUS
 10
-1.535413
 20
0.073248
  0
VERTEX
  8
PLAN_1
  6
CONTINUOUS
 10
-1.535413
 20
-0.698996
  0
VERTEX
  8
PLAN_1
  6
CONTINUOUS
 10
-1.412902
 20
-0.698996
  0
SEQEND
  8
0
  0
POLYLINE
  8
PLAN_1
  6
CONTINUOUS
 66
     1
 40
0.008201
 41
0.008201
  0
VERTEX
  8
PLAN_1
  6
CONTINUOUS
 10
-1.614165
 20
0.179346
  0
VERTEX
  8
PLAN_1
  6
CONTINUOUS
 10
-1.534319
 20
0.179346
  0
VERTEX
  8
PLAN_1
  6
CONTINUOUS
 10
-1.535413
 20
-0.801815
  0
VERTEX
  8
PLAN_1
  6
CONTINUOUS
 10
-1.612528
 20
-0.804547
  0
SEQEND
  8
0
  0
POLYLINE
  8
PLAN_1
  6
CONTINUOUS
 66
     1
 40
0.008201
 41
0.008201
  0
VERTEX
  8
PLAN_1
  6
CONTINUOUS
 10
-0.034134
 20
-0.920496
  0
VERTEX
  8
PLAN_1
  6
CONTINUOUS
 10
-0.029213
 20
-0.920496
  0
VERTEX
  8
PLAN_1
  6
CONTINUOUS
 10
-0.024839
 20
-0.919949
  0
VERTEX
  8
PLAN_1
  6
CONTINUOUS
 10
-0.020461
 20
-0.918854
  0
VERTEX
  8
PLAN_1
  6
CONTINUOUS
 10
-0.016634
 20
-0.917760
  0
VERTEX
  8
PLAN_1
  6
CONTINUOUS
 10
-0.013354
 20
-0.916118
  0
VERTEX
  8
PLAN_1
  6
CONTINUOUS
 10
-0.010071
 20
-0.914476
  0
VERTEX
  8
PLAN_1
  6
CONTINUOUS
 10
-0.007335
 20
-0.912291
  0
VERTEX
  8
PLAN_1
  6
CONTINUOUS
 10
-0.004602
 20
-0.910102
  0
VERTEX
  8
PLAN_1
  6
CONTINUOUS
 10
-0.002413
 20
-0.907370
  0
VERTEX
  8
PLAN_1
  6
CONTINUOUS
 10
-0.000228
 20
-0.905181
  0
VERTEX
  8
PLAN_1
  6
CONTINUOUS
 10
0.001961
 20
-0.902445
  0
VERTEX
  8
PLAN_1
  6
CONTINUOUS
 10
0.003602
 20
-0.899165
  0
VERTEX
  8
PLAN_1
  6
CONTINUOUS
 10
0.005791
 20
-0.893150
  0
VERTEX
  8
PLAN_1
  6
CONTINUOUS
 10
0.007976
 20
-0.887134
  0
VERTEX
  8
PLAN_1
  6
CONTINUOUS
 10
0.009071
 20
-0.880571
  0
VERTEX
  8
PLAN_1
  6
CONTINUOUS
 10
0.009618
 20
-0.874555
  0
VERTEX
  8
PLAN_1
  6
CONTINUOUS
 10
0.010165
 20
-0.869083
  0
VERTEX
  8
PLAN_1
  6
CONTINUOUS
 10
0.010165
 20
-0.864161
  0
VERTEX
  8
PLAN_1
  6
CONTINUOUS
 10
0.009618
 20
-0.856504
  0
VERTEX
  8
PLAN_1
  6
CONTINUOUS
 10
0.009071
 20
-0.853772
  0
SEQEND
  8
0
  0
POLYLINE
  8
PLAN_1
  6
CONTINUOUS
 66
     1
 40
0.008201
 41
0.008201
  0
VERTEX
  8
PLAN_1
  6
CONTINUOUS
 10
0.009071
 20
-0.853772
  0
VERTEX
  8
PLAN_1
  6
CONTINUOUS
 10
-1.062331
 20
-0.853772
  0
SEQEND
  8
0
  0
POLYLINE
  8
PLAN_1
  6
CONTINUOUS
 66
     1
 40
0.008201
 41
0.008201
  0
VERTEX
  8
PLAN_1
  6
CONTINUOUS
 10
-1.062331
 20
-0.853772
  0
VERTEX
  8
PLAN_1
  6
CONTINUOUS
 10
-1.063425
 20
-0.856504
  0
VERTEX
  8
PLAN_1
  6
CONTINUOUS
 10
-1.065614
 20
-0.864161
  0
VERTEX
  8
PLAN_1
  6
CONTINUOUS
 10
-1.066709
 20
-0.869083
  0
VERTEX
  8
PLAN_1
  6
CONTINUOUS
 10
-1.067256
 20
-0.874555
  0
VERTEX
  8
PLAN_1
  6
CONTINUOUS
 10
-1.067799
 20
-0.880571
  0
VERTEX
  8
PLAN_1
  6
CONTINUOUS
 10
-1.067799
 20
-0.887134
  0
VERTEX
  8
PLAN_1
  6
CONTINUOUS
 10
-1.066709
 20
-0.893150
  0
VERTEX
  8
PLAN_1
  6
CONTINUOUS
 10
-1.065067
 20
-0.899165
  0
VERTEX
  8
PLAN_1
  6
CONTINUOUS
 10
-1.063972
 20
-0.902445
  0
VERTEX
  8
PLAN_1
  6
CONTINUOUS
 10
-1.062878
 20
-0.905181
  0
VERTEX
  8
PLAN_1
  6
CONTINUOUS
 10
-1.060693
 20
-0.907913
  0
VERTEX
  8
PLAN_1
  6
CONTINUOUS
 10
-1.059051
 20
-0.910102
  0
VERTEX
  8
PLAN_1
  6
CONTINUOUS
 10
-1.056315
 20
-0.912291
  0
VERTEX
  8
PLAN_1
  6
CONTINUOUS
 10
-1.053583
 20
-0.914476
  0
VERTEX
  8
PLAN_1
  6
CONTINUOUS
 10
-1.050846
 20
-0.916118
  0
VERTEX
  8
PLAN_1
  6
CONTINUOUS
 10
-1.047020
 20
-0.917760
  0
VERTEX
  8
PLAN_1
  6
CONTINUOUS
 10
-1.043189
 20
-0.918854
  0
VERTEX
  8
PLAN_1
  6
CONTINUOUS
 10
-1.038815
 20
-0.919949
  0
VERTEX
  8
PLAN_1
  6
CONTINUOUS
 10
-1.034441
 20
-0.920496
  0
VERTEX
  8
PLAN_1
  6
CONTINUOUS
 10
-1.028969
 20
-0.920496
  0
VERTEX
  8
PLAN_1
  6
CONTINUOUS
 10
-0.978106
 20
-0.920496
  0
VERTEX
  8
PLAN_1
  6
CONTINUOUS
 10
-0.867630
 20
-0.920496
  0
VERTEX
  8
PLAN_1
  6
CONTINUOUS
 10
-0.716134
 20
-0.920496
  0
VERTEX
  8
PLAN_1
  6
CONTINUOUS
 10
-0.544406
 20
-0.920496
  0
VERTEX
  8
PLAN_1
  6
CONTINUOUS
 10
-0.370488
 20
-0.920496
  0
VERTEX
  8
PLAN_1
  6
CONTINUOUS
 10
-0.214618
 20
-0.920496
  0
VERTEX
  8
PLAN_1
  6
CONTINUOUS
 10
-0.095937
 20
-0.920496
  0
VERTEX
  8
PLAN_1
  6
CONTINUOUS
 10
-0.034134
 20
-0.920496
  0
SEQEND
  8
0
  0
POLYLINE
  8
PLAN_1
  6
CONTINUOUS
 66
     1
 40
0.008201
 41
0.008201
  0
VERTEX
  8
PLAN_1
  6
CONTINUOUS
 10
-0.976465
 20
-0.920496
  0
VERTEX
  8
PLAN_1
  6
CONTINUOUS
 10
-0.976465
 20
-1.278177
  0
VERTEX
  8
PLAN_1
  6
CONTINUOUS
 10
-0.929433
 20
-1.278177
  0
VERTEX
  8
PLAN_1
  6
CONTINUOUS
 10
-0.929433
 20
-1.327398
  0
VERTEX
  8
PLAN_1
  6
CONTINUOUS
 10
-0.886224
 20
-1.327398
  0
VERTEX
  8
PLAN_1
  6
CONTINUOUS
 10
-0.886224
 20
-1.278177
  0
VERTEX
  8
PLAN_1
  6
CONTINUOUS
 10
-0.193835
 20
-1.278177
  0
VERTEX
  8
PLAN_1
  6
CONTINUOUS
 10
-0.193835
 20
-1.327398
  0
VERTEX
  8
PLAN_1
  6
CONTINUOUS
 10
-0.150626
 20
-1.327398
  0
VERTEX
  8
PLAN_1
  6
CONTINUOUS
 10
-0.150626
 20
-1.278177
  0
VERTEX
  8
PLAN_1
  6
CONTINUOUS
 10
-0.083358
 20
-1.278177
  0
VERTEX
  8
PLAN_1
  6
CONTINUOUS
 10
-0.083358
 20
-0.920496
  0
VERTEX
  8
PLAN_1
  6
CONTINUOUS
 10
-0.976465
 20
-0.920496
  0
SEQEND
  8
0
  0
POLYLINE
  8
PLAN_1
  6
CONTINUOUS
 66
     1
 40
0.007106
 41
0.007106
  0
VERTEX
  8
PLAN_1
  6
CONTINUOUS
 10
-0.666366
 20
-1.277630
  0
VERTEX
  8
PLAN_1
  6
CONTINUOUS
 10
-0.805283
 20
-1.302240
  0
VERTEX
  8
PLAN_1
  6
CONTINUOUS
 10
-0.814031
 20
-1.303882
  0
SEQEND
  8
0
  0
POLYLINE
  8
PLAN_1
  6
CONTINUOUS
 66
     1
 40
0.007106
 41
0.007106
  0
VERTEX
  8
PLAN_1
  6
CONTINUOUS
 10
-0.814031
 20
-1.303882
  0
VERTEX
  8
PLAN_1
  6
CONTINUOUS
 10
-0.818409
 20
-1.304972
  0
VERTEX
  8
PLAN_1
  6
CONTINUOUS
 10
-0.822236
 20
-1.307161
  0
VERTEX
  8
PLAN_1
  6
CONTINUOUS
 10
-0.825520
 20
-1.309898
  0
VERTEX
  8
PLAN_1
  6
CONTINUOUS
 10
-0.828252
 20
-1.312630
  0
VERTEX
  8
PLAN_1
  6
CONTINUOUS
 10
-0.830441
 20
-1.316461
  0
VERTEX
  8
PLAN_1
  6
CONTINUOUS
 10
-0.832083
 20
-1.320835
  0
VERTEX
  8
PLAN_1
  6
CONTINUOUS
 10
-0.832630
 20
-1.325209
  0
VERTEX
  8
PLAN_1
  6
CONTINUOUS
 10
-0.832083
 20
-1.329587
  0
VERTEX
  8
PLAN_1
  6
CONTINUOUS
 10
-0.830988
 20
-1.333961
  0
VERTEX
  8
PLAN_1
  6
CONTINUOUS
 10
-0.828799
 20
-1.337787
  0
VERTEX
  8
PLAN_1
  6
CONTINUOUS
 10
-0.826067
 20
-1.341071
  0
VERTEX
  8
PLAN_1
  6
CONTINUOUS
 10
-0.822783
 20
-1.343803
  0
VERTEX
  8
PLAN_1
  6
CONTINUOUS
 10
-0.819504
 20
-1.345992
  0
VERTEX
  8
PLAN_1
  6
CONTINUOUS
 10
-0.815126
 20
-1.347634
  0
VERTEX
  8
PLAN_1
  6
CONTINUOUS
 10
-0.810752
 20
-1.348181
  0
VERTEX
  8
PLAN_1
  6
CONTINUOUS
 10
-0.806378
 20
-1.347634
  0
SEQEND
  8
0
  0
POLYLINE
  8
PLAN_1
  6
CONTINUOUS
 66
     1
 40
0.007106
 41
0.007106
  0
VERTEX
  8
PLAN_1
  6
CONTINUOUS
 10
-0.806378
 20
-1.347634
  0
VERTEX
  8
PLAN_1
  6
CONTINUOUS
 10
-0.797626
 20
-1.345992
  0
VERTEX
  8
PLAN_1
  6
CONTINUOUS
 10
-0.410409
 20
-1.277630
  0
VERTEX
  8
PLAN_1
  6
CONTINUOUS
 10
-0.666366
 20
-1.277630
  0
SEQEND
  8
0
  0
POLYLINE
  8
PLAN_1
  6
CONTINUOUS
 66
     1
 40
0.007106
 41
0.007106
  0
VERTEX
  8
PLAN_1
  6
CONTINUOUS
 10
-0.258370
 20
-1.445531
  0
VERTEX
  8
PLAN_1
  6
CONTINUOUS
 10
-0.253996
 20
-1.443890
  0
VERTEX
  8
PLAN_1
  6
CONTINUOUS
 10
-0.250165
 20
-1.442248
  0
VERTEX
  8
PLAN_1
  6
CONTINUOUS
 10
-0.246339
 20
-1.439516
  0
VERTEX
  8
PLAN_1
  6
CONTINUOUS
 10
-0.243602
 20
-1.436232
  0
VERTEX
  8
PLAN_1
  6
CONTINUOUS
 10
-0.241413
 20
-1.432406
  0
VERTEX
  8
PLAN_1
  6
CONTINUOUS
 10
-0.240323
 20
-1.428028
  0
VERTEX
  8
PLAN_1
  6
CONTINUOUS
 10
-0.239776
 20
-1.424201
  0
VERTEX
  8
PLAN_1
  6
CONTINUOUS
 10
-0.240323
 20
-1.419280
  0
VERTEX
  8
PLAN_1
  6
CONTINUOUS
 10
-0.241413
 20
-1.414906
  0
VERTEX
  8
PLAN_1
  6
CONTINUOUS
 10
-0.243055
 20
-1.411075
  0
VERTEX
  8
PLAN_1
  6
CONTINUOUS
 10
-0.245791
 20
-1.407795
  0
VERTEX
  8
PLAN_1
  6
CONTINUOUS
 10
-0.249071
 20
-1.405059
  0
VERTEX
  8
PLAN_1
  6
CONTINUOUS
 10
-0.252902
 20
-1.402870
  0
VERTEX
  8
PLAN_1
  6
CONTINUOUS
 10
-0.257276
 20
-1.401780
  0
VERTEX
  8
PLAN_1
  6
CONTINUOUS
 10
-0.261650
 20
-1.401232
  0
VERTEX
  8
PLAN_1
  6
CONTINUOUS
 10
-0.266028
 20
-1.401232
  0
SEQEND
  8
0
  0
POLYLINE
  8
PLAN_1
  6
CONTINUOUS
 66
     1
 40
0.007106
 41
0.007106
  0
VERTEX
  8
PLAN_1
  6
CONTINUOUS
 10
-0.266028
 20
-1.401232
  0
VERTEX
  8
PLAN_1
  6
CONTINUOUS
 10
-0.279701
 20
-1.403965
  0
VERTEX
  8
PLAN_1
  6
CONTINUOUS
 10
-0.804736
 20
-1.496394
  0
VERTEX
  8
PLAN_1
  6
CONTINUOUS
 10
-0.814031
 20
-1.498035
  0
SEQEND
  8
0
  0
POLYLINE
  8
PLAN_1
  6
CONTINUOUS
 66
     1
 40
0.007106
 41
0.007106
  0
VERTEX
  8
PLAN_1
  6
CONTINUOUS
 10
-0.814031
 20
-1.498035
  0
VERTEX
  8
PLAN_1
  6
CONTINUOUS
 10
-0.818409
 20
-1.499130
  0
VERTEX
  8
PLAN_1
  6
CONTINUOUS
 10
-0.822236
 20
-1.501315
  0
VERTEX
  8
PLAN_1
  6
CONTINUOUS
 10
-0.825520
 20
-1.504051
  0
VERTEX
  8
PLAN_1
  6
CONTINUOUS
 10
-0.828252
 20
-1.507331
  0
VERTEX
  8
PLAN_1
  6
CONTINUOUS
 10
-0.830441
 20
-1.511161
  0
VERTEX
  8
PLAN_1
  6
CONTINUOUS
 10
-0.831535
 20
-1.514988
  0
VERTEX
  8
PLAN_1
  6
CONTINUOUS
 10
-0.832083
 20
-1.519362
  0
VERTEX
  8
PLAN_1
  6
CONTINUOUS
 10
-0.832083
 20
-1.523740
  0
VERTEX
  8
PLAN_1
  6
CONTINUOUS
 10
-0.830988
 20
-1.528114
  0
VERTEX
  8
PLAN_1
  6
CONTINUOUS
 10
-0.828799
 20
-1.532488
  0
VERTEX
  8
PLAN_1
  6
CONTINUOUS
 10
-0.826067
 20
-1.535772
  0
VERTEX
  8
PLAN_1
  6
CONTINUOUS
 10
-0.822783
 20
-1.538508
  0
VERTEX
  8
PLAN_1
  6
CONTINUOUS
 10
-0.818957
 20
-1.540693
  0
VERTEX
  8
PLAN_1
  6
CONTINUOUS
 10
-0.815126
 20
-1.541787
  0
VERTEX
  8
PLAN_1
  6
CONTINUOUS
 10
-0.810752
 20
-1.542335
  0
VERTEX
  8
PLAN_1
  6
CONTINUOUS
 10
-0.805831
 20
-1.542335
  0
SEQEND
  8
0
  0
POLYLINE
  8
PLAN_1
  6
CONTINUOUS
 66
     1
 40
0.007106
 41
0.007106
  0
VERTEX
  8
PLAN_1
  6
CONTINUOUS
 10
-0.805831
 20
-1.542335
  0
VERTEX
  8
PLAN_1
  6
CONTINUOUS
 10
-0.797079
 20
-1.540693
  0
VERTEX
  8
PLAN_1
  6
CONTINUOUS
 10
-0.272043
 20
-1.447717
  0
VERTEX
  8
PLAN_1
  6
CONTINUOUS
 10
-0.258370
 20
-1.445531
  0
SEQEND
  8
0
  0
POLYLINE
  8
PLAN_1
  6
CONTINUOUS
 66
     1
 40
0.007106
 41
0.007106
  0
VERTEX
  8
PLAN_1
  6
CONTINUOUS
 10
-0.253449
 20
-1.736488
  0
VERTEX
  8
PLAN_1
  6
CONTINUOUS
 10
-0.248524
 20
-1.735941
  0
VERTEX
  8
PLAN_1
  6
CONTINUOUS
 10
-0.244697
 20
-1.734846
  0
VERTEX
  8
PLAN_1
  6
CONTINUOUS
 10
-0.240870
 20
-1.732661
  0
VERTEX
  8
PLAN_1
  6
CONTINUOUS
 10
-0.237587
 20
-1.729925
  0
VERTEX
  8
PLAN_1
  6
CONTINUOUS
 10
-0.234850
 20
-1.726646
  0
VERTEX
  8
PLAN_1
  6
CONTINUOUS
 10
-0.232665
 20
-1.722815
  0
VERTEX
  8
PLAN_1
  6
CONTINUOUS
 10
-0.231571
 20
-1.718441
  0
VERTEX
  8
PLAN_1
  6
CONTINUOUS
 10
-0.231024
 20
-1.714067
  0
VERTEX
  8
PLAN_1
  6
CONTINUOUS
 10
-0.231571
 20
-1.709689
  0
VERTEX
  8
PLAN_1
  6
CONTINUOUS
 10
-0.232665
 20
-1.705315
  0
VERTEX
  8
PLAN_1
  6
CONTINUOUS
 10
-0.234850
 20
-1.701484
  0
VERTEX
  8
PLAN_1
  6
CONTINUOUS
 10
-0.237587
 20
-1.698205
  0
VERTEX
  8
PLAN_1
  6
CONTINUOUS
 10
-0.240870
 20
-1.695469
  0
VERTEX
  8
PLAN_1
  6
CONTINUOUS
 10
-0.244697
 20
-1.693283
  0
VERTEX
  8
PLAN_1
  6
CONTINUOUS
 10
-0.248524
 20
-1.692189
  0
VERTEX
  8
PLAN_1
  6
CONTINUOUS
 10
-0.253449
 20
-1.691642
  0
SEQEND
  8
0
  0
POLYLINE
  8
PLAN_1
  6
CONTINUOUS
 66
     1
 40
0.007106
 41
0.007106
  0
VERTEX
  8
PLAN_1
  6
CONTINUOUS
 10
-0.253449
 20
-1.691642
  0
VERTEX
  8
PLAN_1
  6
CONTINUOUS
 10
-0.267122
 20
-1.691642
  0
VERTEX
  8
PLAN_1
  6
CONTINUOUS
 10
-0.800362
 20
-1.692189
  0
VERTEX
  8
PLAN_1
  6
CONTINUOUS
 10
-0.809657
 20
-1.692189
  0
SEQEND
  8
0
  0
POLYLINE
  8
PLAN_1
  6
CONTINUOUS
 66
     1
 40
0.007106
 41
0.007106
  0
VERTEX
  8
PLAN_1
  6
CONTINUOUS
 10
-0.809657
 20
-1.692189
  0
VERTEX
  8
PLAN_1
  6
CONTINUOUS
 10
-0.814031
 20
-1.692736
  0
VERTEX
  8
PLAN_1
  6
CONTINUOUS
 10
-0.818409
 20
-1.693831
  0
VERTEX
  8
PLAN_1
  6
CONTINUOUS
 10
-0.822236
 20
-1.696016
  0
VERTEX
  8
PLAN_1
  6
CONTINUOUS
 10
-0.825520
 20
-1.698752
  0
VERTEX
  8
PLAN_1
  6
CONTINUOUS
 10
-0.828252
 20
-1.702031
  0
VERTEX
  8
PLAN_1
  6
CONTINUOUS
 10
-0.830441
 20
-1.705862
  0
VERTEX
  8
PLAN_1
  6
CONTINUOUS
 10
-0.831535
 20
-1.709689
  0
VERTEX
  8
PLAN_1
  6
CONTINUOUS
 10
-0.832083
 20
-1.714067
  0
VERTEX
  8
PLAN_1
  6
CONTINUOUS
 10
-0.831535
 20
-1.718988
  0
VERTEX
  8
PLAN_1
  6
CONTINUOUS
 10
-0.830441
 20
-1.722815
  0
VERTEX
  8
PLAN_1
  6
CONTINUOUS
 10
-0.828252
 20
-1.726646
  0
VERTEX
  8
PLAN_1
  6
CONTINUOUS
 10
-0.825520
 20
-1.729925
  0
VERTEX
  8
PLAN_1
  6
CONTINUOUS
 10
-0.822236
 20
-1.732661
  0
VERTEX
  8
PLAN_1
  6
CONTINUOUS
 10
-0.818409
 20
-1.734846
  0
VERTEX
  8
PLAN_1
  6
CONTINUOUS
 10
-0.814031
 20
-1.735941
  0
VERTEX
  8
PLAN_1
  6
CONTINUOUS
 10
-0.809657
 20
-1.736488
  0
SEQEND
  8
0
  0
POLYLINE
  8
PLAN_1
  6
CONTINUOUS
 66
     1
 40
0.007106
 41
0.007106
  0
VERTEX
  8
PLAN_1
  6
CONTINUOUS
 10
-0.809657
 20
-1.736488
  0
VERTEX
  8
PLAN_1
  6
CONTINUOUS
 10
-0.800362
 20
-1.736488
  0
VERTEX
  8
PLAN_1
  6
CONTINUOUS
 10
-0.267122
 20
-1.736488
  0
VERTEX
  8
PLAN_1
  6
CONTINUOUS
 10
-0.253449
 20
-1.736488
  0
SEQEND
  8
0
  0
POLYLINE
  8
PLAN_1
  6
CONTINUOUS
 66
     1
 40
0.008201
 41
0.008201
  0
VERTEX
  8
PLAN_1
  6
CONTINUOUS
 10
0.070874
 20
0.232398
  0
VERTEX
  8
PLAN_1
  6
CONTINUOUS
 10
-1.133976
 20
0.232398
  0
VERTEX
  8
PLAN_1
  6
CONTINUOUS
 10
-1.133976
 20
-0.853772
  0
VERTEX
  8
PLAN_1
  6
CONTINUOUS
 10
0.071417
 20
-0.853772
  0
VERTEX
  8
PLAN_1
  6
CONTINUOUS
 10
0.070874
 20
0.232398
  0
SEQEND
  8
0
  0
POLYLINE
  8
PLAN_1
  6
CONTINUOUS
 66
     1
 40
0.007106
 41
0.007106
  0
VERTEX
  8
PLAN_1
  6
CONTINUOUS
 10
-0.830988
 20
0.165677
  0
VERTEX
  8
PLAN_1
  6
CONTINUOUS
 10
-0.830988
 20
0.098953
  0
VERTEX
  8
PLAN_1
  6
CONTINUOUS
 10
-1.133976
 20
0.098953
  0
VERTEX
  8
PLAN_1
  6
CONTINUOUS
 10
-1.133976
 20
0.165677
  0
VERTEX
  8
PLAN_1
  6
CONTINUOUS
 10
-0.830988
 20
0.165677
  0
SEQEND
  8
0
  0
POLYLINE
  8
PLAN_1
  6
CONTINUOUS
 66
     1
 40
0.007106
 41
0.007106
  0
VERTEX
  8
PLAN_1
  6
CONTINUOUS
 10
-0.956780
 20
0.140516
  0
VERTEX
  8
PLAN_1
  6
CONTINUOUS
 10
-0.956780
 20
0.165677
  0
VERTEX
  8
PLAN_1
  6
CONTINUOUS
 10
-1.009827
 20
0.165677
  0
VERTEX
  8
PLAN_1
  6
CONTINUOUS
 10
-1.009827
 20
0.140516
  0
VERTEX
  8
PLAN_1
  6
CONTINUOUS
 10
-0.956780
 20
0.140516
  0
SEQEND
  8
0
  0
POLYLINE
  8
PLAN_1
  6
CONTINUOUS
 66
     1
 40
0.007106
 41
0.007106
  0
VERTEX
  8
PLAN_1
  6
CONTINUOUS
 10
0.070874
 20
0.165677
  0
VERTEX
  8
PLAN_1
  6
CONTINUOUS
 10
0.070874
 20
0.098953
  0
VERTEX
  8
PLAN_1
  6
CONTINUOUS
 10
-0.232118
 20
0.098953
  0
VERTEX
  8
PLAN_1
  6
CONTINUOUS
 10
-0.232118
 20
0.165677
  0
VERTEX
  8
PLAN_1
  6
CONTINUOUS
 10
0.070874
 20
0.165677
  0
SEQEND
  8
0
  0
POLYLINE
  8
PLAN_1
  6
CONTINUOUS
 66
     1
 40
0.007106
 41
0.007106
  0
VERTEX
  8
PLAN_1
  6
CONTINUOUS
 10
-0.054917
 20
0.140516
  0
VERTEX
  8
PLAN_1
  6
CONTINUOUS
 10
-0.054917
 20
0.165677
  0
VERTEX
  8
PLAN_1
  6
CONTINUOUS
 10
-0.107969
 20
0.165677
  0
VERTEX
  8
PLAN_1
  6
CONTINUOUS
 10
-0.107969
 20
0.140516
  0
VERTEX
  8
PLAN_1
  6
CONTINUOUS
 10
-0.054917
 20
0.140516
  0
SEQEND
  8
0
  0
POLYLINE
  8
PLAN_1
  6
CONTINUOUS
 66
     1
 40
0.004374
 41
0.004374
  0
VERTEX
  8
PLAN_1
  6
CONTINUOUS
 10
-1.139445
 20
-1.599213
  0
VERTEX
  8
PLAN_1
  6
CONTINUOUS
 10
-1.139992
 20
-0.854866
  0
VERTEX
  8
PLAN_1
  6
CONTINUOUS
 10
0.080717
 20
-0.854319
  0
VERTEX
  8
PLAN_1
  6
CONTINUOUS
 10
0.080717
 20
-1.597028
  0
SEQEND
  8
0
  0
POLYLINE
  8
PLAN_1
  6
CONTINUOUS
 66
     1
 40
0.008201
 41
0.008201
  0
VERTEX
  8
PLAN_1
  6
CONTINUOUS
 10
-1.413449
 20
-0.723606
  0
VERTEX
  8
PLAN_1
  6
CONTINUOUS
 10
-1.413449
 20
0.117547
  0
VERTEX
  8
PLAN_1
  6
CONTINUOUS
 10
-1.132339
 20
0.165130
  0
VERTEX
  8
PLAN_1
  6
CONTINUOUS
 10
-1.132339
 20
-0.756421
  0
VERTEX
  8
PLAN_1
  6
CONTINUOUS
 10
-1.413449
 20
-0.723606
  0
SEQEND
  8
0
  0
POLYLINE
  8
PLAN_1
  6
CONTINUOUS
 66
     1
 40
0.008201
 41
0.008201
  0
VERTEX
  8
PLAN_1
  6
CONTINUOUS
 10
-1.780429
 20
-0.561173
  0
VERTEX
  8
PLAN_1
  6
CONTINUOUS
 10
-1.780429
 20
-0.061295
  0
VERTEX
  8
PLAN_1
  6
CONTINUOUS
 10
-1.898563
 20
-0.061295
  0
VERTEX
  8
PLAN_1
  6
CONTINUOUS
 10
-1.898563
 20
-0.561173
  0
VERTEX
  8
PLAN_1
  6
CONTINUOUS
 10
-1.780429
 20
-0.561173
  0
SEQEND
  8
0
  0
POLYLINE
  8
PLAN_1
  6
CONTINUOUS
 66
     1
 40
0.004374
 41
0.004374
  0
VERTEX
  8
PLAN_1
  6
CONTINUOUS
 10
-1.884343
 20
-0.061843
  0
VERTEX
  8
PLAN_1
  6
CONTINUOUS
 10
-1.885437
 20
-0.064575
  0
VERTEX
  8
PLAN_1
  6
CONTINUOUS
 10
-1.888717
 20
-0.072780
  0
VERTEX
  8
PLAN_1
  6
CONTINUOUS
 10
-1.890906
 20
-0.078795
  0
VERTEX
  8
PLAN_1
  6
CONTINUOUS
 10
-1.893094
 20
-0.085358
  0
VERTEX
  8
PLAN_1
  6
CONTINUOUS
 10
-1.894732
 20
-0.093563
  0
VERTEX
  8
PLAN_1
  6
CONTINUOUS
 10
-1.896374
 20
-0.102311
  0
VERTEX
  8
PLAN_1
  6
CONTINUOUS
 10
-1.898016
 20
-0.111610
  0
VERTEX
  8
PLAN_1
  6
CONTINUOUS
 10
-1.898563
 20
-0.121453
  0
VERTEX
  8
PLAN_1
  6
CONTINUOUS
 10
-1.898563
 20
-0.131846
  0
VERTEX
  8
PLAN_1
  6
CONTINUOUS
 10
-1.897469
 20
-0.142783
  0
VERTEX
  8
PLAN_1
  6
CONTINUOUS
 10
-1.896374
 20
-0.148799
  0
VERTEX
  8
PLAN_1
  6
CONTINUOUS
 10
-1.895280
 20
-0.154268
  0
VERTEX
  8
PLAN_1
  6
CONTINUOUS
 10
-1.894185
 20
-0.160283
  0
VERTEX
  8
PLAN_1
  6
CONTINUOUS
 10
-1.892000
 20
-0.165756
  0
VERTEX
  8
PLAN_1
  6
CONTINUOUS
 10
-1.890358
 20
-0.171772
  0
VERTEX
  8
PLAN_1
  6
CONTINUOUS
 10
-1.887622
 20
-0.177787
  0
VERTEX
  8
PLAN_1
  6
CONTINUOUS
 10
-1.884890
 20
-0.183803
  0
VERTEX
  8
PLAN_1
  6
CONTINUOUS
 10
-1.881606
 20
-0.189272
  0
VERTEX
  8
PLAN_1
  6
CONTINUOUS
 10
-1.883248
 20
-0.194193
  0
VERTEX
  8
PLAN_1
  6
CONTINUOUS
 10
-1.886531
 20
-0.207319
  0
VERTEX
  8
PLAN_1
  6
CONTINUOUS
 10
-1.888717
 20
-0.216618
  0
VERTEX
  8
PLAN_1
  6
CONTINUOUS
 10
-1.891453
 20
-0.228102
  0
VERTEX
  8
PLAN_1
  6
CONTINUOUS
 10
-1.893638
 20
-0.241776
  0
VERTEX
  8
PLAN_1
  6
CONTINUOUS
 10
-1.895280
 20
-0.257087
  0
VERTEX
  8
PLAN_1
  6
CONTINUOUS
 10
-1.896921
 20
-0.274043
  0
VERTEX
  8
PLAN_1
  6
CONTINUOUS
 10
-1.898016
 20
-0.292638
  0
VERTEX
  8
PLAN_1
  6
CONTINUOUS
 10
-1.898563
 20
-0.312327
  0
VERTEX
  8
PLAN_1
  6
CONTINUOUS
 10
-1.898016
 20
-0.334205
  0
VERTEX
  8
PLAN_1
  6
CONTINUOUS
 10
-1.896374
 20
-0.357173
  0
VERTEX
  8
PLAN_1
  6
CONTINUOUS
 10
-1.894185
 20
-0.381783
  0
VERTEX
  8
PLAN_1
  6
CONTINUOUS
 10
-1.892000
 20
-0.394362
  0
VERTEX
  8
PLAN_1
  6
CONTINUOUS
 10
-1.890358
 20
-0.407488
  0
VERTEX
  8
PLAN_1
  6
CONTINUOUS
 10
-1.887622
 20
-0.420614
  0
VERTEX
  8
PLAN_1
  6
CONTINUOUS
 10
-1.884890
 20
-0.434287
  0
VERTEX
  8
PLAN_1
  6
CONTINUOUS
 10
-1.885984
 20
-0.437024
  0
VERTEX
  8
PLAN_1
  6
CONTINUOUS
 10
-1.889264
 20
-0.444681
  0
VERTEX
  8
PLAN_1
  6
CONTINUOUS
 10
-1.891453
 20
-0.450697
  0
VERTEX
  8
PLAN_1
  6
CONTINUOUS
 10
-1.893638
 20
-0.457260
  0
VERTEX
  8
PLAN_1
  6
CONTINUOUS
 10
-1.895280
 20
-0.464917
  0
VERTEX
  8
PLAN_1
  6
CONTINUOUS
 10
-1.896921
 20
-0.473118
  0
VERTEX
  8
PLAN_1
  6
CONTINUOUS
 10
-1.898016
 20
-0.482417
  0
VERTEX
  8
PLAN_1
  6
CONTINUOUS
 10
-1.899110
 20
-0.492260
  0
VERTEX
  8
PLAN_1
  6
CONTINUOUS
 10
-1.898563
 20
-0.502654
  0
VERTEX
  8
PLAN_1
  6
CONTINUOUS
 10
-1.898016
 20
-0.513591
  0
VERTEX
  8
PLAN_1
  6
CONTINUOUS
 10
-1.896921
 20
-0.519059
  0
VERTEX
  8
PLAN_1
  6
CONTINUOUS
 10
-1.895827
 20
-0.525075
  0
VERTEX
  8
PLAN_1
  6
CONTINUOUS
 10
-1.894185
 20
-0.530543
  0
VERTEX
  8
PLAN_1
  6
CONTINUOUS
 10
-1.892547
 20
-0.536563
  0
VERTEX
  8
PLAN_1
  6
CONTINUOUS
 10
-1.890358
 20
-0.542031
  0
VERTEX
  8
PLAN_1
  6
CONTINUOUS
 10
-1.888169
 20
-0.548047
  0
VERTEX
  8
PLAN_1
  6
CONTINUOUS
 10
-1.885437
 20
-0.554063
  0
VERTEX
  8
PLAN_1
  6
CONTINUOUS
 10
-1.882154
 20
-0.560079
  0
SEQEND
  8
0
  0
POLYLINE
  8
PLAN_1
  6
CONTINUOUS
 66
     1
 40
0.007106
 41
0.007106
  0
VERTEX
  8
PLAN_1
  6
CONTINUOUS
 10
-2.020524
 20
-0.454524
  0
VERTEX
  8
PLAN_1
  6
CONTINUOUS
 10
-2.030366
 20
-0.444681
  0
VERTEX
  8
PLAN_1
  6
CONTINUOUS
 10
-2.030366
 20
-0.182161
  0
VERTEX
  8
PLAN_1
  6
CONTINUOUS
 10
-2.020524
 20
-0.171224
  0
VERTEX
  8
PLAN_1
  6
CONTINUOUS
 10
-1.898563
 20
-0.171224
  0
VERTEX
  8
PLAN_1
  6
CONTINUOUS
 10
-1.898563
 20
-0.454524
  0
VERTEX
  8
PLAN_1
  6
CONTINUOUS
 10
-2.020524
 20
-0.454524
  0
SEQEND
  8
0
  0
POLYLINE
  8
PLAN_1
  6
CONTINUOUS
 66
     1
 40
0.008201
 41
0.008201
  0
VERTEX
  8
PLAN_1
  6
CONTINUOUS
 10
-1.779335
 20
-0.714854
  0
VERTEX
  8
PLAN_1
  6
CONTINUOUS
 10
-1.779335
 20
0.089106
  0
VERTEX
  8
PLAN_1
  6
CONTINUOUS
 10
-1.692921
 20
0.089106
  0
VERTEX
  8
PLAN_1
  6
CONTINUOUS
 10
-1.692921
 20
-0.714854
  0
VERTEX
  8
PLAN_1
  6
CONTINUOUS
 10
-1.779335
 20
-0.714854
  0
SEQEND
  8
0
  0
POLYLINE
  8
PLAN_1
  6
CONTINUOUS
 66
     1
 40
0.008201
 41
0.008201
  0
VERTEX
  8
PLAN_1
  6
CONTINUOUS
 10
-1.623465
 20
0.214350
  0
VERTEX
  8
PLAN_1
  6
CONTINUOUS
 10
-1.627291
 20
0.220913
  0
VERTEX
  8
PLAN_1
  6
CONTINUOUS
 10
-1.631122
 20
0.227476
  0
VERTEX
  8
PLAN_1
  6
CONTINUOUS
 10
-1.635496
 20
0.234039
  0
VERTEX
  8
PLAN_1
  6
CONTINUOUS
 10
-1.640417
 20
0.240055
  0
VERTEX
  8
PLAN_1
  6
CONTINUOUS
 10
-1.645890
 20
0.246071
  0
VERTEX
  8
PLAN_1
  6
CONTINUOUS
 10
-1.651906
 20
0.252087
  0
VERTEX
  8
PLAN_1
  6
CONTINUOUS
 10
-1.658469
 20
0.257555
  0
VERTEX
  8
PLAN_1
  6
CONTINUOUS
 10
-1.665031
 20
0.262480
  0
VERTEX
  8
PLAN_1
  6
CONTINUOUS
 10
-1.672142
 20
0.266854
  0
VERTEX
  8
PLAN_1
  6
CONTINUOUS
 10
-1.679795
 20
0.271228
  0
VERTEX
  8
PLAN_1
  6
CONTINUOUS
 10
-1.688000
 20
0.275059
  0
VERTEX
  8
PLAN_1
  6
CONTINUOUS
 10
-1.696205
 20
0.277791
  0
VERTEX
  8
PLAN_1
  6
CONTINUOUS
 10
-1.705500
 20
0.280528
  0
VERTEX
  8
PLAN_1
  6
CONTINUOUS
 10
-1.714799
 20
0.282169
  0
VERTEX
  8
PLAN_1
  6
CONTINUOUS
 10
-1.724098
 20
0.283260
  0
VERTEX
  8
PLAN_1
  6
CONTINUOUS
 10
-1.734488
 20
0.283807
  0
SEQEND
  8
0
  0
POLYLINE
  8
PLAN_1
  6
CONTINUOUS
 66
     1
 40
0.008201
 41
0.008201
  0
VERTEX
  8
PLAN_1
  6
CONTINUOUS
 10
-1.734488
 20
0.283807
  0
VERTEX
  8
PLAN_1
  6
CONTINUOUS
 10
-2.119516
 20
0.283807
  0
VERTEX
  8
PLAN_1
  6
CONTINUOUS
 10
-2.119516
 20
0.212161
  0
VERTEX
  8
PLAN_1
  6
CONTINUOUS
 10
-1.882154
 20
0.212161
  0
VERTEX
  8
PLAN_1
  6
CONTINUOUS
 10
-1.761287
 20
0.212161
  0
SEQEND
  8
0
  0
POLYLINE
  8
PLAN_1
  6
CONTINUOUS
 66
     1
 40
0.008201
 41
0.008201
  0
VERTEX
  8
PLAN_1
  6
CONTINUOUS
 10
-1.761287
 20
0.212161
  0
VERTEX
  8
PLAN_1
  6
CONTINUOUS
 10
-1.754177
 20
0.211614
  0
VERTEX
  8
PLAN_1
  6
CONTINUOUS
 10
-1.747614
 20
0.211071
  0
VERTEX
  8
PLAN_1
  6
CONTINUOUS
 10
-1.741598
 20
0.209976
  0
VERTEX
  8
PLAN_1
  6
CONTINUOUS
 10
-1.736130
 20
0.208882
  0
VERTEX
  8
PLAN_1
  6
CONTINUOUS
 10
-1.731205
 20
0.206693
  0
VERTEX
  8
PLAN_1
  6
CONTINUOUS
 10
-1.726283
 20
0.205051
  0
VERTEX
  8
PLAN_1
  6
CONTINUOUS
 10
-1.721909
 20
0.202319
  0
VERTEX
  8
PLAN_1
  6
CONTINUOUS
 10
-1.718079
 20
0.200130
  0
VERTEX
  8
PLAN_1
  6
CONTINUOUS
 10
-1.714252
 20
0.197398
  0
VERTEX
  8
PLAN_1
  6
CONTINUOUS
 10
-1.710972
 20
0.194114
  0
VERTEX
  8
PLAN_1
  6
CONTINUOUS
 10
-1.708236
 20
0.191382
  0
VERTEX
  8
PLAN_1
  6
CONTINUOUS
 10
-1.705500
 20
0.188098
  0
VERTEX
  8
PLAN_1
  6
CONTINUOUS
 10
-1.701126
 20
0.180988
  0
VERTEX
  8
PLAN_1
  6
CONTINUOUS
 10
-1.697846
 20
0.173878
  0
VERTEX
  8
PLAN_1
  6
CONTINUOUS
 10
-1.695657
 20
0.166768
  0
VERTEX
  8
PLAN_1
  6
CONTINUOUS
 10
-1.693469
 20
0.160205
  0
VERTEX
  8
PLAN_1
  6
CONTINUOUS
 10
-1.692921
 20
0.153642
  0
VERTEX
  8
PLAN_1
  6
CONTINUOUS
 10
-1.692374
 20
0.148173
  0
VERTEX
  8
PLAN_1
  6
CONTINUOUS
 10
-1.691831
 20
0.139425
  0
VERTEX
  8
PLAN_1
  6
CONTINUOUS
 10
-1.692374
 20
0.136142
  0
SEQEND
  8
0
  0
POLYLINE
  8
PLAN_1
  6
CONTINUOUS
 66
     1
 40
0.008201
 41
0.008201
  0
VERTEX
  8
PLAN_1
  6
CONTINUOUS
 10
-1.692374
 20
0.136142
  0
VERTEX
  8
PLAN_1
  6
CONTINUOUS
 10
-1.692374
 20
-1.040815
  0
VERTEX
  8
PLAN_1
  6
CONTINUOUS
 10
-1.613075
 20
-1.040815
  0
VERTEX
  8
PLAN_1
  6
CONTINUOUS
 10
-1.613075
 20
0.136142
  0
SEQEND
  8
0
  0
POLYLINE
  8
PLAN_1
  6
CONTINUOUS
 66
     1
 40
0.008201
 41
0.008201
  0
VERTEX
  8
PLAN_1
  6
CONTINUOUS
 10
-1.613075
 20
0.136142
  0
VERTEX
  8
PLAN_1
  6
CONTINUOUS
 10
-1.613622
 20
0.138878
  0
VERTEX
  8
PLAN_1
  6
CONTINUOUS
 10
-1.614165
 20
0.145988
  0
VERTEX
  8
PLAN_1
  6
CONTINUOUS
 10
-1.614713
 20
0.155831
  0
VERTEX
  8
PLAN_1
  6
CONTINUOUS
 10
-1.616354
 20
0.168409
  0
VERTEX
  8
PLAN_1
  6
CONTINUOUS
 10
-1.617449
 20
0.181535
  0
VERTEX
  8
PLAN_1
  6
CONTINUOUS
 10
-1.619091
 20
0.194661
  0
VERTEX
  8
PLAN_1
  6
CONTINUOUS
 10
-1.621276
 20
0.205598
  0
VERTEX
  8
PLAN_1
  6
CONTINUOUS
 10
-1.623465
 20
0.214350
  0
SEQEND
  8
0
  0
POLYLINE
  8
PLAN_1
  6
CONTINUOUS
 66
     1
 40
0.008201
 41
0.008201
  0
VERTEX
  8
PLAN_1
  6
CONTINUOUS
 10
-1.935205
 20
0.141063
  0
VERTEX
  8
PLAN_1
  6
CONTINUOUS
 10
-2.067012
 20
0.141063
  0
VERTEX
  8
PLAN_1
  6
CONTINUOUS
 10
-2.067012
 20
0.211071
  0
VERTEX
  8
PLAN_1
  6
CONTINUOUS
 10
-1.749256
 20
0.211071
  0
VERTEX
  8
PLAN_1
  6
CONTINUOUS
 10
-1.749256
 20
0.141063
  0
VERTEX
  8
PLAN_1
  6
CONTINUOUS
 10
-1.879969
 20
0.141063
  0
SEQEND
  8
0
  0
POLYLINE
  8
PLAN_1
  6
CONTINUOUS
 66
     1
 40
0.008201
 41
0.008201
  0
VERTEX
  8
PLAN_1
  6
CONTINUOUS
 10
-1.879969
 20
0.141063
  0
VERTEX
  8
PLAN_1
  6
CONTINUOUS
 10
-1.879969
 20
0.142157
  0
VERTEX
  8
PLAN_1
  6
CONTINUOUS
 10
-1.879969
 20
0.145441
  0
VERTEX
  8
PLAN_1
  6
CONTINUOUS
 10
-1.879969
 20
0.149268
  0
VERTEX
  8
PLAN_1
  6
CONTINUOUS
 10
-1.879969
 20
0.154189
  0
VERTEX
  8
PLAN_1
  6
CONTINUOUS
 10
-1.879969
 20
0.159657
  0
VERTEX
  8
PLAN_1
  6
CONTINUOUS
 10
-1.879969
 20
0.164035
  0
VERTEX
  8
PLAN_1
  6
CONTINUOUS
 10
-1.879969
 20
0.167315
  0
VERTEX
  8
PLAN_1
  6
CONTINUOUS
 10
-1.879969
 20
0.168409
  0
VERTEX
  8
PLAN_1
  6
CONTINUOUS
 10
-1.882701
 20
0.168957
  0
VERTEX
  8
PLAN_1
  6
CONTINUOUS
 10
-1.888717
 20
0.168957
  0
VERTEX
  8
PLAN_1
  6
CONTINUOUS
 10
-1.897469
 20
0.168957
  0
VERTEX
  8
PLAN_1
  6
CONTINUOUS
 10
-1.907858
 20
0.168957
  0
VERTEX
  8
PLAN_1
  6
CONTINUOUS
 10
-1.917705
 20
0.168957
  0
VERTEX
  8
PLAN_1
  6
CONTINUOUS
 10
-1.926453
 20
0.168957
  0
VERTEX
  8
PLAN_1
  6
CONTINUOUS
 10
-1.933016
 20
0.168409
  0
VERTEX
  8
PLAN_1
  6
CONTINUOUS
 10
-1.935205
 20
0.168409
  0
SEQEND
  8
0
  0
POLYLINE
  8
PLAN_1
  6
CONTINUOUS
 66
     1
 40
0.008201
 41
0.008201
  0
VERTEX
  8
PLAN_1
  6
CONTINUOUS
 10
-1.935205
 20
0.168409
  0
VERTEX
  8
PLAN_1
  6
CONTINUOUS
 10
-1.935205
 20
0.141063
  0
SEQEND
  8
0
  0
POLYLINE
  8
PLAN_1
  6
CONTINUOUS
 66
     1
 40
0.007106
 41
0.007106
  0
VERTEX
  8
PLAN_1
  6
CONTINUOUS
 10
-1.758004
 20
0.971280
  0
VERTEX
  8
PLAN_1
  6
CONTINUOUS
 10
-1.752535
 20
0.976201
  0
VERTEX
  8
PLAN_1
  6
CONTINUOUS
 10
-1.748161
 20
0.981122
  0
VERTEX
  8
PLAN_1
  6
CONTINUOUS
 10
-1.745425
 20
0.986043
  0
VERTEX
  8
PLAN_1
  6
CONTINUOUS
 10
-1.743787
 20
0.990969
  0
VERTEX
  8
PLAN_1
  6
CONTINUOUS
 10
-1.742693
 20
0.995343
  0
VERTEX
  8
PLAN_1
  6
CONTINUOUS
 10
-1.743240
 20
0.999717
  0
VERTEX
  8
PLAN_1
  6
CONTINUOUS
 10
-1.743787
 20
1.004094
  0
VERTEX
  8
PLAN_1
  6
CONTINUOUS
 10
-1.745425
 20
1.007921
  0
VERTEX
  8
PLAN_1
  6
CONTINUOUS
 10
-1.747067
 20
1.011205
  0
VERTEX
  8
PLAN_1
  6
CONTINUOUS
 10
-1.748709
 20
1.014484
  0
VERTEX
  8
PLAN_1
  6
CONTINUOUS
 10
-1.750894
 20
1.017220
  0
VERTEX
  8
PLAN_1
  6
CONTINUOUS
 10
-1.753083
 20
1.019953
  0
VERTEX
  8
PLAN_1
  6
CONTINUOUS
 10
-1.756366
 20
1.023236
  0
VERTEX
  8
PLAN_1
  6
CONTINUOUS
 10
-1.758004
 20
1.024331
  0
SEQEND
  8
0
  0
POLYLINE
  8
PLAN_1
  6
CONTINUOUS
 66
     1
 40
0.007106
 41
0.007106
  0
VERTEX
  8
PLAN_1
  6
CONTINUOUS
 10
-1.758004
 20
1.024331
  0
VERTEX
  8
PLAN_1
  6
CONTINUOUS
 10
-2.084512
 20
1.024331
  0
SEQEND
  8
0
  0
POLYLINE
  8
PLAN_1
  6
CONTINUOUS
 66
     1
 40
0.007106
 41
0.007106
  0
VERTEX
  8
PLAN_1
  6
CONTINUOUS
 10
-2.084512
 20
1.024331
  0
VERTEX
  8
PLAN_1
  6
CONTINUOUS
 10
-2.086154
 20
1.023236
  0
VERTEX
  8
PLAN_1
  6
CONTINUOUS
 10
-2.088886
 20
1.019953
  0
VERTEX
  8
PLAN_1
  6
CONTINUOUS
 10
-2.090528
 20
1.017768
  0
VERTEX
  8
PLAN_1
  6
CONTINUOUS
 10
-2.092717
 20
1.015031
  0
VERTEX
  8
PLAN_1
  6
CONTINUOUS
 10
-2.094358
 20
1.012295
  0
VERTEX
  8
PLAN_1
  6
CONTINUOUS
 10
-2.095996
 20
1.008469
  0
VERTEX
  8
PLAN_1
  6
CONTINUOUS
 10
-2.097091
 20
1.004642
  0
VERTEX
  8
PLAN_1
  6
CONTINUOUS
 10
-2.097638
 20
1.000811
  0
VERTEX
  8
PLAN_1
  6
CONTINUOUS
 10
-2.097638
 20
0.996437
  0
VERTEX
  8
PLAN_1
  6
CONTINUOUS
 10
-2.097091
 20
0.991516
  0
VERTEX
  8
PLAN_1
  6
CONTINUOUS
 10
-2.095449
 20
0.987138
  0
VERTEX
  8
PLAN_1
  6
CONTINUOUS
 10
-2.093264
 20
0.981669
  0
VERTEX
  8
PLAN_1
  6
CONTINUOUS
 10
-2.089433
 20
0.976201
  0
VERTEX
  8
PLAN_1
  6
CONTINUOUS
 10
-2.084512
 20
0.971280
  0
SEQEND
  8
0
  0
POLYLINE
  8
PLAN_1
  6
CONTINUOUS
 66
     1
 40
0.007106
 41
0.007106
  0
VERTEX
  8
PLAN_1
  6
CONTINUOUS
 10
-2.084512
 20
0.971280
  0
VERTEX
  8
PLAN_1
  6
CONTINUOUS
 10
-1.758004
 20
0.971280
  0
SEQEND
  8
0
  0
POLYLINE
  8
PLAN_1
  6
CONTINUOUS
 66
     1
 40
0.007106
 41
0.007106
  0
VERTEX
  8
PLAN_1
  6
CONTINUOUS
 10
-1.757457
 20
0.918228
  0
VERTEX
  8
PLAN_1
  6
CONTINUOUS
 10
-1.751988
 20
0.923697
  0
VERTEX
  8
PLAN_1
  6
CONTINUOUS
 10
-1.747614
 20
0.928618
  0
VERTEX
  8
PLAN_1
  6
CONTINUOUS
 10
-1.744878
 20
0.933539
  0
VERTEX
  8
PLAN_1
  6
CONTINUOUS
 10
-1.743240
 20
0.938465
  0
VERTEX
  8
PLAN_1
  6
CONTINUOUS
 10
-1.742693
 20
0.942839
  0
VERTEX
  8
PLAN_1
  6
CONTINUOUS
 10
-1.742693
 20
0.947213
  0
VERTEX
  8
PLAN_1
  6
CONTINUOUS
 10
-1.743240
 20
0.951591
  0
VERTEX
  8
PLAN_1
  6
CONTINUOUS
 10
-1.744878
 20
0.955417
  0
VERTEX
  8
PLAN_1
  6
CONTINUOUS
 10
-1.746520
 20
0.958701
  0
VERTEX
  8
PLAN_1
  6
CONTINUOUS
 10
-1.748709
 20
0.961980
  0
VERTEX
  8
PLAN_1
  6
CONTINUOUS
 10
-1.750350
 20
0.964717
  0
VERTEX
  8
PLAN_1
  6
CONTINUOUS
 10
-1.752535
 20
0.966902
  0
VERTEX
  8
PLAN_1
  6
CONTINUOUS
 10
-1.755819
 20
0.970185
  0
VERTEX
  8
PLAN_1
  6
CONTINUOUS
 10
-1.757457
 20
0.971280
  0
SEQEND
  8
0
  0
POLYLINE
  8
PLAN_1
  6
CONTINUOUS
 66
     1
 40
0.007106
 41
0.007106
  0
VERTEX
  8
PLAN_1
  6
CONTINUOUS
 10
-1.757457
 20
0.971280
  0
VERTEX
  8
PLAN_1
  6
CONTINUOUS
 10
-2.083965
 20
0.971280
  0
SEQEND
  8
0
  0
POLYLINE
  8
PLAN_1
  6
CONTINUOUS
 66
     1
 40
0.007106
 41
0.007106
  0
VERTEX
  8
PLAN_1
  6
CONTINUOUS
 10
-2.083965
 20
0.971280
  0
VERTEX
  8
PLAN_1
  6
CONTINUOUS
 10
-2.085606
 20
0.970185
  0
VERTEX
  8
PLAN_1
  6
CONTINUOUS
 10
-2.088343
 20
0.967449
  0
VERTEX
  8
PLAN_1
  6
CONTINUOUS
 10
-2.089980
 20
0.965264
  0
VERTEX
  8
PLAN_1
  6
CONTINUOUS
 10
-2.092169
 20
0.962528
  0
VERTEX
  8
PLAN_1
  6
CONTINUOUS
 10
-2.093811
 20
0.959248
  0
VERTEX
  8
PLAN_1
  6
CONTINUOUS
 10
-2.095449
 20
0.955965
  0
VERTEX
  8
PLAN_1
  6
CONTINUOUS
 10
-2.096543
 20
0.952138
  0
VERTEX
  8
PLAN_1
  6
CONTINUOUS
 10
-2.097091
 20
0.948307
  0
VERTEX
  8
PLAN_1
  6
CONTINUOUS
 10
-2.097091
 20
0.943933
  0
VERTEX
  8
PLAN_1
  6
CONTINUOUS
 10
-2.096543
 20
0.939012
  0
VERTEX
  8
PLAN_1
  6
CONTINUOUS
 10
-2.094906
 20
0.934087
  0
VERTEX
  8
PLAN_1
  6
CONTINUOUS
 10
-2.092717
 20
0.929165
  0
VERTEX
  8
PLAN_1
  6
CONTINUOUS
 10
-2.088886
 20
0.923697
  0
VERTEX
  8
PLAN_1
  6
CONTINUOUS
 10
-2.083965
 20
0.918228
  0
SEQEND
  8
0
  0
POLYLINE
  8
PLAN_1
  6
CONTINUOUS
 66
     1
 40
0.007106
 41
0.007106
  0
VERTEX
  8
PLAN_1
  6
CONTINUOUS
 10
-2.083965
 20
0.918228
  0
VERTEX
  8
PLAN_1
  6
CONTINUOUS
 10
-1.757457
 20
0.918228
  0
SEQEND
  8
0
  0
POLYLINE
  8
PLAN_1
  6
CONTINUOUS
 66
     1
 40
0.007106
 41
0.007106
  0
VERTEX
  8
PLAN_1
  6
CONTINUOUS
 10
-1.757457
 20
0.865177
  0
VERTEX
  8
PLAN_1
  6
CONTINUOUS
 10
-1.751988
 20
0.870098
  0
VERTEX
  8
PLAN_1
  6
CONTINUOUS
 10
-1.748161
 20
0.875020
  0
VERTEX
  8
PLAN_1
  6
CONTINUOUS
 10
-1.744878
 20
0.879945
  0
VERTEX
  8
PLAN_1
  6
CONTINUOUS
 10
-1.743240
 20
0.884866
  0
VERTEX
  8
PLAN_1
  6
CONTINUOUS
 10
-1.742693
 20
0.889240
  0
VERTEX
  8
PLAN_1
  6
CONTINUOUS
 10
-1.742693
 20
0.893618
  0
VERTEX
  8
PLAN_1
  6
CONTINUOUS
 10
-1.743787
 20
0.897992
  0
VERTEX
  8
PLAN_1
  6
CONTINUOUS
 10
-1.744878
 20
0.901819
  0
VERTEX
  8
PLAN_1
  6
CONTINUOUS
 10
-1.746520
 20
0.905102
  0
VERTEX
  8
PLAN_1
  6
CONTINUOUS
 10
-1.748709
 20
0.908382
  0
VERTEX
  8
PLAN_1
  6
CONTINUOUS
 10
-1.750894
 20
0.911118
  0
VERTEX
  8
PLAN_1
  6
CONTINUOUS
 10
-1.753083
 20
0.913854
  0
VERTEX
  8
PLAN_1
  6
CONTINUOUS
 10
-1.756366
 20
0.917134
  0
VERTEX
  8
PLAN_1
  6
CONTINUOUS
 10
-1.757457
 20
0.918228
  0
SEQEND
  8
0
  0
POLYLINE
  8
PLAN_1
  6
CONTINUOUS
 66
     1
 40
0.007106
 41
0.007106
  0
VERTEX
  8
PLAN_1
  6
CONTINUOUS
 10
-1.757457
 20
0.918228
  0
VERTEX
  8
PLAN_1
  6
CONTINUOUS
 10
-2.084512
 20
0.918228
  0
SEQEND
  8
0
  0
POLYLINE
  8
PLAN_1
  6
CONTINUOUS
 66
     1
 40
0.007106
 41
0.007106
  0
VERTEX
  8
PLAN_1
  6
CONTINUOUS
 10
-2.084512
 20
0.918228
  0
VERTEX
  8
PLAN_1
  6
CONTINUOUS
 10
-2.085606
 20
0.917134
  0
VERTEX
  8
PLAN_1
  6
CONTINUOUS
 10
-2.088343
 20
0.913854
  0
VERTEX
  8
PLAN_1
  6
CONTINUOUS
 10
-2.090528
 20
0.911665
  0
VERTEX
  8
PLAN_1
  6
CONTINUOUS
 10
-2.092169
 20
0.908929
  0
VERTEX
  8
PLAN_1
  6
CONTINUOUS
 10
-2.093811
 20
0.906197
  0
VERTEX
  8
PLAN_1
  6
CONTINUOUS
 10
-2.095449
 20
0.902366
  0
VERTEX
  8
PLAN_1
  6
CONTINUOUS
 10
-2.096543
 20
0.898539
  0
VERTEX
  8
PLAN_1
  6
CONTINUOUS
 10
-2.097638
 20
0.894709
  0
VERTEX
  8
PLAN_1
  6
CONTINUOUS
 10
-2.097638
 20
0.890335
  0
VERTEX
  8
PLAN_1
  6
CONTINUOUS
 10
-2.097091
 20
0.885413
  0
VERTEX
  8
PLAN_1
  6
CONTINUOUS
 10
-2.095449
 20
0.881039
  0
VERTEX
  8
PLAN_1
  6
CONTINUOUS
 10
-2.092717
 20
0.875567
  0
VERTEX
  8
PLAN_1
  6
CONTINUOUS
 10
-2.089433
 20
0.870646
  0
VERTEX
  8
PLAN_1
  6
CONTINUOUS
 10
-2.084512
 20
0.865177
  0
SEQEND
  8
0
  0
POLYLINE
  8
PLAN_1
  6
CONTINUOUS
 66
     1
 40
0.007106
 41
0.007106
  0
VERTEX
  8
PLAN_1
  6
CONTINUOUS
 10
-2.084512
 20
0.865177
  0
VERTEX
  8
PLAN_1
  6
CONTINUOUS
 10
-1.757457
 20
0.865177
  0
SEQEND
  8
0
  0
POLYLINE
  8
PLAN_1
  6
CONTINUOUS
 66
     1
 40
0.007106
 41
0.007106
  0
VERTEX
  8
PLAN_1
  6
CONTINUOUS
 10
-1.756913
 20
0.812126
  0
VERTEX
  8
PLAN_1
  6
CONTINUOUS
 10
-1.751441
 20
0.817594
  0
VERTEX
  8
PLAN_1
  6
CONTINUOUS
 10
-1.747614
 20
0.822520
  0
VERTEX
  8
PLAN_1
  6
CONTINUOUS
 10
-1.744331
 20
0.827441
  0
VERTEX
  8
PLAN_1
  6
CONTINUOUS
 10
-1.742693
 20
0.832362
  0
VERTEX
  8
PLAN_1
  6
CONTINUOUS
 10
-1.742146
 20
0.836736
  0
VERTEX
  8
PLAN_1
  6
CONTINUOUS
 10
-1.742146
 20
0.841114
  0
VERTEX
  8
PLAN_1
  6
CONTINUOUS
 10
-1.743240
 20
0.845488
  0
VERTEX
  8
PLAN_1
  6
CONTINUOUS
 10
-1.744331
 20
0.849315
  0
VERTEX
  8
PLAN_1
  6
CONTINUOUS
 10
-1.745972
 20
0.852598
  0
VERTEX
  8
PLAN_1
  6
CONTINUOUS
 10
-1.748161
 20
0.855878
  0
VERTEX
  8
PLAN_1
  6
CONTINUOUS
 10
-1.750350
 20
0.858614
  0
VERTEX
  8
PLAN_1
  6
CONTINUOUS
 10
-1.752535
 20
0.860803
  0
VERTEX
  8
PLAN_1
  6
CONTINUOUS
 10
-1.755819
 20
0.864083
  0
VERTEX
  8
PLAN_1
  6
CONTINUOUS
 10
-1.756913
 20
0.865177
  0
SEQEND
  8
0
  0
POLYLINE
  8
PLAN_1
  6
CONTINUOUS
 66
     1
 40
0.007106
 41
0.007106
  0
VERTEX
  8
PLAN_1
  6
CONTINUOUS
 10
-1.756913
 20
0.865177
  0
VERTEX
  8
PLAN_1
  6
CONTINUOUS
 10
-2.083965
 20
0.865177
  0
SEQEND
  8
0
  0
POLYLINE
  8
PLAN_1
  6
CONTINUOUS
 66
     1
 40
0.007106
 41
0.007106
  0
VERTEX
  8
PLAN_1
  6
CONTINUOUS
 10
-2.083965
 20
0.865177
  0
VERTEX
  8
PLAN_1
  6
CONTINUOUS
 10
-2.085059
 20
0.864083
  0
VERTEX
  8
PLAN_1
  6
CONTINUOUS
 10
-2.088343
 20
0.861350
  0
VERTEX
  8
PLAN_1
  6
CONTINUOUS
 10
-2.089980
 20
0.859161
  0
VERTEX
  8
PLAN_1
  6
CONTINUOUS
 10
-2.091622
 20
0.856425
  0
VERTEX
  8
PLAN_1
  6
CONTINUOUS
 10
-2.093264
 20
0.853146
  0
VERTEX
  8
PLAN_1
  6
CONTINUOUS
 10
-2.094906
 20
0.849862
  0
VERTEX
  8
PLAN_1
  6
CONTINUOUS
 10
-2.095996
 20
0.846035
  0
VERTEX
  8
PLAN_1
  6
CONTINUOUS
 10
-2.097091
 20
0.842209
  0
VERTEX
  8
PLAN_1
  6
CONTINUOUS
 10
-2.097091
 20
0.837831
  0
VERTEX
  8
PLAN_1
  6
CONTINUOUS
 10
-2.096543
 20
0.832909
  0
VERTEX
  8
PLAN_1
  6
CONTINUOUS
 10
-2.094906
 20
0.827988
  0
VERTEX
  8
PLAN_1
  6
CONTINUOUS
 10
-2.092169
 20
0.823063
  0
VERTEX
  8
PLAN_1
  6
CONTINUOUS
 10
-2.088886
 20
0.817594
  0
VERTEX
  8
PLAN_1
  6
CONTINUOUS
 10
-2.083965
 20
0.812126
  0
SEQEND
  8
0
  0
POLYLINE
  8
PLAN_1
  6
CONTINUOUS
 66
     1
 40
0.007106
 41
0.007106
  0
VERTEX
  8
PLAN_1
  6
CONTINUOUS
 10
-2.083965
 20
0.812126
  0
VERTEX
  8
PLAN_1
  6
CONTINUOUS
 10
-1.756913
 20
0.812126
  0
SEQEND
  8
0
  0
POLYLINE
  8
PLAN_1
  6
CONTINUOUS
 66
     1
 40
0.007106
 41
0.007106
  0
VERTEX
  8
PLAN_1
  6
CONTINUOUS
 10
-1.757457
 20
0.759622
  0
VERTEX
  8
PLAN_1
  6
CONTINUOUS
 10
-1.751988
 20
0.764543
  0
VERTEX
  8
PLAN_1
  6
CONTINUOUS
 10
-1.748161
 20
0.770016
  0
VERTEX
  8
PLAN_1
  6
CONTINUOUS
 10
-1.744878
 20
0.774937
  0
VERTEX
  8
PLAN_1
  6
CONTINUOUS
 10
-1.743240
 20
0.779311
  0
VERTEX
  8
PLAN_1
  6
CONTINUOUS
 10
-1.742693
 20
0.784232
  0
VERTEX
  8
PLAN_1
  6
CONTINUOUS
 10
-1.742693
 20
0.788610
  0
VERTEX
  8
PLAN_1
  6
CONTINUOUS
 10
-1.743787
 20
0.792437
  0
VERTEX
  8
PLAN_1
  6
CONTINUOUS
 10
-1.744878
 20
0.796268
  0
VERTEX
  8
PLAN_1
  6
CONTINUOUS
 10
-1.746520
 20
0.800094
  0
VERTEX
  8
PLAN_1
  6
CONTINUOUS
 10
-1.748709
 20
0.803374
  0
VERTEX
  8
PLAN_1
  6
CONTINUOUS
 10
-1.750894
 20
0.806110
  0
VERTEX
  8
PLAN_1
  6
CONTINUOUS
 10
-1.753083
 20
0.808299
  0
VERTEX
  8
PLAN_1
  6
CONTINUOUS
 10
-1.756366
 20
0.811579
  0
VERTEX
  8
PLAN_1
  6
CONTINUOUS
 10
-1.757457
 20
0.812673
  0
SEQEND
  8
0
  0
POLYLINE
  8
PLAN_1
  6
CONTINUOUS
 66
     1
 40
0.007106
 41
0.007106
  0
VERTEX
  8
PLAN_1
  6
CONTINUOUS
 10
-1.757457
 20
0.812673
  0
VERTEX
  8
PLAN_1
  6
CONTINUOUS
 10
-2.084512
 20
0.812673
  0
SEQEND
  8
0
  0
POLYLINE
  8
PLAN_1
  6
CONTINUOUS
 66
     1
 40
0.007106
 41
0.007106
  0
VERTEX
  8
PLAN_1
  6
CONTINUOUS
 10
-2.084512
 20
0.812673
  0
VERTEX
  8
PLAN_1
  6
CONTINUOUS
 10
-2.085606
 20
0.811579
  0
VERTEX
  8
PLAN_1
  6
CONTINUOUS
 10
-2.088343
 20
0.808299
  0
VERTEX
  8
PLAN_1
  6
CONTINUOUS
 10
-2.090528
 20
0.806110
  0
VERTEX
  8
PLAN_1
  6
CONTINUOUS
 10
-2.092169
 20
0.803921
  0
VERTEX
  8
PLAN_1
  6
CONTINUOUS
 10
-2.093811
 20
0.800642
  0
VERTEX
  8
PLAN_1
  6
CONTINUOUS
 10
-2.095449
 20
0.797358
  0
VERTEX
  8
PLAN_1
  6
CONTINUOUS
 10
-2.096543
 20
0.793531
  0
VERTEX
  8
PLAN_1
  6
CONTINUOUS
 10
-2.097638
 20
0.789157
  0
VERTEX
  8
PLAN_1
  6
CONTINUOUS
 10
-2.097638
 20
0.784780
  0
VERTEX
  8
PLAN_1
  6
CONTINUOUS
 10
-2.097091
 20
0.780406
  0
VERTEX
  8
PLAN_1
  6
CONTINUOUS
 10
-2.095449
 20
0.775484
  0
VERTEX
  8
PLAN_1
  6
CONTINUOUS
 10
-2.092717
 20
0.770563
  0
VERTEX
  8
PLAN_1
  6
CONTINUOUS
 10
-2.089433
 20
0.765091
  0
VERTEX
  8
PLAN_1
  6
CONTINUOUS
 10
-2.084512
 20
0.759622
  0
SEQEND
  8
0
  0
POLYLINE
  8
PLAN_1
  6
CONTINUOUS
 66
     1
 40
0.007106
 41
0.007106
  0
VERTEX
  8
PLAN_1
  6
CONTINUOUS
 10
-2.084512
 20
0.759622
  0
VERTEX
  8
PLAN_1
  6
CONTINUOUS
 10
-1.757457
 20
0.759622
  0
SEQEND
  8
0
  0
POLYLINE
  8
PLAN_1
  6
CONTINUOUS
 66
     1
 40
0.007106
 41
0.007106
  0
VERTEX
  8
PLAN_1
  6
CONTINUOUS
 10
-1.756913
 20
0.707118
  0
VERTEX
  8
PLAN_1
  6
CONTINUOUS
 10
-1.751441
 20
0.712043
  0
VERTEX
  8
PLAN_1
  6
CONTINUOUS
 10
-1.747614
 20
0.716965
  0
VERTEX
  8
PLAN_1
  6
CONTINUOUS
 10
-1.744331
 20
0.721886
  0
VERTEX
  8
PLAN_1
  6
CONTINUOUS
 10
-1.742693
 20
0.726807
  0
VERTEX
  8
PLAN_1
  6
CONTINUOUS
 10
-1.742146
 20
0.731185
  0
VERTEX
  8
PLAN_1
  6
CONTINUOUS
 10
-1.742146
 20
0.735559
  0
VERTEX
  8
PLAN_1
  6
CONTINUOUS
 10
-1.743240
 20
0.739933
  0
VERTEX
  8
PLAN_1
  6
CONTINUOUS
 10
-1.744331
 20
0.743764
  0
VERTEX
  8
PLAN_1
  6
CONTINUOUS
 10
-1.745972
 20
0.747591
  0
VERTEX
  8
PLAN_1
  6
CONTINUOUS
 10
-1.748161
 20
0.750327
  0
VERTEX
  8
PLAN_1
  6
CONTINUOUS
 10
-1.750350
 20
0.753059
  0
VERTEX
  8
PLAN_1
  6
CONTINUOUS
 10
-1.752535
 20
0.755795
  0
VERTEX
  8
PLAN_1
  6
CONTINUOUS
 10
-1.755819
 20
0.759075
  0
VERTEX
  8
PLAN_1
  6
CONTINUOUS
 10
-1.756913
 20
0.760169
  0
SEQEND
  8
0
  0
POLYLINE
  8
PLAN_1
  6
CONTINUOUS
 66
     1
 40
0.007106
 41
0.007106
  0
VERTEX
  8
PLAN_1
  6
CONTINUOUS
 10
-1.756913
 20
0.760169
  0
VERTEX
  8
PLAN_1
  6
CONTINUOUS
 10
-2.083965
 20
0.760169
  0
SEQEND
  8
0
  0
POLYLINE
  8
PLAN_1
  6
CONTINUOUS
 66
     1
 40
0.007106
 41
0.007106
  0
VERTEX
  8
PLAN_1
  6
CONTINUOUS
 10
-2.083965
 20
0.760169
  0
VERTEX
  8
PLAN_1
  6
CONTINUOUS
 10
-2.085059
 20
0.759075
  0
VERTEX
  8
PLAN_1
  6
CONTINUOUS
 10
-2.088343
 20
0.755795
  0
VERTEX
  8
PLAN_1
  6
CONTINUOUS
 10
-2.089980
 20
0.753606
  0
VERTEX
  8
PLAN_1
  6
CONTINUOUS
 10
-2.091622
 20
0.750874
  0
VERTEX
  8
PLAN_1
  6
CONTINUOUS
 10
-2.093264
 20
0.748138
  0
VERTEX
  8
PLAN_1
  6
CONTINUOUS
 10
-2.094906
 20
0.744311
  0
VERTEX
  8
PLAN_1
  6
CONTINUOUS
 10
-2.095996
 20
0.741028
  0
VERTEX
  8
PLAN_1
  6
CONTINUOUS
 10
-2.097091
 20
0.736654
  0
VERTEX
  8
PLAN_1
  6
CONTINUOUS
 10
-2.097091
 20
0.732276
  0
VERTEX
  8
PLAN_1
  6
CONTINUOUS
 10
-2.096543
 20
0.727902
  0
VERTEX
  8
PLAN_1
  6
CONTINUOUS
 10
-2.094906
 20
0.722980
  0
VERTEX
  8
PLAN_1
  6
CONTINUOUS
 10
-2.092169
 20
0.717512
  0
VERTEX
  8
PLAN_1
  6
CONTINUOUS
 10
-2.088886
 20
0.712587
  0
VERTEX
  8
PLAN_1
  6
CONTINUOUS
 10
-2.083965
 20
0.707118
  0
SEQEND
  8
0
  0
POLYLINE
  8
PLAN_1
  6
CONTINUOUS
 66
     1
 40
0.007106
 41
0.007106
  0
VERTEX
  8
PLAN_1
  6
CONTINUOUS
 10
-2.083965
 20
0.707118
  0
VERTEX
  8
PLAN_1
  6
CONTINUOUS
 10
-1.756913
 20
0.707118
  0
SEQEND
  8
0
  0
POLYLINE
  8
PLAN_1
  6
CONTINUOUS
 66
     1
 40
0.007106
 41
0.007106
  0
VERTEX
  8
PLAN_1
  6
CONTINUOUS
 10
-1.757457
 20
0.654067
  0
VERTEX
  8
PLAN_1
  6
CONTINUOUS
 10
-1.751988
 20
0.659539
  0
VERTEX
  8
PLAN_1
  6
CONTINUOUS
 10
-1.748161
 20
0.664461
  0
VERTEX
  8
PLAN_1
  6
CONTINUOUS
 10
-1.744878
 20
0.669382
  0
VERTEX
  8
PLAN_1
  6
CONTINUOUS
 10
-1.743240
 20
0.674303
  0
VERTEX
  8
PLAN_1
  6
CONTINUOUS
 10
-1.742693
 20
0.678681
  0
VERTEX
  8
PLAN_1
  6
CONTINUOUS
 10
-1.742693
 20
0.683055
  0
VERTEX
  8
PLAN_1
  6
CONTINUOUS
 10
-1.743787
 20
0.687429
  0
VERTEX
  8
PLAN_1
  6
CONTINUOUS
 10
-1.744878
 20
0.691260
  0
VERTEX
  8
PLAN_1
  6
CONTINUOUS
 10
-1.746520
 20
0.694539
  0
VERTEX
  8
PLAN_1
  6
CONTINUOUS
 10
-1.748709
 20
0.697823
  0
VERTEX
  8
PLAN_1
  6
CONTINUOUS
 10
-1.750894
 20
0.700555
  0
VERTEX
  8
PLAN_1
  6
CONTINUOUS
 10
-1.753083
 20
0.702744
  0
VERTEX
  8
PLAN_1
  6
CONTINUOUS
 10
-1.756366
 20
0.706024
  0
VERTEX
  8
PLAN_1
  6
CONTINUOUS
 10
-1.757457
 20
0.707118
  0
SEQEND
  8
0
  0
POLYLINE
  8
PLAN_1
  6
CONTINUOUS
 66
     1
 40
0.007106
 41
0.007106
  0
VERTEX
  8
PLAN_1
  6
CONTINUOUS
 10
-1.757457
 20
0.707118
  0
VERTEX
  8
PLAN_1
  6
CONTINUOUS
 10
-2.084512
 20
0.707118
  0
SEQEND
  8
0
  0
POLYLINE
  8
PLAN_1
  6
CONTINUOUS
 66
     1
 40
0.007106
 41
0.007106
  0
VERTEX
  8
PLAN_1
  6
CONTINUOUS
 10
-2.084512
 20
0.707118
  0
VERTEX
  8
PLAN_1
  6
CONTINUOUS
 10
-2.085606
 20
0.706024
  0
VERTEX
  8
PLAN_1
  6
CONTINUOUS
 10
-2.088343
 20
0.703291
  0
VERTEX
  8
PLAN_1
  6
CONTINUOUS
 10
-2.090528
 20
0.701102
  0
VERTEX
  8
PLAN_1
  6
CONTINUOUS
 10
-2.092169
 20
0.698370
  0
VERTEX
  8
PLAN_1
  6
CONTINUOUS
 10
-2.093811
 20
0.695087
  0
VERTEX
  8
PLAN_1
  6
CONTINUOUS
 10
-2.095449
 20
0.691807
  0
VERTEX
  8
PLAN_1
  6
CONTINUOUS
 10
-2.096543
 20
0.687976
  0
VERTEX
  8
PLAN_1
  6
CONTINUOUS
 10
-2.097638
 20
0.684150
  0
VERTEX
  8
PLAN_1
  6
CONTINUOUS
 10
-2.097638
 20
0.679772
  0
VERTEX
  8
PLAN_1
  6
CONTINUOUS
 10
-2.097091
 20
0.674850
  0
VERTEX
  8
PLAN_1
  6
CONTINUOUS
 10
-2.095449
 20
0.669929
  0
VERTEX
  8
PLAN_1
  6
CONTINUOUS
 10
-2.092717
 20
0.665008
  0
VERTEX
  8
PLAN_1
  6
CONTINUOUS
 10
-2.089433
 20
0.659539
  0
VERTEX
  8
PLAN_1
  6
CONTINUOUS
 10
-2.084512
 20
0.654067
  0
SEQEND
  8
0
  0
POLYLINE
  8
PLAN_1
  6
CONTINUOUS
 66
     1
 40
0.007106
 41
0.007106
  0
VERTEX
  8
PLAN_1
  6
CONTINUOUS
 10
-2.084512
 20
0.654067
  0
VERTEX
  8
PLAN_1
  6
CONTINUOUS
 10
-1.757457
 20
0.654067
  0
SEQEND
  8
0
  0
POLYLINE
  8
PLAN_1
  6
CONTINUOUS
 66
     1
 40
0.007106
 41
0.007106
  0
VERTEX
  8
PLAN_1
  6
CONTINUOUS
 10
-1.756913
 20
0.601567
  0
VERTEX
  8
PLAN_1
  6
CONTINUOUS
 10
-1.751441
 20
0.606488
  0
VERTEX
  8
PLAN_1
  6
CONTINUOUS
 10
-1.747614
 20
0.611957
  0
VERTEX
  8
PLAN_1
  6
CONTINUOUS
 10
-1.744331
 20
0.616878
  0
VERTEX
  8
PLAN_1
  6
CONTINUOUS
 10
-1.742693
 20
0.621252
  0
VERTEX
  8
PLAN_1
  6
CONTINUOUS
 10
-1.742146
 20
0.626177
  0
VERTEX
  8
PLAN_1
  6
CONTINUOUS
 10
-1.742146
 20
0.630551
  0
VERTEX
  8
PLAN_1
  6
CONTINUOUS
 10
-1.743240
 20
0.634378
  0
VERTEX
  8
PLAN_1
  6
CONTINUOUS
 10
-1.744331
 20
0.638209
  0
VERTEX
  8
PLAN_1
  6
CONTINUOUS
 10
-1.745972
 20
0.642035
  0
VERTEX
  8
PLAN_1
  6
CONTINUOUS
 10
-1.748161
 20
0.645319
  0
VERTEX
  8
PLAN_1
  6
CONTINUOUS
 10
-1.750350
 20
0.648051
  0
VERTEX
  8
PLAN_1
  6
CONTINUOUS
 10
-1.752535
 20
0.650240
  0
VERTEX
  8
PLAN_1
  6
CONTINUOUS
 10
-1.755819
 20
0.653524
  0
VERTEX
  8
PLAN_1
  6
CONTINUOUS
 10
-1.756913
 20
0.654614
  0
SEQEND
  8
0
  0
POLYLINE
  8
PLAN_1
  6
CONTINUOUS
 66
     1
 40
0.007106
 41
0.007106
  0
VERTEX
  8
PLAN_1
  6
CONTINUOUS
 10
-1.756913
 20
0.654614
  0
VERTEX
  8
PLAN_1
  6
CONTINUOUS
 10
-2.083965
 20
0.654614
  0
SEQEND
  8
0
  0
POLYLINE
  8
PLAN_1
  6
CONTINUOUS
 66
     1
 40
0.007106
 41
0.007106
  0
VERTEX
  8
PLAN_1
  6
CONTINUOUS
 10
-2.083965
 20
0.654614
  0
VERTEX
  8
PLAN_1
  6
CONTINUOUS
 10
-2.085059
 20
0.653524
  0
VERTEX
  8
PLAN_1
  6
CONTINUOUS
 10
-2.088343
 20
0.650787
  0
VERTEX
  8
PLAN_1
  6
CONTINUOUS
 10
-2.089980
 20
0.648051
  0
VERTEX
  8
PLAN_1
  6
CONTINUOUS
 10
-2.091622
 20
0.645866
  0
VERTEX
  8
PLAN_1
  6
CONTINUOUS
 10
-2.093264
 20
0.642583
  0
VERTEX
  8
PLAN_1
  6
CONTINUOUS
 10
-2.094906
 20
0.639303
  0
VERTEX
  8
PLAN_1
  6
CONTINUOUS
 10
-2.095996
 20
0.635472
  0
VERTEX
  8
PLAN_1
  6
CONTINUOUS
 10
-2.097091
 20
0.631098
  0
VERTEX
  8
PLAN_1
  6
CONTINUOUS
 10
-2.097091
 20
0.626724
  0
VERTEX
  8
PLAN_1
  6
CONTINUOUS
 10
-2.096543
 20
0.622346
  0
VERTEX
  8
PLAN_1
  6
CONTINUOUS
 10
-2.094906
 20
0.617425
  0
VERTEX
  8
PLAN_1
  6
CONTINUOUS
 10
-2.092169
 20
0.612504
  0
VERTEX
  8
PLAN_1
  6
CONTINUOUS
 10
-2.088886
 20
0.607035
  0
VERTEX
  8
PLAN_1
  6
CONTINUOUS
 10
-2.083965
 20
0.601567
  0
SEQEND
  8
0
  0
POLYLINE
  8
PLAN_1
  6
CONTINUOUS
 66
     1
 40
0.007106
 41
0.007106
  0
VERTEX
  8
PLAN_1
  6
CONTINUOUS
 10
-2.083965
 20
0.601567
  0
VERTEX
  8
PLAN_1
  6
CONTINUOUS
 10
-1.756913
 20
0.601567
  0
SEQEND
  8
0
  0
POLYLINE
  8
PLAN_1
  6
CONTINUOUS
 66
     1
 40
0.007106
 41
0.007106
  0
VERTEX
  8
PLAN_1
  6
CONTINUOUS
 10
-1.757457
 20
0.549063
  0
VERTEX
  8
PLAN_1
  6
CONTINUOUS
 10
-1.751988
 20
0.553984
  0
VERTEX
  8
PLAN_1
  6
CONTINUOUS
 10
-1.748161
 20
0.558906
  0
VERTEX
  8
PLAN_1
  6
CONTINUOUS
 10
-1.744878
 20
0.563827
  0
VERTEX
  8
PLAN_1
  6
CONTINUOUS
 10
-1.743240
 20
0.568752
  0
VERTEX
  8
PLAN_1
  6
CONTINUOUS
 10
-1.742693
 20
0.573126
  0
VERTEX
  8
PLAN_1
  6
CONTINUOUS
 10
-1.742693
 20
0.577500
  0
VERTEX
  8
PLAN_1
  6
CONTINUOUS
 10
-1.743787
 20
0.581878
  0
VERTEX
  8
PLAN_1
  6
CONTINUOUS
 10
-1.744878
 20
0.585705
  0
VERTEX
  8
PLAN_1
  6
CONTINUOUS
 10
-1.746520
 20
0.589531
  0
VERTEX
  8
PLAN_1
  6
CONTINUOUS
 10
-1.748709
 20
0.592268
  0
VERTEX
  8
PLAN_1
  6
CONTINUOUS
 10
-1.750894
 20
0.595004
  0
VERTEX
  8
PLAN_1
  6
CONTINUOUS
 10
-1.753083
 20
0.597736
  0
VERTEX
  8
PLAN_1
  6
CONTINUOUS
 10
-1.756366
 20
0.601020
  0
VERTEX
  8
PLAN_1
  6
CONTINUOUS
 10
-1.757457
 20
0.602110
  0
SEQEND
  8
0
  0
POLYLINE
  8
PLAN_1
  6
CONTINUOUS
 66
     1
 40
0.007106
 41
0.007106
  0
VERTEX
  8
PLAN_1
  6
CONTINUOUS
 10
-1.757457
 20
0.602110
  0
VERTEX
  8
PLAN_1
  6
CONTINUOUS
 10
-2.084512
 20
0.602110
  0
SEQEND
  8
0
  0
POLYLINE
  8
PLAN_1
  6
CONTINUOUS
 66
     1
 40
0.007106
 41
0.007106
  0
VERTEX
  8
PLAN_1
  6
CONTINUOUS
 10
-2.084512
 20
0.602110
  0
VERTEX
  8
PLAN_1
  6
CONTINUOUS
 10
-2.085606
 20
0.601020
  0
VERTEX
  8
PLAN_1
  6
CONTINUOUS
 10
-2.088343
 20
0.597736
  0
VERTEX
  8
PLAN_1
  6
CONTINUOUS
 10
-2.090528
 20
0.595547
  0
VERTEX
  8
PLAN_1
  6
CONTINUOUS
 10
-2.092169
 20
0.592815
  0
VERTEX
  8
PLAN_1
  6
CONTINUOUS
 10
-2.093811
 20
0.590079
  0
VERTEX
  8
PLAN_1
  6
CONTINUOUS
 10
-2.095449
 20
0.586252
  0
VERTEX
  8
PLAN_1
  6
CONTINUOUS
 10
-2.096543
 20
0.582969
  0
VERTEX
  8
PLAN_1
  6
CONTINUOUS
 10
-2.097638
 20
0.578594
  0
VERTEX
  8
PLAN_1
  6
CONTINUOUS
 10
-2.097638
 20
0.574220
  0
VERTEX
  8
PLAN_1
  6
CONTINUOUS
 10
-2.097091
 20
0.569843
  0
VERTEX
  8
PLAN_1
  6
CONTINUOUS
 10
-2.095449
 20
0.564921
  0
VERTEX
  8
PLAN_1
  6
CONTINUOUS
 10
-2.092717
 20
0.559453
  0
VERTEX
  8
PLAN_1
  6
CONTINUOUS
 10
-2.089433
 20
0.554531
  0
VERTEX
  8
PLAN_1
  6
CONTINUOUS
 10
-2.084512
 20
0.549063
  0
SEQEND
  8
0
  0
POLYLINE
  8
PLAN_1
  6
CONTINUOUS
 66
     1
 40
0.007106
 41
0.007106
  0
VERTEX
  8
PLAN_1
  6
CONTINUOUS
 10
-2.084512
 20
0.549063
  0
VERTEX
  8
PLAN_1
  6
CONTINUOUS
 10
-1.757457
 20
0.549063
  0
SEQEND
  8
0
  0
POLYLINE
  8
PLAN_1
  6
CONTINUOUS
 66
     1
 40
0.007106
 41
0.007106
  0
VERTEX
  8
PLAN_1
  6
CONTINUOUS
 10
-1.756913
 20
0.496012
  0
VERTEX
  8
PLAN_1
  6
CONTINUOUS
 10
-1.751441
 20
0.501480
  0
VERTEX
  8
PLAN_1
  6
CONTINUOUS
 10
-1.747614
 20
0.506402
  0
VERTEX
  8
PLAN_1
  6
CONTINUOUS
 10
-1.744331
 20
0.511323
  0
VERTEX
  8
PLAN_1
  6
CONTINUOUS
 10
-1.742693
 20
0.516248
  0
VERTEX
  8
PLAN_1
  6
CONTINUOUS
 10
-1.742146
 20
0.520622
  0
VERTEX
  8
PLAN_1
  6
CONTINUOUS
 10
-1.742146
 20
0.524996
  0
VERTEX
  8
PLAN_1
  6
CONTINUOUS
 10
-1.743240
 20
0.529374
  0
VERTEX
  8
PLAN_1
  6
CONTINUOUS
 10
-1.744331
 20
0.533201
  0
VERTEX
  8
PLAN_1
  6
CONTINUOUS
 10
-1.745972
 20
0.536484
  0
VERTEX
  8
PLAN_1
  6
CONTINUOUS
 10
-1.748161
 20
0.539764
  0
VERTEX
  8
PLAN_1
  6
CONTINUOUS
 10
-1.750350
 20
0.542500
  0
VERTEX
  8
PLAN_1
  6
CONTINUOUS
 10
-1.752535
 20
0.544685
  0
VERTEX
  8
PLAN_1
  6
CONTINUOUS
 10
-1.755819
 20
0.547969
  0
VERTEX
  8
PLAN_1
  6
CONTINUOUS
 10
-1.756913
 20
0.549063
  0
SEQEND
  8
0
  0
POLYLINE
  8
PLAN_1
  6
CONTINUOUS
 66
     1
 40
0.007106
 41
0.007106
  0
VERTEX
  8
PLAN_1
  6
CONTINUOUS
 10
-1.756913
 20
0.549063
  0
VERTEX
  8
PLAN_1
  6
CONTINUOUS
 10
-2.083965
 20
0.549063
  0
SEQEND
  8
0
  0
POLYLINE
  8
PLAN_1
  6
CONTINUOUS
 66
     1
 40
0.007106
 41
0.007106
  0
VERTEX
  8
PLAN_1
  6
CONTINUOUS
 10
-2.083965
 20
0.549063
  0
VERTEX
  8
PLAN_1
  6
CONTINUOUS
 10
-2.085059
 20
0.547969
  0
VERTEX
  8
PLAN_1
  6
CONTINUOUS
 10
-2.088343
 20
0.545232
  0
VERTEX
  8
PLAN_1
  6
CONTINUOUS
 10
-2.089980
 20
0.543047
  0
VERTEX
  8
PLAN_1
  6
CONTINUOUS
 10
-2.091622
 20
0.540311
  0
VERTEX
  8
PLAN_1
  6
CONTINUOUS
 10
-2.093264
 20
0.537028
  0
VERTEX
  8
PLAN_1
  6
CONTINUOUS
 10
-2.094906
 20
0.533748
  0
VERTEX
  8
PLAN_1
  6
CONTINUOUS
 10
-2.095996
 20
0.529921
  0
VERTEX
  8
PLAN_1
  6
CONTINUOUS
 10
-2.097091
 20
0.526091
  0
VERTEX
  8
PLAN_1
  6
CONTINUOUS
 10
-2.097091
 20
0.521717
  0
VERTEX
  8
PLAN_1
  6
CONTINUOUS
 10
-2.096543
 20
0.516795
  0
VERTEX
  8
PLAN_1
  6
CONTINUOUS
 10
-2.094906
 20
0.511870
  0
VERTEX
  8
PLAN_1
  6
CONTINUOUS
 10
-2.092169
 20
0.506949
  0
VERTEX
  8
PLAN_1
  6
CONTINUOUS
 10
-2.088886
 20
0.501480
  0
VERTEX
  8
PLAN_1
  6
CONTINUOUS
 10
-2.083965
 20
0.496012
  0
SEQEND
  8
0
  0
POLYLINE
  8
PLAN_1
  6
CONTINUOUS
 66
     1
 40
0.007106
 41
0.007106
  0
VERTEX
  8
PLAN_1
  6
CONTINUOUS
 10
-2.083965
 20
0.496012
  0
VERTEX
  8
PLAN_1
  6
CONTINUOUS
 10
-1.756913
 20
0.496012
  0
SEQEND
  8
0
  0
POLYLINE
  8
PLAN_1
  6
CONTINUOUS
 66
     1
 40
0.007106
 41
0.007106
  0
VERTEX
  8
PLAN_1
  6
CONTINUOUS
 10
-1.757457
 20
0.443508
  0
VERTEX
  8
PLAN_1
  6
CONTINUOUS
 10
-1.751988
 20
0.448429
  0
VERTEX
  8
PLAN_1
  6
CONTINUOUS
 10
-1.748161
 20
0.453898
  0
VERTEX
  8
PLAN_1
  6
CONTINUOUS
 10
-1.744878
 20
0.458819
  0
VERTEX
  8
PLAN_1
  6
CONTINUOUS
 10
-1.743240
 20
0.463197
  0
VERTEX
  8
PLAN_1
  6
CONTINUOUS
 10
-1.742693
 20
0.468118
  0
VERTEX
  8
PLAN_1
  6
CONTINUOUS
 10
-1.742693
 20
0.472492
  0
VERTEX
  8
PLAN_1
  6
CONTINUOUS
 10
-1.743787
 20
0.476323
  0
VERTEX
  8
PLAN_1
  6
CONTINUOUS
 10
-1.744878
 20
0.480150
  0
VERTEX
  8
PLAN_1
  6
CONTINUOUS
 10
-1.746520
 20
0.483980
  0
VERTEX
  8
PLAN_1
  6
CONTINUOUS
 10
-1.748709
 20
0.487260
  0
VERTEX
  8
PLAN_1
  6
CONTINUOUS
 10
-1.750894
 20
0.489996
  0
VERTEX
  8
PLAN_1
  6
CONTINUOUS
 10
-1.753083
 20
0.492181
  0
VERTEX
  8
PLAN_1
  6
CONTINUOUS
 10
-1.756366
 20
0.495465
  0
VERTEX
  8
PLAN_1
  6
CONTINUOUS
 10
-1.757457
 20
0.496559
  0
SEQEND
  8
0
  0
POLYLINE
  8
PLAN_1
  6
CONTINUOUS
 66
     1
 40
0.007106
 41
0.007106
  0
VERTEX
  8
PLAN_1
  6
CONTINUOUS
 10
-1.757457
 20
0.496559
  0
VERTEX
  8
PLAN_1
  6
CONTINUOUS
 10
-2.084512
 20
0.496559
  0
SEQEND
  8
0
  0
POLYLINE
  8
PLAN_1
  6
CONTINUOUS
 66
     1
 40
0.007106
 41
0.007106
  0
VERTEX
  8
PLAN_1
  6
CONTINUOUS
 10
-2.084512
 20
0.496559
  0
VERTEX
  8
PLAN_1
  6
CONTINUOUS
 10
-2.085606
 20
0.495465
  0
VERTEX
  8
PLAN_1
  6
CONTINUOUS
 10
-2.088343
 20
0.492728
  0
VERTEX
  8
PLAN_1
  6
CONTINUOUS
 10
-2.090528
 20
0.489996
  0
VERTEX
  8
PLAN_1
  6
CONTINUOUS
 10
-2.092169
 20
0.487807
  0
VERTEX
  8
PLAN_1
  6
CONTINUOUS
 10
-2.093811
 20
0.484528
  0
VERTEX
  8
PLAN_1
  6
CONTINUOUS
 10
-2.095449
 20
0.481244
  0
VERTEX
  8
PLAN_1
  6
CONTINUOUS
 10
-2.096543
 20
0.477417
  0
VERTEX
  8
PLAN_1
  6
CONTINUOUS
 10
-2.097638
 20
0.473039
  0
VERTEX
  8
PLAN_1
  6
CONTINUOUS
 10
-2.097638
 20
0.468665
  0
VERTEX
  8
PLAN_1
  6
CONTINUOUS
 10
-2.097091
 20
0.464291
  0
VERTEX
  8
PLAN_1
  6
CONTINUOUS
 10
-2.095449
 20
0.459366
  0
VERTEX
  8
PLAN_1
  6
CONTINUOUS
 10
-2.092717
 20
0.454445
  0
VERTEX
  8
PLAN_1
  6
CONTINUOUS
 10
-2.089433
 20
0.448976
  0
VERTEX
  8
PLAN_1
  6
CONTINUOUS
 10
-2.084512
 20
0.443508
  0
SEQEND
  8
0
  0
POLYLINE
  8
PLAN_1
  6
CONTINUOUS
 66
     1
 40
0.007106
 41
0.007106
  0
VERTEX
  8
PLAN_1
  6
CONTINUOUS
 10
-2.084512
 20
0.443508
  0
VERTEX
  8
PLAN_1
  6
CONTINUOUS
 10
-1.757457
 20
0.443508
  0
SEQEND
  8
0
  0
POLYLINE
  8
PLAN_1
  6
CONTINUOUS
 66
     1
 40
0.007106
 41
0.007106
  0
VERTEX
  8
PLAN_1
  6
CONTINUOUS
 10
-1.756913
 20
0.391004
  0
VERTEX
  8
PLAN_1
  6
CONTINUOUS
 10
-1.751441
 20
0.395925
  0
VERTEX
  8
PLAN_1
  6
CONTINUOUS
 10
-1.747614
 20
0.400846
  0
VERTEX
  8
PLAN_1
  6
CONTINUOUS
 10
-1.744331
 20
0.405772
  0
VERTEX
  8
PLAN_1
  6
CONTINUOUS
 10
-1.742693
 20
0.410693
  0
VERTEX
  8
PLAN_1
  6
CONTINUOUS
 10
-1.742146
 20
0.415067
  0
VERTEX
  8
PLAN_1
  6
CONTINUOUS
 10
-1.742146
 20
0.419445
  0
VERTEX
  8
PLAN_1
  6
CONTINUOUS
 10
-1.743240
 20
0.423819
  0
VERTEX
  8
PLAN_1
  6
CONTINUOUS
 10
-1.744331
 20
0.427646
  0
VERTEX
  8
PLAN_1
  6
CONTINUOUS
 10
-1.745972
 20
0.431476
  0
VERTEX
  8
PLAN_1
  6
CONTINUOUS
 10
-1.748161
 20
0.434209
  0
VERTEX
  8
PLAN_1
  6
CONTINUOUS
 10
-1.750350
 20
0.436945
  0
VERTEX
  8
PLAN_1
  6
CONTINUOUS
 10
-1.752535
 20
0.439677
  0
VERTEX
  8
PLAN_1
  6
CONTINUOUS
 10
-1.755819
 20
0.442961
  0
VERTEX
  8
PLAN_1
  6
CONTINUOUS
 10
-1.756913
 20
0.444055
  0
SEQEND
  8
0
  0
POLYLINE
  8
PLAN_1
  6
CONTINUOUS
 66
     1
 40
0.007106
 41
0.007106
  0
VERTEX
  8
PLAN_1
  6
CONTINUOUS
 10
-1.756913
 20
0.444055
  0
VERTEX
  8
PLAN_1
  6
CONTINUOUS
 10
-2.083965
 20
0.444055
  0
SEQEND
  8
0
  0
POLYLINE
  8
PLAN_1
  6
CONTINUOUS
 66
     1
 40
0.007106
 41
0.007106
  0
VERTEX
  8
PLAN_1
  6
CONTINUOUS
 10
-2.083965
 20
0.444055
  0
VERTEX
  8
PLAN_1
  6
CONTINUOUS
 10
-2.085059
 20
0.442961
  0
VERTEX
  8
PLAN_1
  6
CONTINUOUS
 10
-2.088343
 20
0.439677
  0
VERTEX
  8
PLAN_1
  6
CONTINUOUS
 10
-2.089980
 20
0.437492
  0
VERTEX
  8
PLAN_1
  6
CONTINUOUS
 10
-2.091622
 20
0.434756
  0
VERTEX
  8
PLAN_1
  6
CONTINUOUS
 10
-2.093264
 20
0.432024
  0
VERTEX
  8
PLAN_1
  6
CONTINUOUS
 10
-2.094906
 20
0.428193
  0
VERTEX
  8
PLAN_1
  6
CONTINUOUS
 10
-2.095996
 20
0.424913
  0
VERTEX
  8
PLAN_1
  6
CONTINUOUS
 10
-2.097091
 20
0.420535
  0
VERTEX
  8
PLAN_1
  6
CONTINUOUS
 10
-2.097091
 20
0.416161
  0
VERTEX
  8
PLAN_1
  6
CONTINUOUS
 10
-2.096543
 20
0.411787
  0
VERTEX
  8
PLAN_1
  6
CONTINUOUS
 10
-2.094906
 20
0.406862
  0
VERTEX
  8
PLAN_1
  6
CONTINUOUS
 10
-2.092169
 20
0.401394
  0
VERTEX
  8
PLAN_1
  6
CONTINUOUS
 10
-2.088886
 20
0.396472
  0
VERTEX
  8
PLAN_1
  6
CONTINUOUS
 10
-2.083965
 20
0.391004
  0
SEQEND
  8
0
  0
POLYLINE
  8
PLAN_1
  6
CONTINUOUS
 66
     1
 40
0.007106
 41
0.007106
  0
VERTEX
  8
PLAN_1
  6
CONTINUOUS
 10
-2.083965
 20
0.391004
  0
VERTEX
  8
PLAN_1
  6
CONTINUOUS
 10
-1.756913
 20
0.391004
  0
SEQEND
  8
0
  0
POLYLINE
  8
PLAN_1
  6
CONTINUOUS
 66
     1
 40
0.007106
 41
0.007106
  0
VERTEX
  8
PLAN_1
  6
CONTINUOUS
 10
-1.757457
 20
0.337953
  0
VERTEX
  8
PLAN_1
  6
CONTINUOUS
 10
-1.751988
 20
0.343421
  0
VERTEX
  8
PLAN_1
  6
CONTINUOUS
 10
-1.748161
 20
0.348343
  0
VERTEX
  8
PLAN_1
  6
CONTINUOUS
 10
-1.744878
 20
0.353268
  0
VERTEX
  8
PLAN_1
  6
CONTINUOUS
 10
-1.743240
 20
0.358189
  0
VERTEX
  8
PLAN_1
  6
CONTINUOUS
 10
-1.742693
 20
0.362563
  0
VERTEX
  8
PLAN_1
  6
CONTINUOUS
 10
-1.742693
 20
0.366941
  0
VERTEX
  8
PLAN_1
  6
CONTINUOUS
 10
-1.743787
 20
0.371315
  0
VERTEX
  8
PLAN_1
  6
CONTINUOUS
 10
-1.744878
 20
0.375142
  0
VERTEX
  8
PLAN_1
  6
CONTINUOUS
 10
-1.746520
 20
0.378425
  0
VERTEX
  8
PLAN_1
  6
CONTINUOUS
 10
-1.748709
 20
0.381705
  0
VERTEX
  8
PLAN_1
  6
CONTINUOUS
 10
-1.750894
 20
0.384441
  0
VERTEX
  8
PLAN_1
  6
CONTINUOUS
 10
-1.753083
 20
0.386630
  0
VERTEX
  8
PLAN_1
  6
CONTINUOUS
 10
-1.756366
 20
0.389909
  0
VERTEX
  8
PLAN_1
  6
CONTINUOUS
 10
-1.757457
 20
0.391004
  0
SEQEND
  8
0
  0
POLYLINE
  8
PLAN_1
  6
CONTINUOUS
 66
     1
 40
0.007106
 41
0.007106
  0
VERTEX
  8
PLAN_1
  6
CONTINUOUS
 10
-1.757457
 20
0.391004
  0
VERTEX
  8
PLAN_1
  6
CONTINUOUS
 10
-2.084512
 20
0.391004
  0
SEQEND
  8
0
  0
POLYLINE
  8
PLAN_1
  6
CONTINUOUS
 66
     1
 40
0.007106
 41
0.007106
  0
VERTEX
  8
PLAN_1
  6
CONTINUOUS
 10
-2.084512
 20
0.391004
  0
VERTEX
  8
PLAN_1
  6
CONTINUOUS
 10
-2.085606
 20
0.390457
  0
VERTEX
  8
PLAN_1
  6
CONTINUOUS
 10
-2.088343
 20
0.387173
  0
VERTEX
  8
PLAN_1
  6
CONTINUOUS
 10
-2.090528
 20
0.384988
  0
VERTEX
  8
PLAN_1
  6
CONTINUOUS
 10
-2.092169
 20
0.382252
  0
VERTEX
  8
PLAN_1
  6
CONTINUOUS
 10
-2.093811
 20
0.378972
  0
VERTEX
  8
PLAN_1
  6
CONTINUOUS
 10
-2.095449
 20
0.375689
  0
VERTEX
  8
PLAN_1
  6
CONTINUOUS
 10
-2.096543
 20
0.371862
  0
VERTEX
  8
PLAN_1
  6
CONTINUOUS
 10
-2.097638
 20
0.368031
  0
VERTEX
  8
PLAN_1
  6
CONTINUOUS
 10
-2.097638
 20
0.363657
  0
VERTEX
  8
PLAN_1
  6
CONTINUOUS
 10
-2.097091
 20
0.358736
  0
VERTEX
  8
PLAN_1
  6
CONTINUOUS
 10
-2.095449
 20
0.353815
  0
VERTEX
  8
PLAN_1
  6
CONTINUOUS
 10
-2.092717
 20
0.348890
  0
VERTEX
  8
PLAN_1
  6
CONTINUOUS
 10
-2.089433
 20
0.343421
  0
VERTEX
  8
PLAN_1
  6
CONTINUOUS
 10
-2.084512
 20
0.337953
  0
SEQEND
  8
0
  0
POLYLINE
  8
PLAN_1
  6
CONTINUOUS
 66
     1
 40
0.007106
 41
0.007106
  0
VERTEX
  8
PLAN_1
  6
CONTINUOUS
 10
-2.084512
 20
0.337953
  0
VERTEX
  8
PLAN_1
  6
CONTINUOUS
 10
-1.757457
 20
0.337953
  0
SEQEND
  8
0
  0
POLYLINE
  8
PLAN_1
  6
CONTINUOUS
 66
     1
 40
0.007106
 41
0.007106
  0
VERTEX
  8
PLAN_1
  6
CONTINUOUS
 10
-1.756913
 20
0.285449
  0
VERTEX
  8
PLAN_1
  6
CONTINUOUS
 10
-1.751441
 20
0.290370
  0
VERTEX
  8
PLAN_1
  6
CONTINUOUS
 10
-1.747614
 20
0.295843
  0
VERTEX
  8
PLAN_1
  6
CONTINUOUS
 10
-1.744331
 20
0.300764
  0
VERTEX
  8
PLAN_1
  6
CONTINUOUS
 10
-1.742693
 20
0.305138
  0
VERTEX
  8
PLAN_1
  6
CONTINUOUS
 10
-1.742146
 20
0.310059
  0
VERTEX
  8
PLAN_1
  6
CONTINUOUS
 10
-1.742146
 20
0.314437
  0
VERTEX
  8
PLAN_1
  6
CONTINUOUS
 10
-1.743240
 20
0.318264
  0
VERTEX
  8
PLAN_1
  6
CONTINUOUS
 10
-1.744331
 20
0.322091
  0
VERTEX
  8
PLAN_1
  6
CONTINUOUS
 10
-1.745972
 20
0.325921
  0
VERTEX
  8
PLAN_1
  6
CONTINUOUS
 10
-1.748161
 20
0.329201
  0
VERTEX
  8
PLAN_1
  6
CONTINUOUS
 10
-1.750350
 20
0.331937
  0
VERTEX
  8
PLAN_1
  6
CONTINUOUS
 10
-1.752535
 20
0.334126
  0
VERTEX
  8
PLAN_1
  6
CONTINUOUS
 10
-1.755819
 20
0.337406
  0
VERTEX
  8
PLAN_1
  6
CONTINUOUS
 10
-1.756913
 20
0.338500
  0
SEQEND
  8
0
  0
POLYLINE
  8
PLAN_1
  6
CONTINUOUS
 66
     1
 40
0.007106
 41
0.007106
  0
VERTEX
  8
PLAN_1
  6
CONTINUOUS
 10
-1.756913
 20
0.338500
  0
VERTEX
  8
PLAN_1
  6
CONTINUOUS
 10
-2.083965
 20
0.338500
  0
SEQEND
  8
0
  0
POLYLINE
  8
PLAN_1
  6
CONTINUOUS
 66
     1
 40
0.007106
 41
0.007106
  0
VERTEX
  8
PLAN_1
  6
CONTINUOUS
 10
-2.083965
 20
0.338500
  0
VERTEX
  8
PLAN_1
  6
CONTINUOUS
 10
-2.085059
 20
0.337406
  0
VERTEX
  8
PLAN_1
  6
CONTINUOUS
 10
-2.088343
 20
0.334673
  0
VERTEX
  8
PLAN_1
  6
CONTINUOUS
 10
-2.089980
 20
0.331937
  0
VERTEX
  8
PLAN_1
  6
CONTINUOUS
 10
-2.091622
 20
0.329748
  0
VERTEX
  8
PLAN_1
  6
CONTINUOUS
 10
-2.093264
 20
0.326469
  0
VERTEX
  8
PLAN_1
  6
CONTINUOUS
 10
-2.094906
 20
0.323185
  0
VERTEX
  8
PLAN_1
  6
CONTINUOUS
 10
-2.095996
 20
0.319358
  0
VERTEX
  8
PLAN_1
  6
CONTINUOUS
 10
-2.097091
 20
0.314984
  0
VERTEX
  8
PLAN_1
  6
CONTINUOUS
 10
-2.097091
 20
0.310606
  0
VERTEX
  8
PLAN_1
  6
CONTINUOUS
 10
-2.096543
 20
0.306232
  0
VERTEX
  8
PLAN_1
  6
CONTINUOUS
 10
-2.094906
 20
0.301311
  0
VERTEX
  8
PLAN_1
  6
CONTINUOUS
 10
-2.092169
 20
0.296386
  0
VERTEX
  8
PLAN_1
  6
CONTINUOUS
 10
-2.088886
 20
0.290917
  0
VERTEX
  8
PLAN_1
  6
CONTINUOUS
 10
-2.083965
 20
0.285449
  0
SEQEND
  8
0
  0
POLYLINE
  8
PLAN_1
  6
CONTINUOUS
 66
     1
 40
0.007106
 41
0.007106
  0
VERTEX
  8
PLAN_1
  6
CONTINUOUS
 10
-2.083965
 20
0.285449
  0
VERTEX
  8
PLAN_1
  6
CONTINUOUS
 10
-1.756913
 20
0.285449
  0
SEQEND
  8
0
  0
POLYLINE
  8
PLAN_1
  6
CONTINUOUS
 66
     1
 40
0.007106
 41
0.007106
  0
VERTEX
  8
PLAN_1
  6
CONTINUOUS
 10
-1.758004
 20
1.709610
  0
VERTEX
  8
PLAN_1
  6
CONTINUOUS
 10
-1.752535
 20
1.714531
  0
VERTEX
  8
PLAN_1
  6
CONTINUOUS
 10
-1.748161
 20
1.719457
  0
VERTEX
  8
PLAN_1
  6
CONTINUOUS
 10
-1.745425
 20
1.724925
  0
VERTEX
  8
PLAN_1
  6
CONTINUOUS
 10
-1.743787
 20
1.729299
  0
VERTEX
  8
PLAN_1
  6
CONTINUOUS
 10
-1.742693
 20
1.734220
  0
VERTEX
  8
PLAN_1
  6
CONTINUOUS
 10
-1.743240
 20
1.738598
  0
VERTEX
  8
PLAN_1
  6
CONTINUOUS
 10
-1.743787
 20
1.742425
  0
VERTEX
  8
PLAN_1
  6
CONTINUOUS
 10
-1.745425
 20
1.746256
  0
VERTEX
  8
PLAN_1
  6
CONTINUOUS
 10
-1.747067
 20
1.750083
  0
VERTEX
  8
PLAN_1
  6
CONTINUOUS
 10
-1.748709
 20
1.753362
  0
VERTEX
  8
PLAN_1
  6
CONTINUOUS
 10
-1.750894
 20
1.756098
  0
VERTEX
  8
PLAN_1
  6
CONTINUOUS
 10
-1.753083
 20
1.758287
  0
VERTEX
  8
PLAN_1
  6
CONTINUOUS
 10
-1.756366
 20
1.761567
  0
VERTEX
  8
PLAN_1
  6
CONTINUOUS
 10
-1.758004
 20
1.762661
  0
SEQEND
  8
0
  0
POLYLINE
  8
PLAN_1
  6
CONTINUOUS
 66
     1
 40
0.007106
 41
0.007106
  0
VERTEX
  8
PLAN_1
  6
CONTINUOUS
 10
-1.758004
 20
1.762661
  0
VERTEX
  8
PLAN_1
  6
CONTINUOUS
 10
-2.084512
 20
1.762661
  0
SEQEND
  8
0
  0
POLYLINE
  8
PLAN_1
  6
CONTINUOUS
 66
     1
 40
0.007106
 41
0.007106
  0
VERTEX
  8
PLAN_1
  6
CONTINUOUS
 10
-2.084512
 20
1.762661
  0
VERTEX
  8
PLAN_1
  6
CONTINUOUS
 10
-2.086154
 20
1.761567
  0
VERTEX
  8
PLAN_1
  6
CONTINUOUS
 10
-2.088886
 20
1.758287
  0
VERTEX
  8
PLAN_1
  6
CONTINUOUS
 10
-2.090528
 20
1.756098
  0
VERTEX
  8
PLAN_1
  6
CONTINUOUS
 10
-2.092717
 20
1.753909
  0
VERTEX
  8
PLAN_1
  6
CONTINUOUS
 10
-2.094358
 20
1.750630
  0
VERTEX
  8
PLAN_1
  6
CONTINUOUS
 10
-2.095996
 20
1.747346
  0
VERTEX
  8
PLAN_1
  6
CONTINUOUS
 10
-2.097091
 20
1.743520
  0
VERTEX
  8
PLAN_1
  6
CONTINUOUS
 10
-2.097638
 20
1.739146
  0
VERTEX
  8
PLAN_1
  6
CONTINUOUS
 10
-2.097638
 20
1.734768
  0
VERTEX
  8
PLAN_1
  6
CONTINUOUS
 10
-2.097091
 20
1.730394
  0
VERTEX
  8
PLAN_1
  6
CONTINUOUS
 10
-2.095449
 20
1.725472
  0
VERTEX
  8
PLAN_1
  6
CONTINUOUS
 10
-2.093264
 20
1.720551
  0
VERTEX
  8
PLAN_1
  6
CONTINUOUS
 10
-2.089433
 20
1.715079
  0
VERTEX
  8
PLAN_1
  6
CONTINUOUS
 10
-2.084512
 20
1.709610
  0
SEQEND
  8
0
  0
POLYLINE
  8
PLAN_1
  6
CONTINUOUS
 66
     1
 40
0.007106
 41
0.007106
  0
VERTEX
  8
PLAN_1
  6
CONTINUOUS
 10
-2.084512
 20
1.709610
  0
VERTEX
  8
PLAN_1
  6
CONTINUOUS
 10
-1.758004
 20
1.709610
  0
SEQEND
  8
0
  0
POLYLINE
  8
PLAN_1
  6
CONTINUOUS
 66
     1
 40
0.007106
 41
0.007106
  0
VERTEX
  8
PLAN_1
  6
CONTINUOUS
 10
-1.757457
 20
1.657106
  0
VERTEX
  8
PLAN_1
  6
CONTINUOUS
 10
-1.751988
 20
1.662028
  0
VERTEX
  8
PLAN_1
  6
CONTINUOUS
 10
-1.747614
 20
1.666953
  0
VERTEX
  8
PLAN_1
  6
CONTINUOUS
 10
-1.744878
 20
1.671874
  0
VERTEX
  8
PLAN_1
  6
CONTINUOUS
 10
-1.743240
 20
1.676795
  0
VERTEX
  8
PLAN_1
  6
CONTINUOUS
 10
-1.742693
 20
1.681173
  0
VERTEX
  8
PLAN_1
  6
CONTINUOUS
 10
-1.742693
 20
1.685547
  0
VERTEX
  8
PLAN_1
  6
CONTINUOUS
 10
-1.743240
 20
1.689921
  0
VERTEX
  8
PLAN_1
  6
CONTINUOUS
 10
-1.744878
 20
1.693752
  0
VERTEX
  8
PLAN_1
  6
CONTINUOUS
 10
-1.746520
 20
1.697031
  0
VERTEX
  8
PLAN_1
  6
CONTINUOUS
 10
-1.748709
 20
1.700315
  0
VERTEX
  8
PLAN_1
  6
CONTINUOUS
 10
-1.750350
 20
1.703047
  0
VERTEX
  8
PLAN_1
  6
CONTINUOUS
 10
-1.752535
 20
1.705783
  0
VERTEX
  8
PLAN_1
  6
CONTINUOUS
 10
-1.755819
 20
1.709063
  0
VERTEX
  8
PLAN_1
  6
CONTINUOUS
 10
-1.757457
 20
1.710157
  0
SEQEND
  8
0
  0
POLYLINE
  8
PLAN_1
  6
CONTINUOUS
 66
     1
 40
0.007106
 41
0.007106
  0
VERTEX
  8
PLAN_1
  6
CONTINUOUS
 10
-1.757457
 20
1.710157
  0
VERTEX
  8
PLAN_1
  6
CONTINUOUS
 10
-2.083965
 20
1.710157
  0
SEQEND
  8
0
  0
POLYLINE
  8
PLAN_1
  6
CONTINUOUS
 66
     1
 40
0.007106
 41
0.007106
  0
VERTEX
  8
PLAN_1
  6
CONTINUOUS
 10
-2.083965
 20
1.710157
  0
VERTEX
  8
PLAN_1
  6
CONTINUOUS
 10
-2.085606
 20
1.709063
  0
VERTEX
  8
PLAN_1
  6
CONTINUOUS
 10
-2.088343
 20
1.705783
  0
VERTEX
  8
PLAN_1
  6
CONTINUOUS
 10
-2.089980
 20
1.703594
  0
VERTEX
  8
PLAN_1
  6
CONTINUOUS
 10
-2.092169
 20
1.700862
  0
VERTEX
  8
PLAN_1
  6
CONTINUOUS
 10
-2.093811
 20
1.698126
  0
VERTEX
  8
PLAN_1
  6
CONTINUOUS
 10
-2.095449
 20
1.694299
  0
VERTEX
  8
PLAN_1
  6
CONTINUOUS
 10
-2.096543
 20
1.691016
  0
VERTEX
  8
PLAN_1
  6
CONTINUOUS
 10
-2.097091
 20
1.686642
  0
VERTEX
  8
PLAN_1
  6
CONTINUOUS
 10
-2.097091
 20
1.682264
  0
VERTEX
  8
PLAN_1
  6
CONTINUOUS
 10
-2.096543
 20
1.677890
  0
VERTEX
  8
PLAN_1
  6
CONTINUOUS
 10
-2.094906
 20
1.672969
  0
VERTEX
  8
PLAN_1
  6
CONTINUOUS
 10
-2.092717
 20
1.667500
  0
VERTEX
  8
PLAN_1
  6
CONTINUOUS
 10
-2.088886
 20
1.662575
  0
VERTEX
  8
PLAN_1
  6
CONTINUOUS
 10
-2.083965
 20
1.657106
  0
SEQEND
  8
0
  0
POLYLINE
  8
PLAN_1
  6
CONTINUOUS
 66
     1
 40
0.007106
 41
0.007106
  0
VERTEX
  8
PLAN_1
  6
CONTINUOUS
 10
-2.083965
 20
1.657106
  0
VERTEX
  8
PLAN_1
  6
CONTINUOUS
 10
-1.757457
 20
1.657106
  0
SEQEND
  8
0
  0
POLYLINE
  8
PLAN_1
  6
CONTINUOUS
 66
     1
 40
0.007106
 41
0.007106
  0
VERTEX
  8
PLAN_1
  6
CONTINUOUS
 10
-1.757457
 20
1.603508
  0
VERTEX
  8
PLAN_1
  6
CONTINUOUS
 10
-1.751988
 20
1.608433
  0
VERTEX
  8
PLAN_1
  6
CONTINUOUS
 10
-1.748161
 20
1.613354
  0
VERTEX
  8
PLAN_1
  6
CONTINUOUS
 10
-1.744878
 20
1.618823
  0
VERTEX
  8
PLAN_1
  6
CONTINUOUS
 10
-1.743240
 20
1.623197
  0
VERTEX
  8
PLAN_1
  6
CONTINUOUS
 10
-1.742693
 20
1.628122
  0
VERTEX
  8
PLAN_1
  6
CONTINUOUS
 10
-1.742693
 20
1.632496
  0
VERTEX
  8
PLAN_1
  6
CONTINUOUS
 10
-1.743787
 20
1.636323
  0
VERTEX
  8
PLAN_1
  6
CONTINUOUS
 10
-1.744878
 20
1.640154
  0
VERTEX
  8
PLAN_1
  6
CONTINUOUS
 10
-1.746520
 20
1.643980
  0
VERTEX
  8
PLAN_1
  6
CONTINUOUS
 10
-1.748709
 20
1.647264
  0
VERTEX
  8
PLAN_1
  6
CONTINUOUS
 10
-1.750894
 20
1.649996
  0
VERTEX
  8
PLAN_1
  6
CONTINUOUS
 10
-1.753083
 20
1.652185
  0
VERTEX
  8
PLAN_1
  6
CONTINUOUS
 10
-1.756366
 20
1.655469
  0
VERTEX
  8
PLAN_1
  6
CONTINUOUS
 10
-1.757457
 20
1.656559
  0
SEQEND
  8
0
  0
POLYLINE
  8
PLAN_1
  6
CONTINUOUS
 66
     1
 40
0.007106
 41
0.007106
  0
VERTEX
  8
PLAN_1
  6
CONTINUOUS
 10
-1.757457
 20
1.656559
  0
VERTEX
  8
PLAN_1
  6
CONTINUOUS
 10
-2.084512
 20
1.656559
  0
SEQEND
  8
0
  0
POLYLINE
  8
PLAN_1
  6
CONTINUOUS
 66
     1
 40
0.007106
 41
0.007106
  0
VERTEX
  8
PLAN_1
  6
CONTINUOUS
 10
-2.084512
 20
1.656559
  0
VERTEX
  8
PLAN_1
  6
CONTINUOUS
 10
-2.085606
 20
1.655469
  0
VERTEX
  8
PLAN_1
  6
CONTINUOUS
 10
-2.088343
 20
1.652185
  0
VERTEX
  8
PLAN_1
  6
CONTINUOUS
 10
-2.090528
 20
1.649996
  0
VERTEX
  8
PLAN_1
  6
CONTINUOUS
 10
-2.092169
 20
1.647811
  0
VERTEX
  8
PLAN_1
  6
CONTINUOUS
 10
-2.093811
 20
1.644528
  0
VERTEX
  8
PLAN_1
  6
CONTINUOUS
 10
-2.095449
 20
1.641248
  0
VERTEX
  8
PLAN_1
  6
CONTINUOUS
 10
-2.096543
 20
1.637417
  0
VERTEX
  8
PLAN_1
  6
CONTINUOUS
 10
-2.097638
 20
1.633043
  0
VERTEX
  8
PLAN_1
  6
CONTINUOUS
 10
-2.097638
 20
1.628669
  0
VERTEX
  8
PLAN_1
  6
CONTINUOUS
 10
-2.097091
 20
1.624291
  0
VERTEX
  8
PLAN_1
  6
CONTINUOUS
 10
-2.095449
 20
1.619370
  0
VERTEX
  8
PLAN_1
  6
CONTINUOUS
 10
-2.092717
 20
1.614449
  0
VERTEX
  8
PLAN_1
  6
CONTINUOUS
 10
-2.089433
 20
1.608980
  0
VERTEX
  8
PLAN_1
  6
CONTINUOUS
 10
-2.084512
 20
1.603508
  0
SEQEND
  8
0
  0
POLYLINE
  8
PLAN_1
  6
CONTINUOUS
 66
     1
 40
0.007106
 41
0.007106
  0
VERTEX
  8
PLAN_1
  6
CONTINUOUS
 10
-2.084512
 20
1.603508
  0
VERTEX
  8
PLAN_1
  6
CONTINUOUS
 10
-1.757457
 20
1.603508
  0
SEQEND
  8
0
  0
POLYLINE
  8
PLAN_1
  6
CONTINUOUS
 66
     1
 40
0.007106
 41
0.007106
  0
VERTEX
  8
PLAN_1
  6
CONTINUOUS
 10
-1.756913
 20
1.550461
  0
VERTEX
  8
PLAN_1
  6
CONTINUOUS
 10
-1.751441
 20
1.555929
  0
VERTEX
  8
PLAN_1
  6
CONTINUOUS
 10
-1.747614
 20
1.560850
  0
VERTEX
  8
PLAN_1
  6
CONTINUOUS
 10
-1.744331
 20
1.565772
  0
VERTEX
  8
PLAN_1
  6
CONTINUOUS
 10
-1.742693
 20
1.570697
  0
VERTEX
  8
PLAN_1
  6
CONTINUOUS
 10
-1.742146
 20
1.575071
  0
VERTEX
  8
PLAN_1
  6
CONTINUOUS
 10
-1.742146
 20
1.579445
  0
VERTEX
  8
PLAN_1
  6
CONTINUOUS
 10
-1.743240
 20
1.583823
  0
VERTEX
  8
PLAN_1
  6
CONTINUOUS
 10
-1.744331
 20
1.587650
  0
VERTEX
  8
PLAN_1
  6
CONTINUOUS
 10
-1.745972
 20
1.590929
  0
VERTEX
  8
PLAN_1
  6
CONTINUOUS
 10
-1.748161
 20
1.594213
  0
VERTEX
  8
PLAN_1
  6
CONTINUOUS
 10
-1.750350
 20
1.596949
  0
VERTEX
  8
PLAN_1
  6
CONTINUOUS
 10
-1.752535
 20
1.599681
  0
VERTEX
  8
PLAN_1
  6
CONTINUOUS
 10
-1.755819
 20
1.602965
  0
VERTEX
  8
PLAN_1
  6
CONTINUOUS
 10
-1.756913
 20
1.604055
  0
SEQEND
  8
0
  0
POLYLINE
  8
PLAN_1
  6
CONTINUOUS
 66
     1
 40
0.007106
 41
0.007106
  0
VERTEX
  8
PLAN_1
  6
CONTINUOUS
 10
-1.756913
 20
1.604055
  0
VERTEX
  8
PLAN_1
  6
CONTINUOUS
 10
-2.083965
 20
1.604055
  0
SEQEND
  8
0
  0
POLYLINE
  8
PLAN_1
  6
CONTINUOUS
 66
     1
 40
0.007106
 41
0.007106
  0
VERTEX
  8
PLAN_1
  6
CONTINUOUS
 10
-2.083965
 20
1.604055
  0
VERTEX
  8
PLAN_1
  6
CONTINUOUS
 10
-2.085059
 20
1.602965
  0
VERTEX
  8
PLAN_1
  6
CONTINUOUS
 10
-2.088343
 20
1.599681
  0
VERTEX
  8
PLAN_1
  6
CONTINUOUS
 10
-2.089980
 20
1.597492
  0
VERTEX
  8
PLAN_1
  6
CONTINUOUS
 10
-2.091622
 20
1.594760
  0
VERTEX
  8
PLAN_1
  6
CONTINUOUS
 10
-2.093264
 20
1.592024
  0
VERTEX
  8
PLAN_1
  6
CONTINUOUS
 10
-2.094906
 20
1.588197
  0
VERTEX
  8
PLAN_1
  6
CONTINUOUS
 10
-2.095996
 20
1.584366
  0
VERTEX
  8
PLAN_1
  6
CONTINUOUS
 10
-2.097091
 20
1.580539
  0
VERTEX
  8
PLAN_1
  6
CONTINUOUS
 10
-2.097091
 20
1.576165
  0
VERTEX
  8
PLAN_1
  6
CONTINUOUS
 10
-2.096543
 20
1.571240
  0
VERTEX
  8
PLAN_1
  6
CONTINUOUS
 10
-2.094906
 20
1.566866
  0
VERTEX
  8
PLAN_1
  6
CONTINUOUS
 10
-2.092169
 20
1.561398
  0
VERTEX
  8
PLAN_1
  6
CONTINUOUS
 10
-2.088886
 20
1.555929
  0
VERTEX
  8
PLAN_1
  6
CONTINUOUS
 10
-2.083965
 20
1.550461
  0
SEQEND
  8
0
  0
POLYLINE
  8
PLAN_1
  6
CONTINUOUS
 66
     1
 40
0.007106
 41
0.007106
  0
VERTEX
  8
PLAN_1
  6
CONTINUOUS
 10
-2.083965
 20
1.550461
  0
VERTEX
  8
PLAN_1
  6
CONTINUOUS
 10
-1.756913
 20
1.550461
  0
SEQEND
  8
0
  0
POLYLINE
  8
PLAN_1
  6
CONTINUOUS
 66
     1
 40
0.007106
 41
0.007106
  0
VERTEX
  8
PLAN_1
  6
CONTINUOUS
 10
-1.757457
 20
1.497957
  0
VERTEX
  8
PLAN_1
  6
CONTINUOUS
 10
-1.751988
 20
1.503425
  0
VERTEX
  8
PLAN_1
  6
CONTINUOUS
 10
-1.748161
 20
1.508346
  0
VERTEX
  8
PLAN_1
  6
CONTINUOUS
 10
-1.744878
 20
1.513268
  0
VERTEX
  8
PLAN_1
  6
CONTINUOUS
 10
-1.743240
 20
1.518193
  0
VERTEX
  8
PLAN_1
  6
CONTINUOUS
 10
-1.742693
 20
1.522567
  0
VERTEX
  8
PLAN_1
  6
CONTINUOUS
 10
-1.742693
 20
1.526941
  0
VERTEX
  8
PLAN_1
  6
CONTINUOUS
 10
-1.743787
 20
1.531319
  0
VERTEX
  8
PLAN_1
  6
CONTINUOUS
 10
-1.744878
 20
1.535146
  0
VERTEX
  8
PLAN_1
  6
CONTINUOUS
 10
-1.746520
 20
1.538425
  0
VERTEX
  8
PLAN_1
  6
CONTINUOUS
 10
-1.748709
 20
1.541709
  0
VERTEX
  8
PLAN_1
  6
CONTINUOUS
 10
-1.750894
 20
1.544445
  0
VERTEX
  8
PLAN_1
  6
CONTINUOUS
 10
-1.753083
 20
1.546630
  0
VERTEX
  8
PLAN_1
  6
CONTINUOUS
 10
-1.756366
 20
1.549913
  0
VERTEX
  8
PLAN_1
  6
CONTINUOUS
 10
-1.757457
 20
1.551008
  0
SEQEND
  8
0
  0
POLYLINE
  8
PLAN_1
  6
CONTINUOUS
 66
     1
 40
0.007106
 41
0.007106
  0
VERTEX
  8
PLAN_1
  6
CONTINUOUS
 10
-1.757457
 20
1.551008
  0
VERTEX
  8
PLAN_1
  6
CONTINUOUS
 10
-2.084512
 20
1.551008
  0
SEQEND
  8
0
  0
POLYLINE
  8
PLAN_1
  6
CONTINUOUS
 66
     1
 40
0.007106
 41
0.007106
  0
VERTEX
  8
PLAN_1
  6
CONTINUOUS
 10
-2.084512
 20
1.551008
  0
VERTEX
  8
PLAN_1
  6
CONTINUOUS
 10
-2.085606
 20
1.549913
  0
VERTEX
  8
PLAN_1
  6
CONTINUOUS
 10
-2.088343
 20
1.547177
  0
VERTEX
  8
PLAN_1
  6
CONTINUOUS
 10
-2.090528
 20
1.544988
  0
VERTEX
  8
PLAN_1
  6
CONTINUOUS
 10
-2.092169
 20
1.542256
  0
VERTEX
  8
PLAN_1
  6
CONTINUOUS
 10
-2.093811
 20
1.538972
  0
VERTEX
  8
PLAN_1
  6
CONTINUOUS
 10
-2.095449
 20
1.535693
  0
VERTEX
  8
PLAN_1
  6
CONTINUOUS
 10
-2.096543
 20
1.531866
  0
VERTEX
  8
PLAN_1
  6
CONTINUOUS
 10
-2.097638
 20
1.528035
  0
VERTEX
  8
PLAN_1
  6
CONTINUOUS
 10
-2.097638
 20
1.523661
  0
VERTEX
  8
PLAN_1
  6
CONTINUOUS
 10
-2.097091
 20
1.518740
  0
VERTEX
  8
PLAN_1
  6
CONTINUOUS
 10
-2.095449
 20
1.513815
  0
VERTEX
  8
PLAN_1
  6
CONTINUOUS
 10
-2.092717
 20
1.508894
  0
VERTEX
  8
PLAN_1
  6
CONTINUOUS
 10
-2.089433
 20
1.503425
  0
VERTEX
  8
PLAN_1
  6
CONTINUOUS
 10
-2.084512
 20
1.497957
  0
SEQEND
  8
0
  0
POLYLINE
  8
PLAN_1
  6
CONTINUOUS
 66
     1
 40
0.007106
 41
0.007106
  0
VERTEX
  8
PLAN_1
  6
CONTINUOUS
 10
-2.084512
 20
1.497957
  0
VERTEX
  8
PLAN_1
  6
CONTINUOUS
 10
-1.757457
 20
1.497957
  0
SEQEND
  8
0
  0
POLYLINE
  8
PLAN_1
  6
CONTINUOUS
 66
     1
 40
0.007106
 41
0.007106
  0
VERTEX
  8
PLAN_1
  6
CONTINUOUS
 10
-1.756913
 20
1.445453
  0
VERTEX
  8
PLAN_1
  6
CONTINUOUS
 10
-1.751441
 20
1.450374
  0
VERTEX
  8
PLAN_1
  6
CONTINUOUS
 10
-1.747614
 20
1.455843
  0
VERTEX
  8
PLAN_1
  6
CONTINUOUS
 10
-1.744331
 20
1.460764
  0
VERTEX
  8
PLAN_1
  6
CONTINUOUS
 10
-1.742693
 20
1.465142
  0
VERTEX
  8
PLAN_1
  6
CONTINUOUS
 10
-1.742146
 20
1.470063
  0
VERTEX
  8
PLAN_1
  6
CONTINUOUS
 10
-1.742146
 20
1.474437
  0
VERTEX
  8
PLAN_1
  6
CONTINUOUS
 10
-1.743240
 20
1.478268
  0
VERTEX
  8
PLAN_1
  6
CONTINUOUS
 10
-1.744331
 20
1.482094
  0
VERTEX
  8
PLAN_1
  6
CONTINUOUS
 10
-1.745972
 20
1.485925
  0
VERTEX
  8
PLAN_1
  6
CONTINUOUS
 10
-1.748161
 20
1.489205
  0
VERTEX
  8
PLAN_1
  6
CONTINUOUS
 10
-1.750350
 20
1.491941
  0
VERTEX
  8
PLAN_1
  6
CONTINUOUS
 10
-1.752535
 20
1.494126
  0
VERTEX
  8
PLAN_1
  6
CONTINUOUS
 10
-1.755819
 20
1.497409
  0
VERTEX
  8
PLAN_1
  6
CONTINUOUS
 10
-1.756913
 20
1.498504
  0
SEQEND
  8
0
  0
POLYLINE
  8
PLAN_1
  6
CONTINUOUS
 66
     1
 40
0.007106
 41
0.007106
  0
VERTEX
  8
PLAN_1
  6
CONTINUOUS
 10
-1.756913
 20
1.498504
  0
VERTEX
  8
PLAN_1
  6
CONTINUOUS
 10
-2.083965
 20
1.498504
  0
SEQEND
  8
0
  0
POLYLINE
  8
PLAN_1
  6
CONTINUOUS
 66
     1
 40
0.007106
 41
0.007106
  0
VERTEX
  8
PLAN_1
  6
CONTINUOUS
 10
-2.083965
 20
1.498504
  0
VERTEX
  8
PLAN_1
  6
CONTINUOUS
 10
-2.085059
 20
1.497409
  0
VERTEX
  8
PLAN_1
  6
CONTINUOUS
 10
-2.088343
 20
1.494673
  0
VERTEX
  8
PLAN_1
  6
CONTINUOUS
 10
-2.089980
 20
1.491941
  0
VERTEX
  8
PLAN_1
  6
CONTINUOUS
 10
-2.091622
 20
1.489752
  0
VERTEX
  8
PLAN_1
  6
CONTINUOUS
 10
-2.093264
 20
1.486469
  0
VERTEX
  8
PLAN_1
  6
CONTINUOUS
 10
-2.094906
 20
1.483189
  0
VERTEX
  8
PLAN_1
  6
CONTINUOUS
 10
-2.095996
 20
1.479362
  0
VERTEX
  8
PLAN_1
  6
CONTINUOUS
 10
-2.097091
 20
1.474984
  0
VERTEX
  8
PLAN_1
  6
CONTINUOUS
 10
-2.097091
 20
1.470610
  0
VERTEX
  8
PLAN_1
  6
CONTINUOUS
 10
-2.096543
 20
1.466236
  0
VERTEX
  8
PLAN_1
  6
CONTINUOUS
 10
-2.094906
 20
1.461311
  0
VERTEX
  8
PLAN_1
  6
CONTINUOUS
 10
-2.092169
 20
1.456390
  0
VERTEX
  8
PLAN_1
  6
CONTINUOUS
 10
-2.088886
 20
1.450921
  0
VERTEX
  8
PLAN_1
  6
CONTINUOUS
 10
-2.083965
 20
1.445453
  0
SEQEND
  8
0
  0
POLYLINE
  8
PLAN_1
  6
CONTINUOUS
 66
     1
 40
0.007106
 41
0.007106
  0
VERTEX
  8
PLAN_1
  6
CONTINUOUS
 10
-2.083965
 20
1.445453
  0
VERTEX
  8
PLAN_1
  6
CONTINUOUS
 10
-1.756913
 20
1.445453
  0
SEQEND
  8
0
  0
POLYLINE
  8
PLAN_1
  6
CONTINUOUS
 66
     1
 40
0.007106
 41
0.007106
  0
VERTEX
  8
PLAN_1
  6
CONTINUOUS
 10
-1.757457
 20
1.392949
  0
VERTEX
  8
PLAN_1
  6
CONTINUOUS
 10
-1.751988
 20
1.397870
  0
VERTEX
  8
PLAN_1
  6
CONTINUOUS
 10
-1.748161
 20
1.402791
  0
VERTEX
  8
PLAN_1
  6
CONTINUOUS
 10
-1.744878
 20
1.407717
  0
VERTEX
  8
PLAN_1
  6
CONTINUOUS
 10
-1.743240
 20
1.412638
  0
VERTEX
  8
PLAN_1
  6
CONTINUOUS
 10
-1.742693
 20
1.417012
  0
VERTEX
  8
PLAN_1
  6
CONTINUOUS
 10
-1.742693
 20
1.421386
  0
VERTEX
  8
PLAN_1
  6
CONTINUOUS
 10
-1.743787
 20
1.425764
  0
VERTEX
  8
PLAN_1
  6
CONTINUOUS
 10
-1.744878
 20
1.429591
  0
VERTEX
  8
PLAN_1
  6
CONTINUOUS
 10
-1.746520
 20
1.432874
  0
VERTEX
  8
PLAN_1
  6
CONTINUOUS
 10
-1.748709
 20
1.436154
  0
VERTEX
  8
PLAN_1
  6
CONTINUOUS
 10
-1.750894
 20
1.438890
  0
VERTEX
  8
PLAN_1
  6
CONTINUOUS
 10
-1.753083
 20
1.441622
  0
VERTEX
  8
PLAN_1
  6
CONTINUOUS
 10
-1.756366
 20
1.444906
  0
VERTEX
  8
PLAN_1
  6
CONTINUOUS
 10
-1.757457
 20
1.446000
  0
SEQEND
  8
0
  0
POLYLINE
  8
PLAN_1
  6
CONTINUOUS
 66
     1
 40
0.007106
 41
0.007106
  0
VERTEX
  8
PLAN_1
  6
CONTINUOUS
 10
-1.757457
 20
1.446000
  0
VERTEX
  8
PLAN_1
  6
CONTINUOUS
 10
-2.084512
 20
1.446000
  0
SEQEND
  8
0
  0
POLYLINE
  8
PLAN_1
  6
CONTINUOUS
 66
     1
 40
0.007106
 41
0.007106
  0
VERTEX
  8
PLAN_1
  6
CONTINUOUS
 10
-2.084512
 20
1.446000
  0
VERTEX
  8
PLAN_1
  6
CONTINUOUS
 10
-2.085606
 20
1.444906
  0
VERTEX
  8
PLAN_1
  6
CONTINUOUS
 10
-2.088343
 20
1.441622
  0
VERTEX
  8
PLAN_1
  6
CONTINUOUS
 10
-2.090528
 20
1.439437
  0
VERTEX
  8
PLAN_1
  6
CONTINUOUS
 10
-2.092169
 20
1.436701
  0
VERTEX
  8
PLAN_1
  6
CONTINUOUS
 10
-2.093811
 20
1.433969
  0
VERTEX
  8
PLAN_1
  6
CONTINUOUS
 10
-2.095449
 20
1.430138
  0
VERTEX
  8
PLAN_1
  6
CONTINUOUS
 10
-2.096543
 20
1.426311
  0
VERTEX
  8
PLAN_1
  6
CONTINUOUS
 10
-2.097638
 20
1.422480
  0
VERTEX
  8
PLAN_1
  6
CONTINUOUS
 10
-2.097638
 20
1.418106
  0
VERTEX
  8
PLAN_1
  6
CONTINUOUS
 10
-2.097091
 20
1.413185
  0
VERTEX
  8
PLAN_1
  6
CONTINUOUS
 10
-2.095449
 20
1.408807
  0
VERTEX
  8
PLAN_1
  6
CONTINUOUS
 10
-2.092717
 20
1.403339
  0
VERTEX
  8
PLAN_1
  6
CONTINUOUS
 10
-2.089433
 20
1.398417
  0
VERTEX
  8
PLAN_1
  6
CONTINUOUS
 10
-2.084512
 20
1.392949
  0
SEQEND
  8
0
  0
POLYLINE
  8
PLAN_1
  6
CONTINUOUS
 66
     1
 40
0.007106
 41
0.007106
  0
VERTEX
  8
PLAN_1
  6
CONTINUOUS
 10
-2.084512
 20
1.392949
  0
VERTEX
  8
PLAN_1
  6
CONTINUOUS
 10
-1.757457
 20
1.392949
  0
SEQEND
  8
0
  0
POLYLINE
  8
PLAN_1
  6
CONTINUOUS
 66
     1
 40
0.007106
 41
0.007106
  0
VERTEX
  8
PLAN_1
  6
CONTINUOUS
 10
-1.756913
 20
1.339898
  0
VERTEX
  8
PLAN_1
  6
CONTINUOUS
 10
-1.751441
 20
1.345366
  0
VERTEX
  8
PLAN_1
  6
CONTINUOUS
 10
-1.747614
 20
1.350287
  0
VERTEX
  8
PLAN_1
  6
CONTINUOUS
 10
-1.744331
 20
1.355213
  0
VERTEX
  8
PLAN_1
  6
CONTINUOUS
 10
-1.742693
 20
1.360134
  0
VERTEX
  8
PLAN_1
  6
CONTINUOUS
 10
-1.742146
 20
1.364508
  0
VERTEX
  8
PLAN_1
  6
CONTINUOUS
 10
-1.742146
 20
1.368886
  0
VERTEX
  8
PLAN_1
  6
CONTINUOUS
 10
-1.743240
 20
1.373260
  0
VERTEX
  8
PLAN_1
  6
CONTINUOUS
 10
-1.744331
 20
1.377087
  0
VERTEX
  8
PLAN_1
  6
CONTINUOUS
 10
-1.745972
 20
1.380370
  0
VERTEX
  8
PLAN_1
  6
CONTINUOUS
 10
-1.748161
 20
1.383650
  0
VERTEX
  8
PLAN_1
  6
CONTINUOUS
 10
-1.750350
 20
1.386386
  0
VERTEX
  8
PLAN_1
  6
CONTINUOUS
 10
-1.752535
 20
1.388575
  0
VERTEX
  8
PLAN_1
  6
CONTINUOUS
 10
-1.755819
 20
1.391854
  0
VERTEX
  8
PLAN_1
  6
CONTINUOUS
 10
-1.756913
 20
1.392949
  0
SEQEND
  8
0
  0
POLYLINE
  8
PLAN_1
  6
CONTINUOUS
 66
     1
 40
0.007106
 41
0.007106
  0
VERTEX
  8
PLAN_1
  6
CONTINUOUS
 10
-1.756913
 20
1.392949
  0
VERTEX
  8
PLAN_1
  6
CONTINUOUS
 10
-2.083965
 20
1.392949
  0
SEQEND
  8
0
  0
POLYLINE
  8
PLAN_1
  6
CONTINUOUS
 66
     1
 40
0.007106
 41
0.007106
  0
VERTEX
  8
PLAN_1
  6
CONTINUOUS
 10
-2.083965
 20
1.392949
  0
VERTEX
  8
PLAN_1
  6
CONTINUOUS
 10
-2.085059
 20
1.391854
  0
VERTEX
  8
PLAN_1
  6
CONTINUOUS
 10
-2.088343
 20
1.389118
  0
VERTEX
  8
PLAN_1
  6
CONTINUOUS
 10
-2.089980
 20
1.386933
  0
VERTEX
  8
PLAN_1
  6
CONTINUOUS
 10
-2.091622
 20
1.384197
  0
VERTEX
  8
PLAN_1
  6
CONTINUOUS
 10
-2.093264
 20
1.380917
  0
VERTEX
  8
PLAN_1
  6
CONTINUOUS
 10
-2.094906
 20
1.377634
  0
VERTEX
  8
PLAN_1
  6
CONTINUOUS
 10
-2.095996
 20
1.373807
  0
VERTEX
  8
PLAN_1
  6
CONTINUOUS
 10
-2.097091
 20
1.369976
  0
VERTEX
  8
PLAN_1
  6
CONTINUOUS
 10
-2.097091
 20
1.365602
  0
VERTEX
  8
PLAN_1
  6
CONTINUOUS
 10
-2.096543
 20
1.360681
  0
VERTEX
  8
PLAN_1
  6
CONTINUOUS
 10
-2.094906
 20
1.355760
  0
VERTEX
  8
PLAN_1
  6
CONTINUOUS
 10
-2.092169
 20
1.350835
  0
VERTEX
  8
PLAN_1
  6
CONTINUOUS
 10
-2.088886
 20
1.345366
  0
VERTEX
  8
PLAN_1
  6
CONTINUOUS
 10
-2.083965
 20
1.339898
  0
SEQEND
  8
0
  0
POLYLINE
  8
PLAN_1
  6
CONTINUOUS
 66
     1
 40
0.007106
 41
0.007106
  0
VERTEX
  8
PLAN_1
  6
CONTINUOUS
 10
-2.083965
 20
1.339898
  0
VERTEX
  8
PLAN_1
  6
CONTINUOUS
 10
-1.756913
 20
1.339898
  0
SEQEND
  8
0
  0
POLYLINE
  8
PLAN_1
  6
CONTINUOUS
 66
     1
 40
0.007106
 41
0.007106
  0
VERTEX
  8
PLAN_1
  6
CONTINUOUS
 10
-1.757457
 20
1.287394
  0
VERTEX
  8
PLAN_1
  6
CONTINUOUS
 10
-1.751988
 20
1.292315
  0
VERTEX
  8
PLAN_1
  6
CONTINUOUS
 10
-1.748161
 20
1.297783
  0
VERTEX
  8
PLAN_1
  6
CONTINUOUS
 10
-1.744878
 20
1.302709
  0
VERTEX
  8
PLAN_1
  6
CONTINUOUS
 10
-1.743240
 20
1.307083
  0
VERTEX
  8
PLAN_1
  6
CONTINUOUS
 10
-1.742693
 20
1.312004
  0
VERTEX
  8
PLAN_1
  6
CONTINUOUS
 10
-1.742693
 20
1.316382
  0
VERTEX
  8
PLAN_1
  6
CONTINUOUS
 10
-1.743787
 20
1.320209
  0
VERTEX
  8
PLAN_1
  6
CONTINUOUS
 10
-1.744878
 20
1.324035
  0
VERTEX
  8
PLAN_1
  6
CONTINUOUS
 10
-1.746520
 20
1.327866
  0
VERTEX
  8
PLAN_1
  6
CONTINUOUS
 10
-1.748709
 20
1.331146
  0
VERTEX
  8
PLAN_1
  6
CONTINUOUS
 10
-1.750894
 20
1.333882
  0
VERTEX
  8
PLAN_1
  6
CONTINUOUS
 10
-1.753083
 20
1.336071
  0
VERTEX
  8
PLAN_1
  6
CONTINUOUS
 10
-1.756366
 20
1.339350
  0
VERTEX
  8
PLAN_1
  6
CONTINUOUS
 10
-1.757457
 20
1.340445
  0
SEQEND
  8
0
  0
POLYLINE
  8
PLAN_1
  6
CONTINUOUS
 66
     1
 40
0.007106
 41
0.007106
  0
VERTEX
  8
PLAN_1
  6
CONTINUOUS
 10
-1.757457
 20
1.340445
  0
VERTEX
  8
PLAN_1
  6
CONTINUOUS
 10
-2.084512
 20
1.340445
  0
SEQEND
  8
0
  0
POLYLINE
  8
PLAN_1
  6
CONTINUOUS
 66
     1
 40
0.007106
 41
0.007106
  0
VERTEX
  8
PLAN_1
  6
CONTINUOUS
 10
-2.084512
 20
1.340445
  0
VERTEX
  8
PLAN_1
  6
CONTINUOUS
 10
-2.085606
 20
1.339350
  0
VERTEX
  8
PLAN_1
  6
CONTINUOUS
 10
-2.088343
 20
1.336071
  0
VERTEX
  8
PLAN_1
  6
CONTINUOUS
 10
-2.090528
 20
1.333882
  0
VERTEX
  8
PLAN_1
  6
CONTINUOUS
 10
-2.092169
 20
1.331693
  0
VERTEX
  8
PLAN_1
  6
CONTINUOUS
 10
-2.093811
 20
1.328413
  0
VERTEX
  8
PLAN_1
  6
CONTINUOUS
 10
-2.095449
 20
1.325130
  0
VERTEX
  8
PLAN_1
  6
CONTINUOUS
 10
-2.096543
 20
1.321303
  0
VERTEX
  8
PLAN_1
  6
CONTINUOUS
 10
-2.097638
 20
1.316929
  0
VERTEX
  8
PLAN_1
  6
CONTINUOUS
 10
-2.097638
 20
1.312551
  0
VERTEX
  8
PLAN_1
  6
CONTINUOUS
 10
-2.097091
 20
1.308177
  0
VERTEX
  8
PLAN_1
  6
CONTINUOUS
 10
-2.095449
 20
1.303256
  0
VERTEX
  8
PLAN_1
  6
CONTINUOUS
 10
-2.092717
 20
1.298331
  0
VERTEX
  8
PLAN_1
  6
CONTINUOUS
 10
-2.089433
 20
1.292862
  0
VERTEX
  8
PLAN_1
  6
CONTINUOUS
 10
-2.084512
 20
1.287394
  0
SEQEND
  8
0
  0
POLYLINE
  8
PLAN_1
  6
CONTINUOUS
 66
     1
 40
0.007106
 41
0.007106
  0
VERTEX
  8
PLAN_1
  6
CONTINUOUS
 10
-2.084512
 20
1.287394
  0
VERTEX
  8
PLAN_1
  6
CONTINUOUS
 10
-1.757457
 20
1.287394
  0
SEQEND
  8
0
  0
POLYLINE
  8
PLAN_1
  6
CONTINUOUS
 66
     1
 40
0.007106
 41
0.007106
  0
VERTEX
  8
PLAN_1
  6
CONTINUOUS
 10
-1.756913
 20
1.234890
  0
VERTEX
  8
PLAN_1
  6
CONTINUOUS
 10
-1.751441
 20
1.239811
  0
VERTEX
  8
PLAN_1
  6
CONTINUOUS
 10
-1.747614
 20
1.244736
  0
VERTEX
  8
PLAN_1
  6
CONTINUOUS
 10
-1.744331
 20
1.249657
  0
VERTEX
  8
PLAN_1
  6
CONTINUOUS
 10
-1.742693
 20
1.254579
  0
VERTEX
  8
PLAN_1
  6
CONTINUOUS
 10
-1.742146
 20
1.258953
  0
VERTEX
  8
PLAN_1
  6
CONTINUOUS
 10
-1.742146
 20
1.263331
  0
VERTEX
  8
PLAN_1
  6
CONTINUOUS
 10
-1.743240
 20
1.267705
  0
VERTEX
  8
PLAN_1
  6
CONTINUOUS
 10
-1.744331
 20
1.271535
  0
VERTEX
  8
PLAN_1
  6
CONTINUOUS
 10
-1.745972
 20
1.275362
  0
VERTEX
  8
PLAN_1
  6
CONTINUOUS
 10
-1.748161
 20
1.278098
  0
VERTEX
  8
PLAN_1
  6
CONTINUOUS
 10
-1.750350
 20
1.280831
  0
VERTEX
  8
PLAN_1
  6
CONTINUOUS
 10
-1.752535
 20
1.283567
  0
VERTEX
  8
PLAN_1
  6
CONTINUOUS
 10
-1.755819
 20
1.286846
  0
VERTEX
  8
PLAN_1
  6
CONTINUOUS
 10
-1.756913
 20
1.287941
  0
SEQEND
  8
0
  0
POLYLINE
  8
PLAN_1
  6
CONTINUOUS
 66
     1
 40
0.007106
 41
0.007106
  0
VERTEX
  8
PLAN_1
  6
CONTINUOUS
 10
-1.756913
 20
1.287941
  0
VERTEX
  8
PLAN_1
  6
CONTINUOUS
 10
-2.083965
 20
1.287941
  0
SEQEND
  8
0
  0
POLYLINE
  8
PLAN_1
  6
CONTINUOUS
 66
     1
 40
0.007106
 41
0.007106
  0
VERTEX
  8
PLAN_1
  6
CONTINUOUS
 10
-2.083965
 20
1.287941
  0
VERTEX
  8
PLAN_1
  6
CONTINUOUS
 10
-2.085059
 20
1.286846
  0
VERTEX
  8
PLAN_1
  6
CONTINUOUS
 10
-2.088343
 20
1.283567
  0
VERTEX
  8
PLAN_1
  6
CONTINUOUS
 10
-2.089980
 20
1.281378
  0
VERTEX
  8
PLAN_1
  6
CONTINUOUS
 10
-2.091622
 20
1.278642
  0
VERTEX
  8
PLAN_1
  6
CONTINUOUS
 10
-2.093264
 20
1.275909
  0
VERTEX
  8
PLAN_1
  6
CONTINUOUS
 10
-2.094906
 20
1.272079
  0
VERTEX
  8
PLAN_1
  6
CONTINUOUS
 10
-2.095996
 20
1.268799
  0
VERTEX
  8
PLAN_1
  6
CONTINUOUS
 10
-2.097091
 20
1.264425
  0
VERTEX
  8
PLAN_1
  6
CONTINUOUS
 10
-2.097091
 20
1.260047
  0
VERTEX
  8
PLAN_1
  6
CONTINUOUS
 10
-2.096543
 20
1.255673
  0
VERTEX
  8
PLAN_1
  6
CONTINUOUS
 10
-2.094906
 20
1.250752
  0
VERTEX
  8
PLAN_1
  6
CONTINUOUS
 10
-2.092169
 20
1.245283
  0
VERTEX
  8
PLAN_1
  6
CONTINUOUS
 10
-2.088886
 20
1.240358
  0
VERTEX
  8
PLAN_1
  6
CONTINUOUS
 10
-2.083965
 20
1.234890
  0
SEQEND
  8
0
  0
POLYLINE
  8
PLAN_1
  6
CONTINUOUS
 66
     1
 40
0.007106
 41
0.007106
  0
VERTEX
  8
PLAN_1
  6
CONTINUOUS
 10
-2.083965
 20
1.234890
  0
VERTEX
  8
PLAN_1
  6
CONTINUOUS
 10
-1.756913
 20
1.234890
  0
SEQEND
  8
0
  0
POLYLINE
  8
PLAN_1
  6
CONTINUOUS
 66
     1
 40
0.007106
 41
0.007106
  0
VERTEX
  8
PLAN_1
  6
CONTINUOUS
 10
-1.757457
 20
1.181839
  0
VERTEX
  8
PLAN_1
  6
CONTINUOUS
 10
-1.751988
 20
1.187307
  0
VERTEX
  8
PLAN_1
  6
CONTINUOUS
 10
-1.748161
 20
1.192232
  0
VERTEX
  8
PLAN_1
  6
CONTINUOUS
 10
-1.744878
 20
1.197154
  0
VERTEX
  8
PLAN_1
  6
CONTINUOUS
 10
-1.743240
 20
1.202075
  0
VERTEX
  8
PLAN_1
  6
CONTINUOUS
 10
-1.742693
 20
1.206453
  0
VERTEX
  8
PLAN_1
  6
CONTINUOUS
 10
-1.742693
 20
1.210827
  0
VERTEX
  8
PLAN_1
  6
CONTINUOUS
 10
-1.743787
 20
1.215201
  0
VERTEX
  8
PLAN_1
  6
CONTINUOUS
 10
-1.744878
 20
1.219031
  0
VERTEX
  8
PLAN_1
  6
CONTINUOUS
 10
-1.746520
 20
1.222311
  0
VERTEX
  8
PLAN_1
  6
CONTINUOUS
 10
-1.748709
 20
1.225594
  0
VERTEX
  8
PLAN_1
  6
CONTINUOUS
 10
-1.750894
 20
1.228327
  0
VERTEX
  8
PLAN_1
  6
CONTINUOUS
 10
-1.753083
 20
1.230516
  0
VERTEX
  8
PLAN_1
  6
CONTINUOUS
 10
-1.756366
 20
1.233795
  0
VERTEX
  8
PLAN_1
  6
CONTINUOUS
 10
-1.757457
 20
1.234890
  0
SEQEND
  8
0
  0
POLYLINE
  8
PLAN_1
  6
CONTINUOUS
 66
     1
 40
0.007106
 41
0.007106
  0
VERTEX
  8
PLAN_1
  6
CONTINUOUS
 10
-1.757457
 20
1.234890
  0
VERTEX
  8
PLAN_1
  6
CONTINUOUS
 10
-2.084512
 20
1.234890
  0
SEQEND
  8
0
  0
POLYLINE
  8
PLAN_1
  6
CONTINUOUS
 66
     1
 40
0.007106
 41
0.007106
  0
VERTEX
  8
PLAN_1
  6
CONTINUOUS
 10
-2.084512
 20
1.234890
  0
VERTEX
  8
PLAN_1
  6
CONTINUOUS
 10
-2.085606
 20
1.233795
  0
VERTEX
  8
PLAN_1
  6
CONTINUOUS
 10
-2.088343
 20
1.231063
  0
VERTEX
  8
PLAN_1
  6
CONTINUOUS
 10
-2.090528
 20
1.228874
  0
VERTEX
  8
PLAN_1
  6
CONTINUOUS
 10
-2.092169
 20
1.226142
  0
VERTEX
  8
PLAN_1
  6
CONTINUOUS
 10
-2.093811
 20
1.222858
  0
VERTEX
  8
PLAN_1
  6
CONTINUOUS
 10
-2.095449
 20
1.219579
  0
VERTEX
  8
PLAN_1
  6
CONTINUOUS
 10
-2.096543
 20
1.215748
  0
VERTEX
  8
PLAN_1
  6
CONTINUOUS
 10
-2.097638
 20
1.211921
  0
VERTEX
  8
PLAN_1
  6
CONTINUOUS
 10
-2.097638
 20
1.207543
  0
VERTEX
  8
PLAN_1
  6
CONTINUOUS
 10
-2.097091
 20
1.202622
  0
VERTEX
  8
PLAN_1
  6
CONTINUOUS
 10
-2.095449
 20
1.197701
  0
VERTEX
  8
PLAN_1
  6
CONTINUOUS
 10
-2.092717
 20
1.192780
  0
VERTEX
  8
PLAN_1
  6
CONTINUOUS
 10
-2.089433
 20
1.187307
  0
VERTEX
  8
PLAN_1
  6
CONTINUOUS
 10
-2.084512
 20
1.181839
  0
SEQEND
  8
0
  0
POLYLINE
  8
PLAN_1
  6
CONTINUOUS
 66
     1
 40
0.007106
 41
0.007106
  0
VERTEX
  8
PLAN_1
  6
CONTINUOUS
 10
-2.084512
 20
1.181839
  0
VERTEX
  8
PLAN_1
  6
CONTINUOUS
 10
-1.757457
 20
1.181839
  0
SEQEND
  8
0
  0
POLYLINE
  8
PLAN_1
  6
CONTINUOUS
 66
     1
 40
0.007106
 41
0.007106
  0
VERTEX
  8
PLAN_1
  6
CONTINUOUS
 10
-1.756913
 20
1.129335
  0
VERTEX
  8
PLAN_1
  6
CONTINUOUS
 10
-1.751441
 20
1.134260
  0
VERTEX
  8
PLAN_1
  6
CONTINUOUS
 10
-1.747614
 20
1.139728
  0
VERTEX
  8
PLAN_1
  6
CONTINUOUS
 10
-1.744331
 20
1.144650
  0
VERTEX
  8
PLAN_1
  6
CONTINUOUS
 10
-1.742693
 20
1.149024
  0
VERTEX
  8
PLAN_1
  6
CONTINUOUS
 10
-1.742146
 20
1.153949
  0
VERTEX
  8
PLAN_1
  6
CONTINUOUS
 10
-1.742146
 20
1.158323
  0
VERTEX
  8
PLAN_1
  6
CONTINUOUS
 10
-1.743240
 20
1.162150
  0
VERTEX
  8
PLAN_1
  6
CONTINUOUS
 10
-1.744331
 20
1.165980
  0
VERTEX
  8
PLAN_1
  6
CONTINUOUS
 10
-1.745972
 20
1.169807
  0
VERTEX
  8
PLAN_1
  6
CONTINUOUS
 10
-1.748161
 20
1.173091
  0
VERTEX
  8
PLAN_1
  6
CONTINUOUS
 10
-1.750350
 20
1.175823
  0
VERTEX
  8
PLAN_1
  6
CONTINUOUS
 10
-1.752535
 20
1.178012
  0
VERTEX
  8
PLAN_1
  6
CONTINUOUS
 10
-1.755819
 20
1.181291
  0
VERTEX
  8
PLAN_1
  6
CONTINUOUS
 10
-1.756913
 20
1.182386
  0
SEQEND
  8
0
  0
POLYLINE
  8
PLAN_1
  6
CONTINUOUS
 66
     1
 40
0.007106
 41
0.007106
  0
VERTEX
  8
PLAN_1
  6
CONTINUOUS
 10
-1.756913
 20
1.182386
  0
VERTEX
  8
PLAN_1
  6
CONTINUOUS
 10
-2.083965
 20
1.182386
  0
SEQEND
  8
0
  0
POLYLINE
  8
PLAN_1
  6
CONTINUOUS
 66
     1
 40
0.007106
 41
0.007106
  0
VERTEX
  8
PLAN_1
  6
CONTINUOUS
 10
-2.083965
 20
1.182386
  0
VERTEX
  8
PLAN_1
  6
CONTINUOUS
 10
-2.085059
 20
1.181291
  0
VERTEX
  8
PLAN_1
  6
CONTINUOUS
 10
-2.088343
 20
1.178559
  0
VERTEX
  8
PLAN_1
  6
CONTINUOUS
 10
-2.089980
 20
1.175823
  0
VERTEX
  8
PLAN_1
  6
CONTINUOUS
 10
-2.091622
 20
1.173638
  0
VERTEX
  8
PLAN_1
  6
CONTINUOUS
 10
-2.093264
 20
1.170354
  0
VERTEX
  8
PLAN_1
  6
CONTINUOUS
 10
-2.094906
 20
1.167075
  0
VERTEX
  8
PLAN_1
  6
CONTINUOUS
 10
-2.095996
 20
1.163244
  0
VERTEX
  8
PLAN_1
  6
CONTINUOUS
 10
-2.097091
 20
1.158870
  0
VERTEX
  8
PLAN_1
  6
CONTINUOUS
 10
-2.097091
 20
1.154496
  0
VERTEX
  8
PLAN_1
  6
CONTINUOUS
 10
-2.096543
 20
1.150118
  0
VERTEX
  8
PLAN_1
  6
CONTINUOUS
 10
-2.094906
 20
1.145197
  0
VERTEX
  8
PLAN_1
  6
CONTINUOUS
 10
-2.092169
 20
1.140276
  0
VERTEX
  8
PLAN_1
  6
CONTINUOUS
 10
-2.088886
 20
1.134807
  0
VERTEX
  8
PLAN_1
  6
CONTINUOUS
 10
-2.083965
 20
1.129335
  0
SEQEND
  8
0
  0
POLYLINE
  8
PLAN_1
  6
CONTINUOUS
 66
     1
 40
0.007106
 41
0.007106
  0
VERTEX
  8
PLAN_1
  6
CONTINUOUS
 10
-2.083965
 20
1.129335
  0
VERTEX
  8
PLAN_1
  6
CONTINUOUS
 10
-1.756913
 20
1.129335
  0
SEQEND
  8
0
  0
POLYLINE
  8
PLAN_1
  6
CONTINUOUS
 66
     1
 40
0.007106
 41
0.007106
  0
VERTEX
  8
PLAN_1
  6
CONTINUOUS
 10
-1.757457
 20
1.076831
  0
VERTEX
  8
PLAN_1
  6
CONTINUOUS
 10
-1.751988
 20
1.081756
  0
VERTEX
  8
PLAN_1
  6
CONTINUOUS
 10
-1.748161
 20
1.086677
  0
VERTEX
  8
PLAN_1
  6
CONTINUOUS
 10
-1.744878
 20
1.091598
  0
VERTEX
  8
PLAN_1
  6
CONTINUOUS
 10
-1.743240
 20
1.096520
  0
VERTEX
  8
PLAN_1
  6
CONTINUOUS
 10
-1.742693
 20
1.100898
  0
VERTEX
  8
PLAN_1
  6
CONTINUOUS
 10
-1.742693
 20
1.105272
  0
VERTEX
  8
PLAN_1
  6
CONTINUOUS
 10
-1.743787
 20
1.109646
  0
VERTEX
  8
PLAN_1
  6
CONTINUOUS
 10
-1.744878
 20
1.113476
  0
VERTEX
  8
PLAN_1
  6
CONTINUOUS
 10
-1.746520
 20
1.117303
  0
VERTEX
  8
PLAN_1
  6
CONTINUOUS
 10
-1.748709
 20
1.120039
  0
VERTEX
  8
PLAN_1
  6
CONTINUOUS
 10
-1.750894
 20
1.122772
  0
VERTEX
  8
PLAN_1
  6
CONTINUOUS
 10
-1.753083
 20
1.125508
  0
VERTEX
  8
PLAN_1
  6
CONTINUOUS
 10
-1.756366
 20
1.128787
  0
VERTEX
  8
PLAN_1
  6
CONTINUOUS
 10
-1.757457
 20
1.129882
  0
SEQEND
  8
0
  0
POLYLINE
  8
PLAN_1
  6
CONTINUOUS
 66
     1
 40
0.007106
 41
0.007106
  0
VERTEX
  8
PLAN_1
  6
CONTINUOUS
 10
-1.757457
 20
1.129882
  0
VERTEX
  8
PLAN_1
  6
CONTINUOUS
 10
-2.084512
 20
1.129882
  0
SEQEND
  8
0
  0
POLYLINE
  8
PLAN_1
  6
CONTINUOUS
 66
     1
 40
0.007106
 41
0.007106
  0
VERTEX
  8
PLAN_1
  6
CONTINUOUS
 10
-2.084512
 20
1.129882
  0
VERTEX
  8
PLAN_1
  6
CONTINUOUS
 10
-2.085606
 20
1.128787
  0
VERTEX
  8
PLAN_1
  6
CONTINUOUS
 10
-2.088343
 20
1.125508
  0
VERTEX
  8
PLAN_1
  6
CONTINUOUS
 10
-2.090528
 20
1.123319
  0
VERTEX
  8
PLAN_1
  6
CONTINUOUS
 10
-2.092169
 20
1.120587
  0
VERTEX
  8
PLAN_1
  6
CONTINUOUS
 10
-2.093811
 20
1.117850
  0
VERTEX
  8
PLAN_1
  6
CONTINUOUS
 10
-2.095449
 20
1.114024
  0
VERTEX
  8
PLAN_1
  6
CONTINUOUS
 10
-2.096543
 20
1.110740
  0
VERTEX
  8
PLAN_1
  6
CONTINUOUS
 10
-2.097638
 20
1.106366
  0
VERTEX
  8
PLAN_1
  6
CONTINUOUS
 10
-2.097638
 20
1.101992
  0
VERTEX
  8
PLAN_1
  6
CONTINUOUS
 10
-2.097091
 20
1.097614
  0
VERTEX
  8
PLAN_1
  6
CONTINUOUS
 10
-2.095449
 20
1.092693
  0
VERTEX
  8
PLAN_1
  6
CONTINUOUS
 10
-2.092717
 20
1.087224
  0
VERTEX
  8
PLAN_1
  6
CONTINUOUS
 10
-2.089433
 20
1.082303
  0
VERTEX
  8
PLAN_1
  6
CONTINUOUS
 10
-2.084512
 20
1.076831
  0
SEQEND
  8
0
  0
POLYLINE
  8
PLAN_1
  6
CONTINUOUS
 66
     1
 40
0.007106
 41
0.007106
  0
VERTEX
  8
PLAN_1
  6
CONTINUOUS
 10
-2.084512
 20
1.076831
  0
VERTEX
  8
PLAN_1
  6
CONTINUOUS
 10
-1.757457
 20
1.076831
  0
SEQEND
  8
0
  0
POLYLINE
  8
PLAN_1
  6
CONTINUOUS
 66
     1
 40
0.007106
 41
0.007106
  0
VERTEX
  8
PLAN_1
  6
CONTINUOUS
 10
-1.756913
 20
1.023783
  0
VERTEX
  8
PLAN_1
  6
CONTINUOUS
 10
-1.751441
 20
1.029252
  0
VERTEX
  8
PLAN_1
  6
CONTINUOUS
 10
-1.747614
 20
1.034173
  0
VERTEX
  8
PLAN_1
  6
CONTINUOUS
 10
-1.744331
 20
1.039094
  0
VERTEX
  8
PLAN_1
  6
CONTINUOUS
 10
-1.742693
 20
1.044016
  0
VERTEX
  8
PLAN_1
  6
CONTINUOUS
 10
-1.742146
 20
1.048394
  0
VERTEX
  8
PLAN_1
  6
CONTINUOUS
 10
-1.742146
 20
1.052768
  0
VERTEX
  8
PLAN_1
  6
CONTINUOUS
 10
-1.743240
 20
1.057142
  0
VERTEX
  8
PLAN_1
  6
CONTINUOUS
 10
-1.744331
 20
1.060972
  0
VERTEX
  8
PLAN_1
  6
CONTINUOUS
 10
-1.745972
 20
1.064252
  0
VERTEX
  8
PLAN_1
  6
CONTINUOUS
 10
-1.748161
 20
1.067535
  0
VERTEX
  8
PLAN_1
  6
CONTINUOUS
 10
-1.750350
 20
1.070268
  0
VERTEX
  8
PLAN_1
  6
CONTINUOUS
 10
-1.752535
 20
1.072457
  0
VERTEX
  8
PLAN_1
  6
CONTINUOUS
 10
-1.755819
 20
1.075740
  0
VERTEX
  8
PLAN_1
  6
CONTINUOUS
 10
-1.756913
 20
1.076831
  0
SEQEND
  8
0
  0
POLYLINE
  8
PLAN_1
  6
CONTINUOUS
 66
     1
 40
0.007106
 41
0.007106
  0
VERTEX
  8
PLAN_1
  6
CONTINUOUS
 10
-1.756913
 20
1.076831
  0
VERTEX
  8
PLAN_1
  6
CONTINUOUS
 10
-2.083965
 20
1.076831
  0
SEQEND
  8
0
  0
POLYLINE
  8
PLAN_1
  6
CONTINUOUS
 66
     1
 40
0.007106
 41
0.007106
  0
VERTEX
  8
PLAN_1
  6
CONTINUOUS
 10
-2.083965
 20
1.076831
  0
VERTEX
  8
PLAN_1
  6
CONTINUOUS
 10
-2.085059
 20
1.075740
  0
VERTEX
  8
PLAN_1
  6
CONTINUOUS
 10
-2.088343
 20
1.073004
  0
VERTEX
  8
PLAN_1
  6
CONTINUOUS
 10
-2.089980
 20
1.070815
  0
VERTEX
  8
PLAN_1
  6
CONTINUOUS
 10
-2.091622
 20
1.068083
  0
VERTEX
  8
PLAN_1
  6
CONTINUOUS
 10
-2.093264
 20
1.064799
  0
VERTEX
  8
PLAN_1
  6
CONTINUOUS
 10
-2.094906
 20
1.061520
  0
VERTEX
  8
PLAN_1
  6
CONTINUOUS
 10
-2.095996
 20
1.057689
  0
VERTEX
  8
PLAN_1
  6
CONTINUOUS
 10
-2.097091
 20
1.053862
  0
VERTEX
  8
PLAN_1
  6
CONTINUOUS
 10
-2.097091
 20
1.049488
  0
VERTEX
  8
PLAN_1
  6
CONTINUOUS
 10
-2.096543
 20
1.044563
  0
VERTEX
  8
PLAN_1
  6
CONTINUOUS
 10
-2.094906
 20
1.039642
  0
VERTEX
  8
PLAN_1
  6
CONTINUOUS
 10
-2.092169
 20
1.034720
  0
VERTEX
  8
PLAN_1
  6
CONTINUOUS
 10
-2.088886
 20
1.029252
  0
VERTEX
  8
PLAN_1
  6
CONTINUOUS
 10
-2.083965
 20
1.023783
  0
SEQEND
  8
0
  0
POLYLINE
  8
PLAN_1
  6
CONTINUOUS
 66
     1
 40
0.007106
 41
0.007106
  0
VERTEX
  8
PLAN_1
  6
CONTINUOUS
 10
-2.083965
 20
1.023783
  0
VERTEX
  8
PLAN_1
  6
CONTINUOUS
 10
-1.756913
 20
1.023783
  0
SEQEND
  8
0
  0
POLYLINE
  8
PLAN_1
  6
CONTINUOUS
 66
     1
 40
0.008201
 41
0.008201
  0
VERTEX
  8
PLAN_1
  6
CONTINUOUS
 10
-1.983882
 20
3.064862
  0
VERTEX
  8
PLAN_1
  6
CONTINUOUS
 10
-1.983882
 20
2.187067
  0
VERTEX
  8
PLAN_1
  6
CONTINUOUS
 10
-1.849886
 20
2.187067
  0
VERTEX
  8
PLAN_1
  6
CONTINUOUS
 10
-1.849886
 20
3.142524
  0
SEQEND
  8
0
  0
POLYLINE
  8
PLAN_1
  6
CONTINUOUS
 66
     1
 40
0.008201
 41
0.008201
  0
VERTEX
  8
PLAN_1
  6
CONTINUOUS
 10
-1.849886
 20
3.294020
  0
VERTEX
  8
PLAN_1
  6
CONTINUOUS
 10
-1.849886
 20
4.123685
  0
VERTEX
  8
PLAN_1
  6
CONTINUOUS
 10
-1.983882
 20
4.123685
  0
VERTEX
  8
PLAN_1
  6
CONTINUOUS
 10
-1.983882
 20
3.213075
  0
SEQEND
  8
0
  0
POLYLINE
  8
PLAN_1
  6
CONTINUOUS
 66
     1
 40
0.008201
 41
0.008201
  0
VERTEX
  8
PLAN_1
  6
CONTINUOUS
 10
-2.094358
 20
2.141673
  0
VERTEX
  8
PLAN_1
  6
CONTINUOUS
 10
-2.048965
 20
2.187067
  0
VERTEX
  8
PLAN_1
  6
CONTINUOUS
 10
-1.794650
 20
2.187067
  0
VERTEX
  8
PLAN_1
  6
CONTINUOUS
 10
-1.749803
 20
2.141673
  0
VERTEX
  8
PLAN_1
  6
CONTINUOUS
 10
-1.749803
 20
1.763756
  0
VERTEX
  8
PLAN_1
  6
CONTINUOUS
 10
-2.095996
 20
1.763756
  0
VERTEX
  8
PLAN_1
  6
CONTINUOUS
 10
-2.095996
 20
2.141673
  0
VERTEX
  8
PLAN_1
  6
CONTINUOUS
 10
-2.094358
 20
2.141673
  0
SEQEND
  8
0
  0
POLYLINE
  8
PLAN_1
  6
CONTINUOUS
 66
     1
 40
0.004374
 41
0.004374
  0
VERTEX
  8
PLAN_1
  6
CONTINUOUS
 10
-2.020524
 20
-0.171224
  0
VERTEX
  8
PLAN_1
  6
CONTINUOUS
 10
-2.020524
 20
-0.454524
  0
SEQEND
  8
0
  0
POLYLINE
  8
PLAN_1
  6
CONTINUOUS
 66
     1
 40
0.004374
 41
0.004374
  0
VERTEX
  8
PLAN_1
  6
CONTINUOUS
 10
-2.030913
 20
-0.444134
  0
VERTEX
  8
PLAN_1
  6
CONTINUOUS
 10
-1.899110
 20
-0.444134
  0
SEQEND
  8
0
  0
POLYLINE
  8
PLAN_1
  6
CONTINUOUS
 66
     1
 40
0.004374
 41
0.004374
  0
VERTEX
  8
PLAN_1
  6
CONTINUOUS
 10
-2.031461
 20
-0.182709
  0
VERTEX
  8
PLAN_1
  6
CONTINUOUS
 10
-1.899110
 20
-0.182709
  0
SEQEND
  8
0
  0
POLYLINE
  8
PLAN_1
  6
CONTINUOUS
 66
     1
 40
0.004374
 41
0.004374
  0
VERTEX
  8
PLAN_1
  6
CONTINUOUS
 10
-1.878327
 20
-0.189272
  0
VERTEX
  8
PLAN_1
  6
CONTINUOUS
 10
-1.783709
 20
-0.189272
  0
SEQEND
  8
0
  0
POLYLINE
  8
PLAN_1
  6
CONTINUOUS
 66
     1
 40
0.004374
 41
0.004374
  0
VERTEX
  8
PLAN_1
  6
CONTINUOUS
 10
-1.878327
 20
-0.433740
  0
VERTEX
  8
PLAN_1
  6
CONTINUOUS
 10
-1.783709
 20
-0.433740
  0
SEQEND
  8
0
  0
POLYLINE
  8
PLAN_1
  6
CONTINUOUS
 66
     1
 40
0.007106
 41
0.007106
  0
VERTEX
  8
PLAN_1
  6
CONTINUOUS
 10
0.071417
 20
0.098406
  0
VERTEX
  8
PLAN_1
  6
CONTINUOUS
 10
-0.261650
 20
0.098406
  0
VERTEX
  8
PLAN_1
  6
CONTINUOUS
 10
-0.261650
 20
0.232945
  0
SEQEND
  8
0
  0
POLYLINE
  8
PLAN_1
  6
CONTINUOUS
 66
     1
 40
0.007106
 41
0.007106
  0
VERTEX
  8
PLAN_1
  6
CONTINUOUS
 10
-0.797626
 20
0.232945
  0
VERTEX
  8
PLAN_1
  6
CONTINUOUS
 10
-0.797626
 20
0.098406
  0
VERTEX
  8
PLAN_1
  6
CONTINUOUS
 10
-1.134524
 20
0.098406
  0
SEQEND
  8
0
  0
POLYLINE
  8
PLAN_1
  6
CONTINUOUS
 66
     1
 40
0.007106
 41
0.007106
  0
VERTEX
  8
PLAN_1
  6
CONTINUOUS
 10
-2.095996
 20
2.141673
  0
VERTEX
  8
PLAN_1
  6
CONTINUOUS
 10
-1.749803
 20
2.141673
  0
SEQEND
  8
0
  0
POLYLINE
  8
PLAN_1
  6
CONTINUOUS
 66
     1
 40
0.007106
 41
0.007106
  0
VERTEX
  8
PLAN_1
  6
CONTINUOUS
 10
-0.548232
 20
-1.690547
  0
VERTEX
  8
PLAN_1
  6
CONTINUOUS
 10
-0.272043
 20
-1.641874
  0
VERTEX
  8
PLAN_1
  6
CONTINUOUS
 10
-0.258370
 20
-1.639685
  0
SEQEND
  8
0
  0
POLYLINE
  8
PLAN_1
  6
CONTINUOUS
 66
     1
 40
0.007106
 41
0.007106
  0
VERTEX
  8
PLAN_1
  6
CONTINUOUS
 10
-0.258370
 20
-1.639685
  0
VERTEX
  8
PLAN_1
  6
CONTINUOUS
 10
-0.253996
 20
-1.638591
  0
VERTEX
  8
PLAN_1
  6
CONTINUOUS
 10
-0.249618
 20
-1.636402
  0
VERTEX
  8
PLAN_1
  6
CONTINUOUS
 10
-0.246339
 20
-1.633669
  0
VERTEX
  8
PLAN_1
  6
CONTINUOUS
 10
-0.243602
 20
-1.630386
  0
VERTEX
  8
PLAN_1
  6
CONTINUOUS
 10
-0.241413
 20
-1.626559
  0
VERTEX
  8
PLAN_1
  6
CONTINUOUS
 10
-0.240323
 20
-1.622732
  0
VERTEX
  8
PLAN_1
  6
CONTINUOUS
 10
-0.239776
 20
-1.618354
  0
VERTEX
  8
PLAN_1
  6
CONTINUOUS
 10
-0.239776
 20
-1.613433
  0
VERTEX
  8
PLAN_1
  6
CONTINUOUS
 10
-0.241413
 20
-1.609606
  0
VERTEX
  8
PLAN_1
  6
CONTINUOUS
 10
-0.243055
 20
-1.605228
  0
VERTEX
  8
PLAN_1
  6
CONTINUOUS
 10
-0.245791
 20
-1.601949
  0
VERTEX
  8
PLAN_1
  6
CONTINUOUS
 10
-0.249071
 20
-1.599213
  0
VERTEX
  8
PLAN_1
  6
CONTINUOUS
 10
-0.252902
 20
-1.597028
  0
VERTEX
  8
PLAN_1
  6
CONTINUOUS
 10
-0.256728
 20
-1.595933
  0
VERTEX
  8
PLAN_1
  6
CONTINUOUS
 10
-0.261102
 20
-1.595386
  0
VERTEX
  8
PLAN_1
  6
CONTINUOUS
 10
-0.266028
 20
-1.595386
  0
SEQEND
  8
0
  0
POLYLINE
  8
PLAN_1
  6
CONTINUOUS
 66
     1
 40
0.007106
 41
0.007106
  0
VERTEX
  8
PLAN_1
  6
CONTINUOUS
 10
-0.266028
 20
-1.595386
  0
VERTEX
  8
PLAN_1
  6
CONTINUOUS
 10
-0.279701
 20
-1.598118
  0
VERTEX
  8
PLAN_1
  6
CONTINUOUS
 10
-0.804736
 20
-1.691094
  0
VERTEX
  8
PLAN_1
  6
CONTINUOUS
 10
-0.814031
 20
-1.692189
  0
SEQEND
  8
0
  0
POLYLINE
  8
PLAN_1
  6
CONTINUOUS
 66
     1
 40
0.007106
 41
0.007106
  0
VERTEX
  8
PLAN_1
  6
CONTINUOUS
 10
-0.814031
 20
-1.692189
  0
VERTEX
  8
PLAN_1
  6
CONTINUOUS
 10
-0.817862
 20
-1.693831
  0
VERTEX
  8
PLAN_1
  6
CONTINUOUS
 10
-0.822236
 20
-1.695469
  0
VERTEX
  8
PLAN_1
  6
CONTINUOUS
 10
-0.825520
 20
-1.698205
  0
VERTEX
  8
PLAN_1
  6
CONTINUOUS
 10
-0.828252
 20
-1.701484
  0
VERTEX
  8
PLAN_1
  6
CONTINUOUS
 10
-0.830441
 20
-1.705315
  0
VERTEX
  8
PLAN_1
  6
CONTINUOUS
 10
-0.831535
 20
-1.709142
  0
VERTEX
  8
PLAN_1
  6
CONTINUOUS
 10
-0.832083
 20
-1.713520
  0
VERTEX
  8
PLAN_1
  6
CONTINUOUS
 10
-0.832083
 20
-1.718441
  0
VERTEX
  8
PLAN_1
  6
CONTINUOUS
 10
-0.830441
 20
-1.722815
  0
VERTEX
  8
PLAN_1
  6
CONTINUOUS
 10
-0.828799
 20
-1.726646
  0
VERTEX
  8
PLAN_1
  6
CONTINUOUS
 10
-0.826067
 20
-1.729925
  0
VERTEX
  8
PLAN_1
  6
CONTINUOUS
 10
-0.822783
 20
-1.732661
  0
VERTEX
  8
PLAN_1
  6
CONTINUOUS
 10
-0.818957
 20
-1.734846
  0
VERTEX
  8
PLAN_1
  6
CONTINUOUS
 10
-0.815126
 20
-1.735941
  0
VERTEX
  8
PLAN_1
  6
CONTINUOUS
 10
-0.810752
 20
-1.736488
  0
VERTEX
  8
PLAN_1
  6
CONTINUOUS
 10
-0.805831
 20
-1.736488
  0
SEQEND
  8
0
  0
POLYLINE
  8
PLAN_1
  6
CONTINUOUS
 66
     1
 40
0.007106
 41
0.007106
  0
VERTEX
  8
PLAN_1
  6
CONTINUOUS
 10
-0.390177
 20
-1.423106
  0
VERTEX
  8
PLAN_1
  6
CONTINUOUS
 10
-0.804736
 20
-1.349823
  0
VERTEX
  8
PLAN_1
  6
CONTINUOUS
 10
-0.813488
 20
-1.348181
  0
SEQEND
  8
0
  0
POLYLINE
  8
PLAN_1
  6
CONTINUOUS
 66
     1
 40
0.007106
 41
0.007106
  0
VERTEX
  8
PLAN_1
  6
CONTINUOUS
 10
-0.813488
 20
-1.348181
  0
VERTEX
  8
PLAN_1
  6
CONTINUOUS
 10
-0.817862
 20
-1.346539
  0
VERTEX
  8
PLAN_1
  6
CONTINUOUS
 10
-0.821689
 20
-1.344898
  0
VERTEX
  8
PLAN_1
  6
CONTINUOUS
 10
-0.824972
 20
-1.342165
  0
VERTEX
  8
PLAN_1
  6
CONTINUOUS
 10
-0.828252
 20
-1.338882
  0
VERTEX
  8
PLAN_1
  6
CONTINUOUS
 10
-0.829894
 20
-1.335055
  0
VERTEX
  8
PLAN_1
  6
CONTINUOUS
 10
-0.831535
 20
-1.331224
  0
VERTEX
  8
PLAN_1
  6
CONTINUOUS
 10
-0.832083
 20
-1.326850
  0
VERTEX
  8
PLAN_1
  6
CONTINUOUS
 10
-0.831535
 20
-1.321929
  0
VERTEX
  8
PLAN_1
  6
CONTINUOUS
 10
-0.830441
 20
-1.317551
  0
VERTEX
  8
PLAN_1
  6
CONTINUOUS
 10
-0.828252
 20
-1.313724
  0
VERTEX
  8
PLAN_1
  6
CONTINUOUS
 10
-0.825520
 20
-1.310445
  0
VERTEX
  8
PLAN_1
  6
CONTINUOUS
 10
-0.822236
 20
-1.307709
  0
VERTEX
  8
PLAN_1
  6
CONTINUOUS
 10
-0.818957
 20
-1.305520
  0
VERTEX
  8
PLAN_1
  6
CONTINUOUS
 10
-0.814579
 20
-1.304425
  0
VERTEX
  8
PLAN_1
  6
CONTINUOUS
 10
-0.810205
 20
-1.303882
  0
VERTEX
  8
PLAN_1
  6
CONTINUOUS
 10
-0.805831
 20
-1.303882
  0
SEQEND
  8
0
  0
POLYLINE
  8
PLAN_1
  6
CONTINUOUS
 66
     1
 40
0.007106
 41
0.007106
  0
VERTEX
  8
PLAN_1
  6
CONTINUOUS
 10
-0.679492
 20
-1.326303
  0
VERTEX
  8
PLAN_1
  6
CONTINUOUS
 10
-0.271496
 20
-1.398496
  0
VERTEX
  8
PLAN_1
  6
CONTINUOUS
 10
-0.257823
 20
-1.400685
  0
SEQEND
  8
0
  0
POLYLINE
  8
PLAN_1
  6
CONTINUOUS
 66
     1
 40
0.007106
 41
0.007106
  0
VERTEX
  8
PLAN_1
  6
CONTINUOUS
 10
-0.257823
 20
-1.400685
  0
VERTEX
  8
PLAN_1
  6
CONTINUOUS
 10
-0.253449
 20
-1.402323
  0
VERTEX
  8
PLAN_1
  6
CONTINUOUS
 10
-0.249618
 20
-1.403965
  0
VERTEX
  8
PLAN_1
  6
CONTINUOUS
 10
-0.246339
 20
-1.406701
  0
VERTEX
  8
PLAN_1
  6
CONTINUOUS
 10
-0.243602
 20
-1.409980
  0
VERTEX
  8
PLAN_1
  6
CONTINUOUS
 10
-0.241413
 20
-1.413811
  0
VERTEX
  8
PLAN_1
  6
CONTINUOUS
 10
-0.239776
 20
-1.417638
  0
VERTEX
  8
PLAN_1
  6
CONTINUOUS
 10
-0.239228
 20
-1.422012
  0
VERTEX
  8
PLAN_1
  6
CONTINUOUS
 10
-0.239776
 20
-1.426937
  0
VERTEX
  8
PLAN_1
  6
CONTINUOUS
 10
-0.240870
 20
-1.431311
  0
VERTEX
  8
PLAN_1
  6
CONTINUOUS
 10
-0.243055
 20
-1.435138
  0
VERTEX
  8
PLAN_1
  6
CONTINUOUS
 10
-0.245791
 20
-1.438421
  0
VERTEX
  8
PLAN_1
  6
CONTINUOUS
 10
-0.249071
 20
-1.441154
  0
VERTEX
  8
PLAN_1
  6
CONTINUOUS
 10
-0.252902
 20
-1.443343
  0
VERTEX
  8
PLAN_1
  6
CONTINUOUS
 10
-0.256728
 20
-1.444437
  0
VERTEX
  8
PLAN_1
  6
CONTINUOUS
 10
-0.261102
 20
-1.444984
  0
VERTEX
  8
PLAN_1
  6
CONTINUOUS
 10
-0.265480
 20
-1.444984
  0
SEQEND
  8
0
  0
POLYLINE
  8
PLAN_1
  6
CONTINUOUS
 66
     1
 40
0.007106
 41
0.007106
  0
VERTEX
  8
PLAN_1
  6
CONTINUOUS
 10
-0.394551
 20
-1.616713
  0
VERTEX
  8
PLAN_1
  6
CONTINUOUS
 10
-0.804736
 20
-1.543976
  0
VERTEX
  8
PLAN_1
  6
CONTINUOUS
 10
-0.813488
 20
-1.542882
  0
SEQEND
  8
0
  0
POLYLINE
  8
PLAN_1
  6
CONTINUOUS
 66
     1
 40
0.007106
 41
0.007106
  0
VERTEX
  8
PLAN_1
  6
CONTINUOUS
 10
-0.813488
 20
-1.542882
  0
VERTEX
  8
PLAN_1
  6
CONTINUOUS
 10
-0.817862
 20
-1.541240
  0
VERTEX
  8
PLAN_1
  6
CONTINUOUS
 10
-0.821689
 20
-1.539598
  0
VERTEX
  8
PLAN_1
  6
CONTINUOUS
 10
-0.825520
 20
-1.536866
  0
VERTEX
  8
PLAN_1
  6
CONTINUOUS
 10
-0.828252
 20
-1.533583
  0
VERTEX
  8
PLAN_1
  6
CONTINUOUS
 10
-0.829894
 20
-1.529756
  0
VERTEX
  8
PLAN_1
  6
CONTINUOUS
 10
-0.831535
 20
-1.525925
  0
VERTEX
  8
PLAN_1
  6
CONTINUOUS
 10
-0.832083
 20
-1.521551
  0
VERTEX
  8
PLAN_1
  6
CONTINUOUS
 10
-0.831535
 20
-1.516630
  0
VERTEX
  8
PLAN_1
  6
CONTINUOUS
 10
-0.830441
 20
-1.512256
  0
VERTEX
  8
PLAN_1
  6
CONTINUOUS
 10
-0.828252
 20
-1.508425
  0
VERTEX
  8
PLAN_1
  6
CONTINUOUS
 10
-0.826067
 20
-1.505146
  0
VERTEX
  8
PLAN_1
  6
CONTINUOUS
 10
-0.822783
 20
-1.502409
  0
VERTEX
  8
PLAN_1
  6
CONTINUOUS
 10
-0.818957
 20
-1.500220
  0
VERTEX
  8
PLAN_1
  6
CONTINUOUS
 10
-0.814579
 20
-1.499130
  0
VERTEX
  8
PLAN_1
  6
CONTINUOUS
 10
-0.810205
 20
-1.498583
  0
VERTEX
  8
PLAN_1
  6
CONTINUOUS
 10
-0.805831
 20
-1.498583
  0
SEQEND
  8
0
  0
POLYLINE
  8
PLAN_1
  6
CONTINUOUS
 66
     1
 40
0.007106
 41
0.007106
  0
VERTEX
  8
PLAN_1
  6
CONTINUOUS
 10
-0.686055
 20
-1.519909
  0
VERTEX
  8
PLAN_1
  6
CONTINUOUS
 10
-0.271496
 20
-1.593197
  0
VERTEX
  8
PLAN_1
  6
CONTINUOUS
 10
-0.257823
 20
-1.595386
  0
SEQEND
  8
0
  0
POLYLINE
  8
PLAN_1
  6
CONTINUOUS
 66
     1
 40
0.007106
 41
0.007106
  0
VERTEX
  8
PLAN_1
  6
CONTINUOUS
 10
-0.257823
 20
-1.595386
  0
VERTEX
  8
PLAN_1
  6
CONTINUOUS
 10
-0.253449
 20
-1.596480
  0
VERTEX
  8
PLAN_1
  6
CONTINUOUS
 10
-0.249618
 20
-1.598665
  0
VERTEX
  8
PLAN_1
  6
CONTINUOUS
 10
-0.246339
 20
-1.601402
  0
VERTEX
  8
PLAN_1
  6
CONTINUOUS
 10
-0.243602
 20
-1.604681
  0
VERTEX
  8
PLAN_1
  6
CONTINUOUS
 10
-0.241413
 20
-1.608512
  0
VERTEX
  8
PLAN_1
  6
CONTINUOUS
 10
-0.240323
 20
-1.612339
  0
VERTEX
  8
PLAN_1
  6
CONTINUOUS
 10
-0.239776
 20
-1.616713
  0
VERTEX
  8
PLAN_1
  6
CONTINUOUS
 10
-0.239776
 20
-1.621638
  0
VERTEX
  8
PLAN_1
  6
CONTINUOUS
 10
-0.240870
 20
-1.625465
  0
VERTEX
  8
PLAN_1
  6
CONTINUOUS
 10
-0.243055
 20
-1.629839
  0
VERTEX
  8
PLAN_1
  6
CONTINUOUS
 10
-0.245791
 20
-1.633122
  0
VERTEX
  8
PLAN_1
  6
CONTINUOUS
 10
-0.249071
 20
-1.635858
  0
VERTEX
  8
PLAN_1
  6
CONTINUOUS
 10
-0.252902
 20
-1.638043
  0
VERTEX
  8
PLAN_1
  6
CONTINUOUS
 10
-0.256728
 20
-1.639138
  0
VERTEX
  8
PLAN_1
  6
CONTINUOUS
 10
-0.261102
 20
-1.639685
  0
VERTEX
  8
PLAN_1
  6
CONTINUOUS
 10
-0.265480
 20
-1.639685
  0
SEQEND
  8
0
  0
POLYLINE
  8
PLAN_1
  6
CONTINUOUS
 66
     1
 40
0.004374
 41
0.004374
  0
VERTEX
  8
PLAN_1
  6
CONTINUOUS
 10
-2.083965
 20
3.161665
  0
VERTEX
  8
PLAN_1
  6
CONTINUOUS
 10
-1.665031
 20
3.404496
  0
SEQEND
  8
0
  0
POLYLINE
  8
PLAN_1
  6
CONTINUOUS
 66
     1
 40
0.004374
 41
0.004374
  0
VERTEX
  8
PLAN_1
  6
CONTINUOUS
 10
-2.082870
 20
3.011264
  0
VERTEX
  8
PLAN_1
  6
CONTINUOUS
 10
-1.660654
 20
3.254094
  0
SEQEND
  8
0
  0
POLYLINE
  8
PLAN_1
 62
     2
  6
CONTINUOUS
 66
     1
 40
0.004374
 41
0.004374
  0
VERTEX
  8
PLAN_1
 62
     2
  6
CONTINUOUS
 10
-2.099280
 20
-1.894547
  0
VERTEX
  8
PLAN_1
 62
     2
  6
CONTINUOUS
 10
0.051185
 20
-1.894547
  0
SEQEND
  8
0
  0
SOLID
  8
PLAN_1
 62
     2
 10
0.080717
 20
-1.894547
 11
0.021650
 21
-1.878685
 12
0.080717
 22
-1.894547
 13
0.021650
 23
-1.910406
  0
POLYLINE
  8
PLAN_1
 62
     2
  6
CONTINUOUS
 66
     1
 40
0.003000
 41
0.003000
  0
VERTEX
  8
PLAN_1
 62
     2
  6
CONTINUOUS
 10
0.080717
 20
-1.894547
  0
VERTEX
  8
PLAN_1
 62
     2
  6
CONTINUOUS
 10
0.021650
 20
-1.878685
  0
VERTEX
  8
PLAN_1
 62
     2
  6
CONTINUOUS
 10
0.021650
 20
-1.910406
  0
VERTEX
  8
PLAN_1
 62
     2
  6
CONTINUOUS
 10
0.080717
 20
-1.894547
  0
SEQEND
  8
0
  0
SOLID
  8
PLAN_1
 62
     2
 10
-2.128811
 20
-1.894547
 11
-2.069744
 21
-1.878685
 12
-2.128811
 22
-1.894547
 13
-2.069744
 23
-1.910406
  0
POLYLINE
  8
PLAN_1
 62
     2
  6
CONTINUOUS
 66
     1
 40
0.003000
 41
0.003000
  0
VERTEX
  8
PLAN_1
 62
     2
  6
CONTINUOUS
 10
-2.128811
 20
-1.894547
  0
VERTEX
  8
PLAN_1
 62
     2
  6
CONTINUOUS
 10
-2.069744
 20
-1.878685
  0
VERTEX
  8
PLAN_1
 62
     2
  6
CONTINUOUS
 10
-2.069744
 20
-1.910406
  0
VERTEX
  8
PLAN_1
 62
     2
  6
CONTINUOUS
 10
-2.128811
 20
-1.894547
  0
SEQEND
  8
0
  0
POLYLINE
  8
PLAN_1
 62
     2
  6
CONTINUOUS
 66
     1
 40
0.004374
 41
0.004374
  0
VERTEX
  8
PLAN_1
 62
     2
  6
CONTINUOUS
 10
-2.128811
 20
0.188098
  0
VERTEX
  8
PLAN_1
 62
     2
  6
CONTINUOUS
 10
-2.128811
 20
-1.918063
  0
SEQEND
  8
0
  0
POLYLINE
  8
PLAN_1
 62
     2
  6
CONTINUOUS
 66
     1
 40
0.004374
 41
0.004374
  0
VERTEX
  8
PLAN_1
 62
     2
  6
CONTINUOUS
 10
0.080717
 20
-1.620543
  0
VERTEX
  8
PLAN_1
 62
     2
  6
CONTINUOUS
 10
0.080717
 20
-1.918063
  0
SEQEND
  8
0
  0
POLYLINE
  8
PLAN_1
 62
     2
  6
CONTINUOUS
 66
     1
 40
0.004374
 41
0.004374
  0
VERTEX
  8
PLAN_1
 62
     2
  6
CONTINUOUS
 10
-1.895827
 20
4.281197
  0
VERTEX
  8
PLAN_1
 62
     2
  6
CONTINUOUS
 10
0.051185
 20
4.281197
  0
SEQEND
  8
0
  0
SOLID
  8
PLAN_1
 62
     2
 10
0.080717
 20
4.281197
 11
0.021650
 21
4.297055
 12
0.080717
 22
4.281197
 13
0.021650
 23
4.265335
  0
POLYLINE
  8
PLAN_1
 62
     2
  6
CONTINUOUS
 66
     1
 40
0.003000
 41
0.003000
  0
VERTEX
  8
PLAN_1
 62
     2
  6
CONTINUOUS
 10
0.080717
 20
4.281197
  0
VERTEX
  8
PLAN_1
 62
     2
  6
CONTINUOUS
 10
0.021650
 20
4.297055
  0
VERTEX
  8
PLAN_1
 62
     2
  6
CONTINUOUS
 10
0.021650
 20
4.265335
  0
VERTEX
  8
PLAN_1
 62
     2
  6
CONTINUOUS
 10
0.080717
 20
4.281197
  0
SEQEND
  8
0
  0
SOLID
  8
PLAN_1
 62
     2
 10
-1.925362
 20
4.281197
 11
-1.866295
 21
4.297055
 12
-1.925362
 22
4.281197
 13
-1.866295
 23
4.265335
  0
POLYLINE
  8
PLAN_1
 62
     2
  6
CONTINUOUS
 66
     1
 40
0.003000
 41
0.003000
  0
VERTEX
  8
PLAN_1
 62
     2
  6
CONTINUOUS
 10
-1.925362
 20
4.281197
  0
VERTEX
  8
PLAN_1
 62
     2
  6
CONTINUOUS
 10
-1.866295
 20
4.297055
  0
VERTEX
  8
PLAN_1
 62
     2
  6
CONTINUOUS
 10
-1.866295
 20
4.265335
  0
VERTEX
  8
PLAN_1
 62
     2
  6
CONTINUOUS
 10
-1.925362
 20
4.281197
  0
SEQEND
  8
0
  0
POLYLINE
  8
PLAN_1
 62
     2
  6
CONTINUOUS
 66
     1
 40
0.003000
 41
0.003000
  0
VERTEX
  8
PLAN_1
 62
     2
  6
CONTINUOUS
 10
-0.967717
 20
4.347374
  0
VERTEX
  8
PLAN_1
 62
     2
  6
CONTINUOUS
 10
-0.966622
 20
4.348469
  0
VERTEX
  8
PLAN_1
 62
     2
  6
CONTINUOUS
 10
-0.964980
 20
4.349012
  0
VERTEX
  8
PLAN_1
 62
     2
  6
CONTINUOUS
 10
-0.963886
 20
4.350106
  0
VERTEX
  8
PLAN_1
 62
     2
  6
CONTINUOUS
 10
-0.962248
 20
4.350654
  0
VERTEX
  8
PLAN_1
 62
     2
  6
CONTINUOUS
 10
-0.960059
 20
4.351201
  0
VERTEX
  8
PLAN_1
 62
     2
  6
CONTINUOUS
 10
-0.958417
 20
4.351748
  0
VERTEX
  8
PLAN_1
 62
     2
  6
CONTINUOUS
 10
-0.956232
 20
4.351748
  0
VERTEX
  8
PLAN_1
 62
     2
  6
CONTINUOUS
 10
-0.953496
 20
4.351748
  0
VERTEX
  8
PLAN_1
 62
     2
  6
CONTINUOUS
 10
-0.949122
 20
4.351748
  0
VERTEX
  8
PLAN_1
 62
     2
  6
CONTINUOUS
 10
-0.944744
 20
4.350654
  0
VERTEX
  8
PLAN_1
 62
     2
  6
CONTINUOUS
 10
-0.940917
 20
4.348469
  0
VERTEX
  8
PLAN_1
 62
     2
  6
CONTINUOUS
 10
-0.937091
 20
4.345732
  0
VERTEX
  8
PLAN_1
 62
     2
  6
CONTINUOUS
 10
-0.934354
 20
4.342449
  0
VERTEX
  8
PLAN_1
 62
     2
  6
CONTINUOUS
 10
-0.931618
 20
4.338622
  0
VERTEX
  8
PLAN_1
 62
     2
  6
CONTINUOUS
 10
-0.931071
 20
4.336433
  0
VERTEX
  8
PLAN_1
 62
     2
  6
CONTINUOUS
 10
-0.929980
 20
4.333701
  0
VERTEX
  8
PLAN_1
 62
     2
  6
CONTINUOUS
 10
-0.929980
 20
4.331512
  0
VERTEX
  8
PLAN_1
 62
     2
  6
CONTINUOUS
 10
-0.929433
 20
4.328780
  0
VERTEX
  8
PLAN_1
 62
     2
  6
CONTINUOUS
 10
-0.929980
 20
4.324949
  0
VERTEX
  8
PLAN_1
 62
     2
  6
CONTINUOUS
 10
-0.930528
 20
4.321122
  0
VERTEX
  8
PLAN_1
 62
     2
  6
CONTINUOUS
 10
-0.932165
 20
4.316744
  0
VERTEX
  8
PLAN_1
 62
     2
  6
CONTINUOUS
 10
-0.934354
 20
4.312917
  0
VERTEX
  8
PLAN_1
 62
     2
  6
CONTINUOUS
 10
-0.935996
 20
4.310728
  0
VERTEX
  8
PLAN_1
 62
     2
  6
CONTINUOUS
 10
-0.937634
 20
4.309091
  0
VERTEX
  8
PLAN_1
 62
     2
  6
CONTINUOUS
 10
-0.939823
 20
4.307449
  0
VERTEX
  8
PLAN_1
 62
     2
  6
CONTINUOUS
 10
-0.942559
 20
4.305807
  0
VERTEX
  8
PLAN_1
 62
     2
  6
CONTINUOUS
 10
-0.945291
 20
4.304713
  0
VERTEX
  8
PLAN_1
 62
     2
  6
CONTINUOUS
 10
-0.948575
 20
4.303618
  0
VERTEX
  8
PLAN_1
 62
     2
  6
CONTINUOUS
 10
-0.951854
 20
4.303075
  0
VERTEX
  8
PLAN_1
 62
     2
  6
CONTINUOUS
 10
-0.956232
 20
4.303075
  0
VERTEX
  8
PLAN_1
 62
     2
  6
CONTINUOUS
 10
-0.960059
 20
4.303075
  0
VERTEX
  8
PLAN_1
 62
     2
  6
CONTINUOUS
 10
-0.963886
 20
4.303618
  0
VERTEX
  8
PLAN_1
 62
     2
  6
CONTINUOUS
 10
-0.967169
 20
4.304713
  0
VERTEX
  8
PLAN_1
 62
     2
  6
CONTINUOUS
 10
-0.970996
 20
4.306902
  0
VERTEX
  8
PLAN_1
 62
     2
  6
CONTINUOUS
 10
-0.974280
 20
4.309638
  0
VERTEX
  8
PLAN_1
 62
     2
  6
CONTINUOUS
 10
-0.976465
 20
4.312917
  0
VERTEX
  8
PLAN_1
 62
     2
  6
CONTINUOUS
 10
-0.977559
 20
4.315106
  0
VERTEX
  8
PLAN_1
 62
     2
  6
CONTINUOUS
 10
-0.978654
 20
4.317291
  0
VERTEX
  8
PLAN_1
 62
     2
  6
CONTINUOUS
 10
-0.979201
 20
4.320028
  0
VERTEX
  8
PLAN_1
 62
     2
  6
CONTINUOUS
 10
-0.979748
 20
4.323307
  0
VERTEX
  8
PLAN_1
 62
     2
  6
CONTINUOUS
 10
-0.970449
 20
4.323307
  0
VERTEX
  8
PLAN_1
 62
     2
  6
CONTINUOUS
 10
-0.969902
 20
4.320028
  0
VERTEX
  8
PLAN_1
 62
     2
  6
CONTINUOUS
 10
-0.968811
 20
4.317291
  0
VERTEX
  8
PLAN_1
 62
     2
  6
CONTINUOUS
 10
-0.967169
 20
4.315654
  0
VERTEX
  8
PLAN_1
 62
     2
  6
CONTINUOUS
 10
-0.965528
 20
4.314012
  0
VERTEX
  8
PLAN_1
 62
     2
  6
CONTINUOUS
 10
-0.963339
 20
4.312370
  0
VERTEX
  8
PLAN_1
 62
     2
  6
CONTINUOUS
 10
-0.960606
 20
4.311276
  0
VERTEX
  8
PLAN_1
 62
     2
  6
CONTINUOUS
 10
-0.957870
 20
4.310728
  0
VERTEX
  8
PLAN_1
 62
     2
  6
CONTINUOUS
 10
-0.954591
 20
4.310728
  0
VERTEX
  8
PLAN_1
 62
     2
  6
CONTINUOUS
 10
-0.951307
 20
4.311276
  0
VERTEX
  8
PLAN_1
 62
     2
  6
CONTINUOUS
 10
-0.948575
 20
4.312370
  0
VERTEX
  8
PLAN_1
 62
     2
  6
CONTINUOUS
 10
-0.945839
 20
4.313465
  0
VERTEX
  8
PLAN_1
 62
     2
  6
CONTINUOUS
 10
-0.943654
 20
4.315654
  0
VERTEX
  8
PLAN_1
 62
     2
  6
CONTINUOUS
 10
-0.942012
 20
4.318386
  0
VERTEX
  8
PLAN_1
 62
     2
  6
CONTINUOUS
 10
-0.940370
 20
4.321122
  0
VERTEX
  8
PLAN_1
 62
     2
  6
CONTINUOUS
 10
-0.939823
 20
4.324402
  0
VERTEX
  8
PLAN_1
 62
     2
  6
CONTINUOUS
 10
-0.939276
 20
4.327685
  0
VERTEX
  8
PLAN_1
 62
     2
  6
CONTINUOUS
 10
-0.939823
 20
4.331512
  0
VERTEX
  8
PLAN_1
 62
     2
  6
CONTINUOUS
 10
-0.940917
 20
4.334248
  0
VERTEX
  8
PLAN_1
 62
     2
  6
CONTINUOUS
 10
-0.942012
 20
4.337528
  0
VERTEX
  8
PLAN_1
 62
     2
  6
CONTINUOUS
 10
-0.944197
 20
4.339717
  0
VERTEX
  8
PLAN_1
 62
     2
  6
CONTINUOUS
 10
-0.946386
 20
4.341358
  0
VERTEX
  8
PLAN_1
 62
     2
  6
CONTINUOUS
 10
-0.949122
 20
4.342449
  0
VERTEX
  8
PLAN_1
 62
     2
  6
CONTINUOUS
 10
-0.952402
 20
4.343543
  0
VERTEX
  8
PLAN_1
 62
     2
  6
CONTINUOUS
 10
-0.955685
 20
4.343543
  0
VERTEX
  8
PLAN_1
 62
     2
  6
CONTINUOUS
 10
-0.957870
 20
4.343543
  0
VERTEX
  8
PLAN_1
 62
     2
  6
CONTINUOUS
 10
-0.959512
 20
4.343543
  0
VERTEX
  8
PLAN_1
 62
     2
  6
CONTINUOUS
 10
-0.961154
 20
4.342996
  0
VERTEX
  8
PLAN_1
 62
     2
  6
CONTINUOUS
 10
-0.963339
 20
4.341906
  0
VERTEX
  8
PLAN_1
 62
     2
  6
CONTINUOUS
 10
-0.964980
 20
4.340811
  0
VERTEX
  8
PLAN_1
 62
     2
  6
CONTINUOUS
 10
-0.966622
 20
4.339717
  0
VERTEX
  8
PLAN_1
 62
     2
  6
CONTINUOUS
 10
-0.967717
 20
4.338622
  0
VERTEX
  8
PLAN_1
 62
     2
  6
CONTINUOUS
 10
-0.969358
 20
4.336980
  0
VERTEX
  8
PLAN_1
 62
     2
  6
CONTINUOUS
 10
-0.977012
 20
4.336980
  0
VERTEX
  8
PLAN_1
 62
     2
  6
CONTINUOUS
 10
-0.971543
 20
4.376358
  0
VERTEX
  8
PLAN_1
 62
     2
  6
CONTINUOUS
 10
-0.933807
 20
4.376358
  0
VERTEX
  8
PLAN_1
 62
     2
  6
CONTINUOUS
 10
-0.933807
 20
4.367610
  0
VERTEX
  8
PLAN_1
 62
     2
  6
CONTINUOUS
 10
-0.964980
 20
4.367610
  0
VERTEX
  8
PLAN_1
 62
     2
  6
CONTINUOUS
 10
-0.967717
 20
4.347374
  0
SEQEND
  8
0
  0
POLYLINE
  8
PLAN_1
 62
     2
  6
CONTINUOUS
 66
     1
 40
0.003000
 41
0.003000
  0
VERTEX
  8
PLAN_1
 62
     2
  6
CONTINUOUS
 10
-0.887866
 20
4.304713
  0
VERTEX
  8
PLAN_1
 62
     2
  6
CONTINUOUS
 10
-0.897713
 20
4.304713
  0
VERTEX
  8
PLAN_1
 62
     2
  6
CONTINUOUS
 10
-0.897713
 20
4.356669
  0
VERTEX
  8
PLAN_1
 62
     2
  6
CONTINUOUS
 10
-0.914665
 20
4.356669
  0
VERTEX
  8
PLAN_1
 62
     2
  6
CONTINUOUS
 10
-0.914665
 20
4.364327
  0
VERTEX
  8
PLAN_1
 62
     2
  6
CONTINUOUS
 10
-0.910839
 20
4.364327
  0
VERTEX
  8
PLAN_1
 62
     2
  6
CONTINUOUS
 10
-0.907008
 20
4.364874
  0
VERTEX
  8
PLAN_1
 62
     2
  6
CONTINUOUS
 10
-0.904276
 20
4.365421
  0
VERTEX
  8
PLAN_1
 62
     2
  6
CONTINUOUS
 10
-0.901539
 20
4.367063
  0
VERTEX
  8
PLAN_1
 62
     2
  6
CONTINUOUS
 10
-0.899350
 20
4.368701
  0
VERTEX
  8
PLAN_1
 62
     2
  6
CONTINUOUS
 10
-0.897713
 20
4.370890
  0
VERTEX
  8
PLAN_1
 62
     2
  6
CONTINUOUS
 10
-0.896071
 20
4.374173
  0
VERTEX
  8
PLAN_1
 62
     2
  6
CONTINUOUS
 10
-0.894976
 20
4.378000
  0
VERTEX
  8
PLAN_1
 62
     2
  6
CONTINUOUS
 10
-0.887866
 20
4.378000
  0
VERTEX
  8
PLAN_1
 62
     2
  6
CONTINUOUS
 10
-0.887866
 20
4.304713
  0
SEQEND
  8
0
  0
POLYLINE
  8
PLAN_1
 62
     2
  6
CONTINUOUS
 66
     1
 40
0.003000
 41
0.003000
  0
VERTEX
  8
PLAN_1
 62
     2
  6
CONTINUOUS
 10
-1.925362
 20
4.304713
  0
VERTEX
  8
PLAN_1
 62
     2
  6
CONTINUOUS
 10
-1.925362
 20
4.296512
  0
SEQEND
  8
0
  0
POLYLINE
  8
PLAN_1
 62
     2
  6
CONTINUOUS
 66
     1
 40
0.003000
 41
0.003000
  0
VERTEX
  8
PLAN_1
 62
     2
  6
CONTINUOUS
 10
-1.925362
 20
4.288307
  0
VERTEX
  8
PLAN_1
 62
     2
  6
CONTINUOUS
 10
-1.925362
 20
4.280102
  0
SEQEND
  8
0
  0
POLYLINE
  8
PLAN_1
 62
     2
  6
CONTINUOUS
 66
     1
 40
0.003000
 41
0.003000
  0
VERTEX
  8
PLAN_1
 62
     2
  6
CONTINUOUS
 10
-1.925362
 20
4.271350
  0
VERTEX
  8
PLAN_1
 62
     2
  6
CONTINUOUS
 10
-1.925362
 20
4.263150
  0
SEQEND
  8
0
  0
POLYLINE
  8
PLAN_1
 62
     2
  6
CONTINUOUS
 66
     1
 40
0.003000
 41
0.003000
  0
VERTEX
  8
PLAN_1
 62
     2
  6
CONTINUOUS
 10
-1.925362
 20
4.254945
  0
VERTEX
  8
PLAN_1
 62
     2
  6
CONTINUOUS
 10
-1.925362
 20
4.246740
  0
SEQEND
  8
0
  0
POLYLINE
  8
PLAN_1
 62
     2
  6
CONTINUOUS
 66
     1
 40
0.003000
 41
0.003000
  0
VERTEX
  8
PLAN_1
 62
     2
  6
CONTINUOUS
 10
-1.925362
 20
4.237992
  0
VERTEX
  8
PLAN_1
 62
     2
  6
CONTINUOUS
 10
-1.925362
 20
4.229787
  0
SEQEND
  8
0
  0
POLYLINE
  8
PLAN_1
 62
     2
  6
CONTINUOUS
 66
     1
 40
0.003000
 41
0.003000
  0
VERTEX
  8
PLAN_1
 62
     2
  6
CONTINUOUS
 10
-1.925362
 20
4.221583
  0
VERTEX
  8
PLAN_1
 62
     2
  6
CONTINUOUS
 10
-1.925362
 20
4.213378
  0
SEQEND
  8
0
  0
POLYLINE
  8
PLAN_1
 62
     2
  6
CONTINUOUS
 66
     1
 40
0.003000
 41
0.003000
  0
VERTEX
  8
PLAN_1
 62
     2
  6
CONTINUOUS
 10
-1.925362
 20
4.205177
  0
VERTEX
  8
PLAN_1
 62
     2
  6
CONTINUOUS
 10
-1.925362
 20
4.196425
  0
SEQEND
  8
0
  0
POLYLINE
  8
PLAN_1
 62
     2
  6
CONTINUOUS
 66
     1
 40
0.003000
 41
0.003000
  0
VERTEX
  8
PLAN_1
 62
     2
  6
CONTINUOUS
 10
-1.925362
 20
4.188220
  0
VERTEX
  8
PLAN_1
 62
     2
  6
CONTINUOUS
 10
-1.925362
 20
4.180016
  0
SEQEND
  8
0
  0
POLYLINE
  8
PLAN_1
 62
     2
  6
CONTINUOUS
 66
     1
 40
0.003000
 41
0.003000
  0
VERTEX
  8
PLAN_1
 62
     2
  6
CONTINUOUS
 10
-1.925362
 20
4.171815
  0
VERTEX
  8
PLAN_1
 62
     2
  6
CONTINUOUS
 10
-1.925362
 20
4.163063
  0
SEQEND
  8
0
  0
POLYLINE
  8
PLAN_1
 62
     2
  6
CONTINUOUS
 66
     1
 40
0.003000
 41
0.003000
  0
VERTEX
  8
PLAN_1
 62
     2
  6
CONTINUOUS
 10
-1.925362
 20
4.154858
  0
VERTEX
  8
PLAN_1
 62
     2
  6
CONTINUOUS
 10
-1.925362
 20
4.147748
  0
SEQEND
  8
0
  0
POLYLINE
  8
PLAN_1
 62
     2
  6
CONTINUOUS
 66
     1
 40
0.003000
 41
0.003000
  0
VERTEX
  8
PLAN_1
 62
     2
  6
CONTINUOUS
 10
-1.925362
 20
4.154858
  0
VERTEX
  8
PLAN_1
 62
     2
  6
CONTINUOUS
 10
-1.925362
 20
4.147748
  0
SEQEND
  8
0
  0
POLYLINE
  8
PLAN_1
 62
     2
  6
CONTINUOUS
 66
     1
 40
0.004374
 41
0.004374
  0
VERTEX
  8
PLAN_1
 62
     2
  6
CONTINUOUS
 10
0.081264
 20
0.255917
  0
VERTEX
  8
PLAN_1
 62
     2
  6
CONTINUOUS
 10
0.081264
 20
4.304713
  0
SEQEND
  8
0
  0
POLYLINE
  8
PLAN_1
 62
     2
  6
CONTINUOUS
 66
     1
 40
0.003000
 41
0.003000
  0
VERTEX
  8
PLAN_1
 62
     2
  6
CONTINUOUS
 10
-1.066709
 20
-1.828370
  0
VERTEX
  8
PLAN_1
 62
     2
  6
CONTINUOUS
 10
-1.065614
 20
-1.827276
  0
VERTEX
  8
PLAN_1
 62
     2
  6
CONTINUOUS
 10
-1.063972
 20
-1.826728
  0
VERTEX
  8
PLAN_1
 62
     2
  6
CONTINUOUS
 10
-1.062331
 20
-1.826181
  0
VERTEX
  8
PLAN_1
 62
     2
  6
CONTINUOUS
 10
-1.060693
 20
-1.825087
  0
VERTEX
  8
PLAN_1
 62
     2
  6
CONTINUOUS
 10
-1.059051
 20
-1.824543
  0
VERTEX
  8
PLAN_1
 62
     2
  6
CONTINUOUS
 10
-1.056862
 20
-1.823996
  0
VERTEX
  8
PLAN_1
 62
     2
  6
CONTINUOUS
 10
-1.054673
 20
-1.823996
  0
VERTEX
  8
PLAN_1
 62
     2
  6
CONTINUOUS
 10
-1.052488
 20
-1.823996
  0
VERTEX
  8
PLAN_1
 62
     2
  6
CONTINUOUS
 10
-1.048110
 20
-1.823996
  0
VERTEX
  8
PLAN_1
 62
     2
  6
CONTINUOUS
 10
-1.043736
 20
-1.825634
  0
VERTEX
  8
PLAN_1
 62
     2
  6
CONTINUOUS
 10
-1.039909
 20
-1.827276
  0
VERTEX
  8
PLAN_1
 62
     2
  6
CONTINUOUS
 10
-1.036079
 20
-1.830012
  0
VERTEX
  8
PLAN_1
 62
     2
  6
CONTINUOUS
 10
-1.032799
 20
-1.833291
  0
VERTEX
  8
PLAN_1
 62
     2
  6
CONTINUOUS
 10
-1.030610
 20
-1.837122
  0
VERTEX
  8
PLAN_1
 62
     2
  6
CONTINUOUS
 10
-1.029516
 20
-1.839307
  0
VERTEX
  8
PLAN_1
 62
     2
  6
CONTINUOUS
 10
-1.028969
 20
-1.842043
  0
VERTEX
  8
PLAN_1
 62
     2
  6
CONTINUOUS
 10
-1.028421
 20
-1.844232
  0
VERTEX
  8
PLAN_1
 62
     2
  6
CONTINUOUS
 10
-1.028421
 20
-1.847512
  0
VERTEX
  8
PLAN_1
 62
     2
  6
CONTINUOUS
 10
-1.028969
 20
-1.850795
  0
VERTEX
  8
PLAN_1
 62
     2
  6
CONTINUOUS
 10
-1.029516
 20
-1.854622
  0
VERTEX
  8
PLAN_1
 62
     2
  6
CONTINUOUS
 10
-1.030610
 20
-1.858996
  0
VERTEX
  8
PLAN_1
 62
     2
  6
CONTINUOUS
 10
-1.033346
 20
-1.863374
  0
VERTEX
  8
PLAN_1
 62
     2
  6
CONTINUOUS
 10
-1.034984
 20
-1.865012
  0
VERTEX
  8
PLAN_1
 62
     2
  6
CONTINUOUS
 10
-1.036626
 20
-1.867201
  0
VERTEX
  8
PLAN_1
 62
     2
  6
CONTINUOUS
 10
-1.038815
 20
-1.868843
  0
VERTEX
  8
PLAN_1
 62
     2
  6
CONTINUOUS
 10
-1.041004
 20
-1.869937
  0
VERTEX
  8
PLAN_1
 62
     2
  6
CONTINUOUS
 10
-1.044283
 20
-1.871028
  0
VERTEX
  8
PLAN_1
 62
     2
  6
CONTINUOUS
 10
-1.047567
 20
-1.872122
  0
VERTEX
  8
PLAN_1
 62
     2
  6
CONTINUOUS
 10
-1.050846
 20
-1.872669
  0
VERTEX
  8
PLAN_1
 62
     2
  6
CONTINUOUS
 10
-1.055220
 20
-1.872669
  0
VERTEX
  8
PLAN_1
 62
     2
  6
CONTINUOUS
 10
-1.058504
 20
-1.872669
  0
VERTEX
  8
PLAN_1
 62
     2
  6
CONTINUOUS
 10
-1.062331
 20
-1.872122
  0
VERTEX
  8
PLAN_1
 62
     2
  6
CONTINUOUS
 10
-1.066161
 20
-1.871028
  0
VERTEX
  8
PLAN_1
 62
     2
  6
CONTINUOUS
 10
-1.069988
 20
-1.868843
  0
VERTEX
  8
PLAN_1
 62
     2
  6
CONTINUOUS
 10
-1.072724
 20
-1.866106
  0
VERTEX
  8
PLAN_1
 62
     2
  6
CONTINUOUS
 10
-1.075457
 20
-1.862827
  0
VERTEX
  8
PLAN_1
 62
     2
  6
CONTINUOUS
 10
-1.076551
 20
-1.860638
  0
VERTEX
  8
PLAN_1
 62
     2
  6
CONTINUOUS
 10
-1.077646
 20
-1.858449
  0
VERTEX
  8
PLAN_1
 62
     2
  6
CONTINUOUS
 10
-1.078193
 20
-1.855717
  0
VERTEX
  8
PLAN_1
 62
     2
  6
CONTINUOUS
 10
-1.078740
 20
-1.852980
  0
VERTEX
  8
PLAN_1
 62
     2
  6
CONTINUOUS
 10
-1.069441
 20
-1.852980
  0
VERTEX
  8
PLAN_1
 62
     2
  6
CONTINUOUS
 10
-1.068346
 20
-1.855717
  0
VERTEX
  8
PLAN_1
 62
     2
  6
CONTINUOUS
 10
-1.067256
 20
-1.858449
  0
VERTEX
  8
PLAN_1
 62
     2
  6
CONTINUOUS
 10
-1.066161
 20
-1.860638
  0
VERTEX
  8
PLAN_1
 62
     2
  6
CONTINUOUS
 10
-1.063972
 20
-1.862280
  0
VERTEX
  8
PLAN_1
 62
     2
  6
CONTINUOUS
 10
-1.061783
 20
-1.863374
  0
VERTEX
  8
PLAN_1
 62
     2
  6
CONTINUOUS
 10
-1.059598
 20
-1.864465
  0
VERTEX
  8
PLAN_1
 62
     2
  6
CONTINUOUS
 10
-1.056862
 20
-1.865012
  0
VERTEX
  8
PLAN_1
 62
     2
  6
CONTINUOUS
 10
-1.053583
 20
-1.865012
  0
VERTEX
  8
PLAN_1
 62
     2
  6
CONTINUOUS
 10
-1.050299
 20
-1.864465
  0
VERTEX
  8
PLAN_1
 62
     2
  6
CONTINUOUS
 10
-1.047020
 20
-1.863917
  0
VERTEX
  8
PLAN_1
 62
     2
  6
CONTINUOUS
 10
-1.044831
 20
-1.862280
  0
VERTEX
  8
PLAN_1
 62
     2
  6
CONTINUOUS
 10
-1.042642
 20
-1.860091
  0
VERTEX
  8
PLAN_1
 62
     2
  6
CONTINUOUS
 10
-1.040457
 20
-1.857358
  0
VERTEX
  8
PLAN_1
 62
     2
  6
CONTINUOUS
 10
-1.039362
 20
-1.854622
  0
VERTEX
  8
PLAN_1
 62
     2
  6
CONTINUOUS
 10
-1.038815
 20
-1.851886
  0
VERTEX
  8
PLAN_1
 62
     2
  6
CONTINUOUS
 10
-1.038268
 20
-1.848059
  0
VERTEX
  8
PLAN_1
 62
     2
  6
CONTINUOUS
 10
-1.038815
 20
-1.844776
  0
VERTEX
  8
PLAN_1
 62
     2
  6
CONTINUOUS
 10
-1.039362
 20
-1.841496
  0
VERTEX
  8
PLAN_1
 62
     2
  6
CONTINUOUS
 10
-1.041004
 20
-1.838760
  0
VERTEX
  8
PLAN_1
 62
     2
  6
CONTINUOUS
 10
-1.043189
 20
-1.836028
  0
VERTEX
  8
PLAN_1
 62
     2
  6
CONTINUOUS
 10
-1.045378
 20
-1.834386
  0
VERTEX
  8
PLAN_1
 62
     2
  6
CONTINUOUS
 10
-1.048110
 20
-1.833291
  0
VERTEX
  8
PLAN_1
 62
     2
  6
CONTINUOUS
 10
-1.051394
 20
-1.832197
  0
VERTEX
  8
PLAN_1
 62
     2
  6
CONTINUOUS
 10
-1.054673
 20
-1.832197
  0
VERTEX
  8
PLAN_1
 62
     2
  6
CONTINUOUS
 10
-1.056315
 20
-1.832197
  0
VERTEX
  8
PLAN_1
 62
     2
  6
CONTINUOUS
 10
-1.058504
 20
-1.832744
  0
VERTEX
  8
PLAN_1
 62
     2
  6
CONTINUOUS
 10
-1.060146
 20
-1.833291
  0
VERTEX
  8
PLAN_1
 62
     2
  6
CONTINUOUS
 10
-1.061783
 20
-1.833839
  0
VERTEX
  8
PLAN_1
 62
     2
  6
CONTINUOUS
 10
-1.063425
 20
-1.834933
  0
VERTEX
  8
PLAN_1
 62
     2
  6
CONTINUOUS
 10
-1.065067
 20
-1.836028
  0
VERTEX
  8
PLAN_1
 62
     2
  6
CONTINUOUS
 10
-1.066709
 20
-1.837669
  0
VERTEX
  8
PLAN_1
 62
     2
  6
CONTINUOUS
 10
-1.067799
 20
-1.838760
  0
VERTEX
  8
PLAN_1
 62
     2
  6
CONTINUOUS
 10
-1.076004
 20
-1.838760
  0
VERTEX
  8
PLAN_1
 62
     2
  6
CONTINUOUS
 10
-1.070535
 20
-1.799382
  0
VERTEX
  8
PLAN_1
 62
     2
  6
CONTINUOUS
 10
-1.032799
 20
-1.799382
  0
VERTEX
  8
PLAN_1
 62
     2
  6
CONTINUOUS
 10
-1.032799
 20
-1.808134
  0
VERTEX
  8
PLAN_1
 62
     2
  6
CONTINUOUS
 10
-1.063425
 20
-1.808134
  0
VERTEX
  8
PLAN_1
 62
     2
  6
CONTINUOUS
 10
-1.066709
 20
-1.828370
  0
SEQEND
  8
0
  0
POLYLINE
  8
PLAN_1
 62
     2
  6
CONTINUOUS
 66
     1
 40
0.003000
 41
0.003000
  0
VERTEX
  8
PLAN_1
 62
     2
  6
CONTINUOUS
 10
-0.980843
 20
-1.817433
  0
VERTEX
  8
PLAN_1
 62
     2
  6
CONTINUOUS
 10
-0.981390
 20
-1.814697
  0
VERTEX
  8
PLAN_1
 62
     2
  6
CONTINUOUS
 10
-0.981937
 20
-1.813055
  0
VERTEX
  8
PLAN_1
 62
     2
  6
CONTINUOUS
 10
-0.983028
 20
-1.810870
  0
VERTEX
  8
PLAN_1
 62
     2
  6
CONTINUOUS
 10
-0.984669
 20
-1.809228
  0
VERTEX
  8
PLAN_1
 62
     2
  6
CONTINUOUS
 10
-0.986311
 20
-1.808134
  0
VERTEX
  8
PLAN_1
 62
     2
  6
CONTINUOUS
 10
-0.987953
 20
-1.807039
  0
VERTEX
  8
PLAN_1
 62
     2
  6
CONTINUOUS
 10
-0.990685
 20
-1.806492
  0
VERTEX
  8
PLAN_1
 62
     2
  6
CONTINUOUS
 10
-0.993421
 20
-1.805945
  0
VERTEX
  8
PLAN_1
 62
     2
  6
CONTINUOUS
 10
-0.995610
 20
-1.806492
  0
VERTEX
  8
PLAN_1
 62
     2
  6
CONTINUOUS
 10
-0.998343
 20
-1.807039
  0
VERTEX
  8
PLAN_1
 62
     2
  6
CONTINUOUS
 10
-0.999984
 20
-1.808134
  0
VERTEX
  8
PLAN_1
 62
     2
  6
CONTINUOUS
 10
-1.002173
 20
-1.809228
  0
VERTEX
  8
PLAN_1
 62
     2
  6
CONTINUOUS
 10
-1.004906
 20
-1.812508
  0
VERTEX
  8
PLAN_1
 62
     2
  6
CONTINUOUS
 10
-1.007094
 20
-1.816886
  0
VERTEX
  8
PLAN_1
 62
     2
  6
CONTINUOUS
 10
-1.008736
 20
-1.821260
  0
VERTEX
  8
PLAN_1
 62
     2
  6
CONTINUOUS
 10
-1.009827
 20
-1.825634
  0
VERTEX
  8
PLAN_1
 62
     2
  6
CONTINUOUS
 10
-1.010374
 20
-1.829465
  0
VERTEX
  8
PLAN_1
 62
     2
  6
CONTINUOUS
 10
-1.010921
 20
-1.833291
  0
VERTEX
  8
PLAN_1
 62
     2
  6
CONTINUOUS
 10
-1.010374
 20
-1.833291
  0
VERTEX
  8
PLAN_1
 62
     2
  6
CONTINUOUS
 10
-1.009280
 20
-1.831650
  0
VERTEX
  8
PLAN_1
 62
     2
  6
CONTINUOUS
 10
-1.008189
 20
-1.830012
  0
VERTEX
  8
PLAN_1
 62
     2
  6
CONTINUOUS
 10
-1.006547
 20
-1.828917
  0
VERTEX
  8
PLAN_1
 62
     2
  6
CONTINUOUS
 10
-1.004906
 20
-1.827276
  0
VERTEX
  8
PLAN_1
 62
     2
  6
CONTINUOUS
 10
-1.002173
 20
-1.826181
  0
VERTEX
  8
PLAN_1
 62
     2
  6
CONTINUOUS
 10
-0.999437
 20
-1.825087
  0
VERTEX
  8
PLAN_1
 62
     2
  6
CONTINUOUS
 10
-0.996701
 20
-1.824543
  0
VERTEX
  8
PLAN_1
 62
     2
  6
CONTINUOUS
 10
-0.992874
 20
-1.824543
  0
VERTEX
  8
PLAN_1
 62
     2
  6
CONTINUOUS
 10
-0.989591
 20
-1.824543
  0
VERTEX
  8
PLAN_1
 62
     2
  6
CONTINUOUS
 10
-0.985764
 20
-1.825634
  0
VERTEX
  8
PLAN_1
 62
     2
  6
CONTINUOUS
 10
-0.981937
 20
-1.827276
  0
VERTEX
  8
PLAN_1
 62
     2
  6
CONTINUOUS
 10
-0.978106
 20
-1.829465
  0
VERTEX
  8
PLAN_1
 62
     2
  6
CONTINUOUS
 10
-0.974827
 20
-1.832744
  0
VERTEX
  8
PLAN_1
 62
     2
  6
CONTINUOUS
 10
-0.972638
 20
-1.836575
  0
VERTEX
  8
PLAN_1
 62
     2
  6
CONTINUOUS
 10
-0.971543
 20
-1.838760
  0
VERTEX
  8
PLAN_1
 62
     2
  6
CONTINUOUS
 10
-0.970996
 20
-1.841496
  0
VERTEX
  8
PLAN_1
 62
     2
  6
CONTINUOUS
 10
-0.970449
 20
-1.844232
  0
VERTEX
  8
PLAN_1
 62
     2
  6
CONTINUOUS
 10
-0.970449
 20
-1.847512
  0
VERTEX
  8
PLAN_1
 62
     2
  6
CONTINUOUS
 10
-0.970449
 20
-1.850248
  0
VERTEX
  8
PLAN_1
 62
     2
  6
CONTINUOUS
 10
-0.970449
 20
-1.852980
  0
VERTEX
  8
PLAN_1
 62
     2
  6
CONTINUOUS
 10
-0.970996
 20
-1.855169
  0
VERTEX
  8
PLAN_1
 62
     2
  6
CONTINUOUS
 10
-0.972091
 20
-1.857358
  0
VERTEX
  8
PLAN_1
 62
     2
  6
CONTINUOUS
 10
-0.972638
 20
-1.859543
  0
VERTEX
  8
PLAN_1
 62
     2
  6
CONTINUOUS
 10
-0.973732
 20
-1.861732
  0
VERTEX
  8
PLAN_1
 62
     2
  6
CONTINUOUS
 10
-0.975374
 20
-1.863917
  0
VERTEX
  8
PLAN_1
 62
     2
  6
CONTINUOUS
 10
-0.977012
 20
-1.866106
  0
VERTEX
  8
PLAN_1
 62
     2
  6
CONTINUOUS
 10
-0.978654
 20
-1.867201
  0
VERTEX
  8
PLAN_1
 62
     2
  6
CONTINUOUS
 10
-0.980295
 20
-1.868843
  0
VERTEX
  8
PLAN_1
 62
     2
  6
CONTINUOUS
 10
-0.981937
 20
-1.869937
  0
VERTEX
  8
PLAN_1
 62
     2
  6
CONTINUOUS
 10
-0.984122
 20
-1.871028
  0
VERTEX
  8
PLAN_1
 62
     2
  6
CONTINUOUS
 10
-0.986311
 20
-1.871575
  0
VERTEX
  8
PLAN_1
 62
     2
  6
CONTINUOUS
 10
-0.989047
 20
-1.872669
  0
VERTEX
  8
PLAN_1
 62
     2
  6
CONTINUOUS
 10
-0.992327
 20
-1.872669
  0
VERTEX
  8
PLAN_1
 62
     2
  6
CONTINUOUS
 10
-0.995610
 20
-1.872669
  0
VERTEX
  8
PLAN_1
 62
     2
  6
CONTINUOUS
 10
-0.997795
 20
-1.872669
  0
VERTEX
  8
PLAN_1
 62
     2
  6
CONTINUOUS
 10
-1.000531
 20
-1.872669
  0
VERTEX
  8
PLAN_1
 62
     2
  6
CONTINUOUS
 10
-1.002717
 20
-1.871575
  0
VERTEX
  8
PLAN_1
 62
     2
  6
CONTINUOUS
 10
-1.005453
 20
-1.870480
  0
VERTEX
  8
PLAN_1
 62
     2
  6
CONTINUOUS
 10
-1.007642
 20
-1.869390
  0
VERTEX
  8
PLAN_1
 62
     2
  6
CONTINUOUS
 10
-1.010374
 20
-1.867201
  0
VERTEX
  8
PLAN_1
 62
     2
  6
CONTINUOUS
 10
-1.012563
 20
-1.865012
  0
VERTEX
  8
PLAN_1
 62
     2
  6
CONTINUOUS
 10
-1.014752
 20
-1.862280
  0
VERTEX
  8
PLAN_1
 62
     2
  6
CONTINUOUS
 10
-1.015843
 20
-1.859543
  0
VERTEX
  8
PLAN_1
 62
     2
  6
CONTINUOUS
 10
-1.017484
 20
-1.856811
  0
VERTEX
  8
PLAN_1
 62
     2
  6
CONTINUOUS
 10
-1.018031
 20
-1.853528
  0
VERTEX
  8
PLAN_1
 62
     2
  6
CONTINUOUS
 10
-1.019126
 20
-1.850795
  0
VERTEX
  8
PLAN_1
 62
     2
  6
CONTINUOUS
 10
-1.019673
 20
-1.847512
  0
VERTEX
  8
PLAN_1
 62
     2
  6
CONTINUOUS
 10
-1.019673
 20
-1.844232
  0
VERTEX
  8
PLAN_1
 62
     2
  6
CONTINUOUS
 10
-1.020220
 20
-1.840402
  0
VERTEX
  8
PLAN_1
 62
     2
  6
CONTINUOUS
 10
-1.020220
 20
-1.837122
  0
VERTEX
  8
PLAN_1
 62
     2
  6
CONTINUOUS
 10
-1.019673
 20
-1.830559
  0
VERTEX
  8
PLAN_1
 62
     2
  6
CONTINUOUS
 10
-1.019126
 20
-1.823996
  0
VERTEX
  8
PLAN_1
 62
     2
  6
CONTINUOUS
 10
-1.017484
 20
-1.817433
  0
VERTEX
  8
PLAN_1
 62
     2
  6
CONTINUOUS
 10
-1.014752
 20
-1.811417
  0
VERTEX
  8
PLAN_1
 62
     2
  6
CONTINUOUS
 10
-1.013110
 20
-1.808681
  0
VERTEX
  8
PLAN_1
 62
     2
  6
CONTINUOUS
 10
-1.011469
 20
-1.805945
  0
VERTEX
  8
PLAN_1
 62
     2
  6
CONTINUOUS
 10
-1.009280
 20
-1.803760
  0
VERTEX
  8
PLAN_1
 62
     2
  6
CONTINUOUS
 10
-1.006547
 20
-1.801571
  0
VERTEX
  8
PLAN_1
 62
     2
  6
CONTINUOUS
 10
-1.003811
 20
-1.799929
  0
VERTEX
  8
PLAN_1
 62
     2
  6
CONTINUOUS
 10
-1.000531
 20
-1.798835
  0
VERTEX
  8
PLAN_1
 62
     2
  6
CONTINUOUS
 10
-0.997248
 20
-1.798291
  0
VERTEX
  8
PLAN_1
 62
     2
  6
CONTINUOUS
 10
-0.992874
 20
-1.797744
  0
VERTEX
  8
PLAN_1
 62
     2
  6
CONTINUOUS
 10
-0.989591
 20
-1.798291
  0
VERTEX
  8
PLAN_1
 62
     2
  6
CONTINUOUS
 10
-0.986311
 20
-1.798835
  0
VERTEX
  8
PLAN_1
 62
     2
  6
CONTINUOUS
 10
-0.983028
 20
-1.799929
  0
VERTEX
  8
PLAN_1
 62
     2
  6
CONTINUOUS
 10
-0.979748
 20
-1.802118
  0
VERTEX
  8
PLAN_1
 62
     2
  6
CONTINUOUS
 10
-0.976465
 20
-1.804854
  0
VERTEX
  8
PLAN_1
 62
     2
  6
CONTINUOUS
 10
-0.974280
 20
-1.808134
  0
VERTEX
  8
PLAN_1
 62
     2
  6
CONTINUOUS
 10
-0.972638
 20
-1.811961
  0
VERTEX
  8
PLAN_1
 62
     2
  6
CONTINUOUS
 10
-0.971543
 20
-1.817433
  0
VERTEX
  8
PLAN_1
 62
     2
  6
CONTINUOUS
 10
-0.980843
 20
-1.817433
  0
SEQEND
  8
0
  0
POLYLINE
  8
PLAN_1
 62
     2
  6
CONTINUOUS
 66
     1
 40
0.003000
 41
0.003000
  0
VERTEX
  8
PLAN_1
 62
     2
  6
CONTINUOUS
 10
-0.993969
 20
-1.864465
  0
VERTEX
  8
PLAN_1
 62
     2
  6
CONTINUOUS
 10
-0.990685
 20
-1.864465
  0
VERTEX
  8
PLAN_1
 62
     2
  6
CONTINUOUS
 10
-0.987953
 20
-1.863374
  0
VERTEX
  8
PLAN_1
 62
     2
  6
CONTINUOUS
 10
-0.985764
 20
-1.862280
  0
VERTEX
  8
PLAN_1
 62
     2
  6
CONTINUOUS
 10
-0.983575
 20
-1.860091
  0
VERTEX
  8
PLAN_1
 62
     2
  6
CONTINUOUS
 10
-0.981937
 20
-1.857358
  0
VERTEX
  8
PLAN_1
 62
     2
  6
CONTINUOUS
 10
-0.980843
 20
-1.854622
  0
VERTEX
  8
PLAN_1
 62
     2
  6
CONTINUOUS
 10
-0.979748
 20
-1.851339
  0
VERTEX
  8
PLAN_1
 62
     2
  6
CONTINUOUS
 10
-0.979748
 20
-1.848059
  0
VERTEX
  8
PLAN_1
 62
     2
  6
CONTINUOUS
 10
-0.979748
 20
-1.845323
  0
VERTEX
  8
PLAN_1
 62
     2
  6
CONTINUOUS
 10
-0.980295
 20
-1.842591
  0
VERTEX
  8
PLAN_1
 62
     2
  6
CONTINUOUS
 10
-0.981390
 20
-1.840402
  0
VERTEX
  8
PLAN_1
 62
     2
  6
CONTINUOUS
 10
-0.983028
 20
-1.837669
  0
VERTEX
  8
PLAN_1
 62
     2
  6
CONTINUOUS
 10
-0.984669
 20
-1.835480
  0
VERTEX
  8
PLAN_1
 62
     2
  6
CONTINUOUS
 10
-0.987406
 20
-1.833839
  0
VERTEX
  8
PLAN_1
 62
     2
  6
CONTINUOUS
 10
-0.990685
 20
-1.832744
  0
VERTEX
  8
PLAN_1
 62
     2
  6
CONTINUOUS
 10
-0.994516
 20
-1.832744
  0
VERTEX
  8
PLAN_1
 62
     2
  6
CONTINUOUS
 10
-0.997795
 20
-1.832744
  0
VERTEX
  8
PLAN_1
 62
     2
  6
CONTINUOUS
 10
-1.001079
 20
-1.833839
  0
VERTEX
  8
PLAN_1
 62
     2
  6
CONTINUOUS
 10
-1.003811
 20
-1.835480
  0
VERTEX
  8
PLAN_1
 62
     2
  6
CONTINUOUS
 10
-1.005453
 20
-1.837122
  0
VERTEX
  8
PLAN_1
 62
     2
  6
CONTINUOUS
 10
-1.007094
 20
-1.839854
  0
VERTEX
  8
PLAN_1
 62
     2
  6
CONTINUOUS
 10
-1.008736
 20
-1.842591
  0
VERTEX
  8
PLAN_1
 62
     2
  6
CONTINUOUS
 10
-1.009280
 20
-1.845323
  0
VERTEX
  8
PLAN_1
 62
     2
  6
CONTINUOUS
 10
-1.009280
 20
-1.848606
  0
VERTEX
  8
PLAN_1
 62
     2
  6
CONTINUOUS
 10
-1.009280
 20
-1.851339
  0
VERTEX
  8
PLAN_1
 62
     2
  6
CONTINUOUS
 10
-1.008736
 20
-1.854075
  0
VERTEX
  8
PLAN_1
 62
     2
  6
CONTINUOUS
 10
-1.007642
 20
-1.856811
  0
VERTEX
  8
PLAN_1
 62
     2
  6
CONTINUOUS
 10
-1.006000
 20
-1.859543
  0
VERTEX
  8
PLAN_1
 62
     2
  6
CONTINUOUS
 10
-1.003811
 20
-1.861732
  0
VERTEX
  8
PLAN_1
 62
     2
  6
CONTINUOUS
 10
-1.001079
 20
-1.863374
  0
VERTEX
  8
PLAN_1
 62
     2
  6
CONTINUOUS
 10
-0.997795
 20
-1.864465
  0
VERTEX
  8
PLAN_1
 62
     2
  6
CONTINUOUS
 10
-0.993969
 20
-1.864465
  0
SEQEND
  8
0
  0
ENDSEC
  0
EOF
