  0
SECTION
  2
HEADER
  9
$ACADVER
  1
AC1006
  9
$EXTMIN
 10
-2.346000
 20
-4.090000
  9
$EXTMAX
 10
2.335657
 20
4.085020
  9
$LTSCALE
 40
0.000394
  9
$PDMODE
 70
    35
  9
$PDSIZE
 40
0.000315
  0
ENDSEC
  0
SECTION
  2
TABLES
  0
TABLE
  2
LTYPE
 70
     9
  0
LTYPE
  2
CONTINUOUS
 70
    64
  3
Solid line
 72
    65
 73
     0
 40
0.000000
  0
LTYPE
  2
DASHED
 70
    64
  3
__ __ __ __ __ __ __ __ __ __ __ __ __ __ __
 72
    65
 73
     2
 40
0.000003
 49
0.000002
 49
-0.000001
  0
LTYPE
  2
HIDDEN
 70
    64
  3
 _ _ _ _ _ _ _ _ _ _ _ _ _ _ _ _ _ _ _ _ _ _
 72
    65
 73
     2
 40
0.000001
 49
0.000001
 49
-0.000000
  0
LTYPE
  2
CENTER
 70
    64
  3
____ _ ____ _ ____ _ ____ _ ____ _ ____ _ ____
 72
    65
 73
     4
 40
0.000008
 49
0.000005
 49
-0.000001
 49
0.000001
 49
-0.000001
  0
LTYPE
  2
PHANTOM
 70
    64
  3
_____ _ _ _____ _ _ _____ _ _ _____ _ _ ____
 72
    65
 73
     6
 40
0.000010
 49
0.000005
 49
-0.000001
 49
0.000001
 49
-0.000001
 49
0.000001
 49
-0.000001
  0
LTYPE
  2
DOT
 70
    64
  3
...............................................
 72
    65
 73
     2
 40
0.000001
 49
0.000000
 49
-0.000001
  0
LTYPE
  2
DASHDOT
 70
    64
  3
__ . __ . __ . __ . __ . __ . __ . __ . __ . __
 72
    65
 73
     4
 40
0.000004
 49
0.000002
 49
-0.000001
 49
0.000000
 49
-0.000001
  0
LTYPE
  2
BORDER
 70
    64
  3
__ __ . __ __ . __ __ . __ __ . __ __ . __ __
 72
    65
 73
     6
 40
0.000007
 49
0.000002
 49
-0.000001
 49
0.000002
 49
-0.000001
 49
0.000000
 49
-0.000001
  0
LTYPE
  2
DIVIDE
 70
    64
  3
__ . . __ . . __ . . __ . . __ . . __ . . __
 72
    65
 73
     6
 40
0.000005
 49
0.000002
 49
-0.000001
 49
0.000000
 49
-0.000001
 49
0.000000
 49
-0.000001
  0
LTYPE
  2
DOTDOT
 70
    64
  3
 . .  . .  . .  . .  . .  . . 
 72
    65
 73
     5
 40
0.000002
 49
-0.000001
 49
0.000000
 49
-0.000001
 49
0.000000
 49
-0.000001
  0
ENDTAB
  0
TABLE
  2
STYLE
 70
     0
  0
ENDTAB
  0
TABLE
  2
LAYER
 70
     3
  0
LAYER
  2
FOREGROUND
 70
    64
 62
     7
  6
CONTINUOUS
  0
LAYER
  2
BACKGROUND
 70
    65
 62
    -7
  6
CONTINUOUS
  0
LAYER
  2
PLAN_1
 70
    64
 62
     7
  6
CONTINUOUS
  0
ENDTAB
  0
ENDSEC
  0
SECTION
  2
ENTITIES
  0
POLYLINE
  8
PLAN_1
  6
CONTINUOUS
 66
     1
 40
0.003000
 41
0.003000
  0
VERTEX
  8
PLAN_1
  6
CONTINUOUS
 10
0.531760
 20
-4.055260
  0
VERTEX
  8
PLAN_1
  6
CONTINUOUS
 10
0.374921
 20
-4.055260
  0
VERTEX
  8
PLAN_1
  6
CONTINUOUS
 10
0.374921
 20
-4.032783
  0
VERTEX
  8
PLAN_1
  6
CONTINUOUS
 10
0.497020
 20
-3.880031
  0
VERTEX
  8
PLAN_1
  6
CONTINUOUS
 10
0.384114
 20
-3.880031
  0
VERTEX
  8
PLAN_1
  6
CONTINUOUS
 10
0.384114
 20
-3.856020
  0
VERTEX
  8
PLAN_1
  6
CONTINUOUS
 10
0.531760
 20
-3.856020
  0
VERTEX
  8
PLAN_1
  6
CONTINUOUS
 10
0.531760
 20
-3.879520
  0
VERTEX
  8
PLAN_1
  6
CONTINUOUS
 10
0.409150
 20
-4.031248
  0
VERTEX
  8
PLAN_1
  6
CONTINUOUS
 10
0.531760
 20
-4.031248
  0
VERTEX
  8
PLAN_1
  6
CONTINUOUS
 10
0.531760
 20
-4.055260
  0
SEQEND
  8
0
  0
POLYLINE
  8
PLAN_1
  6
CONTINUOUS
 66
     1
 40
0.003000
 41
0.003000
  0
VERTEX
  8
PLAN_1
  6
CONTINUOUS
 10
0.699327
 20
-3.915791
  0
VERTEX
  8
PLAN_1
  6
CONTINUOUS
 10
0.697795
 20
-3.909661
  0
VERTEX
  8
PLAN_1
  6
CONTINUOUS
 10
0.695748
 20
-3.904043
  0
VERTEX
  8
PLAN_1
  6
CONTINUOUS
 10
0.693197
 20
-3.898933
  0
VERTEX
  8
PLAN_1
  6
CONTINUOUS
 10
0.690130
 20
-3.894846
  0
VERTEX
  8
PLAN_1
  6
CONTINUOUS
 10
0.687063
 20
-3.890760
  0
VERTEX
  8
PLAN_1
  6
CONTINUOUS
 10
0.683488
 20
-3.887693
  0
VERTEX
  8
PLAN_1
  6
CONTINUOUS
 10
0.679913
 20
-3.884630
  0
VERTEX
  8
PLAN_1
  6
CONTINUOUS
 10
0.675827
 20
-3.882075
  0
VERTEX
  8
PLAN_1
  6
CONTINUOUS
 10
0.671740
 20
-3.880031
  0
VERTEX
  8
PLAN_1
  6
CONTINUOUS
 10
0.667654
 20
-3.878496
  0
VERTEX
  8
PLAN_1
  6
CONTINUOUS
 10
0.663563
 20
-3.876965
  0
VERTEX
  8
PLAN_1
  6
CONTINUOUS
 10
0.659476
 20
-3.875945
  0
VERTEX
  8
PLAN_1
  6
CONTINUOUS
 10
0.651303
 20
-3.874921
  0
VERTEX
  8
PLAN_1
  6
CONTINUOUS
 10
0.643642
 20
-3.874409
  0
VERTEX
  8
PLAN_1
  6
CONTINUOUS
 10
0.637000
 20
-3.874921
  0
VERTEX
  8
PLAN_1
  6
CONTINUOUS
 10
0.630358
 20
-3.875945
  0
VERTEX
  8
PLAN_1
  6
CONTINUOUS
 10
0.624228
 20
-3.877476
  0
VERTEX
  8
PLAN_1
  6
CONTINUOUS
 10
0.618098
 20
-3.879520
  0
VERTEX
  8
PLAN_1
  6
CONTINUOUS
 10
0.612476
 20
-3.882587
  0
VERTEX
  8
PLAN_1
  6
CONTINUOUS
 10
0.606858
 20
-3.885650
  0
VERTEX
  8
PLAN_1
  6
CONTINUOUS
 10
0.602260
 20
-3.889736
  0
VERTEX
  8
PLAN_1
  6
CONTINUOUS
 10
0.597661
 20
-3.894335
  0
VERTEX
  8
PLAN_1
  6
CONTINUOUS
 10
0.593063
 20
-3.899953
  0
VERTEX
  8
PLAN_1
  6
CONTINUOUS
 10
0.589488
 20
-3.905575
  0
VERTEX
  8
PLAN_1
  6
CONTINUOUS
 10
0.586421
 20
-3.912217
  0
VERTEX
  8
PLAN_1
  6
CONTINUOUS
 10
0.583358
 20
-3.919366
  0
VERTEX
  8
PLAN_1
  6
CONTINUOUS
 10
0.581315
 20
-3.927031
  0
VERTEX
  8
PLAN_1
  6
CONTINUOUS
 10
0.579780
 20
-3.935205
  0
VERTEX
  8
PLAN_1
  6
CONTINUOUS
 10
0.578760
 20
-3.944402
  0
VERTEX
  8
PLAN_1
  6
CONTINUOUS
 10
0.578248
 20
-3.953598
  0
VERTEX
  8
PLAN_1
  6
CONTINUOUS
 10
0.578760
 20
-3.962280
  0
VERTEX
  8
PLAN_1
  6
CONTINUOUS
 10
0.579272
 20
-3.970965
  0
VERTEX
  8
PLAN_1
  6
CONTINUOUS
 10
0.580291
 20
-3.978630
  0
VERTEX
  8
PLAN_1
  6
CONTINUOUS
 10
0.581823
 20
-3.986291
  0
VERTEX
  8
PLAN_1
  6
CONTINUOUS
 10
0.583870
 20
-3.993957
  0
VERTEX
  8
PLAN_1
  6
CONTINUOUS
 10
0.586421
 20
-4.000598
  0
VERTEX
  8
PLAN_1
  6
CONTINUOUS
 10
0.589488
 20
-4.006728
  0
VERTEX
  8
PLAN_1
  6
CONTINUOUS
 10
0.593063
 20
-4.012858
  0
VERTEX
  8
PLAN_1
  6
CONTINUOUS
 10
0.597150
 20
-4.017969
  0
VERTEX
  8
PLAN_1
  6
CONTINUOUS
 10
0.601748
 20
-4.022563
  0
VERTEX
  8
PLAN_1
  6
CONTINUOUS
 10
0.607370
 20
-4.026654
  0
VERTEX
  8
PLAN_1
  6
CONTINUOUS
 10
0.613500
 20
-4.030228
  0
VERTEX
  8
PLAN_1
  6
CONTINUOUS
 10
0.620142
 20
-4.033291
  0
VERTEX
  8
PLAN_1
  6
CONTINUOUS
 10
0.627291
 20
-4.034827
  0
VERTEX
  8
PLAN_1
  6
CONTINUOUS
 10
0.635469
 20
-4.036358
  0
VERTEX
  8
PLAN_1
  6
CONTINUOUS
 10
0.644661
 20
-4.036870
  0
VERTEX
  8
PLAN_1
  6
CONTINUOUS
 10
0.651303
 20
-4.036358
  0
VERTEX
  8
PLAN_1
  6
CONTINUOUS
 10
0.659476
 20
-4.034827
  0
VERTEX
  8
PLAN_1
  6
CONTINUOUS
 10
0.663563
 20
-4.033291
  0
VERTEX
  8
PLAN_1
  6
CONTINUOUS
 10
0.667654
 20
-4.031760
  0
VERTEX
  8
PLAN_1
  6
CONTINUOUS
 10
0.671740
 20
-4.029205
  0
VERTEX
  8
PLAN_1
  6
CONTINUOUS
 10
0.675827
 20
-4.026654
  0
VERTEX
  8
PLAN_1
  6
CONTINUOUS
 10
0.679913
 20
-4.023587
  0
VERTEX
  8
PLAN_1
  6
CONTINUOUS
 10
0.684000
 20
-4.019500
  0
VERTEX
  8
PLAN_1
  6
CONTINUOUS
 10
0.687575
 20
-4.015413
  0
VERTEX
  8
PLAN_1
  6
CONTINUOUS
 10
0.691154
 20
-4.010303
  0
VERTEX
  8
PLAN_1
  6
CONTINUOUS
 10
0.694217
 20
-4.004173
  0
VERTEX
  8
PLAN_1
  6
CONTINUOUS
 10
0.696772
 20
-3.997531
  0
VERTEX
  8
PLAN_1
  6
CONTINUOUS
 10
0.699327
 20
-3.990378
  0
VERTEX
  8
PLAN_1
  6
CONTINUOUS
 10
0.701370
 20
-3.982205
  0
VERTEX
  8
PLAN_1
  6
CONTINUOUS
 10
0.727425
 20
-3.982205
  0
VERTEX
  8
PLAN_1
  6
CONTINUOUS
 10
0.726402
 20
-3.988846
  0
VERTEX
  8
PLAN_1
  6
CONTINUOUS
 10
0.724870
 20
-3.995488
  0
VERTEX
  8
PLAN_1
  6
CONTINUOUS
 10
0.722827
 20
-4.001106
  0
VERTEX
  8
PLAN_1
  6
CONTINUOUS
 10
0.721295
 20
-4.007240
  0
VERTEX
  8
PLAN_1
  6
CONTINUOUS
 10
0.718740
 20
-4.012346
  0
VERTEX
  8
PLAN_1
  6
CONTINUOUS
 10
0.716697
 20
-4.017457
  0
VERTEX
  8
PLAN_1
  6
CONTINUOUS
 10
0.714142
 20
-4.021543
  0
VERTEX
  8
PLAN_1
  6
CONTINUOUS
 10
0.711075
 20
-4.026142
  0
VERTEX
  8
PLAN_1
  6
CONTINUOUS
 10
0.708524
 20
-4.029717
  0
VERTEX
  8
PLAN_1
  6
CONTINUOUS
 10
0.705457
 20
-4.033803
  0
VERTEX
  8
PLAN_1
  6
CONTINUOUS
 10
0.702390
 20
-4.036870
  0
VERTEX
  8
PLAN_1
  6
CONTINUOUS
 10
0.698815
 20
-4.039933
  0
VERTEX
  8
PLAN_1
  6
CONTINUOUS
 10
0.692173
 20
-4.045043
  0
VERTEX
  8
PLAN_1
  6
CONTINUOUS
 10
0.685531
 20
-4.049642
  0
VERTEX
  8
PLAN_1
  6
CONTINUOUS
 10
0.678382
 20
-4.052705
  0
VERTEX
  8
PLAN_1
  6
CONTINUOUS
 10
0.671740
 20
-4.055772
  0
VERTEX
  8
PLAN_1
  6
CONTINUOUS
 10
0.665098
 20
-4.057303
  0
VERTEX
  8
PLAN_1
  6
CONTINUOUS
 10
0.658457
 20
-4.058839
  0
VERTEX
  8
PLAN_1
  6
CONTINUOUS
 10
0.647728
 20
-4.060370
  0
VERTEX
  8
PLAN_1
  6
CONTINUOUS
 10
0.640063
 20
-4.060370
  0
VERTEX
  8
PLAN_1
  6
CONTINUOUS
 10
0.631890
 20
-4.060370
  0
VERTEX
  8
PLAN_1
  6
CONTINUOUS
 10
0.623205
 20
-4.059346
  0
VERTEX
  8
PLAN_1
  6
CONTINUOUS
 10
0.615031
 20
-4.057303
  0
VERTEX
  8
PLAN_1
  6
CONTINUOUS
 10
0.607370
 20
-4.054748
  0
VERTEX
  8
PLAN_1
  6
CONTINUOUS
 10
0.599193
 20
-4.051173
  0
VERTEX
  8
PLAN_1
  6
CONTINUOUS
 10
0.592043
 20
-4.047087
  0
VERTEX
  8
PLAN_1
  6
CONTINUOUS
 10
0.584890
 20
-4.041976
  0
VERTEX
  8
PLAN_1
  6
CONTINUOUS
 10
0.578248
 20
-4.036358
  0
VERTEX
  8
PLAN_1
  6
CONTINUOUS
 10
0.575185
 20
-4.032783
  0
VERTEX
  8
PLAN_1
  6
CONTINUOUS
 10
0.572630
 20
-4.029717
  0
VERTEX
  8
PLAN_1
  6
CONTINUOUS
 10
0.569563
 20
-4.025630
  0
VERTEX
  8
PLAN_1
  6
CONTINUOUS
 10
0.567008
 20
-4.021543
  0
VERTEX
  8
PLAN_1
  6
CONTINUOUS
 10
0.564457
 20
-4.017457
  0
VERTEX
  8
PLAN_1
  6
CONTINUOUS
 10
0.562413
 20
-4.012858
  0
VERTEX
  8
PLAN_1
  6
CONTINUOUS
 10
0.560366
 20
-4.008260
  0
VERTEX
  8
PLAN_1
  6
CONTINUOUS
 10
0.558323
 20
-4.003661
  0
VERTEX
  8
PLAN_1
  6
CONTINUOUS
 10
0.556280
 20
-3.998043
  0
VERTEX
  8
PLAN_1
  6
CONTINUOUS
 10
0.555260
 20
-3.992933
  0
VERTEX
  8
PLAN_1
  6
CONTINUOUS
 10
0.553728
 20
-3.987315
  0
VERTEX
  8
PLAN_1
  6
CONTINUOUS
 10
0.552705
 20
-3.981185
  0
VERTEX
  8
PLAN_1
  6
CONTINUOUS
 10
0.551681
 20
-3.975055
  0
VERTEX
  8
PLAN_1
  6
CONTINUOUS
 10
0.551173
 20
-3.968413
  0
VERTEX
  8
PLAN_1
  6
CONTINUOUS
 10
0.550661
 20
-3.961772
  0
VERTEX
  8
PLAN_1
  6
CONTINUOUS
 10
0.550661
 20
-3.954618
  0
VERTEX
  8
PLAN_1
  6
CONTINUOUS
 10
0.551173
 20
-3.943378
  0
VERTEX
  8
PLAN_1
  6
CONTINUOUS
 10
0.552193
 20
-3.932650
  0
VERTEX
  8
PLAN_1
  6
CONTINUOUS
 10
0.554236
 20
-3.922433
  0
VERTEX
  8
PLAN_1
  6
CONTINUOUS
 10
0.556791
 20
-3.912217
  0
VERTEX
  8
PLAN_1
  6
CONTINUOUS
 10
0.560366
 20
-3.903531
  0
VERTEX
  8
PLAN_1
  6
CONTINUOUS
 10
0.564965
 20
-3.894846
  0
VERTEX
  8
PLAN_1
  6
CONTINUOUS
 10
0.569563
 20
-3.886673
  0
VERTEX
  8
PLAN_1
  6
CONTINUOUS
 10
0.575185
 20
-3.879520
  0
VERTEX
  8
PLAN_1
  6
CONTINUOUS
 10
0.581823
 20
-3.873390
  0
VERTEX
  8
PLAN_1
  6
CONTINUOUS
 10
0.588465
 20
-3.867260
  0
VERTEX
  8
PLAN_1
  6
CONTINUOUS
 10
0.596130
 20
-3.862661
  0
VERTEX
  8
PLAN_1
  6
CONTINUOUS
 10
0.604815
 20
-3.858575
  0
VERTEX
  8
PLAN_1
  6
CONTINUOUS
 10
0.613500
 20
-3.854996
  0
VERTEX
  8
PLAN_1
  6
CONTINUOUS
 10
0.623205
 20
-3.852445
  0
VERTEX
  8
PLAN_1
  6
CONTINUOUS
 10
0.632913
 20
-3.851421
  0
VERTEX
  8
PLAN_1
  6
CONTINUOUS
 10
0.643642
 20
-3.850909
  0
VERTEX
  8
PLAN_1
  6
CONTINUOUS
 10
0.652835
 20
-3.850909
  0
VERTEX
  8
PLAN_1
  6
CONTINUOUS
 10
0.661520
 20
-3.851933
  0
VERTEX
  8
PLAN_1
  6
CONTINUOUS
 10
0.669697
 20
-3.853976
  0
VERTEX
  8
PLAN_1
  6
CONTINUOUS
 10
0.677358
 20
-3.856020
  0
VERTEX
  8
PLAN_1
  6
CONTINUOUS
 10
0.684512
 20
-3.859087
  0
VERTEX
  8
PLAN_1
  6
CONTINUOUS
 10
0.691154
 20
-3.862661
  0
VERTEX
  8
PLAN_1
  6
CONTINUOUS
 10
0.696772
 20
-3.866748
  0
VERTEX
  8
PLAN_1
  6
CONTINUOUS
 10
0.702390
 20
-3.870835
  0
VERTEX
  8
PLAN_1
  6
CONTINUOUS
 10
0.706988
 20
-3.875433
  0
VERTEX
  8
PLAN_1
  6
CONTINUOUS
 10
0.711587
 20
-3.880543
  0
VERTEX
  8
PLAN_1
  6
CONTINUOUS
 10
0.715161
 20
-3.886161
  0
VERTEX
  8
PLAN_1
  6
CONTINUOUS
 10
0.718228
 20
-3.891780
  0
VERTEX
  8
PLAN_1
  6
CONTINUOUS
 10
0.720783
 20
-3.897402
  0
VERTEX
  8
PLAN_1
  6
CONTINUOUS
 10
0.722827
 20
-3.903531
  0
VERTEX
  8
PLAN_1
  6
CONTINUOUS
 10
0.724358
 20
-3.909661
  0
VERTEX
  8
PLAN_1
  6
CONTINUOUS
 10
0.725382
 20
-3.915791
  0
VERTEX
  8
PLAN_1
  6
CONTINUOUS
 10
0.699327
 20
-3.915791
  0
SEQEND
  8
0
  0
POLYLINE
  8
PLAN_1
  6
CONTINUOUS
 66
     1
 40
0.003000
 41
0.003000
  0
VERTEX
  8
PLAN_1
  6
CONTINUOUS
 10
0.786685
 20
-4.055260
  0
VERTEX
  8
PLAN_1
  6
CONTINUOUS
 10
0.760118
 20
-4.055260
  0
VERTEX
  8
PLAN_1
  6
CONTINUOUS
 10
0.760118
 20
-3.856020
  0
VERTEX
  8
PLAN_1
  6
CONTINUOUS
 10
0.786685
 20
-3.856020
  0
VERTEX
  8
PLAN_1
  6
CONTINUOUS
 10
0.786685
 20
-3.952575
  0
VERTEX
  8
PLAN_1
  6
CONTINUOUS
 10
0.883752
 20
-3.856020
  0
VERTEX
  8
PLAN_1
  6
CONTINUOUS
 10
0.920535
 20
-3.856020
  0
VERTEX
  8
PLAN_1
  6
CONTINUOUS
 10
0.837772
 20
-3.936736
  0
VERTEX
  8
PLAN_1
  6
CONTINUOUS
 10
0.923091
 20
-4.055260
  0
VERTEX
  8
PLAN_1
  6
CONTINUOUS
 10
0.887839
 20
-4.055260
  0
VERTEX
  8
PLAN_1
  6
CONTINUOUS
 10
0.818358
 20
-3.955130
  0
VERTEX
  8
PLAN_1
  6
CONTINUOUS
 10
0.786685
 20
-3.985272
  0
VERTEX
  8
PLAN_1
  6
CONTINUOUS
 10
0.786685
 20
-4.055260
  0
SEQEND
  8
0
  0
POLYLINE
  8
PLAN_1
  6
CONTINUOUS
 66
     1
 40
0.003000
 41
0.003000
  0
VERTEX
  8
PLAN_1
  6
CONTINUOUS
 10
0.946591
 20
-3.856020
  0
VERTEX
  8
PLAN_1
  6
CONTINUOUS
 10
1.027307
 20
-3.856020
  0
VERTEX
  8
PLAN_1
  6
CONTINUOUS
 10
1.037016
 20
-3.856531
  0
VERTEX
  8
PLAN_1
  6
CONTINUOUS
 10
1.045701
 20
-3.858063
  0
VERTEX
  8
PLAN_1
  6
CONTINUOUS
 10
1.054386
 20
-3.860106
  0
VERTEX
  8
PLAN_1
  6
CONTINUOUS
 10
1.062559
 20
-3.863173
  0
VERTEX
  8
PLAN_1
  6
CONTINUOUS
 10
1.069709
 20
-3.866748
  0
VERTEX
  8
PLAN_1
  6
CONTINUOUS
 10
1.076862
 20
-3.871346
  0
VERTEX
  8
PLAN_1
  6
CONTINUOUS
 10
1.082992
 20
-3.876965
  0
VERTEX
  8
PLAN_1
  6
CONTINUOUS
 10
1.088614
 20
-3.883094
  0
VERTEX
  8
PLAN_1
  6
CONTINUOUS
 10
1.093720
 20
-3.889736
  0
VERTEX
  8
PLAN_1
  6
CONTINUOUS
 10
1.098319
 20
-3.896890
  0
VERTEX
  8
PLAN_1
  6
CONTINUOUS
 10
1.102406
 20
-3.905063
  0
VERTEX
  8
PLAN_1
  6
CONTINUOUS
 10
1.105472
 20
-3.913748
  0
VERTEX
  8
PLAN_1
  6
CONTINUOUS
 10
1.108028
 20
-3.922433
  0
VERTEX
  8
PLAN_1
  6
CONTINUOUS
 10
1.109559
 20
-3.932142
  0
VERTEX
  8
PLAN_1
  6
CONTINUOUS
 10
1.111091
 20
-3.942358
  0
VERTEX
  8
PLAN_1
  6
CONTINUOUS
 10
1.111091
 20
-3.953087
  0
VERTEX
  8
PLAN_1
  6
CONTINUOUS
 10
1.111091
 20
-3.961260
  0
VERTEX
  8
PLAN_1
  6
CONTINUOUS
 10
1.110071
 20
-3.969945
  0
VERTEX
  8
PLAN_1
  6
CONTINUOUS
 10
1.109047
 20
-3.979142
  0
VERTEX
  8
PLAN_1
  6
CONTINUOUS
 10
1.107004
 20
-3.987827
  0
VERTEX
  8
PLAN_1
  6
CONTINUOUS
 10
1.104961
 20
-3.996512
  0
VERTEX
  8
PLAN_1
  6
CONTINUOUS
 10
1.101894
 20
-4.004685
  0
VERTEX
  8
PLAN_1
  6
CONTINUOUS
 10
1.097807
 20
-4.012858
  0
VERTEX
  8
PLAN_1
  6
CONTINUOUS
 10
1.093209
 20
-4.021031
  0
VERTEX
  8
PLAN_1
  6
CONTINUOUS
 10
1.088102
 20
-4.028185
  0
VERTEX
  8
PLAN_1
  6
CONTINUOUS
 10
1.081972
 20
-4.034827
  0
VERTEX
  8
PLAN_1
  6
CONTINUOUS
 10
1.078394
 20
-4.037890
  0
VERTEX
  8
PLAN_1
  6
CONTINUOUS
 10
1.074819
 20
-4.040445
  0
VERTEX
  8
PLAN_1
  6
CONTINUOUS
 10
1.071244
 20
-4.043000
  0
VERTEX
  8
PLAN_1
  6
CONTINUOUS
 10
1.067157
 20
-4.045555
  0
VERTEX
  8
PLAN_1
  6
CONTINUOUS
 10
1.063071
 20
-4.047598
  0
VERTEX
  8
PLAN_1
  6
CONTINUOUS
 10
1.058472
 20
-4.049642
  0
VERTEX
  8
PLAN_1
  6
CONTINUOUS
 10
1.053874
 20
-4.051173
  0
VERTEX
  8
PLAN_1
  6
CONTINUOUS
 10
1.048764
 20
-4.052705
  0
VERTEX
  8
PLAN_1
  6
CONTINUOUS
 10
1.043657
 20
-4.053728
  0
VERTEX
  8
PLAN_1
  6
CONTINUOUS
 10
1.038035
 20
-4.054748
  0
VERTEX
  8
PLAN_1
  6
CONTINUOUS
 10
1.032417
 20
-4.055260
  0
VERTEX
  8
PLAN_1
  6
CONTINUOUS
 10
1.026287
 20
-4.055260
  0
VERTEX
  8
PLAN_1
  6
CONTINUOUS
 10
0.946591
 20
-4.055260
  0
VERTEX
  8
PLAN_1
  6
CONTINUOUS
 10
0.946591
 20
-3.856020
  0
SEQEND
  8
0
  0
POLYLINE
  8
PLAN_1
  6
CONTINUOUS
 66
     1
 40
0.003000
 41
0.003000
  0
VERTEX
  8
PLAN_1
  6
CONTINUOUS
 10
0.973665
 20
-4.032272
  0
VERTEX
  8
PLAN_1
  6
CONTINUOUS
 10
1.025776
 20
-4.032272
  0
VERTEX
  8
PLAN_1
  6
CONTINUOUS
 10
1.032417
 20
-4.031760
  0
VERTEX
  8
PLAN_1
  6
CONTINUOUS
 10
1.038035
 20
-4.030740
  0
VERTEX
  8
PLAN_1
  6
CONTINUOUS
 10
1.044165
 20
-4.029205
  0
VERTEX
  8
PLAN_1
  6
CONTINUOUS
 10
1.049787
 20
-4.027161
  0
VERTEX
  8
PLAN_1
  6
CONTINUOUS
 10
1.054894
 20
-4.024606
  0
VERTEX
  8
PLAN_1
  6
CONTINUOUS
 10
1.059492
 20
-4.021031
  0
VERTEX
  8
PLAN_1
  6
CONTINUOUS
 10
1.063579
 20
-4.016945
  0
VERTEX
  8
PLAN_1
  6
CONTINUOUS
 10
1.067665
 20
-4.012346
  0
VERTEX
  8
PLAN_1
  6
CONTINUOUS
 10
1.071244
 20
-4.007240
  0
VERTEX
  8
PLAN_1
  6
CONTINUOUS
 10
1.074307
 20
-4.001106
  0
VERTEX
  8
PLAN_1
  6
CONTINUOUS
 10
1.077374
 20
-3.994976
  0
VERTEX
  8
PLAN_1
  6
CONTINUOUS
 10
1.079417
 20
-3.987827
  0
VERTEX
  8
PLAN_1
  6
CONTINUOUS
 10
1.080949
 20
-3.980161
  0
VERTEX
  8
PLAN_1
  6
CONTINUOUS
 10
1.082480
 20
-3.972500
  0
VERTEX
  8
PLAN_1
  6
CONTINUOUS
 10
1.082992
 20
-3.963815
  0
VERTEX
  8
PLAN_1
  6
CONTINUOUS
 10
1.083504
 20
-3.954618
  0
VERTEX
  8
PLAN_1
  6
CONTINUOUS
 10
1.082992
 20
-3.945421
  0
VERTEX
  8
PLAN_1
  6
CONTINUOUS
 10
1.082480
 20
-3.936736
  0
VERTEX
  8
PLAN_1
  6
CONTINUOUS
 10
1.080949
 20
-3.929075
  0
VERTEX
  8
PLAN_1
  6
CONTINUOUS
 10
1.079417
 20
-3.921413
  0
VERTEX
  8
PLAN_1
  6
CONTINUOUS
 10
1.076862
 20
-3.914772
  0
VERTEX
  8
PLAN_1
  6
CONTINUOUS
 10
1.074307
 20
-3.908638
  0
VERTEX
  8
PLAN_1
  6
CONTINUOUS
 10
1.071244
 20
-3.903020
  0
VERTEX
  8
PLAN_1
  6
CONTINUOUS
 10
1.067157
 20
-3.897909
  0
VERTEX
  8
PLAN_1
  6
CONTINUOUS
 10
1.063071
 20
-3.893315
  0
VERTEX
  8
PLAN_1
  6
CONTINUOUS
 10
1.058980
 20
-3.889736
  0
VERTEX
  8
PLAN_1
  6
CONTINUOUS
 10
1.053874
 20
-3.886673
  0
VERTEX
  8
PLAN_1
  6
CONTINUOUS
 10
1.048764
 20
-3.883606
  0
VERTEX
  8
PLAN_1
  6
CONTINUOUS
 10
1.043146
 20
-3.881563
  0
VERTEX
  8
PLAN_1
  6
CONTINUOUS
 10
1.037016
 20
-3.880031
  0
VERTEX
  8
PLAN_1
  6
CONTINUOUS
 10
1.030374
 20
-3.879520
  0
VERTEX
  8
PLAN_1
  6
CONTINUOUS
 10
1.023732
 20
-3.879008
  0
VERTEX
  8
PLAN_1
  6
CONTINUOUS
 10
0.973665
 20
-3.879008
  0
VERTEX
  8
PLAN_1
  6
CONTINUOUS
 10
0.973665
 20
-4.032272
  0
SEQEND
  8
0
  0
POLYLINE
  8
PLAN_1
  6
CONTINUOUS
 66
     1
 40
0.003000
 41
0.003000
  0
VERTEX
  8
PLAN_1
  6
CONTINUOUS
 10
1.236256
 20
-3.951551
  0
VERTEX
  8
PLAN_1
  6
CONTINUOUS
 10
1.240854
 20
-3.953598
  0
VERTEX
  8
PLAN_1
  6
CONTINUOUS
 10
1.245453
 20
-3.956150
  0
VERTEX
  8
PLAN_1
  6
CONTINUOUS
 10
1.249028
 20
-3.958705
  0
VERTEX
  8
PLAN_1
  6
CONTINUOUS
 10
1.252602
 20
-3.961772
  0
VERTEX
  8
PLAN_1
  6
CONTINUOUS
 10
1.255157
 20
-3.964327
  0
VERTEX
  8
PLAN_1
  6
CONTINUOUS
 10
1.257713
 20
-3.967390
  0
VERTEX
  8
PLAN_1
  6
CONTINUOUS
 10
1.260268
 20
-3.970457
  0
VERTEX
  8
PLAN_1
  6
CONTINUOUS
 10
1.262311
 20
-3.974031
  0
VERTEX
  8
PLAN_1
  6
CONTINUOUS
 10
1.264866
 20
-3.980161
  0
VERTEX
  8
PLAN_1
  6
CONTINUOUS
 10
1.266909
 20
-3.986803
  0
VERTEX
  8
PLAN_1
  6
CONTINUOUS
 10
1.267929
 20
-3.992933
  0
VERTEX
  8
PLAN_1
  6
CONTINUOUS
 10
1.268441
 20
-3.999063
  0
VERTEX
  8
PLAN_1
  6
CONTINUOUS
 10
1.267929
 20
-4.004685
  0
VERTEX
  8
PLAN_1
  6
CONTINUOUS
 10
1.267417
 20
-4.010815
  0
VERTEX
  8
PLAN_1
  6
CONTINUOUS
 10
1.265886
 20
-4.016433
  0
VERTEX
  8
PLAN_1
  6
CONTINUOUS
 10
1.264354
 20
-4.022055
  0
VERTEX
  8
PLAN_1
  6
CONTINUOUS
 10
1.262311
 20
-4.027161
  0
VERTEX
  8
PLAN_1
  6
CONTINUOUS
 10
1.259244
 20
-4.032272
  0
VERTEX
  8
PLAN_1
  6
CONTINUOUS
 10
1.256181
 20
-4.036870
  0
VERTEX
  8
PLAN_1
  6
CONTINUOUS
 10
1.252602
 20
-4.041469
  0
VERTEX
  8
PLAN_1
  6
CONTINUOUS
 10
1.248004
 20
-4.045555
  0
VERTEX
  8
PLAN_1
  6
CONTINUOUS
 10
1.243409
 20
-4.049130
  0
VERTEX
  8
PLAN_1
  6
CONTINUOUS
 10
1.237787
 20
-4.052705
  0
VERTEX
  8
PLAN_1
  6
CONTINUOUS
 10
1.231657
 20
-4.055260
  0
VERTEX
  8
PLAN_1
  6
CONTINUOUS
 10
1.225528
 20
-4.057815
  0
VERTEX
  8
PLAN_1
  6
CONTINUOUS
 10
1.218374
 20
-4.059346
  0
VERTEX
  8
PLAN_1
  6
CONTINUOUS
 10
1.210201
 20
-4.060370
  0
VERTEX
  8
PLAN_1
  6
CONTINUOUS
 10
1.202028
 20
-4.060370
  0
VERTEX
  8
PLAN_1
  6
CONTINUOUS
 10
1.197429
 20
-4.060370
  0
VERTEX
  8
PLAN_1
  6
CONTINUOUS
 10
1.192319
 20
-4.059858
  0
VERTEX
  8
PLAN_1
  6
CONTINUOUS
 10
1.186701
 20
-4.058839
  0
VERTEX
  8
PLAN_1
  6
CONTINUOUS
 10
1.180571
 20
-4.057815
  0
VERTEX
  8
PLAN_1
  6
CONTINUOUS
 10
1.173929
 20
-4.055772
  0
VERTEX
  8
PLAN_1
  6
CONTINUOUS
 10
1.167799
 20
-4.053217
  0
VERTEX
  8
PLAN_1
  6
CONTINUOUS
 10
1.161157
 20
-4.049642
  0
VERTEX
  8
PLAN_1
  6
CONTINUOUS
 10
1.155028
 20
-4.045555
  0
VERTEX
  8
PLAN_1
  6
CONTINUOUS
 10
1.151449
 20
-4.042488
  0
VERTEX
  8
PLAN_1
  6
CONTINUOUS
 10
1.148386
 20
-4.039425
  0
VERTEX
  8
PLAN_1
  6
CONTINUOUS
 10
1.145831
 20
-4.036358
  0
VERTEX
  8
PLAN_1
  6
CONTINUOUS
 10
1.143787
 20
-4.032783
  0
VERTEX
  8
PLAN_1
  6
CONTINUOUS
 10
1.141744
 20
-4.029717
  0
VERTEX
  8
PLAN_1
  6
CONTINUOUS
 10
1.140213
 20
-4.026654
  0
VERTEX
  8
PLAN_1
  6
CONTINUOUS
 10
1.138677
 20
-4.023075
  0
VERTEX
  8
PLAN_1
  6
CONTINUOUS
 10
1.137657
 20
-4.020012
  0
VERTEX
  8
PLAN_1
  6
CONTINUOUS
 10
1.136126
 20
-4.013878
  0
VERTEX
  8
PLAN_1
  6
CONTINUOUS
 10
1.135614
 20
-4.008260
  0
VERTEX
  8
PLAN_1
  6
CONTINUOUS
 10
1.135102
 20
-4.003150
  0
VERTEX
  8
PLAN_1
  6
CONTINUOUS
 10
1.135102
 20
-3.999063
  0
VERTEX
  8
PLAN_1
  6
CONTINUOUS
 10
1.135614
 20
-3.994976
  0
VERTEX
  8
PLAN_1
  6
CONTINUOUS
 10
1.135614
 20
-3.990890
  0
VERTEX
  8
PLAN_1
  6
CONTINUOUS
 10
1.136634
 20
-3.986803
  0
VERTEX
  8
PLAN_1
  6
CONTINUOUS
 10
1.137657
 20
-3.982717
  0
VERTEX
  8
PLAN_1
  6
CONTINUOUS
 10
1.138677
 20
-3.979142
  0
VERTEX
  8
PLAN_1
  6
CONTINUOUS
 10
1.140213
 20
-3.976075
  0
VERTEX
  8
PLAN_1
  6
CONTINUOUS
 10
1.142256
 20
-3.972500
  0
VERTEX
  8
PLAN_1
  6
CONTINUOUS
 10
1.143787
 20
-3.969433
  0
VERTEX
  8
PLAN_1
  6
CONTINUOUS
 10
1.146343
 20
-3.966878
  0
VERTEX
  8
PLAN_1
  6
CONTINUOUS
 10
1.148898
 20
-3.964327
  0
VERTEX
  8
PLAN_1
  6
CONTINUOUS
 10
1.151449
 20
-3.961772
  0
VERTEX
  8
PLAN_1
  6
CONTINUOUS
 10
1.154516
 20
-3.959217
  0
VERTEX
  8
PLAN_1
  6
CONTINUOUS
 10
1.161157
 20
-3.955130
  0
VERTEX
  8
PLAN_1
  6
CONTINUOUS
 10
1.168311
 20
-3.951551
  0
VERTEX
  8
PLAN_1
  6
CONTINUOUS
 10
1.162177
 20
-3.949000
  0
VERTEX
  8
PLAN_1
  6
CONTINUOUS
 10
1.157071
 20
-3.945933
  0
VERTEX
  8
PLAN_1
  6
CONTINUOUS
 10
1.152472
 20
-3.941846
  0
VERTEX
  8
PLAN_1
  6
CONTINUOUS
 10
1.148898
 20
-3.937248
  0
VERTEX
  8
PLAN_1
  6
CONTINUOUS
 10
1.145831
 20
-3.932142
  0
VERTEX
  8
PLAN_1
  6
CONTINUOUS
 10
1.143787
 20
-3.926520
  0
VERTEX
  8
PLAN_1
  6
CONTINUOUS
 10
1.142256
 20
-3.920390
  0
VERTEX
  8
PLAN_1
  6
CONTINUOUS
 10
1.141744
 20
-3.913748
  0
VERTEX
  8
PLAN_1
  6
CONTINUOUS
 10
1.142256
 20
-3.909661
  0
VERTEX
  8
PLAN_1
  6
CONTINUOUS
 10
1.142256
 20
-3.905575
  0
VERTEX
  8
PLAN_1
  6
CONTINUOUS
 10
1.143276
 20
-3.901488
  0
VERTEX
  8
PLAN_1
  6
CONTINUOUS
 10
1.144807
 20
-3.896890
  0
VERTEX
  8
PLAN_1
  6
CONTINUOUS
 10
1.146343
 20
-3.892291
  0
VERTEX
  8
PLAN_1
  6
CONTINUOUS
 10
1.148386
 20
-3.887693
  0
VERTEX
  8
PLAN_1
  6
CONTINUOUS
 10
1.150941
 20
-3.883606
  0
VERTEX
  8
PLAN_1
  6
CONTINUOUS
 10
1.154004
 20
-3.879520
  0
VERTEX
  8
PLAN_1
  6
CONTINUOUS
 10
1.157583
 20
-3.875433
  0
VERTEX
  8
PLAN_1
  6
CONTINUOUS
 10
1.161669
 20
-3.871858
  0
VERTEX
  8
PLAN_1
  6
CONTINUOUS
 10
1.166776
 20
-3.868280
  0
VERTEX
  8
PLAN_1
  6
CONTINUOUS
 10
1.171886
 20
-3.865724
  0
VERTEX
  8
PLAN_1
  6
CONTINUOUS
 10
1.178016
 20
-3.863173
  0
VERTEX
  8
PLAN_1
  6
CONTINUOUS
 10
1.185169
 20
-3.861638
  0
VERTEX
  8
PLAN_1
  6
CONTINUOUS
 10
1.192831
 20
-3.860618
  0
VERTEX
  8
PLAN_1
  6
CONTINUOUS
 10
1.201004
 20
-3.860106
  0
VERTEX
  8
PLAN_1
  6
CONTINUOUS
 10
1.208669
 20
-3.860618
  0
VERTEX
  8
PLAN_1
  6
CONTINUOUS
 10
1.215819
 20
-3.861638
  0
VERTEX
  8
PLAN_1
  6
CONTINUOUS
 10
1.222461
 20
-3.862661
  0
VERTEX
  8
PLAN_1
  6
CONTINUOUS
 10
1.228591
 20
-3.864705
  0
VERTEX
  8
PLAN_1
  6
CONTINUOUS
 10
1.234213
 20
-3.867260
  0
VERTEX
  8
PLAN_1
  6
CONTINUOUS
 10
1.239319
 20
-3.869815
  0
VERTEX
  8
PLAN_1
  6
CONTINUOUS
 10
1.243409
 20
-3.873390
  0
VERTEX
  8
PLAN_1
  6
CONTINUOUS
 10
1.247496
 20
-3.876965
  0
VERTEX
  8
PLAN_1
  6
CONTINUOUS
 10
1.250559
 20
-3.880543
  0
VERTEX
  8
PLAN_1
  6
CONTINUOUS
 10
1.253626
 20
-3.884630
  0
VERTEX
  8
PLAN_1
  6
CONTINUOUS
 10
1.256181
 20
-3.888717
  0
VERTEX
  8
PLAN_1
  6
CONTINUOUS
 10
1.257713
 20
-3.892803
  0
VERTEX
  8
PLAN_1
  6
CONTINUOUS
 10
1.259244
 20
-3.897402
  0
VERTEX
  8
PLAN_1
  6
CONTINUOUS
 10
1.260268
 20
-3.901488
  0
VERTEX
  8
PLAN_1
  6
CONTINUOUS
 10
1.261287
 20
-3.906087
  0
VERTEX
  8
PLAN_1
  6
CONTINUOUS
 10
1.261287
 20
-3.910173
  0
VERTEX
  8
PLAN_1
  6
CONTINUOUS
 10
1.261287
 20
-3.915280
  0
VERTEX
  8
PLAN_1
  6
CONTINUOUS
 10
1.260268
 20
-3.919878
  0
VERTEX
  8
PLAN_1
  6
CONTINUOUS
 10
1.259756
 20
-3.924476
  0
VERTEX
  8
PLAN_1
  6
CONTINUOUS
 10
1.258732
 20
-3.928051
  0
VERTEX
  8
PLAN_1
  6
CONTINUOUS
 10
1.257201
 20
-3.931630
  0
VERTEX
  8
PLAN_1
  6
CONTINUOUS
 10
1.255669
 20
-3.934693
  0
VERTEX
  8
PLAN_1
  6
CONTINUOUS
 10
1.253626
 20
-3.937248
  0
VERTEX
  8
PLAN_1
  6
CONTINUOUS
 10
1.252094
 20
-3.939803
  0
VERTEX
  8
PLAN_1
  6
CONTINUOUS
 10
1.248004
 20
-3.943890
  0
VERTEX
  8
PLAN_1
  6
CONTINUOUS
 10
1.243917
 20
-3.946957
  0
VERTEX
  8
PLAN_1
  6
CONTINUOUS
 10
1.239831
 20
-3.949508
  0
VERTEX
  8
PLAN_1
  6
CONTINUOUS
 10
1.236256
 20
-3.951551
  0
SEQEND
  8
0
  0
POLYLINE
  8
PLAN_1
  6
CONTINUOUS
 66
     1
 40
0.003000
 41
0.003000
  0
VERTEX
  8
PLAN_1
  6
CONTINUOUS
 10
1.161157
 20
-3.999575
  0
VERTEX
  8
PLAN_1
  6
CONTINUOUS
 10
1.161669
 20
-4.005705
  0
VERTEX
  8
PLAN_1
  6
CONTINUOUS
 10
1.163201
 20
-4.012346
  0
VERTEX
  8
PLAN_1
  6
CONTINUOUS
 10
1.164220
 20
-4.015925
  0
VERTEX
  8
PLAN_1
  6
CONTINUOUS
 10
1.165756
 20
-4.018988
  0
VERTEX
  8
PLAN_1
  6
CONTINUOUS
 10
1.167287
 20
-4.022055
  0
VERTEX
  8
PLAN_1
  6
CONTINUOUS
 10
1.169331
 20
-4.025118
  0
VERTEX
  8
PLAN_1
  6
CONTINUOUS
 10
1.171886
 20
-4.027673
  0
VERTEX
  8
PLAN_1
  6
CONTINUOUS
 10
1.174949
 20
-4.030228
  0
VERTEX
  8
PLAN_1
  6
CONTINUOUS
 10
1.178528
 20
-4.032783
  0
VERTEX
  8
PLAN_1
  6
CONTINUOUS
 10
1.182102
 20
-4.034827
  0
VERTEX
  8
PLAN_1
  6
CONTINUOUS
 10
1.186701
 20
-4.036358
  0
VERTEX
  8
PLAN_1
  6
CONTINUOUS
 10
1.191299
 20
-4.037382
  0
VERTEX
  8
PLAN_1
  6
CONTINUOUS
 10
1.196917
 20
-4.038402
  0
VERTEX
  8
PLAN_1
  6
CONTINUOUS
 10
1.203047
 20
-4.038402
  0
VERTEX
  8
PLAN_1
  6
CONTINUOUS
 10
1.209689
 20
-4.038402
  0
VERTEX
  8
PLAN_1
  6
CONTINUOUS
 10
1.216331
 20
-4.037382
  0
VERTEX
  8
PLAN_1
  6
CONTINUOUS
 10
1.219909
 20
-4.036358
  0
VERTEX
  8
PLAN_1
  6
CONTINUOUS
 10
1.222972
 20
-4.034827
  0
VERTEX
  8
PLAN_1
  6
CONTINUOUS
 10
1.226039
 20
-4.033291
  0
VERTEX
  8
PLAN_1
  6
CONTINUOUS
 10
1.229102
 20
-4.031760
  0
VERTEX
  8
PLAN_1
  6
CONTINUOUS
 10
1.231657
 20
-4.029205
  0
VERTEX
  8
PLAN_1
  6
CONTINUOUS
 10
1.234213
 20
-4.026654
  0
VERTEX
  8
PLAN_1
  6
CONTINUOUS
 10
1.236768
 20
-4.023587
  0
VERTEX
  8
PLAN_1
  6
CONTINUOUS
 10
1.238299
 20
-4.020520
  0
VERTEX
  8
PLAN_1
  6
CONTINUOUS
 10
1.239831
 20
-4.016433
  0
VERTEX
  8
PLAN_1
  6
CONTINUOUS
 10
1.241366
 20
-4.011835
  0
VERTEX
  8
PLAN_1
  6
CONTINUOUS
 10
1.241874
 20
-4.007240
  0
VERTEX
  8
PLAN_1
  6
CONTINUOUS
 10
1.241874
 20
-4.001618
  0
VERTEX
  8
PLAN_1
  6
CONTINUOUS
 10
1.241874
 20
-3.997020
  0
VERTEX
  8
PLAN_1
  6
CONTINUOUS
 10
1.241366
 20
-3.992421
  0
VERTEX
  8
PLAN_1
  6
CONTINUOUS
 10
1.240343
 20
-3.988335
  0
VERTEX
  8
PLAN_1
  6
CONTINUOUS
 10
1.238811
 20
-3.984760
  0
VERTEX
  8
PLAN_1
  6
CONTINUOUS
 10
1.237276
 20
-3.981185
  0
VERTEX
  8
PLAN_1
  6
CONTINUOUS
 10
1.235232
 20
-3.978118
  0
VERTEX
  8
PLAN_1
  6
CONTINUOUS
 10
1.232681
 20
-3.975563
  0
VERTEX
  8
PLAN_1
  6
CONTINUOUS
 10
1.230126
 20
-3.973008
  0
VERTEX
  8
PLAN_1
  6
CONTINUOUS
 10
1.227059
 20
-3.970457
  0
VERTEX
  8
PLAN_1
  6
CONTINUOUS
 10
1.223996
 20
-3.968921
  0
VERTEX
  8
PLAN_1
  6
CONTINUOUS
 10
1.220929
 20
-3.967390
  0
VERTEX
  8
PLAN_1
  6
CONTINUOUS
 10
1.217354
 20
-3.965858
  0
VERTEX
  8
PLAN_1
  6
CONTINUOUS
 10
1.213776
 20
-3.964835
  0
VERTEX
  8
PLAN_1
  6
CONTINUOUS
 10
1.209689
 20
-3.964327
  0
VERTEX
  8
PLAN_1
  6
CONTINUOUS
 10
1.205602
 20
-3.963815
  0
VERTEX
  8
PLAN_1
  6
CONTINUOUS
 10
1.201516
 20
-3.963815
  0
VERTEX
  8
PLAN_1
  6
CONTINUOUS
 10
1.196406
 20
-3.963815
  0
VERTEX
  8
PLAN_1
  6
CONTINUOUS
 10
1.191811
 20
-3.964327
  0
VERTEX
  8
PLAN_1
  6
CONTINUOUS
 10
1.187724
 20
-3.965346
  0
VERTEX
  8
PLAN_1
  6
CONTINUOUS
 10
1.183634
 20
-3.966878
  0
VERTEX
  8
PLAN_1
  6
CONTINUOUS
 10
1.180059
 20
-3.968413
  0
VERTEX
  8
PLAN_1
  6
CONTINUOUS
 10
1.176992
 20
-3.970457
  0
VERTEX
  8
PLAN_1
  6
CONTINUOUS
 10
1.173929
 20
-3.972500
  0
VERTEX
  8
PLAN_1
  6
CONTINUOUS
 10
1.171374
 20
-3.975055
  0
VERTEX
  8
PLAN_1
  6
CONTINUOUS
 10
1.168819
 20
-3.977606
  0
VERTEX
  8
PLAN_1
  6
CONTINUOUS
 10
1.166776
 20
-3.980673
  0
VERTEX
  8
PLAN_1
  6
CONTINUOUS
 10
1.165244
 20
-3.983228
  0
VERTEX
  8
PLAN_1
  6
CONTINUOUS
 10
1.163713
 20
-3.986291
  0
VERTEX
  8
PLAN_1
  6
CONTINUOUS
 10
1.162689
 20
-3.989870
  0
VERTEX
  8
PLAN_1
  6
CONTINUOUS
 10
1.161669
 20
-3.992933
  0
VERTEX
  8
PLAN_1
  6
CONTINUOUS
 10
1.161669
 20
-3.996512
  0
VERTEX
  8
PLAN_1
  6
CONTINUOUS
 10
1.161157
 20
-3.999575
  0
SEQEND
  8
0
  0
POLYLINE
  8
PLAN_1
  6
CONTINUOUS
 66
     1
 40
0.003000
 41
0.003000
  0
VERTEX
  8
PLAN_1
  6
CONTINUOUS
 10
1.235744
 20
-3.911193
  0
VERTEX
  8
PLAN_1
  6
CONTINUOUS
 10
1.235744
 20
-3.906594
  0
VERTEX
  8
PLAN_1
  6
CONTINUOUS
 10
1.234213
 20
-3.901488
  0
VERTEX
  8
PLAN_1
  6
CONTINUOUS
 10
1.233189
 20
-3.899445
  0
VERTEX
  8
PLAN_1
  6
CONTINUOUS
 10
1.232169
 20
-3.896890
  0
VERTEX
  8
PLAN_1
  6
CONTINUOUS
 10
1.230638
 20
-3.894335
  0
VERTEX
  8
PLAN_1
  6
CONTINUOUS
 10
1.228591
 20
-3.892291
  0
VERTEX
  8
PLAN_1
  6
CONTINUOUS
 10
1.226039
 20
-3.890248
  0
VERTEX
  8
PLAN_1
  6
CONTINUOUS
 10
1.223484
 20
-3.888205
  0
VERTEX
  8
PLAN_1
  6
CONTINUOUS
 10
1.220929
 20
-3.886673
  0
VERTEX
  8
PLAN_1
  6
CONTINUOUS
 10
1.217354
 20
-3.885138
  0
VERTEX
  8
PLAN_1
  6
CONTINUOUS
 10
1.213776
 20
-3.883606
  0
VERTEX
  8
PLAN_1
  6
CONTINUOUS
 10
1.209181
 20
-3.883094
  0
VERTEX
  8
PLAN_1
  6
CONTINUOUS
 10
1.204583
 20
-3.882075
  0
VERTEX
  8
PLAN_1
  6
CONTINUOUS
 10
1.199472
 20
-3.882075
  0
VERTEX
  8
PLAN_1
  6
CONTINUOUS
 10
1.194874
 20
-3.882075
  0
VERTEX
  8
PLAN_1
  6
CONTINUOUS
 10
1.190787
 20
-3.883094
  0
VERTEX
  8
PLAN_1
  6
CONTINUOUS
 10
1.186701
 20
-3.883606
  0
VERTEX
  8
PLAN_1
  6
CONTINUOUS
 10
1.183634
 20
-3.885138
  0
VERTEX
  8
PLAN_1
  6
CONTINUOUS
 10
1.180571
 20
-3.886673
  0
VERTEX
  8
PLAN_1
  6
CONTINUOUS
 10
1.178016
 20
-3.888717
  0
VERTEX
  8
PLAN_1
  6
CONTINUOUS
 10
1.175461
 20
-3.890248
  0
VERTEX
  8
PLAN_1
  6
CONTINUOUS
 10
1.173417
 20
-3.892803
  0
VERTEX
  8
PLAN_1
  6
CONTINUOUS
 10
1.171886
 20
-3.894846
  0
VERTEX
  8
PLAN_1
  6
CONTINUOUS
 10
1.170354
 20
-3.897402
  0
VERTEX
  8
PLAN_1
  6
CONTINUOUS
 10
1.169331
 20
-3.899953
  0
VERTEX
  8
PLAN_1
  6
CONTINUOUS
 10
1.168311
 20
-3.902508
  0
VERTEX
  8
PLAN_1
  6
CONTINUOUS
 10
1.167287
 20
-3.907618
  0
VERTEX
  8
PLAN_1
  6
CONTINUOUS
 10
1.167287
 20
-3.912728
  0
VERTEX
  8
PLAN_1
  6
CONTINUOUS
 10
1.167287
 20
-3.915791
  0
VERTEX
  8
PLAN_1
  6
CONTINUOUS
 10
1.167799
 20
-3.919366
  0
VERTEX
  8
PLAN_1
  6
CONTINUOUS
 10
1.168819
 20
-3.922433
  0
VERTEX
  8
PLAN_1
  6
CONTINUOUS
 10
1.169843
 20
-3.924988
  0
VERTEX
  8
PLAN_1
  6
CONTINUOUS
 10
1.171374
 20
-3.928051
  0
VERTEX
  8
PLAN_1
  6
CONTINUOUS
 10
1.173417
 20
-3.930094
  0
VERTEX
  8
PLAN_1
  6
CONTINUOUS
 10
1.175461
 20
-3.932650
  0
VERTEX
  8
PLAN_1
  6
CONTINUOUS
 10
1.177504
 20
-3.934693
  0
VERTEX
  8
PLAN_1
  6
CONTINUOUS
 10
1.180059
 20
-3.936228
  0
VERTEX
  8
PLAN_1
  6
CONTINUOUS
 10
1.182614
 20
-3.938272
  0
VERTEX
  8
PLAN_1
  6
CONTINUOUS
 10
1.185677
 20
-3.939291
  0
VERTEX
  8
PLAN_1
  6
CONTINUOUS
 10
1.188232
 20
-3.940315
  0
VERTEX
  8
PLAN_1
  6
CONTINUOUS
 10
1.191299
 20
-3.941335
  0
VERTEX
  8
PLAN_1
  6
CONTINUOUS
 10
1.194874
 20
-3.941846
  0
VERTEX
  8
PLAN_1
  6
CONTINUOUS
 10
1.197941
 20
-3.942358
  0
VERTEX
  8
PLAN_1
  6
CONTINUOUS
 10
1.201516
 20
-3.942358
  0
VERTEX
  8
PLAN_1
  6
CONTINUOUS
 10
1.205091
 20
-3.942358
  0
VERTEX
  8
PLAN_1
  6
CONTINUOUS
 10
1.208669
 20
-3.941846
  0
VERTEX
  8
PLAN_1
  6
CONTINUOUS
 10
1.212244
 20
-3.941335
  0
VERTEX
  8
PLAN_1
  6
CONTINUOUS
 10
1.215819
 20
-3.940315
  0
VERTEX
  8
PLAN_1
  6
CONTINUOUS
 10
1.218886
 20
-3.938780
  0
VERTEX
  8
PLAN_1
  6
CONTINUOUS
 10
1.221441
 20
-3.937248
  0
VERTEX
  8
PLAN_1
  6
CONTINUOUS
 10
1.223996
 20
-3.935717
  0
VERTEX
  8
PLAN_1
  6
CONTINUOUS
 10
1.226547
 20
-3.933673
  0
VERTEX
  8
PLAN_1
  6
CONTINUOUS
 10
1.228591
 20
-3.931630
  0
VERTEX
  8
PLAN_1
  6
CONTINUOUS
 10
1.230638
 20
-3.929075
  0
VERTEX
  8
PLAN_1
  6
CONTINUOUS
 10
1.232169
 20
-3.926520
  0
VERTEX
  8
PLAN_1
  6
CONTINUOUS
 10
1.233701
 20
-3.923457
  0
VERTEX
  8
PLAN_1
  6
CONTINUOUS
 10
1.234724
 20
-3.920902
  0
VERTEX
  8
PLAN_1
  6
CONTINUOUS
 10
1.235232
 20
-3.917835
  0
VERTEX
  8
PLAN_1
  6
CONTINUOUS
 10
1.235744
 20
-3.914772
  0
VERTEX
  8
PLAN_1
  6
CONTINUOUS
 10
1.235744
 20
-3.911193
  0
SEQEND
  8
0
  0
POLYLINE
  8
PLAN_1
  6
CONTINUOUS
 66
     1
 40
0.003000
 41
0.003000
  0
VERTEX
  8
PLAN_1
  6
CONTINUOUS
 10
1.378791
 20
-4.055260
  0
VERTEX
  8
PLAN_1
  6
CONTINUOUS
 10
1.352736
 20
-4.055260
  0
VERTEX
  8
PLAN_1
  6
CONTINUOUS
 10
1.352736
 20
-3.916815
  0
VERTEX
  8
PLAN_1
  6
CONTINUOUS
 10
1.307268
 20
-3.916815
  0
VERTEX
  8
PLAN_1
  6
CONTINUOUS
 10
1.307268
 20
-3.897402
  0
VERTEX
  8
PLAN_1
  6
CONTINUOUS
 10
1.317996
 20
-3.896378
  0
VERTEX
  8
PLAN_1
  6
CONTINUOUS
 10
1.327701
 20
-3.895358
  0
VERTEX
  8
PLAN_1
  6
CONTINUOUS
 10
1.331787
 20
-3.894335
  0
VERTEX
  8
PLAN_1
  6
CONTINUOUS
 10
1.335366
 20
-3.892803
  0
VERTEX
  8
PLAN_1
  6
CONTINUOUS
 10
1.338941
 20
-3.891780
  0
VERTEX
  8
PLAN_1
  6
CONTINUOUS
 10
1.342516
 20
-3.889736
  0
VERTEX
  8
PLAN_1
  6
CONTINUOUS
 10
1.345071
 20
-3.887693
  0
VERTEX
  8
PLAN_1
  6
CONTINUOUS
 10
1.348138
 20
-3.885138
  0
VERTEX
  8
PLAN_1
  6
CONTINUOUS
 10
1.350181
 20
-3.882587
  0
VERTEX
  8
PLAN_1
  6
CONTINUOUS
 10
1.352736
 20
-3.879008
  0
VERTEX
  8
PLAN_1
  6
CONTINUOUS
 10
1.354780
 20
-3.875433
  0
VERTEX
  8
PLAN_1
  6
CONTINUOUS
 10
1.356311
 20
-3.870835
  0
VERTEX
  8
PLAN_1
  6
CONTINUOUS
 10
1.357843
 20
-3.865724
  0
VERTEX
  8
PLAN_1
  6
CONTINUOUS
 10
1.359378
 20
-3.860106
  0
VERTEX
  8
PLAN_1
  6
CONTINUOUS
 10
1.378791
 20
-3.860106
  0
VERTEX
  8
PLAN_1
  6
CONTINUOUS
 10
1.378791
 20
-4.055260
  0
SEQEND
  8
0
  0
SOLID
  8
PLAN_1
 10
1.433453
 20
-4.090000
 11
1.433453
 21
-4.076205
 12
1.587736
 22
-4.090000
 13
1.587736
 23
-4.076205
  0
POLYLINE
  8
PLAN_1
  6
CONTINUOUS
 66
     1
 40
0.003000
 41
0.003000
  0
VERTEX
  8
PLAN_1
  6
CONTINUOUS
 10
1.433453
 20
-4.090000
  0
VERTEX
  8
PLAN_1
  6
CONTINUOUS
 10
1.433453
 20
-4.076205
  0
VERTEX
  8
PLAN_1
  6
CONTINUOUS
 10
1.587736
 20
-4.076205
  0
VERTEX
  8
PLAN_1
  6
CONTINUOUS
 10
1.587736
 20
-4.090000
  0
VERTEX
  8
PLAN_1
  6
CONTINUOUS
 10
1.433453
 20
-4.090000
  0
SEQEND
  8
0
  0
POLYLINE
  8
PLAN_1
  6
CONTINUOUS
 66
     1
 40
0.003000
 41
0.003000
  0
VERTEX
  8
PLAN_1
  6
CONTINUOUS
 10
1.638827
 20
-4.055260
  0
VERTEX
  8
PLAN_1
  6
CONTINUOUS
 10
1.611748
 20
-4.055260
  0
VERTEX
  8
PLAN_1
  6
CONTINUOUS
 10
1.611748
 20
-3.856020
  0
VERTEX
  8
PLAN_1
  6
CONTINUOUS
 10
1.749685
 20
-3.856020
  0
VERTEX
  8
PLAN_1
  6
CONTINUOUS
 10
1.749685
 20
-3.880031
  0
VERTEX
  8
PLAN_1
  6
CONTINUOUS
 10
1.638827
 20
-3.880031
  0
VERTEX
  8
PLAN_1
  6
CONTINUOUS
 10
1.638827
 20
-3.940823
  0
VERTEX
  8
PLAN_1
  6
CONTINUOUS
 10
1.736402
 20
-3.940823
  0
VERTEX
  8
PLAN_1
  6
CONTINUOUS
 10
1.736402
 20
-3.964835
  0
VERTEX
  8
PLAN_1
  6
CONTINUOUS
 10
1.638827
 20
-3.964835
  0
VERTEX
  8
PLAN_1
  6
CONTINUOUS
 10
1.638827
 20
-4.055260
  0
SEQEND
  8
0
  0
SOLID
  8
PLAN_1
 10
1.769098
 20
-4.055260
 11
1.739976
 21
-4.055260
 12
1.769098
 22
-4.025630
 13
1.739976
 23
-4.025630
  0
POLYLINE
  8
PLAN_1
  6
CONTINUOUS
 66
     1
 40
0.003000
 41
0.003000
  0
VERTEX
  8
PLAN_1
  6
CONTINUOUS
 10
1.769098
 20
-4.055260
  0
VERTEX
  8
PLAN_1
  6
CONTINUOUS
 10
1.739976
 20
-4.055260
  0
VERTEX
  8
PLAN_1
  6
CONTINUOUS
 10
1.739976
 20
-4.025630
  0
VERTEX
  8
PLAN_1
  6
CONTINUOUS
 10
1.769098
 20
-4.025630
  0
VERTEX
  8
PLAN_1
  6
CONTINUOUS
 10
1.769098
 20
-4.055260
  0
SEQEND
  8
0
  0
POLYLINE
  8
PLAN_1
  6
CONTINUOUS
 66
     1
 40
0.003000
 41
0.003000
  0
VERTEX
  8
PLAN_1
  6
CONTINUOUS
 10
1.964252
 20
-4.055260
  0
VERTEX
  8
PLAN_1
  6
CONTINUOUS
 10
1.817122
 20
-4.055260
  0
VERTEX
  8
PLAN_1
  6
CONTINUOUS
 10
1.817122
 20
-3.856020
  0
VERTEX
  8
PLAN_1
  6
CONTINUOUS
 10
1.962209
 20
-3.856020
  0
VERTEX
  8
PLAN_1
  6
CONTINUOUS
 10
1.962209
 20
-3.880031
  0
VERTEX
  8
PLAN_1
  6
CONTINUOUS
 10
1.843685
 20
-3.880031
  0
VERTEX
  8
PLAN_1
  6
CONTINUOUS
 10
1.843685
 20
-3.940823
  0
VERTEX
  8
PLAN_1
  6
CONTINUOUS
 10
1.953012
 20
-3.940823
  0
VERTEX
  8
PLAN_1
  6
CONTINUOUS
 10
1.953012
 20
-3.964835
  0
VERTEX
  8
PLAN_1
  6
CONTINUOUS
 10
1.843685
 20
-3.964835
  0
VERTEX
  8
PLAN_1
  6
CONTINUOUS
 10
1.843685
 20
-4.031248
  0
VERTEX
  8
PLAN_1
  6
CONTINUOUS
 10
1.964252
 20
-4.031248
  0
VERTEX
  8
PLAN_1
  6
CONTINUOUS
 10
1.964252
 20
-4.055260
  0
SEQEND
  8
0
  0
POLYLINE
  8
PLAN_1
  6
CONTINUOUS
 66
     1
 40
0.003000
 41
0.003000
  0
VERTEX
  8
PLAN_1
  6
CONTINUOUS
 10
2.029134
 20
-4.055260
  0
VERTEX
  8
PLAN_1
  6
CONTINUOUS
 10
2.002059
 20
-4.055260
  0
VERTEX
  8
PLAN_1
  6
CONTINUOUS
 10
2.002059
 20
-3.856020
  0
VERTEX
  8
PLAN_1
  6
CONTINUOUS
 10
2.091972
 20
-3.856020
  0
VERTEX
  8
PLAN_1
  6
CONTINUOUS
 10
2.098614
 20
-3.856531
  0
VERTEX
  8
PLAN_1
  6
CONTINUOUS
 10
2.104744
 20
-3.857039
  0
VERTEX
  8
PLAN_1
  6
CONTINUOUS
 10
2.110874
 20
-3.858575
  0
VERTEX
  8
PLAN_1
  6
CONTINUOUS
 10
2.116492
 20
-3.860106
  0
VERTEX
  8
PLAN_1
  6
CONTINUOUS
 10
2.122114
 20
-3.862661
  0
VERTEX
  8
PLAN_1
  6
CONTINUOUS
 10
2.126713
 20
-3.865217
  0
VERTEX
  8
PLAN_1
  6
CONTINUOUS
 10
2.131307
 20
-3.868280
  0
VERTEX
  8
PLAN_1
  6
CONTINUOUS
 10
2.135394
 20
-3.871858
  0
VERTEX
  8
PLAN_1
  6
CONTINUOUS
 10
2.138972
 20
-3.875945
  0
VERTEX
  8
PLAN_1
  6
CONTINUOUS
 10
2.142035
 20
-3.880031
  0
VERTEX
  8
PLAN_1
  6
CONTINUOUS
 10
2.144591
 20
-3.884630
  0
VERTEX
  8
PLAN_1
  6
CONTINUOUS
 10
2.147146
 20
-3.889736
  0
VERTEX
  8
PLAN_1
  6
CONTINUOUS
 10
2.148677
 20
-3.894846
  0
VERTEX
  8
PLAN_1
  6
CONTINUOUS
 10
2.149701
 20
-3.900465
  0
VERTEX
  8
PLAN_1
  6
CONTINUOUS
 10
2.150720
 20
-3.906087
  0
VERTEX
  8
PLAN_1
  6
CONTINUOUS
 10
2.150720
 20
-3.912217
  0
VERTEX
  8
PLAN_1
  6
CONTINUOUS
 10
2.150720
 20
-3.917323
  0
VERTEX
  8
PLAN_1
  6
CONTINUOUS
 10
2.150213
 20
-3.922433
  0
VERTEX
  8
PLAN_1
  6
CONTINUOUS
 10
2.149189
 20
-3.928051
  0
VERTEX
  8
PLAN_1
  6
CONTINUOUS
 10
2.147657
 20
-3.933161
  0
VERTEX
  8
PLAN_1
  6
CONTINUOUS
 10
2.146122
 20
-3.938272
  0
VERTEX
  8
PLAN_1
  6
CONTINUOUS
 10
2.143571
 20
-3.942870
  0
VERTEX
  8
PLAN_1
  6
CONTINUOUS
 10
2.141016
 20
-3.947465
  0
VERTEX
  8
PLAN_1
  6
CONTINUOUS
 10
2.137441
 20
-3.952063
  0
VERTEX
  8
PLAN_1
  6
CONTINUOUS
 10
2.133862
 20
-3.956150
  0
VERTEX
  8
PLAN_1
  6
CONTINUOUS
 10
2.129776
 20
-3.959728
  0
VERTEX
  8
PLAN_1
  6
CONTINUOUS
 10
2.124665
 20
-3.963303
  0
VERTEX
  8
PLAN_1
  6
CONTINUOUS
 10
2.119559
 20
-3.965858
  0
VERTEX
  8
PLAN_1
  6
CONTINUOUS
 10
2.113429
 20
-3.967902
  0
VERTEX
  8
PLAN_1
  6
CONTINUOUS
 10
2.106787
 20
-3.969945
  0
VERTEX
  8
PLAN_1
  6
CONTINUOUS
 10
2.099634
 20
-3.970965
  0
VERTEX
  8
PLAN_1
  6
CONTINUOUS
 10
2.091972
 20
-3.970965
  0
VERTEX
  8
PLAN_1
  6
CONTINUOUS
 10
2.029134
 20
-3.970965
  0
VERTEX
  8
PLAN_1
  6
CONTINUOUS
 10
2.029134
 20
-4.055260
  0
SEQEND
  8
0
  0
POLYLINE
  8
PLAN_1
  6
CONTINUOUS
 66
     1
 40
0.003000
 41
0.003000
  0
VERTEX
  8
PLAN_1
  6
CONTINUOUS
 10
2.029134
 20
-3.947976
  0
VERTEX
  8
PLAN_1
  6
CONTINUOUS
 10
2.082776
 20
-3.947976
  0
VERTEX
  8
PLAN_1
  6
CONTINUOUS
 10
2.086862
 20
-3.947976
  0
VERTEX
  8
PLAN_1
  6
CONTINUOUS
 10
2.091461
 20
-3.947465
  0
VERTEX
  8
PLAN_1
  6
CONTINUOUS
 10
2.095547
 20
-3.946957
  0
VERTEX
  8
PLAN_1
  6
CONTINUOUS
 10
2.099122
 20
-3.946445
  0
VERTEX
  8
PLAN_1
  6
CONTINUOUS
 10
2.102701
 20
-3.945421
  0
VERTEX
  8
PLAN_1
  6
CONTINUOUS
 10
2.106276
 20
-3.943890
  0
VERTEX
  8
PLAN_1
  6
CONTINUOUS
 10
2.109343
 20
-3.942358
  0
VERTEX
  8
PLAN_1
  6
CONTINUOUS
 10
2.111894
 20
-3.940315
  0
VERTEX
  8
PLAN_1
  6
CONTINUOUS
 10
2.114449
 20
-3.938272
  0
VERTEX
  8
PLAN_1
  6
CONTINUOUS
 10
2.116492
 20
-3.935717
  0
VERTEX
  8
PLAN_1
  6
CONTINUOUS
 10
2.118535
 20
-3.932650
  0
VERTEX
  8
PLAN_1
  6
CONTINUOUS
 10
2.120071
 20
-3.929075
  0
VERTEX
  8
PLAN_1
  6
CONTINUOUS
 10
2.121602
 20
-3.925500
  0
VERTEX
  8
PLAN_1
  6
CONTINUOUS
 10
2.122622
 20
-3.921413
  0
VERTEX
  8
PLAN_1
  6
CONTINUOUS
 10
2.123134
 20
-3.917323
  0
VERTEX
  8
PLAN_1
  6
CONTINUOUS
 10
2.123134
 20
-3.912217
  0
VERTEX
  8
PLAN_1
  6
CONTINUOUS
 10
2.123134
 20
-3.907618
  0
VERTEX
  8
PLAN_1
  6
CONTINUOUS
 10
2.122622
 20
-3.903531
  0
VERTEX
  8
PLAN_1
  6
CONTINUOUS
 10
2.121602
 20
-3.899953
  0
VERTEX
  8
PLAN_1
  6
CONTINUOUS
 10
2.120071
 20
-3.896378
  0
VERTEX
  8
PLAN_1
  6
CONTINUOUS
 10
2.118535
 20
-3.893315
  0
VERTEX
  8
PLAN_1
  6
CONTINUOUS
 10
2.116492
 20
-3.890760
  0
VERTEX
  8
PLAN_1
  6
CONTINUOUS
 10
2.114449
 20
-3.888205
  0
VERTEX
  8
PLAN_1
  6
CONTINUOUS
 10
2.111894
 20
-3.886161
  0
VERTEX
  8
PLAN_1
  6
CONTINUOUS
 10
2.108831
 20
-3.884630
  0
VERTEX
  8
PLAN_1
  6
CONTINUOUS
 10
2.105764
 20
-3.883094
  0
VERTEX
  8
PLAN_1
  6
CONTINUOUS
 10
2.102701
 20
-3.881563
  0
VERTEX
  8
PLAN_1
  6
CONTINUOUS
 10
2.099122
 20
-3.880543
  0
VERTEX
  8
PLAN_1
  6
CONTINUOUS
 10
2.091972
 20
-3.879520
  0
VERTEX
  8
PLAN_1
  6
CONTINUOUS
 10
2.083795
 20
-3.879008
  0
VERTEX
  8
PLAN_1
  6
CONTINUOUS
 10
2.029134
 20
-3.879008
  0
VERTEX
  8
PLAN_1
  6
CONTINUOUS
 10
2.029134
 20
-3.947976
  0
SEQEND
  8
0
  0
POLYLINE
  8
PLAN_1
  6
CONTINUOUS
 66
     1
 40
0.003000
 41
0.003000
  0
VERTEX
  8
PLAN_1
  6
CONTINUOUS
 10
2.305008
 20
-3.914260
  0
VERTEX
  8
PLAN_1
  6
CONTINUOUS
 10
2.304496
 20
-3.908638
  0
VERTEX
  8
PLAN_1
  6
CONTINUOUS
 10
2.303472
 20
-3.903531
  0
VERTEX
  8
PLAN_1
  6
CONTINUOUS
 10
2.301941
 20
-3.898933
  0
VERTEX
  8
PLAN_1
  6
CONTINUOUS
 10
2.299898
 20
-3.894846
  0
VERTEX
  8
PLAN_1
  6
CONTINUOUS
 10
2.297343
 20
-3.891272
  0
VERTEX
  8
PLAN_1
  6
CONTINUOUS
 10
2.294280
 20
-3.887693
  0
VERTEX
  8
PLAN_1
  6
CONTINUOUS
 10
2.291213
 20
-3.885138
  0
VERTEX
  8
PLAN_1
  6
CONTINUOUS
 10
2.288146
 20
-3.882587
  0
VERTEX
  8
PLAN_1
  6
CONTINUOUS
 10
2.284571
 20
-3.880543
  0
VERTEX
  8
PLAN_1
  6
CONTINUOUS
 10
2.280484
 20
-3.878496
  0
VERTEX
  8
PLAN_1
  6
CONTINUOUS
 10
2.276398
 20
-3.876965
  0
VERTEX
  8
PLAN_1
  6
CONTINUOUS
 10
2.272311
 20
-3.875945
  0
VERTEX
  8
PLAN_1
  6
CONTINUOUS
 10
2.268224
 20
-3.874921
  0
VERTEX
  8
PLAN_1
  6
CONTINUOUS
 10
2.264138
 20
-3.874409
  0
VERTEX
  8
PLAN_1
  6
CONTINUOUS
 10
2.259539
 20
-3.873902
  0
VERTEX
  8
PLAN_1
  6
CONTINUOUS
 10
2.255453
 20
-3.873902
  0
VERTEX
  8
PLAN_1
  6
CONTINUOUS
 10
2.248811
 20
-3.873902
  0
VERTEX
  8
PLAN_1
  6
CONTINUOUS
 10
2.241146
 20
-3.874921
  0
VERTEX
  8
PLAN_1
  6
CONTINUOUS
 10
2.237571
 20
-3.875945
  0
VERTEX
  8
PLAN_1
  6
CONTINUOUS
 10
2.233484
 20
-3.876965
  0
VERTEX
  8
PLAN_1
  6
CONTINUOUS
 10
2.229906
 20
-3.877988
  0
VERTEX
  8
PLAN_1
  6
CONTINUOUS
 10
2.226331
 20
-3.880031
  0
VERTEX
  8
PLAN_1
  6
CONTINUOUS
 10
2.222756
 20
-3.882075
  0
VERTEX
  8
PLAN_1
  6
CONTINUOUS
 10
2.219689
 20
-3.884630
  0
VERTEX
  8
PLAN_1
  6
CONTINUOUS
 10
2.217134
 20
-3.887181
  0
VERTEX
  8
PLAN_1
  6
CONTINUOUS
 10
2.214583
 20
-3.890760
  0
VERTEX
  8
PLAN_1
  6
CONTINUOUS
 10
2.212539
 20
-3.894335
  0
VERTEX
  8
PLAN_1
  6
CONTINUOUS
 10
2.211004
 20
-3.898421
  0
VERTEX
  8
PLAN_1
  6
CONTINUOUS
 10
2.209984
 20
-3.903531
  0
VERTEX
  8
PLAN_1
  6
CONTINUOUS
 10
2.209984
 20
-3.908638
  0
VERTEX
  8
PLAN_1
  6
CONTINUOUS
 10
2.209984
 20
-3.911705
  0
VERTEX
  8
PLAN_1
  6
CONTINUOUS
 10
2.210496
 20
-3.914772
  0
VERTEX
  8
PLAN_1
  6
CONTINUOUS
 10
2.211004
 20
-3.917323
  0
VERTEX
  8
PLAN_1
  6
CONTINUOUS
 10
2.212028
 20
-3.919366
  0
VERTEX
  8
PLAN_1
  6
CONTINUOUS
 10
2.214071
 20
-3.923457
  0
VERTEX
  8
PLAN_1
  6
CONTINUOUS
 10
2.217134
 20
-3.926520
  0
VERTEX
  8
PLAN_1
  6
CONTINUOUS
 10
2.220713
 20
-3.929075
  0
VERTEX
  8
PLAN_1
  6
CONTINUOUS
 10
2.224799
 20
-3.931118
  0
VERTEX
  8
PLAN_1
  6
CONTINUOUS
 10
2.228886
 20
-3.932650
  0
VERTEX
  8
PLAN_1
  6
CONTINUOUS
 10
2.233484
 20
-3.934185
  0
VERTEX
  8
PLAN_1
  6
CONTINUOUS
 10
2.290189
 20
-3.946957
  0
VERTEX
  8
PLAN_1
  6
CONTINUOUS
 10
2.295299
 20
-3.948488
  0
VERTEX
  8
PLAN_1
  6
CONTINUOUS
 10
2.299898
 20
-3.950020
  0
VERTEX
  8
PLAN_1
  6
CONTINUOUS
 10
2.303984
 20
-3.951551
  0
VERTEX
  8
PLAN_1
  6
CONTINUOUS
 10
2.308583
 20
-3.953598
  0
VERTEX
  8
PLAN_1
  6
CONTINUOUS
 10
2.312157
 20
-3.955642
  0
VERTEX
  8
PLAN_1
  6
CONTINUOUS
 10
2.316244
 20
-3.958193
  0
VERTEX
  8
PLAN_1
  6
CONTINUOUS
 10
2.319311
 20
-3.961260
  0
VERTEX
  8
PLAN_1
  6
CONTINUOUS
 10
2.322886
 20
-3.964327
  0
VERTEX
  8
PLAN_1
  6
CONTINUOUS
 10
2.325441
 20
-3.967390
  0
VERTEX
  8
PLAN_1
  6
CONTINUOUS
 10
2.327996
 20
-3.970965
  0
VERTEX
  8
PLAN_1
  6
CONTINUOUS
 10
2.330551
 20
-3.975055
  0
VERTEX
  8
PLAN_1
  6
CONTINUOUS
 10
2.332083
 20
-3.979650
  0
VERTEX
  8
PLAN_1
  6
CONTINUOUS
 10
2.333614
 20
-3.984248
  0
VERTEX
  8
PLAN_1
  6
CONTINUOUS
 10
2.334638
 20
-3.989358
  0
VERTEX
  8
PLAN_1
  6
CONTINUOUS
 10
2.335657
 20
-3.994469
  0
VERTEX
  8
PLAN_1
  6
CONTINUOUS
 10
2.335657
 20
-4.000087
  0
VERTEX
  8
PLAN_1
  6
CONTINUOUS
 10
2.335657
 20
-4.004685
  0
VERTEX
  8
PLAN_1
  6
CONTINUOUS
 10
2.335150
 20
-4.008772
  0
VERTEX
  8
PLAN_1
  6
CONTINUOUS
 10
2.334638
 20
-4.012858
  0
VERTEX
  8
PLAN_1
  6
CONTINUOUS
 10
2.333614
 20
-4.016433
  0
VERTEX
  8
PLAN_1
  6
CONTINUOUS
 10
2.331571
 20
-4.023587
  0
VERTEX
  8
PLAN_1
  6
CONTINUOUS
 10
2.328508
 20
-4.029717
  0
VERTEX
  8
PLAN_1
  6
CONTINUOUS
 10
2.324421
 20
-4.035335
  0
VERTEX
  8
PLAN_1
  6
CONTINUOUS
 10
2.319823
 20
-4.039933
  0
VERTEX
  8
PLAN_1
  6
CONTINUOUS
 10
2.314713
 20
-4.044531
  0
VERTEX
  8
PLAN_1
  6
CONTINUOUS
 10
2.309602
 20
-4.048110
  0
VERTEX
  8
PLAN_1
  6
CONTINUOUS
 10
2.303472
 20
-4.051173
  0
VERTEX
  8
PLAN_1
  6
CONTINUOUS
 10
2.297343
 20
-4.053728
  0
VERTEX
  8
PLAN_1
  6
CONTINUOUS
 10
2.290701
 20
-4.056283
  0
VERTEX
  8
PLAN_1
  6
CONTINUOUS
 10
2.284059
 20
-4.057815
  0
VERTEX
  8
PLAN_1
  6
CONTINUOUS
 10
2.277417
 20
-4.058839
  0
VERTEX
  8
PLAN_1
  6
CONTINUOUS
 10
2.270776
 20
-4.059858
  0
VERTEX
  8
PLAN_1
  6
CONTINUOUS
 10
2.264138
 20
-4.060370
  0
VERTEX
  8
PLAN_1
  6
CONTINUOUS
 10
2.257496
 20
-4.060370
  0
VERTEX
  8
PLAN_1
  6
CONTINUOUS
 10
2.244724
 20
-4.059858
  0
VERTEX
  8
PLAN_1
  6
CONTINUOUS
 10
2.233996
 20
-4.058839
  0
VERTEX
  8
PLAN_1
  6
CONTINUOUS
 10
2.224799
 20
-4.056791
  0
VERTEX
  8
PLAN_1
  6
CONTINUOUS
 10
2.217134
 20
-4.054240
  0
VERTEX
  8
PLAN_1
  6
CONTINUOUS
 10
2.210496
 20
-4.051173
  0
VERTEX
  8
PLAN_1
  6
CONTINUOUS
 10
2.205386
 20
-4.047598
  0
VERTEX
  8
PLAN_1
  6
CONTINUOUS
 10
2.200787
 20
-4.044531
  0
VERTEX
  8
PLAN_1
  6
CONTINUOUS
 10
2.197213
 20
-4.041469
  0
VERTEX
  8
PLAN_1
  6
CONTINUOUS
 10
2.191591
 20
-4.035846
  0
VERTEX
  8
PLAN_1
  6
CONTINUOUS
 10
2.186992
 20
-4.029717
  0
VERTEX
  8
PLAN_1
  6
CONTINUOUS
 10
2.183417
 20
-4.023587
  0
VERTEX
  8
PLAN_1
  6
CONTINUOUS
 10
2.180862
 20
-4.017457
  0
VERTEX
  8
PLAN_1
  6
CONTINUOUS
 10
2.179331
 20
-4.010815
  0
VERTEX
  8
PLAN_1
  6
CONTINUOUS
 10
2.177799
 20
-4.004685
  0
VERTEX
  8
PLAN_1
  6
CONTINUOUS
 10
2.177287
 20
-3.998043
  0
VERTEX
  8
PLAN_1
  6
CONTINUOUS
 10
2.177287
 20
-3.990890
  0
VERTEX
  8
PLAN_1
  6
CONTINUOUS
 10
2.202319
 20
-3.990890
  0
VERTEX
  8
PLAN_1
  6
CONTINUOUS
 10
2.202831
 20
-3.997531
  0
VERTEX
  8
PLAN_1
  6
CONTINUOUS
 10
2.203854
 20
-4.003150
  0
VERTEX
  8
PLAN_1
  6
CONTINUOUS
 10
2.205386
 20
-4.008772
  0
VERTEX
  8
PLAN_1
  6
CONTINUOUS
 10
2.207429
 20
-4.013370
  0
VERTEX
  8
PLAN_1
  6
CONTINUOUS
 10
2.209984
 20
-4.017969
  0
VERTEX
  8
PLAN_1
  6
CONTINUOUS
 10
2.213047
 20
-4.021543
  0
VERTEX
  8
PLAN_1
  6
CONTINUOUS
 10
2.216626
 20
-4.025118
  0
VERTEX
  8
PLAN_1
  6
CONTINUOUS
 10
2.220201
 20
-4.027673
  0
VERTEX
  8
PLAN_1
  6
CONTINUOUS
 10
2.224287
 20
-4.030228
  0
VERTEX
  8
PLAN_1
  6
CONTINUOUS
 10
2.228886
 20
-4.032272
  0
VERTEX
  8
PLAN_1
  6
CONTINUOUS
 10
2.233484
 20
-4.033803
  0
VERTEX
  8
PLAN_1
  6
CONTINUOUS
 10
2.238083
 20
-4.035335
  0
VERTEX
  8
PLAN_1
  6
CONTINUOUS
 10
2.242681
 20
-4.036358
  0
VERTEX
  8
PLAN_1
  6
CONTINUOUS
 10
2.247787
 20
-4.036870
  0
VERTEX
  8
PLAN_1
  6
CONTINUOUS
 10
2.252386
 20
-4.037382
  0
VERTEX
  8
PLAN_1
  6
CONTINUOUS
 10
2.257496
 20
-4.037382
  0
VERTEX
  8
PLAN_1
  6
CONTINUOUS
 10
2.265157
 20
-4.037382
  0
VERTEX
  8
PLAN_1
  6
CONTINUOUS
 10
2.273843
 20
-4.036358
  0
VERTEX
  8
PLAN_1
  6
CONTINUOUS
 10
2.277929
 20
-4.035335
  0
VERTEX
  8
PLAN_1
  6
CONTINUOUS
 10
2.282528
 20
-4.034315
  0
VERTEX
  8
PLAN_1
  6
CONTINUOUS
 10
2.286614
 20
-4.033291
  0
VERTEX
  8
PLAN_1
  6
CONTINUOUS
 10
2.290701
 20
-4.031248
  0
VERTEX
  8
PLAN_1
  6
CONTINUOUS
 10
2.294787
 20
-4.029717
  0
VERTEX
  8
PLAN_1
  6
CONTINUOUS
 10
2.298366
 20
-4.027161
  0
VERTEX
  8
PLAN_1
  6
CONTINUOUS
 10
2.301429
 20
-4.024606
  0
VERTEX
  8
PLAN_1
  6
CONTINUOUS
 10
2.303984
 20
-4.021031
  0
VERTEX
  8
PLAN_1
  6
CONTINUOUS
 10
2.306539
 20
-4.017457
  0
VERTEX
  8
PLAN_1
  6
CONTINUOUS
 10
2.308071
 20
-4.013370
  0
VERTEX
  8
PLAN_1
  6
CONTINUOUS
 10
2.309094
 20
-4.009283
  0
VERTEX
  8
PLAN_1
  6
CONTINUOUS
 10
2.309602
 20
-4.004173
  0
VERTEX
  8
PLAN_1
  6
CONTINUOUS
 10
2.309602
 20
-4.000087
  0
VERTEX
  8
PLAN_1
  6
CONTINUOUS
 10
2.309094
 20
-3.997020
  0
VERTEX
  8
PLAN_1
  6
CONTINUOUS
 10
2.308583
 20
-3.993445
  0
VERTEX
  8
PLAN_1
  6
CONTINUOUS
 10
2.307559
 20
-3.990890
  0
VERTEX
  8
PLAN_1
  6
CONTINUOUS
 10
2.306539
 20
-3.988335
  0
VERTEX
  8
PLAN_1
  6
CONTINUOUS
 10
2.305008
 20
-3.985783
  0
VERTEX
  8
PLAN_1
  6
CONTINUOUS
 10
2.302965
 20
-3.983736
  0
VERTEX
  8
PLAN_1
  6
CONTINUOUS
 10
2.300409
 20
-3.981185
  0
VERTEX
  8
PLAN_1
  6
CONTINUOUS
 10
2.297854
 20
-3.979650
  0
VERTEX
  8
PLAN_1
  6
CONTINUOUS
 10
2.294787
 20
-3.977606
  0
VERTEX
  8
PLAN_1
  6
CONTINUOUS
 10
2.291213
 20
-3.976075
  0
VERTEX
  8
PLAN_1
  6
CONTINUOUS
 10
2.287638
 20
-3.974543
  0
VERTEX
  8
PLAN_1
  6
CONTINUOUS
 10
2.278441
 20
-3.971476
  0
VERTEX
  8
PLAN_1
  6
CONTINUOUS
 10
2.267201
 20
-3.968921
  0
VERTEX
  8
PLAN_1
  6
CONTINUOUS
 10
2.226331
 20
-3.959217
  0
VERTEX
  8
PLAN_1
  6
CONTINUOUS
 10
2.220713
 20
-3.957685
  0
VERTEX
  8
PLAN_1
  6
CONTINUOUS
 10
2.214071
 20
-3.955642
  0
VERTEX
  8
PLAN_1
  6
CONTINUOUS
 10
2.210496
 20
-3.954106
  0
VERTEX
  8
PLAN_1
  6
CONTINUOUS
 10
2.206917
 20
-3.952063
  0
VERTEX
  8
PLAN_1
  6
CONTINUOUS
 10
2.203343
 20
-3.950020
  0
VERTEX
  8
PLAN_1
  6
CONTINUOUS
 10
2.200276
 20
-3.947465
  0
VERTEX
  8
PLAN_1
  6
CONTINUOUS
 10
2.196701
 20
-3.944913
  0
VERTEX
  8
PLAN_1
  6
CONTINUOUS
 10
2.193634
 20
-3.941846
  0
VERTEX
  8
PLAN_1
  6
CONTINUOUS
 10
2.191083
 20
-3.937760
  0
VERTEX
  8
PLAN_1
  6
CONTINUOUS
 10
2.188528
 20
-3.933673
  0
VERTEX
  8
PLAN_1
  6
CONTINUOUS
 10
2.186484
 20
-3.929075
  0
VERTEX
  8
PLAN_1
  6
CONTINUOUS
 10
2.184949
 20
-3.923965
  0
VERTEX
  8
PLAN_1
  6
CONTINUOUS
 10
2.183929
 20
-3.918346
  0
VERTEX
  8
PLAN_1
  6
CONTINUOUS
 10
2.183929
 20
-3.912217
  0
VERTEX
  8
PLAN_1
  6
CONTINUOUS
 10
2.183929
 20
-3.906594
  0
VERTEX
  8
PLAN_1
  6
CONTINUOUS
 10
2.184949
 20
-3.900976
  0
VERTEX
  8
PLAN_1
  6
CONTINUOUS
 10
2.185972
 20
-3.895358
  0
VERTEX
  8
PLAN_1
  6
CONTINUOUS
 10
2.187504
 20
-3.889736
  0
VERTEX
  8
PLAN_1
  6
CONTINUOUS
 10
2.190059
 20
-3.884118
  0
VERTEX
  8
PLAN_1
  6
CONTINUOUS
 10
2.192614
 20
-3.879008
  0
VERTEX
  8
PLAN_1
  6
CONTINUOUS
 10
2.196189
 20
-3.874409
  0
VERTEX
  8
PLAN_1
  6
CONTINUOUS
 10
2.199768
 20
-3.869815
  0
VERTEX
  8
PLAN_1
  6
CONTINUOUS
 10
2.204362
 20
-3.865724
  0
VERTEX
  8
PLAN_1
  6
CONTINUOUS
 10
2.209472
 20
-3.862150
  0
VERTEX
  8
PLAN_1
  6
CONTINUOUS
 10
2.215091
 20
-3.858575
  0
VERTEX
  8
PLAN_1
  6
CONTINUOUS
 10
2.221224
 20
-3.856020
  0
VERTEX
  8
PLAN_1
  6
CONTINUOUS
 10
2.227862
 20
-3.853976
  0
VERTEX
  8
PLAN_1
  6
CONTINUOUS
 10
2.235528
 20
-3.851933
  0
VERTEX
  8
PLAN_1
  6
CONTINUOUS
 10
2.243701
 20
-3.850909
  0
VERTEX
  8
PLAN_1
  6
CONTINUOUS
 10
2.252386
 20
-3.850909
  0
VERTEX
  8
PLAN_1
  6
CONTINUOUS
 10
2.264646
 20
-3.851421
  0
VERTEX
  8
PLAN_1
  6
CONTINUOUS
 10
2.275886
 20
-3.852445
  0
VERTEX
  8
PLAN_1
  6
CONTINUOUS
 10
2.285083
 20
-3.854488
  0
VERTEX
  8
PLAN_1
  6
CONTINUOUS
 10
2.293768
 20
-3.857551
  0
VERTEX
  8
PLAN_1
  6
CONTINUOUS
 10
2.300917
 20
-3.861130
  0
VERTEX
  8
PLAN_1
  6
CONTINUOUS
 10
2.307051
 20
-3.865217
  0
VERTEX
  8
PLAN_1
  6
CONTINUOUS
 10
2.312669
 20
-3.869303
  0
VERTEX
  8
PLAN_1
  6
CONTINUOUS
 10
2.316756
 20
-3.874409
  0
VERTEX
  8
PLAN_1
  6
CONTINUOUS
 10
2.320331
 20
-3.879520
  0
VERTEX
  8
PLAN_1
  6
CONTINUOUS
 10
2.323398
 20
-3.884630
  0
VERTEX
  8
PLAN_1
  6
CONTINUOUS
 10
2.325441
 20
-3.889736
  0
VERTEX
  8
PLAN_1
  6
CONTINUOUS
 10
2.327484
 20
-3.895358
  0
VERTEX
  8
PLAN_1
  6
CONTINUOUS
 10
2.328508
 20
-3.900465
  0
VERTEX
  8
PLAN_1
  6
CONTINUOUS
 10
2.329528
 20
-3.905063
  0
VERTEX
  8
PLAN_1
  6
CONTINUOUS
 10
2.330039
 20
-3.910173
  0
VERTEX
  8
PLAN_1
  6
CONTINUOUS
 10
2.330039
 20
-3.914260
  0
VERTEX
  8
PLAN_1
  6
CONTINUOUS
 10
2.305008
 20
-3.914260
  0
SEQEND
  8
0
  0
POLYLINE
  8
PLAN_1
  6
CONTINUOUS
 66
     1
 40
0.008173
 41
0.008173
  0
VERTEX
  8
PLAN_1
  6
CONTINUOUS
 10
-0.698937
 20
-0.175677
  0
VERTEX
  8
PLAN_1
  6
CONTINUOUS
 10
-0.694343
 20
-0.175677
  0
VERTEX
  8
PLAN_1
  6
CONTINUOUS
 10
-0.690256
 20
-0.175165
  0
VERTEX
  8
PLAN_1
  6
CONTINUOUS
 10
-0.686677
 20
-0.174142
  0
VERTEX
  8
PLAN_1
  6
CONTINUOUS
 10
-0.683614
 20
-0.173122
  0
VERTEX
  8
PLAN_1
  6
CONTINUOUS
 10
-0.680547
 20
-0.171591
  0
VERTEX
  8
PLAN_1
  6
CONTINUOUS
 10
-0.677480
 20
-0.170055
  0
VERTEX
  8
PLAN_1
  6
CONTINUOUS
 10
-0.674929
 20
-0.168524
  0
VERTEX
  8
PLAN_1
  6
CONTINUOUS
 10
-0.672886
 20
-0.166480
  0
VERTEX
  8
PLAN_1
  6
CONTINUOUS
 10
-0.668799
 20
-0.161882
  0
VERTEX
  8
PLAN_1
  6
CONTINUOUS
 10
-0.665732
 20
-0.156772
  0
VERTEX
  8
PLAN_1
  6
CONTINUOUS
 10
-0.663177
 20
-0.151665
  0
VERTEX
  8
PLAN_1
  6
CONTINUOUS
 10
-0.661646
 20
-0.146043
  0
VERTEX
  8
PLAN_1
  6
CONTINUOUS
 10
-0.660622
 20
-0.140425
  0
VERTEX
  8
PLAN_1
  6
CONTINUOUS
 10
-0.660114
 20
-0.135315
  0
VERTEX
  8
PLAN_1
  6
CONTINUOUS
 10
-0.659602
 20
-0.130209
  0
VERTEX
  8
PLAN_1
  6
CONTINUOUS
 10
-0.659602
 20
-0.125610
  0
VERTEX
  8
PLAN_1
  6
CONTINUOUS
 10
-0.660114
 20
-0.118969
  0
VERTEX
  8
PLAN_1
  6
CONTINUOUS
 10
-0.660622
 20
-0.116413
  0
SEQEND
  8
0
  0
POLYLINE
  8
PLAN_1
  6
CONTINUOUS
 66
     1
 40
0.008173
 41
0.008173
  0
VERTEX
  8
PLAN_1
  6
CONTINUOUS
 10
-0.660622
 20
-0.116413
  0
VERTEX
  8
PLAN_1
  6
CONTINUOUS
 10
-1.608295
 20
-0.116413
  0
SEQEND
  8
0
  0
POLYLINE
  8
PLAN_1
  6
CONTINUOUS
 66
     1
 40
0.008173
 41
0.008173
  0
VERTEX
  8
PLAN_1
  6
CONTINUOUS
 10
-1.608295
 20
-0.116413
  0
VERTEX
  8
PLAN_1
  6
CONTINUOUS
 10
-1.608807
 20
-0.118969
  0
VERTEX
  8
PLAN_1
  6
CONTINUOUS
 10
-1.610850
 20
-0.125610
  0
VERTEX
  8
PLAN_1
  6
CONTINUOUS
 10
-1.611874
 20
-0.130209
  0
VERTEX
  8
PLAN_1
  6
CONTINUOUS
 10
-1.612382
 20
-0.135315
  0
VERTEX
  8
PLAN_1
  6
CONTINUOUS
 10
-1.612894
 20
-0.140425
  0
VERTEX
  8
PLAN_1
  6
CONTINUOUS
 10
-1.612894
 20
-0.146043
  0
VERTEX
  8
PLAN_1
  6
CONTINUOUS
 10
-1.611874
 20
-0.151665
  0
VERTEX
  8
PLAN_1
  6
CONTINUOUS
 10
-1.610850
 20
-0.156772
  0
VERTEX
  8
PLAN_1
  6
CONTINUOUS
 10
-1.609831
 20
-0.159327
  0
VERTEX
  8
PLAN_1
  6
CONTINUOUS
 10
-1.608295
 20
-0.161882
  0
VERTEX
  8
PLAN_1
  6
CONTINUOUS
 10
-1.606764
 20
-0.164437
  0
VERTEX
  8
PLAN_1
  6
CONTINUOUS
 10
-1.605232
 20
-0.166480
  0
VERTEX
  8
PLAN_1
  6
CONTINUOUS
 10
-1.602677
 20
-0.168524
  0
VERTEX
  8
PLAN_1
  6
CONTINUOUS
 10
-1.600634
 20
-0.170055
  0
VERTEX
  8
PLAN_1
  6
CONTINUOUS
 10
-1.597567
 20
-0.171591
  0
VERTEX
  8
PLAN_1
  6
CONTINUOUS
 10
-1.594504
 20
-0.173122
  0
VERTEX
  8
PLAN_1
  6
CONTINUOUS
 10
-1.591437
 20
-0.174142
  0
VERTEX
  8
PLAN_1
  6
CONTINUOUS
 10
-1.587350
 20
-0.175165
  0
VERTEX
  8
PLAN_1
  6
CONTINUOUS
 10
-1.583264
 20
-0.175677
  0
VERTEX
  8
PLAN_1
  6
CONTINUOUS
 10
-1.578665
 20
-0.175677
  0
VERTEX
  8
PLAN_1
  6
CONTINUOUS
 10
-1.533709
 20
-0.175677
  0
VERTEX
  8
PLAN_1
  6
CONTINUOUS
 10
-1.435622
 20
-0.175677
  0
VERTEX
  8
PLAN_1
  6
CONTINUOUS
 10
-1.302283
 20
-0.175677
  0
VERTEX
  8
PLAN_1
  6
CONTINUOUS
 10
-1.150043
 20
-0.175677
  0
VERTEX
  8
PLAN_1
  6
CONTINUOUS
 10
-0.996268
 20
-0.175677
  0
VERTEX
  8
PLAN_1
  6
CONTINUOUS
 10
-0.858331
 20
-0.175677
  0
VERTEX
  8
PLAN_1
  6
CONTINUOUS
 10
-0.753602
 20
-0.175677
  0
VERTEX
  8
PLAN_1
  6
CONTINUOUS
 10
-0.698937
 20
-0.175677
  0
SEQEND
  8
0
  0
POLYLINE
  8
PLAN_1
  6
CONTINUOUS
 66
     1
 40
0.008173
 41
0.008173
  0
VERTEX
  8
PLAN_1
  6
CONTINUOUS
 10
-1.532177
 20
-0.175677
  0
VERTEX
  8
PLAN_1
  6
CONTINUOUS
 10
-1.532177
 20
-0.491398
  0
VERTEX
  8
PLAN_1
  6
CONTINUOUS
 10
-1.490283
 20
-0.491398
  0
VERTEX
  8
PLAN_1
  6
CONTINUOUS
 10
-1.490283
 20
-0.535331
  0
VERTEX
  8
PLAN_1
  6
CONTINUOUS
 10
-1.451969
 20
-0.535331
  0
VERTEX
  8
PLAN_1
  6
CONTINUOUS
 10
-1.451969
 20
-0.491398
  0
VERTEX
  8
PLAN_1
  6
CONTINUOUS
 10
-0.839941
 20
-0.491398
  0
VERTEX
  8
PLAN_1
  6
CONTINUOUS
 10
-0.839941
 20
-0.535331
  0
VERTEX
  8
PLAN_1
  6
CONTINUOUS
 10
-0.801626
 20
-0.535331
  0
VERTEX
  8
PLAN_1
  6
CONTINUOUS
 10
-0.801626
 20
-0.491398
  0
VERTEX
  8
PLAN_1
  6
CONTINUOUS
 10
-0.742362
 20
-0.491398
  0
VERTEX
  8
PLAN_1
  6
CONTINUOUS
 10
-0.742362
 20
-0.175677
  0
VERTEX
  8
PLAN_1
  6
CONTINUOUS
 10
-1.532177
 20
-0.175677
  0
SEQEND
  8
0
  0
POLYLINE
  8
PLAN_1
  6
CONTINUOUS
 66
     1
 40
0.007150
 41
0.007150
  0
VERTEX
  8
PLAN_1
  6
CONTINUOUS
 10
-1.257835
 20
-0.491398
  0
VERTEX
  8
PLAN_1
  6
CONTINUOUS
 10
-1.380445
 20
-0.512854
  0
VERTEX
  8
PLAN_1
  6
CONTINUOUS
 10
-1.388622
 20
-0.514386
  0
SEQEND
  8
0
  0
POLYLINE
  8
PLAN_1
  6
CONTINUOUS
 66
     1
 40
0.007150
 41
0.007150
  0
VERTEX
  8
PLAN_1
  6
CONTINUOUS
 10
-1.388622
 20
-0.514386
  0
VERTEX
  8
PLAN_1
  6
CONTINUOUS
 10
-1.392197
 20
-0.515409
  0
VERTEX
  8
PLAN_1
  6
CONTINUOUS
 10
-1.395772
 20
-0.517453
  0
VERTEX
  8
PLAN_1
  6
CONTINUOUS
 10
-1.398839
 20
-0.519496
  0
VERTEX
  8
PLAN_1
  6
CONTINUOUS
 10
-1.401394
 20
-0.522559
  0
VERTEX
  8
PLAN_1
  6
CONTINUOUS
 10
-1.402925
 20
-0.525626
  0
VERTEX
  8
PLAN_1
  6
CONTINUOUS
 10
-1.404457
 20
-0.529201
  0
VERTEX
  8
PLAN_1
  6
CONTINUOUS
 10
-1.404969
 20
-0.533287
  0
VERTEX
  8
PLAN_1
  6
CONTINUOUS
 10
-1.404457
 20
-0.537374
  0
VERTEX
  8
PLAN_1
  6
CONTINUOUS
 10
-1.403437
 20
-0.540953
  0
VERTEX
  8
PLAN_1
  6
CONTINUOUS
 10
-1.401902
 20
-0.544528
  0
VERTEX
  8
PLAN_1
  6
CONTINUOUS
 10
-1.399350
 20
-0.547594
  0
VERTEX
  8
PLAN_1
  6
CONTINUOUS
 10
-1.396283
 20
-0.550146
  0
VERTEX
  8
PLAN_1
  6
CONTINUOUS
 10
-1.393217
 20
-0.551681
  0
VERTEX
  8
PLAN_1
  6
CONTINUOUS
 10
-1.389642
 20
-0.553213
  0
VERTEX
  8
PLAN_1
  6
CONTINUOUS
 10
-1.385555
 20
-0.553724
  0
VERTEX
  8
PLAN_1
  6
CONTINUOUS
 10
-1.381469
 20
-0.553213
  0
SEQEND
  8
0
  0
POLYLINE
  8
PLAN_1
  6
CONTINUOUS
 66
     1
 40
0.007150
 41
0.007150
  0
VERTEX
  8
PLAN_1
  6
CONTINUOUS
 10
-1.381469
 20
-0.553213
  0
VERTEX
  8
PLAN_1
  6
CONTINUOUS
 10
-1.373803
 20
-0.551681
  0
VERTEX
  8
PLAN_1
  6
CONTINUOUS
 10
-1.031520
 20
-0.491398
  0
VERTEX
  8
PLAN_1
  6
CONTINUOUS
 10
-1.257835
 20
-0.491398
  0
SEQEND
  8
0
  0
POLYLINE
  8
PLAN_1
  6
CONTINUOUS
 66
     1
 40
0.007150
 41
0.007150
  0
VERTEX
  8
PLAN_1
  6
CONTINUOUS
 10
-0.897157
 20
-0.639551
  0
VERTEX
  8
PLAN_1
  6
CONTINUOUS
 10
-0.893071
 20
-0.638528
  0
VERTEX
  8
PLAN_1
  6
CONTINUOUS
 10
-0.889496
 20
-0.636484
  0
VERTEX
  8
PLAN_1
  6
CONTINUOUS
 10
-0.886941
 20
-0.634441
  0
VERTEX
  8
PLAN_1
  6
CONTINUOUS
 10
-0.884386
 20
-0.631378
  0
VERTEX
  8
PLAN_1
  6
CONTINUOUS
 10
-0.882343
 20
-0.628311
  0
VERTEX
  8
PLAN_1
  6
CONTINUOUS
 10
-0.881323
 20
-0.624736
  0
VERTEX
  8
PLAN_1
  6
CONTINUOUS
 10
-0.880811
 20
-0.620650
  0
VERTEX
  8
PLAN_1
  6
CONTINUOUS
 10
-0.880811
 20
-0.616559
  0
VERTEX
  8
PLAN_1
  6
CONTINUOUS
 10
-0.882343
 20
-0.612984
  0
VERTEX
  8
PLAN_1
  6
CONTINUOUS
 10
-0.883874
 20
-0.609409
  0
VERTEX
  8
PLAN_1
  6
CONTINUOUS
 10
-0.886429
 20
-0.606343
  0
VERTEX
  8
PLAN_1
  6
CONTINUOUS
 10
-0.888984
 20
-0.603787
  0
VERTEX
  8
PLAN_1
  6
CONTINUOUS
 10
-0.892559
 20
-0.602256
  0
VERTEX
  8
PLAN_1
  6
CONTINUOUS
 10
-0.896138
 20
-0.600724
  0
VERTEX
  8
PLAN_1
  6
CONTINUOUS
 10
-0.899713
 20
-0.600213
  0
VERTEX
  8
PLAN_1
  6
CONTINUOUS
 10
-0.903799
 20
-0.600724
  0
SEQEND
  8
0
  0
POLYLINE
  8
PLAN_1
  6
CONTINUOUS
 66
     1
 40
0.007150
 41
0.007150
  0
VERTEX
  8
PLAN_1
  6
CONTINUOUS
 10
-0.903799
 20
-0.600724
  0
VERTEX
  8
PLAN_1
  6
CONTINUOUS
 10
-0.916059
 20
-0.602768
  0
VERTEX
  8
PLAN_1
  6
CONTINUOUS
 10
-1.380445
 20
-0.685020
  0
VERTEX
  8
PLAN_1
  6
CONTINUOUS
 10
-1.388110
 20
-0.686039
  0
SEQEND
  8
0
  0
POLYLINE
  8
PLAN_1
  6
CONTINUOUS
 66
     1
 40
0.007150
 41
0.007150
  0
VERTEX
  8
PLAN_1
  6
CONTINUOUS
 10
-1.388110
 20
-0.686039
  0
VERTEX
  8
PLAN_1
  6
CONTINUOUS
 10
-1.392197
 20
-0.687571
  0
VERTEX
  8
PLAN_1
  6
CONTINUOUS
 10
-1.395772
 20
-0.689106
  0
VERTEX
  8
PLAN_1
  6
CONTINUOUS
 10
-1.398839
 20
-0.691661
  0
VERTEX
  8
PLAN_1
  6
CONTINUOUS
 10
-1.400882
 20
-0.694213
  0
VERTEX
  8
PLAN_1
  6
CONTINUOUS
 10
-1.402925
 20
-0.697791
  0
VERTEX
  8
PLAN_1
  6
CONTINUOUS
 10
-1.403945
 20
-0.701366
  0
VERTEX
  8
PLAN_1
  6
CONTINUOUS
 10
-1.404457
 20
-0.704941
  0
VERTEX
  8
PLAN_1
  6
CONTINUOUS
 10
-1.404457
 20
-0.709028
  0
VERTEX
  8
PLAN_1
  6
CONTINUOUS
 10
-1.403437
 20
-0.713118
  0
VERTEX
  8
PLAN_1
  6
CONTINUOUS
 10
-1.401394
 20
-0.716693
  0
VERTEX
  8
PLAN_1
  6
CONTINUOUS
 10
-1.399350
 20
-0.719248
  0
VERTEX
  8
PLAN_1
  6
CONTINUOUS
 10
-1.396283
 20
-0.721803
  0
VERTEX
  8
PLAN_1
  6
CONTINUOUS
 10
-1.392709
 20
-0.723846
  0
VERTEX
  8
PLAN_1
  6
CONTINUOUS
 10
-1.389130
 20
-0.724866
  0
VERTEX
  8
PLAN_1
  6
CONTINUOUS
 10
-1.385555
 20
-0.725378
  0
VERTEX
  8
PLAN_1
  6
CONTINUOUS
 10
-1.381469
 20
-0.725378
  0
SEQEND
  8
0
  0
POLYLINE
  8
PLAN_1
  6
CONTINUOUS
 66
     1
 40
0.007150
 41
0.007150
  0
VERTEX
  8
PLAN_1
  6
CONTINUOUS
 10
-1.381469
 20
-0.725378
  0
VERTEX
  8
PLAN_1
  6
CONTINUOUS
 10
-1.373803
 20
-0.723846
  0
VERTEX
  8
PLAN_1
  6
CONTINUOUS
 10
-0.909421
 20
-0.641594
  0
VERTEX
  8
PLAN_1
  6
CONTINUOUS
 10
-0.897157
 20
-0.639551
  0
SEQEND
  8
0
  0
POLYLINE
  8
PLAN_1
  6
CONTINUOUS
 66
     1
 40
0.007150
 41
0.007150
  0
VERTEX
  8
PLAN_1
  6
CONTINUOUS
 10
-0.892559
 20
-0.897031
  0
VERTEX
  8
PLAN_1
  6
CONTINUOUS
 10
-0.888472
 20
-0.896520
  0
VERTEX
  8
PLAN_1
  6
CONTINUOUS
 10
-0.884898
 20
-0.895500
  0
VERTEX
  8
PLAN_1
  6
CONTINUOUS
 10
-0.881831
 20
-0.893457
  0
VERTEX
  8
PLAN_1
  6
CONTINUOUS
 10
-0.878768
 20
-0.891413
  0
VERTEX
  8
PLAN_1
  6
CONTINUOUS
 10
-0.876213
 20
-0.888346
  0
VERTEX
  8
PLAN_1
  6
CONTINUOUS
 10
-0.874681
 20
-0.884772
  0
VERTEX
  8
PLAN_1
  6
CONTINUOUS
 10
-0.873146
 20
-0.881193
  0
VERTEX
  8
PLAN_1
  6
CONTINUOUS
 10
-0.873146
 20
-0.877106
  0
VERTEX
  8
PLAN_1
  6
CONTINUOUS
 10
-0.873146
 20
-0.873531
  0
VERTEX
  8
PLAN_1
  6
CONTINUOUS
 10
-0.874681
 20
-0.869445
  0
VERTEX
  8
PLAN_1
  6
CONTINUOUS
 10
-0.876213
 20
-0.866378
  0
VERTEX
  8
PLAN_1
  6
CONTINUOUS
 10
-0.878768
 20
-0.863315
  0
VERTEX
  8
PLAN_1
  6
CONTINUOUS
 10
-0.881831
 20
-0.860760
  0
VERTEX
  8
PLAN_1
  6
CONTINUOUS
 10
-0.884898
 20
-0.859228
  0
VERTEX
  8
PLAN_1
  6
CONTINUOUS
 10
-0.888472
 20
-0.857693
  0
VERTEX
  8
PLAN_1
  6
CONTINUOUS
 10
-0.892559
 20
-0.857693
  0
SEQEND
  8
0
  0
POLYLINE
  8
PLAN_1
  6
CONTINUOUS
 66
     1
 40
0.007150
 41
0.007150
  0
VERTEX
  8
PLAN_1
  6
CONTINUOUS
 10
-0.892559
 20
-0.857693
  0
VERTEX
  8
PLAN_1
  6
CONTINUOUS
 10
-0.904823
 20
-0.857693
  0
VERTEX
  8
PLAN_1
  6
CONTINUOUS
 10
-1.376358
 20
-0.857693
  0
VERTEX
  8
PLAN_1
  6
CONTINUOUS
 10
-1.384531
 20
-0.857693
  0
SEQEND
  8
0
  0
POLYLINE
  8
PLAN_1
  6
CONTINUOUS
 66
     1
 40
0.007150
 41
0.007150
  0
VERTEX
  8
PLAN_1
  6
CONTINUOUS
 10
-1.384531
 20
-0.857693
  0
VERTEX
  8
PLAN_1
  6
CONTINUOUS
 10
-1.388622
 20
-0.858205
  0
VERTEX
  8
PLAN_1
  6
CONTINUOUS
 10
-1.392197
 20
-0.859228
  0
VERTEX
  8
PLAN_1
  6
CONTINUOUS
 10
-1.395772
 20
-0.861272
  0
VERTEX
  8
PLAN_1
  6
CONTINUOUS
 10
-1.398327
 20
-0.863315
  0
VERTEX
  8
PLAN_1
  6
CONTINUOUS
 10
-1.400882
 20
-0.866378
  0
VERTEX
  8
PLAN_1
  6
CONTINUOUS
 10
-1.402925
 20
-0.869957
  0
VERTEX
  8
PLAN_1
  6
CONTINUOUS
 10
-1.403945
 20
-0.873531
  0
VERTEX
  8
PLAN_1
  6
CONTINUOUS
 10
-1.404457
 20
-0.877618
  0
VERTEX
  8
PLAN_1
  6
CONTINUOUS
 10
-1.403945
 20
-0.881193
  0
VERTEX
  8
PLAN_1
  6
CONTINUOUS
 10
-1.402925
 20
-0.885280
  0
VERTEX
  8
PLAN_1
  6
CONTINUOUS
 10
-1.400882
 20
-0.888346
  0
VERTEX
  8
PLAN_1
  6
CONTINUOUS
 10
-1.398327
 20
-0.891413
  0
VERTEX
  8
PLAN_1
  6
CONTINUOUS
 10
-1.395772
 20
-0.893965
  0
VERTEX
  8
PLAN_1
  6
CONTINUOUS
 10
-1.392197
 20
-0.895500
  0
VERTEX
  8
PLAN_1
  6
CONTINUOUS
 10
-1.388622
 20
-0.897031
  0
VERTEX
  8
PLAN_1
  6
CONTINUOUS
 10
-1.384531
 20
-0.897031
  0
SEQEND
  8
0
  0
POLYLINE
  8
PLAN_1
  6
CONTINUOUS
 66
     1
 40
0.007150
 41
0.007150
  0
VERTEX
  8
PLAN_1
  6
CONTINUOUS
 10
-1.384531
 20
-0.897031
  0
VERTEX
  8
PLAN_1
  6
CONTINUOUS
 10
-1.376358
 20
-0.897031
  0
VERTEX
  8
PLAN_1
  6
CONTINUOUS
 10
-0.904823
 20
-0.897031
  0
VERTEX
  8
PLAN_1
  6
CONTINUOUS
 10
-0.892559
 20
-0.897031
  0
SEQEND
  8
0
  0
POLYLINE
  8
PLAN_1
  6
CONTINUOUS
 66
     1
 40
0.008173
 41
0.008173
  0
VERTEX
  8
PLAN_1
  6
CONTINUOUS
 10
-1.407524
 20
0.802650
  0
VERTEX
  8
PLAN_1
  6
CONTINUOUS
 10
-1.671646
 20
0.802650
  0
VERTEX
  8
PLAN_1
  6
CONTINUOUS
 10
-1.671646
 20
-0.116413
  0
VERTEX
  8
PLAN_1
  6
CONTINUOUS
 10
-0.605449
 20
-0.116413
  0
VERTEX
  8
PLAN_1
  6
CONTINUOUS
 10
-0.605449
 20
0.802650
  0
VERTEX
  8
PLAN_1
  6
CONTINUOUS
 10
-0.858331
 20
0.802650
  0
SEQEND
  8
0
  0
POLYLINE
  8
PLAN_1
  6
CONTINUOUS
 66
     1
 40
0.008173
 41
0.008173
  0
VERTEX
  8
PLAN_1
  6
CONTINUOUS
 10
-0.605449
 20
0.802650
  0
VERTEX
  8
PLAN_1
  6
CONTINUOUS
 10
-0.605961
 20
0.921173
  0
VERTEX
  8
PLAN_1
  6
CONTINUOUS
 10
-0.976343
 20
0.921173
  0
SEQEND
  8
0
  0
POLYLINE
  8
PLAN_1
  6
CONTINUOUS
 66
     1
 40
0.008173
 41
0.008173
  0
VERTEX
  8
PLAN_1
  6
CONTINUOUS
 10
-1.284402
 20
0.921173
  0
VERTEX
  8
PLAN_1
  6
CONTINUOUS
 10
-1.671646
 20
0.921173
  0
VERTEX
  8
PLAN_1
  6
CONTINUOUS
 10
-1.671646
 20
0.802650
  0
SEQEND
  8
0
  0
POLYLINE
  8
PLAN_1
  6
CONTINUOUS
 66
     1
 40
0.008173
 41
0.008173
  0
VERTEX
  8
PLAN_1
  6
CONTINUOUS
 10
-1.407524
 20
0.803161
  0
VERTEX
  8
PLAN_1
  6
CONTINUOUS
 10
-1.671646
 20
0.803161
  0
VERTEX
  8
PLAN_1
  6
CONTINUOUS
 10
-1.671646
 20
0.862421
  0
VERTEX
  8
PLAN_1
  6
CONTINUOUS
 10
-1.407524
 20
0.862421
  0
SEQEND
  8
0
  0
POLYLINE
  8
PLAN_1
  6
CONTINUOUS
 66
     1
 40
0.007150
 41
0.007150
  0
VERTEX
  8
PLAN_1
  6
CONTINUOUS
 10
-1.514807
 20
0.839945
  0
VERTEX
  8
PLAN_1
  6
CONTINUOUS
 10
-1.514807
 20
0.862421
  0
VERTEX
  8
PLAN_1
  6
CONTINUOUS
 10
-1.561807
 20
0.862421
  0
VERTEX
  8
PLAN_1
  6
CONTINUOUS
 10
-1.561807
 20
0.839945
  0
VERTEX
  8
PLAN_1
  6
CONTINUOUS
 10
-1.514807
 20
0.839945
  0
SEQEND
  8
0
  0
POLYLINE
  8
PLAN_1
  6
CONTINUOUS
 66
     1
 40
0.008173
 41
0.008173
  0
VERTEX
  8
PLAN_1
  6
CONTINUOUS
 10
-0.858331
 20
0.862421
  0
VERTEX
  8
PLAN_1
  6
CONTINUOUS
 10
-0.608516
 20
0.862421
  0
VERTEX
  8
PLAN_1
  6
CONTINUOUS
 10
-0.608516
 20
0.803161
  0
VERTEX
  8
PLAN_1
  6
CONTINUOUS
 10
-0.858331
 20
0.803161
  0
SEQEND
  8
0
  0
POLYLINE
  8
PLAN_1
  6
CONTINUOUS
 66
     1
 40
0.007150
 41
0.007150
  0
VERTEX
  8
PLAN_1
  6
CONTINUOUS
 10
-0.717331
 20
0.839945
  0
VERTEX
  8
PLAN_1
  6
CONTINUOUS
 10
-0.717331
 20
0.862421
  0
VERTEX
  8
PLAN_1
  6
CONTINUOUS
 10
-0.764331
 20
0.862421
  0
VERTEX
  8
PLAN_1
  6
CONTINUOUS
 10
-0.764331
 20
0.839945
  0
VERTEX
  8
PLAN_1
  6
CONTINUOUS
 10
-0.717331
 20
0.839945
  0
SEQEND
  8
0
  0
POLYLINE
  8
PLAN_1
  6
CONTINUOUS
 66
     1
 40
0.007150
 41
0.007150
  0
VERTEX
  8
PLAN_1
  6
CONTINUOUS
 10
-1.168433
 20
0.723465
  0
VERTEX
  8
PLAN_1
  6
CONTINUOUS
 10
-1.168433
 20
0.674929
  0
SEQEND
  8
0
  0
POLYLINE
  8
PLAN_1
  6
CONTINUOUS
 66
     1
 40
0.007150
 41
0.007150
  0
VERTEX
  8
PLAN_1
  6
CONTINUOUS
 10
-1.368185
 20
0.744409
  0
VERTEX
  8
PLAN_1
  6
CONTINUOUS
 10
-1.367673
 20
0.797031
  0
SEQEND
  8
0
  0
POLYLINE
  8
PLAN_1
  6
CONTINUOUS
 66
     1
 40
0.005618
 41
0.005618
  0
VERTEX
  8
PLAN_1
  6
CONTINUOUS
 10
-0.901244
 20
0.486929
  0
VERTEX
  8
PLAN_1
  6
CONTINUOUS
 10
-0.762799
 20
0.486929
  0
SEQEND
  8
0
  0
POLYLINE
  8
PLAN_1
  6
CONTINUOUS
 66
     1
 40
0.005618
 41
0.005618
  0
VERTEX
  8
PLAN_1
  6
CONTINUOUS
 10
-0.762799
 20
0.486929
  0
VERTEX
  8
PLAN_1
  6
CONTINUOUS
 10
-0.764843
 20
0.506343
  0
VERTEX
  8
PLAN_1
  6
CONTINUOUS
 10
-0.767906
 20
0.525244
  0
VERTEX
  8
PLAN_1
  6
CONTINUOUS
 10
-0.771992
 20
0.544146
  0
VERTEX
  8
PLAN_1
  6
CONTINUOUS
 10
-0.777102
 20
0.562028
  0
VERTEX
  8
PLAN_1
  6
CONTINUOUS
 10
-0.783232
 20
0.580417
  0
VERTEX
  8
PLAN_1
  6
CONTINUOUS
 10
-0.789874
 20
0.597787
  0
VERTEX
  8
PLAN_1
  6
CONTINUOUS
 10
-0.797028
 20
0.614650
  0
VERTEX
  8
PLAN_1
  6
CONTINUOUS
 10
-0.805713
 20
0.631508
  0
VERTEX
  8
PLAN_1
  6
CONTINUOUS
 10
-0.814909
 20
0.647343
  0
VERTEX
  8
PLAN_1
  6
CONTINUOUS
 10
-0.824614
 20
0.663181
  0
VERTEX
  8
PLAN_1
  6
CONTINUOUS
 10
-0.835343
 20
0.677996
  0
VERTEX
  8
PLAN_1
  6
CONTINUOUS
 10
-0.846583
 20
0.692299
  0
VERTEX
  8
PLAN_1
  6
CONTINUOUS
 10
-0.858843
 20
0.706606
  0
VERTEX
  8
PLAN_1
  6
CONTINUOUS
 10
-0.871614
 20
0.719890
  0
VERTEX
  8
PLAN_1
  6
CONTINUOUS
 10
-0.884898
 20
0.732150
  0
VERTEX
  8
PLAN_1
  6
CONTINUOUS
 10
-0.899201
 20
0.744409
  0
SEQEND
  8
0
  0
POLYLINE
  8
PLAN_1
  6
CONTINUOUS
 66
     1
 40
0.007150
 41
0.007150
  0
VERTEX
  8
PLAN_1
  6
CONTINUOUS
 10
-1.095378
 20
0.722953
  0
VERTEX
  8
PLAN_1
  6
CONTINUOUS
 10
-1.095378
 20
0.674929
  0
SEQEND
  8
0
  0
POLYLINE
  8
PLAN_1
  6
CONTINUOUS
 66
     1
 40
0.005618
 41
0.005618
  0
VERTEX
  8
PLAN_1
  6
CONTINUOUS
 10
-0.897669
 20
0.413874
  0
VERTEX
  8
PLAN_1
  6
CONTINUOUS
 10
-0.763819
 20
0.413874
  0
SEQEND
  8
0
  0
POLYLINE
  8
PLAN_1
  6
CONTINUOUS
 66
     1
 40
0.005618
 41
0.005618
  0
VERTEX
  8
PLAN_1
  6
CONTINUOUS
 10
-0.763819
 20
0.413874
  0
VERTEX
  8
PLAN_1
  6
CONTINUOUS
 10
-0.766374
 20
0.397528
  0
VERTEX
  8
PLAN_1
  6
CONTINUOUS
 10
-0.768929
 20
0.381689
  0
VERTEX
  8
PLAN_1
  6
CONTINUOUS
 10
-0.772504
 20
0.366362
  0
VERTEX
  8
PLAN_1
  6
CONTINUOUS
 10
-0.776591
 20
0.351035
  0
VERTEX
  8
PLAN_1
  6
CONTINUOUS
 10
-0.781189
 20
0.335709
  0
VERTEX
  8
PLAN_1
  6
CONTINUOUS
 10
-0.786811
 20
0.320894
  0
VERTEX
  8
PLAN_1
  6
CONTINUOUS
 10
-0.792941
 20
0.306079
  0
VERTEX
  8
PLAN_1
  6
CONTINUOUS
 10
-0.799583
 20
0.292287
  0
VERTEX
  8
PLAN_1
  6
CONTINUOUS
 10
-0.806732
 20
0.277980
  0
VERTEX
  8
PLAN_1
  6
CONTINUOUS
 10
-0.814398
 20
0.264697
  0
VERTEX
  8
PLAN_1
  6
CONTINUOUS
 10
-0.822571
 20
0.251417
  0
VERTEX
  8
PLAN_1
  6
CONTINUOUS
 10
-0.831256
 20
0.238646
  0
VERTEX
  8
PLAN_1
  6
CONTINUOUS
 10
-0.840961
 20
0.226382
  0
VERTEX
  8
PLAN_1
  6
CONTINUOUS
 10
-0.850669
 20
0.214122
  0
VERTEX
  8
PLAN_1
  6
CONTINUOUS
 10
-0.860886
 20
0.202882
  0
VERTEX
  8
PLAN_1
  6
CONTINUOUS
 10
-0.871614
 20
0.191642
  0
VERTEX
  8
PLAN_1
  6
CONTINUOUS
 10
-0.882854
 20
0.180913
  0
VERTEX
  8
PLAN_1
  6
CONTINUOUS
 10
-0.894602
 20
0.170697
  0
VERTEX
  8
PLAN_1
  6
CONTINUOUS
 10
-0.906866
 20
0.160992
  0
VERTEX
  8
PLAN_1
  6
CONTINUOUS
 10
-0.919126
 20
0.151795
  0
VERTEX
  8
PLAN_1
  6
CONTINUOUS
 10
-0.931898
 20
0.143110
  0
VERTEX
  8
PLAN_1
  6
CONTINUOUS
 10
-0.945181
 20
0.134937
  0
VERTEX
  8
PLAN_1
  6
CONTINUOUS
 10
-0.958972
 20
0.127272
  0
VERTEX
  8
PLAN_1
  6
CONTINUOUS
 10
-0.972768
 20
0.120122
  0
VERTEX
  8
PLAN_1
  6
CONTINUOUS
 10
-0.987071
 20
0.113992
  0
VERTEX
  8
PLAN_1
  6
CONTINUOUS
 10
-1.001890
 20
0.107858
  0
VERTEX
  8
PLAN_1
  6
CONTINUOUS
 10
-1.016705
 20
0.102752
  0
VERTEX
  8
PLAN_1
  6
CONTINUOUS
 10
-1.032028
 20
0.098154
  0
VERTEX
  8
PLAN_1
  6
CONTINUOUS
 10
-1.047354
 20
0.094067
  0
VERTEX
  8
PLAN_1
  6
CONTINUOUS
 10
-1.063193
 20
0.090488
  0
VERTEX
  8
PLAN_1
  6
CONTINUOUS
 10
-1.079031
 20
0.087937
  0
VERTEX
  8
PLAN_1
  6
CONTINUOUS
 10
-1.094866
 20
0.085894
  0
SEQEND
  8
0
  0
POLYLINE
  8
PLAN_1
  6
CONTINUOUS
 66
     1
 40
0.005618
 41
0.005618
  0
VERTEX
  8
PLAN_1
  6
CONTINUOUS
 10
-1.094866
 20
0.085894
  0
VERTEX
  8
PLAN_1
  6
CONTINUOUS
 10
-1.095378
 20
0.206461
  0
SEQEND
  8
0
  0
POLYLINE
  8
PLAN_1
  6
CONTINUOUS
 66
     1
 40
0.007150
 41
0.007150
  0
VERTEX
  8
PLAN_1
  6
CONTINUOUS
 10
-0.899201
 20
0.744409
  0
VERTEX
  8
PLAN_1
  6
CONTINUOUS
 10
-0.899201
 20
0.796008
  0
SEQEND
  8
0
  0
POLYLINE
  8
PLAN_1
  6
CONTINUOUS
 66
     1
 40
0.007150
 41
0.007150
  0
VERTEX
  8
PLAN_1
  6
CONTINUOUS
 10
-0.910441
 20
0.723976
  0
VERTEX
  8
PLAN_1
  6
CONTINUOUS
 10
-0.910441
 20
0.797031
  0
VERTEX
  8
PLAN_1
  6
CONTINUOUS
 10
-1.346728
 20
0.797031
  0
VERTEX
  8
PLAN_1
  6
CONTINUOUS
 10
-1.346728
 20
0.723976
  0
VERTEX
  8
PLAN_1
  6
CONTINUOUS
 10
-0.910441
 20
0.723976
  0
SEQEND
  8
0
  0
POLYLINE
  8
PLAN_1
  6
CONTINUOUS
 66
     1
 40
0.007150
 41
0.007150
  0
VERTEX
  8
PLAN_1
  6
CONTINUOUS
 10
-1.133181
 20
0.203906
  0
VERTEX
  8
PLAN_1
  6
CONTINUOUS
 10
-1.120921
 20
0.204413
  0
VERTEX
  8
PLAN_1
  6
CONTINUOUS
 10
-1.109173
 20
0.205437
  0
VERTEX
  8
PLAN_1
  6
CONTINUOUS
 10
-1.096909
 20
0.206969
  0
VERTEX
  8
PLAN_1
  6
CONTINUOUS
 10
-1.085673
 20
0.209012
  0
VERTEX
  8
PLAN_1
  6
CONTINUOUS
 10
-1.073921
 20
0.211567
  0
VERTEX
  8
PLAN_1
  6
CONTINUOUS
 10
-1.062681
 20
0.214634
  0
VERTEX
  8
PLAN_1
  6
CONTINUOUS
 10
-1.051953
 20
0.218209
  0
VERTEX
  8
PLAN_1
  6
CONTINUOUS
 10
-1.041224
 20
0.222807
  0
VERTEX
  8
PLAN_1
  6
CONTINUOUS
 10
-1.030496
 20
0.227406
  0
VERTEX
  8
PLAN_1
  6
CONTINUOUS
 10
-1.020280
 20
0.232512
  0
VERTEX
  8
PLAN_1
  6
CONTINUOUS
 10
-1.010571
 20
0.238134
  0
VERTEX
  8
PLAN_1
  6
CONTINUOUS
 10
-1.000866
 20
0.244264
  0
VERTEX
  8
PLAN_1
  6
CONTINUOUS
 10
-0.991669
 20
0.250906
  0
VERTEX
  8
PLAN_1
  6
CONTINUOUS
 10
-0.982476
 20
0.258055
  0
VERTEX
  8
PLAN_1
  6
CONTINUOUS
 10
-0.973791
 20
0.265720
  0
VERTEX
  8
PLAN_1
  6
CONTINUOUS
 10
-0.965614
 20
0.273382
  0
VERTEX
  8
PLAN_1
  6
CONTINUOUS
 10
-0.957953
 20
0.281559
  0
VERTEX
  8
PLAN_1
  6
CONTINUOUS
 10
-0.950291
 20
0.290244
  0
VERTEX
  8
PLAN_1
  6
CONTINUOUS
 10
-0.943138
 20
0.299437
  0
VERTEX
  8
PLAN_1
  6
CONTINUOUS
 10
-0.937008
 20
0.308634
  0
VERTEX
  8
PLAN_1
  6
CONTINUOUS
 10
-0.930366
 20
0.318339
  0
VERTEX
  8
PLAN_1
  6
CONTINUOUS
 10
-0.924744
 20
0.328047
  0
VERTEX
  8
PLAN_1
  6
CONTINUOUS
 10
-0.919638
 20
0.338264
  0
VERTEX
  8
PLAN_1
  6
CONTINUOUS
 10
-0.915039
 20
0.348992
  0
VERTEX
  8
PLAN_1
  6
CONTINUOUS
 10
-0.910441
 20
0.359720
  0
VERTEX
  8
PLAN_1
  6
CONTINUOUS
 10
-0.906866
 20
0.370449
  0
VERTEX
  8
PLAN_1
  6
CONTINUOUS
 10
-0.903799
 20
0.381689
  0
VERTEX
  8
PLAN_1
  6
CONTINUOUS
 10
-0.901244
 20
0.393437
  0
VERTEX
  8
PLAN_1
  6
CONTINUOUS
 10
-0.899201
 20
0.404677
  0
VERTEX
  8
PLAN_1
  6
CONTINUOUS
 10
-0.897669
 20
0.416941
  0
VERTEX
  8
PLAN_1
  6
CONTINUOUS
 10
-0.896646
 20
0.428689
  0
VERTEX
  8
PLAN_1
  6
CONTINUOUS
 10
-0.896138
 20
0.440949
  0
VERTEX
  8
PLAN_1
  6
CONTINUOUS
 10
-0.896646
 20
0.453213
  0
VERTEX
  8
PLAN_1
  6
CONTINUOUS
 10
-0.897669
 20
0.464961
  0
VERTEX
  8
PLAN_1
  6
CONTINUOUS
 10
-0.899201
 20
0.477220
  0
VERTEX
  8
PLAN_1
  6
CONTINUOUS
 10
-0.901244
 20
0.488972
  0
VERTEX
  8
PLAN_1
  6
CONTINUOUS
 10
-0.903799
 20
0.500213
  0
VERTEX
  8
PLAN_1
  6
CONTINUOUS
 10
-0.906866
 20
0.511453
  0
VERTEX
  8
PLAN_1
  6
CONTINUOUS
 10
-0.910441
 20
0.522689
  0
VERTEX
  8
PLAN_1
  6
CONTINUOUS
 10
-0.915039
 20
0.533417
  0
VERTEX
  8
PLAN_1
  6
CONTINUOUS
 10
-0.919638
 20
0.543638
  0
VERTEX
  8
PLAN_1
  6
CONTINUOUS
 10
-0.924744
 20
0.553854
  0
VERTEX
  8
PLAN_1
  6
CONTINUOUS
 10
-0.930366
 20
0.564071
  0
VERTEX
  8
PLAN_1
  6
CONTINUOUS
 10
-0.937008
 20
0.573268
  0
VERTEX
  8
PLAN_1
  6
CONTINUOUS
 10
-0.943138
 20
0.582972
  0
VERTEX
  8
PLAN_1
  6
CONTINUOUS
 10
-0.950291
 20
0.591657
  0
VERTEX
  8
PLAN_1
  6
CONTINUOUS
 10
-0.957953
 20
0.600343
  0
VERTEX
  8
PLAN_1
  6
CONTINUOUS
 10
-0.965614
 20
0.608516
  0
VERTEX
  8
PLAN_1
  6
CONTINUOUS
 10
-0.973791
 20
0.616181
  0
VERTEX
  8
PLAN_1
  6
CONTINUOUS
 10
-0.982476
 20
0.623843
  0
VERTEX
  8
PLAN_1
  6
CONTINUOUS
 10
-0.991669
 20
0.630996
  0
VERTEX
  8
PLAN_1
  6
CONTINUOUS
 10
-1.000866
 20
0.637638
  0
VERTEX
  8
PLAN_1
  6
CONTINUOUS
 10
-1.010571
 20
0.643768
  0
VERTEX
  8
PLAN_1
  6
CONTINUOUS
 10
-1.020280
 20
0.649386
  0
VERTEX
  8
PLAN_1
  6
CONTINUOUS
 10
-1.030496
 20
0.654496
  0
VERTEX
  8
PLAN_1
  6
CONTINUOUS
 10
-1.041224
 20
0.659094
  0
VERTEX
  8
PLAN_1
  6
CONTINUOUS
 10
-1.051953
 20
0.663693
  0
VERTEX
  8
PLAN_1
  6
CONTINUOUS
 10
-1.062681
 20
0.667268
  0
VERTEX
  8
PLAN_1
  6
CONTINUOUS
 10
-1.073921
 20
0.670335
  0
VERTEX
  8
PLAN_1
  6
CONTINUOUS
 10
-1.085673
 20
0.672886
  0
VERTEX
  8
PLAN_1
  6
CONTINUOUS
 10
-1.096909
 20
0.674929
  0
VERTEX
  8
PLAN_1
  6
CONTINUOUS
 10
-1.109173
 20
0.676465
  0
VERTEX
  8
PLAN_1
  6
CONTINUOUS
 10
-1.120921
 20
0.677484
  0
VERTEX
  8
PLAN_1
  6
CONTINUOUS
 10
-1.133181
 20
0.677996
  0
VERTEX
  8
PLAN_1
  6
CONTINUOUS
 10
-1.145445
 20
0.677484
  0
VERTEX
  8
PLAN_1
  6
CONTINUOUS
 10
-1.157193
 20
0.676465
  0
VERTEX
  8
PLAN_1
  6
CONTINUOUS
 10
-1.169457
 20
0.674929
  0
VERTEX
  8
PLAN_1
  6
CONTINUOUS
 10
-1.181205
 20
0.672886
  0
VERTEX
  8
PLAN_1
  6
CONTINUOUS
 10
-1.192445
 20
0.670335
  0
VERTEX
  8
PLAN_1
  6
CONTINUOUS
 10
-1.203685
 20
0.667268
  0
VERTEX
  8
PLAN_1
  6
CONTINUOUS
 10
-1.214921
 20
0.663693
  0
VERTEX
  8
PLAN_1
  6
CONTINUOUS
 10
-1.225650
 20
0.659094
  0
VERTEX
  8
PLAN_1
  6
CONTINUOUS
 10
-1.235870
 20
0.654496
  0
VERTEX
  8
PLAN_1
  6
CONTINUOUS
 10
-1.246087
 20
0.649386
  0
VERTEX
  8
PLAN_1
  6
CONTINUOUS
 10
-1.256303
 20
0.643768
  0
VERTEX
  8
PLAN_1
  6
CONTINUOUS
 10
-1.265500
 20
0.637638
  0
VERTEX
  8
PLAN_1
  6
CONTINUOUS
 10
-1.275205
 20
0.630996
  0
VERTEX
  8
PLAN_1
  6
CONTINUOUS
 10
-1.283890
 20
0.623843
  0
VERTEX
  8
PLAN_1
  6
CONTINUOUS
 10
-1.292575
 20
0.616181
  0
VERTEX
  8
PLAN_1
  6
CONTINUOUS
 10
-1.300748
 20
0.608516
  0
VERTEX
  8
PLAN_1
  6
CONTINUOUS
 10
-1.308413
 20
0.600343
  0
VERTEX
  8
PLAN_1
  6
CONTINUOUS
 10
-1.316075
 20
0.591657
  0
VERTEX
  8
PLAN_1
  6
CONTINUOUS
 10
-1.323228
 20
0.582972
  0
VERTEX
  8
PLAN_1
  6
CONTINUOUS
 10
-1.329870
 20
0.573268
  0
VERTEX
  8
PLAN_1
  6
CONTINUOUS
 10
-1.336000
 20
0.564071
  0
VERTEX
  8
PLAN_1
  6
CONTINUOUS
 10
-1.341618
 20
0.553854
  0
VERTEX
  8
PLAN_1
  6
CONTINUOUS
 10
-1.346728
 20
0.543638
  0
VERTEX
  8
PLAN_1
  6
CONTINUOUS
 10
-1.351327
 20
0.533417
  0
VERTEX
  8
PLAN_1
  6
CONTINUOUS
 10
-1.355925
 20
0.522689
  0
VERTEX
  8
PLAN_1
  6
CONTINUOUS
 10
-1.359500
 20
0.511453
  0
VERTEX
  8
PLAN_1
  6
CONTINUOUS
 10
-1.362567
 20
0.500213
  0
VERTEX
  8
PLAN_1
  6
CONTINUOUS
 10
-1.365118
 20
0.488972
  0
VERTEX
  8
PLAN_1
  6
CONTINUOUS
 10
-1.367673
 20
0.477220
  0
VERTEX
  8
PLAN_1
  6
CONTINUOUS
 10
-1.368697
 20
0.464961
  0
VERTEX
  8
PLAN_1
  6
CONTINUOUS
 10
-1.369717
 20
0.453213
  0
VERTEX
  8
PLAN_1
  6
CONTINUOUS
 10
-1.370228
 20
0.440949
  0
VERTEX
  8
PLAN_1
  6
CONTINUOUS
 10
-1.369717
 20
0.428689
  0
VERTEX
  8
PLAN_1
  6
CONTINUOUS
 10
-1.368697
 20
0.416941
  0
VERTEX
  8
PLAN_1
  6
CONTINUOUS
 10
-1.367673
 20
0.404677
  0
VERTEX
  8
PLAN_1
  6
CONTINUOUS
 10
-1.365118
 20
0.393437
  0
VERTEX
  8
PLAN_1
  6
CONTINUOUS
 10
-1.362567
 20
0.381689
  0
VERTEX
  8
PLAN_1
  6
CONTINUOUS
 10
-1.359500
 20
0.370449
  0
VERTEX
  8
PLAN_1
  6
CONTINUOUS
 10
-1.355925
 20
0.359720
  0
VERTEX
  8
PLAN_1
  6
CONTINUOUS
 10
-1.351327
 20
0.348992
  0
VERTEX
  8
PLAN_1
  6
CONTINUOUS
 10
-1.346728
 20
0.338264
  0
VERTEX
  8
PLAN_1
  6
CONTINUOUS
 10
-1.341618
 20
0.328047
  0
VERTEX
  8
PLAN_1
  6
CONTINUOUS
 10
-1.336000
 20
0.318339
  0
VERTEX
  8
PLAN_1
  6
CONTINUOUS
 10
-1.329870
 20
0.308634
  0
VERTEX
  8
PLAN_1
  6
CONTINUOUS
 10
-1.323228
 20
0.299437
  0
VERTEX
  8
PLAN_1
  6
CONTINUOUS
 10
-1.316075
 20
0.290244
  0
VERTEX
  8
PLAN_1
  6
CONTINUOUS
 10
-1.308413
 20
0.281559
  0
VERTEX
  8
PLAN_1
  6
CONTINUOUS
 10
-1.300748
 20
0.273382
  0
VERTEX
  8
PLAN_1
  6
CONTINUOUS
 10
-1.292575
 20
0.265720
  0
VERTEX
  8
PLAN_1
  6
CONTINUOUS
 10
-1.283890
 20
0.258055
  0
VERTEX
  8
PLAN_1
  6
CONTINUOUS
 10
-1.275205
 20
0.250906
  0
VERTEX
  8
PLAN_1
  6
CONTINUOUS
 10
-1.265500
 20
0.244264
  0
VERTEX
  8
PLAN_1
  6
CONTINUOUS
 10
-1.256303
 20
0.238134
  0
VERTEX
  8
PLAN_1
  6
CONTINUOUS
 10
-1.246087
 20
0.232512
  0
VERTEX
  8
PLAN_1
  6
CONTINUOUS
 10
-1.235870
 20
0.227406
  0
VERTEX
  8
PLAN_1
  6
CONTINUOUS
 10
-1.225650
 20
0.222807
  0
VERTEX
  8
PLAN_1
  6
CONTINUOUS
 10
-1.214921
 20
0.218209
  0
VERTEX
  8
PLAN_1
  6
CONTINUOUS
 10
-1.203685
 20
0.214634
  0
VERTEX
  8
PLAN_1
  6
CONTINUOUS
 10
-1.192445
 20
0.211567
  0
VERTEX
  8
PLAN_1
  6
CONTINUOUS
 10
-1.181205
 20
0.209012
  0
VERTEX
  8
PLAN_1
  6
CONTINUOUS
 10
-1.169457
 20
0.206969
  0
VERTEX
  8
PLAN_1
  6
CONTINUOUS
 10
-1.157193
 20
0.205437
  0
VERTEX
  8
PLAN_1
  6
CONTINUOUS
 10
-1.145445
 20
0.204413
  0
VERTEX
  8
PLAN_1
  6
CONTINUOUS
 10
-1.133181
 20
0.203906
  0
SEQEND
  8
0
  0
POLYLINE
  8
PLAN_1
  6
CONTINUOUS
 66
     1
 40
0.007150
 41
0.007150
  0
VERTEX
  8
PLAN_1
  6
CONTINUOUS
 10
-1.143909
 20
0.671354
  0
VERTEX
  8
PLAN_1
  6
CONTINUOUS
 10
-0.940071
 20
0.561516
  0
VERTEX
  8
PLAN_1
  6
CONTINUOUS
 10
-0.940071
 20
0.319874
  0
VERTEX
  8
PLAN_1
  6
CONTINUOUS
 10
-1.143909
 20
0.207480
  0
VERTEX
  8
PLAN_1
  6
CONTINUOUS
 10
-1.338555
 20
0.319874
  0
VERTEX
  8
PLAN_1
  6
CONTINUOUS
 10
-1.338555
 20
0.561516
  0
VERTEX
  8
PLAN_1
  6
CONTINUOUS
 10
-1.143909
 20
0.671354
  0
SEQEND
  8
0
  0
POLYLINE
  8
PLAN_1
  6
CONTINUOUS
 66
     1
 40
0.007150
 41
0.007150
  0
VERTEX
  8
PLAN_1
  6
CONTINUOUS
 10
-1.140335
 20
0.331622
  0
VERTEX
  8
PLAN_1
  6
CONTINUOUS
 10
-1.134717
 20
0.331622
  0
VERTEX
  8
PLAN_1
  6
CONTINUOUS
 10
-1.129094
 20
0.332134
  0
VERTEX
  8
PLAN_1
  6
CONTINUOUS
 10
-1.123988
 20
0.332646
  0
VERTEX
  8
PLAN_1
  6
CONTINUOUS
 10
-1.118366
 20
0.333665
  0
VERTEX
  8
PLAN_1
  6
CONTINUOUS
 10
-1.113260
 20
0.334689
  0
VERTEX
  8
PLAN_1
  6
CONTINUOUS
 10
-1.108150
 20
0.336220
  0
VERTEX
  8
PLAN_1
  6
CONTINUOUS
 10
-1.103039
 20
0.338264
  0
VERTEX
  8
PLAN_1
  6
CONTINUOUS
 10
-1.097933
 20
0.339795
  0
VERTEX
  8
PLAN_1
  6
CONTINUOUS
 10
-1.088736
 20
0.344394
  0
VERTEX
  8
PLAN_1
  6
CONTINUOUS
 10
-1.079539
 20
0.350016
  0
VERTEX
  8
PLAN_1
  6
CONTINUOUS
 10
-1.071366
 20
0.356146
  0
VERTEX
  8
PLAN_1
  6
CONTINUOUS
 10
-1.063705
 20
0.363299
  0
VERTEX
  8
PLAN_1
  6
CONTINUOUS
 10
-1.056551
 20
0.370961
  0
VERTEX
  8
PLAN_1
  6
CONTINUOUS
 10
-1.050421
 20
0.379646
  0
VERTEX
  8
PLAN_1
  6
CONTINUOUS
 10
-1.044803
 20
0.388331
  0
VERTEX
  8
PLAN_1
  6
CONTINUOUS
 10
-1.040205
 20
0.398035
  0
VERTEX
  8
PLAN_1
  6
CONTINUOUS
 10
-1.038161
 20
0.402634
  0
VERTEX
  8
PLAN_1
  6
CONTINUOUS
 10
-1.036626
 20
0.407744
  0
VERTEX
  8
PLAN_1
  6
CONTINUOUS
 10
-1.035094
 20
0.412850
  0
VERTEX
  8
PLAN_1
  6
CONTINUOUS
 10
-1.034075
 20
0.418472
  0
VERTEX
  8
PLAN_1
  6
CONTINUOUS
 10
-1.033051
 20
0.423579
  0
VERTEX
  8
PLAN_1
  6
CONTINUOUS
 10
-1.032539
 20
0.429201
  0
VERTEX
  8
PLAN_1
  6
CONTINUOUS
 10
-1.032028
 20
0.434307
  0
VERTEX
  8
PLAN_1
  6
CONTINUOUS
 10
-1.031520
 20
0.439929
  0
VERTEX
  8
PLAN_1
  6
CONTINUOUS
 10
-1.032028
 20
0.445547
  0
VERTEX
  8
PLAN_1
  6
CONTINUOUS
 10
-1.032539
 20
0.451169
  0
VERTEX
  8
PLAN_1
  6
CONTINUOUS
 10
-1.033051
 20
0.456787
  0
VERTEX
  8
PLAN_1
  6
CONTINUOUS
 10
-1.034075
 20
0.461898
  0
VERTEX
  8
PLAN_1
  6
CONTINUOUS
 10
-1.035094
 20
0.467004
  0
VERTEX
  8
PLAN_1
  6
CONTINUOUS
 10
-1.036626
 20
0.472626
  0
VERTEX
  8
PLAN_1
  6
CONTINUOUS
 10
-1.038161
 20
0.477220
  0
VERTEX
  8
PLAN_1
  6
CONTINUOUS
 10
-1.040205
 20
0.482331
  0
VERTEX
  8
PLAN_1
  6
CONTINUOUS
 10
-1.044803
 20
0.492039
  0
VERTEX
  8
PLAN_1
  6
CONTINUOUS
 10
-1.050421
 20
0.500724
  0
VERTEX
  8
PLAN_1
  6
CONTINUOUS
 10
-1.056551
 20
0.509409
  0
VERTEX
  8
PLAN_1
  6
CONTINUOUS
 10
-1.063705
 20
0.517071
  0
VERTEX
  8
PLAN_1
  6
CONTINUOUS
 10
-1.071366
 20
0.523713
  0
VERTEX
  8
PLAN_1
  6
CONTINUOUS
 10
-1.079539
 20
0.530354
  0
VERTEX
  8
PLAN_1
  6
CONTINUOUS
 10
-1.088736
 20
0.535461
  0
VERTEX
  8
PLAN_1
  6
CONTINUOUS
 10
-1.097933
 20
0.540059
  0
VERTEX
  8
PLAN_1
  6
CONTINUOUS
 10
-1.103039
 20
0.542102
  0
VERTEX
  8
PLAN_1
  6
CONTINUOUS
 10
-1.108150
 20
0.543638
  0
VERTEX
  8
PLAN_1
  6
CONTINUOUS
 10
-1.113260
 20
0.545169
  0
VERTEX
  8
PLAN_1
  6
CONTINUOUS
 10
-1.118366
 20
0.546701
  0
VERTEX
  8
PLAN_1
  6
CONTINUOUS
 10
-1.123988
 20
0.547213
  0
VERTEX
  8
PLAN_1
  6
CONTINUOUS
 10
-1.129094
 20
0.548232
  0
VERTEX
  8
PLAN_1
  6
CONTINUOUS
 10
-1.134717
 20
0.548744
  0
VERTEX
  8
PLAN_1
  6
CONTINUOUS
 10
-1.140335
 20
0.548744
  0
VERTEX
  8
PLAN_1
  6
CONTINUOUS
 10
-1.145953
 20
0.548744
  0
VERTEX
  8
PLAN_1
  6
CONTINUOUS
 10
-1.151575
 20
0.548232
  0
VERTEX
  8
PLAN_1
  6
CONTINUOUS
 10
-1.156681
 20
0.547213
  0
VERTEX
  8
PLAN_1
  6
CONTINUOUS
 10
-1.162303
 20
0.546701
  0
VERTEX
  8
PLAN_1
  6
CONTINUOUS
 10
-1.167409
 20
0.545169
  0
VERTEX
  8
PLAN_1
  6
CONTINUOUS
 10
-1.172520
 20
0.543638
  0
VERTEX
  8
PLAN_1
  6
CONTINUOUS
 10
-1.177630
 20
0.542102
  0
VERTEX
  8
PLAN_1
  6
CONTINUOUS
 10
-1.182736
 20
0.540059
  0
VERTEX
  8
PLAN_1
  6
CONTINUOUS
 10
-1.191933
 20
0.535461
  0
VERTEX
  8
PLAN_1
  6
CONTINUOUS
 10
-1.201130
 20
0.530354
  0
VERTEX
  8
PLAN_1
  6
CONTINUOUS
 10
-1.209303
 20
0.523713
  0
VERTEX
  8
PLAN_1
  6
CONTINUOUS
 10
-1.216965
 20
0.517071
  0
VERTEX
  8
PLAN_1
  6
CONTINUOUS
 10
-1.224118
 20
0.509409
  0
VERTEX
  8
PLAN_1
  6
CONTINUOUS
 10
-1.230248
 20
0.500724
  0
VERTEX
  8
PLAN_1
  6
CONTINUOUS
 10
-1.235870
 20
0.492039
  0
VERTEX
  8
PLAN_1
  6
CONTINUOUS
 10
-1.240465
 20
0.482331
  0
VERTEX
  8
PLAN_1
  6
CONTINUOUS
 10
-1.242512
 20
0.477220
  0
VERTEX
  8
PLAN_1
  6
CONTINUOUS
 10
-1.244043
 20
0.472626
  0
VERTEX
  8
PLAN_1
  6
CONTINUOUS
 10
-1.245575
 20
0.467004
  0
VERTEX
  8
PLAN_1
  6
CONTINUOUS
 10
-1.246598
 20
0.461898
  0
VERTEX
  8
PLAN_1
  6
CONTINUOUS
 10
-1.247618
 20
0.456787
  0
VERTEX
  8
PLAN_1
  6
CONTINUOUS
 10
-1.248642
 20
0.451169
  0
VERTEX
  8
PLAN_1
  6
CONTINUOUS
 10
-1.248642
 20
0.445547
  0
VERTEX
  8
PLAN_1
  6
CONTINUOUS
 10
-1.249150
 20
0.439929
  0
VERTEX
  8
PLAN_1
  6
CONTINUOUS
 10
-1.248642
 20
0.434307
  0
VERTEX
  8
PLAN_1
  6
CONTINUOUS
 10
-1.248642
 20
0.429201
  0
VERTEX
  8
PLAN_1
  6
CONTINUOUS
 10
-1.247618
 20
0.423579
  0
VERTEX
  8
PLAN_1
  6
CONTINUOUS
 10
-1.246598
 20
0.418472
  0
VERTEX
  8
PLAN_1
  6
CONTINUOUS
 10
-1.245575
 20
0.412850
  0
VERTEX
  8
PLAN_1
  6
CONTINUOUS
 10
-1.244043
 20
0.407744
  0
VERTEX
  8
PLAN_1
  6
CONTINUOUS
 10
-1.242512
 20
0.402634
  0
VERTEX
  8
PLAN_1
  6
CONTINUOUS
 10
-1.240465
 20
0.398035
  0
VERTEX
  8
PLAN_1
  6
CONTINUOUS
 10
-1.238421
 20
0.392929
  0
VERTEX
  8
PLAN_1
  6
CONTINUOUS
 10
-1.235870
 20
0.388331
  0
VERTEX
  8
PLAN_1
  6
CONTINUOUS
 10
-1.233315
 20
0.383732
  0
VERTEX
  8
PLAN_1
  6
CONTINUOUS
 10
-1.230248
 20
0.379646
  0
VERTEX
  8
PLAN_1
  6
CONTINUOUS
 10
-1.224118
 20
0.370961
  0
VERTEX
  8
PLAN_1
  6
CONTINUOUS
 10
-1.216965
 20
0.363299
  0
VERTEX
  8
PLAN_1
  6
CONTINUOUS
 10
-1.209303
 20
0.356146
  0
VERTEX
  8
PLAN_1
  6
CONTINUOUS
 10
-1.201130
 20
0.350016
  0
VERTEX
  8
PLAN_1
  6
CONTINUOUS
 10
-1.196531
 20
0.347461
  0
VERTEX
  8
PLAN_1
  6
CONTINUOUS
 10
-1.191933
 20
0.344394
  0
VERTEX
  8
PLAN_1
  6
CONTINUOUS
 10
-1.187335
 20
0.342350
  0
VERTEX
  8
PLAN_1
  6
CONTINUOUS
 10
-1.182736
 20
0.339795
  0
VERTEX
  8
PLAN_1
  6
CONTINUOUS
 10
-1.177630
 20
0.338264
  0
VERTEX
  8
PLAN_1
  6
CONTINUOUS
 10
-1.172520
 20
0.336220
  0
VERTEX
  8
PLAN_1
  6
CONTINUOUS
 10
-1.167409
 20
0.334689
  0
VERTEX
  8
PLAN_1
  6
CONTINUOUS
 10
-1.162303
 20
0.333665
  0
VERTEX
  8
PLAN_1
  6
CONTINUOUS
 10
-1.156681
 20
0.332646
  0
VERTEX
  8
PLAN_1
  6
CONTINUOUS
 10
-1.151575
 20
0.332134
  0
VERTEX
  8
PLAN_1
  6
CONTINUOUS
 10
-1.145953
 20
0.331622
  0
VERTEX
  8
PLAN_1
  6
CONTINUOUS
 10
-1.140335
 20
0.331622
  0
SEQEND
  8
0
  0
POLYLINE
  8
PLAN_1
  6
CONTINUOUS
 66
     1
 40
0.005618
 41
0.005618
  0
VERTEX
  8
PLAN_1
  6
CONTINUOUS
 10
-1.365118
 20
0.486929
  0
VERTEX
  8
PLAN_1
  6
CONTINUOUS
 10
-1.504079
 20
0.486929
  0
SEQEND
  8
0
  0
POLYLINE
  8
PLAN_1
  6
CONTINUOUS
 66
     1
 40
0.005618
 41
0.005618
  0
VERTEX
  8
PLAN_1
  6
CONTINUOUS
 10
-1.504079
 20
0.486929
  0
VERTEX
  8
PLAN_1
  6
CONTINUOUS
 10
-1.502035
 20
0.506343
  0
VERTEX
  8
PLAN_1
  6
CONTINUOUS
 10
-1.498969
 20
0.525244
  0
VERTEX
  8
PLAN_1
  6
CONTINUOUS
 10
-1.494882
 20
0.544146
  0
VERTEX
  8
PLAN_1
  6
CONTINUOUS
 10
-1.489772
 20
0.562028
  0
VERTEX
  8
PLAN_1
  6
CONTINUOUS
 10
-1.484154
 20
0.580417
  0
VERTEX
  8
PLAN_1
  6
CONTINUOUS
 10
-1.477512
 20
0.597787
  0
VERTEX
  8
PLAN_1
  6
CONTINUOUS
 10
-1.469850
 20
0.614650
  0
VERTEX
  8
PLAN_1
  6
CONTINUOUS
 10
-1.461165
 20
0.631508
  0
VERTEX
  8
PLAN_1
  6
CONTINUOUS
 10
-1.451969
 20
0.647343
  0
VERTEX
  8
PLAN_1
  6
CONTINUOUS
 10
-1.442264
 20
0.663181
  0
VERTEX
  8
PLAN_1
  6
CONTINUOUS
 10
-1.431535
 20
0.677996
  0
VERTEX
  8
PLAN_1
  6
CONTINUOUS
 10
-1.420295
 20
0.692299
  0
VERTEX
  8
PLAN_1
  6
CONTINUOUS
 10
-1.408035
 20
0.706606
  0
VERTEX
  8
PLAN_1
  6
CONTINUOUS
 10
-1.395260
 20
0.719890
  0
VERTEX
  8
PLAN_1
  6
CONTINUOUS
 10
-1.381980
 20
0.732150
  0
VERTEX
  8
PLAN_1
  6
CONTINUOUS
 10
-1.368185
 20
0.744409
  0
SEQEND
  8
0
  0
POLYLINE
  8
PLAN_1
  6
CONTINUOUS
 66
     1
 40
0.005618
 41
0.005618
  0
VERTEX
  8
PLAN_1
  6
CONTINUOUS
 10
-1.367673
 20
0.413874
  0
VERTEX
  8
PLAN_1
  6
CONTINUOUS
 10
-1.503055
 20
0.413874
  0
SEQEND
  8
0
  0
POLYLINE
  8
PLAN_1
  6
CONTINUOUS
 66
     1
 40
0.005618
 41
0.005618
  0
VERTEX
  8
PLAN_1
  6
CONTINUOUS
 10
-1.503055
 20
0.413874
  0
VERTEX
  8
PLAN_1
  6
CONTINUOUS
 10
-1.501012
 20
0.397528
  0
VERTEX
  8
PLAN_1
  6
CONTINUOUS
 10
-1.497949
 20
0.381689
  0
VERTEX
  8
PLAN_1
  6
CONTINUOUS
 10
-1.494370
 20
0.365850
  0
VERTEX
  8
PLAN_1
  6
CONTINUOUS
 10
-1.490283
 20
0.350524
  0
VERTEX
  8
PLAN_1
  6
CONTINUOUS
 10
-1.485177
 20
0.335201
  0
VERTEX
  8
PLAN_1
  6
CONTINUOUS
 10
-1.480067
 20
0.320382
  0
VERTEX
  8
PLAN_1
  6
CONTINUOUS
 10
-1.473937
 20
0.305567
  0
VERTEX
  8
PLAN_1
  6
CONTINUOUS
 10
-1.467295
 20
0.291264
  0
VERTEX
  8
PLAN_1
  6
CONTINUOUS
 10
-1.460142
 20
0.277469
  0
VERTEX
  8
PLAN_1
  6
CONTINUOUS
 10
-1.451969
 20
0.263677
  0
VERTEX
  8
PLAN_1
  6
CONTINUOUS
 10
-1.443795
 20
0.250394
  0
VERTEX
  8
PLAN_1
  6
CONTINUOUS
 10
-1.434598
 20
0.237622
  0
VERTEX
  8
PLAN_1
  6
CONTINUOUS
 10
-1.425402
 20
0.225362
  0
VERTEX
  8
PLAN_1
  6
CONTINUOUS
 10
-1.415185
 20
0.213098
  0
VERTEX
  8
PLAN_1
  6
CONTINUOUS
 10
-1.404969
 20
0.201862
  0
VERTEX
  8
PLAN_1
  6
CONTINUOUS
 10
-1.394240
 20
0.190622
  0
VERTEX
  8
PLAN_1
  6
CONTINUOUS
 10
-1.383000
 20
0.179894
  0
VERTEX
  8
PLAN_1
  6
CONTINUOUS
 10
-1.370740
 20
0.169677
  0
VERTEX
  8
PLAN_1
  6
CONTINUOUS
 10
-1.358988
 20
0.159969
  0
VERTEX
  8
PLAN_1
  6
CONTINUOUS
 10
-1.346217
 20
0.150772
  0
VERTEX
  8
PLAN_1
  6
CONTINUOUS
 10
-1.332933
 20
0.142087
  0
VERTEX
  8
PLAN_1
  6
CONTINUOUS
 10
-1.319654
 20
0.133913
  0
VERTEX
  8
PLAN_1
  6
CONTINUOUS
 10
-1.305858
 20
0.126252
  0
VERTEX
  8
PLAN_1
  6
CONTINUOUS
 10
-1.292063
 20
0.119098
  0
VERTEX
  8
PLAN_1
  6
CONTINUOUS
 10
-1.277248
 20
0.112969
  0
VERTEX
  8
PLAN_1
  6
CONTINUOUS
 10
-1.262433
 20
0.106839
  0
VERTEX
  8
PLAN_1
  6
CONTINUOUS
 10
-1.247618
 20
0.101728
  0
VERTEX
  8
PLAN_1
  6
CONTINUOUS
 10
-1.232291
 20
0.097130
  0
VERTEX
  8
PLAN_1
  6
CONTINUOUS
 10
-1.216457
 20
0.093043
  0
VERTEX
  8
PLAN_1
  6
CONTINUOUS
 10
-1.200618
 20
0.089980
  0
VERTEX
  8
PLAN_1
  6
CONTINUOUS
 10
-1.184780
 20
0.087425
  0
VERTEX
  8
PLAN_1
  6
CONTINUOUS
 10
-1.168433
 20
0.085382
  0
SEQEND
  8
0
  0
POLYLINE
  8
PLAN_1
  6
CONTINUOUS
 66
     1
 40
0.005618
 41
0.005618
  0
VERTEX
  8
PLAN_1
  6
CONTINUOUS
 10
-1.168433
 20
0.085382
  0
VERTEX
  8
PLAN_1
  6
CONTINUOUS
 10
-1.168433
 20
0.206461
  0
SEQEND
  8
0
  0
POLYLINE
  8
PLAN_1
  6
CONTINUOUS
 66
     1
 40
0.007150
 41
0.007150
  0
VERTEX
  8
PLAN_1
  6
CONTINUOUS
 10
-1.391173
 20
0.797031
  0
VERTEX
  8
PLAN_1
  6
CONTINUOUS
 10
-1.391173
 20
0.794476
  0
VERTEX
  8
PLAN_1
  6
CONTINUOUS
 10
-1.391173
 20
0.788854
  0
VERTEX
  8
PLAN_1
  6
CONTINUOUS
 10
-1.390665
 20
0.780173
  0
VERTEX
  8
PLAN_1
  6
CONTINUOUS
 10
-1.390154
 20
0.770465
  0
VERTEX
  8
PLAN_1
  6
CONTINUOUS
 10
-1.389642
 20
0.760760
  0
VERTEX
  8
PLAN_1
  6
CONTINUOUS
 10
-1.389130
 20
0.752075
  0
VERTEX
  8
PLAN_1
  6
CONTINUOUS
 10
-1.389130
 20
0.746453
  0
VERTEX
  8
PLAN_1
  6
CONTINUOUS
 10
-1.389130
 20
0.744409
  0
VERTEX
  8
PLAN_1
  6
CONTINUOUS
 10
-1.396283
 20
0.737256
  0
VERTEX
  8
PLAN_1
  6
CONTINUOUS
 10
-1.403437
 20
0.730618
  0
VERTEX
  8
PLAN_1
  6
CONTINUOUS
 10
-1.410587
 20
0.723465
  0
VERTEX
  8
PLAN_1
  6
CONTINUOUS
 10
-1.417740
 20
0.716311
  0
VERTEX
  8
PLAN_1
  6
CONTINUOUS
 10
-1.424382
 20
0.708650
  0
VERTEX
  8
PLAN_1
  6
CONTINUOUS
 10
-1.431024
 20
0.700984
  0
VERTEX
  8
PLAN_1
  6
CONTINUOUS
 10
-1.437154
 20
0.693323
  0
VERTEX
  8
PLAN_1
  6
CONTINUOUS
 10
-1.443283
 20
0.685150
  0
VERTEX
  8
PLAN_1
  6
CONTINUOUS
 10
-1.449413
 20
0.676976
  0
VERTEX
  8
PLAN_1
  6
CONTINUOUS
 10
-1.455035
 20
0.668799
  0
VERTEX
  8
PLAN_1
  6
CONTINUOUS
 10
-1.460654
 20
0.660114
  0
VERTEX
  8
PLAN_1
  6
CONTINUOUS
 10
-1.465764
 20
0.651941
  0
VERTEX
  8
PLAN_1
  6
CONTINUOUS
 10
-1.470870
 20
0.642744
  0
VERTEX
  8
PLAN_1
  6
CONTINUOUS
 10
-1.475469
 20
0.634063
  0
VERTEX
  8
PLAN_1
  6
CONTINUOUS
 10
-1.480067
 20
0.624866
  0
VERTEX
  8
PLAN_1
  6
CONTINUOUS
 10
-1.484665
 20
0.615669
  0
VERTEX
  8
PLAN_1
  6
CONTINUOUS
 10
-1.488752
 20
0.606472
  0
VERTEX
  8
PLAN_1
  6
CONTINUOUS
 10
-1.492839
 20
0.597280
  0
VERTEX
  8
PLAN_1
  6
CONTINUOUS
 10
-1.496413
 20
0.587571
  0
VERTEX
  8
PLAN_1
  6
CONTINUOUS
 10
-1.499992
 20
0.577866
  0
VERTEX
  8
PLAN_1
  6
CONTINUOUS
 10
-1.503055
 20
0.568157
  0
VERTEX
  8
PLAN_1
  6
CONTINUOUS
 10
-1.506122
 20
0.558453
  0
VERTEX
  8
PLAN_1
  6
CONTINUOUS
 10
-1.508677
 20
0.548232
  0
VERTEX
  8
PLAN_1
  6
CONTINUOUS
 10
-1.510720
 20
0.538016
  0
VERTEX
  8
PLAN_1
  6
CONTINUOUS
 10
-1.513276
 20
0.527799
  0
VERTEX
  8
PLAN_1
  6
CONTINUOUS
 10
-1.514807
 20
0.517583
  0
VERTEX
  8
PLAN_1
  6
CONTINUOUS
 10
-1.516339
 20
0.507362
  0
VERTEX
  8
PLAN_1
  6
CONTINUOUS
 10
-1.517870
 20
0.496634
  0
VERTEX
  8
PLAN_1
  6
CONTINUOUS
 10
-1.518894
 20
0.485906
  0
VERTEX
  8
PLAN_1
  6
CONTINUOUS
 10
-1.519406
 20
0.475689
  0
VERTEX
  8
PLAN_1
  6
CONTINUOUS
 10
-1.519913
 20
0.464961
  0
VERTEX
  8
PLAN_1
  6
CONTINUOUS
 10
-1.519913
 20
0.453720
  0
VERTEX
  8
PLAN_1
  6
CONTINUOUS
 10
-1.519406
 20
0.434307
  0
VERTEX
  8
PLAN_1
  6
CONTINUOUS
 10
-1.517870
 20
0.414386
  0
VERTEX
  8
PLAN_1
  6
CONTINUOUS
 10
-1.515827
 20
0.394972
  0
VERTEX
  8
PLAN_1
  6
CONTINUOUS
 10
-1.512252
 20
0.376071
  0
VERTEX
  8
PLAN_1
  6
CONTINUOUS
 10
-1.508165
 20
0.357165
  0
VERTEX
  8
PLAN_1
  6
CONTINUOUS
 10
-1.502547
 20
0.338776
  0
VERTEX
  8
PLAN_1
  6
CONTINUOUS
 10
-1.496413
 20
0.320894
  0
VERTEX
  8
PLAN_1
  6
CONTINUOUS
 10
-1.489772
 20
0.303524
  0
VERTEX
  8
PLAN_1
  6
CONTINUOUS
 10
-1.482110
 20
0.286154
  0
VERTEX
  8
PLAN_1
  6
CONTINUOUS
 10
-1.473425
 20
0.269807
  0
VERTEX
  8
PLAN_1
  6
CONTINUOUS
 10
-1.464228
 20
0.253461
  0
VERTEX
  8
PLAN_1
  6
CONTINUOUS
 10
-1.454012
 20
0.237622
  0
VERTEX
  8
PLAN_1
  6
CONTINUOUS
 10
-1.443283
 20
0.222807
  0
VERTEX
  8
PLAN_1
  6
CONTINUOUS
 10
-1.432043
 20
0.207992
  0
VERTEX
  8
PLAN_1
  6
CONTINUOUS
 10
-1.419783
 20
0.194197
  0
VERTEX
  8
PLAN_1
  6
CONTINUOUS
 10
-1.407012
 20
0.180406
  0
VERTEX
  8
PLAN_1
  6
CONTINUOUS
 10
-1.393217
 20
0.167634
  0
VERTEX
  8
PLAN_1
  6
CONTINUOUS
 10
-1.379425
 20
0.155370
  0
VERTEX
  8
PLAN_1
  6
CONTINUOUS
 10
-1.364610
 20
0.144134
  0
VERTEX
  8
PLAN_1
  6
CONTINUOUS
 10
-1.349795
 20
0.133402
  0
VERTEX
  8
PLAN_1
  6
CONTINUOUS
 10
-1.333957
 20
0.123185
  0
VERTEX
  8
PLAN_1
  6
CONTINUOUS
 10
-1.317610
 20
0.113992
  0
VERTEX
  8
PLAN_1
  6
CONTINUOUS
 10
-1.301260
 20
0.105307
  0
VERTEX
  8
PLAN_1
  6
CONTINUOUS
 10
-1.283890
 20
0.097642
  0
VERTEX
  8
PLAN_1
  6
CONTINUOUS
 10
-1.266520
 20
0.091000
  0
VERTEX
  8
PLAN_1
  6
CONTINUOUS
 10
-1.248642
 20
0.084870
  0
VERTEX
  8
PLAN_1
  6
CONTINUOUS
 10
-1.230248
 20
0.079760
  0
VERTEX
  8
PLAN_1
  6
CONTINUOUS
 10
-1.211346
 20
0.075165
  0
VERTEX
  8
PLAN_1
  6
CONTINUOUS
 10
-1.192445
 20
0.071587
  0
VERTEX
  8
PLAN_1
  6
CONTINUOUS
 10
-1.173031
 20
0.069543
  0
VERTEX
  8
PLAN_1
  6
CONTINUOUS
 10
-1.153618
 20
0.068012
  0
VERTEX
  8
PLAN_1
  6
CONTINUOUS
 10
-1.133693
 20
0.067500
  0
VERTEX
  8
PLAN_1
  6
CONTINUOUS
 10
-1.113768
 20
0.068012
  0
VERTEX
  8
PLAN_1
  6
CONTINUOUS
 10
-1.093846
 20
0.069543
  0
VERTEX
  8
PLAN_1
  6
CONTINUOUS
 10
-1.074433
 20
0.071587
  0
VERTEX
  8
PLAN_1
  6
CONTINUOUS
 10
-1.055531
 20
0.075165
  0
VERTEX
  8
PLAN_1
  6
CONTINUOUS
 10
-1.036626
 20
0.079760
  0
VERTEX
  8
PLAN_1
  6
CONTINUOUS
 10
-1.018748
 20
0.084870
  0
VERTEX
  8
PLAN_1
  6
CONTINUOUS
 10
-1.000354
 20
0.091000
  0
VERTEX
  8
PLAN_1
  6
CONTINUOUS
 10
-0.982984
 20
0.097642
  0
VERTEX
  8
PLAN_1
  6
CONTINUOUS
 10
-0.966126
 20
0.105307
  0
VERTEX
  8
PLAN_1
  6
CONTINUOUS
 10
-0.949268
 20
0.113992
  0
VERTEX
  8
PLAN_1
  6
CONTINUOUS
 10
-0.932921
 20
0.123185
  0
VERTEX
  8
PLAN_1
  6
CONTINUOUS
 10
-0.917083
 20
0.133402
  0
VERTEX
  8
PLAN_1
  6
CONTINUOUS
 10
-0.902268
 20
0.144134
  0
VERTEX
  8
PLAN_1
  6
CONTINUOUS
 10
-0.887453
 20
0.155370
  0
VERTEX
  8
PLAN_1
  6
CONTINUOUS
 10
-0.873657
 20
0.167634
  0
VERTEX
  8
PLAN_1
  6
CONTINUOUS
 10
-0.859866
 20
0.180406
  0
VERTEX
  8
PLAN_1
  6
CONTINUOUS
 10
-0.847094
 20
0.194197
  0
VERTEX
  8
PLAN_1
  6
CONTINUOUS
 10
-0.835343
 20
0.207992
  0
VERTEX
  8
PLAN_1
  6
CONTINUOUS
 10
-0.823591
 20
0.222807
  0
VERTEX
  8
PLAN_1
  6
CONTINUOUS
 10
-0.812862
 20
0.237622
  0
VERTEX
  8
PLAN_1
  6
CONTINUOUS
 10
-0.802646
 20
0.253461
  0
VERTEX
  8
PLAN_1
  6
CONTINUOUS
 10
-0.793453
 20
0.269807
  0
VERTEX
  8
PLAN_1
  6
CONTINUOUS
 10
-0.784768
 20
0.286154
  0
VERTEX
  8
PLAN_1
  6
CONTINUOUS
 10
-0.777102
 20
0.303524
  0
VERTEX
  8
PLAN_1
  6
CONTINUOUS
 10
-0.770461
 20
0.320894
  0
VERTEX
  8
PLAN_1
  6
CONTINUOUS
 10
-0.764331
 20
0.338776
  0
VERTEX
  8
PLAN_1
  6
CONTINUOUS
 10
-0.759220
 20
0.357165
  0
VERTEX
  8
PLAN_1
  6
CONTINUOUS
 10
-0.754626
 20
0.376071
  0
VERTEX
  8
PLAN_1
  6
CONTINUOUS
 10
-0.751559
 20
0.394972
  0
VERTEX
  8
PLAN_1
  6
CONTINUOUS
 10
-0.749004
 20
0.414386
  0
VERTEX
  8
PLAN_1
  6
CONTINUOUS
 10
-0.747472
 20
0.434307
  0
VERTEX
  8
PLAN_1
  6
CONTINUOUS
 10
-0.746961
 20
0.453720
  0
VERTEX
  8
PLAN_1
  6
CONTINUOUS
 10
-0.746961
 20
0.464961
  0
VERTEX
  8
PLAN_1
  6
CONTINUOUS
 10
-0.747472
 20
0.475689
  0
VERTEX
  8
PLAN_1
  6
CONTINUOUS
 10
-0.747984
 20
0.485906
  0
VERTEX
  8
PLAN_1
  6
CONTINUOUS
 10
-0.749004
 20
0.496634
  0
VERTEX
  8
PLAN_1
  6
CONTINUOUS
 10
-0.750535
 20
0.507362
  0
VERTEX
  8
PLAN_1
  6
CONTINUOUS
 10
-0.752071
 20
0.517583
  0
VERTEX
  8
PLAN_1
  6
CONTINUOUS
 10
-0.754114
 20
0.527799
  0
VERTEX
  8
PLAN_1
  6
CONTINUOUS
 10
-0.756157
 20
0.538016
  0
VERTEX
  8
PLAN_1
  6
CONTINUOUS
 10
-0.758201
 20
0.548232
  0
VERTEX
  8
PLAN_1
  6
CONTINUOUS
 10
-0.761264
 20
0.558453
  0
VERTEX
  8
PLAN_1
  6
CONTINUOUS
 10
-0.763819
 20
0.568157
  0
VERTEX
  8
PLAN_1
  6
CONTINUOUS
 10
-0.767398
 20
0.577866
  0
VERTEX
  8
PLAN_1
  6
CONTINUOUS
 10
-0.770461
 20
0.587571
  0
VERTEX
  8
PLAN_1
  6
CONTINUOUS
 10
-0.774039
 20
0.597280
  0
VERTEX
  8
PLAN_1
  6
CONTINUOUS
 10
-0.778126
 20
0.606472
  0
VERTEX
  8
PLAN_1
  6
CONTINUOUS
 10
-0.782213
 20
0.615669
  0
VERTEX
  8
PLAN_1
  6
CONTINUOUS
 10
-0.786811
 20
0.624866
  0
VERTEX
  8
PLAN_1
  6
CONTINUOUS
 10
-0.791406
 20
0.634063
  0
VERTEX
  8
PLAN_1
  6
CONTINUOUS
 10
-0.796004
 20
0.642744
  0
VERTEX
  8
PLAN_1
  6
CONTINUOUS
 10
-0.801114
 20
0.651941
  0
VERTEX
  8
PLAN_1
  6
CONTINUOUS
 10
-0.806732
 20
0.660114
  0
VERTEX
  8
PLAN_1
  6
CONTINUOUS
 10
-0.811843
 20
0.668799
  0
VERTEX
  8
PLAN_1
  6
CONTINUOUS
 10
-0.817461
 20
0.676976
  0
VERTEX
  8
PLAN_1
  6
CONTINUOUS
 10
-0.823591
 20
0.685150
  0
VERTEX
  8
PLAN_1
  6
CONTINUOUS
 10
-0.829724
 20
0.693323
  0
VERTEX
  8
PLAN_1
  6
CONTINUOUS
 10
-0.835854
 20
0.700984
  0
VERTEX
  8
PLAN_1
  6
CONTINUOUS
 10
-0.842496
 20
0.708650
  0
VERTEX
  8
PLAN_1
  6
CONTINUOUS
 10
-0.849138
 20
0.716311
  0
VERTEX
  8
PLAN_1
  6
CONTINUOUS
 10
-0.856287
 20
0.723465
  0
VERTEX
  8
PLAN_1
  6
CONTINUOUS
 10
-0.863441
 20
0.730618
  0
VERTEX
  8
PLAN_1
  6
CONTINUOUS
 10
-0.870594
 20
0.737256
  0
VERTEX
  8
PLAN_1
  6
CONTINUOUS
 10
-0.878256
 20
0.744409
  0
SEQEND
  8
0
  0
POLYLINE
  8
PLAN_1
  6
CONTINUOUS
 66
     1
 40
0.007150
 41
0.007150
  0
VERTEX
  8
PLAN_1
  6
CONTINUOUS
 10
-0.878256
 20
0.744409
  0
VERTEX
  8
PLAN_1
  6
CONTINUOUS
 10
-0.878256
 20
0.796008
  0
VERTEX
  8
PLAN_1
  6
CONTINUOUS
 10
-1.391173
 20
0.797031
  0
SEQEND
  8
0
  0
POLYLINE
  8
PLAN_1
  6
CONTINUOUS
 66
     1
 40
0.008173
 41
0.008173
  0
VERTEX
  8
PLAN_1
  6
CONTINUOUS
 10
-0.859354
 20
0.885921
  0
VERTEX
  8
PLAN_1
  6
CONTINUOUS
 10
-0.859354
 20
0.797031
  0
VERTEX
  8
PLAN_1
  6
CONTINUOUS
 10
-1.407524
 20
0.797031
  0
VERTEX
  8
PLAN_1
  6
CONTINUOUS
 10
-1.407524
 20
0.885921
  0
VERTEX
  8
PLAN_1
  6
CONTINUOUS
 10
-0.859354
 20
0.885921
  0
SEQEND
  8
0
  0
POLYLINE
  8
PLAN_1
  6
CONTINUOUS
 66
     1
 40
0.007150
 41
0.007150
  0
VERTEX
  8
PLAN_1
  6
CONTINUOUS
 10
-0.986563
 20
1.492843
  0
VERTEX
  8
PLAN_1
  6
CONTINUOUS
 10
-0.981965
 20
1.497441
  0
VERTEX
  8
PLAN_1
  6
CONTINUOUS
 10
-0.978386
 20
1.502039
  0
VERTEX
  8
PLAN_1
  6
CONTINUOUS
 10
-0.975835
 20
1.506126
  0
VERTEX
  8
PLAN_1
  6
CONTINUOUS
 10
-0.974299
 20
1.510213
  0
VERTEX
  8
PLAN_1
  6
CONTINUOUS
 10
-0.973791
 20
1.514299
  0
VERTEX
  8
PLAN_1
  6
CONTINUOUS
 10
-0.973791
 20
1.518386
  0
VERTEX
  8
PLAN_1
  6
CONTINUOUS
 10
-0.974299
 20
1.521961
  0
VERTEX
  8
PLAN_1
  6
CONTINUOUS
 10
-0.975323
 20
1.525539
  0
VERTEX
  8
PLAN_1
  6
CONTINUOUS
 10
-0.977366
 20
1.528602
  0
VERTEX
  8
PLAN_1
  6
CONTINUOUS
 10
-0.978898
 20
1.531157
  0
VERTEX
  8
PLAN_1
  6
CONTINUOUS
 10
-0.980941
 20
1.533713
  0
VERTEX
  8
PLAN_1
  6
CONTINUOUS
 10
-0.982476
 20
1.535756
  0
VERTEX
  8
PLAN_1
  6
CONTINUOUS
 10
-0.985539
 20
1.538819
  0
VERTEX
  8
PLAN_1
  6
CONTINUOUS
 10
-0.986563
 20
1.539843
  0
SEQEND
  8
0
  0
POLYLINE
  8
PLAN_1
  6
CONTINUOUS
 66
     1
 40
0.007150
 41
0.007150
  0
VERTEX
  8
PLAN_1
  6
CONTINUOUS
 10
-0.986563
 20
1.539843
  0
VERTEX
  8
PLAN_1
  6
CONTINUOUS
 10
-1.275717
 20
1.539843
  0
SEQEND
  8
0
  0
POLYLINE
  8
PLAN_1
  6
CONTINUOUS
 66
     1
 40
0.007150
 41
0.007150
  0
VERTEX
  8
PLAN_1
  6
CONTINUOUS
 10
-1.275717
 20
1.539843
  0
VERTEX
  8
PLAN_1
  6
CONTINUOUS
 10
-1.276740
 20
1.538819
  0
VERTEX
  8
PLAN_1
  6
CONTINUOUS
 10
-1.279291
 20
1.536268
  0
VERTEX
  8
PLAN_1
  6
CONTINUOUS
 10
-1.282358
 20
1.531669
  0
VERTEX
  8
PLAN_1
  6
CONTINUOUS
 10
-1.285425
 20
1.526047
  0
VERTEX
  8
PLAN_1
  6
CONTINUOUS
 10
-1.286445
 20
1.522984
  0
VERTEX
  8
PLAN_1
  6
CONTINUOUS
 10
-1.286957
 20
1.518898
  0
VERTEX
  8
PLAN_1
  6
CONTINUOUS
 10
-1.287469
 20
1.515319
  0
VERTEX
  8
PLAN_1
  6
CONTINUOUS
 10
-1.286957
 20
1.511232
  0
VERTEX
  8
PLAN_1
  6
CONTINUOUS
 10
-1.285425
 20
1.506634
  0
VERTEX
  8
PLAN_1
  6
CONTINUOUS
 10
-1.283382
 20
1.502547
  0
VERTEX
  8
PLAN_1
  6
CONTINUOUS
 10
-1.279803
 20
1.497441
  0
VERTEX
  8
PLAN_1
  6
CONTINUOUS
 10
-1.275717
 20
1.492843
  0
SEQEND
  8
0
  0
POLYLINE
  8
PLAN_1
  6
CONTINUOUS
 66
     1
 40
0.007150
 41
0.007150
  0
VERTEX
  8
PLAN_1
  6
CONTINUOUS
 10
-1.275717
 20
1.492843
  0
VERTEX
  8
PLAN_1
  6
CONTINUOUS
 10
-0.986563
 20
1.492843
  0
SEQEND
  8
0
  0
POLYLINE
  8
PLAN_1
  6
CONTINUOUS
 66
     1
 40
0.007150
 41
0.007150
  0
VERTEX
  8
PLAN_1
  6
CONTINUOUS
 10
-0.986051
 20
1.446350
  0
VERTEX
  8
PLAN_1
  6
CONTINUOUS
 10
-0.981453
 20
1.450949
  0
VERTEX
  8
PLAN_1
  6
CONTINUOUS
 10
-0.977878
 20
1.455035
  0
VERTEX
  8
PLAN_1
  6
CONTINUOUS
 10
-0.975323
 20
1.459634
  0
VERTEX
  8
PLAN_1
  6
CONTINUOUS
 10
-0.973791
 20
1.463720
  0
VERTEX
  8
PLAN_1
  6
CONTINUOUS
 10
-0.973280
 20
1.467811
  0
VERTEX
  8
PLAN_1
  6
CONTINUOUS
 10
-0.973280
 20
1.471898
  0
VERTEX
  8
PLAN_1
  6
CONTINUOUS
 10
-0.973791
 20
1.475472
  0
VERTEX
  8
PLAN_1
  6
CONTINUOUS
 10
-0.975323
 20
1.479047
  0
VERTEX
  8
PLAN_1
  6
CONTINUOUS
 10
-0.976854
 20
1.482114
  0
VERTEX
  8
PLAN_1
  6
CONTINUOUS
 10
-0.978386
 20
1.484669
  0
VERTEX
  8
PLAN_1
  6
CONTINUOUS
 10
-0.980429
 20
1.487220
  0
VERTEX
  8
PLAN_1
  6
CONTINUOUS
 10
-0.981965
 20
1.489268
  0
VERTEX
  8
PLAN_1
  6
CONTINUOUS
 10
-0.985028
 20
1.492331
  0
VERTEX
  8
PLAN_1
  6
CONTINUOUS
 10
-0.986051
 20
1.493354
  0
SEQEND
  8
0
  0
POLYLINE
  8
PLAN_1
  6
CONTINUOUS
 66
     1
 40
0.007150
 41
0.007150
  0
VERTEX
  8
PLAN_1
  6
CONTINUOUS
 10
-0.986051
 20
1.493354
  0
VERTEX
  8
PLAN_1
  6
CONTINUOUS
 10
-1.275205
 20
1.493354
  0
SEQEND
  8
0
  0
POLYLINE
  8
PLAN_1
  6
CONTINUOUS
 66
     1
 40
0.007150
 41
0.007150
  0
VERTEX
  8
PLAN_1
  6
CONTINUOUS
 10
-1.275205
 20
1.493354
  0
VERTEX
  8
PLAN_1
  6
CONTINUOUS
 10
-1.276228
 20
1.492331
  0
VERTEX
  8
PLAN_1
  6
CONTINUOUS
 10
-1.278783
 20
1.489776
  0
VERTEX
  8
PLAN_1
  6
CONTINUOUS
 10
-1.282358
 20
1.485177
  0
VERTEX
  8
PLAN_1
  6
CONTINUOUS
 10
-1.284913
 20
1.479559
  0
VERTEX
  8
PLAN_1
  6
CONTINUOUS
 10
-1.285933
 20
1.475984
  0
VERTEX
  8
PLAN_1
  6
CONTINUOUS
 10
-1.286957
 20
1.472406
  0
VERTEX
  8
PLAN_1
  6
CONTINUOUS
 10
-1.286957
 20
1.468831
  0
VERTEX
  8
PLAN_1
  6
CONTINUOUS
 10
-1.286445
 20
1.464744
  0
VERTEX
  8
PLAN_1
  6
CONTINUOUS
 10
-1.284913
 20
1.460146
  0
VERTEX
  8
PLAN_1
  6
CONTINUOUS
 10
-1.282870
 20
1.455547
  0
VERTEX
  8
PLAN_1
  6
CONTINUOUS
 10
-1.279803
 20
1.450949
  0
VERTEX
  8
PLAN_1
  6
CONTINUOUS
 10
-1.275205
 20
1.446350
  0
SEQEND
  8
0
  0
POLYLINE
  8
PLAN_1
  6
CONTINUOUS
 66
     1
 40
0.007150
 41
0.007150
  0
VERTEX
  8
PLAN_1
  6
CONTINUOUS
 10
-1.275205
 20
1.446350
  0
VERTEX
  8
PLAN_1
  6
CONTINUOUS
 10
-0.986051
 20
1.446350
  0
SEQEND
  8
0
  0
POLYLINE
  8
PLAN_1
  6
CONTINUOUS
 66
     1
 40
0.007150
 41
0.007150
  0
VERTEX
  8
PLAN_1
  6
CONTINUOUS
 10
-0.986563
 20
1.398843
  0
VERTEX
  8
PLAN_1
  6
CONTINUOUS
 10
-0.981453
 20
1.403437
  0
VERTEX
  8
PLAN_1
  6
CONTINUOUS
 10
-0.977878
 20
1.408035
  0
VERTEX
  8
PLAN_1
  6
CONTINUOUS
 10
-0.975323
 20
1.412122
  0
VERTEX
  8
PLAN_1
  6
CONTINUOUS
 10
-0.973791
 20
1.416720
  0
VERTEX
  8
PLAN_1
  6
CONTINUOUS
 10
-0.973280
 20
1.420807
  0
VERTEX
  8
PLAN_1
  6
CONTINUOUS
 10
-0.973280
 20
1.424386
  0
VERTEX
  8
PLAN_1
  6
CONTINUOUS
 10
-0.974299
 20
1.427961
  0
VERTEX
  8
PLAN_1
  6
CONTINUOUS
 10
-0.975323
 20
1.431535
  0
VERTEX
  8
PLAN_1
  6
CONTINUOUS
 10
-0.976854
 20
1.434602
  0
VERTEX
  8
PLAN_1
  6
CONTINUOUS
 10
-0.978898
 20
1.437669
  0
VERTEX
  8
PLAN_1
  6
CONTINUOUS
 10
-0.980429
 20
1.440220
  0
VERTEX
  8
PLAN_1
  6
CONTINUOUS
 10
-0.982476
 20
1.442264
  0
VERTEX
  8
PLAN_1
  6
CONTINUOUS
 10
-0.985028
 20
1.444819
  0
VERTEX
  8
PLAN_1
  6
CONTINUOUS
 10
-0.986563
 20
1.445843
  0
SEQEND
  8
0
  0
POLYLINE
  8
PLAN_1
  6
CONTINUOUS
 66
     1
 40
0.007150
 41
0.007150
  0
VERTEX
  8
PLAN_1
  6
CONTINUOUS
 10
-0.986563
 20
1.445843
  0
VERTEX
  8
PLAN_1
  6
CONTINUOUS
 10
-1.275717
 20
1.445843
  0
SEQEND
  8
0
  0
POLYLINE
  8
PLAN_1
  6
CONTINUOUS
 66
     1
 40
0.007150
 41
0.007150
  0
VERTEX
  8
PLAN_1
  6
CONTINUOUS
 10
-1.275717
 20
1.445843
  0
VERTEX
  8
PLAN_1
  6
CONTINUOUS
 10
-1.276740
 20
1.444819
  0
VERTEX
  8
PLAN_1
  6
CONTINUOUS
 10
-1.279291
 20
1.442264
  0
VERTEX
  8
PLAN_1
  6
CONTINUOUS
 10
-1.282358
 20
1.438177
  0
VERTEX
  8
PLAN_1
  6
CONTINUOUS
 10
-1.285425
 20
1.432047
  0
VERTEX
  8
PLAN_1
  6
CONTINUOUS
 10
-1.286445
 20
1.428984
  0
VERTEX
  8
PLAN_1
  6
CONTINUOUS
 10
-1.286957
 20
1.425406
  0
VERTEX
  8
PLAN_1
  6
CONTINUOUS
 10
-1.286957
 20
1.421319
  0
VERTEX
  8
PLAN_1
  6
CONTINUOUS
 10
-1.286445
 20
1.417232
  0
VERTEX
  8
PLAN_1
  6
CONTINUOUS
 10
-1.285425
 20
1.413146
  0
VERTEX
  8
PLAN_1
  6
CONTINUOUS
 10
-1.282870
 20
1.408547
  0
VERTEX
  8
PLAN_1
  6
CONTINUOUS
 10
-1.279803
 20
1.403949
  0
VERTEX
  8
PLAN_1
  6
CONTINUOUS
 10
-1.275717
 20
1.398843
  0
SEQEND
  8
0
  0
POLYLINE
  8
PLAN_1
  6
CONTINUOUS
 66
     1
 40
0.007150
 41
0.007150
  0
VERTEX
  8
PLAN_1
  6
CONTINUOUS
 10
-1.275717
 20
1.398843
  0
VERTEX
  8
PLAN_1
  6
CONTINUOUS
 10
-0.986563
 20
1.398843
  0
SEQEND
  8
0
  0
POLYLINE
  8
PLAN_1
  6
CONTINUOUS
 66
     1
 40
0.007150
 41
0.007150
  0
VERTEX
  8
PLAN_1
  6
CONTINUOUS
 10
-0.986051
 20
1.352350
  0
VERTEX
  8
PLAN_1
  6
CONTINUOUS
 10
-0.980941
 20
1.356949
  0
VERTEX
  8
PLAN_1
  6
CONTINUOUS
 10
-0.977366
 20
1.361547
  0
VERTEX
  8
PLAN_1
  6
CONTINUOUS
 10
-0.974811
 20
1.365634
  0
VERTEX
  8
PLAN_1
  6
CONTINUOUS
 10
-0.973280
 20
1.370232
  0
VERTEX
  8
PLAN_1
  6
CONTINUOUS
 10
-0.972768
 20
1.374319
  0
VERTEX
  8
PLAN_1
  6
CONTINUOUS
 10
-0.972768
 20
1.377894
  0
VERTEX
  8
PLAN_1
  6
CONTINUOUS
 10
-0.973791
 20
1.381472
  0
VERTEX
  8
PLAN_1
  6
CONTINUOUS
 10
-0.974811
 20
1.385047
  0
VERTEX
  8
PLAN_1
  6
CONTINUOUS
 10
-0.976343
 20
1.388114
  0
VERTEX
  8
PLAN_1
  6
CONTINUOUS
 10
-0.978386
 20
1.391177
  0
VERTEX
  8
PLAN_1
  6
CONTINUOUS
 10
-0.979921
 20
1.393220
  0
VERTEX
  8
PLAN_1
  6
CONTINUOUS
 10
-0.981965
 20
1.395264
  0
VERTEX
  8
PLAN_1
  6
CONTINUOUS
 10
-0.985028
 20
1.398331
  0
VERTEX
  8
PLAN_1
  6
CONTINUOUS
 10
-0.986051
 20
1.399350
  0
SEQEND
  8
0
  0
POLYLINE
  8
PLAN_1
  6
CONTINUOUS
 66
     1
 40
0.007150
 41
0.007150
  0
VERTEX
  8
PLAN_1
  6
CONTINUOUS
 10
-0.986051
 20
1.399350
  0
VERTEX
  8
PLAN_1
  6
CONTINUOUS
 10
-1.275205
 20
1.399350
  0
SEQEND
  8
0
  0
POLYLINE
  8
PLAN_1
  6
CONTINUOUS
 66
     1
 40
0.007150
 41
0.007150
  0
VERTEX
  8
PLAN_1
  6
CONTINUOUS
 10
-1.275205
 20
1.399350
  0
VERTEX
  8
PLAN_1
  6
CONTINUOUS
 10
-1.276228
 20
1.398331
  0
VERTEX
  8
PLAN_1
  6
CONTINUOUS
 10
-1.278783
 20
1.395776
  0
VERTEX
  8
PLAN_1
  6
CONTINUOUS
 10
-1.281846
 20
1.391177
  0
VERTEX
  8
PLAN_1
  6
CONTINUOUS
 10
-1.284913
 20
1.385559
  0
VERTEX
  8
PLAN_1
  6
CONTINUOUS
 10
-1.285933
 20
1.382492
  0
VERTEX
  8
PLAN_1
  6
CONTINUOUS
 10
-1.286445
 20
1.378917
  0
VERTEX
  8
PLAN_1
  6
CONTINUOUS
 10
-1.286445
 20
1.374831
  0
VERTEX
  8
PLAN_1
  6
CONTINUOUS
 10
-1.285933
 20
1.370744
  0
VERTEX
  8
PLAN_1
  6
CONTINUOUS
 10
-1.284913
 20
1.366657
  0
VERTEX
  8
PLAN_1
  6
CONTINUOUS
 10
-1.282358
 20
1.362059
  0
VERTEX
  8
PLAN_1
  6
CONTINUOUS
 10
-1.279291
 20
1.357461
  0
VERTEX
  8
PLAN_1
  6
CONTINUOUS
 10
-1.275205
 20
1.352350
  0
SEQEND
  8
0
  0
POLYLINE
  8
PLAN_1
  6
CONTINUOUS
 66
     1
 40
0.007150
 41
0.007150
  0
VERTEX
  8
PLAN_1
  6
CONTINUOUS
 10
-1.275205
 20
1.352350
  0
VERTEX
  8
PLAN_1
  6
CONTINUOUS
 10
-0.986051
 20
1.352350
  0
SEQEND
  8
0
  0
POLYLINE
  8
PLAN_1
  6
CONTINUOUS
 66
     1
 40
0.007150
 41
0.007150
  0
VERTEX
  8
PLAN_1
  6
CONTINUOUS
 10
-0.986563
 20
1.305862
  0
VERTEX
  8
PLAN_1
  6
CONTINUOUS
 10
-0.981453
 20
1.310461
  0
VERTEX
  8
PLAN_1
  6
CONTINUOUS
 10
-0.977878
 20
1.315059
  0
VERTEX
  8
PLAN_1
  6
CONTINUOUS
 10
-0.975323
 20
1.319146
  0
VERTEX
  8
PLAN_1
  6
CONTINUOUS
 10
-0.973791
 20
1.323232
  0
VERTEX
  8
PLAN_1
  6
CONTINUOUS
 10
-0.973280
 20
1.327319
  0
VERTEX
  8
PLAN_1
  6
CONTINUOUS
 10
-0.973280
 20
1.331406
  0
VERTEX
  8
PLAN_1
  6
CONTINUOUS
 10
-0.974299
 20
1.334980
  0
VERTEX
  8
PLAN_1
  6
CONTINUOUS
 10
-0.975323
 20
1.338559
  0
VERTEX
  8
PLAN_1
  6
CONTINUOUS
 10
-0.976854
 20
1.341622
  0
VERTEX
  8
PLAN_1
  6
CONTINUOUS
 10
-0.978898
 20
1.344177
  0
VERTEX
  8
PLAN_1
  6
CONTINUOUS
 10
-0.980429
 20
1.346732
  0
VERTEX
  8
PLAN_1
  6
CONTINUOUS
 10
-0.982476
 20
1.348776
  0
VERTEX
  8
PLAN_1
  6
CONTINUOUS
 10
-0.985028
 20
1.351839
  0
VERTEX
  8
PLAN_1
  6
CONTINUOUS
 10
-0.986563
 20
1.352862
  0
SEQEND
  8
0
  0
POLYLINE
  8
PLAN_1
  6
CONTINUOUS
 66
     1
 40
0.007150
 41
0.007150
  0
VERTEX
  8
PLAN_1
  6
CONTINUOUS
 10
-0.986563
 20
1.352862
  0
VERTEX
  8
PLAN_1
  6
CONTINUOUS
 10
-1.275717
 20
1.352862
  0
SEQEND
  8
0
  0
POLYLINE
  8
PLAN_1
  6
CONTINUOUS
 66
     1
 40
0.007150
 41
0.007150
  0
VERTEX
  8
PLAN_1
  6
CONTINUOUS
 10
-1.275717
 20
1.352862
  0
VERTEX
  8
PLAN_1
  6
CONTINUOUS
 10
-1.276740
 20
1.351839
  0
VERTEX
  8
PLAN_1
  6
CONTINUOUS
 10
-1.279291
 20
1.349287
  0
VERTEX
  8
PLAN_1
  6
CONTINUOUS
 10
-1.282358
 20
1.344689
  0
VERTEX
  8
PLAN_1
  6
CONTINUOUS
 10
-1.285425
 20
1.339067
  0
VERTEX
  8
PLAN_1
  6
CONTINUOUS
 10
-1.286445
 20
1.336004
  0
VERTEX
  8
PLAN_1
  6
CONTINUOUS
 10
-1.286957
 20
1.331917
  0
VERTEX
  8
PLAN_1
  6
CONTINUOUS
 10
-1.286957
 20
1.328339
  0
VERTEX
  8
PLAN_1
  6
CONTINUOUS
 10
-1.286445
 20
1.324252
  0
VERTEX
  8
PLAN_1
  6
CONTINUOUS
 10
-1.285425
 20
1.319654
  0
VERTEX
  8
PLAN_1
  6
CONTINUOUS
 10
-1.282870
 20
1.315567
  0
VERTEX
  8
PLAN_1
  6
CONTINUOUS
 10
-1.279803
 20
1.310461
  0
VERTEX
  8
PLAN_1
  6
CONTINUOUS
 10
-1.275717
 20
1.305862
  0
SEQEND
  8
0
  0
POLYLINE
  8
PLAN_1
  6
CONTINUOUS
 66
     1
 40
0.007150
 41
0.007150
  0
VERTEX
  8
PLAN_1
  6
CONTINUOUS
 10
-1.275717
 20
1.305862
  0
VERTEX
  8
PLAN_1
  6
CONTINUOUS
 10
-0.986563
 20
1.305862
  0
SEQEND
  8
0
  0
POLYLINE
  8
PLAN_1
  6
CONTINUOUS
 66
     1
 40
0.007150
 41
0.007150
  0
VERTEX
  8
PLAN_1
  6
CONTINUOUS
 10
-0.986051
 20
1.259374
  0
VERTEX
  8
PLAN_1
  6
CONTINUOUS
 10
-0.980941
 20
1.263969
  0
VERTEX
  8
PLAN_1
  6
CONTINUOUS
 10
-0.977366
 20
1.268055
  0
VERTEX
  8
PLAN_1
  6
CONTINUOUS
 10
-0.974811
 20
1.272654
  0
VERTEX
  8
PLAN_1
  6
CONTINUOUS
 10
-0.973280
 20
1.276740
  0
VERTEX
  8
PLAN_1
  6
CONTINUOUS
 10
-0.972768
 20
1.280831
  0
VERTEX
  8
PLAN_1
  6
CONTINUOUS
 10
-0.972768
 20
1.284917
  0
VERTEX
  8
PLAN_1
  6
CONTINUOUS
 10
-0.973791
 20
1.288492
  0
VERTEX
  8
PLAN_1
  6
CONTINUOUS
 10
-0.974811
 20
1.292067
  0
VERTEX
  8
PLAN_1
  6
CONTINUOUS
 10
-0.976343
 20
1.295134
  0
VERTEX
  8
PLAN_1
  6
CONTINUOUS
 10
-0.978386
 20
1.297689
  0
VERTEX
  8
PLAN_1
  6
CONTINUOUS
 10
-0.979921
 20
1.300240
  0
VERTEX
  8
PLAN_1
  6
CONTINUOUS
 10
-0.981965
 20
1.302287
  0
VERTEX
  8
PLAN_1
  6
CONTINUOUS
 10
-0.985028
 20
1.305350
  0
VERTEX
  8
PLAN_1
  6
CONTINUOUS
 10
-0.986051
 20
1.306374
  0
SEQEND
  8
0
  0
POLYLINE
  8
PLAN_1
  6
CONTINUOUS
 66
     1
 40
0.007150
 41
0.007150
  0
VERTEX
  8
PLAN_1
  6
CONTINUOUS
 10
-0.986051
 20
1.306374
  0
VERTEX
  8
PLAN_1
  6
CONTINUOUS
 10
-1.275205
 20
1.306374
  0
SEQEND
  8
0
  0
POLYLINE
  8
PLAN_1
  6
CONTINUOUS
 66
     1
 40
0.007150
 41
0.007150
  0
VERTEX
  8
PLAN_1
  6
CONTINUOUS
 10
-1.275205
 20
1.306374
  0
VERTEX
  8
PLAN_1
  6
CONTINUOUS
 10
-1.276228
 20
1.305350
  0
VERTEX
  8
PLAN_1
  6
CONTINUOUS
 10
-1.278783
 20
1.302795
  0
VERTEX
  8
PLAN_1
  6
CONTINUOUS
 10
-1.281846
 20
1.298197
  0
VERTEX
  8
PLAN_1
  6
CONTINUOUS
 10
-1.284913
 20
1.292579
  0
VERTEX
  8
PLAN_1
  6
CONTINUOUS
 10
-1.285933
 20
1.289004
  0
VERTEX
  8
PLAN_1
  6
CONTINUOUS
 10
-1.286445
 20
1.285425
  0
VERTEX
  8
PLAN_1
  6
CONTINUOUS
 10
-1.286445
 20
1.281850
  0
VERTEX
  8
PLAN_1
  6
CONTINUOUS
 10
-1.285933
 20
1.277764
  0
VERTEX
  8
PLAN_1
  6
CONTINUOUS
 10
-1.284913
 20
1.273165
  0
VERTEX
  8
PLAN_1
  6
CONTINUOUS
 10
-1.282358
 20
1.268567
  0
VERTEX
  8
PLAN_1
  6
CONTINUOUS
 10
-1.279291
 20
1.263969
  0
VERTEX
  8
PLAN_1
  6
CONTINUOUS
 10
-1.275205
 20
1.259374
  0
SEQEND
  8
0
  0
POLYLINE
  8
PLAN_1
  6
CONTINUOUS
 66
     1
 40
0.007150
 41
0.007150
  0
VERTEX
  8
PLAN_1
  6
CONTINUOUS
 10
-1.275205
 20
1.259374
  0
VERTEX
  8
PLAN_1
  6
CONTINUOUS
 10
-0.986051
 20
1.259374
  0
SEQEND
  8
0
  0
POLYLINE
  8
PLAN_1
  6
CONTINUOUS
 66
     1
 40
0.007150
 41
0.007150
  0
VERTEX
  8
PLAN_1
  6
CONTINUOUS
 10
-0.986563
 20
1.212882
  0
VERTEX
  8
PLAN_1
  6
CONTINUOUS
 10
-0.981453
 20
1.216969
  0
VERTEX
  8
PLAN_1
  6
CONTINUOUS
 10
-0.977878
 20
1.221567
  0
VERTEX
  8
PLAN_1
  6
CONTINUOUS
 10
-0.975323
 20
1.226165
  0
VERTEX
  8
PLAN_1
  6
CONTINUOUS
 10
-0.973791
 20
1.230252
  0
VERTEX
  8
PLAN_1
  6
CONTINUOUS
 10
-0.973280
 20
1.234339
  0
VERTEX
  8
PLAN_1
  6
CONTINUOUS
 10
-0.973280
 20
1.238425
  0
VERTEX
  8
PLAN_1
  6
CONTINUOUS
 10
-0.974299
 20
1.242004
  0
VERTEX
  8
PLAN_1
  6
CONTINUOUS
 10
-0.975323
 20
1.245067
  0
VERTEX
  8
PLAN_1
  6
CONTINUOUS
 10
-0.976854
 20
1.248642
  0
VERTEX
  8
PLAN_1
  6
CONTINUOUS
 10
-0.978898
 20
1.251197
  0
VERTEX
  8
PLAN_1
  6
CONTINUOUS
 10
-0.980429
 20
1.253752
  0
VERTEX
  8
PLAN_1
  6
CONTINUOUS
 10
-0.982476
 20
1.255795
  0
VERTEX
  8
PLAN_1
  6
CONTINUOUS
 10
-0.985028
 20
1.258862
  0
VERTEX
  8
PLAN_1
  6
CONTINUOUS
 10
-0.986563
 20
1.259882
  0
SEQEND
  8
0
  0
POLYLINE
  8
PLAN_1
  6
CONTINUOUS
 66
     1
 40
0.007150
 41
0.007150
  0
VERTEX
  8
PLAN_1
  6
CONTINUOUS
 10
-0.986563
 20
1.259882
  0
VERTEX
  8
PLAN_1
  6
CONTINUOUS
 10
-1.275717
 20
1.259882
  0
SEQEND
  8
0
  0
POLYLINE
  8
PLAN_1
  6
CONTINUOUS
 66
     1
 40
0.007150
 41
0.007150
  0
VERTEX
  8
PLAN_1
  6
CONTINUOUS
 10
-1.275717
 20
1.259882
  0
VERTEX
  8
PLAN_1
  6
CONTINUOUS
 10
-1.276740
 20
1.258862
  0
VERTEX
  8
PLAN_1
  6
CONTINUOUS
 10
-1.279291
 20
1.255795
  0
VERTEX
  8
PLAN_1
  6
CONTINUOUS
 10
-1.282358
 20
1.251709
  0
VERTEX
  8
PLAN_1
  6
CONTINUOUS
 10
-1.285425
 20
1.246091
  0
VERTEX
  8
PLAN_1
  6
CONTINUOUS
 10
-1.286445
 20
1.242512
  0
VERTEX
  8
PLAN_1
  6
CONTINUOUS
 10
-1.286957
 20
1.238937
  0
VERTEX
  8
PLAN_1
  6
CONTINUOUS
 10
-1.286957
 20
1.235362
  0
VERTEX
  8
PLAN_1
  6
CONTINUOUS
 10
-1.286445
 20
1.231276
  0
VERTEX
  8
PLAN_1
  6
CONTINUOUS
 10
-1.285425
 20
1.226677
  0
VERTEX
  8
PLAN_1
  6
CONTINUOUS
 10
-1.282870
 20
1.222079
  0
VERTEX
  8
PLAN_1
  6
CONTINUOUS
 10
-1.279803
 20
1.217480
  0
VERTEX
  8
PLAN_1
  6
CONTINUOUS
 10
-1.275717
 20
1.212882
  0
SEQEND
  8
0
  0
POLYLINE
  8
PLAN_1
  6
CONTINUOUS
 66
     1
 40
0.007150
 41
0.007150
  0
VERTEX
  8
PLAN_1
  6
CONTINUOUS
 10
-1.275717
 20
1.212882
  0
VERTEX
  8
PLAN_1
  6
CONTINUOUS
 10
-0.986563
 20
1.212882
  0
SEQEND
  8
0
  0
POLYLINE
  8
PLAN_1
  6
CONTINUOUS
 66
     1
 40
0.007150
 41
0.007150
  0
VERTEX
  8
PLAN_1
  6
CONTINUOUS
 10
-0.986051
 20
1.165882
  0
VERTEX
  8
PLAN_1
  6
CONTINUOUS
 10
-0.980941
 20
1.170480
  0
VERTEX
  8
PLAN_1
  6
CONTINUOUS
 10
-0.977366
 20
1.175079
  0
VERTEX
  8
PLAN_1
  6
CONTINUOUS
 10
-0.974811
 20
1.179677
  0
VERTEX
  8
PLAN_1
  6
CONTINUOUS
 10
-0.973280
 20
1.183764
  0
VERTEX
  8
PLAN_1
  6
CONTINUOUS
 10
-0.972768
 20
1.187850
  0
VERTEX
  8
PLAN_1
  6
CONTINUOUS
 10
-0.972768
 20
1.191425
  0
VERTEX
  8
PLAN_1
  6
CONTINUOUS
 10
-0.973791
 20
1.195512
  0
VERTEX
  8
PLAN_1
  6
CONTINUOUS
 10
-0.974811
 20
1.198579
  0
VERTEX
  8
PLAN_1
  6
CONTINUOUS
 10
-0.976343
 20
1.201642
  0
VERTEX
  8
PLAN_1
  6
CONTINUOUS
 10
-0.978386
 20
1.204709
  0
VERTEX
  8
PLAN_1
  6
CONTINUOUS
 10
-0.979921
 20
1.207264
  0
VERTEX
  8
PLAN_1
  6
CONTINUOUS
 10
-0.981965
 20
1.209307
  0
VERTEX
  8
PLAN_1
  6
CONTINUOUS
 10
-0.985028
 20
1.211862
  0
VERTEX
  8
PLAN_1
  6
CONTINUOUS
 10
-0.986051
 20
1.212882
  0
SEQEND
  8
0
  0
POLYLINE
  8
PLAN_1
  6
CONTINUOUS
 66
     1
 40
0.007150
 41
0.007150
  0
VERTEX
  8
PLAN_1
  6
CONTINUOUS
 10
-0.986051
 20
1.212882
  0
VERTEX
  8
PLAN_1
  6
CONTINUOUS
 10
-1.275205
 20
1.212882
  0
SEQEND
  8
0
  0
POLYLINE
  8
PLAN_1
  6
CONTINUOUS
 66
     1
 40
0.007150
 41
0.007150
  0
VERTEX
  8
PLAN_1
  6
CONTINUOUS
 10
-1.275205
 20
1.212882
  0
VERTEX
  8
PLAN_1
  6
CONTINUOUS
 10
-1.276228
 20
1.212370
  0
VERTEX
  8
PLAN_1
  6
CONTINUOUS
 10
-1.278783
 20
1.209307
  0
VERTEX
  8
PLAN_1
  6
CONTINUOUS
 10
-1.281846
 20
1.205220
  0
VERTEX
  8
PLAN_1
  6
CONTINUOUS
 10
-1.284913
 20
1.199598
  0
VERTEX
  8
PLAN_1
  6
CONTINUOUS
 10
-1.285933
 20
1.196024
  0
VERTEX
  8
PLAN_1
  6
CONTINUOUS
 10
-1.286445
 20
1.192449
  0
VERTEX
  8
PLAN_1
  6
CONTINUOUS
 10
-1.286445
 20
1.188362
  0
VERTEX
  8
PLAN_1
  6
CONTINUOUS
 10
-1.285933
 20
1.184272
  0
VERTEX
  8
PLAN_1
  6
CONTINUOUS
 10
-1.284913
 20
1.180185
  0
VERTEX
  8
PLAN_1
  6
CONTINUOUS
 10
-1.282358
 20
1.175587
  0
VERTEX
  8
PLAN_1
  6
CONTINUOUS
 10
-1.279291
 20
1.170992
  0
VERTEX
  8
PLAN_1
  6
CONTINUOUS
 10
-1.275205
 20
1.165882
  0
SEQEND
  8
0
  0
POLYLINE
  8
PLAN_1
  6
CONTINUOUS
 66
     1
 40
0.007150
 41
0.007150
  0
VERTEX
  8
PLAN_1
  6
CONTINUOUS
 10
-1.275205
 20
1.165882
  0
VERTEX
  8
PLAN_1
  6
CONTINUOUS
 10
-0.986051
 20
1.165882
  0
SEQEND
  8
0
  0
POLYLINE
  8
PLAN_1
  6
CONTINUOUS
 66
     1
 40
0.007150
 41
0.007150
  0
VERTEX
  8
PLAN_1
  6
CONTINUOUS
 10
-0.986563
 20
1.119394
  0
VERTEX
  8
PLAN_1
  6
CONTINUOUS
 10
-0.981453
 20
1.123992
  0
VERTEX
  8
PLAN_1
  6
CONTINUOUS
 10
-0.977878
 20
1.128587
  0
VERTEX
  8
PLAN_1
  6
CONTINUOUS
 10
-0.975323
 20
1.132673
  0
VERTEX
  8
PLAN_1
  6
CONTINUOUS
 10
-0.973791
 20
1.137272
  0
VERTEX
  8
PLAN_1
  6
CONTINUOUS
 10
-0.973280
 20
1.141358
  0
VERTEX
  8
PLAN_1
  6
CONTINUOUS
 10
-0.973280
 20
1.144937
  0
VERTEX
  8
PLAN_1
  6
CONTINUOUS
 10
-0.974299
 20
1.148512
  0
VERTEX
  8
PLAN_1
  6
CONTINUOUS
 10
-0.975323
 20
1.152087
  0
VERTEX
  8
PLAN_1
  6
CONTINUOUS
 10
-0.976854
 20
1.155154
  0
VERTEX
  8
PLAN_1
  6
CONTINUOUS
 10
-0.978898
 20
1.158220
  0
VERTEX
  8
PLAN_1
  6
CONTINUOUS
 10
-0.980429
 20
1.160264
  0
VERTEX
  8
PLAN_1
  6
CONTINUOUS
 10
-0.982476
 20
1.162815
  0
VERTEX
  8
PLAN_1
  6
CONTINUOUS
 10
-0.985028
 20
1.165370
  0
VERTEX
  8
PLAN_1
  6
CONTINUOUS
 10
-0.986563
 20
1.166394
  0
SEQEND
  8
0
  0
POLYLINE
  8
PLAN_1
  6
CONTINUOUS
 66
     1
 40
0.007150
 41
0.007150
  0
VERTEX
  8
PLAN_1
  6
CONTINUOUS
 10
-0.986563
 20
1.166394
  0
VERTEX
  8
PLAN_1
  6
CONTINUOUS
 10
-1.275717
 20
1.166394
  0
SEQEND
  8
0
  0
POLYLINE
  8
PLAN_1
  6
CONTINUOUS
 66
     1
 40
0.007150
 41
0.007150
  0
VERTEX
  8
PLAN_1
  6
CONTINUOUS
 10
-1.275717
 20
1.166394
  0
VERTEX
  8
PLAN_1
  6
CONTINUOUS
 10
-1.276740
 20
1.165370
  0
VERTEX
  8
PLAN_1
  6
CONTINUOUS
 10
-1.279291
 20
1.162815
  0
VERTEX
  8
PLAN_1
  6
CONTINUOUS
 10
-1.282358
 20
1.158728
  0
VERTEX
  8
PLAN_1
  6
CONTINUOUS
 10
-1.285425
 20
1.152598
  0
VERTEX
  8
PLAN_1
  6
CONTINUOUS
 10
-1.286445
 20
1.149535
  0
VERTEX
  8
PLAN_1
  6
CONTINUOUS
 10
-1.286957
 20
1.145957
  0
VERTEX
  8
PLAN_1
  6
CONTINUOUS
 10
-1.286957
 20
1.141870
  0
VERTEX
  8
PLAN_1
  6
CONTINUOUS
 10
-1.286445
 20
1.137783
  0
VERTEX
  8
PLAN_1
  6
CONTINUOUS
 10
-1.285425
 20
1.133697
  0
VERTEX
  8
PLAN_1
  6
CONTINUOUS
 10
-1.282870
 20
1.129098
  0
VERTEX
  8
PLAN_1
  6
CONTINUOUS
 10
-1.279803
 20
1.124500
  0
VERTEX
  8
PLAN_1
  6
CONTINUOUS
 10
-1.275717
 20
1.119394
  0
SEQEND
  8
0
  0
POLYLINE
  8
PLAN_1
  6
CONTINUOUS
 66
     1
 40
0.007150
 41
0.007150
  0
VERTEX
  8
PLAN_1
  6
CONTINUOUS
 10
-1.275717
 20
1.119394
  0
VERTEX
  8
PLAN_1
  6
CONTINUOUS
 10
-0.986563
 20
1.119394
  0
SEQEND
  8
0
  0
POLYLINE
  8
PLAN_1
  6
CONTINUOUS
 66
     1
 40
0.007150
 41
0.007150
  0
VERTEX
  8
PLAN_1
  6
CONTINUOUS
 10
-0.986051
 20
1.072902
  0
VERTEX
  8
PLAN_1
  6
CONTINUOUS
 10
-0.980941
 20
1.077500
  0
VERTEX
  8
PLAN_1
  6
CONTINUOUS
 10
-0.977366
 20
1.082098
  0
VERTEX
  8
PLAN_1
  6
CONTINUOUS
 10
-0.974811
 20
1.086185
  0
VERTEX
  8
PLAN_1
  6
CONTINUOUS
 10
-0.973280
 20
1.090783
  0
VERTEX
  8
PLAN_1
  6
CONTINUOUS
 10
-0.972768
 20
1.094358
  0
VERTEX
  8
PLAN_1
  6
CONTINUOUS
 10
-0.972768
 20
1.098445
  0
VERTEX
  8
PLAN_1
  6
CONTINUOUS
 10
-0.973791
 20
1.102024
  0
VERTEX
  8
PLAN_1
  6
CONTINUOUS
 10
-0.974811
 20
1.105598
  0
VERTEX
  8
PLAN_1
  6
CONTINUOUS
 10
-0.976343
 20
1.108665
  0
VERTEX
  8
PLAN_1
  6
CONTINUOUS
 10
-0.978386
 20
1.111217
  0
VERTEX
  8
PLAN_1
  6
CONTINUOUS
 10
-0.979921
 20
1.113772
  0
VERTEX
  8
PLAN_1
  6
CONTINUOUS
 10
-0.981965
 20
1.115815
  0
VERTEX
  8
PLAN_1
  6
CONTINUOUS
 10
-0.985028
 20
1.118882
  0
VERTEX
  8
PLAN_1
  6
CONTINUOUS
 10
-0.986051
 20
1.119902
  0
SEQEND
  8
0
  0
POLYLINE
  8
PLAN_1
  6
CONTINUOUS
 66
     1
 40
0.007150
 41
0.007150
  0
VERTEX
  8
PLAN_1
  6
CONTINUOUS
 10
-0.986051
 20
1.119902
  0
VERTEX
  8
PLAN_1
  6
CONTINUOUS
 10
-1.275205
 20
1.119902
  0
SEQEND
  8
0
  0
POLYLINE
  8
PLAN_1
  6
CONTINUOUS
 66
     1
 40
0.007150
 41
0.007150
  0
VERTEX
  8
PLAN_1
  6
CONTINUOUS
 10
-1.275205
 20
1.119902
  0
VERTEX
  8
PLAN_1
  6
CONTINUOUS
 10
-1.276228
 20
1.118882
  0
VERTEX
  8
PLAN_1
  6
CONTINUOUS
 10
-1.278783
 20
1.116327
  0
VERTEX
  8
PLAN_1
  6
CONTINUOUS
 10
-1.281846
 20
1.111728
  0
VERTEX
  8
PLAN_1
  6
CONTINUOUS
 10
-1.284913
 20
1.106110
  0
VERTEX
  8
PLAN_1
  6
CONTINUOUS
 10
-1.285933
 20
1.103043
  0
VERTEX
  8
PLAN_1
  6
CONTINUOUS
 10
-1.286445
 20
1.099469
  0
VERTEX
  8
PLAN_1
  6
CONTINUOUS
 10
-1.286445
 20
1.095382
  0
VERTEX
  8
PLAN_1
  6
CONTINUOUS
 10
-1.285933
 20
1.091295
  0
VERTEX
  8
PLAN_1
  6
CONTINUOUS
 10
-1.284913
 20
1.086697
  0
VERTEX
  8
PLAN_1
  6
CONTINUOUS
 10
-1.282358
 20
1.082610
  0
VERTEX
  8
PLAN_1
  6
CONTINUOUS
 10
-1.279291
 20
1.077500
  0
VERTEX
  8
PLAN_1
  6
CONTINUOUS
 10
-1.275205
 20
1.072902
  0
SEQEND
  8
0
  0
POLYLINE
  8
PLAN_1
  6
CONTINUOUS
 66
     1
 40
0.007150
 41
0.007150
  0
VERTEX
  8
PLAN_1
  6
CONTINUOUS
 10
-1.275205
 20
1.072902
  0
VERTEX
  8
PLAN_1
  6
CONTINUOUS
 10
-0.986051
 20
1.072902
  0
SEQEND
  8
0
  0
POLYLINE
  8
PLAN_1
  6
CONTINUOUS
 66
     1
 40
0.007150
 41
0.007150
  0
VERTEX
  8
PLAN_1
  6
CONTINUOUS
 10
-0.986563
 20
1.026413
  0
VERTEX
  8
PLAN_1
  6
CONTINUOUS
 10
-0.981453
 20
1.031012
  0
VERTEX
  8
PLAN_1
  6
CONTINUOUS
 10
-0.977878
 20
1.035610
  0
VERTEX
  8
PLAN_1
  6
CONTINUOUS
 10
-0.975323
 20
1.039697
  0
VERTEX
  8
PLAN_1
  6
CONTINUOUS
 10
-0.973791
 20
1.043783
  0
VERTEX
  8
PLAN_1
  6
CONTINUOUS
 10
-0.973280
 20
1.047870
  0
VERTEX
  8
PLAN_1
  6
CONTINUOUS
 10
-0.973280
 20
1.051957
  0
VERTEX
  8
PLAN_1
  6
CONTINUOUS
 10
-0.974299
 20
1.055531
  0
VERTEX
  8
PLAN_1
  6
CONTINUOUS
 10
-0.975323
 20
1.059110
  0
VERTEX
  8
PLAN_1
  6
CONTINUOUS
 10
-0.976854
 20
1.062173
  0
VERTEX
  8
PLAN_1
  6
CONTINUOUS
 10
-0.978898
 20
1.064728
  0
VERTEX
  8
PLAN_1
  6
CONTINUOUS
 10
-0.980429
 20
1.067283
  0
VERTEX
  8
PLAN_1
  6
CONTINUOUS
 10
-0.982476
 20
1.069327
  0
VERTEX
  8
PLAN_1
  6
CONTINUOUS
 10
-0.985028
 20
1.072394
  0
VERTEX
  8
PLAN_1
  6
CONTINUOUS
 10
-0.986563
 20
1.073413
  0
SEQEND
  8
0
  0
POLYLINE
  8
PLAN_1
  6
CONTINUOUS
 66
     1
 40
0.007150
 41
0.007150
  0
VERTEX
  8
PLAN_1
  6
CONTINUOUS
 10
-0.986563
 20
1.073413
  0
VERTEX
  8
PLAN_1
  6
CONTINUOUS
 10
-1.275717
 20
1.073413
  0
SEQEND
  8
0
  0
POLYLINE
  8
PLAN_1
  6
CONTINUOUS
 66
     1
 40
0.007150
 41
0.007150
  0
VERTEX
  8
PLAN_1
  6
CONTINUOUS
 10
-1.275717
 20
1.073413
  0
VERTEX
  8
PLAN_1
  6
CONTINUOUS
 10
-1.276740
 20
1.072394
  0
VERTEX
  8
PLAN_1
  6
CONTINUOUS
 10
-1.279291
 20
1.069839
  0
VERTEX
  8
PLAN_1
  6
CONTINUOUS
 10
-1.282358
 20
1.065240
  0
VERTEX
  8
PLAN_1
  6
CONTINUOUS
 10
-1.285425
 20
1.059618
  0
VERTEX
  8
PLAN_1
  6
CONTINUOUS
 10
-1.286445
 20
1.056043
  0
VERTEX
  8
PLAN_1
  6
CONTINUOUS
 10
-1.286957
 20
1.052469
  0
VERTEX
  8
PLAN_1
  6
CONTINUOUS
 10
-1.286957
 20
1.048890
  0
VERTEX
  8
PLAN_1
  6
CONTINUOUS
 10
-1.286445
 20
1.044803
  0
VERTEX
  8
PLAN_1
  6
CONTINUOUS
 10
-1.285425
 20
1.040205
  0
VERTEX
  8
PLAN_1
  6
CONTINUOUS
 10
-1.282870
 20
1.035610
  0
VERTEX
  8
PLAN_1
  6
CONTINUOUS
 10
-1.279803
 20
1.031012
  0
VERTEX
  8
PLAN_1
  6
CONTINUOUS
 10
-1.275717
 20
1.026413
  0
SEQEND
  8
0
  0
POLYLINE
  8
PLAN_1
  6
CONTINUOUS
 66
     1
 40
0.007150
 41
0.007150
  0
VERTEX
  8
PLAN_1
  6
CONTINUOUS
 10
-1.275717
 20
1.026413
  0
VERTEX
  8
PLAN_1
  6
CONTINUOUS
 10
-0.986563
 20
1.026413
  0
SEQEND
  8
0
  0
POLYLINE
  8
PLAN_1
  6
CONTINUOUS
 66
     1
 40
0.007150
 41
0.007150
  0
VERTEX
  8
PLAN_1
  6
CONTINUOUS
 10
-0.986051
 20
0.979925
  0
VERTEX
  8
PLAN_1
  6
CONTINUOUS
 10
-0.980941
 20
0.984520
  0
VERTEX
  8
PLAN_1
  6
CONTINUOUS
 10
-0.977366
 20
0.988610
  0
VERTEX
  8
PLAN_1
  6
CONTINUOUS
 10
-0.974811
 20
0.993205
  0
VERTEX
  8
PLAN_1
  6
CONTINUOUS
 10
-0.973280
 20
0.997291
  0
VERTEX
  8
PLAN_1
  6
CONTINUOUS
 10
-0.972768
 20
1.001382
  0
VERTEX
  8
PLAN_1
  6
CONTINUOUS
 10
-0.972768
 20
1.005469
  0
VERTEX
  8
PLAN_1
  6
CONTINUOUS
 10
-0.973791
 20
1.009043
  0
VERTEX
  8
PLAN_1
  6
CONTINUOUS
 10
-0.974811
 20
1.012618
  0
VERTEX
  8
PLAN_1
  6
CONTINUOUS
 10
-0.976343
 20
1.015685
  0
VERTEX
  8
PLAN_1
  6
CONTINUOUS
 10
-0.978386
 20
1.018240
  0
VERTEX
  8
PLAN_1
  6
CONTINUOUS
 10
-0.979921
 20
1.020795
  0
VERTEX
  8
PLAN_1
  6
CONTINUOUS
 10
-0.981965
 20
1.022839
  0
VERTEX
  8
PLAN_1
  6
CONTINUOUS
 10
-0.985028
 20
1.025902
  0
VERTEX
  8
PLAN_1
  6
CONTINUOUS
 10
-0.986051
 20
1.026925
  0
SEQEND
  8
0
  0
POLYLINE
  8
PLAN_1
  6
CONTINUOUS
 66
     1
 40
0.007150
 41
0.007150
  0
VERTEX
  8
PLAN_1
  6
CONTINUOUS
 10
-0.986051
 20
1.026925
  0
VERTEX
  8
PLAN_1
  6
CONTINUOUS
 10
-1.275205
 20
1.026925
  0
SEQEND
  8
0
  0
POLYLINE
  8
PLAN_1
  6
CONTINUOUS
 66
     1
 40
0.007150
 41
0.007150
  0
VERTEX
  8
PLAN_1
  6
CONTINUOUS
 10
-1.275205
 20
1.026925
  0
VERTEX
  8
PLAN_1
  6
CONTINUOUS
 10
-1.276228
 20
1.025902
  0
VERTEX
  8
PLAN_1
  6
CONTINUOUS
 10
-1.278783
 20
1.023346
  0
VERTEX
  8
PLAN_1
  6
CONTINUOUS
 10
-1.281846
 20
1.018748
  0
VERTEX
  8
PLAN_1
  6
CONTINUOUS
 10
-1.284913
 20
1.013130
  0
VERTEX
  8
PLAN_1
  6
CONTINUOUS
 10
-1.285933
 20
1.009555
  0
VERTEX
  8
PLAN_1
  6
CONTINUOUS
 10
-1.286445
 20
1.005976
  0
VERTEX
  8
PLAN_1
  6
CONTINUOUS
 10
-1.286445
 20
1.002402
  0
VERTEX
  8
PLAN_1
  6
CONTINUOUS
 10
-1.285933
 20
0.998315
  0
VERTEX
  8
PLAN_1
  6
CONTINUOUS
 10
-1.284913
 20
0.993717
  0
VERTEX
  8
PLAN_1
  6
CONTINUOUS
 10
-1.282358
 20
0.989118
  0
VERTEX
  8
PLAN_1
  6
CONTINUOUS
 10
-1.279291
 20
0.984520
  0
VERTEX
  8
PLAN_1
  6
CONTINUOUS
 10
-1.275205
 20
0.979925
  0
SEQEND
  8
0
  0
POLYLINE
  8
PLAN_1
  6
CONTINUOUS
 66
     1
 40
0.007150
 41
0.007150
  0
VERTEX
  8
PLAN_1
  6
CONTINUOUS
 10
-1.275205
 20
0.979925
  0
VERTEX
  8
PLAN_1
  6
CONTINUOUS
 10
-0.986051
 20
0.979925
  0
SEQEND
  8
0
  0
POLYLINE
  8
PLAN_1
  6
CONTINUOUS
 66
     1
 40
0.007150
 41
0.007150
  0
VERTEX
  8
PLAN_1
  6
CONTINUOUS
 10
-0.986563
 20
0.932921
  0
VERTEX
  8
PLAN_1
  6
CONTINUOUS
 10
-0.981453
 20
0.937520
  0
VERTEX
  8
PLAN_1
  6
CONTINUOUS
 10
-0.977878
 20
0.942118
  0
VERTEX
  8
PLAN_1
  6
CONTINUOUS
 10
-0.975323
 20
0.946717
  0
VERTEX
  8
PLAN_1
  6
CONTINUOUS
 10
-0.973791
 20
0.950803
  0
VERTEX
  8
PLAN_1
  6
CONTINUOUS
 10
-0.973280
 20
0.954890
  0
VERTEX
  8
PLAN_1
  6
CONTINUOUS
 10
-0.973280
 20
0.958976
  0
VERTEX
  8
PLAN_1
  6
CONTINUOUS
 10
-0.974299
 20
0.962555
  0
VERTEX
  8
PLAN_1
  6
CONTINUOUS
 10
-0.975323
 20
0.965618
  0
VERTEX
  8
PLAN_1
  6
CONTINUOUS
 10
-0.976854
 20
0.968685
  0
VERTEX
  8
PLAN_1
  6
CONTINUOUS
 10
-0.978898
 20
0.971748
  0
VERTEX
  8
PLAN_1
  6
CONTINUOUS
 10
-0.980429
 20
0.974303
  0
VERTEX
  8
PLAN_1
  6
CONTINUOUS
 10
-0.982476
 20
0.976346
  0
VERTEX
  8
PLAN_1
  6
CONTINUOUS
 10
-0.985028
 20
0.979413
  0
VERTEX
  8
PLAN_1
  6
CONTINUOUS
 10
-0.986563
 20
0.980433
  0
SEQEND
  8
0
  0
POLYLINE
  8
PLAN_1
  6
CONTINUOUS
 66
     1
 40
0.007150
 41
0.007150
  0
VERTEX
  8
PLAN_1
  6
CONTINUOUS
 10
-0.986563
 20
0.980433
  0
VERTEX
  8
PLAN_1
  6
CONTINUOUS
 10
-1.275717
 20
0.980433
  0
SEQEND
  8
0
  0
POLYLINE
  8
PLAN_1
  6
CONTINUOUS
 66
     1
 40
0.007150
 41
0.007150
  0
VERTEX
  8
PLAN_1
  6
CONTINUOUS
 10
-1.275717
 20
0.980433
  0
VERTEX
  8
PLAN_1
  6
CONTINUOUS
 10
-1.276740
 20
0.979413
  0
VERTEX
  8
PLAN_1
  6
CONTINUOUS
 10
-1.279291
 20
0.976346
  0
VERTEX
  8
PLAN_1
  6
CONTINUOUS
 10
-1.282358
 20
0.972260
  0
VERTEX
  8
PLAN_1
  6
CONTINUOUS
 10
-1.285425
 20
0.966642
  0
VERTEX
  8
PLAN_1
  6
CONTINUOUS
 10
-1.286445
 20
0.963063
  0
VERTEX
  8
PLAN_1
  6
CONTINUOUS
 10
-1.286957
 20
0.959488
  0
VERTEX
  8
PLAN_1
  6
CONTINUOUS
 10
-1.286957
 20
0.955402
  0
VERTEX
  8
PLAN_1
  6
CONTINUOUS
 10
-1.286445
 20
0.951315
  0
VERTEX
  8
PLAN_1
  6
CONTINUOUS
 10
-1.285425
 20
0.947228
  0
VERTEX
  8
PLAN_1
  6
CONTINUOUS
 10
-1.282870
 20
0.942630
  0
VERTEX
  8
PLAN_1
  6
CONTINUOUS
 10
-1.279803
 20
0.938031
  0
VERTEX
  8
PLAN_1
  6
CONTINUOUS
 10
-1.275717
 20
0.932921
  0
SEQEND
  8
0
  0
POLYLINE
  8
PLAN_1
  6
CONTINUOUS
 66
     1
 40
0.007150
 41
0.007150
  0
VERTEX
  8
PLAN_1
  6
CONTINUOUS
 10
-1.275717
 20
0.932921
  0
VERTEX
  8
PLAN_1
  6
CONTINUOUS
 10
-0.986563
 20
0.932921
  0
SEQEND
  8
0
  0
POLYLINE
  8
PLAN_1
  6
CONTINUOUS
 66
     1
 40
0.007150
 41
0.007150
  0
VERTEX
  8
PLAN_1
  6
CONTINUOUS
 10
-0.986051
 20
0.886433
  0
VERTEX
  8
PLAN_1
  6
CONTINUOUS
 10
-0.980941
 20
0.891031
  0
VERTEX
  8
PLAN_1
  6
CONTINUOUS
 10
-0.977366
 20
0.895630
  0
VERTEX
  8
PLAN_1
  6
CONTINUOUS
 10
-0.974811
 20
0.900228
  0
VERTEX
  8
PLAN_1
  6
CONTINUOUS
 10
-0.973280
 20
0.904315
  0
VERTEX
  8
PLAN_1
  6
CONTINUOUS
 10
-0.972768
 20
0.908402
  0
VERTEX
  8
PLAN_1
  6
CONTINUOUS
 10
-0.972768
 20
0.911976
  0
VERTEX
  8
PLAN_1
  6
CONTINUOUS
 10
-0.973791
 20
0.916063
  0
VERTEX
  8
PLAN_1
  6
CONTINUOUS
 10
-0.974811
 20
0.919130
  0
VERTEX
  8
PLAN_1
  6
CONTINUOUS
 10
-0.976343
 20
0.922193
  0
VERTEX
  8
PLAN_1
  6
CONTINUOUS
 10
-0.978386
 20
0.925260
  0
VERTEX
  8
PLAN_1
  6
CONTINUOUS
 10
-0.979921
 20
0.927815
  0
VERTEX
  8
PLAN_1
  6
CONTINUOUS
 10
-0.981965
 20
0.929858
  0
VERTEX
  8
PLAN_1
  6
CONTINUOUS
 10
-0.985028
 20
0.932413
  0
VERTEX
  8
PLAN_1
  6
CONTINUOUS
 10
-0.986051
 20
0.933433
  0
SEQEND
  8
0
  0
POLYLINE
  8
PLAN_1
  6
CONTINUOUS
 66
     1
 40
0.007150
 41
0.007150
  0
VERTEX
  8
PLAN_1
  6
CONTINUOUS
 10
-0.986051
 20
0.933433
  0
VERTEX
  8
PLAN_1
  6
CONTINUOUS
 10
-1.275205
 20
0.933433
  0
SEQEND
  8
0
  0
POLYLINE
  8
PLAN_1
  6
CONTINUOUS
 66
     1
 40
0.007150
 41
0.007150
  0
VERTEX
  8
PLAN_1
  6
CONTINUOUS
 10
-1.275205
 20
0.933433
  0
VERTEX
  8
PLAN_1
  6
CONTINUOUS
 10
-1.276228
 20
0.932413
  0
VERTEX
  8
PLAN_1
  6
CONTINUOUS
 10
-1.278783
 20
0.929858
  0
VERTEX
  8
PLAN_1
  6
CONTINUOUS
 10
-1.281846
 20
0.925772
  0
VERTEX
  8
PLAN_1
  6
CONTINUOUS
 10
-1.284913
 20
0.920150
  0
VERTEX
  8
PLAN_1
  6
CONTINUOUS
 10
-1.285933
 20
0.916575
  0
VERTEX
  8
PLAN_1
  6
CONTINUOUS
 10
-1.286445
 20
0.913000
  0
VERTEX
  8
PLAN_1
  6
CONTINUOUS
 10
-1.286445
 20
0.908913
  0
VERTEX
  8
PLAN_1
  6
CONTINUOUS
 10
-1.285933
 20
0.904827
  0
VERTEX
  8
PLAN_1
  6
CONTINUOUS
 10
-1.284913
 20
0.900736
  0
VERTEX
  8
PLAN_1
  6
CONTINUOUS
 10
-1.282358
 20
0.896142
  0
VERTEX
  8
PLAN_1
  6
CONTINUOUS
 10
-1.279291
 20
0.891543
  0
VERTEX
  8
PLAN_1
  6
CONTINUOUS
 10
-1.275205
 20
0.886433
  0
SEQEND
  8
0
  0
POLYLINE
  8
PLAN_1
  6
CONTINUOUS
 66
     1
 40
0.007150
 41
0.007150
  0
VERTEX
  8
PLAN_1
  6
CONTINUOUS
 10
-1.275205
 20
0.886433
  0
VERTEX
  8
PLAN_1
  6
CONTINUOUS
 10
-0.986051
 20
0.886433
  0
SEQEND
  8
0
  0
POLYLINE
  8
PLAN_1
  6
CONTINUOUS
 66
     1
 40
0.008173
 41
0.008173
  0
VERTEX
  8
PLAN_1
  6
CONTINUOUS
 10
-0.985539
 20
2.192740
  0
VERTEX
  8
PLAN_1
  6
CONTINUOUS
 10
-1.040713
 20
3.986421
  0
SEQEND
  8
0
  0
POLYLINE
  8
PLAN_1
  6
CONTINUOUS
 66
     1
 40
0.008173
 41
0.008173
  0
VERTEX
  8
PLAN_1
  6
CONTINUOUS
 10
-1.040713
 20
3.986421
  0
VERTEX
  8
PLAN_1
  6
CONTINUOUS
 10
-1.050421
 20
4.005327
  0
VERTEX
  8
PLAN_1
  6
CONTINUOUS
 10
-1.060126
 20
4.021673
  0
VERTEX
  8
PLAN_1
  6
CONTINUOUS
 10
-1.070346
 20
4.035976
  0
VERTEX
  8
PLAN_1
  6
CONTINUOUS
 10
-1.080051
 20
4.047728
  0
VERTEX
  8
PLAN_1
  6
CONTINUOUS
 10
-1.089760
 20
4.057433
  0
VERTEX
  8
PLAN_1
  6
CONTINUOUS
 10
-1.099465
 20
4.065610
  0
VERTEX
  8
PLAN_1
  6
CONTINUOUS
 10
-1.109173
 20
4.071740
  0
VERTEX
  8
PLAN_1
  6
CONTINUOUS
 10
-1.118366
 20
4.076339
  0
VERTEX
  8
PLAN_1
  6
CONTINUOUS
 10
-1.128075
 20
4.079402
  0
VERTEX
  8
PLAN_1
  6
CONTINUOUS
 10
-1.137272
 20
4.080933
  0
VERTEX
  8
PLAN_1
  6
CONTINUOUS
 10
-1.145953
 20
4.080933
  0
VERTEX
  8
PLAN_1
  6
CONTINUOUS
 10
-1.154638
 20
4.079913
  0
VERTEX
  8
PLAN_1
  6
CONTINUOUS
 10
-1.163323
 20
4.077870
  0
VERTEX
  8
PLAN_1
  6
CONTINUOUS
 10
-1.172008
 20
4.074295
  0
VERTEX
  8
PLAN_1
  6
CONTINUOUS
 10
-1.180185
 20
4.070717
  0
VERTEX
  8
PLAN_1
  6
CONTINUOUS
 10
-1.187846
 20
4.065610
  0
VERTEX
  8
PLAN_1
  6
CONTINUOUS
 10
-1.195508
 20
4.060500
  0
VERTEX
  8
PLAN_1
  6
CONTINUOUS
 10
-1.202661
 20
4.054370
  0
VERTEX
  8
PLAN_1
  6
CONTINUOUS
 10
-1.209303
 20
4.048240
  0
VERTEX
  8
PLAN_1
  6
CONTINUOUS
 10
-1.215945
 20
4.041598
  0
VERTEX
  8
PLAN_1
  6
CONTINUOUS
 10
-1.222075
 20
4.034957
  0
VERTEX
  8
PLAN_1
  6
CONTINUOUS
 10
-1.227693
 20
4.028315
  0
VERTEX
  8
PLAN_1
  6
CONTINUOUS
 10
-1.232803
 20
4.021673
  0
VERTEX
  8
PLAN_1
  6
CONTINUOUS
 10
-1.237402
 20
4.015031
  0
VERTEX
  8
PLAN_1
  6
CONTINUOUS
 10
-1.251705
 20
3.993575
  0
VERTEX
  8
PLAN_1
  6
CONTINUOUS
 10
-1.256303
 20
3.984378
  0
SEQEND
  8
0
  0
POLYLINE
  8
PLAN_1
  6
CONTINUOUS
 66
     1
 40
0.008173
 41
0.008173
  0
VERTEX
  8
PLAN_1
  6
CONTINUOUS
 10
-1.256303
 20
3.984378
  0
VERTEX
  8
PLAN_1
  6
CONTINUOUS
 10
-1.276740
 20
2.192740
  0
SEQEND
  8
0
  0
POLYLINE
  8
PLAN_1
  6
CONTINUOUS
 66
     1
 40
0.007150
 41
0.007150
  0
VERTEX
  8
PLAN_1
  6
CONTINUOUS
 10
-0.986563
 20
2.145740
  0
VERTEX
  8
PLAN_1
  6
CONTINUOUS
 10
-0.981965
 20
2.150339
  0
VERTEX
  8
PLAN_1
  6
CONTINUOUS
 10
-0.978386
 20
2.154937
  0
VERTEX
  8
PLAN_1
  6
CONTINUOUS
 10
-0.975835
 20
2.159024
  0
VERTEX
  8
PLAN_1
  6
CONTINUOUS
 10
-0.974299
 20
2.163110
  0
VERTEX
  8
PLAN_1
  6
CONTINUOUS
 10
-0.973791
 20
2.167197
  0
VERTEX
  8
PLAN_1
  6
CONTINUOUS
 10
-0.973791
 20
2.171283
  0
VERTEX
  8
PLAN_1
  6
CONTINUOUS
 10
-0.974299
 20
2.174858
  0
VERTEX
  8
PLAN_1
  6
CONTINUOUS
 10
-0.975323
 20
2.178437
  0
VERTEX
  8
PLAN_1
  6
CONTINUOUS
 10
-0.977366
 20
2.181500
  0
VERTEX
  8
PLAN_1
  6
CONTINUOUS
 10
-0.978898
 20
2.184055
  0
VERTEX
  8
PLAN_1
  6
CONTINUOUS
 10
-0.980941
 20
2.186610
  0
VERTEX
  8
PLAN_1
  6
CONTINUOUS
 10
-0.982476
 20
2.188654
  0
VERTEX
  8
PLAN_1
  6
CONTINUOUS
 10
-0.985539
 20
2.191720
  0
VERTEX
  8
PLAN_1
  6
CONTINUOUS
 10
-0.986563
 20
2.192740
  0
SEQEND
  8
0
  0
POLYLINE
  8
PLAN_1
  6
CONTINUOUS
 66
     1
 40
0.007150
 41
0.007150
  0
VERTEX
  8
PLAN_1
  6
CONTINUOUS
 10
-0.986563
 20
2.192740
  0
VERTEX
  8
PLAN_1
  6
CONTINUOUS
 10
-1.275717
 20
2.192740
  0
SEQEND
  8
0
  0
POLYLINE
  8
PLAN_1
  6
CONTINUOUS
 66
     1
 40
0.007150
 41
0.007150
  0
VERTEX
  8
PLAN_1
  6
CONTINUOUS
 10
-1.275717
 20
2.192740
  0
VERTEX
  8
PLAN_1
  6
CONTINUOUS
 10
-1.276740
 20
2.191720
  0
VERTEX
  8
PLAN_1
  6
CONTINUOUS
 10
-1.279291
 20
2.189165
  0
VERTEX
  8
PLAN_1
  6
CONTINUOUS
 10
-1.282358
 20
2.184567
  0
VERTEX
  8
PLAN_1
  6
CONTINUOUS
 10
-1.285425
 20
2.178949
  0
VERTEX
  8
PLAN_1
  6
CONTINUOUS
 10
-1.286445
 20
2.175882
  0
VERTEX
  8
PLAN_1
  6
CONTINUOUS
 10
-1.286957
 20
2.172307
  0
VERTEX
  8
PLAN_1
  6
CONTINUOUS
 10
-1.287469
 20
2.168220
  0
VERTEX
  8
PLAN_1
  6
CONTINUOUS
 10
-1.286957
 20
2.164130
  0
VERTEX
  8
PLAN_1
  6
CONTINUOUS
 10
-1.285425
 20
2.159535
  0
VERTEX
  8
PLAN_1
  6
CONTINUOUS
 10
-1.283382
 20
2.155445
  0
VERTEX
  8
PLAN_1
  6
CONTINUOUS
 10
-1.279803
 20
2.150339
  0
VERTEX
  8
PLAN_1
  6
CONTINUOUS
 10
-1.275717
 20
2.145740
  0
SEQEND
  8
0
  0
POLYLINE
  8
PLAN_1
  6
CONTINUOUS
 66
     1
 40
0.007150
 41
0.007150
  0
VERTEX
  8
PLAN_1
  6
CONTINUOUS
 10
-1.275717
 20
2.145740
  0
VERTEX
  8
PLAN_1
  6
CONTINUOUS
 10
-0.986563
 20
2.145740
  0
SEQEND
  8
0
  0
POLYLINE
  8
PLAN_1
  6
CONTINUOUS
 66
     1
 40
0.007150
 41
0.007150
  0
VERTEX
  8
PLAN_1
  6
CONTINUOUS
 10
-0.986051
 20
2.099252
  0
VERTEX
  8
PLAN_1
  6
CONTINUOUS
 10
-0.981453
 20
2.103850
  0
VERTEX
  8
PLAN_1
  6
CONTINUOUS
 10
-0.977878
 20
2.107937
  0
VERTEX
  8
PLAN_1
  6
CONTINUOUS
 10
-0.975323
 20
2.112531
  0
VERTEX
  8
PLAN_1
  6
CONTINUOUS
 10
-0.973791
 20
2.116622
  0
VERTEX
  8
PLAN_1
  6
CONTINUOUS
 10
-0.973280
 20
2.120709
  0
VERTEX
  8
PLAN_1
  6
CONTINUOUS
 10
-0.973280
 20
2.124795
  0
VERTEX
  8
PLAN_1
  6
CONTINUOUS
 10
-0.973791
 20
2.128370
  0
VERTEX
  8
PLAN_1
  6
CONTINUOUS
 10
-0.975323
 20
2.131945
  0
VERTEX
  8
PLAN_1
  6
CONTINUOUS
 10
-0.976854
 20
2.135012
  0
VERTEX
  8
PLAN_1
  6
CONTINUOUS
 10
-0.978386
 20
2.137567
  0
VERTEX
  8
PLAN_1
  6
CONTINUOUS
 10
-0.980429
 20
2.140122
  0
VERTEX
  8
PLAN_1
  6
CONTINUOUS
 10
-0.981965
 20
2.142165
  0
VERTEX
  8
PLAN_1
  6
CONTINUOUS
 10
-0.985028
 20
2.145228
  0
VERTEX
  8
PLAN_1
  6
CONTINUOUS
 10
-0.986051
 20
2.146252
  0
SEQEND
  8
0
  0
POLYLINE
  8
PLAN_1
  6
CONTINUOUS
 66
     1
 40
0.007150
 41
0.007150
  0
VERTEX
  8
PLAN_1
  6
CONTINUOUS
 10
-0.986051
 20
2.146252
  0
VERTEX
  8
PLAN_1
  6
CONTINUOUS
 10
-1.275205
 20
2.146252
  0
SEQEND
  8
0
  0
POLYLINE
  8
PLAN_1
  6
CONTINUOUS
 66
     1
 40
0.007150
 41
0.007150
  0
VERTEX
  8
PLAN_1
  6
CONTINUOUS
 10
-1.275205
 20
2.146252
  0
VERTEX
  8
PLAN_1
  6
CONTINUOUS
 10
-1.276228
 20
2.145228
  0
VERTEX
  8
PLAN_1
  6
CONTINUOUS
 10
-1.278783
 20
2.142673
  0
VERTEX
  8
PLAN_1
  6
CONTINUOUS
 10
-1.282358
 20
2.138079
  0
VERTEX
  8
PLAN_1
  6
CONTINUOUS
 10
-1.284913
 20
2.132457
  0
VERTEX
  8
PLAN_1
  6
CONTINUOUS
 10
-1.285933
 20
2.128882
  0
VERTEX
  8
PLAN_1
  6
CONTINUOUS
 10
-1.286957
 20
2.125307
  0
VERTEX
  8
PLAN_1
  6
CONTINUOUS
 10
-1.286957
 20
2.121728
  0
VERTEX
  8
PLAN_1
  6
CONTINUOUS
 10
-1.286445
 20
2.117642
  0
VERTEX
  8
PLAN_1
  6
CONTINUOUS
 10
-1.284913
 20
2.113043
  0
VERTEX
  8
PLAN_1
  6
CONTINUOUS
 10
-1.282870
 20
2.108445
  0
VERTEX
  8
PLAN_1
  6
CONTINUOUS
 10
-1.279803
 20
2.103850
  0
VERTEX
  8
PLAN_1
  6
CONTINUOUS
 10
-1.275205
 20
2.099252
  0
SEQEND
  8
0
  0
POLYLINE
  8
PLAN_1
  6
CONTINUOUS
 66
     1
 40
0.007150
 41
0.007150
  0
VERTEX
  8
PLAN_1
  6
CONTINUOUS
 10
-1.275205
 20
2.099252
  0
VERTEX
  8
PLAN_1
  6
CONTINUOUS
 10
-0.986051
 20
2.099252
  0
SEQEND
  8
0
  0
POLYLINE
  8
PLAN_1
  6
CONTINUOUS
 66
     1
 40
0.007150
 41
0.007150
  0
VERTEX
  8
PLAN_1
  6
CONTINUOUS
 10
-0.986563
 20
2.051740
  0
VERTEX
  8
PLAN_1
  6
CONTINUOUS
 10
-0.981453
 20
2.056339
  0
VERTEX
  8
PLAN_1
  6
CONTINUOUS
 10
-0.977878
 20
2.060933
  0
VERTEX
  8
PLAN_1
  6
CONTINUOUS
 10
-0.975323
 20
2.065531
  0
VERTEX
  8
PLAN_1
  6
CONTINUOUS
 10
-0.973791
 20
2.069618
  0
VERTEX
  8
PLAN_1
  6
CONTINUOUS
 10
-0.973280
 20
2.073709
  0
VERTEX
  8
PLAN_1
  6
CONTINUOUS
 10
-0.973280
 20
2.077283
  0
VERTEX
  8
PLAN_1
  6
CONTINUOUS
 10
-0.974299
 20
2.081370
  0
VERTEX
  8
PLAN_1
  6
CONTINUOUS
 10
-0.975323
 20
2.084437
  0
VERTEX
  8
PLAN_1
  6
CONTINUOUS
 10
-0.976854
 20
2.087500
  0
VERTEX
  8
PLAN_1
  6
CONTINUOUS
 10
-0.978898
 20
2.090567
  0
VERTEX
  8
PLAN_1
  6
CONTINUOUS
 10
-0.980429
 20
2.093122
  0
VERTEX
  8
PLAN_1
  6
CONTINUOUS
 10
-0.982476
 20
2.095165
  0
VERTEX
  8
PLAN_1
  6
CONTINUOUS
 10
-0.985028
 20
2.097717
  0
VERTEX
  8
PLAN_1
  6
CONTINUOUS
 10
-0.986563
 20
2.098740
  0
SEQEND
  8
0
  0
POLYLINE
  8
PLAN_1
  6
CONTINUOUS
 66
     1
 40
0.007150
 41
0.007150
  0
VERTEX
  8
PLAN_1
  6
CONTINUOUS
 10
-0.986563
 20
2.098740
  0
VERTEX
  8
PLAN_1
  6
CONTINUOUS
 10
-1.275717
 20
2.098740
  0
SEQEND
  8
0
  0
POLYLINE
  8
PLAN_1
  6
CONTINUOUS
 66
     1
 40
0.007150
 41
0.007150
  0
VERTEX
  8
PLAN_1
  6
CONTINUOUS
 10
-1.275717
 20
2.098740
  0
VERTEX
  8
PLAN_1
  6
CONTINUOUS
 10
-1.276740
 20
2.098228
  0
VERTEX
  8
PLAN_1
  6
CONTINUOUS
 10
-1.279291
 20
2.095165
  0
VERTEX
  8
PLAN_1
  6
CONTINUOUS
 10
-1.282358
 20
2.091075
  0
VERTEX
  8
PLAN_1
  6
CONTINUOUS
 10
-1.285425
 20
2.085457
  0
VERTEX
  8
PLAN_1
  6
CONTINUOUS
 10
-1.286445
 20
2.081882
  0
VERTEX
  8
PLAN_1
  6
CONTINUOUS
 10
-1.286957
 20
2.078303
  0
VERTEX
  8
PLAN_1
  6
CONTINUOUS
 10
-1.286957
 20
2.074217
  0
VERTEX
  8
PLAN_1
  6
CONTINUOUS
 10
-1.286445
 20
2.070130
  0
VERTEX
  8
PLAN_1
  6
CONTINUOUS
 10
-1.285425
 20
2.066043
  0
VERTEX
  8
PLAN_1
  6
CONTINUOUS
 10
-1.282870
 20
2.061445
  0
VERTEX
  8
PLAN_1
  6
CONTINUOUS
 10
-1.279803
 20
2.056846
  0
VERTEX
  8
PLAN_1
  6
CONTINUOUS
 10
-1.275717
 20
2.051740
  0
SEQEND
  8
0
  0
POLYLINE
  8
PLAN_1
  6
CONTINUOUS
 66
     1
 40
0.007150
 41
0.007150
  0
VERTEX
  8
PLAN_1
  6
CONTINUOUS
 10
-1.275717
 20
2.051740
  0
VERTEX
  8
PLAN_1
  6
CONTINUOUS
 10
-0.986563
 20
2.051740
  0
SEQEND
  8
0
  0
POLYLINE
  8
PLAN_1
  6
CONTINUOUS
 66
     1
 40
0.007150
 41
0.007150
  0
VERTEX
  8
PLAN_1
  6
CONTINUOUS
 10
-0.986051
 20
2.005248
  0
VERTEX
  8
PLAN_1
  6
CONTINUOUS
 10
-0.980941
 20
2.009846
  0
VERTEX
  8
PLAN_1
  6
CONTINUOUS
 10
-0.977366
 20
2.014445
  0
VERTEX
  8
PLAN_1
  6
CONTINUOUS
 10
-0.974811
 20
2.018531
  0
VERTEX
  8
PLAN_1
  6
CONTINUOUS
 10
-0.973280
 20
2.023130
  0
VERTEX
  8
PLAN_1
  6
CONTINUOUS
 10
-0.972768
 20
2.027217
  0
VERTEX
  8
PLAN_1
  6
CONTINUOUS
 10
-0.972768
 20
2.030795
  0
VERTEX
  8
PLAN_1
  6
CONTINUOUS
 10
-0.973791
 20
2.034370
  0
VERTEX
  8
PLAN_1
  6
CONTINUOUS
 10
-0.974811
 20
2.037945
  0
VERTEX
  8
PLAN_1
  6
CONTINUOUS
 10
-0.976343
 20
2.041012
  0
VERTEX
  8
PLAN_1
  6
CONTINUOUS
 10
-0.978386
 20
2.044075
  0
VERTEX
  8
PLAN_1
  6
CONTINUOUS
 10
-0.979921
 20
2.046118
  0
VERTEX
  8
PLAN_1
  6
CONTINUOUS
 10
-0.981965
 20
2.048673
  0
VERTEX
  8
PLAN_1
  6
CONTINUOUS
 10
-0.985028
 20
2.051228
  0
VERTEX
  8
PLAN_1
  6
CONTINUOUS
 10
-0.986051
 20
2.052252
  0
SEQEND
  8
0
  0
POLYLINE
  8
PLAN_1
  6
CONTINUOUS
 66
     1
 40
0.007150
 41
0.007150
  0
VERTEX
  8
PLAN_1
  6
CONTINUOUS
 10
-0.986051
 20
2.052252
  0
VERTEX
  8
PLAN_1
  6
CONTINUOUS
 10
-1.275205
 20
2.052252
  0
SEQEND
  8
0
  0
POLYLINE
  8
PLAN_1
  6
CONTINUOUS
 66
     1
 40
0.007150
 41
0.007150
  0
VERTEX
  8
PLAN_1
  6
CONTINUOUS
 10
-1.275205
 20
2.052252
  0
VERTEX
  8
PLAN_1
  6
CONTINUOUS
 10
-1.276228
 20
2.051228
  0
VERTEX
  8
PLAN_1
  6
CONTINUOUS
 10
-1.278783
 20
2.048673
  0
VERTEX
  8
PLAN_1
  6
CONTINUOUS
 10
-1.281846
 20
2.044587
  0
VERTEX
  8
PLAN_1
  6
CONTINUOUS
 10
-1.284913
 20
2.038457
  0
VERTEX
  8
PLAN_1
  6
CONTINUOUS
 10
-1.285933
 20
2.035390
  0
VERTEX
  8
PLAN_1
  6
CONTINUOUS
 10
-1.286445
 20
2.031815
  0
VERTEX
  8
PLAN_1
  6
CONTINUOUS
 10
-1.286445
 20
2.027728
  0
VERTEX
  8
PLAN_1
  6
CONTINUOUS
 10
-1.285933
 20
2.023642
  0
VERTEX
  8
PLAN_1
  6
CONTINUOUS
 10
-1.284913
 20
2.019555
  0
VERTEX
  8
PLAN_1
  6
CONTINUOUS
 10
-1.282358
 20
2.014957
  0
VERTEX
  8
PLAN_1
  6
CONTINUOUS
 10
-1.279291
 20
2.010358
  0
VERTEX
  8
PLAN_1
  6
CONTINUOUS
 10
-1.275205
 20
2.005248
  0
SEQEND
  8
0
  0
POLYLINE
  8
PLAN_1
  6
CONTINUOUS
 66
     1
 40
0.007150
 41
0.007150
  0
VERTEX
  8
PLAN_1
  6
CONTINUOUS
 10
-1.275205
 20
2.005248
  0
VERTEX
  8
PLAN_1
  6
CONTINUOUS
 10
-0.986051
 20
2.005248
  0
SEQEND
  8
0
  0
POLYLINE
  8
PLAN_1
  6
CONTINUOUS
 66
     1
 40
0.007150
 41
0.007150
  0
VERTEX
  8
PLAN_1
  6
CONTINUOUS
 10
-0.986563
 20
1.958760
  0
VERTEX
  8
PLAN_1
  6
CONTINUOUS
 10
-0.981453
 20
1.963358
  0
VERTEX
  8
PLAN_1
  6
CONTINUOUS
 10
-0.977878
 20
1.967957
  0
VERTEX
  8
PLAN_1
  6
CONTINUOUS
 10
-0.975323
 20
1.972043
  0
VERTEX
  8
PLAN_1
  6
CONTINUOUS
 10
-0.973791
 20
1.976642
  0
VERTEX
  8
PLAN_1
  6
CONTINUOUS
 10
-0.973280
 20
1.980217
  0
VERTEX
  8
PLAN_1
  6
CONTINUOUS
 10
-0.973280
 20
1.984303
  0
VERTEX
  8
PLAN_1
  6
CONTINUOUS
 10
-0.974299
 20
1.987878
  0
VERTEX
  8
PLAN_1
  6
CONTINUOUS
 10
-0.975323
 20
1.991457
  0
VERTEX
  8
PLAN_1
  6
CONTINUOUS
 10
-0.976854
 20
1.994520
  0
VERTEX
  8
PLAN_1
  6
CONTINUOUS
 10
-0.978898
 20
1.997075
  0
VERTEX
  8
PLAN_1
  6
CONTINUOUS
 10
-0.980429
 20
1.999630
  0
VERTEX
  8
PLAN_1
  6
CONTINUOUS
 10
-0.982476
 20
2.001673
  0
VERTEX
  8
PLAN_1
  6
CONTINUOUS
 10
-0.985028
 20
2.004740
  0
VERTEX
  8
PLAN_1
  6
CONTINUOUS
 10
-0.986563
 20
2.005760
  0
SEQEND
  8
0
  0
POLYLINE
  8
PLAN_1
  6
CONTINUOUS
 66
     1
 40
0.007150
 41
0.007150
  0
VERTEX
  8
PLAN_1
  6
CONTINUOUS
 10
-0.986563
 20
2.005760
  0
VERTEX
  8
PLAN_1
  6
CONTINUOUS
 10
-1.275717
 20
2.005760
  0
SEQEND
  8
0
  0
POLYLINE
  8
PLAN_1
  6
CONTINUOUS
 66
     1
 40
0.007150
 41
0.007150
  0
VERTEX
  8
PLAN_1
  6
CONTINUOUS
 10
-1.275717
 20
2.005760
  0
VERTEX
  8
PLAN_1
  6
CONTINUOUS
 10
-1.276740
 20
2.004740
  0
VERTEX
  8
PLAN_1
  6
CONTINUOUS
 10
-1.279291
 20
2.002185
  0
VERTEX
  8
PLAN_1
  6
CONTINUOUS
 10
-1.282358
 20
1.997587
  0
VERTEX
  8
PLAN_1
  6
CONTINUOUS
 10
-1.285425
 20
1.991969
  0
VERTEX
  8
PLAN_1
  6
CONTINUOUS
 10
-1.286445
 20
1.988902
  0
VERTEX
  8
PLAN_1
  6
CONTINUOUS
 10
-1.286957
 20
1.985327
  0
VERTEX
  8
PLAN_1
  6
CONTINUOUS
 10
-1.286957
 20
1.981240
  0
VERTEX
  8
PLAN_1
  6
CONTINUOUS
 10
-1.286445
 20
1.977150
  0
VERTEX
  8
PLAN_1
  6
CONTINUOUS
 10
-1.285425
 20
1.972555
  0
VERTEX
  8
PLAN_1
  6
CONTINUOUS
 10
-1.282870
 20
1.968469
  0
VERTEX
  8
PLAN_1
  6
CONTINUOUS
 10
-1.279803
 20
1.963358
  0
VERTEX
  8
PLAN_1
  6
CONTINUOUS
 10
-1.275717
 20
1.958760
  0
SEQEND
  8
0
  0
POLYLINE
  8
PLAN_1
  6
CONTINUOUS
 66
     1
 40
0.007150
 41
0.007150
  0
VERTEX
  8
PLAN_1
  6
CONTINUOUS
 10
-1.275717
 20
1.958760
  0
VERTEX
  8
PLAN_1
  6
CONTINUOUS
 10
-0.986563
 20
1.958760
  0
SEQEND
  8
0
  0
POLYLINE
  8
PLAN_1
  6
CONTINUOUS
 66
     1
 40
0.007150
 41
0.007150
  0
VERTEX
  8
PLAN_1
  6
CONTINUOUS
 10
-0.986051
 20
1.912272
  0
VERTEX
  8
PLAN_1
  6
CONTINUOUS
 10
-0.980941
 20
1.916870
  0
VERTEX
  8
PLAN_1
  6
CONTINUOUS
 10
-0.977366
 20
1.920957
  0
VERTEX
  8
PLAN_1
  6
CONTINUOUS
 10
-0.974811
 20
1.925551
  0
VERTEX
  8
PLAN_1
  6
CONTINUOUS
 10
-0.973280
 20
1.929642
  0
VERTEX
  8
PLAN_1
  6
CONTINUOUS
 10
-0.972768
 20
1.933728
  0
VERTEX
  8
PLAN_1
  6
CONTINUOUS
 10
-0.972768
 20
1.937815
  0
VERTEX
  8
PLAN_1
  6
CONTINUOUS
 10
-0.973791
 20
1.941390
  0
VERTEX
  8
PLAN_1
  6
CONTINUOUS
 10
-0.974811
 20
1.944965
  0
VERTEX
  8
PLAN_1
  6
CONTINUOUS
 10
-0.976343
 20
1.948031
  0
VERTEX
  8
PLAN_1
  6
CONTINUOUS
 10
-0.978386
 20
1.950587
  0
VERTEX
  8
PLAN_1
  6
CONTINUOUS
 10
-0.979921
 20
1.953142
  0
VERTEX
  8
PLAN_1
  6
CONTINUOUS
 10
-0.981965
 20
1.955185
  0
VERTEX
  8
PLAN_1
  6
CONTINUOUS
 10
-0.985028
 20
1.958248
  0
VERTEX
  8
PLAN_1
  6
CONTINUOUS
 10
-0.986051
 20
1.959272
  0
SEQEND
  8
0
  0
POLYLINE
  8
PLAN_1
  6
CONTINUOUS
 66
     1
 40
0.007150
 41
0.007150
  0
VERTEX
  8
PLAN_1
  6
CONTINUOUS
 10
-0.986051
 20
1.959272
  0
VERTEX
  8
PLAN_1
  6
CONTINUOUS
 10
-1.275205
 20
1.959272
  0
SEQEND
  8
0
  0
POLYLINE
  8
PLAN_1
  6
CONTINUOUS
 66
     1
 40
0.007150
 41
0.007150
  0
VERTEX
  8
PLAN_1
  6
CONTINUOUS
 10
-1.275205
 20
1.959272
  0
VERTEX
  8
PLAN_1
  6
CONTINUOUS
 10
-1.276228
 20
1.958248
  0
VERTEX
  8
PLAN_1
  6
CONTINUOUS
 10
-1.278783
 20
1.955693
  0
VERTEX
  8
PLAN_1
  6
CONTINUOUS
 10
-1.281846
 20
1.951098
  0
VERTEX
  8
PLAN_1
  6
CONTINUOUS
 10
-1.284913
 20
1.945476
  0
VERTEX
  8
PLAN_1
  6
CONTINUOUS
 10
-1.285933
 20
1.941902
  0
VERTEX
  8
PLAN_1
  6
CONTINUOUS
 10
-1.286445
 20
1.938327
  0
VERTEX
  8
PLAN_1
  6
CONTINUOUS
 10
-1.286445
 20
1.934748
  0
VERTEX
  8
PLAN_1
  6
CONTINUOUS
 10
-1.285933
 20
1.930661
  0
VERTEX
  8
PLAN_1
  6
CONTINUOUS
 10
-1.284913
 20
1.926063
  0
VERTEX
  8
PLAN_1
  6
CONTINUOUS
 10
-1.282358
 20
1.921465
  0
VERTEX
  8
PLAN_1
  6
CONTINUOUS
 10
-1.279291
 20
1.916870
  0
VERTEX
  8
PLAN_1
  6
CONTINUOUS
 10
-1.275205
 20
1.912272
  0
SEQEND
  8
0
  0
POLYLINE
  8
PLAN_1
  6
CONTINUOUS
 66
     1
 40
0.007150
 41
0.007150
  0
VERTEX
  8
PLAN_1
  6
CONTINUOUS
 10
-1.275205
 20
1.912272
  0
VERTEX
  8
PLAN_1
  6
CONTINUOUS
 10
-0.986051
 20
1.912272
  0
SEQEND
  8
0
  0
POLYLINE
  8
PLAN_1
  6
CONTINUOUS
 66
     1
 40
0.007150
 41
0.007150
  0
VERTEX
  8
PLAN_1
  6
CONTINUOUS
 10
-0.986563
 20
1.865780
  0
VERTEX
  8
PLAN_1
  6
CONTINUOUS
 10
-0.981453
 20
1.870378
  0
VERTEX
  8
PLAN_1
  6
CONTINUOUS
 10
-0.977878
 20
1.874465
  0
VERTEX
  8
PLAN_1
  6
CONTINUOUS
 10
-0.975323
 20
1.879063
  0
VERTEX
  8
PLAN_1
  6
CONTINUOUS
 10
-0.973791
 20
1.883150
  0
VERTEX
  8
PLAN_1
  6
CONTINUOUS
 10
-0.973280
 20
1.887236
  0
VERTEX
  8
PLAN_1
  6
CONTINUOUS
 10
-0.973280
 20
1.891323
  0
VERTEX
  8
PLAN_1
  6
CONTINUOUS
 10
-0.974299
 20
1.894902
  0
VERTEX
  8
PLAN_1
  6
CONTINUOUS
 10
-0.975323
 20
1.898476
  0
VERTEX
  8
PLAN_1
  6
CONTINUOUS
 10
-0.976854
 20
1.901543
  0
VERTEX
  8
PLAN_1
  6
CONTINUOUS
 10
-0.978898
 20
1.904094
  0
VERTEX
  8
PLAN_1
  6
CONTINUOUS
 10
-0.980429
 20
1.906650
  0
VERTEX
  8
PLAN_1
  6
CONTINUOUS
 10
-0.982476
 20
1.908693
  0
VERTEX
  8
PLAN_1
  6
CONTINUOUS
 10
-0.985028
 20
1.911760
  0
VERTEX
  8
PLAN_1
  6
CONTINUOUS
 10
-0.986563
 20
1.912780
  0
SEQEND
  8
0
  0
POLYLINE
  8
PLAN_1
  6
CONTINUOUS
 66
     1
 40
0.007150
 41
0.007150
  0
VERTEX
  8
PLAN_1
  6
CONTINUOUS
 10
-0.986563
 20
1.912780
  0
VERTEX
  8
PLAN_1
  6
CONTINUOUS
 10
-1.275717
 20
1.912780
  0
SEQEND
  8
0
  0
POLYLINE
  8
PLAN_1
  6
CONTINUOUS
 66
     1
 40
0.007150
 41
0.007150
  0
VERTEX
  8
PLAN_1
  6
CONTINUOUS
 10
-1.275717
 20
1.912780
  0
VERTEX
  8
PLAN_1
  6
CONTINUOUS
 10
-1.276740
 20
1.911760
  0
VERTEX
  8
PLAN_1
  6
CONTINUOUS
 10
-1.279291
 20
1.908693
  0
VERTEX
  8
PLAN_1
  6
CONTINUOUS
 10
-1.282358
 20
1.904606
  0
VERTEX
  8
PLAN_1
  6
CONTINUOUS
 10
-1.285425
 20
1.898988
  0
VERTEX
  8
PLAN_1
  6
CONTINUOUS
 10
-1.286445
 20
1.895413
  0
VERTEX
  8
PLAN_1
  6
CONTINUOUS
 10
-1.286957
 20
1.891835
  0
VERTEX
  8
PLAN_1
  6
CONTINUOUS
 10
-1.286957
 20
1.888260
  0
VERTEX
  8
PLAN_1
  6
CONTINUOUS
 10
-1.286445
 20
1.884173
  0
VERTEX
  8
PLAN_1
  6
CONTINUOUS
 10
-1.285425
 20
1.879575
  0
VERTEX
  8
PLAN_1
  6
CONTINUOUS
 10
-1.282870
 20
1.874976
  0
VERTEX
  8
PLAN_1
  6
CONTINUOUS
 10
-1.279803
 20
1.870378
  0
VERTEX
  8
PLAN_1
  6
CONTINUOUS
 10
-1.275717
 20
1.865780
  0
SEQEND
  8
0
  0
POLYLINE
  8
PLAN_1
  6
CONTINUOUS
 66
     1
 40
0.007150
 41
0.007150
  0
VERTEX
  8
PLAN_1
  6
CONTINUOUS
 10
-1.275717
 20
1.865780
  0
VERTEX
  8
PLAN_1
  6
CONTINUOUS
 10
-0.986563
 20
1.865780
  0
SEQEND
  8
0
  0
POLYLINE
  8
PLAN_1
  6
CONTINUOUS
 66
     1
 40
0.007150
 41
0.007150
  0
VERTEX
  8
PLAN_1
  6
CONTINUOUS
 10
-0.986051
 20
1.818780
  0
VERTEX
  8
PLAN_1
  6
CONTINUOUS
 10
-0.980941
 20
1.823378
  0
VERTEX
  8
PLAN_1
  6
CONTINUOUS
 10
-0.977366
 20
1.827976
  0
VERTEX
  8
PLAN_1
  6
CONTINUOUS
 10
-0.974811
 20
1.832575
  0
VERTEX
  8
PLAN_1
  6
CONTINUOUS
 10
-0.973280
 20
1.836661
  0
VERTEX
  8
PLAN_1
  6
CONTINUOUS
 10
-0.972768
 20
1.840748
  0
VERTEX
  8
PLAN_1
  6
CONTINUOUS
 10
-0.972768
 20
1.844835
  0
VERTEX
  8
PLAN_1
  6
CONTINUOUS
 10
-0.973791
 20
1.848409
  0
VERTEX
  8
PLAN_1
  6
CONTINUOUS
 10
-0.974811
 20
1.851476
  0
VERTEX
  8
PLAN_1
  6
CONTINUOUS
 10
-0.976343
 20
1.854543
  0
VERTEX
  8
PLAN_1
  6
CONTINUOUS
 10
-0.978386
 20
1.857606
  0
VERTEX
  8
PLAN_1
  6
CONTINUOUS
 10
-0.979921
 20
1.860161
  0
VERTEX
  8
PLAN_1
  6
CONTINUOUS
 10
-0.981965
 20
1.862205
  0
VERTEX
  8
PLAN_1
  6
CONTINUOUS
 10
-0.985028
 20
1.865272
  0
VERTEX
  8
PLAN_1
  6
CONTINUOUS
 10
-0.986051
 20
1.866291
  0
SEQEND
  8
0
  0
POLYLINE
  8
PLAN_1
  6
CONTINUOUS
 66
     1
 40
0.007150
 41
0.007150
  0
VERTEX
  8
PLAN_1
  6
CONTINUOUS
 10
-0.986051
 20
1.866291
  0
VERTEX
  8
PLAN_1
  6
CONTINUOUS
 10
-1.275205
 20
1.866291
  0
SEQEND
  8
0
  0
POLYLINE
  8
PLAN_1
  6
CONTINUOUS
 66
     1
 40
0.007150
 41
0.007150
  0
VERTEX
  8
PLAN_1
  6
CONTINUOUS
 10
-1.275205
 20
1.866291
  0
VERTEX
  8
PLAN_1
  6
CONTINUOUS
 10
-1.276228
 20
1.865272
  0
VERTEX
  8
PLAN_1
  6
CONTINUOUS
 10
-1.278783
 20
1.862205
  0
VERTEX
  8
PLAN_1
  6
CONTINUOUS
 10
-1.281846
 20
1.858118
  0
VERTEX
  8
PLAN_1
  6
CONTINUOUS
 10
-1.284913
 20
1.852496
  0
VERTEX
  8
PLAN_1
  6
CONTINUOUS
 10
-1.285933
 20
1.848921
  0
VERTEX
  8
PLAN_1
  6
CONTINUOUS
 10
-1.286445
 20
1.845346
  0
VERTEX
  8
PLAN_1
  6
CONTINUOUS
 10
-1.286445
 20
1.841260
  0
VERTEX
  8
PLAN_1
  6
CONTINUOUS
 10
-1.285933
 20
1.837173
  0
VERTEX
  8
PLAN_1
  6
CONTINUOUS
 10
-1.284913
 20
1.833087
  0
VERTEX
  8
PLAN_1
  6
CONTINUOUS
 10
-1.282358
 20
1.828488
  0
VERTEX
  8
PLAN_1
  6
CONTINUOUS
 10
-1.279291
 20
1.823890
  0
VERTEX
  8
PLAN_1
  6
CONTINUOUS
 10
-1.275205
 20
1.818780
  0
SEQEND
  8
0
  0
POLYLINE
  8
PLAN_1
  6
CONTINUOUS
 66
     1
 40
0.007150
 41
0.007150
  0
VERTEX
  8
PLAN_1
  6
CONTINUOUS
 10
-1.275205
 20
1.818780
  0
VERTEX
  8
PLAN_1
  6
CONTINUOUS
 10
-0.986051
 20
1.818780
  0
SEQEND
  8
0
  0
POLYLINE
  8
PLAN_1
  6
CONTINUOUS
 66
     1
 40
0.007150
 41
0.007150
  0
VERTEX
  8
PLAN_1
  6
CONTINUOUS
 10
-0.986563
 20
1.772291
  0
VERTEX
  8
PLAN_1
  6
CONTINUOUS
 10
-0.981453
 20
1.776890
  0
VERTEX
  8
PLAN_1
  6
CONTINUOUS
 10
-0.977878
 20
1.781488
  0
VERTEX
  8
PLAN_1
  6
CONTINUOUS
 10
-0.975323
 20
1.786083
  0
VERTEX
  8
PLAN_1
  6
CONTINUOUS
 10
-0.973791
 20
1.790169
  0
VERTEX
  8
PLAN_1
  6
CONTINUOUS
 10
-0.973280
 20
1.794260
  0
VERTEX
  8
PLAN_1
  6
CONTINUOUS
 10
-0.973280
 20
1.797835
  0
VERTEX
  8
PLAN_1
  6
CONTINUOUS
 10
-0.974299
 20
1.801921
  0
VERTEX
  8
PLAN_1
  6
CONTINUOUS
 10
-0.975323
 20
1.804988
  0
VERTEX
  8
PLAN_1
  6
CONTINUOUS
 10
-0.976854
 20
1.808051
  0
VERTEX
  8
PLAN_1
  6
CONTINUOUS
 10
-0.978898
 20
1.811118
  0
VERTEX
  8
PLAN_1
  6
CONTINUOUS
 10
-0.980429
 20
1.813673
  0
VERTEX
  8
PLAN_1
  6
CONTINUOUS
 10
-0.982476
 20
1.815717
  0
VERTEX
  8
PLAN_1
  6
CONTINUOUS
 10
-0.985028
 20
1.818268
  0
VERTEX
  8
PLAN_1
  6
CONTINUOUS
 10
-0.986563
 20
1.819291
  0
SEQEND
  8
0
  0
POLYLINE
  8
PLAN_1
  6
CONTINUOUS
 66
     1
 40
0.007150
 41
0.007150
  0
VERTEX
  8
PLAN_1
  6
CONTINUOUS
 10
-0.986563
 20
1.819291
  0
VERTEX
  8
PLAN_1
  6
CONTINUOUS
 10
-1.275717
 20
1.819291
  0
SEQEND
  8
0
  0
POLYLINE
  8
PLAN_1
  6
CONTINUOUS
 66
     1
 40
0.007150
 41
0.007150
  0
VERTEX
  8
PLAN_1
  6
CONTINUOUS
 10
-1.275717
 20
1.819291
  0
VERTEX
  8
PLAN_1
  6
CONTINUOUS
 10
-1.276740
 20
1.818268
  0
VERTEX
  8
PLAN_1
  6
CONTINUOUS
 10
-1.279291
 20
1.815717
  0
VERTEX
  8
PLAN_1
  6
CONTINUOUS
 10
-1.282358
 20
1.811626
  0
VERTEX
  8
PLAN_1
  6
CONTINUOUS
 10
-1.285425
 20
1.805496
  0
VERTEX
  8
PLAN_1
  6
CONTINUOUS
 10
-1.286445
 20
1.802433
  0
VERTEX
  8
PLAN_1
  6
CONTINUOUS
 10
-1.286957
 20
1.798854
  0
VERTEX
  8
PLAN_1
  6
CONTINUOUS
 10
-1.286957
 20
1.794768
  0
VERTEX
  8
PLAN_1
  6
CONTINUOUS
 10
-1.286445
 20
1.790681
  0
VERTEX
  8
PLAN_1
  6
CONTINUOUS
 10
-1.285425
 20
1.786594
  0
VERTEX
  8
PLAN_1
  6
CONTINUOUS
 10
-1.282870
 20
1.781996
  0
VERTEX
  8
PLAN_1
  6
CONTINUOUS
 10
-1.279803
 20
1.777398
  0
VERTEX
  8
PLAN_1
  6
CONTINUOUS
 10
-1.275717
 20
1.772291
  0
SEQEND
  8
0
  0
POLYLINE
  8
PLAN_1
  6
CONTINUOUS
 66
     1
 40
0.007150
 41
0.007150
  0
VERTEX
  8
PLAN_1
  6
CONTINUOUS
 10
-1.275717
 20
1.772291
  0
VERTEX
  8
PLAN_1
  6
CONTINUOUS
 10
-0.986563
 20
1.772291
  0
SEQEND
  8
0
  0
POLYLINE
  8
PLAN_1
  6
CONTINUOUS
 66
     1
 40
0.007150
 41
0.007150
  0
VERTEX
  8
PLAN_1
  6
CONTINUOUS
 10
-0.986051
 20
1.725799
  0
VERTEX
  8
PLAN_1
  6
CONTINUOUS
 10
-0.980941
 20
1.730398
  0
VERTEX
  8
PLAN_1
  6
CONTINUOUS
 10
-0.977366
 20
1.734996
  0
VERTEX
  8
PLAN_1
  6
CONTINUOUS
 10
-0.974811
 20
1.739083
  0
VERTEX
  8
PLAN_1
  6
CONTINUOUS
 10
-0.973280
 20
1.743681
  0
VERTEX
  8
PLAN_1
  6
CONTINUOUS
 10
-0.972768
 20
1.747768
  0
VERTEX
  8
PLAN_1
  6
CONTINUOUS
 10
-0.972768
 20
1.751346
  0
VERTEX
  8
PLAN_1
  6
CONTINUOUS
 10
-0.973791
 20
1.754921
  0
VERTEX
  8
PLAN_1
  6
CONTINUOUS
 10
-0.974811
 20
1.758496
  0
VERTEX
  8
PLAN_1
  6
CONTINUOUS
 10
-0.976343
 20
1.761563
  0
VERTEX
  8
PLAN_1
  6
CONTINUOUS
 10
-0.978386
 20
1.764626
  0
VERTEX
  8
PLAN_1
  6
CONTINUOUS
 10
-0.979921
 20
1.766669
  0
VERTEX
  8
PLAN_1
  6
CONTINUOUS
 10
-0.981965
 20
1.768713
  0
VERTEX
  8
PLAN_1
  6
CONTINUOUS
 10
-0.985028
 20
1.771780
  0
VERTEX
  8
PLAN_1
  6
CONTINUOUS
 10
-0.986051
 20
1.772803
  0
SEQEND
  8
0
  0
POLYLINE
  8
PLAN_1
  6
CONTINUOUS
 66
     1
 40
0.007150
 41
0.007150
  0
VERTEX
  8
PLAN_1
  6
CONTINUOUS
 10
-0.986051
 20
1.772803
  0
VERTEX
  8
PLAN_1
  6
CONTINUOUS
 10
-1.275205
 20
1.772803
  0
SEQEND
  8
0
  0
POLYLINE
  8
PLAN_1
  6
CONTINUOUS
 66
     1
 40
0.007150
 41
0.007150
  0
VERTEX
  8
PLAN_1
  6
CONTINUOUS
 10
-1.275205
 20
1.772803
  0
VERTEX
  8
PLAN_1
  6
CONTINUOUS
 10
-1.276228
 20
1.771780
  0
VERTEX
  8
PLAN_1
  6
CONTINUOUS
 10
-1.278783
 20
1.769224
  0
VERTEX
  8
PLAN_1
  6
CONTINUOUS
 10
-1.281846
 20
1.765138
  0
VERTEX
  8
PLAN_1
  6
CONTINUOUS
 10
-1.284913
 20
1.759008
  0
VERTEX
  8
PLAN_1
  6
CONTINUOUS
 10
-1.285933
 20
1.755941
  0
VERTEX
  8
PLAN_1
  6
CONTINUOUS
 10
-1.286445
 20
1.752366
  0
VERTEX
  8
PLAN_1
  6
CONTINUOUS
 10
-1.286445
 20
1.748280
  0
VERTEX
  8
PLAN_1
  6
CONTINUOUS
 10
-1.285933
 20
1.744193
  0
VERTEX
  8
PLAN_1
  6
CONTINUOUS
 10
-1.284913
 20
1.740106
  0
VERTEX
  8
PLAN_1
  6
CONTINUOUS
 10
-1.282358
 20
1.735508
  0
VERTEX
  8
PLAN_1
  6
CONTINUOUS
 10
-1.279291
 20
1.730909
  0
VERTEX
  8
PLAN_1
  6
CONTINUOUS
 10
-1.275205
 20
1.725799
  0
SEQEND
  8
0
  0
POLYLINE
  8
PLAN_1
  6
CONTINUOUS
 66
     1
 40
0.007150
 41
0.007150
  0
VERTEX
  8
PLAN_1
  6
CONTINUOUS
 10
-1.275205
 20
1.725799
  0
VERTEX
  8
PLAN_1
  6
CONTINUOUS
 10
-0.986051
 20
1.725799
  0
SEQEND
  8
0
  0
POLYLINE
  8
PLAN_1
  6
CONTINUOUS
 66
     1
 40
0.007150
 41
0.007150
  0
VERTEX
  8
PLAN_1
  6
CONTINUOUS
 10
-0.986563
 20
1.679311
  0
VERTEX
  8
PLAN_1
  6
CONTINUOUS
 10
-0.981453
 20
1.683909
  0
VERTEX
  8
PLAN_1
  6
CONTINUOUS
 10
-0.977878
 20
1.688508
  0
VERTEX
  8
PLAN_1
  6
CONTINUOUS
 10
-0.975323
 20
1.692594
  0
VERTEX
  8
PLAN_1
  6
CONTINUOUS
 10
-0.973791
 20
1.696681
  0
VERTEX
  8
PLAN_1
  6
CONTINUOUS
 10
-0.973280
 20
1.700768
  0
VERTEX
  8
PLAN_1
  6
CONTINUOUS
 10
-0.973280
 20
1.704854
  0
VERTEX
  8
PLAN_1
  6
CONTINUOUS
 10
-0.974299
 20
1.708433
  0
VERTEX
  8
PLAN_1
  6
CONTINUOUS
 10
-0.975323
 20
1.712008
  0
VERTEX
  8
PLAN_1
  6
CONTINUOUS
 10
-0.976854
 20
1.715071
  0
VERTEX
  8
PLAN_1
  6
CONTINUOUS
 10
-0.978898
 20
1.717626
  0
VERTEX
  8
PLAN_1
  6
CONTINUOUS
 10
-0.980429
 20
1.720181
  0
VERTEX
  8
PLAN_1
  6
CONTINUOUS
 10
-0.982476
 20
1.722224
  0
VERTEX
  8
PLAN_1
  6
CONTINUOUS
 10
-0.985028
 20
1.725291
  0
VERTEX
  8
PLAN_1
  6
CONTINUOUS
 10
-0.986563
 20
1.726311
  0
SEQEND
  8
0
  0
POLYLINE
  8
PLAN_1
  6
CONTINUOUS
 66
     1
 40
0.007150
 41
0.007150
  0
VERTEX
  8
PLAN_1
  6
CONTINUOUS
 10
-0.986563
 20
1.726311
  0
VERTEX
  8
PLAN_1
  6
CONTINUOUS
 10
-1.275717
 20
1.726311
  0
SEQEND
  8
0
  0
POLYLINE
  8
PLAN_1
  6
CONTINUOUS
 66
     1
 40
0.007150
 41
0.007150
  0
VERTEX
  8
PLAN_1
  6
CONTINUOUS
 10
-1.275717
 20
1.726311
  0
VERTEX
  8
PLAN_1
  6
CONTINUOUS
 10
-1.276740
 20
1.725291
  0
VERTEX
  8
PLAN_1
  6
CONTINUOUS
 10
-1.279291
 20
1.722736
  0
VERTEX
  8
PLAN_1
  6
CONTINUOUS
 10
-1.282358
 20
1.718138
  0
VERTEX
  8
PLAN_1
  6
CONTINUOUS
 10
-1.285425
 20
1.712520
  0
VERTEX
  8
PLAN_1
  6
CONTINUOUS
 10
-1.286445
 20
1.709453
  0
VERTEX
  8
PLAN_1
  6
CONTINUOUS
 10
-1.286957
 20
1.705878
  0
VERTEX
  8
PLAN_1
  6
CONTINUOUS
 10
-1.286957
 20
1.701791
  0
VERTEX
  8
PLAN_1
  6
CONTINUOUS
 10
-1.286445
 20
1.697705
  0
VERTEX
  8
PLAN_1
  6
CONTINUOUS
 10
-1.285425
 20
1.693106
  0
VERTEX
  8
PLAN_1
  6
CONTINUOUS
 10
-1.282870
 20
1.689020
  0
VERTEX
  8
PLAN_1
  6
CONTINUOUS
 10
-1.279803
 20
1.683909
  0
VERTEX
  8
PLAN_1
  6
CONTINUOUS
 10
-1.275717
 20
1.679311
  0
SEQEND
  8
0
  0
POLYLINE
  8
PLAN_1
  6
CONTINUOUS
 66
     1
 40
0.007150
 41
0.007150
  0
VERTEX
  8
PLAN_1
  6
CONTINUOUS
 10
-1.275717
 20
1.679311
  0
VERTEX
  8
PLAN_1
  6
CONTINUOUS
 10
-0.986563
 20
1.679311
  0
SEQEND
  8
0
  0
POLYLINE
  8
PLAN_1
  6
CONTINUOUS
 66
     1
 40
0.007150
 41
0.007150
  0
VERTEX
  8
PLAN_1
  6
CONTINUOUS
 10
-0.986051
 20
1.632823
  0
VERTEX
  8
PLAN_1
  6
CONTINUOUS
 10
-0.980941
 20
1.637421
  0
VERTEX
  8
PLAN_1
  6
CONTINUOUS
 10
-0.977366
 20
1.641508
  0
VERTEX
  8
PLAN_1
  6
CONTINUOUS
 10
-0.974811
 20
1.646106
  0
VERTEX
  8
PLAN_1
  6
CONTINUOUS
 10
-0.973280
 20
1.650193
  0
VERTEX
  8
PLAN_1
  6
CONTINUOUS
 10
-0.972768
 20
1.654280
  0
VERTEX
  8
PLAN_1
  6
CONTINUOUS
 10
-0.972768
 20
1.658366
  0
VERTEX
  8
PLAN_1
  6
CONTINUOUS
 10
-0.973791
 20
1.661941
  0
VERTEX
  8
PLAN_1
  6
CONTINUOUS
 10
-0.974811
 20
1.665516
  0
VERTEX
  8
PLAN_1
  6
CONTINUOUS
 10
-0.976343
 20
1.668583
  0
VERTEX
  8
PLAN_1
  6
CONTINUOUS
 10
-0.978386
 20
1.671138
  0
VERTEX
  8
PLAN_1
  6
CONTINUOUS
 10
-0.979921
 20
1.673693
  0
VERTEX
  8
PLAN_1
  6
CONTINUOUS
 10
-0.981965
 20
1.675736
  0
VERTEX
  8
PLAN_1
  6
CONTINUOUS
 10
-0.985028
 20
1.678799
  0
VERTEX
  8
PLAN_1
  6
CONTINUOUS
 10
-0.986051
 20
1.679823
  0
SEQEND
  8
0
  0
POLYLINE
  8
PLAN_1
  6
CONTINUOUS
 66
     1
 40
0.007150
 41
0.007150
  0
VERTEX
  8
PLAN_1
  6
CONTINUOUS
 10
-0.986051
 20
1.679823
  0
VERTEX
  8
PLAN_1
  6
CONTINUOUS
 10
-1.275205
 20
1.679823
  0
SEQEND
  8
0
  0
POLYLINE
  8
PLAN_1
  6
CONTINUOUS
 66
     1
 40
0.007150
 41
0.007150
  0
VERTEX
  8
PLAN_1
  6
CONTINUOUS
 10
-1.275205
 20
1.679823
  0
VERTEX
  8
PLAN_1
  6
CONTINUOUS
 10
-1.276228
 20
1.678799
  0
VERTEX
  8
PLAN_1
  6
CONTINUOUS
 10
-1.278783
 20
1.676248
  0
VERTEX
  8
PLAN_1
  6
CONTINUOUS
 10
-1.281846
 20
1.671650
  0
VERTEX
  8
PLAN_1
  6
CONTINUOUS
 10
-1.284913
 20
1.666028
  0
VERTEX
  8
PLAN_1
  6
CONTINUOUS
 10
-1.285933
 20
1.662453
  0
VERTEX
  8
PLAN_1
  6
CONTINUOUS
 10
-1.286445
 20
1.658878
  0
VERTEX
  8
PLAN_1
  6
CONTINUOUS
 10
-1.286445
 20
1.655299
  0
VERTEX
  8
PLAN_1
  6
CONTINUOUS
 10
-1.285933
 20
1.651213
  0
VERTEX
  8
PLAN_1
  6
CONTINUOUS
 10
-1.284913
 20
1.646614
  0
VERTEX
  8
PLAN_1
  6
CONTINUOUS
 10
-1.282358
 20
1.642016
  0
VERTEX
  8
PLAN_1
  6
CONTINUOUS
 10
-1.279291
 20
1.637421
  0
VERTEX
  8
PLAN_1
  6
CONTINUOUS
 10
-1.275205
 20
1.632823
  0
SEQEND
  8
0
  0
POLYLINE
  8
PLAN_1
  6
CONTINUOUS
 66
     1
 40
0.007150
 41
0.007150
  0
VERTEX
  8
PLAN_1
  6
CONTINUOUS
 10
-1.275205
 20
1.632823
  0
VERTEX
  8
PLAN_1
  6
CONTINUOUS
 10
-0.986051
 20
1.632823
  0
SEQEND
  8
0
  0
POLYLINE
  8
PLAN_1
  6
CONTINUOUS
 66
     1
 40
0.007150
 41
0.007150
  0
VERTEX
  8
PLAN_1
  6
CONTINUOUS
 10
-0.986563
 20
1.586331
  0
VERTEX
  8
PLAN_1
  6
CONTINUOUS
 10
-0.981453
 20
1.590417
  0
VERTEX
  8
PLAN_1
  6
CONTINUOUS
 10
-0.977878
 20
1.595016
  0
VERTEX
  8
PLAN_1
  6
CONTINUOUS
 10
-0.975323
 20
1.599614
  0
VERTEX
  8
PLAN_1
  6
CONTINUOUS
 10
-0.973791
 20
1.603701
  0
VERTEX
  8
PLAN_1
  6
CONTINUOUS
 10
-0.973280
 20
1.607787
  0
VERTEX
  8
PLAN_1
  6
CONTINUOUS
 10
-0.973280
 20
1.611874
  0
VERTEX
  8
PLAN_1
  6
CONTINUOUS
 10
-0.974299
 20
1.615453
  0
VERTEX
  8
PLAN_1
  6
CONTINUOUS
 10
-0.975323
 20
1.619028
  0
VERTEX
  8
PLAN_1
  6
CONTINUOUS
 10
-0.976854
 20
1.622094
  0
VERTEX
  8
PLAN_1
  6
CONTINUOUS
 10
-0.978898
 20
1.624650
  0
VERTEX
  8
PLAN_1
  6
CONTINUOUS
 10
-0.980429
 20
1.627201
  0
VERTEX
  8
PLAN_1
  6
CONTINUOUS
 10
-0.982476
 20
1.629244
  0
VERTEX
  8
PLAN_1
  6
CONTINUOUS
 10
-0.985028
 20
1.632311
  0
VERTEX
  8
PLAN_1
  6
CONTINUOUS
 10
-0.986563
 20
1.633331
  0
SEQEND
  8
0
  0
POLYLINE
  8
PLAN_1
  6
CONTINUOUS
 66
     1
 40
0.007150
 41
0.007150
  0
VERTEX
  8
PLAN_1
  6
CONTINUOUS
 10
-0.986563
 20
1.633331
  0
VERTEX
  8
PLAN_1
  6
CONTINUOUS
 10
-1.275717
 20
1.633331
  0
SEQEND
  8
0
  0
POLYLINE
  8
PLAN_1
  6
CONTINUOUS
 66
     1
 40
0.007150
 41
0.007150
  0
VERTEX
  8
PLAN_1
  6
CONTINUOUS
 10
-1.275717
 20
1.633331
  0
VERTEX
  8
PLAN_1
  6
CONTINUOUS
 10
-1.276740
 20
1.632311
  0
VERTEX
  8
PLAN_1
  6
CONTINUOUS
 10
-1.279291
 20
1.629244
  0
VERTEX
  8
PLAN_1
  6
CONTINUOUS
 10
-1.282358
 20
1.625157
  0
VERTEX
  8
PLAN_1
  6
CONTINUOUS
 10
-1.285425
 20
1.619539
  0
VERTEX
  8
PLAN_1
  6
CONTINUOUS
 10
-1.286445
 20
1.615965
  0
VERTEX
  8
PLAN_1
  6
CONTINUOUS
 10
-1.286957
 20
1.612386
  0
VERTEX
  8
PLAN_1
  6
CONTINUOUS
 10
-1.286957
 20
1.608811
  0
VERTEX
  8
PLAN_1
  6
CONTINUOUS
 10
-1.286445
 20
1.604724
  0
VERTEX
  8
PLAN_1
  6
CONTINUOUS
 10
-1.285425
 20
1.600126
  0
VERTEX
  8
PLAN_1
  6
CONTINUOUS
 10
-1.282870
 20
1.595528
  0
VERTEX
  8
PLAN_1
  6
CONTINUOUS
 10
-1.279803
 20
1.590929
  0
VERTEX
  8
PLAN_1
  6
CONTINUOUS
 10
-1.275717
 20
1.586331
  0
SEQEND
  8
0
  0
POLYLINE
  8
PLAN_1
  6
CONTINUOUS
 66
     1
 40
0.007150
 41
0.007150
  0
VERTEX
  8
PLAN_1
  6
CONTINUOUS
 10
-1.275717
 20
1.586331
  0
VERTEX
  8
PLAN_1
  6
CONTINUOUS
 10
-0.986563
 20
1.586331
  0
SEQEND
  8
0
  0
POLYLINE
  8
PLAN_1
  6
CONTINUOUS
 66
     1
 40
0.007150
 41
0.007150
  0
VERTEX
  8
PLAN_1
  6
CONTINUOUS
 10
-0.986051
 20
1.539331
  0
VERTEX
  8
PLAN_1
  6
CONTINUOUS
 10
-0.980941
 20
1.543929
  0
VERTEX
  8
PLAN_1
  6
CONTINUOUS
 10
-0.977366
 20
1.548528
  0
VERTEX
  8
PLAN_1
  6
CONTINUOUS
 10
-0.974811
 20
1.553126
  0
VERTEX
  8
PLAN_1
  6
CONTINUOUS
 10
-0.973280
 20
1.557213
  0
VERTEX
  8
PLAN_1
  6
CONTINUOUS
 10
-0.972768
 20
1.561299
  0
VERTEX
  8
PLAN_1
  6
CONTINUOUS
 10
-0.972768
 20
1.564874
  0
VERTEX
  8
PLAN_1
  6
CONTINUOUS
 10
-0.973791
 20
1.568961
  0
VERTEX
  8
PLAN_1
  6
CONTINUOUS
 10
-0.974811
 20
1.572028
  0
VERTEX
  8
PLAN_1
  6
CONTINUOUS
 10
-0.976343
 20
1.575094
  0
VERTEX
  8
PLAN_1
  6
CONTINUOUS
 10
-0.978386
 20
1.578157
  0
VERTEX
  8
PLAN_1
  6
CONTINUOUS
 10
-0.979921
 20
1.580713
  0
VERTEX
  8
PLAN_1
  6
CONTINUOUS
 10
-0.981965
 20
1.582756
  0
VERTEX
  8
PLAN_1
  6
CONTINUOUS
 10
-0.985028
 20
1.585311
  0
VERTEX
  8
PLAN_1
  6
CONTINUOUS
 10
-0.986051
 20
1.586331
  0
SEQEND
  8
0
  0
POLYLINE
  8
PLAN_1
  6
CONTINUOUS
 66
     1
 40
0.007150
 41
0.007150
  0
VERTEX
  8
PLAN_1
  6
CONTINUOUS
 10
-0.986051
 20
1.586331
  0
VERTEX
  8
PLAN_1
  6
CONTINUOUS
 10
-1.275205
 20
1.586331
  0
SEQEND
  8
0
  0
POLYLINE
  8
PLAN_1
  6
CONTINUOUS
 66
     1
 40
0.007150
 41
0.007150
  0
VERTEX
  8
PLAN_1
  6
CONTINUOUS
 10
-1.275205
 20
1.586331
  0
VERTEX
  8
PLAN_1
  6
CONTINUOUS
 10
-1.276228
 20
1.585823
  0
VERTEX
  8
PLAN_1
  6
CONTINUOUS
 10
-1.278783
 20
1.582756
  0
VERTEX
  8
PLAN_1
  6
CONTINUOUS
 10
-1.281846
 20
1.578669
  0
VERTEX
  8
PLAN_1
  6
CONTINUOUS
 10
-1.284913
 20
1.573051
  0
VERTEX
  8
PLAN_1
  6
CONTINUOUS
 10
-1.285933
 20
1.569472
  0
VERTEX
  8
PLAN_1
  6
CONTINUOUS
 10
-1.286445
 20
1.565898
  0
VERTEX
  8
PLAN_1
  6
CONTINUOUS
 10
-1.286445
 20
1.561811
  0
VERTEX
  8
PLAN_1
  6
CONTINUOUS
 10
-1.285933
 20
1.557724
  0
VERTEX
  8
PLAN_1
  6
CONTINUOUS
 10
-1.284913
 20
1.553638
  0
VERTEX
  8
PLAN_1
  6
CONTINUOUS
 10
-1.282358
 20
1.549039
  0
VERTEX
  8
PLAN_1
  6
CONTINUOUS
 10
-1.279291
 20
1.544441
  0
VERTEX
  8
PLAN_1
  6
CONTINUOUS
 10
-1.275205
 20
1.539331
  0
SEQEND
  8
0
  0
POLYLINE
  8
PLAN_1
  6
CONTINUOUS
 66
     1
 40
0.007150
 41
0.007150
  0
VERTEX
  8
PLAN_1
  6
CONTINUOUS
 10
-1.275205
 20
1.539331
  0
VERTEX
  8
PLAN_1
  6
CONTINUOUS
 10
-0.986051
 20
1.539331
  0
SEQEND
  8
0
  0
POLYLINE
  8
PLAN_1
  6
CONTINUOUS
 66
     1
 40
0.004087
 41
0.004087
  0
VERTEX
  8
PLAN_1
  6
CONTINUOUS
 10
-2.343957
 20
-0.771866
  0
VERTEX
  8
PLAN_1
  6
CONTINUOUS
 10
-2.343957
 20
-0.263547
  0
SEQEND
  8
0
  0
POLYLINE
  8
PLAN_1
  6
CONTINUOUS
 66
     1
 40
0.004087
 41
0.004087
  0
VERTEX
  8
PLAN_1
  6
CONTINUOUS
 10
-2.343957
 20
-0.263547
  0
VERTEX
  8
PLAN_1
  6
CONTINUOUS
 10
-2.343445
 20
-0.257417
  0
VERTEX
  8
PLAN_1
  6
CONTINUOUS
 10
-2.340890
 20
-0.241067
  0
VERTEX
  8
PLAN_1
  6
CONTINUOUS
 10
-2.337827
 20
-0.229827
  0
VERTEX
  8
PLAN_1
  6
CONTINUOUS
 10
-2.333740
 20
-0.217567
  0
VERTEX
  8
PLAN_1
  6
CONTINUOUS
 10
-2.331185
 20
-0.210925
  0
VERTEX
  8
PLAN_1
  6
CONTINUOUS
 10
-2.328118
 20
-0.204283
  0
VERTEX
  8
PLAN_1
  6
CONTINUOUS
 10
-2.324543
 20
-0.197642
  0
VERTEX
  8
PLAN_1
  6
CONTINUOUS
 10
-2.320969
 20
-0.190492
  0
VERTEX
  8
PLAN_1
  6
CONTINUOUS
 10
-2.316370
 20
-0.183850
  0
VERTEX
  8
PLAN_1
  6
CONTINUOUS
 10
-2.311260
 20
-0.177209
  0
VERTEX
  8
PLAN_1
  6
CONTINUOUS
 10
-2.306154
 20
-0.170567
  0
VERTEX
  8
PLAN_1
  6
CONTINUOUS
 10
-2.300020
 20
-0.163925
  0
VERTEX
  8
PLAN_1
  6
CONTINUOUS
 10
-2.293378
 20
-0.157795
  0
VERTEX
  8
PLAN_1
  6
CONTINUOUS
 10
-2.285717
 20
-0.151665
  0
VERTEX
  8
PLAN_1
  6
CONTINUOUS
 10
-2.277543
 20
-0.145535
  0
VERTEX
  8
PLAN_1
  6
CONTINUOUS
 10
-2.268858
 20
-0.140425
  0
VERTEX
  8
PLAN_1
  6
CONTINUOUS
 10
-2.259661
 20
-0.135315
  0
VERTEX
  8
PLAN_1
  6
CONTINUOUS
 10
-2.249445
 20
-0.131228
  0
VERTEX
  8
PLAN_1
  6
CONTINUOUS
 10
-2.238205
 20
-0.127142
  0
VERTEX
  8
PLAN_1
  6
CONTINUOUS
 10
-2.226457
 20
-0.124079
  0
VERTEX
  8
PLAN_1
  6
CONTINUOUS
 10
-2.213685
 20
-0.121012
  0
VERTEX
  8
PLAN_1
  6
CONTINUOUS
 10
-2.199890
 20
-0.119480
  0
VERTEX
  8
PLAN_1
  6
CONTINUOUS
 10
-2.185587
 20
-0.117949
  0
VERTEX
  8
PLAN_1
  6
CONTINUOUS
 10
-2.169748
 20
-0.117437
  0
VERTEX
  8
PLAN_1
  6
CONTINUOUS
 10
-2.032323
 20
-0.117437
  0
VERTEX
  8
PLAN_1
  6
CONTINUOUS
 10
-1.775862
 20
-0.117437
  0
VERTEX
  8
PLAN_1
  6
CONTINUOUS
 10
-1.442264
 20
-0.117437
  0
VERTEX
  8
PLAN_1
  6
CONTINUOUS
 10
-1.074945
 20
-0.117437
  0
VERTEX
  8
PLAN_1
  6
CONTINUOUS
 10
-0.715287
 20
-0.117437
  0
VERTEX
  8
PLAN_1
  6
CONTINUOUS
 10
-0.406209
 20
-0.117437
  0
VERTEX
  8
PLAN_1
  6
CONTINUOUS
 10
-0.189598
 20
-0.117437
  0
VERTEX
  8
PLAN_1
  6
CONTINUOUS
 10
-0.107858
 20
-0.117437
  0
VERTEX
  8
PLAN_1
  6
CONTINUOUS
 10
-0.101217
 20
-0.117437
  0
VERTEX
  8
PLAN_1
  6
CONTINUOUS
 10
-0.083846
 20
-0.118969
  0
VERTEX
  8
PLAN_1
  6
CONTINUOUS
 10
-0.078224
 20
-0.119992
  0
VERTEX
  8
PLAN_1
  6
CONTINUOUS
 10
-0.072094
 20
-0.121524
  0
VERTEX
  8
PLAN_1
  6
CONTINUOUS
 10
-0.065965
 20
-0.123055
  0
VERTEX
  8
PLAN_1
  6
CONTINUOUS
 10
-0.059323
 20
-0.125098
  0
VERTEX
  8
PLAN_1
  6
CONTINUOUS
 10
-0.052681
 20
-0.127142
  0
VERTEX
  8
PLAN_1
  6
CONTINUOUS
 10
-0.045531
 20
-0.130209
  0
VERTEX
  8
PLAN_1
  6
CONTINUOUS
 10
-0.038378
 20
-0.133783
  0
VERTEX
  8
PLAN_1
  6
CONTINUOUS
 10
-0.031224
 20
-0.137358
  0
VERTEX
  8
PLAN_1
  6
CONTINUOUS
 10
-0.024075
 20
-0.141957
  0
VERTEX
  8
PLAN_1
  6
CONTINUOUS
 10
-0.016921
 20
-0.147579
  0
VERTEX
  8
PLAN_1
  6
CONTINUOUS
 10
-0.009768
 20
-0.153197
  0
VERTEX
  8
PLAN_1
  6
CONTINUOUS
 10
-0.003126
 20
-0.159839
  0
VERTEX
  8
PLAN_1
  6
CONTINUOUS
 10
0.003516
 20
-0.166992
  0
VERTEX
  8
PLAN_1
  6
CONTINUOUS
 10
0.009646
 20
-0.175165
  0
VERTEX
  8
PLAN_1
  6
CONTINUOUS
 10
0.015776
 20
-0.184362
  0
VERTEX
  8
PLAN_1
  6
CONTINUOUS
 10
0.021394
 20
-0.194067
  0
VERTEX
  8
PLAN_1
  6
CONTINUOUS
 10
0.026504
 20
-0.204795
  0
VERTEX
  8
PLAN_1
  6
CONTINUOUS
 10
0.031102
 20
-0.216547
  0
VERTEX
  8
PLAN_1
  6
CONTINUOUS
 10
0.035189
 20
-0.229319
  0
VERTEX
  8
PLAN_1
  6
CONTINUOUS
 10
0.038764
 20
-0.242602
  0
VERTEX
  8
PLAN_1
  6
CONTINUOUS
 10
0.041831
 20
-0.257417
  0
VERTEX
  8
PLAN_1
  6
CONTINUOUS
 10
0.043874
 20
-0.273764
  0
VERTEX
  8
PLAN_1
  6
CONTINUOUS
 10
0.044894
 20
-0.290622
  0
VERTEX
  8
PLAN_1
  6
CONTINUOUS
 10
0.045406
 20
-0.309016
  0
SEQEND
  8
0
  0
POLYLINE
  8
PLAN_1
  6
CONTINUOUS
 66
     1
 40
0.004087
 41
0.004087
  0
VERTEX
  8
PLAN_1
  6
CONTINUOUS
 10
0.045406
 20
-0.309016
  0
VERTEX
  8
PLAN_1
  6
CONTINUOUS
 10
0.045406
 20
-0.764205
  0
SEQEND
  8
0
  0
POLYLINE
  8
PLAN_1
  6
CONTINUOUS
 66
     1
 40
0.004087
 41
0.004087
  0
VERTEX
  8
PLAN_1
  6
CONTINUOUS
 10
-2.156976
 20
-0.326386
  0
VERTEX
  8
PLAN_1
  6
CONTINUOUS
 10
-1.884681
 20
-0.326386
  0
SEQEND
  8
0
  0
POLYLINE
  8
PLAN_1
  6
CONTINUOUS
 66
     1
 40
0.004087
 41
0.004087
  0
VERTEX
  8
PLAN_1
  6
CONTINUOUS
 10
-2.019551
 20
-0.451547
  0
VERTEX
  8
PLAN_1
  6
CONTINUOUS
 10
-2.020063
 20
-0.201220
  0
SEQEND
  8
0
  0
POLYLINE
  8
PLAN_1
  6
CONTINUOUS
 66
     1
 40
0.003000
 41
0.003000
  0
VERTEX
  8
PLAN_1
  6
CONTINUOUS
 10
-2.019039
 20
-0.294709
  0
VERTEX
  8
PLAN_1
  6
CONTINUOUS
 10
-2.022106
 20
-0.295220
  0
VERTEX
  8
PLAN_1
  6
CONTINUOUS
 10
-2.025169
 20
-0.295732
  0
VERTEX
  8
PLAN_1
  6
CONTINUOUS
 10
-2.028236
 20
-0.296244
  0
VERTEX
  8
PLAN_1
  6
CONTINUOUS
 10
-2.031299
 20
-0.297264
  0
VERTEX
  8
PLAN_1
  6
CONTINUOUS
 10
-2.034366
 20
-0.298795
  0
VERTEX
  8
PLAN_1
  6
CONTINUOUS
 10
-2.036921
 20
-0.300331
  0
VERTEX
  8
PLAN_1
  6
CONTINUOUS
 10
-2.039476
 20
-0.302374
  0
VERTEX
  8
PLAN_1
  6
CONTINUOUS
 10
-2.041520
 20
-0.304417
  0
VERTEX
  8
PLAN_1
  6
CONTINUOUS
 10
-2.043563
 20
-0.306461
  0
VERTEX
  8
PLAN_1
  6
CONTINUOUS
 10
-2.045606
 20
-0.309016
  0
VERTEX
  8
PLAN_1
  6
CONTINUOUS
 10
-2.047138
 20
-0.311567
  0
VERTEX
  8
PLAN_1
  6
CONTINUOUS
 10
-2.048669
 20
-0.314634
  0
VERTEX
  8
PLAN_1
  6
CONTINUOUS
 10
-2.049693
 20
-0.317189
  0
VERTEX
  8
PLAN_1
  6
CONTINUOUS
 10
-2.050205
 20
-0.320252
  0
VERTEX
  8
PLAN_1
  6
CONTINUOUS
 10
-2.050713
 20
-0.323831
  0
VERTEX
  8
PLAN_1
  6
CONTINUOUS
 10
-2.050713
 20
-0.326894
  0
VERTEX
  8
PLAN_1
  6
CONTINUOUS
 10
-2.050713
 20
-0.329961
  0
VERTEX
  8
PLAN_1
  6
CONTINUOUS
 10
-2.050205
 20
-0.333535
  0
VERTEX
  8
PLAN_1
  6
CONTINUOUS
 10
-2.049693
 20
-0.336602
  0
VERTEX
  8
PLAN_1
  6
CONTINUOUS
 10
-2.048669
 20
-0.339157
  0
VERTEX
  8
PLAN_1
  6
CONTINUOUS
 10
-2.047138
 20
-0.342220
  0
VERTEX
  8
PLAN_1
  6
CONTINUOUS
 10
-2.045606
 20
-0.344776
  0
VERTEX
  8
PLAN_1
  6
CONTINUOUS
 10
-2.043563
 20
-0.347331
  0
VERTEX
  8
PLAN_1
  6
CONTINUOUS
 10
-2.041520
 20
-0.349374
  0
VERTEX
  8
PLAN_1
  6
CONTINUOUS
 10
-2.039476
 20
-0.351417
  0
VERTEX
  8
PLAN_1
  6
CONTINUOUS
 10
-2.036921
 20
-0.353461
  0
VERTEX
  8
PLAN_1
  6
CONTINUOUS
 10
-2.034366
 20
-0.354992
  0
VERTEX
  8
PLAN_1
  6
CONTINUOUS
 10
-2.031299
 20
-0.356528
  0
VERTEX
  8
PLAN_1
  6
CONTINUOUS
 10
-2.028236
 20
-0.357547
  0
VERTEX
  8
PLAN_1
  6
CONTINUOUS
 10
-2.025169
 20
-0.358059
  0
VERTEX
  8
PLAN_1
  6
CONTINUOUS
 10
-2.022106
 20
-0.358571
  0
VERTEX
  8
PLAN_1
  6
CONTINUOUS
 10
-2.019039
 20
-0.359079
  0
VERTEX
  8
PLAN_1
  6
CONTINUOUS
 10
-2.015465
 20
-0.358571
  0
VERTEX
  8
PLAN_1
  6
CONTINUOUS
 10
-2.012398
 20
-0.358059
  0
VERTEX
  8
PLAN_1
  6
CONTINUOUS
 10
-2.009335
 20
-0.357547
  0
VERTEX
  8
PLAN_1
  6
CONTINUOUS
 10
-2.006268
 20
-0.356528
  0
VERTEX
  8
PLAN_1
  6
CONTINUOUS
 10
-2.003713
 20
-0.354992
  0
VERTEX
  8
PLAN_1
  6
CONTINUOUS
 10
-2.001157
 20
-0.353461
  0
VERTEX
  8
PLAN_1
  6
CONTINUOUS
 10
-1.998606
 20
-0.351417
  0
VERTEX
  8
PLAN_1
  6
CONTINUOUS
 10
-1.996051
 20
-0.349374
  0
VERTEX
  8
PLAN_1
  6
CONTINUOUS
 10
-1.994008
 20
-0.347331
  0
VERTEX
  8
PLAN_1
  6
CONTINUOUS
 10
-1.992476
 20
-0.344776
  0
VERTEX
  8
PLAN_1
  6
CONTINUOUS
 10
-1.990941
 20
-0.342220
  0
VERTEX
  8
PLAN_1
  6
CONTINUOUS
 10
-1.989409
 20
-0.339157
  0
VERTEX
  8
PLAN_1
  6
CONTINUOUS
 10
-1.988386
 20
-0.336602
  0
VERTEX
  8
PLAN_1
  6
CONTINUOUS
 10
-1.987366
 20
-0.333535
  0
VERTEX
  8
PLAN_1
  6
CONTINUOUS
 10
-1.986854
 20
-0.329961
  0
VERTEX
  8
PLAN_1
  6
CONTINUOUS
 10
-1.986854
 20
-0.326894
  0
VERTEX
  8
PLAN_1
  6
CONTINUOUS
 10
-1.986854
 20
-0.323831
  0
VERTEX
  8
PLAN_1
  6
CONTINUOUS
 10
-1.987366
 20
-0.320252
  0
VERTEX
  8
PLAN_1
  6
CONTINUOUS
 10
-1.988386
 20
-0.317189
  0
VERTEX
  8
PLAN_1
  6
CONTINUOUS
 10
-1.989409
 20
-0.314634
  0
VERTEX
  8
PLAN_1
  6
CONTINUOUS
 10
-1.990941
 20
-0.311567
  0
VERTEX
  8
PLAN_1
  6
CONTINUOUS
 10
-1.992476
 20
-0.309016
  0
VERTEX
  8
PLAN_1
  6
CONTINUOUS
 10
-1.994008
 20
-0.306461
  0
VERTEX
  8
PLAN_1
  6
CONTINUOUS
 10
-1.996051
 20
-0.304417
  0
VERTEX
  8
PLAN_1
  6
CONTINUOUS
 10
-1.998606
 20
-0.302374
  0
VERTEX
  8
PLAN_1
  6
CONTINUOUS
 10
-2.001157
 20
-0.300331
  0
VERTEX
  8
PLAN_1
  6
CONTINUOUS
 10
-2.003713
 20
-0.298795
  0
VERTEX
  8
PLAN_1
  6
CONTINUOUS
 10
-2.006268
 20
-0.297264
  0
VERTEX
  8
PLAN_1
  6
CONTINUOUS
 10
-2.009335
 20
-0.296244
  0
VERTEX
  8
PLAN_1
  6
CONTINUOUS
 10
-2.012398
 20
-0.295732
  0
VERTEX
  8
PLAN_1
  6
CONTINUOUS
 10
-2.015465
 20
-0.295220
  0
VERTEX
  8
PLAN_1
  6
CONTINUOUS
 10
-2.019039
 20
-0.294709
  0
SEQEND
  8
0
  0
POLYLINE
  8
PLAN_1
  6
CONTINUOUS
 66
     1
 40
0.004087
 41
0.004087
  0
VERTEX
  8
PLAN_1
  6
CONTINUOUS
 10
-0.402630
 20
-0.326386
  0
VERTEX
  8
PLAN_1
  6
CONTINUOUS
 10
-0.130335
 20
-0.326386
  0
SEQEND
  8
0
  0
POLYLINE
  8
PLAN_1
  6
CONTINUOUS
 66
     1
 40
0.004087
 41
0.004087
  0
VERTEX
  8
PLAN_1
  6
CONTINUOUS
 10
-0.265205
 20
-0.451547
  0
VERTEX
  8
PLAN_1
  6
CONTINUOUS
 10
-0.265717
 20
-0.201220
  0
SEQEND
  8
0
  0
POLYLINE
  8
PLAN_1
  6
CONTINUOUS
 66
     1
 40
0.003000
 41
0.003000
  0
VERTEX
  8
PLAN_1
  6
CONTINUOUS
 10
-0.264697
 20
-0.294709
  0
VERTEX
  8
PLAN_1
  6
CONTINUOUS
 10
-0.267760
 20
-0.295220
  0
VERTEX
  8
PLAN_1
  6
CONTINUOUS
 10
-0.270827
 20
-0.295732
  0
VERTEX
  8
PLAN_1
  6
CONTINUOUS
 10
-0.273890
 20
-0.296244
  0
VERTEX
  8
PLAN_1
  6
CONTINUOUS
 10
-0.276957
 20
-0.297264
  0
VERTEX
  8
PLAN_1
  6
CONTINUOUS
 10
-0.280020
 20
-0.298795
  0
VERTEX
  8
PLAN_1
  6
CONTINUOUS
 10
-0.282575
 20
-0.300331
  0
VERTEX
  8
PLAN_1
  6
CONTINUOUS
 10
-0.284618
 20
-0.302374
  0
VERTEX
  8
PLAN_1
  6
CONTINUOUS
 10
-0.287173
 20
-0.304417
  0
VERTEX
  8
PLAN_1
  6
CONTINUOUS
 10
-0.289217
 20
-0.306461
  0
VERTEX
  8
PLAN_1
  6
CONTINUOUS
 10
-0.291260
 20
-0.309016
  0
VERTEX
  8
PLAN_1
  6
CONTINUOUS
 10
-0.292795
 20
-0.311567
  0
VERTEX
  8
PLAN_1
  6
CONTINUOUS
 10
-0.293815
 20
-0.314634
  0
VERTEX
  8
PLAN_1
  6
CONTINUOUS
 10
-0.294839
 20
-0.317189
  0
VERTEX
  8
PLAN_1
  6
CONTINUOUS
 10
-0.295858
 20
-0.320252
  0
VERTEX
  8
PLAN_1
  6
CONTINUOUS
 10
-0.296370
 20
-0.323831
  0
VERTEX
  8
PLAN_1
  6
CONTINUOUS
 10
-0.296370
 20
-0.326894
  0
VERTEX
  8
PLAN_1
  6
CONTINUOUS
 10
-0.296370
 20
-0.329961
  0
VERTEX
  8
PLAN_1
  6
CONTINUOUS
 10
-0.295858
 20
-0.333535
  0
VERTEX
  8
PLAN_1
  6
CONTINUOUS
 10
-0.294839
 20
-0.336602
  0
VERTEX
  8
PLAN_1
  6
CONTINUOUS
 10
-0.293815
 20
-0.339157
  0
VERTEX
  8
PLAN_1
  6
CONTINUOUS
 10
-0.292795
 20
-0.342220
  0
VERTEX
  8
PLAN_1
  6
CONTINUOUS
 10
-0.291260
 20
-0.344776
  0
VERTEX
  8
PLAN_1
  6
CONTINUOUS
 10
-0.289217
 20
-0.347331
  0
VERTEX
  8
PLAN_1
  6
CONTINUOUS
 10
-0.287173
 20
-0.349374
  0
VERTEX
  8
PLAN_1
  6
CONTINUOUS
 10
-0.284618
 20
-0.351417
  0
VERTEX
  8
PLAN_1
  6
CONTINUOUS
 10
-0.282575
 20
-0.353461
  0
VERTEX
  8
PLAN_1
  6
CONTINUOUS
 10
-0.280020
 20
-0.354992
  0
VERTEX
  8
PLAN_1
  6
CONTINUOUS
 10
-0.276957
 20
-0.356528
  0
VERTEX
  8
PLAN_1
  6
CONTINUOUS
 10
-0.273890
 20
-0.357547
  0
VERTEX
  8
PLAN_1
  6
CONTINUOUS
 10
-0.270827
 20
-0.358059
  0
VERTEX
  8
PLAN_1
  6
CONTINUOUS
 10
-0.267760
 20
-0.358571
  0
VERTEX
  8
PLAN_1
  6
CONTINUOUS
 10
-0.264697
 20
-0.359079
  0
VERTEX
  8
PLAN_1
  6
CONTINUOUS
 10
-0.261118
 20
-0.358571
  0
VERTEX
  8
PLAN_1
  6
CONTINUOUS
 10
-0.258055
 20
-0.358059
  0
VERTEX
  8
PLAN_1
  6
CONTINUOUS
 10
-0.254988
 20
-0.357547
  0
VERTEX
  8
PLAN_1
  6
CONTINUOUS
 10
-0.251925
 20
-0.356528
  0
VERTEX
  8
PLAN_1
  6
CONTINUOUS
 10
-0.249370
 20
-0.354992
  0
VERTEX
  8
PLAN_1
  6
CONTINUOUS
 10
-0.246815
 20
-0.353461
  0
VERTEX
  8
PLAN_1
  6
CONTINUOUS
 10
-0.244260
 20
-0.351417
  0
VERTEX
  8
PLAN_1
  6
CONTINUOUS
 10
-0.241705
 20
-0.349374
  0
VERTEX
  8
PLAN_1
  6
CONTINUOUS
 10
-0.239661
 20
-0.347331
  0
VERTEX
  8
PLAN_1
  6
CONTINUOUS
 10
-0.238130
 20
-0.344776
  0
VERTEX
  8
PLAN_1
  6
CONTINUOUS
 10
-0.236598
 20
-0.342220
  0
VERTEX
  8
PLAN_1
  6
CONTINUOUS
 10
-0.235063
 20
-0.339157
  0
VERTEX
  8
PLAN_1
  6
CONTINUOUS
 10
-0.234043
 20
-0.336602
  0
VERTEX
  8
PLAN_1
  6
CONTINUOUS
 10
-0.233020
 20
-0.333535
  0
VERTEX
  8
PLAN_1
  6
CONTINUOUS
 10
-0.232512
 20
-0.329961
  0
VERTEX
  8
PLAN_1
  6
CONTINUOUS
 10
-0.232512
 20
-0.326894
  0
VERTEX
  8
PLAN_1
  6
CONTINUOUS
 10
-0.232512
 20
-0.323831
  0
VERTEX
  8
PLAN_1
  6
CONTINUOUS
 10
-0.233020
 20
-0.320252
  0
VERTEX
  8
PLAN_1
  6
CONTINUOUS
 10
-0.234043
 20
-0.317189
  0
VERTEX
  8
PLAN_1
  6
CONTINUOUS
 10
-0.235063
 20
-0.314634
  0
VERTEX
  8
PLAN_1
  6
CONTINUOUS
 10
-0.236598
 20
-0.311567
  0
VERTEX
  8
PLAN_1
  6
CONTINUOUS
 10
-0.238130
 20
-0.309016
  0
VERTEX
  8
PLAN_1
  6
CONTINUOUS
 10
-0.239661
 20
-0.306461
  0
VERTEX
  8
PLAN_1
  6
CONTINUOUS
 10
-0.241705
 20
-0.304417
  0
VERTEX
  8
PLAN_1
  6
CONTINUOUS
 10
-0.244260
 20
-0.302374
  0
VERTEX
  8
PLAN_1
  6
CONTINUOUS
 10
-0.246815
 20
-0.300331
  0
VERTEX
  8
PLAN_1
  6
CONTINUOUS
 10
-0.249370
 20
-0.298795
  0
VERTEX
  8
PLAN_1
  6
CONTINUOUS
 10
-0.251925
 20
-0.297264
  0
VERTEX
  8
PLAN_1
  6
CONTINUOUS
 10
-0.254988
 20
-0.296244
  0
VERTEX
  8
PLAN_1
  6
CONTINUOUS
 10
-0.258055
 20
-0.295732
  0
VERTEX
  8
PLAN_1
  6
CONTINUOUS
 10
-0.261118
 20
-0.295220
  0
VERTEX
  8
PLAN_1
  6
CONTINUOUS
 10
-0.264697
 20
-0.294709
  0
SEQEND
  8
0
  0
POLYLINE
  8
PLAN_1
  6
CONTINUOUS
 66
     1
 40
0.007150
 41
0.007150
  0
VERTEX
  8
PLAN_1
  6
CONTINUOUS
 10
-0.900224
 20
0.885413
  0
VERTEX
  8
PLAN_1
  6
CONTINUOUS
 10
-0.900224
 20
0.921685
  0
SEQEND
  8
0
  0
POLYLINE
  8
PLAN_1
  6
CONTINUOUS
 66
     1
 40
0.007150
 41
0.007150
  0
VERTEX
  8
PLAN_1
  6
CONTINUOUS
 10
-1.373803
 20
0.921685
  0
VERTEX
  8
PLAN_1
  6
CONTINUOUS
 10
-1.373803
 20
0.885413
  0
SEQEND
  8
0
  0
POLYLINE
  8
PLAN_1
  6
CONTINUOUS
 66
     1
 40
0.007150
 41
0.007150
  0
VERTEX
  8
PLAN_1
  6
CONTINUOUS
 10
-1.156173
 20
-0.857185
  0
VERTEX
  8
PLAN_1
  6
CONTINUOUS
 10
-0.908909
 20
-0.813248
  0
VERTEX
  8
PLAN_1
  6
CONTINUOUS
 10
-0.897157
 20
-0.811205
  0
SEQEND
  8
0
  0
POLYLINE
  8
PLAN_1
  6
CONTINUOUS
 66
     1
 40
0.007150
 41
0.007150
  0
VERTEX
  8
PLAN_1
  6
CONTINUOUS
 10
-0.897157
 20
-0.811205
  0
VERTEX
  8
PLAN_1
  6
CONTINUOUS
 10
-0.893071
 20
-0.810181
  0
VERTEX
  8
PLAN_1
  6
CONTINUOUS
 10
-0.889496
 20
-0.808650
  0
VERTEX
  8
PLAN_1
  6
CONTINUOUS
 10
-0.886429
 20
-0.806094
  0
VERTEX
  8
PLAN_1
  6
CONTINUOUS
 10
-0.884386
 20
-0.803031
  0
VERTEX
  8
PLAN_1
  6
CONTINUOUS
 10
-0.882343
 20
-0.799965
  0
VERTEX
  8
PLAN_1
  6
CONTINUOUS
 10
-0.881323
 20
-0.796390
  0
VERTEX
  8
PLAN_1
  6
CONTINUOUS
 10
-0.880811
 20
-0.792303
  0
VERTEX
  8
PLAN_1
  6
CONTINUOUS
 10
-0.880811
 20
-0.788217
  0
VERTEX
  8
PLAN_1
  6
CONTINUOUS
 10
-0.881831
 20
-0.784638
  0
VERTEX
  8
PLAN_1
  6
CONTINUOUS
 10
-0.883874
 20
-0.781063
  0
VERTEX
  8
PLAN_1
  6
CONTINUOUS
 10
-0.886429
 20
-0.777996
  0
VERTEX
  8
PLAN_1
  6
CONTINUOUS
 10
-0.888984
 20
-0.775953
  0
VERTEX
  8
PLAN_1
  6
CONTINUOUS
 10
-0.892559
 20
-0.773909
  0
VERTEX
  8
PLAN_1
  6
CONTINUOUS
 10
-0.896138
 20
-0.772378
  0
VERTEX
  8
PLAN_1
  6
CONTINUOUS
 10
-0.899713
 20
-0.772378
  0
VERTEX
  8
PLAN_1
  6
CONTINUOUS
 10
-0.903799
 20
-0.772378
  0
SEQEND
  8
0
  0
POLYLINE
  8
PLAN_1
  6
CONTINUOUS
 66
     1
 40
0.007150
 41
0.007150
  0
VERTEX
  8
PLAN_1
  6
CONTINUOUS
 10
-0.903799
 20
-0.772378
  0
VERTEX
  8
PLAN_1
  6
CONTINUOUS
 10
-0.916059
 20
-0.774421
  0
VERTEX
  8
PLAN_1
  6
CONTINUOUS
 10
-1.380445
 20
-0.856673
  0
VERTEX
  8
PLAN_1
  6
CONTINUOUS
 10
-1.388110
 20
-0.858205
  0
SEQEND
  8
0
  0
POLYLINE
  8
PLAN_1
  6
CONTINUOUS
 66
     1
 40
0.007150
 41
0.007150
  0
VERTEX
  8
PLAN_1
  6
CONTINUOUS
 10
-1.388110
 20
-0.858205
  0
VERTEX
  8
PLAN_1
  6
CONTINUOUS
 10
-1.392197
 20
-0.859228
  0
VERTEX
  8
PLAN_1
  6
CONTINUOUS
 10
-1.395772
 20
-0.860760
  0
VERTEX
  8
PLAN_1
  6
CONTINUOUS
 10
-1.398327
 20
-0.863315
  0
VERTEX
  8
PLAN_1
  6
CONTINUOUS
 10
-1.400882
 20
-0.866378
  0
VERTEX
  8
PLAN_1
  6
CONTINUOUS
 10
-1.402925
 20
-0.869445
  0
VERTEX
  8
PLAN_1
  6
CONTINUOUS
 10
-1.403945
 20
-0.873020
  0
VERTEX
  8
PLAN_1
  6
CONTINUOUS
 10
-1.404457
 20
-0.877106
  0
VERTEX
  8
PLAN_1
  6
CONTINUOUS
 10
-1.404457
 20
-0.880685
  0
VERTEX
  8
PLAN_1
  6
CONTINUOUS
 10
-1.403437
 20
-0.884772
  0
VERTEX
  8
PLAN_1
  6
CONTINUOUS
 10
-1.401394
 20
-0.888346
  0
VERTEX
  8
PLAN_1
  6
CONTINUOUS
 10
-1.398839
 20
-0.891413
  0
VERTEX
  8
PLAN_1
  6
CONTINUOUS
 10
-1.396283
 20
-0.893457
  0
VERTEX
  8
PLAN_1
  6
CONTINUOUS
 10
-1.392709
 20
-0.895500
  0
VERTEX
  8
PLAN_1
  6
CONTINUOUS
 10
-1.389130
 20
-0.896520
  0
VERTEX
  8
PLAN_1
  6
CONTINUOUS
 10
-1.385555
 20
-0.897031
  0
VERTEX
  8
PLAN_1
  6
CONTINUOUS
 10
-1.381469
 20
-0.897031
  0
SEQEND
  8
0
  0
POLYLINE
  8
PLAN_1
  6
CONTINUOUS
 66
     1
 40
0.007150
 41
0.007150
  0
VERTEX
  8
PLAN_1
  6
CONTINUOUS
 10
-1.274185
 20
-0.533287
  0
VERTEX
  8
PLAN_1
  6
CONTINUOUS
 10
-0.908909
 20
-0.598169
  0
VERTEX
  8
PLAN_1
  6
CONTINUOUS
 10
-0.896646
 20
-0.600213
  0
SEQEND
  8
0
  0
POLYLINE
  8
PLAN_1
  6
CONTINUOUS
 66
     1
 40
0.007150
 41
0.007150
  0
VERTEX
  8
PLAN_1
  6
CONTINUOUS
 10
-0.896646
 20
-0.600213
  0
VERTEX
  8
PLAN_1
  6
CONTINUOUS
 10
-0.893071
 20
-0.601236
  0
VERTEX
  8
PLAN_1
  6
CONTINUOUS
 10
-0.889496
 20
-0.603280
  0
VERTEX
  8
PLAN_1
  6
CONTINUOUS
 10
-0.886429
 20
-0.605323
  0
VERTEX
  8
PLAN_1
  6
CONTINUOUS
 10
-0.883874
 20
-0.608386
  0
VERTEX
  8
PLAN_1
  6
CONTINUOUS
 10
-0.882343
 20
-0.611453
  0
VERTEX
  8
PLAN_1
  6
CONTINUOUS
 10
-0.880811
 20
-0.615539
  0
VERTEX
  8
PLAN_1
  6
CONTINUOUS
 10
-0.880299
 20
-0.619114
  0
VERTEX
  8
PLAN_1
  6
CONTINUOUS
 10
-0.880811
 20
-0.623201
  0
VERTEX
  8
PLAN_1
  6
CONTINUOUS
 10
-0.881831
 20
-0.626780
  0
VERTEX
  8
PLAN_1
  6
CONTINUOUS
 10
-0.883874
 20
-0.630354
  0
VERTEX
  8
PLAN_1
  6
CONTINUOUS
 10
-0.885917
 20
-0.633421
  0
VERTEX
  8
PLAN_1
  6
CONTINUOUS
 10
-0.888984
 20
-0.635972
  0
VERTEX
  8
PLAN_1
  6
CONTINUOUS
 10
-0.892051
 20
-0.638020
  0
VERTEX
  8
PLAN_1
  6
CONTINUOUS
 10
-0.895626
 20
-0.639039
  0
VERTEX
  8
PLAN_1
  6
CONTINUOUS
 10
-0.899713
 20
-0.639551
  0
VERTEX
  8
PLAN_1
  6
CONTINUOUS
 10
-0.903799
 20
-0.639039
  0
SEQEND
  8
0
  0
POLYLINE
  8
PLAN_1
  6
CONTINUOUS
 66
     1
 40
0.007150
 41
0.007150
  0
VERTEX
  8
PLAN_1
  6
CONTINUOUS
 10
-1.013638
 20
-0.619626
  0
VERTEX
  8
PLAN_1
  6
CONTINUOUS
 10
-1.380445
 20
-0.554744
  0
VERTEX
  8
PLAN_1
  6
CONTINUOUS
 10
-1.388110
 20
-0.553724
  0
SEQEND
  8
0
  0
POLYLINE
  8
PLAN_1
  6
CONTINUOUS
 66
     1
 40
0.007150
 41
0.007150
  0
VERTEX
  8
PLAN_1
  6
CONTINUOUS
 10
-1.388110
 20
-0.553724
  0
VERTEX
  8
PLAN_1
  6
CONTINUOUS
 10
-1.392197
 20
-0.552701
  0
VERTEX
  8
PLAN_1
  6
CONTINUOUS
 10
-1.395260
 20
-0.550657
  0
VERTEX
  8
PLAN_1
  6
CONTINUOUS
 10
-1.398327
 20
-0.548102
  0
VERTEX
  8
PLAN_1
  6
CONTINUOUS
 10
-1.400882
 20
-0.545551
  0
VERTEX
  8
PLAN_1
  6
CONTINUOUS
 10
-1.402925
 20
-0.541972
  0
VERTEX
  8
PLAN_1
  6
CONTINUOUS
 10
-1.403945
 20
-0.538398
  0
VERTEX
  8
PLAN_1
  6
CONTINUOUS
 10
-1.404457
 20
-0.534823
  0
VERTEX
  8
PLAN_1
  6
CONTINUOUS
 10
-1.403945
 20
-0.530732
  0
VERTEX
  8
PLAN_1
  6
CONTINUOUS
 10
-1.402925
 20
-0.526646
  0
VERTEX
  8
PLAN_1
  6
CONTINUOUS
 10
-1.401394
 20
-0.523583
  0
VERTEX
  8
PLAN_1
  6
CONTINUOUS
 10
-1.398839
 20
-0.520516
  0
VERTEX
  8
PLAN_1
  6
CONTINUOUS
 10
-1.395772
 20
-0.517961
  0
VERTEX
  8
PLAN_1
  6
CONTINUOUS
 10
-1.392709
 20
-0.515917
  0
VERTEX
  8
PLAN_1
  6
CONTINUOUS
 10
-1.389130
 20
-0.514898
  0
VERTEX
  8
PLAN_1
  6
CONTINUOUS
 10
-1.385043
 20
-0.514386
  0
VERTEX
  8
PLAN_1
  6
CONTINUOUS
 10
-1.381469
 20
-0.514898
  0
SEQEND
  8
0
  0
POLYLINE
  8
PLAN_1
  6
CONTINUOUS
 66
     1
 40
0.007150
 41
0.007150
  0
VERTEX
  8
PLAN_1
  6
CONTINUOUS
 10
-1.017213
 20
-0.791280
  0
VERTEX
  8
PLAN_1
  6
CONTINUOUS
 10
-1.380445
 20
-0.726909
  0
VERTEX
  8
PLAN_1
  6
CONTINUOUS
 10
-1.388110
 20
-0.725890
  0
SEQEND
  8
0
  0
POLYLINE
  8
PLAN_1
  6
CONTINUOUS
 66
     1
 40
0.007150
 41
0.007150
  0
VERTEX
  8
PLAN_1
  6
CONTINUOUS
 10
-1.388110
 20
-0.725890
  0
VERTEX
  8
PLAN_1
  6
CONTINUOUS
 10
-1.392197
 20
-0.724354
  0
VERTEX
  8
PLAN_1
  6
CONTINUOUS
 10
-1.395260
 20
-0.722823
  0
VERTEX
  8
PLAN_1
  6
CONTINUOUS
 10
-1.398327
 20
-0.720268
  0
VERTEX
  8
PLAN_1
  6
CONTINUOUS
 10
-1.400882
 20
-0.717713
  0
VERTEX
  8
PLAN_1
  6
CONTINUOUS
 10
-1.402925
 20
-0.714138
  0
VERTEX
  8
PLAN_1
  6
CONTINUOUS
 10
-1.403945
 20
-0.710563
  0
VERTEX
  8
PLAN_1
  6
CONTINUOUS
 10
-1.404457
 20
-0.706984
  0
VERTEX
  8
PLAN_1
  6
CONTINUOUS
 10
-1.403945
 20
-0.702898
  0
VERTEX
  8
PLAN_1
  6
CONTINUOUS
 10
-1.402925
 20
-0.698811
  0
VERTEX
  8
PLAN_1
  6
CONTINUOUS
 10
-1.401394
 20
-0.695236
  0
VERTEX
  8
PLAN_1
  6
CONTINUOUS
 10
-1.398839
 20
-0.692681
  0
VERTEX
  8
PLAN_1
  6
CONTINUOUS
 10
-1.396283
 20
-0.690126
  0
VERTEX
  8
PLAN_1
  6
CONTINUOUS
 10
-1.392709
 20
-0.688083
  0
VERTEX
  8
PLAN_1
  6
CONTINUOUS
 10
-1.389130
 20
-0.687063
  0
VERTEX
  8
PLAN_1
  6
CONTINUOUS
 10
-1.385043
 20
-0.686551
  0
VERTEX
  8
PLAN_1
  6
CONTINUOUS
 10
-1.381469
 20
-0.686551
  0
SEQEND
  8
0
  0
POLYLINE
  8
PLAN_1
  6
CONTINUOUS
 66
     1
 40
0.007150
 41
0.007150
  0
VERTEX
  8
PLAN_1
  6
CONTINUOUS
 10
-1.274185
 20
-0.705453
  0
VERTEX
  8
PLAN_1
  6
CONTINUOUS
 10
-0.908909
 20
-0.770335
  0
VERTEX
  8
PLAN_1
  6
CONTINUOUS
 10
-0.896646
 20
-0.772378
  0
SEQEND
  8
0
  0
POLYLINE
  8
PLAN_1
  6
CONTINUOUS
 66
     1
 40
0.007150
 41
0.007150
  0
VERTEX
  8
PLAN_1
  6
CONTINUOUS
 10
-0.896646
 20
-0.772378
  0
VERTEX
  8
PLAN_1
  6
CONTINUOUS
 10
-0.893071
 20
-0.773398
  0
VERTEX
  8
PLAN_1
  6
CONTINUOUS
 10
-0.889496
 20
-0.775445
  0
VERTEX
  8
PLAN_1
  6
CONTINUOUS
 10
-0.886429
 20
-0.777488
  0
VERTEX
  8
PLAN_1
  6
CONTINUOUS
 10
-0.883874
 20
-0.780551
  0
VERTEX
  8
PLAN_1
  6
CONTINUOUS
 10
-0.882343
 20
-0.783618
  0
VERTEX
  8
PLAN_1
  6
CONTINUOUS
 10
-0.880811
 20
-0.787193
  0
VERTEX
  8
PLAN_1
  6
CONTINUOUS
 10
-0.880299
 20
-0.791280
  0
VERTEX
  8
PLAN_1
  6
CONTINUOUS
 10
-0.880811
 20
-0.795366
  0
VERTEX
  8
PLAN_1
  6
CONTINUOUS
 10
-0.881831
 20
-0.798945
  0
VERTEX
  8
PLAN_1
  6
CONTINUOUS
 10
-0.883874
 20
-0.802520
  0
VERTEX
  8
PLAN_1
  6
CONTINUOUS
 10
-0.885917
 20
-0.805587
  0
VERTEX
  8
PLAN_1
  6
CONTINUOUS
 10
-0.888984
 20
-0.808138
  0
VERTEX
  8
PLAN_1
  6
CONTINUOUS
 10
-0.892051
 20
-0.809673
  0
VERTEX
  8
PLAN_1
  6
CONTINUOUS
 10
-0.895626
 20
-0.811205
  0
VERTEX
  8
PLAN_1
  6
CONTINUOUS
 10
-0.899713
 20
-0.811717
  0
VERTEX
  8
PLAN_1
  6
CONTINUOUS
 10
-0.903799
 20
-0.811205
  0
SEQEND
  8
0
  0
POLYLINE
  8
PLAN_1
 62
     2
  6
CONTINUOUS
 66
     1
 40
0.004087
 41
0.004087
  0
VERTEX
  8
PLAN_1
 62
     2
  6
CONTINUOUS
 10
-1.499992
 20
2.238720
  0
VERTEX
  8
PLAN_1
 62
     2
  6
CONTINUOUS
 10
-0.955909
 20
2.238720
  0
SEQEND
  8
0
  0
SOLID
  8
PLAN_1
 62
     2
 10
-1.276740
 20
2.238720
 11
-1.336000
 21
2.254555
 12
-1.276740
 22
2.238720
 13
-1.336000
 23
2.222882
  0
POLYLINE
  8
PLAN_1
 62
     2
  6
CONTINUOUS
 66
     1
 40
0.003000
 41
0.003000
  0
VERTEX
  8
PLAN_1
 62
     2
  6
CONTINUOUS
 10
-1.276740
 20
2.238720
  0
VERTEX
  8
PLAN_1
 62
     2
  6
CONTINUOUS
 10
-1.336000
 20
2.254555
  0
VERTEX
  8
PLAN_1
 62
     2
  6
CONTINUOUS
 10
-1.336000
 20
2.222882
  0
VERTEX
  8
PLAN_1
 62
     2
  6
CONTINUOUS
 10
-1.276740
 20
2.238720
  0
SEQEND
  8
0
  0
SOLID
  8
PLAN_1
 62
     2
 10
-0.985539
 20
2.238720
 11
-0.926280
 21
2.254555
 12
-0.985539
 22
2.238720
 13
-0.926280
 23
2.222882
  0
POLYLINE
  8
PLAN_1
 62
     2
  6
CONTINUOUS
 66
     1
 40
0.003000
 41
0.003000
  0
VERTEX
  8
PLAN_1
 62
     2
  6
CONTINUOUS
 10
-0.985539
 20
2.238720
  0
VERTEX
  8
PLAN_1
 62
     2
  6
CONTINUOUS
 10
-0.926280
 20
2.254555
  0
VERTEX
  8
PLAN_1
 62
     2
  6
CONTINUOUS
 10
-0.926280
 20
2.222882
  0
VERTEX
  8
PLAN_1
 62
     2
  6
CONTINUOUS
 10
-0.985539
 20
2.238720
  0
SEQEND
  8
0
  0
POLYLINE
  8
PLAN_1
 62
     2
  6
CONTINUOUS
 66
     1
 40
0.003000
 41
0.003000
  0
VERTEX
  8
PLAN_1
 62
     2
  6
CONTINUOUS
 10
-1.421315
 20
2.326591
  0
VERTEX
  8
PLAN_1
 62
     2
  6
CONTINUOUS
 10
-1.418764
 20
2.323524
  0
VERTEX
  8
PLAN_1
 62
     2
  6
CONTINUOUS
 10
-1.417228
 20
2.319949
  0
VERTEX
  8
PLAN_1
 62
     2
  6
CONTINUOUS
 10
-1.415697
 20
2.316882
  0
VERTEX
  8
PLAN_1
 62
     2
  6
CONTINUOUS
 10
-1.414673
 20
2.313307
  0
VERTEX
  8
PLAN_1
 62
     2
  6
CONTINUOUS
 10
-1.413654
 20
2.309732
  0
VERTEX
  8
PLAN_1
 62
     2
  6
CONTINUOUS
 10
-1.413142
 20
2.306154
  0
VERTEX
  8
PLAN_1
 62
     2
  6
CONTINUOUS
 10
-1.412630
 20
2.303091
  0
VERTEX
  8
PLAN_1
 62
     2
  6
CONTINUOUS
 10
-1.412630
 20
2.299512
  0
VERTEX
  8
PLAN_1
 62
     2
  6
CONTINUOUS
 10
-1.413142
 20
2.293382
  0
VERTEX
  8
PLAN_1
 62
     2
  6
CONTINUOUS
 10
-1.414165
 20
2.286740
  0
VERTEX
  8
PLAN_1
 62
     2
  6
CONTINUOUS
 10
-1.415697
 20
2.283165
  0
VERTEX
  8
PLAN_1
 62
     2
  6
CONTINUOUS
 10
-1.416717
 20
2.280098
  0
VERTEX
  8
PLAN_1
 62
     2
  6
CONTINUOUS
 10
-1.418252
 20
2.277035
  0
VERTEX
  8
PLAN_1
 62
     2
  6
CONTINUOUS
 10
-1.420295
 20
2.273969
  0
VERTEX
  8
PLAN_1
 62
     2
  6
CONTINUOUS
 10
-1.422850
 20
2.270906
  0
VERTEX
  8
PLAN_1
 62
     2
  6
CONTINUOUS
 10
-1.425402
 20
2.268350
  0
VERTEX
  8
PLAN_1
 62
     2
  6
CONTINUOUS
 10
-1.428469
 20
2.266307
  0
VERTEX
  8
PLAN_1
 62
     2
  6
CONTINUOUS
 10
-1.431535
 20
2.264264
  0
VERTEX
  8
PLAN_1
 62
     2
  6
CONTINUOUS
 10
-1.435110
 20
2.262732
  0
VERTEX
  8
PLAN_1
 62
     2
  6
CONTINUOUS
 10
-1.439709
 20
2.261197
  0
VERTEX
  8
PLAN_1
 62
     2
  6
CONTINUOUS
 10
-1.443795
 20
2.260689
  0
VERTEX
  8
PLAN_1
 62
     2
  6
CONTINUOUS
 10
-1.448902
 20
2.260177
  0
VERTEX
  8
PLAN_1
 62
     2
  6
CONTINUOUS
 10
-1.452992
 20
2.260689
  0
VERTEX
  8
PLAN_1
 62
     2
  6
CONTINUOUS
 10
-1.456567
 20
2.261197
  0
VERTEX
  8
PLAN_1
 62
     2
  6
CONTINUOUS
 10
-1.460142
 20
2.261709
  0
VERTEX
  8
PLAN_1
 62
     2
  6
CONTINUOUS
 10
-1.463209
 20
2.262732
  0
VERTEX
  8
PLAN_1
 62
     2
  6
CONTINUOUS
 10
-1.466272
 20
2.264264
  0
VERTEX
  8
PLAN_1
 62
     2
  6
CONTINUOUS
 10
-1.468827
 20
2.265795
  0
VERTEX
  8
PLAN_1
 62
     2
  6
CONTINUOUS
 10
-1.471382
 20
2.267327
  0
VERTEX
  8
PLAN_1
 62
     2
  6
CONTINUOUS
 10
-1.473425
 20
2.269370
  0
VERTEX
  8
PLAN_1
 62
     2
  6
CONTINUOUS
 10
-1.482110
 20
2.260177
  0
VERTEX
  8
PLAN_1
 62
     2
  6
CONTINUOUS
 10
-1.485177
 20
2.263240
  0
VERTEX
  8
PLAN_1
 62
     2
  6
CONTINUOUS
 10
-1.476492
 20
2.272437
  0
VERTEX
  8
PLAN_1
 62
     2
  6
CONTINUOUS
 10
-1.479043
 20
2.275504
  0
VERTEX
  8
PLAN_1
 62
     2
  6
CONTINUOUS
 10
-1.480579
 20
2.279079
  0
VERTEX
  8
PLAN_1
 62
     2
  6
CONTINUOUS
 10
-1.482110
 20
2.282654
  0
VERTEX
  8
PLAN_1
 62
     2
  6
CONTINUOUS
 10
-1.483642
 20
2.285720
  0
VERTEX
  8
PLAN_1
 62
     2
  6
CONTINUOUS
 10
-1.484154
 20
2.289295
  0
VERTEX
  8
PLAN_1
 62
     2
  6
CONTINUOUS
 10
-1.485177
 20
2.292874
  0
VERTEX
  8
PLAN_1
 62
     2
  6
CONTINUOUS
 10
-1.485177
 20
2.296449
  0
VERTEX
  8
PLAN_1
 62
     2
  6
CONTINUOUS
 10
-1.485685
 20
2.299512
  0
VERTEX
  8
PLAN_1
 62
     2
  6
CONTINUOUS
 10
-1.485177
 20
2.306154
  0
VERTEX
  8
PLAN_1
 62
     2
  6
CONTINUOUS
 10
-1.483642
 20
2.312795
  0
VERTEX
  8
PLAN_1
 62
     2
  6
CONTINUOUS
 10
-1.482622
 20
2.315862
  0
VERTEX
  8
PLAN_1
 62
     2
  6
CONTINUOUS
 10
-1.481091
 20
2.319437
  0
VERTEX
  8
PLAN_1
 62
     2
  6
CONTINUOUS
 10
-1.479555
 20
2.322504
  0
VERTEX
  8
PLAN_1
 62
     2
  6
CONTINUOUS
 10
-1.477512
 20
2.325567
  0
VERTEX
  8
PLAN_1
 62
     2
  6
CONTINUOUS
 10
-1.475469
 20
2.328122
  0
VERTEX
  8
PLAN_1
 62
     2
  6
CONTINUOUS
 10
-1.472913
 20
2.330677
  0
VERTEX
  8
PLAN_1
 62
     2
  6
CONTINUOUS
 10
-1.469850
 20
2.333232
  0
VERTEX
  8
PLAN_1
 62
     2
  6
CONTINUOUS
 10
-1.466272
 20
2.335276
  0
VERTEX
  8
PLAN_1
 62
     2
  6
CONTINUOUS
 10
-1.462697
 20
2.336807
  0
VERTEX
  8
PLAN_1
 62
     2
  6
CONTINUOUS
 10
-1.458610
 20
2.337831
  0
VERTEX
  8
PLAN_1
 62
     2
  6
CONTINUOUS
 10
-1.454012
 20
2.338850
  0
VERTEX
  8
PLAN_1
 62
     2
  6
CONTINUOUS
 10
-1.448902
 20
2.338850
  0
VERTEX
  8
PLAN_1
 62
     2
  6
CONTINUOUS
 10
-1.444815
 20
2.338850
  0
VERTEX
  8
PLAN_1
 62
     2
  6
CONTINUOUS
 10
-1.441240
 20
2.338339
  0
VERTEX
  8
PLAN_1
 62
     2
  6
CONTINUOUS
 10
-1.437665
 20
2.337319
  0
VERTEX
  8
PLAN_1
 62
     2
  6
CONTINUOUS
 10
-1.434598
 20
2.336295
  0
VERTEX
  8
PLAN_1
 62
     2
  6
CONTINUOUS
 10
-1.431535
 20
2.335276
  0
VERTEX
  8
PLAN_1
 62
     2
  6
CONTINUOUS
 10
-1.428980
 20
2.333744
  0
VERTEX
  8
PLAN_1
 62
     2
  6
CONTINUOUS
 10
-1.426425
 20
2.331697
  0
VERTEX
  8
PLAN_1
 62
     2
  6
CONTINUOUS
 10
-1.424382
 20
2.329654
  0
VERTEX
  8
PLAN_1
 62
     2
  6
CONTINUOUS
 10
-1.415697
 20
2.338850
  0
VERTEX
  8
PLAN_1
 62
     2
  6
CONTINUOUS
 10
-1.412630
 20
2.335787
  0
VERTEX
  8
PLAN_1
 62
     2
  6
CONTINUOUS
 10
-1.421315
 20
2.326591
  0
SEQEND
  8
0
  0
POLYLINE
  8
PLAN_1
 62
     2
  6
CONTINUOUS
 66
     1
 40
0.003000
 41
0.003000
  0
VERTEX
  8
PLAN_1
 62
     2
  6
CONTINUOUS
 10
-1.466783
 20
2.276524
  0
VERTEX
  8
PLAN_1
 62
     2
  6
CONTINUOUS
 10
-1.465252
 20
2.274992
  0
VERTEX
  8
PLAN_1
 62
     2
  6
CONTINUOUS
 10
-1.463209
 20
2.273461
  0
VERTEX
  8
PLAN_1
 62
     2
  6
CONTINUOUS
 10
-1.461165
 20
2.272437
  0
VERTEX
  8
PLAN_1
 62
     2
  6
CONTINUOUS
 10
-1.459122
 20
2.271417
  0
VERTEX
  8
PLAN_1
 62
     2
  6
CONTINUOUS
 10
-1.457079
 20
2.270394
  0
VERTEX
  8
PLAN_1
 62
     2
  6
CONTINUOUS
 10
-1.454524
 20
2.269882
  0
VERTEX
  8
PLAN_1
 62
     2
  6
CONTINUOUS
 10
-1.451969
 20
2.269370
  0
VERTEX
  8
PLAN_1
 62
     2
  6
CONTINUOUS
 10
-1.448902
 20
2.269370
  0
VERTEX
  8
PLAN_1
 62
     2
  6
CONTINUOUS
 10
-1.445839
 20
2.269370
  0
VERTEX
  8
PLAN_1
 62
     2
  6
CONTINUOUS
 10
-1.443283
 20
2.269882
  0
VERTEX
  8
PLAN_1
 62
     2
  6
CONTINUOUS
 10
-1.440728
 20
2.270394
  0
VERTEX
  8
PLAN_1
 62
     2
  6
CONTINUOUS
 10
-1.438173
 20
2.271417
  0
VERTEX
  8
PLAN_1
 62
     2
  6
CONTINUOUS
 10
-1.435622
 20
2.272949
  0
VERTEX
  8
PLAN_1
 62
     2
  6
CONTINUOUS
 10
-1.433579
 20
2.274480
  0
VERTEX
  8
PLAN_1
 62
     2
  6
CONTINUOUS
 10
-1.431535
 20
2.276012
  0
VERTEX
  8
PLAN_1
 62
     2
  6
CONTINUOUS
 10
-1.430000
 20
2.278055
  0
VERTEX
  8
PLAN_1
 62
     2
  6
CONTINUOUS
 10
-1.428469
 20
2.280098
  0
VERTEX
  8
PLAN_1
 62
     2
  6
CONTINUOUS
 10
-1.426937
 20
2.282146
  0
VERTEX
  8
PLAN_1
 62
     2
  6
CONTINUOUS
 10
-1.425913
 20
2.284697
  0
VERTEX
  8
PLAN_1
 62
     2
  6
CONTINUOUS
 10
-1.424894
 20
2.287764
  0
VERTEX
  8
PLAN_1
 62
     2
  6
CONTINUOUS
 10
-1.423358
 20
2.293382
  0
VERTEX
  8
PLAN_1
 62
     2
  6
CONTINUOUS
 10
-1.422850
 20
2.299512
  0
VERTEX
  8
PLAN_1
 62
     2
  6
CONTINUOUS
 10
-1.423358
 20
2.302579
  0
VERTEX
  8
PLAN_1
 62
     2
  6
CONTINUOUS
 10
-1.423358
 20
2.305134
  0
VERTEX
  8
PLAN_1
 62
     2
  6
CONTINUOUS
 10
-1.423870
 20
2.307689
  0
VERTEX
  8
PLAN_1
 62
     2
  6
CONTINUOUS
 10
-1.424382
 20
2.310240
  0
VERTEX
  8
PLAN_1
 62
     2
  6
CONTINUOUS
 10
-1.424894
 20
2.312795
  0
VERTEX
  8
PLAN_1
 62
     2
  6
CONTINUOUS
 10
-1.425913
 20
2.314839
  0
VERTEX
  8
PLAN_1
 62
     2
  6
CONTINUOUS
 10
-1.426937
 20
2.316882
  0
VERTEX
  8
PLAN_1
 62
     2
  6
CONTINUOUS
 10
-1.427957
 20
2.318925
  0
VERTEX
  8
PLAN_1
 62
     2
  6
CONTINUOUS
 10
-1.466783
 20
2.276524
  0
SEQEND
  8
0
  0
POLYLINE
  8
PLAN_1
 62
     2
  6
CONTINUOUS
 66
     1
 40
0.003000
 41
0.003000
  0
VERTEX
  8
PLAN_1
 62
     2
  6
CONTINUOUS
 10
-1.431024
 20
2.322504
  0
VERTEX
  8
PLAN_1
 62
     2
  6
CONTINUOUS
 10
-1.432555
 20
2.324035
  0
VERTEX
  8
PLAN_1
 62
     2
  6
CONTINUOUS
 10
-1.434598
 20
2.325567
  0
VERTEX
  8
PLAN_1
 62
     2
  6
CONTINUOUS
 10
-1.436642
 20
2.327102
  0
VERTEX
  8
PLAN_1
 62
     2
  6
CONTINUOUS
 10
-1.438685
 20
2.328122
  0
VERTEX
  8
PLAN_1
 62
     2
  6
CONTINUOUS
 10
-1.441240
 20
2.329146
  0
VERTEX
  8
PLAN_1
 62
     2
  6
CONTINUOUS
 10
-1.443795
 20
2.329654
  0
VERTEX
  8
PLAN_1
 62
     2
  6
CONTINUOUS
 10
-1.446350
 20
2.330165
  0
VERTEX
  8
PLAN_1
 62
     2
  6
CONTINUOUS
 10
-1.448902
 20
2.330165
  0
VERTEX
  8
PLAN_1
 62
     2
  6
CONTINUOUS
 10
-1.451969
 20
2.330165
  0
VERTEX
  8
PLAN_1
 62
     2
  6
CONTINUOUS
 10
-1.455035
 20
2.329654
  0
VERTEX
  8
PLAN_1
 62
     2
  6
CONTINUOUS
 10
-1.457587
 20
2.328634
  0
VERTEX
  8
PLAN_1
 62
     2
  6
CONTINUOUS
 10
-1.460142
 20
2.327610
  0
VERTEX
  8
PLAN_1
 62
     2
  6
CONTINUOUS
 10
-1.462185
 20
2.326591
  0
VERTEX
  8
PLAN_1
 62
     2
  6
CONTINUOUS
 10
-1.464228
 20
2.325059
  0
VERTEX
  8
PLAN_1
 62
     2
  6
CONTINUOUS
 10
-1.466272
 20
2.323524
  0
VERTEX
  8
PLAN_1
 62
     2
  6
CONTINUOUS
 10
-1.468315
 20
2.321480
  0
VERTEX
  8
PLAN_1
 62
     2
  6
CONTINUOUS
 10
-1.469850
 20
2.319437
  0
VERTEX
  8
PLAN_1
 62
     2
  6
CONTINUOUS
 10
-1.470870
 20
2.316882
  0
VERTEX
  8
PLAN_1
 62
     2
  6
CONTINUOUS
 10
-1.472406
 20
2.314331
  0
VERTEX
  8
PLAN_1
 62
     2
  6
CONTINUOUS
 10
-1.473425
 20
2.311776
  0
VERTEX
  8
PLAN_1
 62
     2
  6
CONTINUOUS
 10
-1.474449
 20
2.306154
  0
VERTEX
  8
PLAN_1
 62
     2
  6
CONTINUOUS
 10
-1.474957
 20
2.299512
  0
VERTEX
  8
PLAN_1
 62
     2
  6
CONTINUOUS
 10
-1.474957
 20
2.296961
  0
VERTEX
  8
PLAN_1
 62
     2
  6
CONTINUOUS
 10
-1.474957
 20
2.294406
  0
VERTEX
  8
PLAN_1
 62
     2
  6
CONTINUOUS
 10
-1.474449
 20
2.291339
  0
VERTEX
  8
PLAN_1
 62
     2
  6
CONTINUOUS
 10
-1.473937
 20
2.289295
  0
VERTEX
  8
PLAN_1
 62
     2
  6
CONTINUOUS
 10
-1.472913
 20
2.286740
  0
VERTEX
  8
PLAN_1
 62
     2
  6
CONTINUOUS
 10
-1.471894
 20
2.284189
  0
VERTEX
  8
PLAN_1
 62
     2
  6
CONTINUOUS
 10
-1.470870
 20
2.282146
  0
VERTEX
  8
PLAN_1
 62
     2
  6
CONTINUOUS
 10
-1.469850
 20
2.280098
  0
VERTEX
  8
PLAN_1
 62
     2
  6
CONTINUOUS
 10
-1.431024
 20
2.322504
  0
SEQEND
  8
0
  0
POLYLINE
  8
PLAN_1
 62
     2
  6
CONTINUOUS
 66
     1
 40
0.003000
 41
0.003000
  0
VERTEX
  8
PLAN_1
 62
     2
  6
CONTINUOUS
 10
-1.366654
 20
2.301047
  0
VERTEX
  8
PLAN_1
 62
     2
  6
CONTINUOUS
 10
-1.363075
 20
2.299512
  0
VERTEX
  8
PLAN_1
 62
     2
  6
CONTINUOUS
 10
-1.360524
 20
2.297469
  0
VERTEX
  8
PLAN_1
 62
     2
  6
CONTINUOUS
 10
-1.358480
 20
2.295425
  0
VERTEX
  8
PLAN_1
 62
     2
  6
CONTINUOUS
 10
-1.356945
 20
2.292874
  0
VERTEX
  8
PLAN_1
 62
     2
  6
CONTINUOUS
 10
-1.355925
 20
2.290319
  0
VERTEX
  8
PLAN_1
 62
     2
  6
CONTINUOUS
 10
-1.355413
 20
2.287764
  0
VERTEX
  8
PLAN_1
 62
     2
  6
CONTINUOUS
 10
-1.354902
 20
2.285720
  0
VERTEX
  8
PLAN_1
 62
     2
  6
CONTINUOUS
 10
-1.354902
 20
2.283677
  0
VERTEX
  8
PLAN_1
 62
     2
  6
CONTINUOUS
 10
-1.354902
 20
2.279079
  0
VERTEX
  8
PLAN_1
 62
     2
  6
CONTINUOUS
 10
-1.355925
 20
2.274992
  0
VERTEX
  8
PLAN_1
 62
     2
  6
CONTINUOUS
 10
-1.357969
 20
2.270906
  0
VERTEX
  8
PLAN_1
 62
     2
  6
CONTINUOUS
 10
-1.360524
 20
2.267327
  0
VERTEX
  8
PLAN_1
 62
     2
  6
CONTINUOUS
 10
-1.362055
 20
2.265795
  0
VERTEX
  8
PLAN_1
 62
     2
  6
CONTINUOUS
 10
-1.364098
 20
2.264776
  0
VERTEX
  8
PLAN_1
 62
     2
  6
CONTINUOUS
 10
-1.366142
 20
2.263240
  0
VERTEX
  8
PLAN_1
 62
     2
  6
CONTINUOUS
 10
-1.368185
 20
2.262220
  0
VERTEX
  8
PLAN_1
 62
     2
  6
CONTINUOUS
 10
-1.370740
 20
2.261709
  0
VERTEX
  8
PLAN_1
 62
     2
  6
CONTINUOUS
 10
-1.373295
 20
2.260689
  0
VERTEX
  8
PLAN_1
 62
     2
  6
CONTINUOUS
 10
-1.376358
 20
2.260689
  0
VERTEX
  8
PLAN_1
 62
     2
  6
CONTINUOUS
 10
-1.379425
 20
2.260177
  0
VERTEX
  8
PLAN_1
 62
     2
  6
CONTINUOUS
 10
-1.380957
 20
2.260177
  0
VERTEX
  8
PLAN_1
 62
     2
  6
CONTINUOUS
 10
-1.383000
 20
2.260689
  0
VERTEX
  8
PLAN_1
 62
     2
  6
CONTINUOUS
 10
-1.385043
 20
2.260689
  0
VERTEX
  8
PLAN_1
 62
     2
  6
CONTINUOUS
 10
-1.387598
 20
2.261709
  0
VERTEX
  8
PLAN_1
 62
     2
  6
CONTINUOUS
 10
-1.390154
 20
2.262220
  0
VERTEX
  8
PLAN_1
 62
     2
  6
CONTINUOUS
 10
-1.392197
 20
2.263240
  0
VERTEX
  8
PLAN_1
 62
     2
  6
CONTINUOUS
 10
-1.394752
 20
2.264264
  0
VERTEX
  8
PLAN_1
 62
     2
  6
CONTINUOUS
 10
-1.397303
 20
2.265795
  0
VERTEX
  8
PLAN_1
 62
     2
  6
CONTINUOUS
 10
-1.399350
 20
2.268350
  0
VERTEX
  8
PLAN_1
 62
     2
  6
CONTINUOUS
 10
-1.401394
 20
2.270906
  0
VERTEX
  8
PLAN_1
 62
     2
  6
CONTINUOUS
 10
-1.402925
 20
2.272949
  0
VERTEX
  8
PLAN_1
 62
     2
  6
CONTINUOUS
 10
-1.403437
 20
2.275504
  0
VERTEX
  8
PLAN_1
 62
     2
  6
CONTINUOUS
 10
-1.403945
 20
2.278055
  0
VERTEX
  8
PLAN_1
 62
     2
  6
CONTINUOUS
 10
-1.404457
 20
2.280098
  0
VERTEX
  8
PLAN_1
 62
     2
  6
CONTINUOUS
 10
-1.404457
 20
2.281634
  0
VERTEX
  8
PLAN_1
 62
     2
  6
CONTINUOUS
 10
-1.404457
 20
2.283165
  0
VERTEX
  8
PLAN_1
 62
     2
  6
CONTINUOUS
 10
-1.404457
 20
2.286740
  0
VERTEX
  8
PLAN_1
 62
     2
  6
CONTINUOUS
 10
-1.403945
 20
2.289295
  0
VERTEX
  8
PLAN_1
 62
     2
  6
CONTINUOUS
 10
-1.402413
 20
2.291850
  0
VERTEX
  8
PLAN_1
 62
     2
  6
CONTINUOUS
 10
-1.401394
 20
2.294406
  0
VERTEX
  8
PLAN_1
 62
     2
  6
CONTINUOUS
 10
-1.399350
 20
2.296449
  0
VERTEX
  8
PLAN_1
 62
     2
  6
CONTINUOUS
 10
-1.397303
 20
2.298492
  0
VERTEX
  8
PLAN_1
 62
     2
  6
CONTINUOUS
 10
-1.394752
 20
2.300024
  0
VERTEX
  8
PLAN_1
 62
     2
  6
CONTINUOUS
 10
-1.392197
 20
2.301047
  0
VERTEX
  8
PLAN_1
 62
     2
  6
CONTINUOUS
 10
-1.394240
 20
2.302067
  0
VERTEX
  8
PLAN_1
 62
     2
  6
CONTINUOUS
 10
-1.396283
 20
2.303602
  0
VERTEX
  8
PLAN_1
 62
     2
  6
CONTINUOUS
 10
-1.397815
 20
2.305134
  0
VERTEX
  8
PLAN_1
 62
     2
  6
CONTINUOUS
 10
-1.399350
 20
2.306665
  0
VERTEX
  8
PLAN_1
 62
     2
  6
CONTINUOUS
 10
-1.400370
 20
2.308709
  0
VERTEX
  8
PLAN_1
 62
     2
  6
CONTINUOUS
 10
-1.401394
 20
2.310752
  0
VERTEX
  8
PLAN_1
 62
     2
  6
CONTINUOUS
 10
-1.401902
 20
2.312795
  0
VERTEX
  8
PLAN_1
 62
     2
  6
CONTINUOUS
 10
-1.401902
 20
2.315350
  0
VERTEX
  8
PLAN_1
 62
     2
  6
CONTINUOUS
 10
-1.401902
 20
2.318417
  0
VERTEX
  8
PLAN_1
 62
     2
  6
CONTINUOUS
 10
-1.400882
 20
2.321480
  0
VERTEX
  8
PLAN_1
 62
     2
  6
CONTINUOUS
 10
-1.399858
 20
2.325059
  0
VERTEX
  8
PLAN_1
 62
     2
  6
CONTINUOUS
 10
-1.397303
 20
2.328122
  0
VERTEX
  8
PLAN_1
 62
     2
  6
CONTINUOUS
 10
-1.394752
 20
2.331189
  0
VERTEX
  8
PLAN_1
 62
     2
  6
CONTINUOUS
 10
-1.390665
 20
2.333232
  0
VERTEX
  8
PLAN_1
 62
     2
  6
CONTINUOUS
 10
-1.388622
 20
2.334252
  0
VERTEX
  8
PLAN_1
 62
     2
  6
CONTINUOUS
 10
-1.386067
 20
2.334764
  0
VERTEX
  8
PLAN_1
 62
     2
  6
CONTINUOUS
 10
-1.383000
 20
2.335276
  0
VERTEX
  8
PLAN_1
 62
     2
  6
CONTINUOUS
 10
-1.379937
 20
2.335276
  0
VERTEX
  8
PLAN_1
 62
     2
  6
CONTINUOUS
 10
-1.374315
 20
2.335276
  0
VERTEX
  8
PLAN_1
 62
     2
  6
CONTINUOUS
 10
-1.369717
 20
2.333744
  0
VERTEX
  8
PLAN_1
 62
     2
  6
CONTINUOUS
 10
-1.365630
 20
2.331697
  0
VERTEX
  8
PLAN_1
 62
     2
  6
CONTINUOUS
 10
-1.362567
 20
2.329146
  0
VERTEX
  8
PLAN_1
 62
     2
  6
CONTINUOUS
 10
-1.360012
 20
2.326591
  0
VERTEX
  8
PLAN_1
 62
     2
  6
CONTINUOUS
 10
-1.358480
 20
2.323016
  0
VERTEX
  8
PLAN_1
 62
     2
  6
CONTINUOUS
 10
-1.357457
 20
2.319949
  0
VERTEX
  8
PLAN_1
 62
     2
  6
CONTINUOUS
 10
-1.357457
 20
2.316882
  0
VERTEX
  8
PLAN_1
 62
     2
  6
CONTINUOUS
 10
-1.357457
 20
2.312795
  0
VERTEX
  8
PLAN_1
 62
     2
  6
CONTINUOUS
 10
-1.358480
 20
2.310240
  0
VERTEX
  8
PLAN_1
 62
     2
  6
CONTINUOUS
 10
-1.359500
 20
2.307689
  0
VERTEX
  8
PLAN_1
 62
     2
  6
CONTINUOUS
 10
-1.361031
 20
2.305646
  0
VERTEX
  8
PLAN_1
 62
     2
  6
CONTINUOUS
 10
-1.362055
 20
2.304110
  0
VERTEX
  8
PLAN_1
 62
     2
  6
CONTINUOUS
 10
-1.364098
 20
2.303091
  0
VERTEX
  8
PLAN_1
 62
     2
  6
CONTINUOUS
 10
-1.365118
 20
2.302067
  0
VERTEX
  8
PLAN_1
 62
     2
  6
CONTINUOUS
 10
-1.366654
 20
2.301047
  0
SEQEND
  8
0
  0
POLYLINE
  8
PLAN_1
 62
     2
  6
CONTINUOUS
 66
     1
 40
0.003000
 41
0.003000
  0
VERTEX
  8
PLAN_1
 62
     2
  6
CONTINUOUS
 10
-1.394752
 20
2.283165
  0
VERTEX
  8
PLAN_1
 62
     2
  6
CONTINUOUS
 10
-1.394752
 20
2.280610
  0
VERTEX
  8
PLAN_1
 62
     2
  6
CONTINUOUS
 10
-1.394240
 20
2.278567
  0
VERTEX
  8
PLAN_1
 62
     2
  6
CONTINUOUS
 10
-1.393217
 20
2.276012
  0
VERTEX
  8
PLAN_1
 62
     2
  6
CONTINUOUS
 10
-1.391685
 20
2.273461
  0
VERTEX
  8
PLAN_1
 62
     2
  6
CONTINUOUS
 10
-1.389642
 20
2.271417
  0
VERTEX
  8
PLAN_1
 62
     2
  6
CONTINUOUS
 10
-1.387087
 20
2.269882
  0
VERTEX
  8
PLAN_1
 62
     2
  6
CONTINUOUS
 10
-1.383512
 20
2.268862
  0
VERTEX
  8
PLAN_1
 62
     2
  6
CONTINUOUS
 10
-1.378913
 20
2.268350
  0
VERTEX
  8
PLAN_1
 62
     2
  6
CONTINUOUS
 10
-1.376870
 20
2.268862
  0
VERTEX
  8
PLAN_1
 62
     2
  6
CONTINUOUS
 10
-1.374315
 20
2.269370
  0
VERTEX
  8
PLAN_1
 62
     2
  6
CONTINUOUS
 10
-1.371760
 20
2.269882
  0
VERTEX
  8
PLAN_1
 62
     2
  6
CONTINUOUS
 10
-1.369209
 20
2.271417
  0
VERTEX
  8
PLAN_1
 62
     2
  6
CONTINUOUS
 10
-1.367165
 20
2.272949
  0
VERTEX
  8
PLAN_1
 62
     2
  6
CONTINUOUS
 10
-1.365630
 20
2.275504
  0
VERTEX
  8
PLAN_1
 62
     2
  6
CONTINUOUS
 10
-1.364610
 20
2.278567
  0
VERTEX
  8
PLAN_1
 62
     2
  6
CONTINUOUS
 10
-1.364610
 20
2.282654
  0
VERTEX
  8
PLAN_1
 62
     2
  6
CONTINUOUS
 10
-1.364610
 20
2.285720
  0
VERTEX
  8
PLAN_1
 62
     2
  6
CONTINUOUS
 10
-1.365630
 20
2.288783
  0
VERTEX
  8
PLAN_1
 62
     2
  6
CONTINUOUS
 10
-1.367165
 20
2.291339
  0
VERTEX
  8
PLAN_1
 62
     2
  6
CONTINUOUS
 10
-1.369209
 20
2.293382
  0
VERTEX
  8
PLAN_1
 62
     2
  6
CONTINUOUS
 10
-1.371252
 20
2.294917
  0
VERTEX
  8
PLAN_1
 62
     2
  6
CONTINUOUS
 10
-1.373803
 20
2.295937
  0
VERTEX
  8
PLAN_1
 62
     2
  6
CONTINUOUS
 10
-1.376870
 20
2.296449
  0
VERTEX
  8
PLAN_1
 62
     2
  6
CONTINUOUS
 10
-1.379425
 20
2.296449
  0
VERTEX
  8
PLAN_1
 62
     2
  6
CONTINUOUS
 10
-1.383512
 20
2.296449
  0
VERTEX
  8
PLAN_1
 62
     2
  6
CONTINUOUS
 10
-1.386575
 20
2.295425
  0
VERTEX
  8
PLAN_1
 62
     2
  6
CONTINUOUS
 10
-1.389130
 20
2.294406
  0
VERTEX
  8
PLAN_1
 62
     2
  6
CONTINUOUS
 10
-1.391173
 20
2.292362
  0
VERTEX
  8
PLAN_1
 62
     2
  6
CONTINUOUS
 10
-1.392709
 20
2.290319
  0
VERTEX
  8
PLAN_1
 62
     2
  6
CONTINUOUS
 10
-1.393728
 20
2.288276
  0
VERTEX
  8
PLAN_1
 62
     2
  6
CONTINUOUS
 10
-1.394752
 20
2.285720
  0
VERTEX
  8
PLAN_1
 62
     2
  6
CONTINUOUS
 10
-1.394752
 20
2.283165
  0
SEQEND
  8
0
  0
POLYLINE
  8
PLAN_1
 62
     2
  6
CONTINUOUS
 66
     1
 40
0.003000
 41
0.003000
  0
VERTEX
  8
PLAN_1
 62
     2
  6
CONTINUOUS
 10
-1.366654
 20
2.316374
  0
VERTEX
  8
PLAN_1
 62
     2
  6
CONTINUOUS
 10
-1.367165
 20
2.317906
  0
VERTEX
  8
PLAN_1
 62
     2
  6
CONTINUOUS
 10
-1.367165
 20
2.319949
  0
VERTEX
  8
PLAN_1
 62
     2
  6
CONTINUOUS
 10
-1.368185
 20
2.321992
  0
VERTEX
  8
PLAN_1
 62
     2
  6
CONTINUOUS
 10
-1.369717
 20
2.323524
  0
VERTEX
  8
PLAN_1
 62
     2
  6
CONTINUOUS
 10
-1.371252
 20
2.325059
  0
VERTEX
  8
PLAN_1
 62
     2
  6
CONTINUOUS
 10
-1.373803
 20
2.326079
  0
VERTEX
  8
PLAN_1
 62
     2
  6
CONTINUOUS
 10
-1.376870
 20
2.327102
  0
VERTEX
  8
PLAN_1
 62
     2
  6
CONTINUOUS
 10
-1.380445
 20
2.327102
  0
VERTEX
  8
PLAN_1
 62
     2
  6
CONTINUOUS
 10
-1.383512
 20
2.327102
  0
VERTEX
  8
PLAN_1
 62
     2
  6
CONTINUOUS
 10
-1.386575
 20
2.326079
  0
VERTEX
  8
PLAN_1
 62
     2
  6
CONTINUOUS
 10
-1.388622
 20
2.325059
  0
VERTEX
  8
PLAN_1
 62
     2
  6
CONTINUOUS
 10
-1.390154
 20
2.323524
  0
VERTEX
  8
PLAN_1
 62
     2
  6
CONTINUOUS
 10
-1.391173
 20
2.321480
  0
VERTEX
  8
PLAN_1
 62
     2
  6
CONTINUOUS
 10
-1.392197
 20
2.319437
  0
VERTEX
  8
PLAN_1
 62
     2
  6
CONTINUOUS
 10
-1.392709
 20
2.317394
  0
VERTEX
  8
PLAN_1
 62
     2
  6
CONTINUOUS
 10
-1.392709
 20
2.315862
  0
VERTEX
  8
PLAN_1
 62
     2
  6
CONTINUOUS
 10
-1.392197
 20
2.313307
  0
VERTEX
  8
PLAN_1
 62
     2
  6
CONTINUOUS
 10
-1.391685
 20
2.311264
  0
VERTEX
  8
PLAN_1
 62
     2
  6
CONTINUOUS
 10
-1.390154
 20
2.309220
  0
VERTEX
  8
PLAN_1
 62
     2
  6
CONTINUOUS
 10
-1.388622
 20
2.307689
  0
VERTEX
  8
PLAN_1
 62
     2
  6
CONTINUOUS
 10
-1.386575
 20
2.306154
  0
VERTEX
  8
PLAN_1
 62
     2
  6
CONTINUOUS
 10
-1.384531
 20
2.305134
  0
VERTEX
  8
PLAN_1
 62
     2
  6
CONTINUOUS
 10
-1.382488
 20
2.304622
  0
VERTEX
  8
PLAN_1
 62
     2
  6
CONTINUOUS
 10
-1.379937
 20
2.304622
  0
VERTEX
  8
PLAN_1
 62
     2
  6
CONTINUOUS
 10
-1.376870
 20
2.304622
  0
VERTEX
  8
PLAN_1
 62
     2
  6
CONTINUOUS
 10
-1.374315
 20
2.305646
  0
VERTEX
  8
PLAN_1
 62
     2
  6
CONTINUOUS
 10
-1.372272
 20
2.306665
  0
VERTEX
  8
PLAN_1
 62
     2
  6
CONTINUOUS
 10
-1.370228
 20
2.308197
  0
VERTEX
  8
PLAN_1
 62
     2
  6
CONTINUOUS
 10
-1.368697
 20
2.309732
  0
VERTEX
  8
PLAN_1
 62
     2
  6
CONTINUOUS
 10
-1.367673
 20
2.311776
  0
VERTEX
  8
PLAN_1
 62
     2
  6
CONTINUOUS
 10
-1.367165
 20
2.313819
  0
VERTEX
  8
PLAN_1
 62
     2
  6
CONTINUOUS
 10
-1.366654
 20
2.316374
  0
SEQEND
  8
0
  0
POLYLINE
  8
PLAN_1
 62
     2
  6
CONTINUOUS
 66
     1
 40
0.004087
 41
0.004087
  0
VERTEX
  8
PLAN_1
 62
     2
  6
CONTINUOUS
 10
0.203268
 20
-0.299819
  0
VERTEX
  8
PLAN_1
 62
     2
  6
CONTINUOUS
 10
0.203268
 20
4.051303
  0
SEQEND
  8
0
  0
SOLID
  8
PLAN_1
 62
     2
 10
0.203268
 20
4.080425
 11
0.187429
 21
4.021673
 12
0.203268
 22
4.080425
 13
0.219102
 23
4.021673
  0
POLYLINE
  8
PLAN_1
 62
     2
  6
CONTINUOUS
 66
     1
 40
0.003000
 41
0.003000
  0
VERTEX
  8
PLAN_1
 62
     2
  6
CONTINUOUS
 10
0.203268
 20
4.080425
  0
VERTEX
  8
PLAN_1
 62
     2
  6
CONTINUOUS
 10
0.187429
 20
4.021673
  0
VERTEX
  8
PLAN_1
 62
     2
  6
CONTINUOUS
 10
0.219102
 20
4.021673
  0
VERTEX
  8
PLAN_1
 62
     2
  6
CONTINUOUS
 10
0.203268
 20
4.080425
  0
SEQEND
  8
0
  0
SOLID
  8
PLAN_1
 62
     2
 10
0.203268
 20
-0.328937
 11
0.187429
 21
-0.270189
 12
0.203268
 22
-0.328937
 13
0.219102
 23
-0.270189
  0
POLYLINE
  8
PLAN_1
 62
     2
  6
CONTINUOUS
 66
     1
 40
0.003000
 41
0.003000
  0
VERTEX
  8
PLAN_1
 62
     2
  6
CONTINUOUS
 10
0.203268
 20
-0.328937
  0
VERTEX
  8
PLAN_1
 62
     2
  6
CONTINUOUS
 10
0.187429
 20
-0.270189
  0
VERTEX
  8
PLAN_1
 62
     2
  6
CONTINUOUS
 10
0.219102
 20
-0.270189
  0
VERTEX
  8
PLAN_1
 62
     2
  6
CONTINUOUS
 10
0.203268
 20
-0.328937
  0
SEQEND
  8
0
  0
POLYLINE
  8
PLAN_1
 62
     2
  6
CONTINUOUS
 66
     1
 40
0.003000
 41
0.003000
  0
VERTEX
  8
PLAN_1
 62
     2
  6
CONTINUOUS
 10
0.179768
 20
1.826445
  0
VERTEX
  8
PLAN_1
 62
     2
  6
CONTINUOUS
 10
0.179768
 20
1.816224
  0
VERTEX
  8
PLAN_1
 62
     2
  6
CONTINUOUS
 10
0.127657
 20
1.816224
  0
VERTEX
  8
PLAN_1
 62
     2
  6
CONTINUOUS
 10
0.127657
 20
1.799366
  0
VERTEX
  8
PLAN_1
 62
     2
  6
CONTINUOUS
 10
0.120504
 20
1.799366
  0
VERTEX
  8
PLAN_1
 62
     2
  6
CONTINUOUS
 10
0.119992
 20
1.803453
  0
VERTEX
  8
PLAN_1
 62
     2
  6
CONTINUOUS
 10
0.119484
 20
1.807031
  0
VERTEX
  8
PLAN_1
 62
     2
  6
CONTINUOUS
 10
0.118972
 20
1.810094
  0
VERTEX
  8
PLAN_1
 62
     2
  6
CONTINUOUS
 10
0.117441
 20
1.812650
  0
VERTEX
  8
PLAN_1
 62
     2
  6
CONTINUOUS
 10
0.115906
 20
1.814693
  0
VERTEX
  8
PLAN_1
 62
     2
  6
CONTINUOUS
 10
0.113350
 20
1.816224
  0
VERTEX
  8
PLAN_1
 62
     2
  6
CONTINUOUS
 10
0.110287
 20
1.817760
  0
VERTEX
  8
PLAN_1
 62
     2
  6
CONTINUOUS
 10
0.106201
 20
1.819291
  0
VERTEX
  8
PLAN_1
 62
     2
  6
CONTINUOUS
 10
0.106201
 20
1.826445
  0
VERTEX
  8
PLAN_1
 62
     2
  6
CONTINUOUS
 10
0.179768
 20
1.826445
  0
SEQEND
  8
0
  0
POLYLINE
  8
PLAN_1
 62
     2
  6
CONTINUOUS
 66
     1
 40
0.003000
 41
0.003000
  0
VERTEX
  8
PLAN_1
 62
     2
  6
CONTINUOUS
 10
0.179768
 20
1.884173
  0
VERTEX
  8
PLAN_1
 62
     2
  6
CONTINUOUS
 10
0.179768
 20
1.874465
  0
VERTEX
  8
PLAN_1
 62
     2
  6
CONTINUOUS
 10
0.127657
 20
1.874465
  0
VERTEX
  8
PLAN_1
 62
     2
  6
CONTINUOUS
 10
0.127657
 20
1.857094
  0
VERTEX
  8
PLAN_1
 62
     2
  6
CONTINUOUS
 10
0.120504
 20
1.857094
  0
VERTEX
  8
PLAN_1
 62
     2
  6
CONTINUOUS
 10
0.119992
 20
1.861181
  0
VERTEX
  8
PLAN_1
 62
     2
  6
CONTINUOUS
 10
0.119484
 20
1.864760
  0
VERTEX
  8
PLAN_1
 62
     2
  6
CONTINUOUS
 10
0.118972
 20
1.867823
  0
VERTEX
  8
PLAN_1
 62
     2
  6
CONTINUOUS
 10
0.117441
 20
1.870378
  0
VERTEX
  8
PLAN_1
 62
     2
  6
CONTINUOUS
 10
0.115906
 20
1.872421
  0
VERTEX
  8
PLAN_1
 62
     2
  6
CONTINUOUS
 10
0.113350
 20
1.874465
  0
VERTEX
  8
PLAN_1
 62
     2
  6
CONTINUOUS
 10
0.110287
 20
1.876000
  0
VERTEX
  8
PLAN_1
 62
     2
  6
CONTINUOUS
 10
0.106201
 20
1.877020
  0
VERTEX
  8
PLAN_1
 62
     2
  6
CONTINUOUS
 10
0.106201
 20
1.884173
  0
VERTEX
  8
PLAN_1
 62
     2
  6
CONTINUOUS
 10
0.179768
 20
1.884173
  0
SEQEND
  8
0
  0
POLYLINE
  8
PLAN_1
 62
     2
  6
CONTINUOUS
 66
     1
 40
0.003000
 41
0.003000
  0
VERTEX
  8
PLAN_1
 62
     2
  6
CONTINUOUS
 10
0.132764
 20
1.909205
  0
VERTEX
  8
PLAN_1
 62
     2
  6
CONTINUOUS
 10
0.128169
 20
1.909205
  0
VERTEX
  8
PLAN_1
 62
     2
  6
CONTINUOUS
 10
0.124591
 20
1.910228
  0
VERTEX
  8
PLAN_1
 62
     2
  6
CONTINUOUS
 10
0.121528
 20
1.910736
  0
VERTEX
  8
PLAN_1
 62
     2
  6
CONTINUOUS
 10
0.118461
 20
1.912272
  0
VERTEX
  8
PLAN_1
 62
     2
  6
CONTINUOUS
 10
0.115906
 20
1.913291
  0
VERTEX
  8
PLAN_1
 62
     2
  6
CONTINUOUS
 10
0.113862
 20
1.915335
  0
VERTEX
  8
PLAN_1
 62
     2
  6
CONTINUOUS
 10
0.112331
 20
1.916870
  0
VERTEX
  8
PLAN_1
 62
     2
  6
CONTINUOUS
 10
0.110799
 20
1.918913
  0
VERTEX
  8
PLAN_1
 62
     2
  6
CONTINUOUS
 10
0.108244
 20
1.923000
  0
VERTEX
  8
PLAN_1
 62
     2
  6
CONTINUOUS
 10
0.107220
 20
1.927087
  0
VERTEX
  8
PLAN_1
 62
     2
  6
CONTINUOUS
 10
0.106713
 20
1.931173
  0
VERTEX
  8
PLAN_1
 62
     2
  6
CONTINUOUS
 10
0.106201
 20
1.934748
  0
VERTEX
  8
PLAN_1
 62
     2
  6
CONTINUOUS
 10
0.106713
 20
1.939346
  0
VERTEX
  8
PLAN_1
 62
     2
  6
CONTINUOUS
 10
0.107732
 20
1.943433
  0
VERTEX
  8
PLAN_1
 62
     2
  6
CONTINUOUS
 10
0.109776
 20
1.947520
  0
VERTEX
  8
PLAN_1
 62
     2
  6
CONTINUOUS
 10
0.112331
 20
1.950587
  0
VERTEX
  8
PLAN_1
 62
     2
  6
CONTINUOUS
 10
0.115398
 20
1.953650
  0
VERTEX
  8
PLAN_1
 62
     2
  6
CONTINUOUS
 10
0.118972
 20
1.955693
  0
VERTEX
  8
PLAN_1
 62
     2
  6
CONTINUOUS
 10
0.123571
 20
1.956717
  0
VERTEX
  8
PLAN_1
 62
     2
  6
CONTINUOUS
 10
0.128169
 20
1.957228
  0
VERTEX
  8
PLAN_1
 62
     2
  6
CONTINUOUS
 10
0.132764
 20
1.957228
  0
VERTEX
  8
PLAN_1
 62
     2
  6
CONTINUOUS
 10
0.136854
 20
1.955693
  0
VERTEX
  8
PLAN_1
 62
     2
  6
CONTINUOUS
 10
0.140429
 20
1.954161
  0
VERTEX
  8
PLAN_1
 62
     2
  6
CONTINUOUS
 10
0.142984
 20
1.951606
  0
VERTEX
  8
PLAN_1
 62
     2
  6
CONTINUOUS
 10
0.146047
 20
1.949055
  0
VERTEX
  8
PLAN_1
 62
     2
  6
CONTINUOUS
 10
0.148091
 20
1.945476
  0
VERTEX
  8
PLAN_1
 62
     2
  6
CONTINUOUS
 10
0.150646
 20
1.941902
  0
VERTEX
  8
PLAN_1
 62
     2
  6
CONTINUOUS
 10
0.152689
 20
1.937815
  0
VERTEX
  8
PLAN_1
 62
     2
  6
CONTINUOUS
 10
0.156776
 20
1.930150
  0
VERTEX
  8
PLAN_1
 62
     2
  6
CONTINUOUS
 10
0.158819
 20
1.927087
  0
VERTEX
  8
PLAN_1
 62
     2
  6
CONTINUOUS
 10
0.160862
 20
1.924020
  0
VERTEX
  8
PLAN_1
 62
     2
  6
CONTINUOUS
 10
0.162906
 20
1.921976
  0
VERTEX
  8
PLAN_1
 62
     2
  6
CONTINUOUS
 10
0.164949
 20
1.920445
  0
VERTEX
  8
PLAN_1
 62
     2
  6
CONTINUOUS
 10
0.166484
 20
1.919421
  0
VERTEX
  8
PLAN_1
 62
     2
  6
CONTINUOUS
 10
0.168528
 20
1.918402
  0
VERTEX
  8
PLAN_1
 62
     2
  6
CONTINUOUS
 10
0.169547
 20
1.917890
  0
VERTEX
  8
PLAN_1
 62
     2
  6
CONTINUOUS
 10
0.171083
 20
1.917890
  0
VERTEX
  8
PLAN_1
 62
     2
  6
CONTINUOUS
 10
0.171083
 20
1.957228
  0
VERTEX
  8
PLAN_1
 62
     2
  6
CONTINUOUS
 10
0.179768
 20
1.957228
  0
VERTEX
  8
PLAN_1
 62
     2
  6
CONTINUOUS
 10
0.179768
 20
1.907161
  0
VERTEX
  8
PLAN_1
 62
     2
  6
CONTINUOUS
 10
0.174146
 20
1.907673
  0
VERTEX
  8
PLAN_1
 62
     2
  6
CONTINUOUS
 10
0.169547
 20
1.908693
  0
VERTEX
  8
PLAN_1
 62
     2
  6
CONTINUOUS
 10
0.165461
 20
1.910228
  0
VERTEX
  8
PLAN_1
 62
     2
  6
CONTINUOUS
 10
0.161374
 20
1.912272
  0
VERTEX
  8
PLAN_1
 62
     2
  6
CONTINUOUS
 10
0.158311
 20
1.914823
  0
VERTEX
  8
PLAN_1
 62
     2
  6
CONTINUOUS
 10
0.155244
 20
1.917890
  0
VERTEX
  8
PLAN_1
 62
     2
  6
CONTINUOUS
 10
0.152689
 20
1.920957
  0
VERTEX
  8
PLAN_1
 62
     2
  6
CONTINUOUS
 10
0.150646
 20
1.924531
  0
VERTEX
  8
PLAN_1
 62
     2
  6
CONTINUOUS
 10
0.145028
 20
1.934236
  0
VERTEX
  8
PLAN_1
 62
     2
  6
CONTINUOUS
 10
0.143492
 20
1.936791
  0
VERTEX
  8
PLAN_1
 62
     2
  6
CONTINUOUS
 10
0.141449
 20
1.939858
  0
VERTEX
  8
PLAN_1
 62
     2
  6
CONTINUOUS
 10
0.139917
 20
1.941902
  0
VERTEX
  8
PLAN_1
 62
     2
  6
CONTINUOUS
 10
0.138386
 20
1.943945
  0
VERTEX
  8
PLAN_1
 62
     2
  6
CONTINUOUS
 10
0.136343
 20
1.945476
  0
VERTEX
  8
PLAN_1
 62
     2
  6
CONTINUOUS
 10
0.133787
 20
1.946500
  0
VERTEX
  8
PLAN_1
 62
     2
  6
CONTINUOUS
 10
0.131232
 20
1.947520
  0
VERTEX
  8
PLAN_1
 62
     2
  6
CONTINUOUS
 10
0.127657
 20
1.947520
  0
VERTEX
  8
PLAN_1
 62
     2
  6
CONTINUOUS
 10
0.125614
 20
1.947520
  0
VERTEX
  8
PLAN_1
 62
     2
  6
CONTINUOUS
 10
0.123571
 20
1.947008
  0
VERTEX
  8
PLAN_1
 62
     2
  6
CONTINUOUS
 10
0.121016
 20
1.945988
  0
VERTEX
  8
PLAN_1
 62
     2
  6
CONTINUOUS
 10
0.118972
 20
1.944457
  0
VERTEX
  8
PLAN_1
 62
     2
  6
CONTINUOUS
 10
0.117441
 20
1.942413
  0
VERTEX
  8
PLAN_1
 62
     2
  6
CONTINUOUS
 10
0.115906
 20
1.939858
  0
VERTEX
  8
PLAN_1
 62
     2
  6
CONTINUOUS
 10
0.114886
 20
1.936791
  0
VERTEX
  8
PLAN_1
 62
     2
  6
CONTINUOUS
 10
0.114886
 20
1.933217
  0
VERTEX
  8
PLAN_1
 62
     2
  6
CONTINUOUS
 10
0.114886
 20
1.930661
  0
VERTEX
  8
PLAN_1
 62
     2
  6
CONTINUOUS
 10
0.115398
 20
1.928618
  0
VERTEX
  8
PLAN_1
 62
     2
  6
CONTINUOUS
 10
0.115906
 20
1.926575
  0
VERTEX
  8
PLAN_1
 62
     2
  6
CONTINUOUS
 10
0.116929
 20
1.925043
  0
VERTEX
  8
PLAN_1
 62
     2
  6
CONTINUOUS
 10
0.118972
 20
1.922488
  0
VERTEX
  8
PLAN_1
 62
     2
  6
CONTINUOUS
 10
0.121528
 20
1.920957
  0
VERTEX
  8
PLAN_1
 62
     2
  6
CONTINUOUS
 10
0.124591
 20
1.919421
  0
VERTEX
  8
PLAN_1
 62
     2
  6
CONTINUOUS
 10
0.127657
 20
1.918913
  0
VERTEX
  8
PLAN_1
 62
     2
  6
CONTINUOUS
 10
0.130213
 20
1.918402
  0
VERTEX
  8
PLAN_1
 62
     2
  6
CONTINUOUS
 10
0.132764
 20
1.918402
  0
VERTEX
  8
PLAN_1
 62
     2
  6
CONTINUOUS
 10
0.132764
 20
1.909205
  0
SEQEND
  8
0
  0
POLYLINE
  8
PLAN_1
 62
     2
  6
CONTINUOUS
 66
     1
 40
0.004087
 41
0.004087
  0
VERTEX
  8
PLAN_1
 62
     2
  6
CONTINUOUS
 10
-0.106835
 20
-0.328937
  0
VERTEX
  8
PLAN_1
 62
     2
  6
CONTINUOUS
 10
0.226768
 20
-0.328937
  0
SEQEND
  8
0
  0
POLYLINE
  8
PLAN_1
 62
     2
  6
CONTINUOUS
 66
     1
 40
0.004087
 41
0.004087
  0
VERTEX
  8
PLAN_1
 62
     2
  6
CONTINUOUS
 10
-1.099976
 20
4.080425
  0
VERTEX
  8
PLAN_1
 62
     2
  6
CONTINUOUS
 10
0.226768
 20
4.080425
  0
SEQEND
  8
0
  0
ENDSEC
  0
EOF
