  0
SECTION
  2
HEADER
  9
$ACADVER
  1
AC1006
  9
$EXTMIN
 10
-2.340598
 20
-3.805000
  9
$EXTMAX
 10
2.335819
 20
3.805000
  9
$LTSCALE
 40
0.000394
  9
$PDMODE
 70
    35
  9
$PDSIZE
 40
0.000315
  0
ENDSEC
  0
SECTION
  2
TABLES
  0
TABLE
  2
LTYPE
 70
     9
  0
LTYPE
  2
CONTINUOUS
 70
    64
  3
Solid line
 72
    65
 73
     0
 40
0.000000
  0
LTYPE
  2
DASHED
 70
    64
  3
__ __ __ __ __ __ __ __ __ __ __ __ __ __ __
 72
    65
 73
     2
 40
0.000003
 49
0.000002
 49
-0.000001
  0
LTYPE
  2
HIDDEN
 70
    64
  3
 _ _ _ _ _ _ _ _ _ _ _ _ _ _ _ _ _ _ _ _ _ _
 72
    65
 73
     2
 40
0.000001
 49
0.000001
 49
-0.000000
  0
LTYPE
  2
CENTER
 70
    64
  3
____ _ ____ _ ____ _ ____ _ ____ _ ____ _ ____
 72
    65
 73
     4
 40
0.000008
 49
0.000005
 49
-0.000001
 49
0.000001
 49
-0.000001
  0
LTYPE
  2
PHANTOM
 70
    64
  3
_____ _ _ _____ _ _ _____ _ _ _____ _ _ ____
 72
    65
 73
     6
 40
0.000010
 49
0.000005
 49
-0.000001
 49
0.000001
 49
-0.000001
 49
0.000001
 49
-0.000001
  0
LTYPE
  2
DOT
 70
    64
  3
...............................................
 72
    65
 73
     2
 40
0.000001
 49
0.000000
 49
-0.000001
  0
LTYPE
  2
DASHDOT
 70
    64
  3
__ . __ . __ . __ . __ . __ . __ . __ . __ . __
 72
    65
 73
     4
 40
0.000004
 49
0.000002
 49
-0.000001
 49
0.000000
 49
-0.000001
  0
LTYPE
  2
BORDER
 70
    64
  3
__ __ . __ __ . __ __ . __ __ . __ __ . __ __
 72
    65
 73
     6
 40
0.000007
 49
0.000002
 49
-0.000001
 49
0.000002
 49
-0.000001
 49
0.000000
 49
-0.000001
  0
LTYPE
  2
DIVIDE
 70
    64
  3
__ . . __ . . __ . . __ . . __ . . __ . . __
 72
    65
 73
     6
 40
0.000005
 49
0.000002
 49
-0.000001
 49
0.000000
 49
-0.000001
 49
0.000000
 49
-0.000001
  0
LTYPE
  2
DOTDOT
 70
    64
  3
 . .  . .  . .  . .  . .  . . 
 72
    65
 73
     5
 40
0.000002
 49
-0.000001
 49
0.000000
 49
-0.000001
 49
0.000000
 49
-0.000001
  0
ENDTAB
  0
TABLE
  2
STYLE
 70
     0
  0
ENDTAB
  0
TABLE
  2
LAYER
 70
     3
  0
LAYER
  2
FOREGROUND
 70
    64
 62
     7
  6
CONTINUOUS
  0
LAYER
  2
BACKGROUND
 70
    65
 62
    -7
  6
CONTINUOUS
  0
LAYER
  2
PLAN_1
 70
    64
 62
     7
  6
CONTINUOUS
  0
ENDTAB
  0
ENDSEC
  0
SECTION
  2
ENTITIES
  0
POLYLINE
  8
PLAN_1
  6
CONTINUOUS
 66
     1
 40
0.003000
 41
0.003000
  0
VERTEX
  8
PLAN_1
  6
CONTINUOUS
 10
0.532252
 20
-3.770280
  0
VERTEX
  8
PLAN_1
  6
CONTINUOUS
 10
0.375295
 20
-3.770280
  0
VERTEX
  8
PLAN_1
  6
CONTINUOUS
 10
0.375295
 20
-3.747925
  0
VERTEX
  8
PLAN_1
  6
CONTINUOUS
 10
0.497531
 20
-3.594772
  0
VERTEX
  8
PLAN_1
  6
CONTINUOUS
 10
0.384331
 20
-3.594772
  0
VERTEX
  8
PLAN_1
  6
CONTINUOUS
 10
0.384331
 20
-3.570992
  0
VERTEX
  8
PLAN_1
  6
CONTINUOUS
 10
0.532252
 20
-3.570992
  0
VERTEX
  8
PLAN_1
  6
CONTINUOUS
 10
0.532252
 20
-3.594299
  0
VERTEX
  8
PLAN_1
  6
CONTINUOUS
 10
0.409539
 20
-3.746496
  0
VERTEX
  8
PLAN_1
  6
CONTINUOUS
 10
0.532252
 20
-3.746496
  0
VERTEX
  8
PLAN_1
  6
CONTINUOUS
 10
0.532252
 20
-3.770280
  0
SEQEND
  8
0
  0
POLYLINE
  8
PLAN_1
  6
CONTINUOUS
 66
     1
 40
0.003000
 41
0.003000
  0
VERTEX
  8
PLAN_1
  6
CONTINUOUS
 10
0.699669
 20
-3.630921
  0
VERTEX
  8
PLAN_1
  6
CONTINUOUS
 10
0.697768
 20
-3.624736
  0
VERTEX
  8
PLAN_1
  6
CONTINUOUS
 10
0.695866
 20
-3.619031
  0
VERTEX
  8
PLAN_1
  6
CONTINUOUS
 10
0.693488
 20
-3.614276
  0
VERTEX
  8
PLAN_1
  6
CONTINUOUS
 10
0.690157
 20
-3.609520
  0
VERTEX
  8
PLAN_1
  6
CONTINUOUS
 10
0.687303
 20
-3.605713
  0
VERTEX
  8
PLAN_1
  6
CONTINUOUS
 10
0.683500
 20
-3.602382
  0
VERTEX
  8
PLAN_1
  6
CONTINUOUS
 10
0.680169
 20
-3.599531
  0
VERTEX
  8
PLAN_1
  6
CONTINUOUS
 10
0.675890
 20
-3.597154
  0
VERTEX
  8
PLAN_1
  6
CONTINUOUS
 10
0.672083
 20
-3.595248
  0
VERTEX
  8
PLAN_1
  6
CONTINUOUS
 10
0.667803
 20
-3.593346
  0
VERTEX
  8
PLAN_1
  6
CONTINUOUS
 10
0.663524
 20
-3.591921
  0
VERTEX
  8
PLAN_1
  6
CONTINUOUS
 10
0.659717
 20
-3.590969
  0
VERTEX
  8
PLAN_1
  6
CONTINUOUS
 10
0.651157
 20
-3.590016
  0
VERTEX
  8
PLAN_1
  6
CONTINUOUS
 10
0.643547
 20
-3.589543
  0
VERTEX
  8
PLAN_1
  6
CONTINUOUS
 10
0.636890
 20
-3.590016
  0
VERTEX
  8
PLAN_1
  6
CONTINUOUS
 10
0.630705
 20
-3.590969
  0
VERTEX
  8
PLAN_1
  6
CONTINUOUS
 10
0.624524
 20
-3.592394
  0
VERTEX
  8
PLAN_1
  6
CONTINUOUS
 10
0.618339
 20
-3.594772
  0
VERTEX
  8
PLAN_1
  6
CONTINUOUS
 10
0.612630
 20
-3.597626
  0
VERTEX
  8
PLAN_1
  6
CONTINUOUS
 10
0.607398
 20
-3.600957
  0
VERTEX
  8
PLAN_1
  6
CONTINUOUS
 10
0.602169
 20
-3.604760
  0
VERTEX
  8
PLAN_1
  6
CONTINUOUS
 10
0.597409
 20
-3.609520
  0
VERTEX
  8
PLAN_1
  6
CONTINUOUS
 10
0.593606
 20
-3.614748
  0
VERTEX
  8
PLAN_1
  6
CONTINUOUS
 10
0.589799
 20
-3.620457
  0
VERTEX
  8
PLAN_1
  6
CONTINUOUS
 10
0.586472
 20
-3.627114
  0
VERTEX
  8
PLAN_1
  6
CONTINUOUS
 10
0.583618
 20
-3.634252
  0
VERTEX
  8
PLAN_1
  6
CONTINUOUS
 10
0.581240
 20
-3.641862
  0
VERTEX
  8
PLAN_1
  6
CONTINUOUS
 10
0.579815
 20
-3.650421
  0
VERTEX
  8
PLAN_1
  6
CONTINUOUS
 10
0.578862
 20
-3.658984
  0
VERTEX
  8
PLAN_1
  6
CONTINUOUS
 10
0.578386
 20
-3.668496
  0
VERTEX
  8
PLAN_1
  6
CONTINUOUS
 10
0.578862
 20
-3.677531
  0
VERTEX
  8
PLAN_1
  6
CONTINUOUS
 10
0.579339
 20
-3.685618
  0
VERTEX
  8
PLAN_1
  6
CONTINUOUS
 10
0.580287
 20
-3.693705
  0
VERTEX
  8
PLAN_1
  6
CONTINUOUS
 10
0.581717
 20
-3.701315
  0
VERTEX
  8
PLAN_1
  6
CONTINUOUS
 10
0.584094
 20
-3.708925
  0
VERTEX
  8
PLAN_1
  6
CONTINUOUS
 10
0.586472
 20
-3.715583
  0
VERTEX
  8
PLAN_1
  6
CONTINUOUS
 10
0.589327
 20
-3.721764
  0
VERTEX
  8
PLAN_1
  6
CONTINUOUS
 10
0.593130
 20
-3.727949
  0
VERTEX
  8
PLAN_1
  6
CONTINUOUS
 10
0.597409
 20
-3.733181
  0
VERTEX
  8
PLAN_1
  6
CONTINUOUS
 10
0.602169
 20
-3.737937
  0
VERTEX
  8
PLAN_1
  6
CONTINUOUS
 10
0.607398
 20
-3.741740
  0
VERTEX
  8
PLAN_1
  6
CONTINUOUS
 10
0.613583
 20
-3.745547
  0
VERTEX
  8
PLAN_1
  6
CONTINUOUS
 10
0.620240
 20
-3.747925
  0
VERTEX
  8
PLAN_1
  6
CONTINUOUS
 10
0.627374
 20
-3.750303
  0
VERTEX
  8
PLAN_1
  6
CONTINUOUS
 10
0.635937
 20
-3.751256
  0
VERTEX
  8
PLAN_1
  6
CONTINUOUS
 10
0.644500
 20
-3.751728
  0
VERTEX
  8
PLAN_1
  6
CONTINUOUS
 10
0.647827
 20
-3.751728
  0
VERTEX
  8
PLAN_1
  6
CONTINUOUS
 10
0.651634
 20
-3.751256
  0
VERTEX
  8
PLAN_1
  6
CONTINUOUS
 10
0.655437
 20
-3.750780
  0
VERTEX
  8
PLAN_1
  6
CONTINUOUS
 10
0.659717
 20
-3.749827
  0
VERTEX
  8
PLAN_1
  6
CONTINUOUS
 10
0.663524
 20
-3.748402
  0
VERTEX
  8
PLAN_1
  6
CONTINUOUS
 10
0.667803
 20
-3.746496
  0
VERTEX
  8
PLAN_1
  6
CONTINUOUS
 10
0.672083
 20
-3.744594
  0
VERTEX
  8
PLAN_1
  6
CONTINUOUS
 10
0.676366
 20
-3.741740
  0
VERTEX
  8
PLAN_1
  6
CONTINUOUS
 10
0.680169
 20
-3.738413
  0
VERTEX
  8
PLAN_1
  6
CONTINUOUS
 10
0.683976
 20
-3.734606
  0
VERTEX
  8
PLAN_1
  6
CONTINUOUS
 10
0.687780
 20
-3.730327
  0
VERTEX
  8
PLAN_1
  6
CONTINUOUS
 10
0.691110
 20
-3.725094
  0
VERTEX
  8
PLAN_1
  6
CONTINUOUS
 10
0.694437
 20
-3.719386
  0
VERTEX
  8
PLAN_1
  6
CONTINUOUS
 10
0.697291
 20
-3.712728
  0
VERTEX
  8
PLAN_1
  6
CONTINUOUS
 10
0.699669
 20
-3.705118
  0
VERTEX
  8
PLAN_1
  6
CONTINUOUS
 10
0.701575
 20
-3.697031
  0
VERTEX
  8
PLAN_1
  6
CONTINUOUS
 10
0.727732
 20
-3.697031
  0
VERTEX
  8
PLAN_1
  6
CONTINUOUS
 10
0.726307
 20
-3.703693
  0
VERTEX
  8
PLAN_1
  6
CONTINUOUS
 10
0.724878
 20
-3.710350
  0
VERTEX
  8
PLAN_1
  6
CONTINUOUS
 10
0.723453
 20
-3.716535
  0
VERTEX
  8
PLAN_1
  6
CONTINUOUS
 10
0.721075
 20
-3.721764
  0
VERTEX
  8
PLAN_1
  6
CONTINUOUS
 10
0.719169
 20
-3.727472
  0
VERTEX
  8
PLAN_1
  6
CONTINUOUS
 10
0.716791
 20
-3.732228
  0
VERTEX
  8
PLAN_1
  6
CONTINUOUS
 10
0.713941
 20
-3.736984
  0
VERTEX
  8
PLAN_1
  6
CONTINUOUS
 10
0.711563
 20
-3.741268
  0
VERTEX
  8
PLAN_1
  6
CONTINUOUS
 10
0.708709
 20
-3.745071
  0
VERTEX
  8
PLAN_1
  6
CONTINUOUS
 10
0.705378
 20
-3.748402
  0
VERTEX
  8
PLAN_1
  6
CONTINUOUS
 10
0.702524
 20
-3.751728
  0
VERTEX
  8
PLAN_1
  6
CONTINUOUS
 10
0.699197
 20
-3.755059
  0
VERTEX
  8
PLAN_1
  6
CONTINUOUS
 10
0.692535
 20
-3.760291
  0
VERTEX
  8
PLAN_1
  6
CONTINUOUS
 10
0.685402
 20
-3.764571
  0
VERTEX
  8
PLAN_1
  6
CONTINUOUS
 10
0.678744
 20
-3.767902
  0
VERTEX
  8
PLAN_1
  6
CONTINUOUS
 10
0.671610
 20
-3.770756
  0
VERTEX
  8
PLAN_1
  6
CONTINUOUS
 10
0.664949
 20
-3.772657
  0
VERTEX
  8
PLAN_1
  6
CONTINUOUS
 10
0.658768
 20
-3.774083
  0
VERTEX
  8
PLAN_1
  6
CONTINUOUS
 10
0.647827
 20
-3.775512
  0
VERTEX
  8
PLAN_1
  6
CONTINUOUS
 10
0.640217
 20
-3.775512
  0
VERTEX
  8
PLAN_1
  6
CONTINUOUS
 10
0.632130
 20
-3.775035
  0
VERTEX
  8
PLAN_1
  6
CONTINUOUS
 10
0.623571
 20
-3.774083
  0
VERTEX
  8
PLAN_1
  6
CONTINUOUS
 10
0.615484
 20
-3.772181
  0
VERTEX
  8
PLAN_1
  6
CONTINUOUS
 10
0.607398
 20
-3.769803
  0
VERTEX
  8
PLAN_1
  6
CONTINUOUS
 10
0.599787
 20
-3.766472
  0
VERTEX
  8
PLAN_1
  6
CONTINUOUS
 10
0.592181
 20
-3.762193
  0
VERTEX
  8
PLAN_1
  6
CONTINUOUS
 10
0.588850
 20
-3.759815
  0
VERTEX
  8
PLAN_1
  6
CONTINUOUS
 10
0.585043
 20
-3.757437
  0
VERTEX
  8
PLAN_1
  6
CONTINUOUS
 10
0.581717
 20
-3.754583
  0
VERTEX
  8
PLAN_1
  6
CONTINUOUS
 10
0.578862
 20
-3.751256
  0
VERTEX
  8
PLAN_1
  6
CONTINUOUS
 10
0.575531
 20
-3.747925
  0
VERTEX
  8
PLAN_1
  6
CONTINUOUS
 10
0.572677
 20
-3.744594
  0
VERTEX
  8
PLAN_1
  6
CONTINUOUS
 10
0.569827
 20
-3.740791
  0
VERTEX
  8
PLAN_1
  6
CONTINUOUS
 10
0.567445
 20
-3.736984
  0
VERTEX
  8
PLAN_1
  6
CONTINUOUS
 10
0.564594
 20
-3.732705
  0
VERTEX
  8
PLAN_1
  6
CONTINUOUS
 10
0.562217
 20
-3.727949
  0
VERTEX
  8
PLAN_1
  6
CONTINUOUS
 10
0.560311
 20
-3.723193
  0
VERTEX
  8
PLAN_1
  6
CONTINUOUS
 10
0.558409
 20
-3.718437
  0
VERTEX
  8
PLAN_1
  6
CONTINUOUS
 10
0.556508
 20
-3.713205
  0
VERTEX
  8
PLAN_1
  6
CONTINUOUS
 10
0.555079
 20
-3.707972
  0
VERTEX
  8
PLAN_1
  6
CONTINUOUS
 10
0.553654
 20
-3.702264
  0
VERTEX
  8
PLAN_1
  6
CONTINUOUS
 10
0.552701
 20
-3.696083
  0
VERTEX
  8
PLAN_1
  6
CONTINUOUS
 10
0.551752
 20
-3.689898
  0
VERTEX
  8
PLAN_1
  6
CONTINUOUS
 10
0.551276
 20
-3.683240
  0
VERTEX
  8
PLAN_1
  6
CONTINUOUS
 10
0.550799
 20
-3.676583
  0
VERTEX
  8
PLAN_1
  6
CONTINUOUS
 10
0.550799
 20
-3.669445
  0
VERTEX
  8
PLAN_1
  6
CONTINUOUS
 10
0.551276
 20
-3.658031
  0
VERTEX
  8
PLAN_1
  6
CONTINUOUS
 10
0.552228
 20
-3.647567
  0
VERTEX
  8
PLAN_1
  6
CONTINUOUS
 10
0.554606
 20
-3.637102
  0
VERTEX
  8
PLAN_1
  6
CONTINUOUS
 10
0.556984
 20
-3.627591
  0
VERTEX
  8
PLAN_1
  6
CONTINUOUS
 10
0.560787
 20
-3.618079
  0
VERTEX
  8
PLAN_1
  6
CONTINUOUS
 10
0.565067
 20
-3.609520
  0
VERTEX
  8
PLAN_1
  6
CONTINUOUS
 10
0.567445
 20
-3.605713
  0
VERTEX
  8
PLAN_1
  6
CONTINUOUS
 10
0.569827
 20
-3.601909
  0
VERTEX
  8
PLAN_1
  6
CONTINUOUS
 10
0.572677
 20
-3.598102
  0
VERTEX
  8
PLAN_1
  6
CONTINUOUS
 10
0.575531
 20
-3.594772
  0
VERTEX
  8
PLAN_1
  6
CONTINUOUS
 10
0.578386
 20
-3.591445
  0
VERTEX
  8
PLAN_1
  6
CONTINUOUS
 10
0.581717
 20
-3.588114
  0
VERTEX
  8
PLAN_1
  6
CONTINUOUS
 10
0.585043
 20
-3.585260
  0
VERTEX
  8
PLAN_1
  6
CONTINUOUS
 10
0.588850
 20
-3.582406
  0
VERTEX
  8
PLAN_1
  6
CONTINUOUS
 10
0.592654
 20
-3.580028
  0
VERTEX
  8
PLAN_1
  6
CONTINUOUS
 10
0.596461
 20
-3.577650
  0
VERTEX
  8
PLAN_1
  6
CONTINUOUS
 10
0.600740
 20
-3.575272
  0
VERTEX
  8
PLAN_1
  6
CONTINUOUS
 10
0.604547
 20
-3.573370
  0
VERTEX
  8
PLAN_1
  6
CONTINUOUS
 10
0.609303
 20
-3.571469
  0
VERTEX
  8
PLAN_1
  6
CONTINUOUS
 10
0.613583
 20
-3.570039
  0
VERTEX
  8
PLAN_1
  6
CONTINUOUS
 10
0.618339
 20
-3.568614
  0
VERTEX
  8
PLAN_1
  6
CONTINUOUS
 10
0.623094
 20
-3.567661
  0
VERTEX
  8
PLAN_1
  6
CONTINUOUS
 10
0.627850
 20
-3.566713
  0
VERTEX
  8
PLAN_1
  6
CONTINUOUS
 10
0.633083
 20
-3.566236
  0
VERTEX
  8
PLAN_1
  6
CONTINUOUS
 10
0.638315
 20
-3.565760
  0
VERTEX
  8
PLAN_1
  6
CONTINUOUS
 10
0.643547
 20
-3.565760
  0
VERTEX
  8
PLAN_1
  6
CONTINUOUS
 10
0.653059
 20
-3.566236
  0
VERTEX
  8
PLAN_1
  6
CONTINUOUS
 10
0.662094
 20
-3.567189
  0
VERTEX
  8
PLAN_1
  6
CONTINUOUS
 10
0.670181
 20
-3.569091
  0
VERTEX
  8
PLAN_1
  6
CONTINUOUS
 10
0.677791
 20
-3.571469
  0
VERTEX
  8
PLAN_1
  6
CONTINUOUS
 10
0.684925
 20
-3.574323
  0
VERTEX
  8
PLAN_1
  6
CONTINUOUS
 10
0.691110
 20
-3.577650
  0
VERTEX
  8
PLAN_1
  6
CONTINUOUS
 10
0.697291
 20
-3.581457
  0
VERTEX
  8
PLAN_1
  6
CONTINUOUS
 10
0.702524
 20
-3.585736
  0
VERTEX
  8
PLAN_1
  6
CONTINUOUS
 10
0.707280
 20
-3.590492
  0
VERTEX
  8
PLAN_1
  6
CONTINUOUS
 10
0.711563
 20
-3.595724
  0
VERTEX
  8
PLAN_1
  6
CONTINUOUS
 10
0.715366
 20
-3.600957
  0
VERTEX
  8
PLAN_1
  6
CONTINUOUS
 10
0.718220
 20
-3.606665
  0
VERTEX
  8
PLAN_1
  6
CONTINUOUS
 10
0.721075
 20
-3.612370
  0
VERTEX
  8
PLAN_1
  6
CONTINUOUS
 10
0.722976
 20
-3.618555
  0
VERTEX
  8
PLAN_1
  6
CONTINUOUS
 10
0.724878
 20
-3.624736
  0
VERTEX
  8
PLAN_1
  6
CONTINUOUS
 10
0.725831
 20
-3.630921
  0
VERTEX
  8
PLAN_1
  6
CONTINUOUS
 10
0.699669
 20
-3.630921
  0
SEQEND
  8
0
  0
POLYLINE
  8
PLAN_1
  6
CONTINUOUS
 66
     1
 40
0.003000
 41
0.003000
  0
VERTEX
  8
PLAN_1
  6
CONTINUOUS
 10
0.787185
 20
-3.770280
  0
VERTEX
  8
PLAN_1
  6
CONTINUOUS
 10
0.760075
 20
-3.770280
  0
VERTEX
  8
PLAN_1
  6
CONTINUOUS
 10
0.760075
 20
-3.570992
  0
VERTEX
  8
PLAN_1
  6
CONTINUOUS
 10
0.787185
 20
-3.570992
  0
VERTEX
  8
PLAN_1
  6
CONTINUOUS
 10
0.787185
 20
-3.667543
  0
VERTEX
  8
PLAN_1
  6
CONTINUOUS
 10
0.883736
 20
-3.570992
  0
VERTEX
  8
PLAN_1
  6
CONTINUOUS
 10
0.920835
 20
-3.570992
  0
VERTEX
  8
PLAN_1
  6
CONTINUOUS
 10
0.838079
 20
-3.651374
  0
VERTEX
  8
PLAN_1
  6
CONTINUOUS
 10
0.923213
 20
-3.770280
  0
VERTEX
  8
PLAN_1
  6
CONTINUOUS
 10
0.888020
 20
-3.770280
  0
VERTEX
  8
PLAN_1
  6
CONTINUOUS
 10
0.818579
 20
-3.670398
  0
VERTEX
  8
PLAN_1
  6
CONTINUOUS
 10
0.787185
 20
-3.700362
  0
VERTEX
  8
PLAN_1
  6
CONTINUOUS
 10
0.787185
 20
-3.770280
  0
SEQEND
  8
0
  0
POLYLINE
  8
PLAN_1
  6
CONTINUOUS
 66
     1
 40
0.003000
 41
0.003000
  0
VERTEX
  8
PLAN_1
  6
CONTINUOUS
 10
0.946996
 20
-3.570992
  0
VERTEX
  8
PLAN_1
  6
CONTINUOUS
 10
1.027378
 20
-3.570992
  0
VERTEX
  8
PLAN_1
  6
CONTINUOUS
 10
1.036890
 20
-3.571469
  0
VERTEX
  8
PLAN_1
  6
CONTINUOUS
 10
1.045925
 20
-3.572894
  0
VERTEX
  8
PLAN_1
  6
CONTINUOUS
 10
1.054488
 20
-3.574799
  0
VERTEX
  8
PLAN_1
  6
CONTINUOUS
 10
1.062571
 20
-3.578126
  0
VERTEX
  8
PLAN_1
  6
CONTINUOUS
 10
1.070181
 20
-3.581933
  0
VERTEX
  8
PLAN_1
  6
CONTINUOUS
 10
1.076843
 20
-3.586689
  0
VERTEX
  8
PLAN_1
  6
CONTINUOUS
 10
1.083024
 20
-3.591921
  0
VERTEX
  8
PLAN_1
  6
CONTINUOUS
 10
1.088732
 20
-3.598102
  0
VERTEX
  8
PLAN_1
  6
CONTINUOUS
 10
1.093965
 20
-3.604760
  0
VERTEX
  8
PLAN_1
  6
CONTINUOUS
 10
1.098720
 20
-3.611898
  0
VERTEX
  8
PLAN_1
  6
CONTINUOUS
 10
1.102524
 20
-3.619980
  0
VERTEX
  8
PLAN_1
  6
CONTINUOUS
 10
1.105854
 20
-3.628543
  0
VERTEX
  8
PLAN_1
  6
CONTINUOUS
 10
1.108232
 20
-3.637579
  0
VERTEX
  8
PLAN_1
  6
CONTINUOUS
 10
1.110134
 20
-3.647091
  0
VERTEX
  8
PLAN_1
  6
CONTINUOUS
 10
1.111087
 20
-3.657555
  0
VERTEX
  8
PLAN_1
  6
CONTINUOUS
 10
1.111563
 20
-3.668020
  0
VERTEX
  8
PLAN_1
  6
CONTINUOUS
 10
1.111087
 20
-3.676583
  0
VERTEX
  8
PLAN_1
  6
CONTINUOUS
 10
1.110610
 20
-3.685142
  0
VERTEX
  8
PLAN_1
  6
CONTINUOUS
 10
1.109185
 20
-3.693705
  0
VERTEX
  8
PLAN_1
  6
CONTINUOUS
 10
1.107280
 20
-3.702740
  0
VERTEX
  8
PLAN_1
  6
CONTINUOUS
 10
1.104902
 20
-3.711303
  0
VERTEX
  8
PLAN_1
  6
CONTINUOUS
 10
1.101575
 20
-3.719862
  0
VERTEX
  8
PLAN_1
  6
CONTINUOUS
 10
1.098244
 20
-3.727949
  0
VERTEX
  8
PLAN_1
  6
CONTINUOUS
 10
1.093488
 20
-3.736035
  0
VERTEX
  8
PLAN_1
  6
CONTINUOUS
 10
1.091110
 20
-3.739362
  0
VERTEX
  8
PLAN_1
  6
CONTINUOUS
 10
1.088256
 20
-3.743169
  0
VERTEX
  8
PLAN_1
  6
CONTINUOUS
 10
1.085402
 20
-3.746496
  0
VERTEX
  8
PLAN_1
  6
CONTINUOUS
 10
1.082075
 20
-3.749827
  0
VERTEX
  8
PLAN_1
  6
CONTINUOUS
 10
1.078744
 20
-3.752681
  0
VERTEX
  8
PLAN_1
  6
CONTINUOUS
 10
1.075413
 20
-3.755535
  0
VERTEX
  8
PLAN_1
  6
CONTINUOUS
 10
1.071610
 20
-3.758390
  0
VERTEX
  8
PLAN_1
  6
CONTINUOUS
 10
1.067327
 20
-3.760768
  0
VERTEX
  8
PLAN_1
  6
CONTINUOUS
 10
1.063047
 20
-3.762669
  0
VERTEX
  8
PLAN_1
  6
CONTINUOUS
 10
1.058768
 20
-3.764571
  0
VERTEX
  8
PLAN_1
  6
CONTINUOUS
 10
1.054012
 20
-3.766472
  0
VERTEX
  8
PLAN_1
  6
CONTINUOUS
 10
1.048780
 20
-3.767902
  0
VERTEX
  8
PLAN_1
  6
CONTINUOUS
 10
1.043547
 20
-3.768850
  0
VERTEX
  8
PLAN_1
  6
CONTINUOUS
 10
1.038315
 20
-3.769803
  0
VERTEX
  8
PLAN_1
  6
CONTINUOUS
 10
1.032606
 20
-3.770280
  0
VERTEX
  8
PLAN_1
  6
CONTINUOUS
 10
1.026425
 20
-3.770280
  0
VERTEX
  8
PLAN_1
  6
CONTINUOUS
 10
0.946996
 20
-3.770280
  0
VERTEX
  8
PLAN_1
  6
CONTINUOUS
 10
0.946996
 20
-3.570992
  0
SEQEND
  8
0
  0
POLYLINE
  8
PLAN_1
  6
CONTINUOUS
 66
     1
 40
0.003000
 41
0.003000
  0
VERTEX
  8
PLAN_1
  6
CONTINUOUS
 10
0.973630
 20
-3.747449
  0
VERTEX
  8
PLAN_1
  6
CONTINUOUS
 10
1.025949
 20
-3.747449
  0
VERTEX
  8
PLAN_1
  6
CONTINUOUS
 10
1.032134
 20
-3.746972
  0
VERTEX
  8
PLAN_1
  6
CONTINUOUS
 10
1.038315
 20
-3.746024
  0
VERTEX
  8
PLAN_1
  6
CONTINUOUS
 10
1.044024
 20
-3.744594
  0
VERTEX
  8
PLAN_1
  6
CONTINUOUS
 10
1.049732
 20
-3.742217
  0
VERTEX
  8
PLAN_1
  6
CONTINUOUS
 10
1.054961
 20
-3.739362
  0
VERTEX
  8
PLAN_1
  6
CONTINUOUS
 10
1.059720
 20
-3.736035
  0
VERTEX
  8
PLAN_1
  6
CONTINUOUS
 10
1.064000
 20
-3.731752
  0
VERTEX
  8
PLAN_1
  6
CONTINUOUS
 10
1.067803
 20
-3.727472
  0
VERTEX
  8
PLAN_1
  6
CONTINUOUS
 10
1.071610
 20
-3.722240
  0
VERTEX
  8
PLAN_1
  6
CONTINUOUS
 10
1.074465
 20
-3.716059
  0
VERTEX
  8
PLAN_1
  6
CONTINUOUS
 10
1.077315
 20
-3.709874
  0
VERTEX
  8
PLAN_1
  6
CONTINUOUS
 10
1.079697
 20
-3.702740
  0
VERTEX
  8
PLAN_1
  6
CONTINUOUS
 10
1.081122
 20
-3.695606
  0
VERTEX
  8
PLAN_1
  6
CONTINUOUS
 10
1.082547
 20
-3.687520
  0
VERTEX
  8
PLAN_1
  6
CONTINUOUS
 10
1.083500
 20
-3.678484
  0
VERTEX
  8
PLAN_1
  6
CONTINUOUS
 10
1.083500
 20
-3.669445
  0
VERTEX
  8
PLAN_1
  6
CONTINUOUS
 10
1.083500
 20
-3.660409
  0
VERTEX
  8
PLAN_1
  6
CONTINUOUS
 10
1.082547
 20
-3.651850
  0
VERTEX
  8
PLAN_1
  6
CONTINUOUS
 10
1.081122
 20
-3.643764
  0
VERTEX
  8
PLAN_1
  6
CONTINUOUS
 10
1.079697
 20
-3.636630
  0
VERTEX
  8
PLAN_1
  6
CONTINUOUS
 10
1.077315
 20
-3.629969
  0
VERTEX
  8
PLAN_1
  6
CONTINUOUS
 10
1.074465
 20
-3.623787
  0
VERTEX
  8
PLAN_1
  6
CONTINUOUS
 10
1.071134
 20
-3.618079
  0
VERTEX
  8
PLAN_1
  6
CONTINUOUS
 10
1.067327
 20
-3.612846
  0
VERTEX
  8
PLAN_1
  6
CONTINUOUS
 10
1.063524
 20
-3.608567
  0
VERTEX
  8
PLAN_1
  6
CONTINUOUS
 10
1.058768
 20
-3.604760
  0
VERTEX
  8
PLAN_1
  6
CONTINUOUS
 10
1.054012
 20
-3.601433
  0
VERTEX
  8
PLAN_1
  6
CONTINUOUS
 10
1.048780
 20
-3.598579
  0
VERTEX
  8
PLAN_1
  6
CONTINUOUS
 10
1.043071
 20
-3.596677
  0
VERTEX
  8
PLAN_1
  6
CONTINUOUS
 10
1.036890
 20
-3.595248
  0
VERTEX
  8
PLAN_1
  6
CONTINUOUS
 10
1.030705
 20
-3.594299
  0
VERTEX
  8
PLAN_1
  6
CONTINUOUS
 10
1.024047
 20
-3.593823
  0
VERTEX
  8
PLAN_1
  6
CONTINUOUS
 10
0.973630
 20
-3.593823
  0
VERTEX
  8
PLAN_1
  6
CONTINUOUS
 10
0.973630
 20
-3.747449
  0
SEQEND
  8
0
  0
POLYLINE
  8
PLAN_1
  6
CONTINUOUS
 66
     1
 40
0.003000
 41
0.003000
  0
VERTEX
  8
PLAN_1
  6
CONTINUOUS
 10
1.165783
 20
-3.656606
  0
VERTEX
  8
PLAN_1
  6
CONTINUOUS
 10
1.169114
 20
-3.654228
  0
VERTEX
  8
PLAN_1
  6
CONTINUOUS
 10
1.172441
 20
-3.652323
  0
VERTEX
  8
PLAN_1
  6
CONTINUOUS
 10
1.176720
 20
-3.649945
  0
VERTEX
  8
PLAN_1
  6
CONTINUOUS
 10
1.181004
 20
-3.648043
  0
VERTEX
  8
PLAN_1
  6
CONTINUOUS
 10
1.185760
 20
-3.646618
  0
VERTEX
  8
PLAN_1
  6
CONTINUOUS
 10
1.191469
 20
-3.645665
  0
VERTEX
  8
PLAN_1
  6
CONTINUOUS
 10
1.197173
 20
-3.644713
  0
VERTEX
  8
PLAN_1
  6
CONTINUOUS
 10
1.203358
 20
-3.644713
  0
VERTEX
  8
PLAN_1
  6
CONTINUOUS
 10
1.209539
 20
-3.644713
  0
VERTEX
  8
PLAN_1
  6
CONTINUOUS
 10
1.215248
 20
-3.645665
  0
VERTEX
  8
PLAN_1
  6
CONTINUOUS
 10
1.220957
 20
-3.647091
  0
VERTEX
  8
PLAN_1
  6
CONTINUOUS
 10
1.226661
 20
-3.648520
  0
VERTEX
  8
PLAN_1
  6
CONTINUOUS
 10
1.232370
 20
-3.650898
  0
VERTEX
  8
PLAN_1
  6
CONTINUOUS
 10
1.237602
 20
-3.653752
  0
VERTEX
  8
PLAN_1
  6
CONTINUOUS
 10
1.242835
 20
-3.657079
  0
VERTEX
  8
PLAN_1
  6
CONTINUOUS
 10
1.247114
 20
-3.660886
  0
VERTEX
  8
PLAN_1
  6
CONTINUOUS
 10
1.251870
 20
-3.664689
  0
VERTEX
  8
PLAN_1
  6
CONTINUOUS
 10
1.255677
 20
-3.669445
  0
VERTEX
  8
PLAN_1
  6
CONTINUOUS
 10
1.259004
 20
-3.674677
  0
VERTEX
  8
PLAN_1
  6
CONTINUOUS
 10
1.261858
 20
-3.680386
  0
VERTEX
  8
PLAN_1
  6
CONTINUOUS
 10
1.264236
 20
-3.686094
  0
VERTEX
  8
PLAN_1
  6
CONTINUOUS
 10
1.266142
 20
-3.692752
  0
VERTEX
  8
PLAN_1
  6
CONTINUOUS
 10
1.267091
 20
-3.699886
  0
VERTEX
  8
PLAN_1
  6
CONTINUOUS
 10
1.267567
 20
-3.707020
  0
VERTEX
  8
PLAN_1
  6
CONTINUOUS
 10
1.267567
 20
-3.711303
  0
VERTEX
  8
PLAN_1
  6
CONTINUOUS
 10
1.267091
 20
-3.716059
  0
VERTEX
  8
PLAN_1
  6
CONTINUOUS
 10
1.266142
 20
-3.721291
  0
VERTEX
  8
PLAN_1
  6
CONTINUOUS
 10
1.265189
 20
-3.726996
  0
VERTEX
  8
PLAN_1
  6
CONTINUOUS
 10
1.263287
 20
-3.732705
  0
VERTEX
  8
PLAN_1
  6
CONTINUOUS
 10
1.261382
 20
-3.738413
  0
VERTEX
  8
PLAN_1
  6
CONTINUOUS
 10
1.258531
 20
-3.744118
  0
VERTEX
  8
PLAN_1
  6
CONTINUOUS
 10
1.255201
 20
-3.749350
  0
VERTEX
  8
PLAN_1
  6
CONTINUOUS
 10
1.250921
 20
-3.754583
  0
VERTEX
  8
PLAN_1
  6
CONTINUOUS
 10
1.246165
 20
-3.759815
  0
VERTEX
  8
PLAN_1
  6
CONTINUOUS
 10
1.243311
 20
-3.761717
  0
VERTEX
  8
PLAN_1
  6
CONTINUOUS
 10
1.239980
 20
-3.764094
  0
VERTEX
  8
PLAN_1
  6
CONTINUOUS
 10
1.237126
 20
-3.766000
  0
VERTEX
  8
PLAN_1
  6
CONTINUOUS
 10
1.233323
 20
-3.767902
  0
VERTEX
  8
PLAN_1
  6
CONTINUOUS
 10
1.229992
 20
-3.769803
  0
VERTEX
  8
PLAN_1
  6
CONTINUOUS
 10
1.225713
 20
-3.771232
  0
VERTEX
  8
PLAN_1
  6
CONTINUOUS
 10
1.221906
 20
-3.772657
  0
VERTEX
  8
PLAN_1
  6
CONTINUOUS
 10
1.217150
 20
-3.773610
  0
VERTEX
  8
PLAN_1
  6
CONTINUOUS
 10
1.212394
 20
-3.774559
  0
VERTEX
  8
PLAN_1
  6
CONTINUOUS
 10
1.207638
 20
-3.775035
  0
VERTEX
  8
PLAN_1
  6
CONTINUOUS
 10
1.202406
 20
-3.775512
  0
VERTEX
  8
PLAN_1
  6
CONTINUOUS
 10
1.196697
 20
-3.775512
  0
VERTEX
  8
PLAN_1
  6
CONTINUOUS
 10
1.191941
 20
-3.775512
  0
VERTEX
  8
PLAN_1
  6
CONTINUOUS
 10
1.186709
 20
-3.775035
  0
VERTEX
  8
PLAN_1
  6
CONTINUOUS
 10
1.181953
 20
-3.774559
  0
VERTEX
  8
PLAN_1
  6
CONTINUOUS
 10
1.176720
 20
-3.773134
  0
VERTEX
  8
PLAN_1
  6
CONTINUOUS
 10
1.171965
 20
-3.771705
  0
VERTEX
  8
PLAN_1
  6
CONTINUOUS
 10
1.166736
 20
-3.769803
  0
VERTEX
  8
PLAN_1
  6
CONTINUOUS
 10
1.161976
 20
-3.767902
  0
VERTEX
  8
PLAN_1
  6
CONTINUOUS
 10
1.157220
 20
-3.765047
  0
VERTEX
  8
PLAN_1
  6
CONTINUOUS
 10
1.152941
 20
-3.761717
  0
VERTEX
  8
PLAN_1
  6
CONTINUOUS
 10
1.149138
 20
-3.757913
  0
VERTEX
  8
PLAN_1
  6
CONTINUOUS
 10
1.145331
 20
-3.753634
  0
VERTEX
  8
PLAN_1
  6
CONTINUOUS
 10
1.142000
 20
-3.748402
  0
VERTEX
  8
PLAN_1
  6
CONTINUOUS
 10
1.139150
 20
-3.742693
  0
VERTEX
  8
PLAN_1
  6
CONTINUOUS
 10
1.136772
 20
-3.736508
  0
VERTEX
  8
PLAN_1
  6
CONTINUOUS
 10
1.134866
 20
-3.729374
  0
VERTEX
  8
PLAN_1
  6
CONTINUOUS
 10
1.133917
 20
-3.721764
  0
VERTEX
  8
PLAN_1
  6
CONTINUOUS
 10
1.159126
 20
-3.721764
  0
VERTEX
  8
PLAN_1
  6
CONTINUOUS
 10
1.159598
 20
-3.726047
  0
VERTEX
  8
PLAN_1
  6
CONTINUOUS
 10
1.160551
 20
-3.729850
  0
VERTEX
  8
PLAN_1
  6
CONTINUOUS
 10
1.161976
 20
-3.733181
  0
VERTEX
  8
PLAN_1
  6
CONTINUOUS
 10
1.163406
 20
-3.736508
  0
VERTEX
  8
PLAN_1
  6
CONTINUOUS
 10
1.165307
 20
-3.739362
  0
VERTEX
  8
PLAN_1
  6
CONTINUOUS
 10
1.167209
 20
-3.742217
  0
VERTEX
  8
PLAN_1
  6
CONTINUOUS
 10
1.169587
 20
-3.744594
  0
VERTEX
  8
PLAN_1
  6
CONTINUOUS
 10
1.172441
 20
-3.746496
  0
VERTEX
  8
PLAN_1
  6
CONTINUOUS
 10
1.175295
 20
-3.748402
  0
VERTEX
  8
PLAN_1
  6
CONTINUOUS
 10
1.178150
 20
-3.750303
  0
VERTEX
  8
PLAN_1
  6
CONTINUOUS
 10
1.181480
 20
-3.751256
  0
VERTEX
  8
PLAN_1
  6
CONTINUOUS
 10
1.184807
 20
-3.752681
  0
VERTEX
  8
PLAN_1
  6
CONTINUOUS
 10
1.188614
 20
-3.753634
  0
VERTEX
  8
PLAN_1
  6
CONTINUOUS
 10
1.192417
 20
-3.754106
  0
VERTEX
  8
PLAN_1
  6
CONTINUOUS
 10
1.196224
 20
-3.754583
  0
VERTEX
  8
PLAN_1
  6
CONTINUOUS
 10
1.200504
 20
-3.754583
  0
VERTEX
  8
PLAN_1
  6
CONTINUOUS
 10
1.204783
 20
-3.754106
  0
VERTEX
  8
PLAN_1
  6
CONTINUOUS
 10
1.209539
 20
-3.753634
  0
VERTEX
  8
PLAN_1
  6
CONTINUOUS
 10
1.213346
 20
-3.752681
  0
VERTEX
  8
PLAN_1
  6
CONTINUOUS
 10
1.217626
 20
-3.750780
  0
VERTEX
  8
PLAN_1
  6
CONTINUOUS
 10
1.220957
 20
-3.748878
  0
VERTEX
  8
PLAN_1
  6
CONTINUOUS
 10
1.224283
 20
-3.746972
  0
VERTEX
  8
PLAN_1
  6
CONTINUOUS
 10
1.227614
 20
-3.744118
  0
VERTEX
  8
PLAN_1
  6
CONTINUOUS
 10
1.230469
 20
-3.741268
  0
VERTEX
  8
PLAN_1
  6
CONTINUOUS
 10
1.232846
 20
-3.737937
  0
VERTEX
  8
PLAN_1
  6
CONTINUOUS
 10
1.235224
 20
-3.734606
  0
VERTEX
  8
PLAN_1
  6
CONTINUOUS
 10
1.237126
 20
-3.730803
  0
VERTEX
  8
PLAN_1
  6
CONTINUOUS
 10
1.238555
 20
-3.726996
  0
VERTEX
  8
PLAN_1
  6
CONTINUOUS
 10
1.239980
 20
-3.723193
  0
VERTEX
  8
PLAN_1
  6
CONTINUOUS
 10
1.240457
 20
-3.718913
  0
VERTEX
  8
PLAN_1
  6
CONTINUOUS
 10
1.241406
 20
-3.714154
  0
VERTEX
  8
PLAN_1
  6
CONTINUOUS
 10
1.241406
 20
-3.709874
  0
VERTEX
  8
PLAN_1
  6
CONTINUOUS
 10
1.241406
 20
-3.704642
  0
VERTEX
  8
PLAN_1
  6
CONTINUOUS
 10
1.240457
 20
-3.699886
  0
VERTEX
  8
PLAN_1
  6
CONTINUOUS
 10
1.239504
 20
-3.695606
  0
VERTEX
  8
PLAN_1
  6
CONTINUOUS
 10
1.238079
 20
-3.691327
  0
VERTEX
  8
PLAN_1
  6
CONTINUOUS
 10
1.236177
 20
-3.687520
  0
VERTEX
  8
PLAN_1
  6
CONTINUOUS
 10
1.234272
 20
-3.683717
  0
VERTEX
  8
PLAN_1
  6
CONTINUOUS
 10
1.231417
 20
-3.680386
  0
VERTEX
  8
PLAN_1
  6
CONTINUOUS
 10
1.229039
 20
-3.677531
  0
VERTEX
  8
PLAN_1
  6
CONTINUOUS
 10
1.225713
 20
-3.675154
  0
VERTEX
  8
PLAN_1
  6
CONTINUOUS
 10
1.222382
 20
-3.672776
  0
VERTEX
  8
PLAN_1
  6
CONTINUOUS
 10
1.219051
 20
-3.670874
  0
VERTEX
  8
PLAN_1
  6
CONTINUOUS
 10
1.215248
 20
-3.669445
  0
VERTEX
  8
PLAN_1
  6
CONTINUOUS
 10
1.210969
 20
-3.668020
  0
VERTEX
  8
PLAN_1
  6
CONTINUOUS
 10
1.206685
 20
-3.667067
  0
VERTEX
  8
PLAN_1
  6
CONTINUOUS
 10
1.202406
 20
-3.666594
  0
VERTEX
  8
PLAN_1
  6
CONTINUOUS
 10
1.198126
 20
-3.666594
  0
VERTEX
  8
PLAN_1
  6
CONTINUOUS
 10
1.192894
 20
-3.666594
  0
VERTEX
  8
PLAN_1
  6
CONTINUOUS
 10
1.187661
 20
-3.667543
  0
VERTEX
  8
PLAN_1
  6
CONTINUOUS
 10
1.182906
 20
-3.669445
  0
VERTEX
  8
PLAN_1
  6
CONTINUOUS
 10
1.178150
 20
-3.671350
  0
VERTEX
  8
PLAN_1
  6
CONTINUOUS
 10
1.173870
 20
-3.673728
  0
VERTEX
  8
PLAN_1
  6
CONTINUOUS
 10
1.169587
 20
-3.677055
  0
VERTEX
  8
PLAN_1
  6
CONTINUOUS
 10
1.165783
 20
-3.680862
  0
VERTEX
  8
PLAN_1
  6
CONTINUOUS
 10
1.161976
 20
-3.685142
  0
VERTEX
  8
PLAN_1
  6
CONTINUOUS
 10
1.141051
 20
-3.684193
  0
VERTEX
  8
PLAN_1
  6
CONTINUOUS
 10
1.155795
 20
-3.579555
  0
VERTEX
  8
PLAN_1
  6
CONTINUOUS
 10
1.256626
 20
-3.579555
  0
VERTEX
  8
PLAN_1
  6
CONTINUOUS
 10
1.256626
 20
-3.603335
  0
VERTEX
  8
PLAN_1
  6
CONTINUOUS
 10
1.173870
 20
-3.603335
  0
VERTEX
  8
PLAN_1
  6
CONTINUOUS
 10
1.165783
 20
-3.656606
  0
SEQEND
  8
0
  0
POLYLINE
  8
PLAN_1
  6
CONTINUOUS
 66
     1
 40
0.003000
 41
0.003000
  0
VERTEX
  8
PLAN_1
  6
CONTINUOUS
 10
1.290874
 20
-3.641862
  0
VERTEX
  8
PLAN_1
  6
CONTINUOUS
 10
1.291346
 20
-3.635677
  0
VERTEX
  8
PLAN_1
  6
CONTINUOUS
 10
1.291823
 20
-3.629020
  0
VERTEX
  8
PLAN_1
  6
CONTINUOUS
 10
1.293252
 20
-3.622835
  0
VERTEX
  8
PLAN_1
  6
CONTINUOUS
 10
1.294677
 20
-3.616654
  0
VERTEX
  8
PLAN_1
  6
CONTINUOUS
 10
1.297055
 20
-3.610945
  0
VERTEX
  8
PLAN_1
  6
CONTINUOUS
 10
1.299909
 20
-3.605236
  0
VERTEX
  8
PLAN_1
  6
CONTINUOUS
 10
1.303240
 20
-3.600004
  0
VERTEX
  8
PLAN_1
  6
CONTINUOUS
 10
1.307043
 20
-3.595248
  0
VERTEX
  8
PLAN_1
  6
CONTINUOUS
 10
1.310850
 20
-3.590969
  0
VERTEX
  8
PLAN_1
  6
CONTINUOUS
 10
1.315606
 20
-3.587165
  0
VERTEX
  8
PLAN_1
  6
CONTINUOUS
 10
1.320839
 20
-3.583358
  0
VERTEX
  8
PLAN_1
  6
CONTINUOUS
 10
1.326543
 20
-3.580504
  0
VERTEX
  8
PLAN_1
  6
CONTINUOUS
 10
1.332728
 20
-3.578126
  0
VERTEX
  8
PLAN_1
  6
CONTINUOUS
 10
1.338909
 20
-3.576701
  0
VERTEX
  8
PLAN_1
  6
CONTINUOUS
 10
1.346043
 20
-3.575748
  0
VERTEX
  8
PLAN_1
  6
CONTINUOUS
 10
1.353654
 20
-3.575272
  0
VERTEX
  8
PLAN_1
  6
CONTINUOUS
 10
1.359362
 20
-3.575272
  0
VERTEX
  8
PLAN_1
  6
CONTINUOUS
 10
1.364594
 20
-3.575748
  0
VERTEX
  8
PLAN_1
  6
CONTINUOUS
 10
1.369827
 20
-3.576701
  0
VERTEX
  8
PLAN_1
  6
CONTINUOUS
 10
1.374583
 20
-3.577650
  0
VERTEX
  8
PLAN_1
  6
CONTINUOUS
 10
1.378862
 20
-3.579079
  0
VERTEX
  8
PLAN_1
  6
CONTINUOUS
 10
1.383142
 20
-3.580980
  0
VERTEX
  8
PLAN_1
  6
CONTINUOUS
 10
1.386949
 20
-3.582882
  0
VERTEX
  8
PLAN_1
  6
CONTINUOUS
 10
1.390752
 20
-3.584783
  0
VERTEX
  8
PLAN_1
  6
CONTINUOUS
 10
1.394083
 20
-3.587165
  0
VERTEX
  8
PLAN_1
  6
CONTINUOUS
 10
1.396937
 20
-3.590016
  0
VERTEX
  8
PLAN_1
  6
CONTINUOUS
 10
1.399791
 20
-3.592394
  0
VERTEX
  8
PLAN_1
  6
CONTINUOUS
 10
1.402646
 20
-3.595248
  0
VERTEX
  8
PLAN_1
  6
CONTINUOUS
 10
1.407402
 20
-3.601909
  0
VERTEX
  8
PLAN_1
  6
CONTINUOUS
 10
1.411205
 20
-3.608567
  0
VERTEX
  8
PLAN_1
  6
CONTINUOUS
 10
1.414059
 20
-3.615701
  0
VERTEX
  8
PLAN_1
  6
CONTINUOUS
 10
1.416913
 20
-3.623311
  0
VERTEX
  8
PLAN_1
  6
CONTINUOUS
 10
1.418815
 20
-3.630445
  0
VERTEX
  8
PLAN_1
  6
CONTINUOUS
 10
1.419768
 20
-3.638055
  0
VERTEX
  8
PLAN_1
  6
CONTINUOUS
 10
1.420717
 20
-3.645665
  0
VERTEX
  8
PLAN_1
  6
CONTINUOUS
 10
1.421669
 20
-3.652799
  0
VERTEX
  8
PLAN_1
  6
CONTINUOUS
 10
1.421669
 20
-3.659457
  0
VERTEX
  8
PLAN_1
  6
CONTINUOUS
 10
1.422146
 20
-3.665642
  0
VERTEX
  8
PLAN_1
  6
CONTINUOUS
 10
1.421669
 20
-3.676583
  0
VERTEX
  8
PLAN_1
  6
CONTINUOUS
 10
1.420244
 20
-3.691799
  0
VERTEX
  8
PLAN_1
  6
CONTINUOUS
 10
1.418815
 20
-3.700362
  0
VERTEX
  8
PLAN_1
  6
CONTINUOUS
 10
1.417390
 20
-3.709398
  0
VERTEX
  8
PLAN_1
  6
CONTINUOUS
 10
1.415012
 20
-3.718913
  0
VERTEX
  8
PLAN_1
  6
CONTINUOUS
 10
1.411681
 20
-3.728425
  0
VERTEX
  8
PLAN_1
  6
CONTINUOUS
 10
1.409780
 20
-3.733181
  0
VERTEX
  8
PLAN_1
  6
CONTINUOUS
 10
1.407878
 20
-3.737461
  0
VERTEX
  8
PLAN_1
  6
CONTINUOUS
 10
1.405496
 20
-3.742217
  0
VERTEX
  8
PLAN_1
  6
CONTINUOUS
 10
1.403118
 20
-3.746496
  0
VERTEX
  8
PLAN_1
  6
CONTINUOUS
 10
1.400268
 20
-3.750303
  0
VERTEX
  8
PLAN_1
  6
CONTINUOUS
 10
1.397413
 20
-3.754106
  0
VERTEX
  8
PLAN_1
  6
CONTINUOUS
 10
1.394083
 20
-3.757913
  0
VERTEX
  8
PLAN_1
  6
CONTINUOUS
 10
1.390752
 20
-3.761244
  0
VERTEX
  8
PLAN_1
  6
CONTINUOUS
 10
1.386472
 20
-3.764571
  0
VERTEX
  8
PLAN_1
  6
CONTINUOUS
 10
1.382669
 20
-3.767425
  0
VERTEX
  8
PLAN_1
  6
CONTINUOUS
 10
1.378386
 20
-3.769803
  0
VERTEX
  8
PLAN_1
  6
CONTINUOUS
 10
1.373630
 20
-3.771705
  0
VERTEX
  8
PLAN_1
  6
CONTINUOUS
 10
1.368398
 20
-3.773134
  0
VERTEX
  8
PLAN_1
  6
CONTINUOUS
 10
1.363169
 20
-3.774559
  0
VERTEX
  8
PLAN_1
  6
CONTINUOUS
 10
1.357461
 20
-3.775512
  0
VERTEX
  8
PLAN_1
  6
CONTINUOUS
 10
1.351276
 20
-3.775512
  0
VERTEX
  8
PLAN_1
  6
CONTINUOUS
 10
1.342717
 20
-3.775035
  0
VERTEX
  8
PLAN_1
  6
CONTINUOUS
 10
1.335583
 20
-3.774083
  0
VERTEX
  8
PLAN_1
  6
CONTINUOUS
 10
1.328921
 20
-3.772181
  0
VERTEX
  8
PLAN_1
  6
CONTINUOUS
 10
1.322740
 20
-3.770280
  0
VERTEX
  8
PLAN_1
  6
CONTINUOUS
 10
1.317508
 20
-3.767425
  0
VERTEX
  8
PLAN_1
  6
CONTINUOUS
 10
1.312752
 20
-3.764094
  0
VERTEX
  8
PLAN_1
  6
CONTINUOUS
 10
1.308472
 20
-3.760291
  0
VERTEX
  8
PLAN_1
  6
CONTINUOUS
 10
1.305142
 20
-3.756484
  0
VERTEX
  8
PLAN_1
  6
CONTINUOUS
 10
1.301811
 20
-3.752681
  0
VERTEX
  8
PLAN_1
  6
CONTINUOUS
 10
1.299433
 20
-3.748402
  0
VERTEX
  8
PLAN_1
  6
CONTINUOUS
 10
1.297531
 20
-3.743646
  0
VERTEX
  8
PLAN_1
  6
CONTINUOUS
 10
1.295630
 20
-3.739362
  0
VERTEX
  8
PLAN_1
  6
CONTINUOUS
 10
1.294677
 20
-3.735083
  0
VERTEX
  8
PLAN_1
  6
CONTINUOUS
 10
1.293724
 20
-3.731280
  0
VERTEX
  8
PLAN_1
  6
CONTINUOUS
 10
1.293252
 20
-3.726996
  0
VERTEX
  8
PLAN_1
  6
CONTINUOUS
 10
1.293252
 20
-3.723193
  0
VERTEX
  8
PLAN_1
  6
CONTINUOUS
 10
1.317508
 20
-3.723193
  0
VERTEX
  8
PLAN_1
  6
CONTINUOUS
 10
1.317984
 20
-3.726996
  0
VERTEX
  8
PLAN_1
  6
CONTINUOUS
 10
1.318457
 20
-3.730327
  0
VERTEX
  8
PLAN_1
  6
CONTINUOUS
 10
1.319409
 20
-3.733657
  0
VERTEX
  8
PLAN_1
  6
CONTINUOUS
 10
1.320362
 20
-3.736508
  0
VERTEX
  8
PLAN_1
  6
CONTINUOUS
 10
1.321787
 20
-3.739362
  0
VERTEX
  8
PLAN_1
  6
CONTINUOUS
 10
1.323217
 20
-3.742217
  0
VERTEX
  8
PLAN_1
  6
CONTINUOUS
 10
1.325118
 20
-3.744594
  0
VERTEX
  8
PLAN_1
  6
CONTINUOUS
 10
1.327020
 20
-3.746972
  0
VERTEX
  8
PLAN_1
  6
CONTINUOUS
 10
1.329398
 20
-3.748878
  0
VERTEX
  8
PLAN_1
  6
CONTINUOUS
 10
1.331776
 20
-3.750303
  0
VERTEX
  8
PLAN_1
  6
CONTINUOUS
 10
1.334154
 20
-3.751728
  0
VERTEX
  8
PLAN_1
  6
CONTINUOUS
 10
1.337008
 20
-3.753157
  0
VERTEX
  8
PLAN_1
  6
CONTINUOUS
 10
1.340339
 20
-3.754106
  0
VERTEX
  8
PLAN_1
  6
CONTINUOUS
 10
1.343665
 20
-3.754583
  0
VERTEX
  8
PLAN_1
  6
CONTINUOUS
 10
1.346996
 20
-3.755059
  0
VERTEX
  8
PLAN_1
  6
CONTINUOUS
 10
1.350799
 20
-3.755535
  0
VERTEX
  8
PLAN_1
  6
CONTINUOUS
 10
1.355559
 20
-3.755059
  0
VERTEX
  8
PLAN_1
  6
CONTINUOUS
 10
1.359839
 20
-3.754106
  0
VERTEX
  8
PLAN_1
  6
CONTINUOUS
 10
1.364118
 20
-3.752681
  0
VERTEX
  8
PLAN_1
  6
CONTINUOUS
 10
1.368398
 20
-3.750780
  0
VERTEX
  8
PLAN_1
  6
CONTINUOUS
 10
1.372205
 20
-3.748402
  0
VERTEX
  8
PLAN_1
  6
CONTINUOUS
 10
1.375535
 20
-3.745547
  0
VERTEX
  8
PLAN_1
  6
CONTINUOUS
 10
1.378862
 20
-3.741740
  0
VERTEX
  8
PLAN_1
  6
CONTINUOUS
 10
1.381717
 20
-3.737937
  0
VERTEX
  8
PLAN_1
  6
CONTINUOUS
 10
1.384571
 20
-3.733181
  0
VERTEX
  8
PLAN_1
  6
CONTINUOUS
 10
1.386949
 20
-3.727472
  0
VERTEX
  8
PLAN_1
  6
CONTINUOUS
 10
1.389327
 20
-3.721764
  0
VERTEX
  8
PLAN_1
  6
CONTINUOUS
 10
1.391228
 20
-3.715106
  0
VERTEX
  8
PLAN_1
  6
CONTINUOUS
 10
1.393130
 20
-3.707972
  0
VERTEX
  8
PLAN_1
  6
CONTINUOUS
 10
1.395035
 20
-3.699886
  0
VERTEX
  8
PLAN_1
  6
CONTINUOUS
 10
1.396461
 20
-3.691327
  0
VERTEX
  8
PLAN_1
  6
CONTINUOUS
 10
1.397413
 20
-3.682287
  0
VERTEX
  8
PLAN_1
  6
CONTINUOUS
 10
1.396937
 20
-3.681811
  0
VERTEX
  8
PLAN_1
  6
CONTINUOUS
 10
1.395512
 20
-3.684665
  0
VERTEX
  8
PLAN_1
  6
CONTINUOUS
 10
1.393606
 20
-3.687043
  0
VERTEX
  8
PLAN_1
  6
CONTINUOUS
 10
1.391705
 20
-3.689421
  0
VERTEX
  8
PLAN_1
  6
CONTINUOUS
 10
1.389327
 20
-3.691799
  0
VERTEX
  8
PLAN_1
  6
CONTINUOUS
 10
1.384571
 20
-3.695606
  0
VERTEX
  8
PLAN_1
  6
CONTINUOUS
 10
1.378862
 20
-3.698937
  0
VERTEX
  8
PLAN_1
  6
CONTINUOUS
 10
1.372205
 20
-3.701787
  0
VERTEX
  8
PLAN_1
  6
CONTINUOUS
 10
1.366020
 20
-3.703693
  0
VERTEX
  8
PLAN_1
  6
CONTINUOUS
 10
1.358886
 20
-3.704642
  0
VERTEX
  8
PLAN_1
  6
CONTINUOUS
 10
1.352228
 20
-3.705118
  0
VERTEX
  8
PLAN_1
  6
CONTINUOUS
 10
1.345571
 20
-3.704642
  0
VERTEX
  8
PLAN_1
  6
CONTINUOUS
 10
1.339386
 20
-3.704165
  0
VERTEX
  8
PLAN_1
  6
CONTINUOUS
 10
1.333205
 20
-3.702740
  0
VERTEX
  8
PLAN_1
  6
CONTINUOUS
 10
1.327496
 20
-3.700839
  0
VERTEX
  8
PLAN_1
  6
CONTINUOUS
 10
1.321787
 20
-3.698461
  0
VERTEX
  8
PLAN_1
  6
CONTINUOUS
 10
1.317031
 20
-3.695606
  0
VERTEX
  8
PLAN_1
  6
CONTINUOUS
 10
1.312276
 20
-3.691799
  0
VERTEX
  8
PLAN_1
  6
CONTINUOUS
 10
1.307996
 20
-3.687996
  0
VERTEX
  8
PLAN_1
  6
CONTINUOUS
 10
1.304189
 20
-3.683717
  0
VERTEX
  8
PLAN_1
  6
CONTINUOUS
 10
1.300862
 20
-3.678961
  0
VERTEX
  8
PLAN_1
  6
CONTINUOUS
 10
1.298008
 20
-3.673728
  0
VERTEX
  8
PLAN_1
  6
CONTINUOUS
 10
1.295630
 20
-3.668496
  0
VERTEX
  8
PLAN_1
  6
CONTINUOUS
 10
1.293252
 20
-3.662311
  0
VERTEX
  8
PLAN_1
  6
CONTINUOUS
 10
1.291823
 20
-3.656130
  0
VERTEX
  8
PLAN_1
  6
CONTINUOUS
 10
1.291346
 20
-3.648996
  0
VERTEX
  8
PLAN_1
  6
CONTINUOUS
 10
1.290874
 20
-3.641862
  0
SEQEND
  8
0
  0
POLYLINE
  8
PLAN_1
  6
CONTINUOUS
 66
     1
 40
0.003000
 41
0.003000
  0
VERTEX
  8
PLAN_1
  6
CONTINUOUS
 10
1.393130
 20
-3.638531
  0
VERTEX
  8
PLAN_1
  6
CONTINUOUS
 10
1.393130
 20
-3.634724
  0
VERTEX
  8
PLAN_1
  6
CONTINUOUS
 10
1.392657
 20
-3.630445
  0
VERTEX
  8
PLAN_1
  6
CONTINUOUS
 10
1.392181
 20
-3.626642
  0
VERTEX
  8
PLAN_1
  6
CONTINUOUS
 10
1.391228
 20
-3.622835
  0
VERTEX
  8
PLAN_1
  6
CONTINUOUS
 10
1.389803
 20
-3.619031
  0
VERTEX
  8
PLAN_1
  6
CONTINUOUS
 10
1.388374
 20
-3.615701
  0
VERTEX
  8
PLAN_1
  6
CONTINUOUS
 10
1.386472
 20
-3.612370
  0
VERTEX
  8
PLAN_1
  6
CONTINUOUS
 10
1.384094
 20
-3.609520
  0
VERTEX
  8
PLAN_1
  6
CONTINUOUS
 10
1.381717
 20
-3.606665
  0
VERTEX
  8
PLAN_1
  6
CONTINUOUS
 10
1.378862
 20
-3.604287
  0
VERTEX
  8
PLAN_1
  6
CONTINUOUS
 10
1.375535
 20
-3.602382
  0
VERTEX
  8
PLAN_1
  6
CONTINUOUS
 10
1.371728
 20
-3.600480
  0
VERTEX
  8
PLAN_1
  6
CONTINUOUS
 10
1.367925
 20
-3.599055
  0
VERTEX
  8
PLAN_1
  6
CONTINUOUS
 10
1.363642
 20
-3.598102
  0
VERTEX
  8
PLAN_1
  6
CONTINUOUS
 10
1.358886
 20
-3.597154
  0
VERTEX
  8
PLAN_1
  6
CONTINUOUS
 10
1.354130
 20
-3.597154
  0
VERTEX
  8
PLAN_1
  6
CONTINUOUS
 10
1.349850
 20
-3.597154
  0
VERTEX
  8
PLAN_1
  6
CONTINUOUS
 10
1.345571
 20
-3.598102
  0
VERTEX
  8
PLAN_1
  6
CONTINUOUS
 10
1.341764
 20
-3.599055
  0
VERTEX
  8
PLAN_1
  6
CONTINUOUS
 10
1.338433
 20
-3.600480
  0
VERTEX
  8
PLAN_1
  6
CONTINUOUS
 10
1.335106
 20
-3.601909
  0
VERTEX
  8
PLAN_1
  6
CONTINUOUS
 10
1.331776
 20
-3.604287
  0
VERTEX
  8
PLAN_1
  6
CONTINUOUS
 10
1.328921
 20
-3.606665
  0
VERTEX
  8
PLAN_1
  6
CONTINUOUS
 10
1.326543
 20
-3.609043
  0
VERTEX
  8
PLAN_1
  6
CONTINUOUS
 10
1.324165
 20
-3.612370
  0
VERTEX
  8
PLAN_1
  6
CONTINUOUS
 10
1.322264
 20
-3.615701
  0
VERTEX
  8
PLAN_1
  6
CONTINUOUS
 10
1.320362
 20
-3.619031
  0
VERTEX
  8
PLAN_1
  6
CONTINUOUS
 10
1.318933
 20
-3.623311
  0
VERTEX
  8
PLAN_1
  6
CONTINUOUS
 10
1.317508
 20
-3.627114
  0
VERTEX
  8
PLAN_1
  6
CONTINUOUS
 10
1.317031
 20
-3.631398
  0
VERTEX
  8
PLAN_1
  6
CONTINUOUS
 10
1.316555
 20
-3.636154
  0
VERTEX
  8
PLAN_1
  6
CONTINUOUS
 10
1.316079
 20
-3.640909
  0
VERTEX
  8
PLAN_1
  6
CONTINUOUS
 10
1.316555
 20
-3.647567
  0
VERTEX
  8
PLAN_1
  6
CONTINUOUS
 10
1.317031
 20
-3.653752
  0
VERTEX
  8
PLAN_1
  6
CONTINUOUS
 10
1.318457
 20
-3.658984
  0
VERTEX
  8
PLAN_1
  6
CONTINUOUS
 10
1.319886
 20
-3.663264
  0
VERTEX
  8
PLAN_1
  6
CONTINUOUS
 10
1.322264
 20
-3.667543
  0
VERTEX
  8
PLAN_1
  6
CONTINUOUS
 10
1.324165
 20
-3.670874
  0
VERTEX
  8
PLAN_1
  6
CONTINUOUS
 10
1.327020
 20
-3.673728
  0
VERTEX
  8
PLAN_1
  6
CONTINUOUS
 10
1.329874
 20
-3.676106
  0
VERTEX
  8
PLAN_1
  6
CONTINUOUS
 10
1.332728
 20
-3.678008
  0
VERTEX
  8
PLAN_1
  6
CONTINUOUS
 10
1.336055
 20
-3.679909
  0
VERTEX
  8
PLAN_1
  6
CONTINUOUS
 10
1.339386
 20
-3.680862
  0
VERTEX
  8
PLAN_1
  6
CONTINUOUS
 10
1.342717
 20
-3.681811
  0
VERTEX
  8
PLAN_1
  6
CONTINUOUS
 10
1.349374
 20
-3.682764
  0
VERTEX
  8
PLAN_1
  6
CONTINUOUS
 10
1.356031
 20
-3.683240
  0
VERTEX
  8
PLAN_1
  6
CONTINUOUS
 10
1.361264
 20
-3.682764
  0
VERTEX
  8
PLAN_1
  6
CONTINUOUS
 10
1.366972
 20
-3.681811
  0
VERTEX
  8
PLAN_1
  6
CONTINUOUS
 10
1.370303
 20
-3.680386
  0
VERTEX
  8
PLAN_1
  6
CONTINUOUS
 10
1.373157
 20
-3.679433
  0
VERTEX
  8
PLAN_1
  6
CONTINUOUS
 10
1.376484
 20
-3.677531
  0
VERTEX
  8
PLAN_1
  6
CONTINUOUS
 10
1.379339
 20
-3.675630
  0
VERTEX
  8
PLAN_1
  6
CONTINUOUS
 10
1.382193
 20
-3.672776
  0
VERTEX
  8
PLAN_1
  6
CONTINUOUS
 10
1.385047
 20
-3.669921
  0
VERTEX
  8
PLAN_1
  6
CONTINUOUS
 10
1.387425
 20
-3.666118
  0
VERTEX
  8
PLAN_1
  6
CONTINUOUS
 10
1.389327
 20
-3.661839
  0
VERTEX
  8
PLAN_1
  6
CONTINUOUS
 10
1.390752
 20
-3.657079
  0
VERTEX
  8
PLAN_1
  6
CONTINUOUS
 10
1.392181
 20
-3.651850
  0
VERTEX
  8
PLAN_1
  6
CONTINUOUS
 10
1.393130
 20
-3.645665
  0
VERTEX
  8
PLAN_1
  6
CONTINUOUS
 10
1.393130
 20
-3.638531
  0
SEQEND
  8
0
  0
SOLID
  8
PLAN_1
 10
1.433559
 20
-3.805000
 11
1.433559
 21
-3.791205
 12
1.588138
 22
-3.805000
 13
1.588138
 23
-3.791205
  0
POLYLINE
  8
PLAN_1
  6
CONTINUOUS
 66
     1
 40
0.003000
 41
0.003000
  0
VERTEX
  8
PLAN_1
  6
CONTINUOUS
 10
1.433559
 20
-3.805000
  0
VERTEX
  8
PLAN_1
  6
CONTINUOUS
 10
1.433559
 20
-3.791205
  0
VERTEX
  8
PLAN_1
  6
CONTINUOUS
 10
1.588138
 20
-3.791205
  0
VERTEX
  8
PLAN_1
  6
CONTINUOUS
 10
1.588138
 20
-3.805000
  0
VERTEX
  8
PLAN_1
  6
CONTINUOUS
 10
1.433559
 20
-3.805000
  0
SEQEND
  8
0
  0
POLYLINE
  8
PLAN_1
  6
CONTINUOUS
 66
     1
 40
0.003000
 41
0.003000
  0
VERTEX
  8
PLAN_1
  6
CONTINUOUS
 10
1.639031
 20
-3.770280
  0
VERTEX
  8
PLAN_1
  6
CONTINUOUS
 10
1.611917
 20
-3.770280
  0
VERTEX
  8
PLAN_1
  6
CONTINUOUS
 10
1.611917
 20
-3.570992
  0
VERTEX
  8
PLAN_1
  6
CONTINUOUS
 10
1.749850
 20
-3.570992
  0
VERTEX
  8
PLAN_1
  6
CONTINUOUS
 10
1.749850
 20
-3.594772
  0
VERTEX
  8
PLAN_1
  6
CONTINUOUS
 10
1.639031
 20
-3.594772
  0
VERTEX
  8
PLAN_1
  6
CONTINUOUS
 10
1.639031
 20
-3.656130
  0
VERTEX
  8
PLAN_1
  6
CONTINUOUS
 10
1.736531
 20
-3.656130
  0
VERTEX
  8
PLAN_1
  6
CONTINUOUS
 10
1.736531
 20
-3.679909
  0
VERTEX
  8
PLAN_1
  6
CONTINUOUS
 10
1.639031
 20
-3.679909
  0
VERTEX
  8
PLAN_1
  6
CONTINUOUS
 10
1.639031
 20
-3.770280
  0
SEQEND
  8
0
  0
SOLID
  8
PLAN_1
 10
1.768874
 20
-3.770280
 11
1.740339
 21
-3.770280
 12
1.768874
 22
-3.740791
 13
1.740339
 23
-3.740791
  0
POLYLINE
  8
PLAN_1
  6
CONTINUOUS
 66
     1
 40
0.003000
 41
0.003000
  0
VERTEX
  8
PLAN_1
  6
CONTINUOUS
 10
1.768874
 20
-3.770280
  0
VERTEX
  8
PLAN_1
  6
CONTINUOUS
 10
1.740339
 20
-3.770280
  0
VERTEX
  8
PLAN_1
  6
CONTINUOUS
 10
1.740339
 20
-3.740791
  0
VERTEX
  8
PLAN_1
  6
CONTINUOUS
 10
1.768874
 20
-3.740791
  0
VERTEX
  8
PLAN_1
  6
CONTINUOUS
 10
1.768874
 20
-3.770280
  0
SEQEND
  8
0
  0
POLYLINE
  8
PLAN_1
  6
CONTINUOUS
 66
     1
 40
0.003000
 41
0.003000
  0
VERTEX
  8
PLAN_1
  6
CONTINUOUS
 10
1.964358
 20
-3.770280
  0
VERTEX
  8
PLAN_1
  6
CONTINUOUS
 10
1.816913
 20
-3.770280
  0
VERTEX
  8
PLAN_1
  6
CONTINUOUS
 10
1.816913
 20
-3.570992
  0
VERTEX
  8
PLAN_1
  6
CONTINUOUS
 10
1.962457
 20
-3.570992
  0
VERTEX
  8
PLAN_1
  6
CONTINUOUS
 10
1.962457
 20
-3.594772
  0
VERTEX
  8
PLAN_1
  6
CONTINUOUS
 10
1.844024
 20
-3.594772
  0
VERTEX
  8
PLAN_1
  6
CONTINUOUS
 10
1.844024
 20
-3.656130
  0
VERTEX
  8
PLAN_1
  6
CONTINUOUS
 10
1.952941
 20
-3.656130
  0
VERTEX
  8
PLAN_1
  6
CONTINUOUS
 10
1.952941
 20
-3.679909
  0
VERTEX
  8
PLAN_1
  6
CONTINUOUS
 10
1.844024
 20
-3.679909
  0
VERTEX
  8
PLAN_1
  6
CONTINUOUS
 10
1.844024
 20
-3.746496
  0
VERTEX
  8
PLAN_1
  6
CONTINUOUS
 10
1.964358
 20
-3.746496
  0
VERTEX
  8
PLAN_1
  6
CONTINUOUS
 10
1.964358
 20
-3.770280
  0
SEQEND
  8
0
  0
POLYLINE
  8
PLAN_1
  6
CONTINUOUS
 66
     1
 40
0.003000
 41
0.003000
  0
VERTEX
  8
PLAN_1
  6
CONTINUOUS
 10
2.029043
 20
-3.770280
  0
VERTEX
  8
PLAN_1
  6
CONTINUOUS
 10
2.002406
 20
-3.770280
  0
VERTEX
  8
PLAN_1
  6
CONTINUOUS
 10
2.002406
 20
-3.570992
  0
VERTEX
  8
PLAN_1
  6
CONTINUOUS
 10
2.091827
 20
-3.570992
  0
VERTEX
  8
PLAN_1
  6
CONTINUOUS
 10
2.098961
 20
-3.571469
  0
VERTEX
  8
PLAN_1
  6
CONTINUOUS
 10
2.105142
 20
-3.571945
  0
VERTEX
  8
PLAN_1
  6
CONTINUOUS
 10
2.111327
 20
-3.573370
  0
VERTEX
  8
PLAN_1
  6
CONTINUOUS
 10
2.117031
 20
-3.575272
  0
VERTEX
  8
PLAN_1
  6
CONTINUOUS
 10
2.122264
 20
-3.577650
  0
VERTEX
  8
PLAN_1
  6
CONTINUOUS
 10
2.127020
 20
-3.580028
  0
VERTEX
  8
PLAN_1
  6
CONTINUOUS
 10
2.131303
 20
-3.583358
  0
VERTEX
  8
PLAN_1
  6
CONTINUOUS
 10
2.135583
 20
-3.587165
  0
VERTEX
  8
PLAN_1
  6
CONTINUOUS
 10
2.138913
 20
-3.590969
  0
VERTEX
  8
PLAN_1
  6
CONTINUOUS
 10
2.142240
 20
-3.595248
  0
VERTEX
  8
PLAN_1
  6
CONTINUOUS
 10
2.144618
 20
-3.600004
  0
VERTEX
  8
PLAN_1
  6
CONTINUOUS
 10
2.146996
 20
-3.604760
  0
VERTEX
  8
PLAN_1
  6
CONTINUOUS
 10
2.148902
 20
-3.609992
  0
VERTEX
  8
PLAN_1
  6
CONTINUOUS
 10
2.150327
 20
-3.615224
  0
VERTEX
  8
PLAN_1
  6
CONTINUOUS
 10
2.150803
 20
-3.620933
  0
VERTEX
  8
PLAN_1
  6
CONTINUOUS
 10
2.151280
 20
-3.627114
  0
VERTEX
  8
PLAN_1
  6
CONTINUOUS
 10
2.150803
 20
-3.632346
  0
VERTEX
  8
PLAN_1
  6
CONTINUOUS
 10
2.150327
 20
-3.637579
  0
VERTEX
  8
PLAN_1
  6
CONTINUOUS
 10
2.149374
 20
-3.642811
  0
VERTEX
  8
PLAN_1
  6
CONTINUOUS
 10
2.147949
 20
-3.648043
  0
VERTEX
  8
PLAN_1
  6
CONTINUOUS
 10
2.146047
 20
-3.653276
  0
VERTEX
  8
PLAN_1
  6
CONTINUOUS
 10
2.143669
 20
-3.658031
  0
VERTEX
  8
PLAN_1
  6
CONTINUOUS
 10
2.141291
 20
-3.662787
  0
VERTEX
  8
PLAN_1
  6
CONTINUOUS
 10
2.137961
 20
-3.667067
  0
VERTEX
  8
PLAN_1
  6
CONTINUOUS
 10
2.134154
 20
-3.671350
  0
VERTEX
  8
PLAN_1
  6
CONTINUOUS
 10
2.129874
 20
-3.674677
  0
VERTEX
  8
PLAN_1
  6
CONTINUOUS
 10
2.125118
 20
-3.678008
  0
VERTEX
  8
PLAN_1
  6
CONTINUOUS
 10
2.119409
 20
-3.680862
  0
VERTEX
  8
PLAN_1
  6
CONTINUOUS
 10
2.113705
 20
-3.683240
  0
VERTEX
  8
PLAN_1
  6
CONTINUOUS
 10
2.107043
 20
-3.684665
  0
VERTEX
  8
PLAN_1
  6
CONTINUOUS
 10
2.099909
 20
-3.685618
  0
VERTEX
  8
PLAN_1
  6
CONTINUOUS
 10
2.091827
 20
-3.686094
  0
VERTEX
  8
PLAN_1
  6
CONTINUOUS
 10
2.029043
 20
-3.686094
  0
VERTEX
  8
PLAN_1
  6
CONTINUOUS
 10
2.029043
 20
-3.770280
  0
SEQEND
  8
0
  0
POLYLINE
  8
PLAN_1
  6
CONTINUOUS
 66
     1
 40
0.003000
 41
0.003000
  0
VERTEX
  8
PLAN_1
  6
CONTINUOUS
 10
2.029043
 20
-3.663264
  0
VERTEX
  8
PLAN_1
  6
CONTINUOUS
 10
2.082787
 20
-3.663264
  0
VERTEX
  8
PLAN_1
  6
CONTINUOUS
 10
2.087067
 20
-3.663264
  0
VERTEX
  8
PLAN_1
  6
CONTINUOUS
 10
2.091350
 20
-3.662787
  0
VERTEX
  8
PLAN_1
  6
CONTINUOUS
 10
2.095630
 20
-3.662311
  0
VERTEX
  8
PLAN_1
  6
CONTINUOUS
 10
2.099433
 20
-3.661362
  0
VERTEX
  8
PLAN_1
  6
CONTINUOUS
 10
2.102764
 20
-3.660409
  0
VERTEX
  8
PLAN_1
  6
CONTINUOUS
 10
2.106094
 20
-3.658984
  0
VERTEX
  8
PLAN_1
  6
CONTINUOUS
 10
2.109421
 20
-3.657079
  0
VERTEX
  8
PLAN_1
  6
CONTINUOUS
 10
2.112276
 20
-3.655177
  0
VERTEX
  8
PLAN_1
  6
CONTINUOUS
 10
2.114654
 20
-3.653276
  0
VERTEX
  8
PLAN_1
  6
CONTINUOUS
 10
2.117031
 20
-3.650421
  0
VERTEX
  8
PLAN_1
  6
CONTINUOUS
 10
2.118937
 20
-3.647567
  0
VERTEX
  8
PLAN_1
  6
CONTINUOUS
 10
2.120362
 20
-3.644240
  0
VERTEX
  8
PLAN_1
  6
CONTINUOUS
 10
2.121787
 20
-3.640433
  0
VERTEX
  8
PLAN_1
  6
CONTINUOUS
 10
2.122740
 20
-3.636630
  0
VERTEX
  8
PLAN_1
  6
CONTINUOUS
 10
2.123217
 20
-3.632346
  0
VERTEX
  8
PLAN_1
  6
CONTINUOUS
 10
2.123217
 20
-3.627114
  0
VERTEX
  8
PLAN_1
  6
CONTINUOUS
 10
2.123217
 20
-3.622835
  0
VERTEX
  8
PLAN_1
  6
CONTINUOUS
 10
2.122740
 20
-3.618555
  0
VERTEX
  8
PLAN_1
  6
CONTINUOUS
 10
2.121787
 20
-3.614748
  0
VERTEX
  8
PLAN_1
  6
CONTINUOUS
 10
2.120362
 20
-3.611421
  0
VERTEX
  8
PLAN_1
  6
CONTINUOUS
 10
2.118461
 20
-3.608567
  0
VERTEX
  8
PLAN_1
  6
CONTINUOUS
 10
2.116559
 20
-3.605713
  0
VERTEX
  8
PLAN_1
  6
CONTINUOUS
 10
2.114654
 20
-3.603335
  0
VERTEX
  8
PLAN_1
  6
CONTINUOUS
 10
2.111799
 20
-3.601433
  0
VERTEX
  8
PLAN_1
  6
CONTINUOUS
 10
2.109421
 20
-3.599531
  0
VERTEX
  8
PLAN_1
  6
CONTINUOUS
 10
2.106094
 20
-3.598102
  0
VERTEX
  8
PLAN_1
  6
CONTINUOUS
 10
2.102764
 20
-3.596677
  0
VERTEX
  8
PLAN_1
  6
CONTINUOUS
 10
2.099433
 20
-3.595724
  0
VERTEX
  8
PLAN_1
  6
CONTINUOUS
 10
2.091827
 20
-3.594299
  0
VERTEX
  8
PLAN_1
  6
CONTINUOUS
 10
2.083740
 20
-3.593823
  0
VERTEX
  8
PLAN_1
  6
CONTINUOUS
 10
2.029043
 20
-3.593823
  0
VERTEX
  8
PLAN_1
  6
CONTINUOUS
 10
2.029043
 20
-3.663264
  0
SEQEND
  8
0
  0
POLYLINE
  8
PLAN_1
  6
CONTINUOUS
 66
     1
 40
0.003000
 41
0.003000
  0
VERTEX
  8
PLAN_1
  6
CONTINUOUS
 10
2.304906
 20
-3.629496
  0
VERTEX
  8
PLAN_1
  6
CONTINUOUS
 10
2.304429
 20
-3.623787
  0
VERTEX
  8
PLAN_1
  6
CONTINUOUS
 10
2.303476
 20
-3.618555
  0
VERTEX
  8
PLAN_1
  6
CONTINUOUS
 10
2.302051
 20
-3.614276
  0
VERTEX
  8
PLAN_1
  6
CONTINUOUS
 10
2.299673
 20
-3.609992
  0
VERTEX
  8
PLAN_1
  6
CONTINUOUS
 10
2.297295
 20
-3.606189
  0
VERTEX
  8
PLAN_1
  6
CONTINUOUS
 10
2.294917
 20
-3.602858
  0
VERTEX
  8
PLAN_1
  6
CONTINUOUS
 10
2.291587
 20
-3.600004
  0
VERTEX
  8
PLAN_1
  6
CONTINUOUS
 10
2.288260
 20
-3.597626
  0
VERTEX
  8
PLAN_1
  6
CONTINUOUS
 10
2.284453
 20
-3.595248
  0
VERTEX
  8
PLAN_1
  6
CONTINUOUS
 10
2.280650
 20
-3.593346
  0
VERTEX
  8
PLAN_1
  6
CONTINUOUS
 10
2.276843
 20
-3.591921
  0
VERTEX
  8
PLAN_1
  6
CONTINUOUS
 10
2.272563
 20
-3.590969
  0
VERTEX
  8
PLAN_1
  6
CONTINUOUS
 10
2.268283
 20
-3.590016
  0
VERTEX
  8
PLAN_1
  6
CONTINUOUS
 10
2.264000
 20
-3.589067
  0
VERTEX
  8
PLAN_1
  6
CONTINUOUS
 10
2.259720
 20
-3.589067
  0
VERTEX
  8
PLAN_1
  6
CONTINUOUS
 10
2.255441
 20
-3.588591
  0
VERTEX
  8
PLAN_1
  6
CONTINUOUS
 10
2.248780
 20
-3.589067
  0
VERTEX
  8
PLAN_1
  6
CONTINUOUS
 10
2.241169
 20
-3.590016
  0
VERTEX
  8
PLAN_1
  6
CONTINUOUS
 10
2.237366
 20
-3.590969
  0
VERTEX
  8
PLAN_1
  6
CONTINUOUS
 10
2.233563
 20
-3.591921
  0
VERTEX
  8
PLAN_1
  6
CONTINUOUS
 10
2.230232
 20
-3.593346
  0
VERTEX
  8
PLAN_1
  6
CONTINUOUS
 10
2.226425
 20
-3.594772
  0
VERTEX
  8
PLAN_1
  6
CONTINUOUS
 10
2.223098
 20
-3.597154
  0
VERTEX
  8
PLAN_1
  6
CONTINUOUS
 10
2.219768
 20
-3.599531
  0
VERTEX
  8
PLAN_1
  6
CONTINUOUS
 10
2.217390
 20
-3.602382
  0
VERTEX
  8
PLAN_1
  6
CONTINUOUS
 10
2.215012
 20
-3.605713
  0
VERTEX
  8
PLAN_1
  6
CONTINUOUS
 10
2.212634
 20
-3.609520
  0
VERTEX
  8
PLAN_1
  6
CONTINUOUS
 10
2.211209
 20
-3.613323
  0
VERTEX
  8
PLAN_1
  6
CONTINUOUS
 10
2.210256
 20
-3.618555
  0
VERTEX
  8
PLAN_1
  6
CONTINUOUS
 10
2.210256
 20
-3.623787
  0
VERTEX
  8
PLAN_1
  6
CONTINUOUS
 10
2.210256
 20
-3.626642
  0
VERTEX
  8
PLAN_1
  6
CONTINUOUS
 10
2.210732
 20
-3.629496
  0
VERTEX
  8
PLAN_1
  6
CONTINUOUS
 10
2.211209
 20
-3.632346
  0
VERTEX
  8
PLAN_1
  6
CONTINUOUS
 10
2.212157
 20
-3.634252
  0
VERTEX
  8
PLAN_1
  6
CONTINUOUS
 10
2.213110
 20
-3.636630
  0
VERTEX
  8
PLAN_1
  6
CONTINUOUS
 10
2.214535
 20
-3.638531
  0
VERTEX
  8
PLAN_1
  6
CONTINUOUS
 10
2.215965
 20
-3.639957
  0
VERTEX
  8
PLAN_1
  6
CONTINUOUS
 10
2.217390
 20
-3.641862
  0
VERTEX
  8
PLAN_1
  6
CONTINUOUS
 10
2.221193
 20
-3.644240
  0
VERTEX
  8
PLAN_1
  6
CONTINUOUS
 10
2.225000
 20
-3.646142
  0
VERTEX
  8
PLAN_1
  6
CONTINUOUS
 10
2.229280
 20
-3.648043
  0
VERTEX
  8
PLAN_1
  6
CONTINUOUS
 10
2.233563
 20
-3.648996
  0
VERTEX
  8
PLAN_1
  6
CONTINUOUS
 10
2.290638
 20
-3.661839
  0
VERTEX
  8
PLAN_1
  6
CONTINUOUS
 10
2.295394
 20
-3.663264
  0
VERTEX
  8
PLAN_1
  6
CONTINUOUS
 10
2.300150
 20
-3.664689
  0
VERTEX
  8
PLAN_1
  6
CONTINUOUS
 10
2.304429
 20
-3.666594
  0
VERTEX
  8
PLAN_1
  6
CONTINUOUS
 10
2.308709
 20
-3.668496
  0
VERTEX
  8
PLAN_1
  6
CONTINUOUS
 10
2.312516
 20
-3.670874
  0
VERTEX
  8
PLAN_1
  6
CONTINUOUS
 10
2.316319
 20
-3.673252
  0
VERTEX
  8
PLAN_1
  6
CONTINUOUS
 10
2.319650
 20
-3.676106
  0
VERTEX
  8
PLAN_1
  6
CONTINUOUS
 10
2.322980
 20
-3.678961
  0
VERTEX
  8
PLAN_1
  6
CONTINUOUS
 10
2.325831
 20
-3.682287
  0
VERTEX
  8
PLAN_1
  6
CONTINUOUS
 10
2.328209
 20
-3.686094
  0
VERTEX
  8
PLAN_1
  6
CONTINUOUS
 10
2.330591
 20
-3.690374
  0
VERTEX
  8
PLAN_1
  6
CONTINUOUS
 10
2.332492
 20
-3.694654
  0
VERTEX
  8
PLAN_1
  6
CONTINUOUS
 10
2.333917
 20
-3.699409
  0
VERTEX
  8
PLAN_1
  6
CONTINUOUS
 10
2.334870
 20
-3.704165
  0
VERTEX
  8
PLAN_1
  6
CONTINUOUS
 10
2.335819
 20
-3.709398
  0
VERTEX
  8
PLAN_1
  6
CONTINUOUS
 10
2.335819
 20
-3.715106
  0
VERTEX
  8
PLAN_1
  6
CONTINUOUS
 10
2.335819
 20
-3.719862
  0
VERTEX
  8
PLAN_1
  6
CONTINUOUS
 10
2.335346
 20
-3.723669
  0
VERTEX
  8
PLAN_1
  6
CONTINUOUS
 10
2.334870
 20
-3.727949
  0
VERTEX
  8
PLAN_1
  6
CONTINUOUS
 10
2.333917
 20
-3.731280
  0
VERTEX
  8
PLAN_1
  6
CONTINUOUS
 10
2.332969
 20
-3.735083
  0
VERTEX
  8
PLAN_1
  6
CONTINUOUS
 10
2.331539
 20
-3.738413
  0
VERTEX
  8
PLAN_1
  6
CONTINUOUS
 10
2.330114
 20
-3.741740
  0
VERTEX
  8
PLAN_1
  6
CONTINUOUS
 10
2.328209
 20
-3.744594
  0
VERTEX
  8
PLAN_1
  6
CONTINUOUS
 10
2.324406
 20
-3.750303
  0
VERTEX
  8
PLAN_1
  6
CONTINUOUS
 10
2.320126
 20
-3.755059
  0
VERTEX
  8
PLAN_1
  6
CONTINUOUS
 10
2.314894
 20
-3.759339
  0
VERTEX
  8
PLAN_1
  6
CONTINUOUS
 10
2.309661
 20
-3.763146
  0
VERTEX
  8
PLAN_1
  6
CONTINUOUS
 10
2.303476
 20
-3.766472
  0
VERTEX
  8
PLAN_1
  6
CONTINUOUS
 10
2.297295
 20
-3.768850
  0
VERTEX
  8
PLAN_1
  6
CONTINUOUS
 10
2.291110
 20
-3.771232
  0
VERTEX
  8
PLAN_1
  6
CONTINUOUS
 10
2.284453
 20
-3.772657
  0
VERTEX
  8
PLAN_1
  6
CONTINUOUS
 10
2.277795
 20
-3.774083
  0
VERTEX
  8
PLAN_1
  6
CONTINUOUS
 10
2.271134
 20
-3.775035
  0
VERTEX
  8
PLAN_1
  6
CONTINUOUS
 10
2.264476
 20
-3.775512
  0
VERTEX
  8
PLAN_1
  6
CONTINUOUS
 10
2.257819
 20
-3.775512
  0
VERTEX
  8
PLAN_1
  6
CONTINUOUS
 10
2.251157
 20
-3.775512
  0
VERTEX
  8
PLAN_1
  6
CONTINUOUS
 10
2.244976
 20
-3.775035
  0
VERTEX
  8
PLAN_1
  6
CONTINUOUS
 10
2.239268
 20
-3.774559
  0
VERTEX
  8
PLAN_1
  6
CONTINUOUS
 10
2.234035
 20
-3.773610
  0
VERTEX
  8
PLAN_1
  6
CONTINUOUS
 10
2.225000
 20
-3.771705
  0
VERTEX
  8
PLAN_1
  6
CONTINUOUS
 10
2.217390
 20
-3.768850
  0
VERTEX
  8
PLAN_1
  6
CONTINUOUS
 10
2.210732
 20
-3.766000
  0
VERTEX
  8
PLAN_1
  6
CONTINUOUS
 10
2.205500
 20
-3.762669
  0
VERTEX
  8
PLAN_1
  6
CONTINUOUS
 10
2.201220
 20
-3.759339
  0
VERTEX
  8
PLAN_1
  6
CONTINUOUS
 10
2.197413
 20
-3.756484
  0
VERTEX
  8
PLAN_1
  6
CONTINUOUS
 10
2.194559
 20
-3.753634
  0
VERTEX
  8
PLAN_1
  6
CONTINUOUS
 10
2.191705
 20
-3.750780
  0
VERTEX
  8
PLAN_1
  6
CONTINUOUS
 10
2.189327
 20
-3.747925
  0
VERTEX
  8
PLAN_1
  6
CONTINUOUS
 10
2.187425
 20
-3.744594
  0
VERTEX
  8
PLAN_1
  6
CONTINUOUS
 10
2.183622
 20
-3.738413
  0
VERTEX
  8
PLAN_1
  6
CONTINUOUS
 10
2.181244
 20
-3.732228
  0
VERTEX
  8
PLAN_1
  6
CONTINUOUS
 10
2.179339
 20
-3.726047
  0
VERTEX
  8
PLAN_1
  6
CONTINUOUS
 10
2.177913
 20
-3.719386
  0
VERTEX
  8
PLAN_1
  6
CONTINUOUS
 10
2.177437
 20
-3.712728
  0
VERTEX
  8
PLAN_1
  6
CONTINUOUS
 10
2.177437
 20
-3.706071
  0
VERTEX
  8
PLAN_1
  6
CONTINUOUS
 10
2.202646
 20
-3.706071
  0
VERTEX
  8
PLAN_1
  6
CONTINUOUS
 10
2.203122
 20
-3.712252
  0
VERTEX
  8
PLAN_1
  6
CONTINUOUS
 10
2.204071
 20
-3.718437
  0
VERTEX
  8
PLAN_1
  6
CONTINUOUS
 10
2.205500
 20
-3.723669
  0
VERTEX
  8
PLAN_1
  6
CONTINUOUS
 10
2.207402
 20
-3.728425
  0
VERTEX
  8
PLAN_1
  6
CONTINUOUS
 10
2.210256
 20
-3.732705
  0
VERTEX
  8
PLAN_1
  6
CONTINUOUS
 10
2.213110
 20
-3.736508
  0
VERTEX
  8
PLAN_1
  6
CONTINUOUS
 10
2.216913
 20
-3.739839
  0
VERTEX
  8
PLAN_1
  6
CONTINUOUS
 10
2.220244
 20
-3.742693
  0
VERTEX
  8
PLAN_1
  6
CONTINUOUS
 10
2.224524
 20
-3.745071
  0
VERTEX
  8
PLAN_1
  6
CONTINUOUS
 10
2.228803
 20
-3.747449
  0
VERTEX
  8
PLAN_1
  6
CONTINUOUS
 10
2.233563
 20
-3.748878
  0
VERTEX
  8
PLAN_1
  6
CONTINUOUS
 10
2.238319
 20
-3.750303
  0
VERTEX
  8
PLAN_1
  6
CONTINUOUS
 10
2.243075
 20
-3.751256
  0
VERTEX
  8
PLAN_1
  6
CONTINUOUS
 10
2.247831
 20
-3.752205
  0
VERTEX
  8
PLAN_1
  6
CONTINUOUS
 10
2.252587
 20
-3.752205
  0
VERTEX
  8
PLAN_1
  6
CONTINUOUS
 10
2.257343
 20
-3.752681
  0
VERTEX
  8
PLAN_1
  6
CONTINUOUS
 10
2.265429
 20
-3.752205
  0
VERTEX
  8
PLAN_1
  6
CONTINUOUS
 10
2.273988
 20
-3.751256
  0
VERTEX
  8
PLAN_1
  6
CONTINUOUS
 10
2.278272
 20
-3.750303
  0
VERTEX
  8
PLAN_1
  6
CONTINUOUS
 10
2.282551
 20
-3.749350
  0
VERTEX
  8
PLAN_1
  6
CONTINUOUS
 10
2.286831
 20
-3.747925
  0
VERTEX
  8
PLAN_1
  6
CONTINUOUS
 10
2.291110
 20
-3.746496
  0
VERTEX
  8
PLAN_1
  6
CONTINUOUS
 10
2.294917
 20
-3.744594
  0
VERTEX
  8
PLAN_1
  6
CONTINUOUS
 10
2.298248
 20
-3.742217
  0
VERTEX
  8
PLAN_1
  6
CONTINUOUS
 10
2.301575
 20
-3.739362
  0
VERTEX
  8
PLAN_1
  6
CONTINUOUS
 10
2.304429
 20
-3.736035
  0
VERTEX
  8
PLAN_1
  6
CONTINUOUS
 10
2.306331
 20
-3.732705
  0
VERTEX
  8
PLAN_1
  6
CONTINUOUS
 10
2.308232
 20
-3.728425
  0
VERTEX
  8
PLAN_1
  6
CONTINUOUS
 10
2.309185
 20
-3.724142
  0
VERTEX
  8
PLAN_1
  6
CONTINUOUS
 10
2.309661
 20
-3.718913
  0
VERTEX
  8
PLAN_1
  6
CONTINUOUS
 10
2.309661
 20
-3.715106
  0
VERTEX
  8
PLAN_1
  6
CONTINUOUS
 10
2.309185
 20
-3.711776
  0
VERTEX
  8
PLAN_1
  6
CONTINUOUS
 10
2.308709
 20
-3.708449
  0
VERTEX
  8
PLAN_1
  6
CONTINUOUS
 10
2.307760
 20
-3.705594
  0
VERTEX
  8
PLAN_1
  6
CONTINUOUS
 10
2.306331
 20
-3.703217
  0
VERTEX
  8
PLAN_1
  6
CONTINUOUS
 10
2.304906
 20
-3.700839
  0
VERTEX
  8
PLAN_1
  6
CONTINUOUS
 10
2.303004
 20
-3.698461
  0
VERTEX
  8
PLAN_1
  6
CONTINUOUS
 10
2.300626
 20
-3.696559
  0
VERTEX
  8
PLAN_1
  6
CONTINUOUS
 10
2.298248
 20
-3.694654
  0
VERTEX
  8
PLAN_1
  6
CONTINUOUS
 10
2.294917
 20
-3.692752
  0
VERTEX
  8
PLAN_1
  6
CONTINUOUS
 10
2.291587
 20
-3.691327
  0
VERTEX
  8
PLAN_1
  6
CONTINUOUS
 10
2.287783
 20
-3.689421
  0
VERTEX
  8
PLAN_1
  6
CONTINUOUS
 10
2.278272
 20
-3.686571
  0
VERTEX
  8
PLAN_1
  6
CONTINUOUS
 10
2.267331
 20
-3.683717
  0
VERTEX
  8
PLAN_1
  6
CONTINUOUS
 10
2.226425
 20
-3.674205
  0
VERTEX
  8
PLAN_1
  6
CONTINUOUS
 10
2.220720
 20
-3.672776
  0
VERTEX
  8
PLAN_1
  6
CONTINUOUS
 10
2.214535
 20
-3.670398
  0
VERTEX
  8
PLAN_1
  6
CONTINUOUS
 10
2.210732
 20
-3.668972
  0
VERTEX
  8
PLAN_1
  6
CONTINUOUS
 10
2.207402
 20
-3.667067
  0
VERTEX
  8
PLAN_1
  6
CONTINUOUS
 10
2.203598
 20
-3.665165
  0
VERTEX
  8
PLAN_1
  6
CONTINUOUS
 10
2.200268
 20
-3.662787
  0
VERTEX
  8
PLAN_1
  6
CONTINUOUS
 10
2.196937
 20
-3.659933
  0
VERTEX
  8
PLAN_1
  6
CONTINUOUS
 10
2.194083
 20
-3.656606
  0
VERTEX
  8
PLAN_1
  6
CONTINUOUS
 10
2.191232
 20
-3.652799
  0
VERTEX
  8
PLAN_1
  6
CONTINUOUS
 10
2.188854
 20
-3.648996
  0
VERTEX
  8
PLAN_1
  6
CONTINUOUS
 10
2.186949
 20
-3.644240
  0
VERTEX
  8
PLAN_1
  6
CONTINUOUS
 10
2.185047
 20
-3.639008
  0
VERTEX
  8
PLAN_1
  6
CONTINUOUS
 10
2.184094
 20
-3.633776
  0
VERTEX
  8
PLAN_1
  6
CONTINUOUS
 10
2.184094
 20
-3.627114
  0
VERTEX
  8
PLAN_1
  6
CONTINUOUS
 10
2.184094
 20
-3.621409
  0
VERTEX
  8
PLAN_1
  6
CONTINUOUS
 10
2.185047
 20
-3.615701
  0
VERTEX
  8
PLAN_1
  6
CONTINUOUS
 10
2.186000
 20
-3.609992
  0
VERTEX
  8
PLAN_1
  6
CONTINUOUS
 10
2.187902
 20
-3.604760
  0
VERTEX
  8
PLAN_1
  6
CONTINUOUS
 10
2.190280
 20
-3.599055
  0
VERTEX
  8
PLAN_1
  6
CONTINUOUS
 10
2.193134
 20
-3.594299
  0
VERTEX
  8
PLAN_1
  6
CONTINUOUS
 10
2.196461
 20
-3.589543
  0
VERTEX
  8
PLAN_1
  6
CONTINUOUS
 10
2.200268
 20
-3.584783
  0
VERTEX
  8
PLAN_1
  6
CONTINUOUS
 10
2.204547
 20
-3.580980
  0
VERTEX
  8
PLAN_1
  6
CONTINUOUS
 10
2.209780
 20
-3.577177
  0
VERTEX
  8
PLAN_1
  6
CONTINUOUS
 10
2.215012
 20
-3.573846
  0
VERTEX
  8
PLAN_1
  6
CONTINUOUS
 10
2.221669
 20
-3.570992
  0
VERTEX
  8
PLAN_1
  6
CONTINUOUS
 10
2.228331
 20
-3.568614
  0
VERTEX
  8
PLAN_1
  6
CONTINUOUS
 10
2.235941
 20
-3.567189
  0
VERTEX
  8
PLAN_1
  6
CONTINUOUS
 10
2.244024
 20
-3.566236
  0
VERTEX
  8
PLAN_1
  6
CONTINUOUS
 10
2.252587
 20
-3.565760
  0
VERTEX
  8
PLAN_1
  6
CONTINUOUS
 10
2.258768
 20
-3.565760
  0
VERTEX
  8
PLAN_1
  6
CONTINUOUS
 10
2.264953
 20
-3.566236
  0
VERTEX
  8
PLAN_1
  6
CONTINUOUS
 10
2.270661
 20
-3.566713
  0
VERTEX
  8
PLAN_1
  6
CONTINUOUS
 10
2.275894
 20
-3.567661
  0
VERTEX
  8
PLAN_1
  6
CONTINUOUS
 10
2.280650
 20
-3.568614
  0
VERTEX
  8
PLAN_1
  6
CONTINUOUS
 10
2.285406
 20
-3.569567
  0
VERTEX
  8
PLAN_1
  6
CONTINUOUS
 10
2.289685
 20
-3.570992
  0
VERTEX
  8
PLAN_1
  6
CONTINUOUS
 10
2.293965
 20
-3.572417
  0
VERTEX
  8
PLAN_1
  6
CONTINUOUS
 10
2.297772
 20
-3.574323
  0
VERTEX
  8
PLAN_1
  6
CONTINUOUS
 10
2.301098
 20
-3.576224
  0
VERTEX
  8
PLAN_1
  6
CONTINUOUS
 10
2.304429
 20
-3.578126
  0
VERTEX
  8
PLAN_1
  6
CONTINUOUS
 10
2.307283
 20
-3.580028
  0
VERTEX
  8
PLAN_1
  6
CONTINUOUS
 10
2.312516
 20
-3.584311
  0
VERTEX
  8
PLAN_1
  6
CONTINUOUS
 10
2.317272
 20
-3.589067
  0
VERTEX
  8
PLAN_1
  6
CONTINUOUS
 10
2.320602
 20
-3.594299
  0
VERTEX
  8
PLAN_1
  6
CONTINUOUS
 10
2.323453
 20
-3.599531
  0
VERTEX
  8
PLAN_1
  6
CONTINUOUS
 10
2.325831
 20
-3.604760
  0
VERTEX
  8
PLAN_1
  6
CONTINUOUS
 10
2.327260
 20
-3.609992
  0
VERTEX
  8
PLAN_1
  6
CONTINUOUS
 10
2.328685
 20
-3.615224
  0
VERTEX
  8
PLAN_1
  6
CONTINUOUS
 10
2.329638
 20
-3.620457
  0
VERTEX
  8
PLAN_1
  6
CONTINUOUS
 10
2.330114
 20
-3.624736
  0
VERTEX
  8
PLAN_1
  6
CONTINUOUS
 10
2.330114
 20
-3.629496
  0
VERTEX
  8
PLAN_1
  6
CONTINUOUS
 10
2.304906
 20
-3.629496
  0
SEQEND
  8
0
  0
POLYLINE
  8
PLAN_1
  6
CONTINUOUS
 66
     1
 40
0.004280
 41
0.004280
  0
VERTEX
  8
PLAN_1
  6
CONTINUOUS
 10
-2.152654
 20
0.604996
  0
VERTEX
  8
PLAN_1
  6
CONTINUOUS
 10
-1.881547
 20
0.604996
  0
SEQEND
  8
0
  0
POLYLINE
  8
PLAN_1
  6
CONTINUOUS
 66
     1
 40
0.004280
 41
0.004280
  0
VERTEX
  8
PLAN_1
  6
CONTINUOUS
 10
-2.015673
 20
0.480382
  0
VERTEX
  8
PLAN_1
  6
CONTINUOUS
 10
-2.016622
 20
0.729610
  0
SEQEND
  8
0
  0
POLYLINE
  8
PLAN_1
  6
CONTINUOUS
 66
     1
 40
0.003000
 41
0.003000
  0
VERTEX
  8
PLAN_1
  6
CONTINUOUS
 10
-2.015197
 20
0.636386
  0
VERTEX
  8
PLAN_1
  6
CONTINUOUS
 10
-2.018528
 20
0.636386
  0
VERTEX
  8
PLAN_1
  6
CONTINUOUS
 10
-2.021382
 20
0.635909
  0
VERTEX
  8
PLAN_1
  6
CONTINUOUS
 10
-2.024709
 20
0.634961
  0
VERTEX
  8
PLAN_1
  6
CONTINUOUS
 10
-2.027563
 20
0.634008
  0
VERTEX
  8
PLAN_1
  6
CONTINUOUS
 10
-2.030417
 20
0.632583
  0
VERTEX
  8
PLAN_1
  6
CONTINUOUS
 10
-2.032795
 20
0.631154
  0
VERTEX
  8
PLAN_1
  6
CONTINUOUS
 10
-2.035650
 20
0.629252
  0
VERTEX
  8
PLAN_1
  6
CONTINUOUS
 10
-2.037551
 20
0.626874
  0
VERTEX
  8
PLAN_1
  6
CONTINUOUS
 10
-2.039929
 20
0.624972
  0
VERTEX
  8
PLAN_1
  6
CONTINUOUS
 10
-2.041354
 20
0.622118
  0
VERTEX
  8
PLAN_1
  6
CONTINUOUS
 10
-2.043260
 20
0.619740
  0
VERTEX
  8
PLAN_1
  6
CONTINUOUS
 10
-2.044685
 20
0.616886
  0
VERTEX
  8
PLAN_1
  6
CONTINUOUS
 10
-2.045638
 20
0.614031
  0
VERTEX
  8
PLAN_1
  6
CONTINUOUS
 10
-2.046587
 20
0.610701
  0
VERTEX
  8
PLAN_1
  6
CONTINUOUS
 10
-2.047063
 20
0.607850
  0
VERTEX
  8
PLAN_1
  6
CONTINUOUS
 10
-2.047063
 20
0.604520
  0
VERTEX
  8
PLAN_1
  6
CONTINUOUS
 10
-2.047063
 20
0.601189
  0
VERTEX
  8
PLAN_1
  6
CONTINUOUS
 10
-2.046587
 20
0.597862
  0
VERTEX
  8
PLAN_1
  6
CONTINUOUS
 10
-2.045638
 20
0.595008
  0
VERTEX
  8
PLAN_1
  6
CONTINUOUS
 10
-2.044685
 20
0.592154
  0
VERTEX
  8
PLAN_1
  6
CONTINUOUS
 10
-2.043260
 20
0.589299
  0
VERTEX
  8
PLAN_1
  6
CONTINUOUS
 10
-2.041354
 20
0.586445
  0
VERTEX
  8
PLAN_1
  6
CONTINUOUS
 10
-2.039929
 20
0.584067
  0
VERTEX
  8
PLAN_1
  6
CONTINUOUS
 10
-2.037551
 20
0.582165
  0
VERTEX
  8
PLAN_1
  6
CONTINUOUS
 10
-2.035650
 20
0.579787
  0
VERTEX
  8
PLAN_1
  6
CONTINUOUS
 10
-2.032795
 20
0.577886
  0
VERTEX
  8
PLAN_1
  6
CONTINUOUS
 10
-2.030417
 20
0.576457
  0
VERTEX
  8
PLAN_1
  6
CONTINUOUS
 10
-2.027563
 20
0.575031
  0
VERTEX
  8
PLAN_1
  6
CONTINUOUS
 10
-2.024709
 20
0.574079
  0
VERTEX
  8
PLAN_1
  6
CONTINUOUS
 10
-2.021382
 20
0.573130
  0
VERTEX
  8
PLAN_1
  6
CONTINUOUS
 10
-2.018528
 20
0.572654
  0
VERTEX
  8
PLAN_1
  6
CONTINUOUS
 10
-2.015197
 20
0.572654
  0
VERTEX
  8
PLAN_1
  6
CONTINUOUS
 10
-2.011866
 20
0.572654
  0
VERTEX
  8
PLAN_1
  6
CONTINUOUS
 10
-2.008539
 20
0.573130
  0
VERTEX
  8
PLAN_1
  6
CONTINUOUS
 10
-2.005685
 20
0.574079
  0
VERTEX
  8
PLAN_1
  6
CONTINUOUS
 10
-2.002831
 20
0.575031
  0
VERTEX
  8
PLAN_1
  6
CONTINUOUS
 10
-1.999976
 20
0.576457
  0
VERTEX
  8
PLAN_1
  6
CONTINUOUS
 10
-1.997122
 20
0.577886
  0
VERTEX
  8
PLAN_1
  6
CONTINUOUS
 10
-1.994744
 20
0.579787
  0
VERTEX
  8
PLAN_1
  6
CONTINUOUS
 10
-1.992366
 20
0.582165
  0
VERTEX
  8
PLAN_1
  6
CONTINUOUS
 10
-1.990465
 20
0.584067
  0
VERTEX
  8
PLAN_1
  6
CONTINUOUS
 10
-1.988563
 20
0.586445
  0
VERTEX
  8
PLAN_1
  6
CONTINUOUS
 10
-1.987134
 20
0.589299
  0
VERTEX
  8
PLAN_1
  6
CONTINUOUS
 10
-1.985709
 20
0.592154
  0
VERTEX
  8
PLAN_1
  6
CONTINUOUS
 10
-1.984756
 20
0.595008
  0
VERTEX
  8
PLAN_1
  6
CONTINUOUS
 10
-1.983807
 20
0.597862
  0
VERTEX
  8
PLAN_1
  6
CONTINUOUS
 10
-1.983331
 20
0.601189
  0
VERTEX
  8
PLAN_1
  6
CONTINUOUS
 10
-1.983331
 20
0.604520
  0
VERTEX
  8
PLAN_1
  6
CONTINUOUS
 10
-1.983331
 20
0.607850
  0
VERTEX
  8
PLAN_1
  6
CONTINUOUS
 10
-1.983807
 20
0.610701
  0
VERTEX
  8
PLAN_1
  6
CONTINUOUS
 10
-1.984756
 20
0.614031
  0
VERTEX
  8
PLAN_1
  6
CONTINUOUS
 10
-1.985709
 20
0.616886
  0
VERTEX
  8
PLAN_1
  6
CONTINUOUS
 10
-1.987134
 20
0.619740
  0
VERTEX
  8
PLAN_1
  6
CONTINUOUS
 10
-1.988563
 20
0.622118
  0
VERTEX
  8
PLAN_1
  6
CONTINUOUS
 10
-1.990465
 20
0.624972
  0
VERTEX
  8
PLAN_1
  6
CONTINUOUS
 10
-1.992366
 20
0.626874
  0
VERTEX
  8
PLAN_1
  6
CONTINUOUS
 10
-1.994744
 20
0.629252
  0
VERTEX
  8
PLAN_1
  6
CONTINUOUS
 10
-1.997122
 20
0.631154
  0
VERTEX
  8
PLAN_1
  6
CONTINUOUS
 10
-1.999976
 20
0.632583
  0
VERTEX
  8
PLAN_1
  6
CONTINUOUS
 10
-2.002831
 20
0.634008
  0
VERTEX
  8
PLAN_1
  6
CONTINUOUS
 10
-2.005685
 20
0.634961
  0
VERTEX
  8
PLAN_1
  6
CONTINUOUS
 10
-2.008539
 20
0.635909
  0
VERTEX
  8
PLAN_1
  6
CONTINUOUS
 10
-2.011866
 20
0.636386
  0
VERTEX
  8
PLAN_1
  6
CONTINUOUS
 10
-2.015197
 20
0.636386
  0
SEQEND
  8
0
  0
POLYLINE
  8
PLAN_1
  6
CONTINUOUS
 66
     1
 40
0.004280
 41
0.004280
  0
VERTEX
  8
PLAN_1
  6
CONTINUOUS
 10
-0.404732
 20
0.604996
  0
VERTEX
  8
PLAN_1
  6
CONTINUOUS
 10
-0.133150
 20
0.604996
  0
SEQEND
  8
0
  0
POLYLINE
  8
PLAN_1
  6
CONTINUOUS
 66
     1
 40
0.004280
 41
0.004280
  0
VERTEX
  8
PLAN_1
  6
CONTINUOUS
 10
-0.267752
 20
0.480382
  0
VERTEX
  8
PLAN_1
  6
CONTINUOUS
 10
-0.268224
 20
0.729610
  0
SEQEND
  8
0
  0
POLYLINE
  8
PLAN_1
  6
CONTINUOUS
 66
     1
 40
0.003000
 41
0.003000
  0
VERTEX
  8
PLAN_1
  6
CONTINUOUS
 10
-0.267276
 20
0.636386
  0
VERTEX
  8
PLAN_1
  6
CONTINUOUS
 10
-0.270606
 20
0.636386
  0
VERTEX
  8
PLAN_1
  6
CONTINUOUS
 10
-0.273457
 20
0.635909
  0
VERTEX
  8
PLAN_1
  6
CONTINUOUS
 10
-0.276787
 20
0.634961
  0
VERTEX
  8
PLAN_1
  6
CONTINUOUS
 10
-0.279642
 20
0.634008
  0
VERTEX
  8
PLAN_1
  6
CONTINUOUS
 10
-0.282496
 20
0.632583
  0
VERTEX
  8
PLAN_1
  6
CONTINUOUS
 10
-0.284874
 20
0.631154
  0
VERTEX
  8
PLAN_1
  6
CONTINUOUS
 10
-0.287252
 20
0.629252
  0
VERTEX
  8
PLAN_1
  6
CONTINUOUS
 10
-0.289630
 20
0.626874
  0
VERTEX
  8
PLAN_1
  6
CONTINUOUS
 10
-0.291531
 20
0.624972
  0
VERTEX
  8
PLAN_1
  6
CONTINUOUS
 10
-0.293433
 20
0.622118
  0
VERTEX
  8
PLAN_1
  6
CONTINUOUS
 10
-0.295339
 20
0.619740
  0
VERTEX
  8
PLAN_1
  6
CONTINUOUS
 10
-0.296287
 20
0.616886
  0
VERTEX
  8
PLAN_1
  6
CONTINUOUS
 10
-0.297717
 20
0.614031
  0
VERTEX
  8
PLAN_1
  6
CONTINUOUS
 10
-0.298189
 20
0.610701
  0
VERTEX
  8
PLAN_1
  6
CONTINUOUS
 10
-0.298665
 20
0.607850
  0
VERTEX
  8
PLAN_1
  6
CONTINUOUS
 10
-0.299142
 20
0.604520
  0
VERTEX
  8
PLAN_1
  6
CONTINUOUS
 10
-0.298665
 20
0.601189
  0
VERTEX
  8
PLAN_1
  6
CONTINUOUS
 10
-0.298189
 20
0.597862
  0
VERTEX
  8
PLAN_1
  6
CONTINUOUS
 10
-0.297717
 20
0.595008
  0
VERTEX
  8
PLAN_1
  6
CONTINUOUS
 10
-0.296287
 20
0.592154
  0
VERTEX
  8
PLAN_1
  6
CONTINUOUS
 10
-0.295339
 20
0.589299
  0
VERTEX
  8
PLAN_1
  6
CONTINUOUS
 10
-0.293433
 20
0.586445
  0
VERTEX
  8
PLAN_1
  6
CONTINUOUS
 10
-0.291531
 20
0.584067
  0
VERTEX
  8
PLAN_1
  6
CONTINUOUS
 10
-0.289630
 20
0.582165
  0
VERTEX
  8
PLAN_1
  6
CONTINUOUS
 10
-0.287252
 20
0.579787
  0
VERTEX
  8
PLAN_1
  6
CONTINUOUS
 10
-0.284874
 20
0.577886
  0
VERTEX
  8
PLAN_1
  6
CONTINUOUS
 10
-0.282496
 20
0.576457
  0
VERTEX
  8
PLAN_1
  6
CONTINUOUS
 10
-0.279642
 20
0.575031
  0
VERTEX
  8
PLAN_1
  6
CONTINUOUS
 10
-0.276787
 20
0.574079
  0
VERTEX
  8
PLAN_1
  6
CONTINUOUS
 10
-0.273457
 20
0.573130
  0
VERTEX
  8
PLAN_1
  6
CONTINUOUS
 10
-0.270606
 20
0.572654
  0
VERTEX
  8
PLAN_1
  6
CONTINUOUS
 10
-0.267276
 20
0.572654
  0
VERTEX
  8
PLAN_1
  6
CONTINUOUS
 10
-0.263945
 20
0.572654
  0
VERTEX
  8
PLAN_1
  6
CONTINUOUS
 10
-0.260618
 20
0.573130
  0
VERTEX
  8
PLAN_1
  6
CONTINUOUS
 10
-0.257764
 20
0.574079
  0
VERTEX
  8
PLAN_1
  6
CONTINUOUS
 10
-0.254909
 20
0.575031
  0
VERTEX
  8
PLAN_1
  6
CONTINUOUS
 10
-0.252055
 20
0.576457
  0
VERTEX
  8
PLAN_1
  6
CONTINUOUS
 10
-0.249201
 20
0.577886
  0
VERTEX
  8
PLAN_1
  6
CONTINUOUS
 10
-0.246823
 20
0.579787
  0
VERTEX
  8
PLAN_1
  6
CONTINUOUS
 10
-0.244445
 20
0.582165
  0
VERTEX
  8
PLAN_1
  6
CONTINUOUS
 10
-0.242543
 20
0.584067
  0
VERTEX
  8
PLAN_1
  6
CONTINUOUS
 10
-0.240642
 20
0.586445
  0
VERTEX
  8
PLAN_1
  6
CONTINUOUS
 10
-0.239213
 20
0.589299
  0
VERTEX
  8
PLAN_1
  6
CONTINUOUS
 10
-0.237787
 20
0.592154
  0
VERTEX
  8
PLAN_1
  6
CONTINUOUS
 10
-0.236835
 20
0.595008
  0
VERTEX
  8
PLAN_1
  6
CONTINUOUS
 10
-0.235882
 20
0.597862
  0
VERTEX
  8
PLAN_1
  6
CONTINUOUS
 10
-0.235409
 20
0.601189
  0
VERTEX
  8
PLAN_1
  6
CONTINUOUS
 10
-0.235409
 20
0.604520
  0
VERTEX
  8
PLAN_1
  6
CONTINUOUS
 10
-0.235409
 20
0.607850
  0
VERTEX
  8
PLAN_1
  6
CONTINUOUS
 10
-0.235882
 20
0.610701
  0
VERTEX
  8
PLAN_1
  6
CONTINUOUS
 10
-0.236835
 20
0.614031
  0
VERTEX
  8
PLAN_1
  6
CONTINUOUS
 10
-0.237787
 20
0.616886
  0
VERTEX
  8
PLAN_1
  6
CONTINUOUS
 10
-0.239213
 20
0.619740
  0
VERTEX
  8
PLAN_1
  6
CONTINUOUS
 10
-0.240642
 20
0.622118
  0
VERTEX
  8
PLAN_1
  6
CONTINUOUS
 10
-0.242543
 20
0.624972
  0
VERTEX
  8
PLAN_1
  6
CONTINUOUS
 10
-0.244445
 20
0.626874
  0
VERTEX
  8
PLAN_1
  6
CONTINUOUS
 10
-0.246823
 20
0.629252
  0
VERTEX
  8
PLAN_1
  6
CONTINUOUS
 10
-0.249201
 20
0.631154
  0
VERTEX
  8
PLAN_1
  6
CONTINUOUS
 10
-0.252055
 20
0.632583
  0
VERTEX
  8
PLAN_1
  6
CONTINUOUS
 10
-0.254909
 20
0.634008
  0
VERTEX
  8
PLAN_1
  6
CONTINUOUS
 10
-0.257764
 20
0.634961
  0
VERTEX
  8
PLAN_1
  6
CONTINUOUS
 10
-0.260618
 20
0.635909
  0
VERTEX
  8
PLAN_1
  6
CONTINUOUS
 10
-0.263945
 20
0.636386
  0
VERTEX
  8
PLAN_1
  6
CONTINUOUS
 10
-0.267276
 20
0.636386
  0
SEQEND
  8
0
  0
POLYLINE
  8
PLAN_1
  6
CONTINUOUS
 66
     1
 40
0.007134
 41
0.007134
  0
VERTEX
  8
PLAN_1
  6
CONTINUOUS
 10
-1.357882
 20
1.844000
  0
VERTEX
  8
PLAN_1
  6
CONTINUOUS
 10
-1.357882
 20
1.726043
  0
VERTEX
  8
PLAN_1
  6
CONTINUOUS
 10
-1.654673
 20
1.726043
  0
SEQEND
  8
0
  0
POLYLINE
  8
PLAN_1
  6
CONTINUOUS
 66
     1
 40
0.007134
 41
0.007134
  0
VERTEX
  8
PLAN_1
  6
CONTINUOUS
 10
-0.592602
 20
1.726043
  0
VERTEX
  8
PLAN_1
  6
CONTINUOUS
 10
-0.664421
 20
1.726043
  0
SEQEND
  8
0
  0
POLYLINE
  8
PLAN_1
  6
CONTINUOUS
 66
     1
 40
0.007134
 41
0.007134
  0
VERTEX
  8
PLAN_1
  6
CONTINUOUS
 10
-1.387370
 20
1.785020
  0
VERTEX
  8
PLAN_1
  6
CONTINUOUS
 10
-1.387370
 20
1.726043
  0
VERTEX
  8
PLAN_1
  6
CONTINUOUS
 10
-1.654673
 20
1.726043
  0
VERTEX
  8
PLAN_1
  6
CONTINUOUS
 10
-1.654673
 20
1.785020
  0
VERTEX
  8
PLAN_1
  6
CONTINUOUS
 10
-1.387370
 20
1.785020
  0
SEQEND
  8
0
  0
POLYLINE
  8
PLAN_1
  6
CONTINUOUS
 66
     1
 40
0.007134
 41
0.007134
  0
VERTEX
  8
PLAN_1
  6
CONTINUOUS
 10
-1.498193
 20
1.762665
  0
VERTEX
  8
PLAN_1
  6
CONTINUOUS
 10
-1.498193
 20
1.785020
  0
VERTEX
  8
PLAN_1
  6
CONTINUOUS
 10
-1.545280
 20
1.785020
  0
VERTEX
  8
PLAN_1
  6
CONTINUOUS
 10
-1.545280
 20
1.762665
  0
VERTEX
  8
PLAN_1
  6
CONTINUOUS
 10
-1.498193
 20
1.762665
  0
SEQEND
  8
0
  0
POLYLINE
  8
PLAN_1
  6
CONTINUOUS
 66
     1
 40
0.007134
 41
0.007134
  0
VERTEX
  8
PLAN_1
  6
CONTINUOUS
 10
-0.592602
 20
1.785020
  0
VERTEX
  8
PLAN_1
  6
CONTINUOUS
 10
-0.592602
 20
1.726043
  0
VERTEX
  8
PLAN_1
  6
CONTINUOUS
 10
-0.664421
 20
1.726043
  0
VERTEX
  8
PLAN_1
  6
CONTINUOUS
 10
-0.664421
 20
1.785020
  0
VERTEX
  8
PLAN_1
  6
CONTINUOUS
 10
-0.592602
 20
1.785020
  0
SEQEND
  8
0
  0
POLYLINE
  8
PLAN_1
  6
CONTINUOUS
 66
     1
 40
0.008559
 41
0.008559
  0
VERTEX
  8
PLAN_1
  6
CONTINUOUS
 10
-0.900331
 20
2.574083
  0
VERTEX
  8
PLAN_1
  6
CONTINUOUS
 10
-0.900331
 20
3.550539
  0
VERTEX
  8
PLAN_1
  6
CONTINUOUS
 10
-0.664421
 20
3.550539
  0
VERTEX
  8
PLAN_1
  6
CONTINUOUS
 10
-0.664421
 20
2.712965
  0
SEQEND
  8
0
  0
POLYLINE
  8
PLAN_1
  6
CONTINUOUS
 66
     1
 40
0.004280
 41
0.004280
  0
VERTEX
  8
PLAN_1
  6
CONTINUOUS
 10
-1.039213
 20
2.494654
  0
VERTEX
  8
PLAN_1
  6
CONTINUOUS
 10
-0.551224
 20
2.776697
  0
SEQEND
  8
0
  0
POLYLINE
  8
PLAN_1
  6
CONTINUOUS
 66
     1
 40
0.008559
 41
0.008559
  0
VERTEX
  8
PLAN_1
  6
CONTINUOUS
 10
-0.664421
 20
1.573366
  0
VERTEX
  8
PLAN_1
  6
CONTINUOUS
 10
-0.664421
 20
2.565520
  0
SEQEND
  8
0
  0
POLYLINE
  8
PLAN_1
  6
CONTINUOUS
 66
     1
 40
0.008559
 41
0.008559
  0
VERTEX
  8
PLAN_1
  6
CONTINUOUS
 10
-0.900331
 20
2.429492
  0
VERTEX
  8
PLAN_1
  6
CONTINUOUS
 10
-0.900331
 20
1.626638
  0
SEQEND
  8
0
  0
POLYLINE
  8
PLAN_1
  6
CONTINUOUS
 66
     1
 40
0.004280
 41
0.004280
  0
VERTEX
  8
PLAN_1
  6
CONTINUOUS
 10
-1.038264
 20
2.362429
  0
VERTEX
  8
PLAN_1
  6
CONTINUOUS
 10
-0.547417
 20
2.644476
  0
SEQEND
  8
0
  0
POLYLINE
  8
PLAN_1
  6
CONTINUOUS
 66
     1
 40
0.008559
 41
0.008559
  0
VERTEX
  8
PLAN_1
  6
CONTINUOUS
 10
-0.900807
 20
0.741976
  0
VERTEX
  8
PLAN_1
  6
CONTINUOUS
 10
-1.518169
 20
0.741976
  0
VERTEX
  8
PLAN_1
  6
CONTINUOUS
 10
-1.518169
 20
0.427110
  0
VERTEX
  8
PLAN_1
  6
CONTINUOUS
 10
-1.476315
 20
0.427110
  0
VERTEX
  8
PLAN_1
  6
CONTINUOUS
 10
-1.476315
 20
0.383831
  0
VERTEX
  8
PLAN_1
  6
CONTINUOUS
 10
-1.438264
 20
0.383831
  0
VERTEX
  8
PLAN_1
  6
CONTINUOUS
 10
-1.438264
 20
0.427110
  0
VERTEX
  8
PLAN_1
  6
CONTINUOUS
 10
-0.902236
 20
0.427110
  0
SEQEND
  8
0
  0
POLYLINE
  8
PLAN_1
  6
CONTINUOUS
 66
     1
 40
0.007134
 41
0.007134
  0
VERTEX
  8
PLAN_1
  6
CONTINUOUS
 10
-1.245161
 20
0.427587
  0
VERTEX
  8
PLAN_1
  6
CONTINUOUS
 10
-1.366921
 20
0.405709
  0
VERTEX
  8
PLAN_1
  6
CONTINUOUS
 10
-1.375004
 20
0.404280
  0
SEQEND
  8
0
  0
POLYLINE
  8
PLAN_1
  6
CONTINUOUS
 66
     1
 40
0.007134
 41
0.007134
  0
VERTEX
  8
PLAN_1
  6
CONTINUOUS
 10
-1.375004
 20
0.404280
  0
VERTEX
  8
PLAN_1
  6
CONTINUOUS
 10
-1.378811
 20
0.403331
  0
VERTEX
  8
PLAN_1
  6
CONTINUOUS
 10
-1.382142
 20
0.401429
  0
VERTEX
  8
PLAN_1
  6
CONTINUOUS
 10
-1.384992
 20
0.399051
  0
VERTEX
  8
PLAN_1
  6
CONTINUOUS
 10
-1.387846
 20
0.396197
  0
VERTEX
  8
PLAN_1
  6
CONTINUOUS
 10
-1.389752
 20
0.392866
  0
VERTEX
  8
PLAN_1
  6
CONTINUOUS
 10
-1.390701
 20
0.389535
  0
VERTEX
  8
PLAN_1
  6
CONTINUOUS
 10
-1.391177
 20
0.385732
  0
VERTEX
  8
PLAN_1
  6
CONTINUOUS
 10
-1.390701
 20
0.381453
  0
VERTEX
  8
PLAN_1
  6
CONTINUOUS
 10
-1.389752
 20
0.377646
  0
VERTEX
  8
PLAN_1
  6
CONTINUOUS
 10
-1.387846
 20
0.374319
  0
VERTEX
  8
PLAN_1
  6
CONTINUOUS
 10
-1.385469
 20
0.371465
  0
VERTEX
  8
PLAN_1
  6
CONTINUOUS
 10
-1.382614
 20
0.369087
  0
VERTEX
  8
PLAN_1
  6
CONTINUOUS
 10
-1.379764
 20
0.367181
  0
VERTEX
  8
PLAN_1
  6
CONTINUOUS
 10
-1.375957
 20
0.365756
  0
VERTEX
  8
PLAN_1
  6
CONTINUOUS
 10
-1.372154
 20
0.365280
  0
VERTEX
  8
PLAN_1
  6
CONTINUOUS
 10
-1.368346
 20
0.365756
  0
SEQEND
  8
0
  0
POLYLINE
  8
PLAN_1
  6
CONTINUOUS
 66
     1
 40
0.007134
 41
0.007134
  0
VERTEX
  8
PLAN_1
  6
CONTINUOUS
 10
-1.368346
 20
0.365756
  0
VERTEX
  8
PLAN_1
  6
CONTINUOUS
 10
-1.360260
 20
0.367181
  0
VERTEX
  8
PLAN_1
  6
CONTINUOUS
 10
-1.019236
 20
0.427110
  0
VERTEX
  8
PLAN_1
  6
CONTINUOUS
 10
-1.245161
 20
0.427587
  0
SEQEND
  8
0
  0
POLYLINE
  8
PLAN_1
  6
CONTINUOUS
 66
     1
 40
0.007134
 41
0.007134
  0
VERTEX
  8
PLAN_1
  6
CONTINUOUS
 10
-0.880831
 20
0.023307
  0
VERTEX
  8
PLAN_1
  6
CONTINUOUS
 10
-0.877028
 20
0.023780
  0
VERTEX
  8
PLAN_1
  6
CONTINUOUS
 10
-0.873220
 20
0.024732
  0
VERTEX
  8
PLAN_1
  6
CONTINUOUS
 10
-0.869894
 20
0.026634
  0
VERTEX
  8
PLAN_1
  6
CONTINUOUS
 10
-0.867039
 20
0.029012
  0
VERTEX
  8
PLAN_1
  6
CONTINUOUS
 10
-0.864661
 20
0.031866
  0
VERTEX
  8
PLAN_1
  6
CONTINUOUS
 10
-0.862756
 20
0.035197
  0
VERTEX
  8
PLAN_1
  6
CONTINUOUS
 10
-0.861807
 20
0.039000
  0
VERTEX
  8
PLAN_1
  6
CONTINUOUS
 10
-0.861331
 20
0.042807
  0
VERTEX
  8
PLAN_1
  6
CONTINUOUS
 10
-0.861807
 20
0.046610
  0
VERTEX
  8
PLAN_1
  6
CONTINUOUS
 10
-0.862756
 20
0.050417
  0
VERTEX
  8
PLAN_1
  6
CONTINUOUS
 10
-0.864661
 20
0.053744
  0
VERTEX
  8
PLAN_1
  6
CONTINUOUS
 10
-0.867039
 20
0.056598
  0
VERTEX
  8
PLAN_1
  6
CONTINUOUS
 10
-0.869894
 20
0.058976
  0
VERTEX
  8
PLAN_1
  6
CONTINUOUS
 10
-0.873220
 20
0.060882
  0
VERTEX
  8
PLAN_1
  6
CONTINUOUS
 10
-0.877028
 20
0.062307
  0
VERTEX
  8
PLAN_1
  6
CONTINUOUS
 10
-0.880831
 20
0.062307
  0
SEQEND
  8
0
  0
POLYLINE
  8
PLAN_1
  6
CONTINUOUS
 66
     1
 40
0.007134
 41
0.007134
  0
VERTEX
  8
PLAN_1
  6
CONTINUOUS
 10
-0.880831
 20
0.062307
  0
VERTEX
  8
PLAN_1
  6
CONTINUOUS
 10
-0.893197
 20
0.062307
  0
VERTEX
  8
PLAN_1
  6
CONTINUOUS
 10
-1.363114
 20
0.062307
  0
VERTEX
  8
PLAN_1
  6
CONTINUOUS
 10
-1.371201
 20
0.062307
  0
SEQEND
  8
0
  0
POLYLINE
  8
PLAN_1
  6
CONTINUOUS
 66
     1
 40
0.007134
 41
0.007134
  0
VERTEX
  8
PLAN_1
  6
CONTINUOUS
 10
-1.371201
 20
0.062307
  0
VERTEX
  8
PLAN_1
  6
CONTINUOUS
 10
-1.375004
 20
0.061831
  0
VERTEX
  8
PLAN_1
  6
CONTINUOUS
 10
-1.378811
 20
0.060882
  0
VERTEX
  8
PLAN_1
  6
CONTINUOUS
 10
-1.382142
 20
0.058976
  0
VERTEX
  8
PLAN_1
  6
CONTINUOUS
 10
-1.384992
 20
0.056598
  0
VERTEX
  8
PLAN_1
  6
CONTINUOUS
 10
-1.387370
 20
0.053744
  0
VERTEX
  8
PLAN_1
  6
CONTINUOUS
 10
-1.389276
 20
0.050417
  0
VERTEX
  8
PLAN_1
  6
CONTINUOUS
 10
-1.390224
 20
0.046610
  0
VERTEX
  8
PLAN_1
  6
CONTINUOUS
 10
-1.390701
 20
0.042807
  0
VERTEX
  8
PLAN_1
  6
CONTINUOUS
 10
-1.390224
 20
0.038528
  0
VERTEX
  8
PLAN_1
  6
CONTINUOUS
 10
-1.389276
 20
0.035197
  0
VERTEX
  8
PLAN_1
  6
CONTINUOUS
 10
-1.387370
 20
0.031866
  0
VERTEX
  8
PLAN_1
  6
CONTINUOUS
 10
-1.384992
 20
0.028539
  0
VERTEX
  8
PLAN_1
  6
CONTINUOUS
 10
-1.382142
 20
0.026161
  0
VERTEX
  8
PLAN_1
  6
CONTINUOUS
 10
-1.378811
 20
0.024732
  0
VERTEX
  8
PLAN_1
  6
CONTINUOUS
 10
-1.375004
 20
0.023307
  0
VERTEX
  8
PLAN_1
  6
CONTINUOUS
 10
-1.371201
 20
0.022831
  0
SEQEND
  8
0
  0
POLYLINE
  8
PLAN_1
  6
CONTINUOUS
 66
     1
 40
0.007134
 41
0.007134
  0
VERTEX
  8
PLAN_1
  6
CONTINUOUS
 10
-1.371201
 20
0.022831
  0
VERTEX
  8
PLAN_1
  6
CONTINUOUS
 10
-1.363114
 20
0.022831
  0
VERTEX
  8
PLAN_1
  6
CONTINUOUS
 10
-0.893197
 20
0.023307
  0
VERTEX
  8
PLAN_1
  6
CONTINUOUS
 10
-0.880831
 20
0.023307
  0
SEQEND
  8
0
  0
POLYLINE
  8
PLAN_1
  6
CONTINUOUS
 66
     1
 40
0.008559
 41
0.008559
  0
VERTEX
  8
PLAN_1
  6
CONTINUOUS
 10
-1.197598
 20
0.944114
  0
VERTEX
  8
PLAN_1
  6
CONTINUOUS
 10
-1.201878
 20
0.943642
  0
VERTEX
  8
PLAN_1
  6
CONTINUOUS
 10
-1.205685
 20
0.943165
  0
VERTEX
  8
PLAN_1
  6
CONTINUOUS
 10
-1.209965
 20
0.943165
  0
VERTEX
  8
PLAN_1
  6
CONTINUOUS
 10
-1.213768
 20
0.942689
  0
VERTEX
  8
PLAN_1
  6
CONTINUOUS
 10
-1.218051
 20
0.942689
  0
VERTEX
  8
PLAN_1
  6
CONTINUOUS
 10
-1.221854
 20
0.942689
  0
VERTEX
  8
PLAN_1
  6
CONTINUOUS
 10
-1.226134
 20
0.942689
  0
VERTEX
  8
PLAN_1
  6
CONTINUOUS
 10
-1.229941
 20
0.942689
  0
VERTEX
  8
PLAN_1
  6
CONTINUOUS
 10
-1.249441
 20
0.943165
  0
VERTEX
  8
PLAN_1
  6
CONTINUOUS
 10
-1.268465
 20
0.944591
  0
VERTEX
  8
PLAN_1
  6
CONTINUOUS
 10
-1.287016
 20
0.946969
  0
VERTEX
  8
PLAN_1
  6
CONTINUOUS
 10
-1.305563
 20
0.950299
  0
VERTEX
  8
PLAN_1
  6
CONTINUOUS
 10
-1.323638
 20
0.954102
  0
VERTEX
  8
PLAN_1
  6
CONTINUOUS
 10
-1.341236
 20
0.959335
  0
VERTEX
  8
PLAN_1
  6
CONTINUOUS
 10
-1.358835
 20
0.965043
  0
VERTEX
  8
PLAN_1
  6
CONTINUOUS
 10
-1.375480
 20
0.971701
  0
VERTEX
  8
PLAN_1
  6
CONTINUOUS
 10
-1.392130
 20
0.979311
  0
VERTEX
  8
PLAN_1
  6
CONTINUOUS
 10
-1.408299
 20
0.987398
  0
VERTEX
  8
PLAN_1
  6
CONTINUOUS
 10
-1.423996
 20
0.996433
  0
VERTEX
  8
PLAN_1
  6
CONTINUOUS
 10
-1.439217
 20
1.006421
  0
VERTEX
  8
PLAN_1
  6
CONTINUOUS
 10
-1.453961
 20
1.016886
  0
VERTEX
  8
PLAN_1
  6
CONTINUOUS
 10
-1.467752
 20
1.027827
  0
VERTEX
  8
PLAN_1
  6
CONTINUOUS
 10
-1.481547
 20
1.039717
  0
VERTEX
  8
PLAN_1
  6
CONTINUOUS
 10
-1.494386
 20
1.052083
  0
VERTEX
  8
PLAN_1
  6
CONTINUOUS
 10
-1.506752
 20
1.064925
  0
VERTEX
  8
PLAN_1
  6
CONTINUOUS
 10
-1.518646
 20
1.078717
  0
VERTEX
  8
PLAN_1
  6
CONTINUOUS
 10
-1.529583
 20
1.092512
  0
VERTEX
  8
PLAN_1
  6
CONTINUOUS
 10
-1.540047
 20
1.107256
  0
VERTEX
  8
PLAN_1
  6
CONTINUOUS
 10
-1.549559
 20
1.122476
  0
VERTEX
  8
PLAN_1
  6
CONTINUOUS
 10
-1.558598
 20
1.138169
  0
VERTEX
  8
PLAN_1
  6
CONTINUOUS
 10
-1.567157
 20
1.154343
  0
VERTEX
  8
PLAN_1
  6
CONTINUOUS
 10
-1.574291
 20
1.170988
  0
VERTEX
  8
PLAN_1
  6
CONTINUOUS
 10
-1.581425
 20
1.187634
  0
VERTEX
  8
PLAN_1
  6
CONTINUOUS
 10
-1.587134
 20
1.205232
  0
VERTEX
  8
PLAN_1
  6
CONTINUOUS
 10
-1.591890
 20
1.222831
  0
VERTEX
  8
PLAN_1
  6
CONTINUOUS
 10
-1.596173
 20
1.240906
  0
VERTEX
  8
PLAN_1
  6
CONTINUOUS
 10
-1.599500
 20
1.259457
  0
VERTEX
  8
PLAN_1
  6
CONTINUOUS
 10
-1.601878
 20
1.278004
  0
VERTEX
  8
PLAN_1
  6
CONTINUOUS
 10
-1.603307
 20
1.297028
  0
VERTEX
  8
PLAN_1
  6
CONTINUOUS
 10
-1.603780
 20
1.316531
  0
VERTEX
  8
PLAN_1
  6
CONTINUOUS
 10
-1.603307
 20
1.335555
  0
VERTEX
  8
PLAN_1
  6
CONTINUOUS
 10
-1.601878
 20
1.354579
  0
VERTEX
  8
PLAN_1
  6
CONTINUOUS
 10
-1.599500
 20
1.373130
  0
VERTEX
  8
PLAN_1
  6
CONTINUOUS
 10
-1.596173
 20
1.391677
  0
VERTEX
  8
PLAN_1
  6
CONTINUOUS
 10
-1.591890
 20
1.409752
  0
VERTEX
  8
PLAN_1
  6
CONTINUOUS
 10
-1.587134
 20
1.427350
  0
VERTEX
  8
PLAN_1
  6
CONTINUOUS
 10
-1.581425
 20
1.444949
  0
VERTEX
  8
PLAN_1
  6
CONTINUOUS
 10
-1.574291
 20
1.461594
  0
VERTEX
  8
PLAN_1
  6
CONTINUOUS
 10
-1.567157
 20
1.478244
  0
VERTEX
  8
PLAN_1
  6
CONTINUOUS
 10
-1.558598
 20
1.494413
  0
VERTEX
  8
PLAN_1
  6
CONTINUOUS
 10
-1.549559
 20
1.510110
  0
VERTEX
  8
PLAN_1
  6
CONTINUOUS
 10
-1.540047
 20
1.525331
  0
VERTEX
  8
PLAN_1
  6
CONTINUOUS
 10
-1.529583
 20
1.540075
  0
VERTEX
  8
PLAN_1
  6
CONTINUOUS
 10
-1.518646
 20
1.553866
  0
VERTEX
  8
PLAN_1
  6
CONTINUOUS
 10
-1.506752
 20
1.567661
  0
VERTEX
  8
PLAN_1
  6
CONTINUOUS
 10
-1.494386
 20
1.580500
  0
VERTEX
  8
PLAN_1
  6
CONTINUOUS
 10
-1.481547
 20
1.592870
  0
VERTEX
  8
PLAN_1
  6
CONTINUOUS
 10
-1.467752
 20
1.604760
  0
VERTEX
  8
PLAN_1
  6
CONTINUOUS
 10
-1.453961
 20
1.615697
  0
VERTEX
  8
PLAN_1
  6
CONTINUOUS
 10
-1.439217
 20
1.626161
  0
VERTEX
  8
PLAN_1
  6
CONTINUOUS
 10
-1.423996
 20
1.636150
  0
VERTEX
  8
PLAN_1
  6
CONTINUOUS
 10
-1.408299
 20
1.644713
  0
VERTEX
  8
PLAN_1
  6
CONTINUOUS
 10
-1.392130
 20
1.653272
  0
VERTEX
  8
PLAN_1
  6
CONTINUOUS
 10
-1.375480
 20
1.660882
  0
VERTEX
  8
PLAN_1
  6
CONTINUOUS
 10
-1.358835
 20
1.667539
  0
VERTEX
  8
PLAN_1
  6
CONTINUOUS
 10
-1.341236
 20
1.673248
  0
VERTEX
  8
PLAN_1
  6
CONTINUOUS
 10
-1.323638
 20
1.678480
  0
VERTEX
  8
PLAN_1
  6
CONTINUOUS
 10
-1.305563
 20
1.682287
  0
VERTEX
  8
PLAN_1
  6
CONTINUOUS
 10
-1.287016
 20
1.685614
  0
VERTEX
  8
PLAN_1
  6
CONTINUOUS
 10
-1.268465
 20
1.687992
  0
VERTEX
  8
PLAN_1
  6
CONTINUOUS
 10
-1.249441
 20
1.689421
  0
VERTEX
  8
PLAN_1
  6
CONTINUOUS
 10
-1.229941
 20
1.689898
  0
VERTEX
  8
PLAN_1
  6
CONTINUOUS
 10
-1.224232
 20
1.689898
  0
VERTEX
  8
PLAN_1
  6
CONTINUOUS
 10
-1.217575
 20
1.689898
  0
VERTEX
  8
PLAN_1
  6
CONTINUOUS
 10
-1.210913
 20
1.689421
  0
VERTEX
  8
PLAN_1
  6
CONTINUOUS
 10
-1.204732
 20
1.688945
  0
VERTEX
  8
PLAN_1
  6
CONTINUOUS
 10
-1.199500
 20
1.688469
  0
VERTEX
  8
PLAN_1
  6
CONTINUOUS
 10
-1.194744
 20
1.687992
  0
VERTEX
  8
PLAN_1
  6
CONTINUOUS
 10
-1.191890
 20
1.687992
  0
VERTEX
  8
PLAN_1
  6
CONTINUOUS
 10
-1.190937
 20
1.687992
  0
VERTEX
  8
PLAN_1
  6
CONTINUOUS
 10
-1.168110
 20
1.682760
  0
VERTEX
  8
PLAN_1
  6
CONTINUOUS
 10
-1.108181
 20
1.669921
  0
VERTEX
  8
PLAN_1
  6
CONTINUOUS
 10
-1.023043
 20
1.651846
  0
VERTEX
  8
PLAN_1
  6
CONTINUOUS
 10
-0.925063
 20
1.630917
  0
VERTEX
  8
PLAN_1
  6
CONTINUOUS
 10
-0.826610
 20
1.609992
  0
VERTEX
  8
PLAN_1
  6
CONTINUOUS
 10
-0.740047
 20
1.591441
  0
VERTEX
  8
PLAN_1
  6
CONTINUOUS
 10
-0.678217
 20
1.578122
  0
VERTEX
  8
PLAN_1
  6
CONTINUOUS
 10
-0.652055
 20
1.572894
  0
SEQEND
  8
0
  0
POLYLINE
  8
PLAN_1
  6
CONTINUOUS
 66
     1
 40
0.008559
 41
0.008559
  0
VERTEX
  8
PLAN_1
  6
CONTINUOUS
 10
-0.652055
 20
1.572894
  0
VERTEX
  8
PLAN_1
  6
CONTINUOUS
 10
-0.652531
 20
1.103925
  0
SEQEND
  8
0
  0
POLYLINE
  8
PLAN_1
  6
CONTINUOUS
 66
     1
 40
0.008559
 41
0.008559
  0
VERTEX
  8
PLAN_1
  6
CONTINUOUS
 10
-0.652531
 20
1.103925
  0
VERTEX
  8
PLAN_1
  6
CONTINUOUS
 10
-0.678217
 20
1.096791
  0
VERTEX
  8
PLAN_1
  6
CONTINUOUS
 10
-0.740996
 20
1.078240
  0
VERTEX
  8
PLAN_1
  6
CONTINUOUS
 10
-0.828512
 20
1.052559
  0
VERTEX
  8
PLAN_1
  6
CONTINUOUS
 10
-0.927917
 20
1.023543
  0
VERTEX
  8
PLAN_1
  6
CONTINUOUS
 10
-1.027323
 20
0.994055
  0
VERTEX
  8
PLAN_1
  6
CONTINUOUS
 10
-1.113413
 20
0.968846
  0
VERTEX
  8
PLAN_1
  6
CONTINUOUS
 10
-1.174768
 20
0.950776
  0
VERTEX
  8
PLAN_1
  6
CONTINUOUS
 10
-1.197598
 20
0.944114
  0
SEQEND
  8
0
  0
POLYLINE
  8
PLAN_1
  6
CONTINUOUS
 66
     1
 40
0.008559
 41
0.008559
  0
VERTEX
  8
PLAN_1
  6
CONTINUOUS
 10
-1.000213
 20
1.319858
  0
VERTEX
  8
PLAN_1
  6
CONTINUOUS
 10
-1.109606
 20
1.116768
  0
VERTEX
  8
PLAN_1
  6
CONTINUOUS
 10
-1.349799
 20
1.116768
  0
VERTEX
  8
PLAN_1
  6
CONTINUOUS
 10
-1.462520
 20
1.319858
  0
VERTEX
  8
PLAN_1
  6
CONTINUOUS
 10
-1.349799
 20
1.513437
  0
VERTEX
  8
PLAN_1
  6
CONTINUOUS
 10
-1.109606
 20
1.513437
  0
VERTEX
  8
PLAN_1
  6
CONTINUOUS
 10
-1.000213
 20
1.319858
  0
SEQEND
  8
0
  0
POLYLINE
  8
PLAN_1
  6
CONTINUOUS
 66
     1
 40
0.007134
 41
0.007134
  0
VERTEX
  8
PLAN_1
  6
CONTINUOUS
 10
-0.695339
 20
1.579551
  0
VERTEX
  8
PLAN_1
  6
CONTINUOUS
 10
-0.695339
 20
1.097268
  0
SEQEND
  8
0
  0
POLYLINE
  8
PLAN_1
  6
CONTINUOUS
 66
     1
 40
0.004280
 41
0.004280
  0
VERTEX
  8
PLAN_1
  6
CONTINUOUS
 10
-1.121972
 20
1.307492
  0
VERTEX
  8
PLAN_1
  6
CONTINUOUS
 10
-1.121972
 20
1.326520
  0
VERTEX
  8
PLAN_1
  6
CONTINUOUS
 10
-1.338858
 20
1.326520
  0
VERTEX
  8
PLAN_1
  6
CONTINUOUS
 10
-1.338858
 20
1.307492
  0
VERTEX
  8
PLAN_1
  6
CONTINUOUS
 10
-1.121972
 20
1.307492
  0
SEQEND
  8
0
  0
POLYLINE
  8
PLAN_1
  6
CONTINUOUS
 66
     1
 40
0.007134
 41
0.007134
  0
VERTEX
  8
PLAN_1
  6
CONTINUOUS
 10
-1.229465
 20
1.227587
  0
VERTEX
  8
PLAN_1
  6
CONTINUOUS
 10
-1.220429
 20
1.228063
  0
VERTEX
  8
PLAN_1
  6
CONTINUOUS
 10
-1.211866
 20
1.229016
  0
VERTEX
  8
PLAN_1
  6
CONTINUOUS
 10
-1.203303
 20
1.231394
  0
VERTEX
  8
PLAN_1
  6
CONTINUOUS
 10
-1.195220
 20
1.234248
  0
VERTEX
  8
PLAN_1
  6
CONTINUOUS
 10
-1.187134
 20
1.238051
  0
VERTEX
  8
PLAN_1
  6
CONTINUOUS
 10
-1.180000
 20
1.242331
  0
VERTEX
  8
PLAN_1
  6
CONTINUOUS
 10
-1.173343
 20
1.247563
  0
VERTEX
  8
PLAN_1
  6
CONTINUOUS
 10
-1.167157
 20
1.253272
  0
VERTEX
  8
PLAN_1
  6
CONTINUOUS
 10
-1.161449
 20
1.259457
  0
VERTEX
  8
PLAN_1
  6
CONTINUOUS
 10
-1.156217
 20
1.266591
  0
VERTEX
  8
PLAN_1
  6
CONTINUOUS
 10
-1.151937
 20
1.273724
  0
VERTEX
  8
PLAN_1
  6
CONTINUOUS
 10
-1.148134
 20
1.281335
  0
VERTEX
  8
PLAN_1
  6
CONTINUOUS
 10
-1.144803
 20
1.289421
  0
VERTEX
  8
PLAN_1
  6
CONTINUOUS
 10
-1.142902
 20
1.297980
  0
VERTEX
  8
PLAN_1
  6
CONTINUOUS
 10
-1.141472
 20
1.307016
  0
VERTEX
  8
PLAN_1
  6
CONTINUOUS
 10
-1.141000
 20
1.316055
  0
VERTEX
  8
PLAN_1
  6
CONTINUOUS
 10
-1.141472
 20
1.325091
  0
VERTEX
  8
PLAN_1
  6
CONTINUOUS
 10
-1.142902
 20
1.333654
  0
VERTEX
  8
PLAN_1
  6
CONTINUOUS
 10
-1.144803
 20
1.342213
  0
VERTEX
  8
PLAN_1
  6
CONTINUOUS
 10
-1.148134
 20
1.350299
  0
VERTEX
  8
PLAN_1
  6
CONTINUOUS
 10
-1.151937
 20
1.357909
  0
VERTEX
  8
PLAN_1
  6
CONTINUOUS
 10
-1.156217
 20
1.365520
  0
VERTEX
  8
PLAN_1
  6
CONTINUOUS
 10
-1.161449
 20
1.372177
  0
VERTEX
  8
PLAN_1
  6
CONTINUOUS
 10
-1.167157
 20
1.378362
  0
VERTEX
  8
PLAN_1
  6
CONTINUOUS
 10
-1.173343
 20
1.384067
  0
VERTEX
  8
PLAN_1
  6
CONTINUOUS
 10
-1.180000
 20
1.389299
  0
VERTEX
  8
PLAN_1
  6
CONTINUOUS
 10
-1.187134
 20
1.393583
  0
VERTEX
  8
PLAN_1
  6
CONTINUOUS
 10
-1.195220
 20
1.397386
  0
VERTEX
  8
PLAN_1
  6
CONTINUOUS
 10
-1.203303
 20
1.400240
  0
VERTEX
  8
PLAN_1
  6
CONTINUOUS
 10
-1.211866
 20
1.402618
  0
VERTEX
  8
PLAN_1
  6
CONTINUOUS
 10
-1.220429
 20
1.404043
  0
VERTEX
  8
PLAN_1
  6
CONTINUOUS
 10
-1.229465
 20
1.404520
  0
VERTEX
  8
PLAN_1
  6
CONTINUOUS
 10
-1.238500
 20
1.404043
  0
VERTEX
  8
PLAN_1
  6
CONTINUOUS
 10
-1.247539
 20
1.402618
  0
VERTEX
  8
PLAN_1
  6
CONTINUOUS
 10
-1.256098
 20
1.400240
  0
VERTEX
  8
PLAN_1
  6
CONTINUOUS
 10
-1.264185
 20
1.397386
  0
VERTEX
  8
PLAN_1
  6
CONTINUOUS
 10
-1.271795
 20
1.393583
  0
VERTEX
  8
PLAN_1
  6
CONTINUOUS
 10
-1.278929
 20
1.389299
  0
VERTEX
  8
PLAN_1
  6
CONTINUOUS
 10
-1.286063
 20
1.384067
  0
VERTEX
  8
PLAN_1
  6
CONTINUOUS
 10
-1.292248
 20
1.378362
  0
VERTEX
  8
PLAN_1
  6
CONTINUOUS
 10
-1.297953
 20
1.372177
  0
VERTEX
  8
PLAN_1
  6
CONTINUOUS
 10
-1.303185
 20
1.365520
  0
VERTEX
  8
PLAN_1
  6
CONTINUOUS
 10
-1.307469
 20
1.357909
  0
VERTEX
  8
PLAN_1
  6
CONTINUOUS
 10
-1.311272
 20
1.350299
  0
VERTEX
  8
PLAN_1
  6
CONTINUOUS
 10
-1.314126
 20
1.342213
  0
VERTEX
  8
PLAN_1
  6
CONTINUOUS
 10
-1.316504
 20
1.333654
  0
VERTEX
  8
PLAN_1
  6
CONTINUOUS
 10
-1.317457
 20
1.325091
  0
VERTEX
  8
PLAN_1
  6
CONTINUOUS
 10
-1.317929
 20
1.316055
  0
VERTEX
  8
PLAN_1
  6
CONTINUOUS
 10
-1.317457
 20
1.307016
  0
VERTEX
  8
PLAN_1
  6
CONTINUOUS
 10
-1.316504
 20
1.297980
  0
VERTEX
  8
PLAN_1
  6
CONTINUOUS
 10
-1.314126
 20
1.289421
  0
VERTEX
  8
PLAN_1
  6
CONTINUOUS
 10
-1.311272
 20
1.281335
  0
VERTEX
  8
PLAN_1
  6
CONTINUOUS
 10
-1.307469
 20
1.273724
  0
VERTEX
  8
PLAN_1
  6
CONTINUOUS
 10
-1.303185
 20
1.266591
  0
VERTEX
  8
PLAN_1
  6
CONTINUOUS
 10
-1.297953
 20
1.259457
  0
VERTEX
  8
PLAN_1
  6
CONTINUOUS
 10
-1.292248
 20
1.253272
  0
VERTEX
  8
PLAN_1
  6
CONTINUOUS
 10
-1.286063
 20
1.247563
  0
VERTEX
  8
PLAN_1
  6
CONTINUOUS
 10
-1.278929
 20
1.242331
  0
VERTEX
  8
PLAN_1
  6
CONTINUOUS
 10
-1.271795
 20
1.238051
  0
VERTEX
  8
PLAN_1
  6
CONTINUOUS
 10
-1.264185
 20
1.234248
  0
VERTEX
  8
PLAN_1
  6
CONTINUOUS
 10
-1.256098
 20
1.231394
  0
VERTEX
  8
PLAN_1
  6
CONTINUOUS
 10
-1.247539
 20
1.229016
  0
VERTEX
  8
PLAN_1
  6
CONTINUOUS
 10
-1.238500
 20
1.228063
  0
VERTEX
  8
PLAN_1
  6
CONTINUOUS
 10
-1.229465
 20
1.227587
  0
SEQEND
  8
0
  0
POLYLINE
  8
PLAN_1
  6
CONTINUOUS
 66
     1
 40
0.008559
 41
0.008559
  0
VERTEX
  8
PLAN_1
  6
CONTINUOUS
 10
-0.990224
 20
1.502024
  0
VERTEX
  8
PLAN_1
  6
CONTINUOUS
 10
-1.046823
 20
1.558622
  0
VERTEX
  8
PLAN_1
  6
CONTINUOUS
 10
-1.133390
 20
1.554343
  0
VERTEX
  8
PLAN_1
  6
CONTINUOUS
 10
-1.192843
 20
1.616173
  0
VERTEX
  8
PLAN_1
  6
CONTINUOUS
 10
-1.272748
 20
1.616173
  0
VERTEX
  8
PLAN_1
  6
CONTINUOUS
 10
-1.330772
 20
1.551965
  0
VERTEX
  8
PLAN_1
  6
CONTINUOUS
 10
-1.416862
 20
1.554343
  0
VERTEX
  8
PLAN_1
  6
CONTINUOUS
 10
-1.473461
 20
1.497744
  0
VERTEX
  8
PLAN_1
  6
CONTINUOUS
 10
-1.469181
 20
1.411181
  0
VERTEX
  8
PLAN_1
  6
CONTINUOUS
 10
-1.531012
 20
1.352201
  0
VERTEX
  8
PLAN_1
  6
CONTINUOUS
 10
-1.531012
 20
1.272295
  0
VERTEX
  8
PLAN_1
  6
CONTINUOUS
 10
-1.463472
 20
1.216650
  0
VERTEX
  8
PLAN_1
  6
CONTINUOUS
 10
-1.468228
 20
1.129134
  0
VERTEX
  8
PLAN_1
  6
CONTINUOUS
 10
-1.412106
 20
1.073012
  0
VERTEX
  8
PLAN_1
  6
CONTINUOUS
 10
-1.325539
 20
1.077291
  0
VERTEX
  8
PLAN_1
  6
CONTINUOUS
 10
-1.269894
 20
1.015461
  0
VERTEX
  8
PLAN_1
  6
CONTINUOUS
 10
-1.189988
 20
1.015461
  0
VERTEX
  8
PLAN_1
  6
CONTINUOUS
 10
-1.131012
 20
1.083000
  0
VERTEX
  8
PLAN_1
  6
CONTINUOUS
 10
-1.043972
 20
1.078240
  0
VERTEX
  8
PLAN_1
  6
CONTINUOUS
 10
-0.987370
 20
1.134843
  0
VERTEX
  8
PLAN_1
  6
CONTINUOUS
 10
-0.994031
 20
1.219976
  0
VERTEX
  8
PLAN_1
  6
CONTINUOUS
 10
-0.928870
 20
1.278004
  0
VERTEX
  8
PLAN_1
  6
CONTINUOUS
 10
-0.928870
 20
1.357909
  0
VERTEX
  8
PLAN_1
  6
CONTINUOUS
 10
-0.993079
 20
1.415937
  0
VERTEX
  8
PLAN_1
  6
CONTINUOUS
 10
-0.990224
 20
1.502024
  0
SEQEND
  8
0
  0
POLYLINE
  8
PLAN_1
  6
CONTINUOUS
 66
     1
 40
0.008559
 41
0.008559
  0
VERTEX
  8
PLAN_1
  6
CONTINUOUS
 10
-0.664421
 20
1.104878
  0
VERTEX
  8
PLAN_1
  6
CONTINUOUS
 10
-0.664421
 20
0.314390
  0
VERTEX
  8
PLAN_1
  6
CONTINUOUS
 10
-0.900331
 20
0.314390
  0
VERTEX
  8
PLAN_1
  6
CONTINUOUS
 10
-0.900331
 20
1.031154
  0
SEQEND
  8
0
  0
POLYLINE
  8
PLAN_1
  6
CONTINUOUS
 66
     1
 40
0.007134
 41
0.007134
  0
VERTEX
  8
PLAN_1
  6
CONTINUOUS
 10
-1.358358
 20
1.316055
  0
VERTEX
  8
PLAN_1
  6
CONTINUOUS
 10
-1.357882
 20
1.309398
  0
VERTEX
  8
PLAN_1
  6
CONTINUOUS
 10
-1.357409
 20
1.303213
  0
VERTEX
  8
PLAN_1
  6
CONTINUOUS
 10
-1.356457
 20
1.296555
  0
VERTEX
  8
PLAN_1
  6
CONTINUOUS
 10
-1.355504
 20
1.290370
  0
VERTEX
  8
PLAN_1
  6
CONTINUOUS
 10
-1.354079
 20
1.284189
  0
VERTEX
  8
PLAN_1
  6
CONTINUOUS
 10
-1.352650
 20
1.278004
  0
VERTEX
  8
PLAN_1
  6
CONTINUOUS
 10
-1.350272
 20
1.272295
  0
VERTEX
  8
PLAN_1
  6
CONTINUOUS
 10
-1.347894
 20
1.266114
  0
VERTEX
  8
PLAN_1
  6
CONTINUOUS
 10
-1.345516
 20
1.260882
  0
VERTEX
  8
PLAN_1
  6
CONTINUOUS
 10
-1.342661
 20
1.255173
  0
VERTEX
  8
PLAN_1
  6
CONTINUOUS
 10
-1.339811
 20
1.249941
  0
VERTEX
  8
PLAN_1
  6
CONTINUOUS
 10
-1.336480
 20
1.244713
  0
VERTEX
  8
PLAN_1
  6
CONTINUOUS
 10
-1.332673
 20
1.239480
  0
VERTEX
  8
PLAN_1
  6
CONTINUOUS
 10
-1.328870
 20
1.234724
  0
VERTEX
  8
PLAN_1
  6
CONTINUOUS
 10
-1.325067
 20
1.229965
  0
VERTEX
  8
PLAN_1
  6
CONTINUOUS
 10
-1.320783
 20
1.225685
  0
VERTEX
  8
PLAN_1
  6
CONTINUOUS
 10
-1.316504
 20
1.221406
  0
VERTEX
  8
PLAN_1
  6
CONTINUOUS
 10
-1.311748
 20
1.217598
  0
VERTEX
  8
PLAN_1
  6
CONTINUOUS
 10
-1.306992
 20
1.213795
  0
VERTEX
  8
PLAN_1
  6
CONTINUOUS
 10
-1.301760
 20
1.209988
  0
VERTEX
  8
PLAN_1
  6
CONTINUOUS
 10
-1.296528
 20
1.206661
  0
VERTEX
  8
PLAN_1
  6
CONTINUOUS
 10
-1.291295
 20
1.203807
  0
VERTEX
  8
PLAN_1
  6
CONTINUOUS
 10
-1.285587
 20
1.200953
  0
VERTEX
  8
PLAN_1
  6
CONTINUOUS
 10
-1.279882
 20
1.198098
  0
VERTEX
  8
PLAN_1
  6
CONTINUOUS
 10
-1.274173
 20
1.196197
  0
VERTEX
  8
PLAN_1
  6
CONTINUOUS
 10
-1.268465
 20
1.193819
  0
VERTEX
  8
PLAN_1
  6
CONTINUOUS
 10
-1.262283
 20
1.192394
  0
VERTEX
  8
PLAN_1
  6
CONTINUOUS
 10
-1.256098
 20
1.190965
  0
VERTEX
  8
PLAN_1
  6
CONTINUOUS
 10
-1.249917
 20
1.189539
  0
VERTEX
  8
PLAN_1
  6
CONTINUOUS
 10
-1.243256
 20
1.189063
  0
VERTEX
  8
PLAN_1
  6
CONTINUOUS
 10
-1.237075
 20
1.188587
  0
VERTEX
  8
PLAN_1
  6
CONTINUOUS
 10
-1.230417
 20
1.188110
  0
VERTEX
  8
PLAN_1
  6
CONTINUOUS
 10
-1.223756
 20
1.188587
  0
VERTEX
  8
PLAN_1
  6
CONTINUOUS
 10
-1.217098
 20
1.189063
  0
VERTEX
  8
PLAN_1
  6
CONTINUOUS
 10
-1.210913
 20
1.189539
  0
VERTEX
  8
PLAN_1
  6
CONTINUOUS
 10
-1.204732
 20
1.190965
  0
VERTEX
  8
PLAN_1
  6
CONTINUOUS
 10
-1.198547
 20
1.192394
  0
VERTEX
  8
PLAN_1
  6
CONTINUOUS
 10
-1.192366
 20
1.193819
  0
VERTEX
  8
PLAN_1
  6
CONTINUOUS
 10
-1.186181
 20
1.196197
  0
VERTEX
  8
PLAN_1
  6
CONTINUOUS
 10
-1.180476
 20
1.198098
  0
VERTEX
  8
PLAN_1
  6
CONTINUOUS
 10
-1.174768
 20
1.200953
  0
VERTEX
  8
PLAN_1
  6
CONTINUOUS
 10
-1.169535
 20
1.203807
  0
VERTEX
  8
PLAN_1
  6
CONTINUOUS
 10
-1.163827
 20
1.206661
  0
VERTEX
  8
PLAN_1
  6
CONTINUOUS
 10
-1.158594
 20
1.209988
  0
VERTEX
  8
PLAN_1
  6
CONTINUOUS
 10
-1.153839
 20
1.213795
  0
VERTEX
  8
PLAN_1
  6
CONTINUOUS
 10
-1.149083
 20
1.217598
  0
VERTEX
  8
PLAN_1
  6
CONTINUOUS
 10
-1.144327
 20
1.221406
  0
VERTEX
  8
PLAN_1
  6
CONTINUOUS
 10
-1.140047
 20
1.225685
  0
VERTEX
  8
PLAN_1
  6
CONTINUOUS
 10
-1.135768
 20
1.229965
  0
VERTEX
  8
PLAN_1
  6
CONTINUOUS
 10
-1.131484
 20
1.234724
  0
VERTEX
  8
PLAN_1
  6
CONTINUOUS
 10
-1.127681
 20
1.239480
  0
VERTEX
  8
PLAN_1
  6
CONTINUOUS
 10
-1.124350
 20
1.244713
  0
VERTEX
  8
PLAN_1
  6
CONTINUOUS
 10
-1.121024
 20
1.249941
  0
VERTEX
  8
PLAN_1
  6
CONTINUOUS
 10
-1.117693
 20
1.255173
  0
VERTEX
  8
PLAN_1
  6
CONTINUOUS
 10
-1.114839
 20
1.260882
  0
VERTEX
  8
PLAN_1
  6
CONTINUOUS
 10
-1.112461
 20
1.266114
  0
VERTEX
  8
PLAN_1
  6
CONTINUOUS
 10
-1.110083
 20
1.272295
  0
VERTEX
  8
PLAN_1
  6
CONTINUOUS
 10
-1.108181
 20
1.278004
  0
VERTEX
  8
PLAN_1
  6
CONTINUOUS
 10
-1.106276
 20
1.284189
  0
VERTEX
  8
PLAN_1
  6
CONTINUOUS
 10
-1.104850
 20
1.290370
  0
VERTEX
  8
PLAN_1
  6
CONTINUOUS
 10
-1.103898
 20
1.296555
  0
VERTEX
  8
PLAN_1
  6
CONTINUOUS
 10
-1.102949
 20
1.303213
  0
VERTEX
  8
PLAN_1
  6
CONTINUOUS
 10
-1.102472
 20
1.309398
  0
VERTEX
  8
PLAN_1
  6
CONTINUOUS
 10
-1.102472
 20
1.316055
  0
VERTEX
  8
PLAN_1
  6
CONTINUOUS
 10
-1.102472
 20
1.322713
  0
VERTEX
  8
PLAN_1
  6
CONTINUOUS
 10
-1.102949
 20
1.329370
  0
VERTEX
  8
PLAN_1
  6
CONTINUOUS
 10
-1.103898
 20
1.335555
  0
VERTEX
  8
PLAN_1
  6
CONTINUOUS
 10
-1.104850
 20
1.341740
  0
VERTEX
  8
PLAN_1
  6
CONTINUOUS
 10
-1.106276
 20
1.347921
  0
VERTEX
  8
PLAN_1
  6
CONTINUOUS
 10
-1.108181
 20
1.354106
  0
VERTEX
  8
PLAN_1
  6
CONTINUOUS
 10
-1.110083
 20
1.360287
  0
VERTEX
  8
PLAN_1
  6
CONTINUOUS
 10
-1.112461
 20
1.365996
  0
VERTEX
  8
PLAN_1
  6
CONTINUOUS
 10
-1.114839
 20
1.371701
  0
VERTEX
  8
PLAN_1
  6
CONTINUOUS
 10
-1.117693
 20
1.376933
  0
VERTEX
  8
PLAN_1
  6
CONTINUOUS
 10
-1.121024
 20
1.382165
  0
VERTEX
  8
PLAN_1
  6
CONTINUOUS
 10
-1.124350
 20
1.387398
  0
VERTEX
  8
PLAN_1
  6
CONTINUOUS
 10
-1.127681
 20
1.392630
  0
VERTEX
  8
PLAN_1
  6
CONTINUOUS
 10
-1.131484
 20
1.397386
  0
VERTEX
  8
PLAN_1
  6
CONTINUOUS
 10
-1.135768
 20
1.402142
  0
VERTEX
  8
PLAN_1
  6
CONTINUOUS
 10
-1.140047
 20
1.406421
  0
VERTEX
  8
PLAN_1
  6
CONTINUOUS
 10
-1.144327
 20
1.410705
  0
VERTEX
  8
PLAN_1
  6
CONTINUOUS
 10
-1.149083
 20
1.414984
  0
VERTEX
  8
PLAN_1
  6
CONTINUOUS
 10
-1.153839
 20
1.418791
  0
VERTEX
  8
PLAN_1
  6
CONTINUOUS
 10
-1.158594
 20
1.422118
  0
VERTEX
  8
PLAN_1
  6
CONTINUOUS
 10
-1.163827
 20
1.425449
  0
VERTEX
  8
PLAN_1
  6
CONTINUOUS
 10
-1.169535
 20
1.428303
  0
VERTEX
  8
PLAN_1
  6
CONTINUOUS
 10
-1.174768
 20
1.431157
  0
VERTEX
  8
PLAN_1
  6
CONTINUOUS
 10
-1.180476
 20
1.434008
  0
VERTEX
  8
PLAN_1
  6
CONTINUOUS
 10
-1.186181
 20
1.436386
  0
VERTEX
  8
PLAN_1
  6
CONTINUOUS
 10
-1.192366
 20
1.438291
  0
VERTEX
  8
PLAN_1
  6
CONTINUOUS
 10
-1.198547
 20
1.439717
  0
VERTEX
  8
PLAN_1
  6
CONTINUOUS
 10
-1.204732
 20
1.441146
  0
VERTEX
  8
PLAN_1
  6
CONTINUOUS
 10
-1.210913
 20
1.442571
  0
VERTEX
  8
PLAN_1
  6
CONTINUOUS
 10
-1.217098
 20
1.443524
  0
VERTEX
  8
PLAN_1
  6
CONTINUOUS
 10
-1.223756
 20
1.443996
  0
VERTEX
  8
PLAN_1
  6
CONTINUOUS
 10
-1.230417
 20
1.443996
  0
VERTEX
  8
PLAN_1
  6
CONTINUOUS
 10
-1.237075
 20
1.443996
  0
VERTEX
  8
PLAN_1
  6
CONTINUOUS
 10
-1.243256
 20
1.443524
  0
VERTEX
  8
PLAN_1
  6
CONTINUOUS
 10
-1.249917
 20
1.442571
  0
VERTEX
  8
PLAN_1
  6
CONTINUOUS
 10
-1.256098
 20
1.441146
  0
VERTEX
  8
PLAN_1
  6
CONTINUOUS
 10
-1.262283
 20
1.439717
  0
VERTEX
  8
PLAN_1
  6
CONTINUOUS
 10
-1.268465
 20
1.438291
  0
VERTEX
  8
PLAN_1
  6
CONTINUOUS
 10
-1.274173
 20
1.436386
  0
VERTEX
  8
PLAN_1
  6
CONTINUOUS
 10
-1.279882
 20
1.434008
  0
VERTEX
  8
PLAN_1
  6
CONTINUOUS
 10
-1.285587
 20
1.431157
  0
VERTEX
  8
PLAN_1
  6
CONTINUOUS
 10
-1.291295
 20
1.428303
  0
VERTEX
  8
PLAN_1
  6
CONTINUOUS
 10
-1.296528
 20
1.425449
  0
VERTEX
  8
PLAN_1
  6
CONTINUOUS
 10
-1.301760
 20
1.422118
  0
VERTEX
  8
PLAN_1
  6
CONTINUOUS
 10
-1.306992
 20
1.418791
  0
VERTEX
  8
PLAN_1
  6
CONTINUOUS
 10
-1.311748
 20
1.414984
  0
VERTEX
  8
PLAN_1
  6
CONTINUOUS
 10
-1.316504
 20
1.410705
  0
VERTEX
  8
PLAN_1
  6
CONTINUOUS
 10
-1.320783
 20
1.406421
  0
VERTEX
  8
PLAN_1
  6
CONTINUOUS
 10
-1.325067
 20
1.402142
  0
VERTEX
  8
PLAN_1
  6
CONTINUOUS
 10
-1.328870
 20
1.397386
  0
VERTEX
  8
PLAN_1
  6
CONTINUOUS
 10
-1.332673
 20
1.392630
  0
VERTEX
  8
PLAN_1
  6
CONTINUOUS
 10
-1.336480
 20
1.387398
  0
VERTEX
  8
PLAN_1
  6
CONTINUOUS
 10
-1.339811
 20
1.382165
  0
VERTEX
  8
PLAN_1
  6
CONTINUOUS
 10
-1.342661
 20
1.376933
  0
VERTEX
  8
PLAN_1
  6
CONTINUOUS
 10
-1.345516
 20
1.371701
  0
VERTEX
  8
PLAN_1
  6
CONTINUOUS
 10
-1.347894
 20
1.365996
  0
VERTEX
  8
PLAN_1
  6
CONTINUOUS
 10
-1.350272
 20
1.360287
  0
VERTEX
  8
PLAN_1
  6
CONTINUOUS
 10
-1.352650
 20
1.354106
  0
VERTEX
  8
PLAN_1
  6
CONTINUOUS
 10
-1.354079
 20
1.347921
  0
VERTEX
  8
PLAN_1
  6
CONTINUOUS
 10
-1.355504
 20
1.341740
  0
VERTEX
  8
PLAN_1
  6
CONTINUOUS
 10
-1.356457
 20
1.335555
  0
VERTEX
  8
PLAN_1
  6
CONTINUOUS
 10
-1.357409
 20
1.329370
  0
VERTEX
  8
PLAN_1
  6
CONTINUOUS
 10
-1.357882
 20
1.322713
  0
VERTEX
  8
PLAN_1
  6
CONTINUOUS
 10
-1.358358
 20
1.316055
  0
SEQEND
  8
0
  0
POLYLINE
  8
PLAN_1
 62
     5
  6
CONTINUOUS
 66
     1
 40
0.003000
 41
0.003000
  0
VERTEX
  8
PLAN_1
 62
     5
  6
CONTINUOUS
 10
-2.339098
 20
0.160760
  0
VERTEX
  8
PLAN_1
 62
     5
  6
CONTINUOUS
 10
-2.339098
 20
0.169323
  0
SEQEND
  8
0
  0
POLYLINE
  8
PLAN_1
 62
     5
  6
CONTINUOUS
 66
     1
 40
0.003000
 41
0.003000
  0
VERTEX
  8
PLAN_1
 62
     5
  6
CONTINUOUS
 10
-2.339098
 20
0.177886
  0
VERTEX
  8
PLAN_1
 62
     5
  6
CONTINUOUS
 10
-2.339098
 20
0.185969
  0
SEQEND
  8
0
  0
POLYLINE
  8
PLAN_1
 62
     5
  6
CONTINUOUS
 66
     1
 40
0.003000
 41
0.003000
  0
VERTEX
  8
PLAN_1
 62
     5
  6
CONTINUOUS
 10
-2.339098
 20
0.194531
  0
VERTEX
  8
PLAN_1
 62
     5
  6
CONTINUOUS
 10
-2.339098
 20
0.202618
  0
SEQEND
  8
0
  0
POLYLINE
  8
PLAN_1
 62
     5
  6
CONTINUOUS
 66
     1
 40
0.003000
 41
0.003000
  0
VERTEX
  8
PLAN_1
 62
     5
  6
CONTINUOUS
 10
-2.339098
 20
0.211177
  0
VERTEX
  8
PLAN_1
 62
     5
  6
CONTINUOUS
 10
-2.339098
 20
0.219264
  0
SEQEND
  8
0
  0
POLYLINE
  8
PLAN_1
 62
     5
  6
CONTINUOUS
 66
     1
 40
0.003000
 41
0.003000
  0
VERTEX
  8
PLAN_1
 62
     5
  6
CONTINUOUS
 10
-2.339098
 20
0.227823
  0
VERTEX
  8
PLAN_1
 62
     5
  6
CONTINUOUS
 10
-2.339098
 20
0.235909
  0
SEQEND
  8
0
  0
POLYLINE
  8
PLAN_1
 62
     5
  6
CONTINUOUS
 66
     1
 40
0.003000
 41
0.003000
  0
VERTEX
  8
PLAN_1
 62
     5
  6
CONTINUOUS
 10
-2.339098
 20
0.244472
  0
VERTEX
  8
PLAN_1
 62
     5
  6
CONTINUOUS
 10
-2.339098
 20
0.252555
  0
SEQEND
  8
0
  0
POLYLINE
  8
PLAN_1
 62
     5
  6
CONTINUOUS
 66
     1
 40
0.003000
 41
0.003000
  0
VERTEX
  8
PLAN_1
 62
     5
  6
CONTINUOUS
 10
-2.339098
 20
0.261118
  0
VERTEX
  8
PLAN_1
 62
     5
  6
CONTINUOUS
 10
-2.339098
 20
0.269205
  0
SEQEND
  8
0
  0
POLYLINE
  8
PLAN_1
 62
     5
  6
CONTINUOUS
 66
     1
 40
0.003000
 41
0.003000
  0
VERTEX
  8
PLAN_1
 62
     5
  6
CONTINUOUS
 10
-2.339098
 20
0.277764
  0
VERTEX
  8
PLAN_1
 62
     5
  6
CONTINUOUS
 10
-2.339098
 20
0.285850
  0
SEQEND
  8
0
  0
POLYLINE
  8
PLAN_1
 62
     5
  6
CONTINUOUS
 66
     1
 40
0.003000
 41
0.003000
  0
VERTEX
  8
PLAN_1
 62
     5
  6
CONTINUOUS
 10
-2.339098
 20
0.294413
  0
VERTEX
  8
PLAN_1
 62
     5
  6
CONTINUOUS
 10
-2.339098
 20
0.302496
  0
SEQEND
  8
0
  0
POLYLINE
  8
PLAN_1
 62
     5
  6
CONTINUOUS
 66
     1
 40
0.003000
 41
0.003000
  0
VERTEX
  8
PLAN_1
 62
     5
  6
CONTINUOUS
 10
-2.339098
 20
0.311059
  0
VERTEX
  8
PLAN_1
 62
     5
  6
CONTINUOUS
 10
-2.339098
 20
0.319146
  0
SEQEND
  8
0
  0
POLYLINE
  8
PLAN_1
 62
     5
  6
CONTINUOUS
 66
     1
 40
0.003000
 41
0.003000
  0
VERTEX
  8
PLAN_1
 62
     5
  6
CONTINUOUS
 10
-2.339098
 20
0.327705
  0
VERTEX
  8
PLAN_1
 62
     5
  6
CONTINUOUS
 10
-2.339098
 20
0.335791
  0
SEQEND
  8
0
  0
POLYLINE
  8
PLAN_1
 62
     5
  6
CONTINUOUS
 66
     1
 40
0.003000
 41
0.003000
  0
VERTEX
  8
PLAN_1
 62
     5
  6
CONTINUOUS
 10
-2.339098
 20
0.344354
  0
VERTEX
  8
PLAN_1
 62
     5
  6
CONTINUOUS
 10
-2.339098
 20
0.352437
  0
SEQEND
  8
0
  0
POLYLINE
  8
PLAN_1
 62
     5
  6
CONTINUOUS
 66
     1
 40
0.003000
 41
0.003000
  0
VERTEX
  8
PLAN_1
 62
     5
  6
CONTINUOUS
 10
-2.339098
 20
0.361000
  0
VERTEX
  8
PLAN_1
 62
     5
  6
CONTINUOUS
 10
-2.339098
 20
0.369087
  0
SEQEND
  8
0
  0
POLYLINE
  8
PLAN_1
 62
     5
  6
CONTINUOUS
 66
     1
 40
0.003000
 41
0.003000
  0
VERTEX
  8
PLAN_1
 62
     5
  6
CONTINUOUS
 10
-2.339098
 20
0.377646
  0
VERTEX
  8
PLAN_1
 62
     5
  6
CONTINUOUS
 10
-2.339098
 20
0.385732
  0
SEQEND
  8
0
  0
POLYLINE
  8
PLAN_1
 62
     5
  6
CONTINUOUS
 66
     1
 40
0.003000
 41
0.003000
  0
VERTEX
  8
PLAN_1
 62
     5
  6
CONTINUOUS
 10
-2.339098
 20
0.394291
  0
VERTEX
  8
PLAN_1
 62
     5
  6
CONTINUOUS
 10
-2.339098
 20
0.402378
  0
SEQEND
  8
0
  0
POLYLINE
  8
PLAN_1
 62
     5
  6
CONTINUOUS
 66
     1
 40
0.003000
 41
0.003000
  0
VERTEX
  8
PLAN_1
 62
     5
  6
CONTINUOUS
 10
-2.339098
 20
0.410941
  0
VERTEX
  8
PLAN_1
 62
     5
  6
CONTINUOUS
 10
-2.339098
 20
0.419028
  0
SEQEND
  8
0
  0
POLYLINE
  8
PLAN_1
 62
     5
  6
CONTINUOUS
 66
     1
 40
0.003000
 41
0.003000
  0
VERTEX
  8
PLAN_1
 62
     5
  6
CONTINUOUS
 10
-2.339098
 20
0.427587
  0
VERTEX
  8
PLAN_1
 62
     5
  6
CONTINUOUS
 10
-2.339098
 20
0.435673
  0
SEQEND
  8
0
  0
POLYLINE
  8
PLAN_1
 62
     5
  6
CONTINUOUS
 66
     1
 40
0.003000
 41
0.003000
  0
VERTEX
  8
PLAN_1
 62
     5
  6
CONTINUOUS
 10
-2.339098
 20
0.444232
  0
VERTEX
  8
PLAN_1
 62
     5
  6
CONTINUOUS
 10
-2.339098
 20
0.452319
  0
SEQEND
  8
0
  0
POLYLINE
  8
PLAN_1
 62
     5
  6
CONTINUOUS
 66
     1
 40
0.003000
 41
0.003000
  0
VERTEX
  8
PLAN_1
 62
     5
  6
CONTINUOUS
 10
-2.339098
 20
0.460882
  0
VERTEX
  8
PLAN_1
 62
     5
  6
CONTINUOUS
 10
-2.339098
 20
0.468965
  0
SEQEND
  8
0
  0
POLYLINE
  8
PLAN_1
 62
     5
  6
CONTINUOUS
 66
     1
 40
0.003000
 41
0.003000
  0
VERTEX
  8
PLAN_1
 62
     5
  6
CONTINUOUS
 10
-2.339098
 20
0.477528
  0
VERTEX
  8
PLAN_1
 62
     5
  6
CONTINUOUS
 10
-2.339098
 20
0.485614
  0
SEQEND
  8
0
  0
POLYLINE
  8
PLAN_1
 62
     5
  6
CONTINUOUS
 66
     1
 40
0.003000
 41
0.003000
  0
VERTEX
  8
PLAN_1
 62
     5
  6
CONTINUOUS
 10
-2.339098
 20
0.494173
  0
VERTEX
  8
PLAN_1
 62
     5
  6
CONTINUOUS
 10
-2.339098
 20
0.502736
  0
SEQEND
  8
0
  0
POLYLINE
  8
PLAN_1
 62
     5
  6
CONTINUOUS
 66
     1
 40
0.003000
 41
0.003000
  0
VERTEX
  8
PLAN_1
 62
     5
  6
CONTINUOUS
 10
-2.339098
 20
0.510823
  0
VERTEX
  8
PLAN_1
 62
     5
  6
CONTINUOUS
 10
-2.339098
 20
0.519382
  0
SEQEND
  8
0
  0
POLYLINE
  8
PLAN_1
 62
     5
  6
CONTINUOUS
 66
     1
 40
0.003000
 41
0.003000
  0
VERTEX
  8
PLAN_1
 62
     5
  6
CONTINUOUS
 10
-2.339098
 20
0.527469
  0
VERTEX
  8
PLAN_1
 62
     5
  6
CONTINUOUS
 10
-2.339098
 20
0.536028
  0
SEQEND
  8
0
  0
POLYLINE
  8
PLAN_1
 62
     5
  6
CONTINUOUS
 66
     1
 40
0.003000
 41
0.003000
  0
VERTEX
  8
PLAN_1
 62
     5
  6
CONTINUOUS
 10
-2.339098
 20
0.544114
  0
VERTEX
  8
PLAN_1
 62
     5
  6
CONTINUOUS
 10
-2.339098
 20
0.552677
  0
SEQEND
  8
0
  0
POLYLINE
  8
PLAN_1
 62
     5
  6
CONTINUOUS
 66
     1
 40
0.003000
 41
0.003000
  0
VERTEX
  8
PLAN_1
 62
     5
  6
CONTINUOUS
 10
-2.339098
 20
0.560764
  0
VERTEX
  8
PLAN_1
 62
     5
  6
CONTINUOUS
 10
-2.339098
 20
0.569323
  0
SEQEND
  8
0
  0
POLYLINE
  8
PLAN_1
 62
     5
  6
CONTINUOUS
 66
     1
 40
0.003000
 41
0.003000
  0
VERTEX
  8
PLAN_1
 62
     5
  6
CONTINUOUS
 10
-2.339098
 20
0.577409
  0
VERTEX
  8
PLAN_1
 62
     5
  6
CONTINUOUS
 10
-2.339098
 20
0.585969
  0
SEQEND
  8
0
  0
POLYLINE
  8
PLAN_1
 62
     5
  6
CONTINUOUS
 66
     1
 40
0.003000
 41
0.003000
  0
VERTEX
  8
PLAN_1
 62
     5
  6
CONTINUOUS
 10
-2.339098
 20
0.594055
  0
VERTEX
  8
PLAN_1
 62
     5
  6
CONTINUOUS
 10
-2.339098
 20
0.602618
  0
SEQEND
  8
0
  0
POLYLINE
  8
PLAN_1
 62
     5
  6
CONTINUOUS
 66
     1
 40
0.003000
 41
0.003000
  0
VERTEX
  8
PLAN_1
 62
     5
  6
CONTINUOUS
 10
-2.339098
 20
0.610701
  0
VERTEX
  8
PLAN_1
 62
     5
  6
CONTINUOUS
 10
-2.339098
 20
0.619264
  0
SEQEND
  8
0
  0
POLYLINE
  8
PLAN_1
 62
     5
  6
CONTINUOUS
 66
     1
 40
0.003000
 41
0.003000
  0
VERTEX
  8
PLAN_1
 62
     5
  6
CONTINUOUS
 10
-2.339098
 20
0.627350
  0
VERTEX
  8
PLAN_1
 62
     5
  6
CONTINUOUS
 10
-2.339098
 20
0.635909
  0
SEQEND
  8
0
  0
POLYLINE
  8
PLAN_1
 62
     5
  6
CONTINUOUS
 66
     1
 40
0.003000
 41
0.003000
  0
VERTEX
  8
PLAN_1
 62
     5
  6
CONTINUOUS
 10
-2.339098
 20
0.643996
  0
VERTEX
  8
PLAN_1
 62
     5
  6
CONTINUOUS
 10
-2.339098
 20
0.652559
  0
SEQEND
  8
0
  0
POLYLINE
  8
PLAN_1
 62
     5
  6
CONTINUOUS
 66
     1
 40
0.003000
 41
0.003000
  0
VERTEX
  8
PLAN_1
 62
     5
  6
CONTINUOUS
 10
-2.339098
 20
0.660642
  0
VERTEX
  8
PLAN_1
 62
     5
  6
CONTINUOUS
 10
-2.339098
 20
0.667303
  0
SEQEND
  8
0
  0
POLYLINE
  8
PLAN_1
 62
     5
  6
CONTINUOUS
 66
     1
 40
0.003000
 41
0.003000
  0
VERTEX
  8
PLAN_1
 62
     5
  6
CONTINUOUS
 10
-2.339098
 20
0.660642
  0
VERTEX
  8
PLAN_1
 62
     5
  6
CONTINUOUS
 10
-2.339098
 20
0.667303
  0
SEQEND
  8
0
  0
POLYLINE
  8
PLAN_1
 62
     5
  6
CONTINUOUS
 66
     1
 40
0.003000
 41
0.003000
  0
VERTEX
  8
PLAN_1
 62
     5
  6
CONTINUOUS
 10
-2.339098
 20
0.667303
  0
VERTEX
  8
PLAN_1
 62
     5
  6
CONTINUOUS
 10
-2.338622
 20
0.673484
  0
VERTEX
  8
PLAN_1
 62
     5
  6
CONTINUOUS
 10
-2.338146
 20
0.675862
  0
SEQEND
  8
0
  0
POLYLINE
  8
PLAN_1
 62
     5
  6
CONTINUOUS
 66
     1
 40
0.003000
 41
0.003000
  0
VERTEX
  8
PLAN_1
 62
     5
  6
CONTINUOUS
 10
-2.336720
 20
0.683949
  0
VERTEX
  8
PLAN_1
 62
     5
  6
CONTINUOUS
 10
-2.335768
 20
0.690134
  0
VERTEX
  8
PLAN_1
 62
     5
  6
CONTINUOUS
 10
-2.335291
 20
0.692035
  0
SEQEND
  8
0
  0
POLYLINE
  8
PLAN_1
 62
     5
  6
CONTINUOUS
 66
     1
 40
0.003000
 41
0.003000
  0
VERTEX
  8
PLAN_1
 62
     5
  6
CONTINUOUS
 10
-2.333390
 20
0.700122
  0
VERTEX
  8
PLAN_1
 62
     5
  6
CONTINUOUS
 10
-2.332913
 20
0.701071
  0
VERTEX
  8
PLAN_1
 62
     5
  6
CONTINUOUS
 10
-2.330535
 20
0.708205
  0
SEQEND
  8
0
  0
POLYLINE
  8
PLAN_1
 62
     5
  6
CONTINUOUS
 66
     1
 40
0.003000
 41
0.003000
  0
VERTEX
  8
PLAN_1
 62
     5
  6
CONTINUOUS
 10
-2.327681
 20
0.715815
  0
VERTEX
  8
PLAN_1
 62
     5
  6
CONTINUOUS
 10
-2.326256
 20
0.720094
  0
VERTEX
  8
PLAN_1
 62
     5
  6
CONTINUOUS
 10
-2.324831
 20
0.723425
  0
SEQEND
  8
0
  0
POLYLINE
  8
PLAN_1
 62
     5
  6
CONTINUOUS
 66
     1
 40
0.003000
 41
0.003000
  0
VERTEX
  8
PLAN_1
 62
     5
  6
CONTINUOUS
 10
-2.321024
 20
0.731035
  0
VERTEX
  8
PLAN_1
 62
     5
  6
CONTINUOUS
 10
-2.320071
 20
0.733413
  0
VERTEX
  8
PLAN_1
 62
     5
  6
CONTINUOUS
 10
-2.317220
 20
0.738169
  0
SEQEND
  8
0
  0
POLYLINE
  8
PLAN_1
 62
     5
  6
CONTINUOUS
 66
     1
 40
0.003000
 41
0.003000
  0
VERTEX
  8
PLAN_1
 62
     5
  6
CONTINUOUS
 10
-2.312461
 20
0.745303
  0
VERTEX
  8
PLAN_1
 62
     5
  6
CONTINUOUS
 10
-2.311512
 20
0.747209
  0
VERTEX
  8
PLAN_1
 62
     5
  6
CONTINUOUS
 10
-2.307705
 20
0.752437
  0
SEQEND
  8
0
  0
POLYLINE
  8
PLAN_1
 62
     5
  6
CONTINUOUS
 66
     1
 40
0.003000
 41
0.003000
  0
VERTEX
  8
PLAN_1
 62
     5
  6
CONTINUOUS
 10
-2.302472
 20
0.758622
  0
VERTEX
  8
PLAN_1
 62
     5
  6
CONTINUOUS
 10
-2.301047
 20
0.760524
  0
VERTEX
  8
PLAN_1
 62
     5
  6
CONTINUOUS
 10
-2.296768
 20
0.764803
  0
SEQEND
  8
0
  0
POLYLINE
  8
PLAN_1
 62
     5
  6
CONTINUOUS
 66
     1
 40
0.003000
 41
0.003000
  0
VERTEX
  8
PLAN_1
 62
     5
  6
CONTINUOUS
 10
-2.291059
 20
0.770512
  0
VERTEX
  8
PLAN_1
 62
     5
  6
CONTINUOUS
 10
-2.288205
 20
0.773366
  0
VERTEX
  8
PLAN_1
 62
     5
  6
CONTINUOUS
 10
-2.284878
 20
0.776220
  0
SEQEND
  8
0
  0
POLYLINE
  8
PLAN_1
 62
     5
  6
CONTINUOUS
 66
     1
 40
0.003000
 41
0.003000
  0
VERTEX
  8
PLAN_1
 62
     5
  6
CONTINUOUS
 10
-2.278217
 20
0.781453
  0
VERTEX
  8
PLAN_1
 62
     5
  6
CONTINUOUS
 10
-2.272984
 20
0.784780
  0
VERTEX
  8
PLAN_1
 62
     5
  6
CONTINUOUS
 10
-2.271083
 20
0.786209
  0
SEQEND
  8
0
  0
POLYLINE
  8
PLAN_1
 62
     5
  6
CONTINUOUS
 66
     1
 40
0.003000
 41
0.003000
  0
VERTEX
  8
PLAN_1
 62
     5
  6
CONTINUOUS
 10
-2.263949
 20
0.790488
  0
VERTEX
  8
PLAN_1
 62
     5
  6
CONTINUOUS
 10
-2.256815
 20
0.794295
  0
SEQEND
  8
0
  0
POLYLINE
  8
PLAN_1
 62
     5
  6
CONTINUOUS
 66
     1
 40
0.003000
 41
0.003000
  0
VERTEX
  8
PLAN_1
 62
     5
  6
CONTINUOUS
 10
-2.249205
 20
0.797622
  0
VERTEX
  8
PLAN_1
 62
     5
  6
CONTINUOUS
 10
-2.244449
 20
0.799528
  0
VERTEX
  8
PLAN_1
 62
     5
  6
CONTINUOUS
 10
-2.241594
 20
0.800476
  0
SEQEND
  8
0
  0
POLYLINE
  8
PLAN_1
 62
     5
  6
CONTINUOUS
 66
     1
 40
0.003000
 41
0.003000
  0
VERTEX
  8
PLAN_1
 62
     5
  6
CONTINUOUS
 10
-2.233508
 20
0.803331
  0
VERTEX
  8
PLAN_1
 62
     5
  6
CONTINUOUS
 10
-2.225421
 20
0.805709
  0
SEQEND
  8
0
  0
POLYLINE
  8
PLAN_1
 62
     5
  6
CONTINUOUS
 66
     1
 40
0.003000
 41
0.003000
  0
VERTEX
  8
PLAN_1
 62
     5
  6
CONTINUOUS
 10
-2.217339
 20
0.807610
  0
VERTEX
  8
PLAN_1
 62
     5
  6
CONTINUOUS
 10
-2.209252
 20
0.809516
  0
SEQEND
  8
0
  0
POLYLINE
  8
PLAN_1
 62
     5
  6
CONTINUOUS
 66
     1
 40
0.003000
 41
0.003000
  0
VERTEX
  8
PLAN_1
 62
     5
  6
CONTINUOUS
 10
-2.201165
 20
0.810465
  0
VERTEX
  8
PLAN_1
 62
     5
  6
CONTINUOUS
 10
-2.195461
 20
0.811417
  0
VERTEX
  8
PLAN_1
 62
     5
  6
CONTINUOUS
 10
-2.192606
 20
0.811417
  0
SEQEND
  8
0
  0
POLYLINE
  8
PLAN_1
 62
     5
  6
CONTINUOUS
 66
     1
 40
0.003000
 41
0.003000
  0
VERTEX
  8
PLAN_1
 62
     5
  6
CONTINUOUS
 10
-2.184520
 20
0.812366
  0
VERTEX
  8
PLAN_1
 62
     5
  6
CONTINUOUS
 10
-2.181189
 20
0.812843
  0
VERTEX
  8
PLAN_1
 62
     5
  6
CONTINUOUS
 10
-2.176433
 20
0.812843
  0
SEQEND
  8
0
  0
POLYLINE
  8
PLAN_1
 62
     5
  6
CONTINUOUS
 66
     1
 40
0.003000
 41
0.003000
  0
VERTEX
  8
PLAN_1
 62
     5
  6
CONTINUOUS
 10
-2.167874
 20
0.812843
  0
VERTEX
  8
PLAN_1
 62
     5
  6
CONTINUOUS
 10
-2.165496
 20
0.812843
  0
VERTEX
  8
PLAN_1
 62
     5
  6
CONTINUOUS
 10
-2.159311
 20
0.812843
  0
SEQEND
  8
0
  0
POLYLINE
  8
PLAN_1
 62
     5
  6
CONTINUOUS
 66
     1
 40
0.003000
 41
0.003000
  0
VERTEX
  8
PLAN_1
 62
     5
  6
CONTINUOUS
 10
-2.151224
 20
0.812843
  0
VERTEX
  8
PLAN_1
 62
     5
  6
CONTINUOUS
 10
-2.142665
 20
0.812843
  0
SEQEND
  8
0
  0
POLYLINE
  8
PLAN_1
 62
     5
  6
CONTINUOUS
 66
     1
 40
0.003000
 41
0.003000
  0
VERTEX
  8
PLAN_1
 62
     5
  6
CONTINUOUS
 10
-2.134579
 20
0.812843
  0
VERTEX
  8
PLAN_1
 62
     5
  6
CONTINUOUS
 10
-2.126016
 20
0.812843
  0
SEQEND
  8
0
  0
POLYLINE
  8
PLAN_1
 62
     5
  6
CONTINUOUS
 66
     1
 40
0.003000
 41
0.003000
  0
VERTEX
  8
PLAN_1
 62
     5
  6
CONTINUOUS
 10
-2.117933
 20
0.812843
  0
VERTEX
  8
PLAN_1
 62
     5
  6
CONTINUOUS
 10
-2.109370
 20
0.812843
  0
SEQEND
  8
0
  0
POLYLINE
  8
PLAN_1
 62
     5
  6
CONTINUOUS
 66
     1
 40
0.003000
 41
0.003000
  0
VERTEX
  8
PLAN_1
 62
     5
  6
CONTINUOUS
 10
-2.101283
 20
0.812843
  0
VERTEX
  8
PLAN_1
 62
     5
  6
CONTINUOUS
 10
-2.092724
 20
0.812843
  0
SEQEND
  8
0
  0
POLYLINE
  8
PLAN_1
 62
     5
  6
CONTINUOUS
 66
     1
 40
0.003000
 41
0.003000
  0
VERTEX
  8
PLAN_1
 62
     5
  6
CONTINUOUS
 10
-2.084638
 20
0.812843
  0
VERTEX
  8
PLAN_1
 62
     5
  6
CONTINUOUS
 10
-2.076079
 20
0.812843
  0
SEQEND
  8
0
  0
POLYLINE
  8
PLAN_1
 62
     5
  6
CONTINUOUS
 66
     1
 40
0.003000
 41
0.003000
  0
VERTEX
  8
PLAN_1
 62
     5
  6
CONTINUOUS
 10
-2.067992
 20
0.812843
  0
VERTEX
  8
PLAN_1
 62
     5
  6
CONTINUOUS
 10
-2.059429
 20
0.812843
  0
SEQEND
  8
0
  0
POLYLINE
  8
PLAN_1
 62
     5
  6
CONTINUOUS
 66
     1
 40
0.003000
 41
0.003000
  0
VERTEX
  8
PLAN_1
 62
     5
  6
CONTINUOUS
 10
-2.051343
 20
0.812843
  0
VERTEX
  8
PLAN_1
 62
     5
  6
CONTINUOUS
 10
-2.042783
 20
0.812843
  0
SEQEND
  8
0
  0
POLYLINE
  8
PLAN_1
 62
     5
  6
CONTINUOUS
 66
     1
 40
0.003000
 41
0.003000
  0
VERTEX
  8
PLAN_1
 62
     5
  6
CONTINUOUS
 10
-2.034697
 20
0.812843
  0
VERTEX
  8
PLAN_1
 62
     5
  6
CONTINUOUS
 10
-2.026138
 20
0.812843
  0
SEQEND
  8
0
  0
POLYLINE
  8
PLAN_1
 62
     5
  6
CONTINUOUS
 66
     1
 40
0.003000
 41
0.003000
  0
VERTEX
  8
PLAN_1
 62
     5
  6
CONTINUOUS
 10
-2.018051
 20
0.812843
  0
VERTEX
  8
PLAN_1
 62
     5
  6
CONTINUOUS
 10
-2.009488
 20
0.812843
  0
SEQEND
  8
0
  0
POLYLINE
  8
PLAN_1
 62
     5
  6
CONTINUOUS
 66
     1
 40
0.003000
 41
0.003000
  0
VERTEX
  8
PLAN_1
 62
     5
  6
CONTINUOUS
 10
-2.001406
 20
0.812843
  0
VERTEX
  8
PLAN_1
 62
     5
  6
CONTINUOUS
 10
-1.992843
 20
0.812843
  0
SEQEND
  8
0
  0
POLYLINE
  8
PLAN_1
 62
     5
  6
CONTINUOUS
 66
     1
 40
0.003000
 41
0.003000
  0
VERTEX
  8
PLAN_1
 62
     5
  6
CONTINUOUS
 10
-1.984756
 20
0.812843
  0
VERTEX
  8
PLAN_1
 62
     5
  6
CONTINUOUS
 10
-1.976197
 20
0.812843
  0
SEQEND
  8
0
  0
POLYLINE
  8
PLAN_1
 62
     5
  6
CONTINUOUS
 66
     1
 40
0.003000
 41
0.003000
  0
VERTEX
  8
PLAN_1
 62
     5
  6
CONTINUOUS
 10
-1.968110
 20
0.812843
  0
VERTEX
  8
PLAN_1
 62
     5
  6
CONTINUOUS
 10
-1.959547
 20
0.812843
  0
SEQEND
  8
0
  0
POLYLINE
  8
PLAN_1
 62
     5
  6
CONTINUOUS
 66
     1
 40
0.003000
 41
0.003000
  0
VERTEX
  8
PLAN_1
 62
     5
  6
CONTINUOUS
 10
-1.951465
 20
0.812843
  0
VERTEX
  8
PLAN_1
 62
     5
  6
CONTINUOUS
 10
-1.942902
 20
0.812843
  0
SEQEND
  8
0
  0
POLYLINE
  8
PLAN_1
 62
     5
  6
CONTINUOUS
 66
     1
 40
0.003000
 41
0.003000
  0
VERTEX
  8
PLAN_1
 62
     5
  6
CONTINUOUS
 10
-1.934815
 20
0.812843
  0
VERTEX
  8
PLAN_1
 62
     5
  6
CONTINUOUS
 10
-1.926256
 20
0.812843
  0
SEQEND
  8
0
  0
POLYLINE
  8
PLAN_1
 62
     5
  6
CONTINUOUS
 66
     1
 40
0.003000
 41
0.003000
  0
VERTEX
  8
PLAN_1
 62
     5
  6
CONTINUOUS
 10
-1.918169
 20
0.812843
  0
VERTEX
  8
PLAN_1
 62
     5
  6
CONTINUOUS
 10
-1.909606
 20
0.812843
  0
SEQEND
  8
0
  0
POLYLINE
  8
PLAN_1
 62
     5
  6
CONTINUOUS
 66
     1
 40
0.003000
 41
0.003000
  0
VERTEX
  8
PLAN_1
 62
     5
  6
CONTINUOUS
 10
-1.901524
 20
0.812843
  0
VERTEX
  8
PLAN_1
 62
     5
  6
CONTINUOUS
 10
-1.892961
 20
0.812843
  0
SEQEND
  8
0
  0
POLYLINE
  8
PLAN_1
 62
     5
  6
CONTINUOUS
 66
     1
 40
0.003000
 41
0.003000
  0
VERTEX
  8
PLAN_1
 62
     5
  6
CONTINUOUS
 10
-1.884874
 20
0.812843
  0
VERTEX
  8
PLAN_1
 62
     5
  6
CONTINUOUS
 10
-1.876315
 20
0.812843
  0
SEQEND
  8
0
  0
POLYLINE
  8
PLAN_1
 62
     5
  6
CONTINUOUS
 66
     1
 40
0.003000
 41
0.003000
  0
VERTEX
  8
PLAN_1
 62
     5
  6
CONTINUOUS
 10
-1.868228
 20
0.812843
  0
VERTEX
  8
PLAN_1
 62
     5
  6
CONTINUOUS
 10
-1.859669
 20
0.812843
  0
SEQEND
  8
0
  0
POLYLINE
  8
PLAN_1
 62
     5
  6
CONTINUOUS
 66
     1
 40
0.003000
 41
0.003000
  0
VERTEX
  8
PLAN_1
 62
     5
  6
CONTINUOUS
 10
-1.851106
 20
0.812843
  0
VERTEX
  8
PLAN_1
 62
     5
  6
CONTINUOUS
 10
-1.843020
 20
0.812843
  0
SEQEND
  8
0
  0
POLYLINE
  8
PLAN_1
 62
     5
  6
CONTINUOUS
 66
     1
 40
0.003000
 41
0.003000
  0
VERTEX
  8
PLAN_1
 62
     5
  6
CONTINUOUS
 10
-1.834461
 20
0.812843
  0
VERTEX
  8
PLAN_1
 62
     5
  6
CONTINUOUS
 10
-1.826374
 20
0.812843
  0
SEQEND
  8
0
  0
POLYLINE
  8
PLAN_1
 62
     5
  6
CONTINUOUS
 66
     1
 40
0.003000
 41
0.003000
  0
VERTEX
  8
PLAN_1
 62
     5
  6
CONTINUOUS
 10
-1.817811
 20
0.812843
  0
VERTEX
  8
PLAN_1
 62
     5
  6
CONTINUOUS
 10
-1.809728
 20
0.812843
  0
SEQEND
  8
0
  0
POLYLINE
  8
PLAN_1
 62
     5
  6
CONTINUOUS
 66
     1
 40
0.003000
 41
0.003000
  0
VERTEX
  8
PLAN_1
 62
     5
  6
CONTINUOUS
 10
-1.801165
 20
0.812843
  0
VERTEX
  8
PLAN_1
 62
     5
  6
CONTINUOUS
 10
-1.793079
 20
0.812843
  0
SEQEND
  8
0
  0
POLYLINE
  8
PLAN_1
 62
     5
  6
CONTINUOUS
 66
     1
 40
0.003000
 41
0.003000
  0
VERTEX
  8
PLAN_1
 62
     5
  6
CONTINUOUS
 10
-1.784520
 20
0.812843
  0
VERTEX
  8
PLAN_1
 62
     5
  6
CONTINUOUS
 10
-1.776433
 20
0.812843
  0
SEQEND
  8
0
  0
POLYLINE
  8
PLAN_1
 62
     5
  6
CONTINUOUS
 66
     1
 40
0.003000
 41
0.003000
  0
VERTEX
  8
PLAN_1
 62
     5
  6
CONTINUOUS
 10
-1.767870
 20
0.812843
  0
VERTEX
  8
PLAN_1
 62
     5
  6
CONTINUOUS
 10
-1.759787
 20
0.812843
  0
SEQEND
  8
0
  0
POLYLINE
  8
PLAN_1
 62
     5
  6
CONTINUOUS
 66
     1
 40
0.003000
 41
0.003000
  0
VERTEX
  8
PLAN_1
 62
     5
  6
CONTINUOUS
 10
-1.751224
 20
0.812843
  0
VERTEX
  8
PLAN_1
 62
     5
  6
CONTINUOUS
 10
-1.743138
 20
0.812843
  0
SEQEND
  8
0
  0
POLYLINE
  8
PLAN_1
 62
     5
  6
CONTINUOUS
 66
     1
 40
0.003000
 41
0.003000
  0
VERTEX
  8
PLAN_1
 62
     5
  6
CONTINUOUS
 10
-1.734579
 20
0.812843
  0
VERTEX
  8
PLAN_1
 62
     5
  6
CONTINUOUS
 10
-1.726492
 20
0.812843
  0
SEQEND
  8
0
  0
POLYLINE
  8
PLAN_1
 62
     5
  6
CONTINUOUS
 66
     1
 40
0.003000
 41
0.003000
  0
VERTEX
  8
PLAN_1
 62
     5
  6
CONTINUOUS
 10
-1.717933
 20
0.812843
  0
VERTEX
  8
PLAN_1
 62
     5
  6
CONTINUOUS
 10
-1.709846
 20
0.812843
  0
SEQEND
  8
0
  0
POLYLINE
  8
PLAN_1
 62
     5
  6
CONTINUOUS
 66
     1
 40
0.003000
 41
0.003000
  0
VERTEX
  8
PLAN_1
 62
     5
  6
CONTINUOUS
 10
-1.701283
 20
0.812843
  0
VERTEX
  8
PLAN_1
 62
     5
  6
CONTINUOUS
 10
-1.693197
 20
0.812843
  0
SEQEND
  8
0
  0
POLYLINE
  8
PLAN_1
 62
     5
  6
CONTINUOUS
 66
     1
 40
0.003000
 41
0.003000
  0
VERTEX
  8
PLAN_1
 62
     5
  6
CONTINUOUS
 10
-1.684638
 20
0.812843
  0
VERTEX
  8
PLAN_1
 62
     5
  6
CONTINUOUS
 10
-1.676551
 20
0.812843
  0
SEQEND
  8
0
  0
POLYLINE
  8
PLAN_1
 62
     5
  6
CONTINUOUS
 66
     1
 40
0.003000
 41
0.003000
  0
VERTEX
  8
PLAN_1
 62
     5
  6
CONTINUOUS
 10
-1.667992
 20
0.812843
  0
VERTEX
  8
PLAN_1
 62
     5
  6
CONTINUOUS
 10
-1.659906
 20
0.812843
  0
SEQEND
  8
0
  0
POLYLINE
  8
PLAN_1
 62
     5
  6
CONTINUOUS
 66
     1
 40
0.003000
 41
0.003000
  0
VERTEX
  8
PLAN_1
 62
     5
  6
CONTINUOUS
 10
-0.593555
 20
0.812843
  0
VERTEX
  8
PLAN_1
 62
     5
  6
CONTINUOUS
 10
-0.584992
 20
0.812843
  0
SEQEND
  8
0
  0
POLYLINE
  8
PLAN_1
 62
     5
  6
CONTINUOUS
 66
     1
 40
0.003000
 41
0.003000
  0
VERTEX
  8
PLAN_1
 62
     5
  6
CONTINUOUS
 10
-0.576906
 20
0.812843
  0
VERTEX
  8
PLAN_1
 62
     5
  6
CONTINUOUS
 10
-0.568346
 20
0.812843
  0
SEQEND
  8
0
  0
POLYLINE
  8
PLAN_1
 62
     5
  6
CONTINUOUS
 66
     1
 40
0.003000
 41
0.003000
  0
VERTEX
  8
PLAN_1
 62
     5
  6
CONTINUOUS
 10
-0.560260
 20
0.812843
  0
VERTEX
  8
PLAN_1
 62
     5
  6
CONTINUOUS
 10
-0.551697
 20
0.812843
  0
SEQEND
  8
0
  0
POLYLINE
  8
PLAN_1
 62
     5
  6
CONTINUOUS
 66
     1
 40
0.003000
 41
0.003000
  0
VERTEX
  8
PLAN_1
 62
     5
  6
CONTINUOUS
 10
-0.543614
 20
0.812843
  0
VERTEX
  8
PLAN_1
 62
     5
  6
CONTINUOUS
 10
-0.535051
 20
0.812843
  0
SEQEND
  8
0
  0
POLYLINE
  8
PLAN_1
 62
     5
  6
CONTINUOUS
 66
     1
 40
0.003000
 41
0.003000
  0
VERTEX
  8
PLAN_1
 62
     5
  6
CONTINUOUS
 10
-0.526965
 20
0.812843
  0
VERTEX
  8
PLAN_1
 62
     5
  6
CONTINUOUS
 10
-0.518406
 20
0.812843
  0
SEQEND
  8
0
  0
POLYLINE
  8
PLAN_1
 62
     5
  6
CONTINUOUS
 66
     1
 40
0.003000
 41
0.003000
  0
VERTEX
  8
PLAN_1
 62
     5
  6
CONTINUOUS
 10
-0.510319
 20
0.812843
  0
VERTEX
  8
PLAN_1
 62
     5
  6
CONTINUOUS
 10
-0.501760
 20
0.812843
  0
SEQEND
  8
0
  0
POLYLINE
  8
PLAN_1
 62
     5
  6
CONTINUOUS
 66
     1
 40
0.003000
 41
0.003000
  0
VERTEX
  8
PLAN_1
 62
     5
  6
CONTINUOUS
 10
-0.493673
 20
0.812843
  0
VERTEX
  8
PLAN_1
 62
     5
  6
CONTINUOUS
 10
-0.485110
 20
0.812843
  0
SEQEND
  8
0
  0
POLYLINE
  8
PLAN_1
 62
     5
  6
CONTINUOUS
 66
     1
 40
0.003000
 41
0.003000
  0
VERTEX
  8
PLAN_1
 62
     5
  6
CONTINUOUS
 10
-0.477028
 20
0.812843
  0
VERTEX
  8
PLAN_1
 62
     5
  6
CONTINUOUS
 10
-0.468465
 20
0.812843
  0
SEQEND
  8
0
  0
POLYLINE
  8
PLAN_1
 62
     5
  6
CONTINUOUS
 66
     1
 40
0.003000
 41
0.003000
  0
VERTEX
  8
PLAN_1
 62
     5
  6
CONTINUOUS
 10
-0.460378
 20
0.812843
  0
VERTEX
  8
PLAN_1
 62
     5
  6
CONTINUOUS
 10
-0.451819
 20
0.812843
  0
SEQEND
  8
0
  0
POLYLINE
  8
PLAN_1
 62
     5
  6
CONTINUOUS
 66
     1
 40
0.003000
 41
0.003000
  0
VERTEX
  8
PLAN_1
 62
     5
  6
CONTINUOUS
 10
-0.443732
 20
0.812843
  0
VERTEX
  8
PLAN_1
 62
     5
  6
CONTINUOUS
 10
-0.435169
 20
0.812843
  0
SEQEND
  8
0
  0
POLYLINE
  8
PLAN_1
 62
     5
  6
CONTINUOUS
 66
     1
 40
0.003000
 41
0.003000
  0
VERTEX
  8
PLAN_1
 62
     5
  6
CONTINUOUS
 10
-0.426610
 20
0.812843
  0
VERTEX
  8
PLAN_1
 62
     5
  6
CONTINUOUS
 10
-0.418524
 20
0.812843
  0
SEQEND
  8
0
  0
POLYLINE
  8
PLAN_1
 62
     5
  6
CONTINUOUS
 66
     1
 40
0.003000
 41
0.003000
  0
VERTEX
  8
PLAN_1
 62
     5
  6
CONTINUOUS
 10
-0.409961
 20
0.812843
  0
VERTEX
  8
PLAN_1
 62
     5
  6
CONTINUOUS
 10
-0.401878
 20
0.812843
  0
SEQEND
  8
0
  0
POLYLINE
  8
PLAN_1
 62
     5
  6
CONTINUOUS
 66
     1
 40
0.003000
 41
0.003000
  0
VERTEX
  8
PLAN_1
 62
     5
  6
CONTINUOUS
 10
-0.393315
 20
0.812843
  0
VERTEX
  8
PLAN_1
 62
     5
  6
CONTINUOUS
 10
-0.385228
 20
0.812843
  0
SEQEND
  8
0
  0
POLYLINE
  8
PLAN_1
 62
     5
  6
CONTINUOUS
 66
     1
 40
0.003000
 41
0.003000
  0
VERTEX
  8
PLAN_1
 62
     5
  6
CONTINUOUS
 10
-0.376669
 20
0.812843
  0
VERTEX
  8
PLAN_1
 62
     5
  6
CONTINUOUS
 10
-0.368583
 20
0.812843
  0
SEQEND
  8
0
  0
POLYLINE
  8
PLAN_1
 62
     5
  6
CONTINUOUS
 66
     1
 40
0.003000
 41
0.003000
  0
VERTEX
  8
PLAN_1
 62
     5
  6
CONTINUOUS
 10
-0.360024
 20
0.812843
  0
VERTEX
  8
PLAN_1
 62
     5
  6
CONTINUOUS
 10
-0.351937
 20
0.812843
  0
SEQEND
  8
0
  0
POLYLINE
  8
PLAN_1
 62
     5
  6
CONTINUOUS
 66
     1
 40
0.003000
 41
0.003000
  0
VERTEX
  8
PLAN_1
 62
     5
  6
CONTINUOUS
 10
-0.343374
 20
0.812843
  0
VERTEX
  8
PLAN_1
 62
     5
  6
CONTINUOUS
 10
-0.335291
 20
0.812843
  0
SEQEND
  8
0
  0
POLYLINE
  8
PLAN_1
 62
     5
  6
CONTINUOUS
 66
     1
 40
0.003000
 41
0.003000
  0
VERTEX
  8
PLAN_1
 62
     5
  6
CONTINUOUS
 10
-0.326728
 20
0.812843
  0
VERTEX
  8
PLAN_1
 62
     5
  6
CONTINUOUS
 10
-0.318642
 20
0.812843
  0
SEQEND
  8
0
  0
POLYLINE
  8
PLAN_1
 62
     5
  6
CONTINUOUS
 66
     1
 40
0.003000
 41
0.003000
  0
VERTEX
  8
PLAN_1
 62
     5
  6
CONTINUOUS
 10
-0.310083
 20
0.812843
  0
VERTEX
  8
PLAN_1
 62
     5
  6
CONTINUOUS
 10
-0.301996
 20
0.812843
  0
SEQEND
  8
0
  0
POLYLINE
  8
PLAN_1
 62
     5
  6
CONTINUOUS
 66
     1
 40
0.003000
 41
0.003000
  0
VERTEX
  8
PLAN_1
 62
     5
  6
CONTINUOUS
 10
-0.293433
 20
0.812843
  0
VERTEX
  8
PLAN_1
 62
     5
  6
CONTINUOUS
 10
-0.285350
 20
0.812843
  0
SEQEND
  8
0
  0
POLYLINE
  8
PLAN_1
 62
     5
  6
CONTINUOUS
 66
     1
 40
0.003000
 41
0.003000
  0
VERTEX
  8
PLAN_1
 62
     5
  6
CONTINUOUS
 10
-0.276787
 20
0.812843
  0
VERTEX
  8
PLAN_1
 62
     5
  6
CONTINUOUS
 10
-0.268701
 20
0.812843
  0
SEQEND
  8
0
  0
POLYLINE
  8
PLAN_1
 62
     5
  6
CONTINUOUS
 66
     1
 40
0.003000
 41
0.003000
  0
VERTEX
  8
PLAN_1
 62
     5
  6
CONTINUOUS
 10
-0.260142
 20
0.812843
  0
VERTEX
  8
PLAN_1
 62
     5
  6
CONTINUOUS
 10
-0.252055
 20
0.812843
  0
SEQEND
  8
0
  0
POLYLINE
  8
PLAN_1
 62
     5
  6
CONTINUOUS
 66
     1
 40
0.003000
 41
0.003000
  0
VERTEX
  8
PLAN_1
 62
     5
  6
CONTINUOUS
 10
-0.243492
 20
0.812843
  0
VERTEX
  8
PLAN_1
 62
     5
  6
CONTINUOUS
 10
-0.235409
 20
0.812843
  0
SEQEND
  8
0
  0
POLYLINE
  8
PLAN_1
 62
     5
  6
CONTINUOUS
 66
     1
 40
0.003000
 41
0.003000
  0
VERTEX
  8
PLAN_1
 62
     5
  6
CONTINUOUS
 10
-0.226846
 20
0.812843
  0
VERTEX
  8
PLAN_1
 62
     5
  6
CONTINUOUS
 10
-0.218760
 20
0.812843
  0
SEQEND
  8
0
  0
POLYLINE
  8
PLAN_1
 62
     5
  6
CONTINUOUS
 66
     1
 40
0.003000
 41
0.003000
  0
VERTEX
  8
PLAN_1
 62
     5
  6
CONTINUOUS
 10
-0.210201
 20
0.812843
  0
VERTEX
  8
PLAN_1
 62
     5
  6
CONTINUOUS
 10
-0.202114
 20
0.812843
  0
SEQEND
  8
0
  0
POLYLINE
  8
PLAN_1
 62
     5
  6
CONTINUOUS
 66
     1
 40
0.003000
 41
0.003000
  0
VERTEX
  8
PLAN_1
 62
     5
  6
CONTINUOUS
 10
-0.193555
 20
0.812843
  0
VERTEX
  8
PLAN_1
 62
     5
  6
CONTINUOUS
 10
-0.185469
 20
0.812843
  0
SEQEND
  8
0
  0
POLYLINE
  8
PLAN_1
 62
     5
  6
CONTINUOUS
 66
     1
 40
0.003000
 41
0.003000
  0
VERTEX
  8
PLAN_1
 62
     5
  6
CONTINUOUS
 10
-0.176906
 20
0.812843
  0
VERTEX
  8
PLAN_1
 62
     5
  6
CONTINUOUS
 10
-0.168819
 20
0.812843
  0
SEQEND
  8
0
  0
POLYLINE
  8
PLAN_1
 62
     5
  6
CONTINUOUS
 66
     1
 40
0.003000
 41
0.003000
  0
VERTEX
  8
PLAN_1
 62
     5
  6
CONTINUOUS
 10
-0.160260
 20
0.812843
  0
VERTEX
  8
PLAN_1
 62
     5
  6
CONTINUOUS
 10
-0.152173
 20
0.812843
  0
SEQEND
  8
0
  0
POLYLINE
  8
PLAN_1
 62
     5
  6
CONTINUOUS
 66
     1
 40
0.003000
 41
0.003000
  0
VERTEX
  8
PLAN_1
 62
     5
  6
CONTINUOUS
 10
-0.143614
 20
0.812843
  0
VERTEX
  8
PLAN_1
 62
     5
  6
CONTINUOUS
 10
-0.142185
 20
0.812843
  0
VERTEX
  8
PLAN_1
 62
     5
  6
CONTINUOUS
 10
-0.135528
 20
0.812843
  0
SEQEND
  8
0
  0
POLYLINE
  8
PLAN_1
 62
     5
  6
CONTINUOUS
 66
     1
 40
0.003000
 41
0.003000
  0
VERTEX
  8
PLAN_1
 62
     5
  6
CONTINUOUS
 10
-0.126965
 20
0.812843
  0
VERTEX
  8
PLAN_1
 62
     5
  6
CONTINUOUS
 10
-0.118882
 20
0.812843
  0
VERTEX
  8
PLAN_1
 62
     5
  6
CONTINUOUS
 10
-0.118406
 20
0.812843
  0
SEQEND
  8
0
  0
POLYLINE
  8
PLAN_1
 62
     5
  6
CONTINUOUS
 66
     1
 40
0.003000
 41
0.003000
  0
VERTEX
  8
PLAN_1
 62
     5
  6
CONTINUOUS
 10
-0.110319
 20
0.812843
  0
VERTEX
  8
PLAN_1
 62
     5
  6
CONTINUOUS
 10
-0.104610
 20
0.813319
  0
VERTEX
  8
PLAN_1
 62
     5
  6
CONTINUOUS
 10
-0.101756
 20
0.812843
  0
SEQEND
  8
0
  0
POLYLINE
  8
PLAN_1
 62
     5
  6
CONTINUOUS
 66
     1
 40
0.003000
 41
0.003000
  0
VERTEX
  8
PLAN_1
 62
     5
  6
CONTINUOUS
 10
-0.093673
 20
0.811894
  0
VERTEX
  8
PLAN_1
 62
     5
  6
CONTINUOUS
 10
-0.087012
 20
0.811417
  0
VERTEX
  8
PLAN_1
 62
     5
  6
CONTINUOUS
 10
-0.085587
 20
0.811417
  0
SEQEND
  8
0
  0
POLYLINE
  8
PLAN_1
 62
     5
  6
CONTINUOUS
 66
     1
 40
0.003000
 41
0.003000
  0
VERTEX
  8
PLAN_1
 62
     5
  6
CONTINUOUS
 10
-0.077024
 20
0.809516
  0
VERTEX
  8
PLAN_1
 62
     5
  6
CONTINUOUS
 10
-0.075598
 20
0.809516
  0
VERTEX
  8
PLAN_1
 62
     5
  6
CONTINUOUS
 10
-0.069413
 20
0.807610
  0
VERTEX
  8
PLAN_1
 62
     5
  6
CONTINUOUS
 10
-0.068941
 20
0.807610
  0
SEQEND
  8
0
  0
POLYLINE
  8
PLAN_1
 62
     5
  6
CONTINUOUS
 66
     1
 40
0.003000
 41
0.003000
  0
VERTEX
  8
PLAN_1
 62
     5
  6
CONTINUOUS
 10
-0.061331
 20
0.805232
  0
VERTEX
  8
PLAN_1
 62
     5
  6
CONTINUOUS
 10
-0.056098
 20
0.803331
  0
VERTEX
  8
PLAN_1
 62
     5
  6
CONTINUOUS
 10
-0.053244
 20
0.802378
  0
SEQEND
  8
0
  0
POLYLINE
  8
PLAN_1
 62
     5
  6
CONTINUOUS
 66
     1
 40
0.003000
 41
0.003000
  0
VERTEX
  8
PLAN_1
 62
     5
  6
CONTINUOUS
 10
-0.045634
 20
0.799051
  0
VERTEX
  8
PLAN_1
 62
     5
  6
CONTINUOUS
 10
-0.041831
 20
0.797146
  0
VERTEX
  8
PLAN_1
 62
     5
  6
CONTINUOUS
 10
-0.038500
 20
0.795244
  0
SEQEND
  8
0
  0
POLYLINE
  8
PLAN_1
 62
     5
  6
CONTINUOUS
 66
     1
 40
0.003000
 41
0.003000
  0
VERTEX
  8
PLAN_1
 62
     5
  6
CONTINUOUS
 10
-0.031366
 20
0.790965
  0
VERTEX
  8
PLAN_1
 62
     5
  6
CONTINUOUS
 10
-0.027559
 20
0.788587
  0
VERTEX
  8
PLAN_1
 62
     5
  6
CONTINUOUS
 10
-0.024232
 20
0.786209
  0
SEQEND
  8
0
  0
POLYLINE
  8
PLAN_1
 62
     5
  6
CONTINUOUS
 66
     1
 40
0.003000
 41
0.003000
  0
VERTEX
  8
PLAN_1
 62
     5
  6
CONTINUOUS
 10
-0.017571
 20
0.780976
  0
VERTEX
  8
PLAN_1
 62
     5
  6
CONTINUOUS
 10
-0.013291
 20
0.777646
  0
VERTEX
  8
PLAN_1
 62
     5
  6
CONTINUOUS
 10
-0.011390
 20
0.775744
  0
SEQEND
  8
0
  0
POLYLINE
  8
PLAN_1
 62
     5
  6
CONTINUOUS
 66
     1
 40
0.003000
 41
0.003000
  0
VERTEX
  8
PLAN_1
 62
     5
  6
CONTINUOUS
 10
-0.005681
 20
0.769563
  0
VERTEX
  8
PLAN_1
 62
     5
  6
CONTINUOUS
 10
0.000028
 20
0.763854
  0
VERTEX
  8
PLAN_1
 62
     5
  6
CONTINUOUS
 10
0.000028
 20
0.763378
  0
SEQEND
  8
0
  0
POLYLINE
  8
PLAN_1
 62
     5
  6
CONTINUOUS
 66
     1
 40
0.003000
 41
0.003000
  0
VERTEX
  8
PLAN_1
 62
     5
  6
CONTINUOUS
 10
0.005260
 20
0.757197
  0
VERTEX
  8
PLAN_1
 62
     5
  6
CONTINUOUS
 10
0.006209
 20
0.755768
  0
VERTEX
  8
PLAN_1
 62
     5
  6
CONTINUOUS
 10
0.010016
 20
0.750059
  0
SEQEND
  8
0
  0
POLYLINE
  8
PLAN_1
 62
     5
  6
CONTINUOUS
 66
     1
 40
0.003000
 41
0.003000
  0
VERTEX
  8
PLAN_1
 62
     5
  6
CONTINUOUS
 10
0.014295
 20
0.742925
  0
VERTEX
  8
PLAN_1
 62
     5
  6
CONTINUOUS
 10
0.017626
 20
0.736744
  0
VERTEX
  8
PLAN_1
 62
     5
  6
CONTINUOUS
 10
0.018098
 20
0.735791
  0
SEQEND
  8
0
  0
POLYLINE
  8
PLAN_1
 62
     5
  6
CONTINUOUS
 66
     1
 40
0.003000
 41
0.003000
  0
VERTEX
  8
PLAN_1
 62
     5
  6
CONTINUOUS
 10
0.021906
 20
0.728181
  0
VERTEX
  8
PLAN_1
 62
     5
  6
CONTINUOUS
 10
0.022854
 20
0.726280
  0
VERTEX
  8
PLAN_1
 62
     5
  6
CONTINUOUS
 10
0.025236
 20
0.720571
  0
SEQEND
  8
0
  0
POLYLINE
  8
PLAN_1
 62
     5
  6
CONTINUOUS
 66
     1
 40
0.003000
 41
0.003000
  0
VERTEX
  8
PLAN_1
 62
     5
  6
CONTINUOUS
 10
0.028087
 20
0.712961
  0
VERTEX
  8
PLAN_1
 62
     5
  6
CONTINUOUS
 10
0.030465
 20
0.704878
  0
SEQEND
  8
0
  0
POLYLINE
  8
PLAN_1
 62
     5
  6
CONTINUOUS
 66
     1
 40
0.003000
 41
0.003000
  0
VERTEX
  8
PLAN_1
 62
     5
  6
CONTINUOUS
 10
0.032843
 20
0.696791
  0
VERTEX
  8
PLAN_1
 62
     5
  6
CONTINUOUS
 10
0.034748
 20
0.688705
  0
SEQEND
  8
0
  0
POLYLINE
  8
PLAN_1
 62
     5
  6
CONTINUOUS
 66
     1
 40
0.003000
 41
0.003000
  0
VERTEX
  8
PLAN_1
 62
     5
  6
CONTINUOUS
 10
0.036650
 20
0.680618
  0
VERTEX
  8
PLAN_1
 62
     5
  6
CONTINUOUS
 10
0.038075
 20
0.673484
  0
VERTEX
  8
PLAN_1
 62
     5
  6
CONTINUOUS
 10
0.038075
 20
0.672535
  0
SEQEND
  8
0
  0
POLYLINE
  8
PLAN_1
 62
     5
  6
CONTINUOUS
 66
     1
 40
0.003000
 41
0.003000
  0
VERTEX
  8
PLAN_1
 62
     5
  6
CONTINUOUS
 10
0.039028
 20
0.663972
  0
VERTEX
  8
PLAN_1
 62
     5
  6
CONTINUOUS
 10
0.039980
 20
0.657791
  0
VERTEX
  8
PLAN_1
 62
     5
  6
CONTINUOUS
 10
0.039980
 20
0.655886
  0
SEQEND
  8
0
  0
POLYLINE
  8
PLAN_1
 62
     5
  6
CONTINUOUS
 66
     1
 40
0.003000
 41
0.003000
  0
VERTEX
  8
PLAN_1
 62
     5
  6
CONTINUOUS
 10
0.040453
 20
0.647803
  0
VERTEX
  8
PLAN_1
 62
     5
  6
CONTINUOUS
 10
0.041406
 20
0.640665
  0
VERTEX
  8
PLAN_1
 62
     5
  6
CONTINUOUS
 10
0.041406
 20
0.639240
  0
SEQEND
  8
0
  0
POLYLINE
  8
PLAN_1
 62
     5
  6
CONTINUOUS
 66
     1
 40
0.003000
 41
0.003000
  0
VERTEX
  8
PLAN_1
 62
     5
  6
CONTINUOUS
 10
0.041406
 20
0.631154
  0
VERTEX
  8
PLAN_1
 62
     5
  6
CONTINUOUS
 10
0.041406
 20
0.622594
  0
SEQEND
  8
0
  0
POLYLINE
  8
PLAN_1
 62
     5
  6
CONTINUOUS
 66
     1
 40
0.003000
 41
0.003000
  0
VERTEX
  8
PLAN_1
 62
     5
  6
CONTINUOUS
 10
0.041406
 20
0.622118
  0
VERTEX
  8
PLAN_1
 62
     5
  6
CONTINUOUS
 10
0.041406
 20
0.614031
  0
SEQEND
  8
0
  0
POLYLINE
  8
PLAN_1
 62
     5
  6
CONTINUOUS
 66
     1
 40
0.003000
 41
0.003000
  0
VERTEX
  8
PLAN_1
 62
     5
  6
CONTINUOUS
 10
0.041406
 20
0.605472
  0
VERTEX
  8
PLAN_1
 62
     5
  6
CONTINUOUS
 10
0.041406
 20
0.597386
  0
SEQEND
  8
0
  0
POLYLINE
  8
PLAN_1
 62
     5
  6
CONTINUOUS
 66
     1
 40
0.003000
 41
0.003000
  0
VERTEX
  8
PLAN_1
 62
     5
  6
CONTINUOUS
 10
0.041406
 20
0.588823
  0
VERTEX
  8
PLAN_1
 62
     5
  6
CONTINUOUS
 10
0.041406
 20
0.580740
  0
SEQEND
  8
0
  0
POLYLINE
  8
PLAN_1
 62
     5
  6
CONTINUOUS
 66
     1
 40
0.003000
 41
0.003000
  0
VERTEX
  8
PLAN_1
 62
     5
  6
CONTINUOUS
 10
0.041406
 20
0.572177
  0
VERTEX
  8
PLAN_1
 62
     5
  6
CONTINUOUS
 10
0.041406
 20
0.564091
  0
SEQEND
  8
0
  0
POLYLINE
  8
PLAN_1
 62
     5
  6
CONTINUOUS
 66
     1
 40
0.003000
 41
0.003000
  0
VERTEX
  8
PLAN_1
 62
     5
  6
CONTINUOUS
 10
0.041406
 20
0.555531
  0
VERTEX
  8
PLAN_1
 62
     5
  6
CONTINUOUS
 10
0.041406
 20
0.547445
  0
SEQEND
  8
0
  0
POLYLINE
  8
PLAN_1
 62
     5
  6
CONTINUOUS
 66
     1
 40
0.003000
 41
0.003000
  0
VERTEX
  8
PLAN_1
 62
     5
  6
CONTINUOUS
 10
0.041406
 20
0.538882
  0
VERTEX
  8
PLAN_1
 62
     5
  6
CONTINUOUS
 10
0.041406
 20
0.530799
  0
SEQEND
  8
0
  0
POLYLINE
  8
PLAN_1
 62
     5
  6
CONTINUOUS
 66
     1
 40
0.003000
 41
0.003000
  0
VERTEX
  8
PLAN_1
 62
     5
  6
CONTINUOUS
 10
0.041406
 20
0.522236
  0
VERTEX
  8
PLAN_1
 62
     5
  6
CONTINUOUS
 10
0.041406
 20
0.514150
  0
SEQEND
  8
0
  0
POLYLINE
  8
PLAN_1
 62
     5
  6
CONTINUOUS
 66
     1
 40
0.003000
 41
0.003000
  0
VERTEX
  8
PLAN_1
 62
     5
  6
CONTINUOUS
 10
0.041406
 20
0.505591
  0
VERTEX
  8
PLAN_1
 62
     5
  6
CONTINUOUS
 10
0.041406
 20
0.497504
  0
SEQEND
  8
0
  0
POLYLINE
  8
PLAN_1
 62
     5
  6
CONTINUOUS
 66
     1
 40
0.003000
 41
0.003000
  0
VERTEX
  8
PLAN_1
 62
     5
  6
CONTINUOUS
 10
0.041406
 20
0.488941
  0
VERTEX
  8
PLAN_1
 62
     5
  6
CONTINUOUS
 10
0.041406
 20
0.480858
  0
SEQEND
  8
0
  0
POLYLINE
  8
PLAN_1
 62
     5
  6
CONTINUOUS
 66
     1
 40
0.003000
 41
0.003000
  0
VERTEX
  8
PLAN_1
 62
     5
  6
CONTINUOUS
 10
0.041406
 20
0.472295
  0
VERTEX
  8
PLAN_1
 62
     5
  6
CONTINUOUS
 10
0.041406
 20
0.464209
  0
SEQEND
  8
0
  0
POLYLINE
  8
PLAN_1
 62
     5
  6
CONTINUOUS
 66
     1
 40
0.003000
 41
0.003000
  0
VERTEX
  8
PLAN_1
 62
     5
  6
CONTINUOUS
 10
0.041406
 20
0.455650
  0
VERTEX
  8
PLAN_1
 62
     5
  6
CONTINUOUS
 10
0.041406
 20
0.447563
  0
SEQEND
  8
0
  0
POLYLINE
  8
PLAN_1
 62
     5
  6
CONTINUOUS
 66
     1
 40
0.003000
 41
0.003000
  0
VERTEX
  8
PLAN_1
 62
     5
  6
CONTINUOUS
 10
0.041406
 20
0.439004
  0
VERTEX
  8
PLAN_1
 62
     5
  6
CONTINUOUS
 10
0.041406
 20
0.430917
  0
SEQEND
  8
0
  0
POLYLINE
  8
PLAN_1
 62
     5
  6
CONTINUOUS
 66
     1
 40
0.003000
 41
0.003000
  0
VERTEX
  8
PLAN_1
 62
     5
  6
CONTINUOUS
 10
0.041406
 20
0.422354
  0
VERTEX
  8
PLAN_1
 62
     5
  6
CONTINUOUS
 10
0.041406
 20
0.414268
  0
SEQEND
  8
0
  0
POLYLINE
  8
PLAN_1
 62
     5
  6
CONTINUOUS
 66
     1
 40
0.003000
 41
0.003000
  0
VERTEX
  8
PLAN_1
 62
     5
  6
CONTINUOUS
 10
0.041406
 20
0.405709
  0
VERTEX
  8
PLAN_1
 62
     5
  6
CONTINUOUS
 10
0.041406
 20
0.397622
  0
SEQEND
  8
0
  0
POLYLINE
  8
PLAN_1
 62
     5
  6
CONTINUOUS
 66
     1
 40
0.003000
 41
0.003000
  0
VERTEX
  8
PLAN_1
 62
     5
  6
CONTINUOUS
 10
0.041406
 20
0.389063
  0
VERTEX
  8
PLAN_1
 62
     5
  6
CONTINUOUS
 10
0.041406
 20
0.380500
  0
SEQEND
  8
0
  0
POLYLINE
  8
PLAN_1
 62
     5
  6
CONTINUOUS
 66
     1
 40
0.003000
 41
0.003000
  0
VERTEX
  8
PLAN_1
 62
     5
  6
CONTINUOUS
 10
0.041406
 20
0.372413
  0
VERTEX
  8
PLAN_1
 62
     5
  6
CONTINUOUS
 10
0.041406
 20
0.363854
  0
SEQEND
  8
0
  0
POLYLINE
  8
PLAN_1
 62
     5
  6
CONTINUOUS
 66
     1
 40
0.003000
 41
0.003000
  0
VERTEX
  8
PLAN_1
 62
     5
  6
CONTINUOUS
 10
0.041406
 20
0.355768
  0
VERTEX
  8
PLAN_1
 62
     5
  6
CONTINUOUS
 10
0.041406
 20
0.347205
  0
SEQEND
  8
0
  0
POLYLINE
  8
PLAN_1
 62
     5
  6
CONTINUOUS
 66
     1
 40
0.003000
 41
0.003000
  0
VERTEX
  8
PLAN_1
 62
     5
  6
CONTINUOUS
 10
0.041406
 20
0.339122
  0
VERTEX
  8
PLAN_1
 62
     5
  6
CONTINUOUS
 10
0.041406
 20
0.330559
  0
SEQEND
  8
0
  0
POLYLINE
  8
PLAN_1
 62
     5
  6
CONTINUOUS
 66
     1
 40
0.003000
 41
0.003000
  0
VERTEX
  8
PLAN_1
 62
     5
  6
CONTINUOUS
 10
0.041406
 20
0.322472
  0
VERTEX
  8
PLAN_1
 62
     5
  6
CONTINUOUS
 10
0.041406
 20
0.313913
  0
SEQEND
  8
0
  0
POLYLINE
  8
PLAN_1
 62
     5
  6
CONTINUOUS
 66
     1
 40
0.003000
 41
0.003000
  0
VERTEX
  8
PLAN_1
 62
     5
  6
CONTINUOUS
 10
0.041406
 20
0.305827
  0
VERTEX
  8
PLAN_1
 62
     5
  6
CONTINUOUS
 10
0.041406
 20
0.297264
  0
SEQEND
  8
0
  0
POLYLINE
  8
PLAN_1
 62
     5
  6
CONTINUOUS
 66
     1
 40
0.003000
 41
0.003000
  0
VERTEX
  8
PLAN_1
 62
     5
  6
CONTINUOUS
 10
0.041406
 20
0.289181
  0
VERTEX
  8
PLAN_1
 62
     5
  6
CONTINUOUS
 10
0.041406
 20
0.280618
  0
SEQEND
  8
0
  0
POLYLINE
  8
PLAN_1
 62
     5
  6
CONTINUOUS
 66
     1
 40
0.003000
 41
0.003000
  0
VERTEX
  8
PLAN_1
 62
     5
  6
CONTINUOUS
 10
0.041406
 20
0.272531
  0
VERTEX
  8
PLAN_1
 62
     5
  6
CONTINUOUS
 10
0.041406
 20
0.263972
  0
SEQEND
  8
0
  0
POLYLINE
  8
PLAN_1
 62
     5
  6
CONTINUOUS
 66
     1
 40
0.003000
 41
0.003000
  0
VERTEX
  8
PLAN_1
 62
     5
  6
CONTINUOUS
 10
0.041406
 20
0.255886
  0
VERTEX
  8
PLAN_1
 62
     5
  6
CONTINUOUS
 10
0.041406
 20
0.247327
  0
SEQEND
  8
0
  0
POLYLINE
  8
PLAN_1
 62
     5
  6
CONTINUOUS
 66
     1
 40
0.003000
 41
0.003000
  0
VERTEX
  8
PLAN_1
 62
     5
  6
CONTINUOUS
 10
0.041406
 20
0.239240
  0
VERTEX
  8
PLAN_1
 62
     5
  6
CONTINUOUS
 10
0.041406
 20
0.230677
  0
SEQEND
  8
0
  0
POLYLINE
  8
PLAN_1
 62
     5
  6
CONTINUOUS
 66
     1
 40
0.003000
 41
0.003000
  0
VERTEX
  8
PLAN_1
 62
     5
  6
CONTINUOUS
 10
0.041406
 20
0.222594
  0
VERTEX
  8
PLAN_1
 62
     5
  6
CONTINUOUS
 10
0.041406
 20
0.214031
  0
SEQEND
  8
0
  0
POLYLINE
  8
PLAN_1
 62
     5
  6
CONTINUOUS
 66
     1
 40
0.003000
 41
0.003000
  0
VERTEX
  8
PLAN_1
 62
     5
  6
CONTINUOUS
 10
0.041406
 20
0.205945
  0
VERTEX
  8
PLAN_1
 62
     5
  6
CONTINUOUS
 10
0.041406
 20
0.197386
  0
SEQEND
  8
0
  0
POLYLINE
  8
PLAN_1
 62
     5
  6
CONTINUOUS
 66
     1
 40
0.003000
 41
0.003000
  0
VERTEX
  8
PLAN_1
 62
     5
  6
CONTINUOUS
 10
0.041406
 20
0.189299
  0
VERTEX
  8
PLAN_1
 62
     5
  6
CONTINUOUS
 10
0.041406
 20
0.180736
  0
SEQEND
  8
0
  0
POLYLINE
  8
PLAN_1
 62
     5
  6
CONTINUOUS
 66
     1
 40
0.003000
 41
0.003000
  0
VERTEX
  8
PLAN_1
 62
     5
  6
CONTINUOUS
 10
0.041406
 20
0.172654
  0
VERTEX
  8
PLAN_1
 62
     5
  6
CONTINUOUS
 10
0.041406
 20
0.168846
  0
SEQEND
  8
0
  0
POLYLINE
  8
PLAN_1
 62
     5
  6
CONTINUOUS
 66
     1
 40
0.003000
 41
0.003000
  0
VERTEX
  8
PLAN_1
 62
     5
  6
CONTINUOUS
 10
0.041406
 20
0.172654
  0
VERTEX
  8
PLAN_1
 62
     5
  6
CONTINUOUS
 10
0.041406
 20
0.168846
  0
SEQEND
  8
0
  0
POLYLINE
  8
PLAN_1
  6
CONTINUOUS
 66
     1
 40
0.008559
 41
0.008559
  0
VERTEX
  8
PLAN_1
  6
CONTINUOUS
 10
-0.663945
 20
1.844000
  0
VERTEX
  8
PLAN_1
  6
CONTINUOUS
 10
-0.592602
 20
1.844000
  0
VERTEX
  8
PLAN_1
  6
CONTINUOUS
 10
-0.592602
 20
0.804283
  0
VERTEX
  8
PLAN_1
  6
CONTINUOUS
 10
-0.665374
 20
0.804283
  0
SEQEND
  8
0
  0
POLYLINE
  8
PLAN_1
  6
CONTINUOUS
 66
     1
 40
0.008559
 41
0.008559
  0
VERTEX
  8
PLAN_1
  6
CONTINUOUS
 10
-0.901760
 20
0.802378
  0
VERTEX
  8
PLAN_1
  6
CONTINUOUS
 10
-1.654673
 20
0.802378
  0
VERTEX
  8
PLAN_1
  6
CONTINUOUS
 10
-1.654673
 20
1.844000
  0
VERTEX
  8
PLAN_1
  6
CONTINUOUS
 10
-0.901760
 20
1.844000
  0
SEQEND
  8
0
  0
POLYLINE
  8
PLAN_1
  6
CONTINUOUS
 66
     1
 40
0.008559
 41
0.008559
  0
VERTEX
  8
PLAN_1
  6
CONTINUOUS
 10
-0.666323
 20
0.747681
  0
VERTEX
  8
PLAN_1
  6
CONTINUOUS
 10
-0.662520
 20
0.750535
  0
VERTEX
  8
PLAN_1
  6
CONTINUOUS
 10
-0.659189
 20
0.753866
  0
VERTEX
  8
PLAN_1
  6
CONTINUOUS
 10
-0.656335
 20
0.757669
  0
VERTEX
  8
PLAN_1
  6
CONTINUOUS
 10
-0.653957
 20
0.761953
  0
VERTEX
  8
PLAN_1
  6
CONTINUOUS
 10
-0.652531
 20
0.766232
  0
VERTEX
  8
PLAN_1
  6
CONTINUOUS
 10
-0.651106
 20
0.770988
  0
VERTEX
  8
PLAN_1
  6
CONTINUOUS
 10
-0.650154
 20
0.775268
  0
VERTEX
  8
PLAN_1
  6
CONTINUOUS
 10
-0.649201
 20
0.779551
  0
VERTEX
  8
PLAN_1
  6
CONTINUOUS
 10
-0.648724
 20
0.788110
  0
VERTEX
  8
PLAN_1
  6
CONTINUOUS
 10
-0.649201
 20
0.794768
  0
VERTEX
  8
PLAN_1
  6
CONTINUOUS
 10
-0.649201
 20
0.799051
  0
VERTEX
  8
PLAN_1
  6
CONTINUOUS
 10
-0.649677
 20
0.800953
  0
SEQEND
  8
0
  0
POLYLINE
  8
PLAN_1
  6
CONTINUOUS
 66
     1
 40
0.008559
 41
0.008559
  0
VERTEX
  8
PLAN_1
  6
CONTINUOUS
 10
-0.649677
 20
0.800953
  0
VERTEX
  8
PLAN_1
  6
CONTINUOUS
 10
-0.666323
 20
0.800953
  0
SEQEND
  8
0
  0
POLYLINE
  8
PLAN_1
  6
CONTINUOUS
 66
     1
 40
0.008559
 41
0.008559
  0
VERTEX
  8
PLAN_1
  6
CONTINUOUS
 10
-0.901760
 20
0.802378
  0
VERTEX
  8
PLAN_1
  6
CONTINUOUS
 10
-1.593791
 20
0.802378
  0
SEQEND
  8
0
  0
POLYLINE
  8
PLAN_1
  6
CONTINUOUS
 66
     1
 40
0.008559
 41
0.008559
  0
VERTEX
  8
PLAN_1
  6
CONTINUOUS
 10
-1.593791
 20
0.802378
  0
VERTEX
  8
PLAN_1
  6
CONTINUOUS
 10
-1.594744
 20
0.800000
  0
VERTEX
  8
PLAN_1
  6
CONTINUOUS
 10
-1.596646
 20
0.792866
  0
VERTEX
  8
PLAN_1
  6
CONTINUOUS
 10
-1.597122
 20
0.788587
  0
VERTEX
  8
PLAN_1
  6
CONTINUOUS
 10
-1.598075
 20
0.783354
  0
VERTEX
  8
PLAN_1
  6
CONTINUOUS
 10
-1.598551
 20
0.777646
  0
VERTEX
  8
PLAN_1
  6
CONTINUOUS
 10
-1.598551
 20
0.772413
  0
VERTEX
  8
PLAN_1
  6
CONTINUOUS
 10
-1.597598
 20
0.766709
  0
VERTEX
  8
PLAN_1
  6
CONTINUOUS
 10
-1.596173
 20
0.761000
  0
VERTEX
  8
PLAN_1
  6
CONTINUOUS
 10
-1.595220
 20
0.758622
  0
VERTEX
  8
PLAN_1
  6
CONTINUOUS
 10
-1.593791
 20
0.755768
  0
VERTEX
  8
PLAN_1
  6
CONTINUOUS
 10
-1.592366
 20
0.753390
  0
VERTEX
  8
PLAN_1
  6
CONTINUOUS
 10
-1.590465
 20
0.751488
  0
VERTEX
  8
PLAN_1
  6
CONTINUOUS
 10
-1.588563
 20
0.749587
  0
VERTEX
  8
PLAN_1
  6
CONTINUOUS
 10
-1.586185
 20
0.747681
  0
VERTEX
  8
PLAN_1
  6
CONTINUOUS
 10
-1.583331
 20
0.745780
  0
VERTEX
  8
PLAN_1
  6
CONTINUOUS
 10
-1.580476
 20
0.744354
  0
VERTEX
  8
PLAN_1
  6
CONTINUOUS
 10
-1.577146
 20
0.743402
  0
VERTEX
  8
PLAN_1
  6
CONTINUOUS
 10
-1.573343
 20
0.742449
  0
VERTEX
  8
PLAN_1
  6
CONTINUOUS
 10
-1.569059
 20
0.741976
  0
VERTEX
  8
PLAN_1
  6
CONTINUOUS
 10
-1.564303
 20
0.741976
  0
VERTEX
  8
PLAN_1
  6
CONTINUOUS
 10
-1.535768
 20
0.741976
  0
VERTEX
  8
PLAN_1
  6
CONTINUOUS
 10
-1.477264
 20
0.741976
  0
VERTEX
  8
PLAN_1
  6
CONTINUOUS
 10
-1.395933
 20
0.741976
  0
VERTEX
  8
PLAN_1
  6
CONTINUOUS
 10
-1.298906
 20
0.741976
  0
VERTEX
  8
PLAN_1
  6
CONTINUOUS
 10
-1.193315
 20
0.741976
  0
VERTEX
  8
PLAN_1
  6
CONTINUOUS
 10
-1.087252
 20
0.741976
  0
VERTEX
  8
PLAN_1
  6
CONTINUOUS
 10
-0.987370
 20
0.741976
  0
VERTEX
  8
PLAN_1
  6
CONTINUOUS
 10
-0.900807
 20
0.741976
  0
SEQEND
  8
0
  0
POLYLINE
  8
PLAN_1
  6
CONTINUOUS
 66
     1
 40
0.007134
 41
0.007134
  0
VERTEX
  8
PLAN_1
  6
CONTINUOUS
 10
-1.148134
 20
0.062307
  0
VERTEX
  8
PLAN_1
  6
CONTINUOUS
 10
-0.897476
 20
0.106539
  0
VERTEX
  8
PLAN_1
  6
CONTINUOUS
 10
-0.885110
 20
0.108441
  0
SEQEND
  8
0
  0
POLYLINE
  8
PLAN_1
  6
CONTINUOUS
 66
     1
 40
0.007134
 41
0.007134
  0
VERTEX
  8
PLAN_1
  6
CONTINUOUS
 10
-0.885110
 20
0.108441
  0
VERTEX
  8
PLAN_1
  6
CONTINUOUS
 10
-0.881307
 20
0.109870
  0
VERTEX
  8
PLAN_1
  6
CONTINUOUS
 10
-0.877976
 20
0.111295
  0
VERTEX
  8
PLAN_1
  6
CONTINUOUS
 10
-0.875122
 20
0.113673
  0
VERTEX
  8
PLAN_1
  6
CONTINUOUS
 10
-0.872272
 20
0.116528
  0
VERTEX
  8
PLAN_1
  6
CONTINUOUS
 10
-0.870843
 20
0.119858
  0
VERTEX
  8
PLAN_1
  6
CONTINUOUS
 10
-0.869417
 20
0.123661
  0
VERTEX
  8
PLAN_1
  6
CONTINUOUS
 10
-0.868941
 20
0.127469
  0
VERTEX
  8
PLAN_1
  6
CONTINUOUS
 10
-0.869417
 20
0.131272
  0
VERTEX
  8
PLAN_1
  6
CONTINUOUS
 10
-0.870366
 20
0.135079
  0
VERTEX
  8
PLAN_1
  6
CONTINUOUS
 10
-0.872272
 20
0.138406
  0
VERTEX
  8
PLAN_1
  6
CONTINUOUS
 10
-0.874650
 20
0.141736
  0
VERTEX
  8
PLAN_1
  6
CONTINUOUS
 10
-0.877500
 20
0.144114
  0
VERTEX
  8
PLAN_1
  6
CONTINUOUS
 10
-0.880354
 20
0.146016
  0
VERTEX
  8
PLAN_1
  6
CONTINUOUS
 10
-0.884161
 20
0.146969
  0
VERTEX
  8
PLAN_1
  6
CONTINUOUS
 10
-0.887965
 20
0.147445
  0
VERTEX
  8
PLAN_1
  6
CONTINUOUS
 10
-0.891772
 20
0.147445
  0
SEQEND
  8
0
  0
POLYLINE
  8
PLAN_1
  6
CONTINUOUS
 66
     1
 40
0.007134
 41
0.007134
  0
VERTEX
  8
PLAN_1
  6
CONTINUOUS
 10
-0.891772
 20
0.147445
  0
VERTEX
  8
PLAN_1
  6
CONTINUOUS
 10
-0.904138
 20
0.145067
  0
VERTEX
  8
PLAN_1
  6
CONTINUOUS
 10
-1.366921
 20
0.063260
  0
VERTEX
  8
PLAN_1
  6
CONTINUOUS
 10
-1.374531
 20
0.061831
  0
SEQEND
  8
0
  0
POLYLINE
  8
PLAN_1
  6
CONTINUOUS
 66
     1
 40
0.007134
 41
0.007134
  0
VERTEX
  8
PLAN_1
  6
CONTINUOUS
 10
-1.374531
 20
0.061831
  0
VERTEX
  8
PLAN_1
  6
CONTINUOUS
 10
-1.378335
 20
0.060882
  0
VERTEX
  8
PLAN_1
  6
CONTINUOUS
 10
-1.382142
 20
0.058976
  0
VERTEX
  8
PLAN_1
  6
CONTINUOUS
 10
-1.384992
 20
0.056598
  0
VERTEX
  8
PLAN_1
  6
CONTINUOUS
 10
-1.387370
 20
0.053744
  0
VERTEX
  8
PLAN_1
  6
CONTINUOUS
 10
-1.389276
 20
0.050417
  0
VERTEX
  8
PLAN_1
  6
CONTINUOUS
 10
-1.390701
 20
0.047087
  0
VERTEX
  8
PLAN_1
  6
CONTINUOUS
 10
-1.391177
 20
0.043283
  0
VERTEX
  8
PLAN_1
  6
CONTINUOUS
 10
-1.390701
 20
0.039000
  0
VERTEX
  8
PLAN_1
  6
CONTINUOUS
 10
-1.389752
 20
0.035197
  0
VERTEX
  8
PLAN_1
  6
CONTINUOUS
 10
-1.387846
 20
0.031866
  0
VERTEX
  8
PLAN_1
  6
CONTINUOUS
 10
-1.385469
 20
0.029012
  0
VERTEX
  8
PLAN_1
  6
CONTINUOUS
 10
-1.382614
 20
0.026634
  0
VERTEX
  8
PLAN_1
  6
CONTINUOUS
 10
-1.379287
 20
0.024732
  0
VERTEX
  8
PLAN_1
  6
CONTINUOUS
 10
-1.375480
 20
0.023307
  0
VERTEX
  8
PLAN_1
  6
CONTINUOUS
 10
-1.371677
 20
0.022831
  0
VERTEX
  8
PLAN_1
  6
CONTINUOUS
 10
-1.367870
 20
0.023307
  0
SEQEND
  8
0
  0
POLYLINE
  8
PLAN_1
  6
CONTINUOUS
 66
     1
 40
0.007134
 41
0.007134
  0
VERTEX
  8
PLAN_1
  6
CONTINUOUS
 10
-1.259429
 20
0.213555
  0
VERTEX
  8
PLAN_1
  6
CONTINUOUS
 10
-0.897004
 20
0.149346
  0
VERTEX
  8
PLAN_1
  6
CONTINUOUS
 10
-0.885110
 20
0.147445
  0
SEQEND
  8
0
  0
POLYLINE
  8
PLAN_1
  6
CONTINUOUS
 66
     1
 40
0.007134
 41
0.007134
  0
VERTEX
  8
PLAN_1
  6
CONTINUOUS
 10
-0.885110
 20
0.147445
  0
VERTEX
  8
PLAN_1
  6
CONTINUOUS
 10
-0.881307
 20
0.146492
  0
VERTEX
  8
PLAN_1
  6
CONTINUOUS
 10
-0.877976
 20
0.144591
  0
VERTEX
  8
PLAN_1
  6
CONTINUOUS
 10
-0.874650
 20
0.142213
  0
VERTEX
  8
PLAN_1
  6
CONTINUOUS
 10
-0.872272
 20
0.139358
  0
VERTEX
  8
PLAN_1
  6
CONTINUOUS
 10
-0.870366
 20
0.136028
  0
VERTEX
  8
PLAN_1
  6
CONTINUOUS
 10
-0.869417
 20
0.132224
  0
VERTEX
  8
PLAN_1
  6
CONTINUOUS
 10
-0.868941
 20
0.128417
  0
VERTEX
  8
PLAN_1
  6
CONTINUOUS
 10
-0.868941
 20
0.124614
  0
VERTEX
  8
PLAN_1
  6
CONTINUOUS
 10
-0.870366
 20
0.120807
  0
VERTEX
  8
PLAN_1
  6
CONTINUOUS
 10
-0.871795
 20
0.117480
  0
VERTEX
  8
PLAN_1
  6
CONTINUOUS
 10
-0.874173
 20
0.114150
  0
VERTEX
  8
PLAN_1
  6
CONTINUOUS
 10
-0.877028
 20
0.111772
  0
VERTEX
  8
PLAN_1
  6
CONTINUOUS
 10
-0.880354
 20
0.109870
  0
VERTEX
  8
PLAN_1
  6
CONTINUOUS
 10
-0.884161
 20
0.108917
  0
VERTEX
  8
PLAN_1
  6
CONTINUOUS
 10
-0.887965
 20
0.108441
  0
VERTEX
  8
PLAN_1
  6
CONTINUOUS
 10
-0.891772
 20
0.108441
  0
SEQEND
  8
0
  0
POLYLINE
  8
PLAN_1
  6
CONTINUOUS
 66
     1
 40
0.007134
 41
0.007134
  0
VERTEX
  8
PLAN_1
  6
CONTINUOUS
 10
-1.003067
 20
0.128417
  0
VERTEX
  8
PLAN_1
  6
CONTINUOUS
 10
-1.366921
 20
0.192630
  0
VERTEX
  8
PLAN_1
  6
CONTINUOUS
 10
-1.374531
 20
0.194055
  0
SEQEND
  8
0
  0
POLYLINE
  8
PLAN_1
  6
CONTINUOUS
 66
     1
 40
0.007134
 41
0.007134
  0
VERTEX
  8
PLAN_1
  6
CONTINUOUS
 10
-1.374531
 20
0.194055
  0
VERTEX
  8
PLAN_1
  6
CONTINUOUS
 10
-1.378335
 20
0.195008
  0
VERTEX
  8
PLAN_1
  6
CONTINUOUS
 10
-1.381665
 20
0.196909
  0
VERTEX
  8
PLAN_1
  6
CONTINUOUS
 10
-1.384992
 20
0.199287
  0
VERTEX
  8
PLAN_1
  6
CONTINUOUS
 10
-1.387370
 20
0.202142
  0
VERTEX
  8
PLAN_1
  6
CONTINUOUS
 10
-1.389276
 20
0.205469
  0
VERTEX
  8
PLAN_1
  6
CONTINUOUS
 10
-1.390224
 20
0.208799
  0
VERTEX
  8
PLAN_1
  6
CONTINUOUS
 10
-1.390701
 20
0.212606
  0
VERTEX
  8
PLAN_1
  6
CONTINUOUS
 10
-1.390701
 20
0.216886
  0
VERTEX
  8
PLAN_1
  6
CONTINUOUS
 10
-1.389276
 20
0.220689
  0
VERTEX
  8
PLAN_1
  6
CONTINUOUS
 10
-1.387846
 20
0.224020
  0
VERTEX
  8
PLAN_1
  6
CONTINUOUS
 10
-1.385469
 20
0.226874
  0
VERTEX
  8
PLAN_1
  6
CONTINUOUS
 10
-1.382614
 20
0.229252
  0
VERTEX
  8
PLAN_1
  6
CONTINUOUS
 10
-1.379287
 20
0.231154
  0
VERTEX
  8
PLAN_1
  6
CONTINUOUS
 10
-1.375480
 20
0.232583
  0
VERTEX
  8
PLAN_1
  6
CONTINUOUS
 10
-1.371677
 20
0.233055
  0
VERTEX
  8
PLAN_1
  6
CONTINUOUS
 10
-1.367870
 20
0.232583
  0
SEQEND
  8
0
  0
POLYLINE
  8
PLAN_1
  6
CONTINUOUS
 66
     1
 40
0.007134
 41
0.007134
  0
VERTEX
  8
PLAN_1
  6
CONTINUOUS
 10
-1.004969
 20
0.300118
  0
VERTEX
  8
PLAN_1
  6
CONTINUOUS
 10
-1.366445
 20
0.363854
  0
VERTEX
  8
PLAN_1
  6
CONTINUOUS
 10
-1.374531
 20
0.365280
  0
SEQEND
  8
0
  0
POLYLINE
  8
PLAN_1
  6
CONTINUOUS
 66
     1
 40
0.007134
 41
0.007134
  0
VERTEX
  8
PLAN_1
  6
CONTINUOUS
 10
-1.374531
 20
0.365280
  0
VERTEX
  8
PLAN_1
  6
CONTINUOUS
 10
-1.378335
 20
0.366232
  0
VERTEX
  8
PLAN_1
  6
CONTINUOUS
 10
-1.381665
 20
0.368134
  0
VERTEX
  8
PLAN_1
  6
CONTINUOUS
 10
-1.384992
 20
0.370512
  0
VERTEX
  8
PLAN_1
  6
CONTINUOUS
 10
-1.387370
 20
0.373366
  0
VERTEX
  8
PLAN_1
  6
CONTINUOUS
 10
-1.389276
 20
0.376697
  0
VERTEX
  8
PLAN_1
  6
CONTINUOUS
 10
-1.390224
 20
0.380500
  0
VERTEX
  8
PLAN_1
  6
CONTINUOUS
 10
-1.390701
 20
0.384303
  0
VERTEX
  8
PLAN_1
  6
CONTINUOUS
 10
-1.390701
 20
0.388110
  0
VERTEX
  8
PLAN_1
  6
CONTINUOUS
 10
-1.389276
 20
0.391913
  0
VERTEX
  8
PLAN_1
  6
CONTINUOUS
 10
-1.387846
 20
0.395244
  0
VERTEX
  8
PLAN_1
  6
CONTINUOUS
 10
-1.385469
 20
0.398575
  0
VERTEX
  8
PLAN_1
  6
CONTINUOUS
 10
-1.382614
 20
0.400953
  0
VERTEX
  8
PLAN_1
  6
CONTINUOUS
 10
-1.379287
 20
0.402854
  0
VERTEX
  8
PLAN_1
  6
CONTINUOUS
 10
-1.375480
 20
0.403807
  0
VERTEX
  8
PLAN_1
  6
CONTINUOUS
 10
-1.371677
 20
0.404280
  0
VERTEX
  8
PLAN_1
  6
CONTINUOUS
 10
-1.367870
 20
0.404280
  0
SEQEND
  8
0
  0
POLYLINE
  8
PLAN_1
  6
CONTINUOUS
 66
     1
 40
0.007134
 41
0.007134
  0
VERTEX
  8
PLAN_1
  6
CONTINUOUS
 10
-0.902709
 20
0.316768
  0
VERTEX
  8
PLAN_1
  6
CONTINUOUS
 10
-0.904138
 20
0.316291
  0
VERTEX
  8
PLAN_1
  6
CONTINUOUS
 10
-1.366921
 20
0.234484
  0
VERTEX
  8
PLAN_1
  6
CONTINUOUS
 10
-1.374531
 20
0.233055
  0
SEQEND
  8
0
  0
POLYLINE
  8
PLAN_1
  6
CONTINUOUS
 66
     1
 40
0.007134
 41
0.007134
  0
VERTEX
  8
PLAN_1
  6
CONTINUOUS
 10
-1.374531
 20
0.233055
  0
VERTEX
  8
PLAN_1
  6
CONTINUOUS
 10
-1.378811
 20
0.232106
  0
VERTEX
  8
PLAN_1
  6
CONTINUOUS
 10
-1.382142
 20
0.230201
  0
VERTEX
  8
PLAN_1
  6
CONTINUOUS
 10
-1.384992
 20
0.227823
  0
VERTEX
  8
PLAN_1
  6
CONTINUOUS
 10
-1.387370
 20
0.224972
  0
VERTEX
  8
PLAN_1
  6
CONTINUOUS
 10
-1.389276
 20
0.221642
  0
VERTEX
  8
PLAN_1
  6
CONTINUOUS
 10
-1.390701
 20
0.218311
  0
VERTEX
  8
PLAN_1
  6
CONTINUOUS
 10
-1.391177
 20
0.214508
  0
VERTEX
  8
PLAN_1
  6
CONTINUOUS
 10
-1.390701
 20
0.210224
  0
VERTEX
  8
PLAN_1
  6
CONTINUOUS
 10
-1.389752
 20
0.206421
  0
VERTEX
  8
PLAN_1
  6
CONTINUOUS
 10
-1.387846
 20
0.203091
  0
VERTEX
  8
PLAN_1
  6
CONTINUOUS
 10
-1.385469
 20
0.200240
  0
VERTEX
  8
PLAN_1
  6
CONTINUOUS
 10
-1.382614
 20
0.197858
  0
VERTEX
  8
PLAN_1
  6
CONTINUOUS
 10
-1.379287
 20
0.195957
  0
VERTEX
  8
PLAN_1
  6
CONTINUOUS
 10
-1.375957
 20
0.194531
  0
VERTEX
  8
PLAN_1
  6
CONTINUOUS
 10
-1.372154
 20
0.194055
  0
VERTEX
  8
PLAN_1
  6
CONTINUOUS
 10
-1.367870
 20
0.194531
  0
SEQEND
  8
0
  0
POLYLINE
  8
PLAN_1
  6
CONTINUOUS
 66
     1
 40
0.007134
 41
0.007134
  0
VERTEX
  8
PLAN_1
  6
CONTINUOUS
 10
-1.367870
 20
0.194531
  0
VERTEX
  8
PLAN_1
  6
CONTINUOUS
 10
-1.360260
 20
0.195957
  0
VERTEX
  8
PLAN_1
  6
CONTINUOUS
 10
-0.897476
 20
0.277764
  0
VERTEX
  8
PLAN_1
  6
CONTINUOUS
 10
-0.885110
 20
0.279669
  0
SEQEND
  8
0
  0
POLYLINE
  8
PLAN_1
  6
CONTINUOUS
 66
     1
 40
0.007134
 41
0.007134
  0
VERTEX
  8
PLAN_1
  6
CONTINUOUS
 10
-0.885110
 20
0.279669
  0
VERTEX
  8
PLAN_1
  6
CONTINUOUS
 10
-0.881307
 20
0.280618
  0
VERTEX
  8
PLAN_1
  6
CONTINUOUS
 10
-0.877976
 20
0.282520
  0
VERTEX
  8
PLAN_1
  6
CONTINUOUS
 10
-0.875122
 20
0.284898
  0
VERTEX
  8
PLAN_1
  6
CONTINUOUS
 10
-0.872744
 20
0.287752
  0
VERTEX
  8
PLAN_1
  6
CONTINUOUS
 10
-0.870843
 20
0.291083
  0
VERTEX
  8
PLAN_1
  6
CONTINUOUS
 10
-0.869417
 20
0.294886
  0
VERTEX
  8
PLAN_1
  6
CONTINUOUS
 10
-0.868941
 20
0.298693
  0
VERTEX
  8
PLAN_1
  6
CONTINUOUS
 10
-0.869417
 20
0.302496
  0
SEQEND
  8
0
  0
POLYLINE
  8
PLAN_1
  6
CONTINUOUS
 66
     1
 40
0.007134
 41
0.007134
  0
VERTEX
  8
PLAN_1
  6
CONTINUOUS
 10
-1.263232
 20
0.385732
  0
VERTEX
  8
PLAN_1
  6
CONTINUOUS
 10
-0.903661
 20
0.322000
  0
SEQEND
  8
0
  0
POLYLINE
  8
PLAN_1
  6
CONTINUOUS
 66
     1
 40
0.007134
 41
0.007134
  0
VERTEX
  8
PLAN_1
  6
CONTINUOUS
 10
-0.874650
 20
0.313437
  0
VERTEX
  8
PLAN_1
  6
CONTINUOUS
 10
-0.873220
 20
0.311535
  0
VERTEX
  8
PLAN_1
  6
CONTINUOUS
 10
-0.871795
 20
0.309634
  0
VERTEX
  8
PLAN_1
  6
CONTINUOUS
 10
-0.870843
 20
0.307728
  0
VERTEX
  8
PLAN_1
  6
CONTINUOUS
 10
-0.869894
 20
0.305350
  0
VERTEX
  8
PLAN_1
  6
CONTINUOUS
 10
-0.868941
 20
0.303449
  0
VERTEX
  8
PLAN_1
  6
CONTINUOUS
 10
-0.868941
 20
0.301071
  0
VERTEX
  8
PLAN_1
  6
CONTINUOUS
 10
-0.868941
 20
0.298693
  0
VERTEX
  8
PLAN_1
  6
CONTINUOUS
 10
-0.868941
 20
0.295839
  0
VERTEX
  8
PLAN_1
  6
CONTINUOUS
 10
-0.870366
 20
0.292035
  0
VERTEX
  8
PLAN_1
  6
CONTINUOUS
 10
-0.871795
 20
0.288705
  0
VERTEX
  8
PLAN_1
  6
CONTINUOUS
 10
-0.874173
 20
0.285850
  0
VERTEX
  8
PLAN_1
  6
CONTINUOUS
 10
-0.877028
 20
0.283472
  0
VERTEX
  8
PLAN_1
  6
CONTINUOUS
 10
-0.880354
 20
0.281571
  0
VERTEX
  8
PLAN_1
  6
CONTINUOUS
 10
-0.884161
 20
0.280142
  0
VERTEX
  8
PLAN_1
  6
CONTINUOUS
 10
-0.887965
 20
0.279669
  0
VERTEX
  8
PLAN_1
  6
CONTINUOUS
 10
-0.891772
 20
0.280142
  0
SEQEND
  8
0
  0
POLYLINE
  8
PLAN_1
 62
     2
  6
CONTINUOUS
 66
     1
 40
0.004280
 41
0.004280
  0
VERTEX
  8
PLAN_1
 62
     2
  6
CONTINUOUS
 10
-1.982854
 20
3.708449
  0
VERTEX
  8
PLAN_1
 62
     2
  6
CONTINUOUS
 10
-0.818047
 20
3.708449
  0
SEQEND
  8
0
  0
SOLID
  8
PLAN_1
 62
     2
 10
-0.788559
 20
3.708449
 11
-0.847539
 21
3.724146
 12
-0.788559
 22
3.708449
 13
-0.847539
 23
3.692276
  0
POLYLINE
  8
PLAN_1
 62
     2
  6
CONTINUOUS
 66
     1
 40
0.003000
 41
0.003000
  0
VERTEX
  8
PLAN_1
 62
     2
  6
CONTINUOUS
 10
-0.788559
 20
3.708449
  0
VERTEX
  8
PLAN_1
 62
     2
  6
CONTINUOUS
 10
-0.847539
 20
3.724146
  0
VERTEX
  8
PLAN_1
 62
     2
  6
CONTINUOUS
 10
-0.847539
 20
3.692276
  0
VERTEX
  8
PLAN_1
 62
     2
  6
CONTINUOUS
 10
-0.788559
 20
3.708449
  0
SEQEND
  8
0
  0
SOLID
  8
PLAN_1
 62
     2
 10
-2.012343
 20
3.708449
 11
-1.952890
 21
3.724146
 12
-2.012343
 22
3.708449
 13
-1.952890
 23
3.692276
  0
POLYLINE
  8
PLAN_1
 62
     2
  6
CONTINUOUS
 66
     1
 40
0.003000
 41
0.003000
  0
VERTEX
  8
PLAN_1
 62
     2
  6
CONTINUOUS
 10
-2.012343
 20
3.708449
  0
VERTEX
  8
PLAN_1
 62
     2
  6
CONTINUOUS
 10
-1.952890
 20
3.724146
  0
VERTEX
  8
PLAN_1
 62
     2
  6
CONTINUOUS
 10
-1.952890
 20
3.692276
  0
VERTEX
  8
PLAN_1
 62
     2
  6
CONTINUOUS
 10
-2.012343
 20
3.708449
  0
SEQEND
  8
0
  0
POLYLINE
  8
PLAN_1
 62
     2
  6
CONTINUOUS
 66
     1
 40
0.003000
 41
0.003000
  0
VERTEX
  8
PLAN_1
 62
     2
  6
CONTINUOUS
 10
-1.478217
 20
3.773610
  0
VERTEX
  8
PLAN_1
 62
     2
  6
CONTINUOUS
 10
-1.477740
 20
3.773610
  0
VERTEX
  8
PLAN_1
 62
     2
  6
CONTINUOUS
 10
-1.477264
 20
3.773610
  0
VERTEX
  8
PLAN_1
 62
     2
  6
CONTINUOUS
 10
-1.476315
 20
3.773134
  0
VERTEX
  8
PLAN_1
 62
     2
  6
CONTINUOUS
 10
-1.475839
 20
3.773134
  0
VERTEX
  8
PLAN_1
 62
     2
  6
CONTINUOUS
 10
-1.475362
 20
3.773134
  0
VERTEX
  8
PLAN_1
 62
     2
  6
CONTINUOUS
 10
-1.474886
 20
3.773134
  0
VERTEX
  8
PLAN_1
 62
     2
  6
CONTINUOUS
 10
-1.473937
 20
3.773134
  0
VERTEX
  8
PLAN_1
 62
     2
  6
CONTINUOUS
 10
-1.473461
 20
3.773134
  0
VERTEX
  8
PLAN_1
 62
     2
  6
CONTINUOUS
 10
-1.471083
 20
3.773610
  0
VERTEX
  8
PLAN_1
 62
     2
  6
CONTINUOUS
 10
-1.468228
 20
3.774083
  0
VERTEX
  8
PLAN_1
 62
     2
  6
CONTINUOUS
 10
-1.465850
 20
3.774559
  0
VERTEX
  8
PLAN_1
 62
     2
  6
CONTINUOUS
 10
-1.463949
 20
3.775988
  0
VERTEX
  8
PLAN_1
 62
     2
  6
CONTINUOUS
 10
-1.462043
 20
3.777413
  0
VERTEX
  8
PLAN_1
 62
     2
  6
CONTINUOUS
 10
-1.460618
 20
3.779315
  0
VERTEX
  8
PLAN_1
 62
     2
  6
CONTINUOUS
 10
-1.459665
 20
3.782169
  0
VERTEX
  8
PLAN_1
 62
     2
  6
CONTINUOUS
 10
-1.459665
 20
3.785024
  0
VERTEX
  8
PLAN_1
 62
     2
  6
CONTINUOUS
 10
-1.459665
 20
3.786925
  0
VERTEX
  8
PLAN_1
 62
     2
  6
CONTINUOUS
 10
-1.460142
 20
3.788831
  0
VERTEX
  8
PLAN_1
 62
     2
  6
CONTINUOUS
 10
-1.461094
 20
3.790732
  0
VERTEX
  8
PLAN_1
 62
     2
  6
CONTINUOUS
 10
-1.462043
 20
3.792634
  0
VERTEX
  8
PLAN_1
 62
     2
  6
CONTINUOUS
 10
-1.463949
 20
3.794059
  0
VERTEX
  8
PLAN_1
 62
     2
  6
CONTINUOUS
 10
-1.466327
 20
3.795488
  0
VERTEX
  8
PLAN_1
 62
     2
  6
CONTINUOUS
 10
-1.469181
 20
3.796437
  0
VERTEX
  8
PLAN_1
 62
     2
  6
CONTINUOUS
 10
-1.472984
 20
3.796913
  0
VERTEX
  8
PLAN_1
 62
     2
  6
CONTINUOUS
 10
-1.475362
 20
3.796437
  0
VERTEX
  8
PLAN_1
 62
     2
  6
CONTINUOUS
 10
-1.477264
 20
3.796437
  0
VERTEX
  8
PLAN_1
 62
     2
  6
CONTINUOUS
 10
-1.479169
 20
3.795965
  0
VERTEX
  8
PLAN_1
 62
     2
  6
CONTINUOUS
 10
-1.480594
 20
3.795012
  0
VERTEX
  8
PLAN_1
 62
     2
  6
CONTINUOUS
 10
-1.482972
 20
3.793110
  0
VERTEX
  8
PLAN_1
 62
     2
  6
CONTINUOUS
 10
-1.484874
 20
3.790732
  0
VERTEX
  8
PLAN_1
 62
     2
  6
CONTINUOUS
 10
-1.485827
 20
3.788354
  0
VERTEX
  8
PLAN_1
 62
     2
  6
CONTINUOUS
 10
-1.486776
 20
3.785500
  0
VERTEX
  8
PLAN_1
 62
     2
  6
CONTINUOUS
 10
-1.487252
 20
3.783122
  0
VERTEX
  8
PLAN_1
 62
     2
  6
CONTINUOUS
 10
-1.487252
 20
3.781220
  0
VERTEX
  8
PLAN_1
 62
     2
  6
CONTINUOUS
 10
-1.496291
 20
3.781220
  0
VERTEX
  8
PLAN_1
 62
     2
  6
CONTINUOUS
 10
-1.495815
 20
3.785024
  0
VERTEX
  8
PLAN_1
 62
     2
  6
CONTINUOUS
 10
-1.495339
 20
3.789303
  0
VERTEX
  8
PLAN_1
 62
     2
  6
CONTINUOUS
 10
-1.493913
 20
3.793110
  0
VERTEX
  8
PLAN_1
 62
     2
  6
CONTINUOUS
 10
-1.491535
 20
3.796913
  0
VERTEX
  8
PLAN_1
 62
     2
  6
CONTINUOUS
 10
-1.490106
 20
3.798815
  0
VERTEX
  8
PLAN_1
 62
     2
  6
CONTINUOUS
 10
-1.488681
 20
3.800244
  0
VERTEX
  8
PLAN_1
 62
     2
  6
CONTINUOUS
 10
-1.486776
 20
3.801669
  0
VERTEX
  8
PLAN_1
 62
     2
  6
CONTINUOUS
 10
-1.484398
 20
3.802622
  0
VERTEX
  8
PLAN_1
 62
     2
  6
CONTINUOUS
 10
-1.482020
 20
3.803575
  0
VERTEX
  8
PLAN_1
 62
     2
  6
CONTINUOUS
 10
-1.479169
 20
3.804524
  0
VERTEX
  8
PLAN_1
 62
     2
  6
CONTINUOUS
 10
-1.476315
 20
3.805000
  0
VERTEX
  8
PLAN_1
 62
     2
  6
CONTINUOUS
 10
-1.472508
 20
3.805000
  0
VERTEX
  8
PLAN_1
 62
     2
  6
CONTINUOUS
 10
-1.467752
 20
3.804524
  0
VERTEX
  8
PLAN_1
 62
     2
  6
CONTINUOUS
 10
-1.462996
 20
3.803575
  0
VERTEX
  8
PLAN_1
 62
     2
  6
CONTINUOUS
 10
-1.459193
 20
3.801669
  0
VERTEX
  8
PLAN_1
 62
     2
  6
CONTINUOUS
 10
-1.455862
 20
3.799768
  0
VERTEX
  8
PLAN_1
 62
     2
  6
CONTINUOUS
 10
-1.453484
 20
3.796913
  0
VERTEX
  8
PLAN_1
 62
     2
  6
CONTINUOUS
 10
-1.451583
 20
3.793587
  0
VERTEX
  8
PLAN_1
 62
     2
  6
CONTINUOUS
 10
-1.450630
 20
3.789780
  0
VERTEX
  8
PLAN_1
 62
     2
  6
CONTINUOUS
 10
-1.450154
 20
3.785976
  0
VERTEX
  8
PLAN_1
 62
     2
  6
CONTINUOUS
 10
-1.450154
 20
3.782646
  0
VERTEX
  8
PLAN_1
 62
     2
  6
CONTINUOUS
 10
-1.451106
 20
3.779791
  0
VERTEX
  8
PLAN_1
 62
     2
  6
CONTINUOUS
 10
-1.452055
 20
3.777413
  0
VERTEX
  8
PLAN_1
 62
     2
  6
CONTINUOUS
 10
-1.453484
 20
3.775035
  0
VERTEX
  8
PLAN_1
 62
     2
  6
CONTINUOUS
 10
-1.454909
 20
3.773610
  0
VERTEX
  8
PLAN_1
 62
     2
  6
CONTINUOUS
 10
-1.456339
 20
3.772181
  0
VERTEX
  8
PLAN_1
 62
     2
  6
CONTINUOUS
 10
-1.457764
 20
3.771232
  0
VERTEX
  8
PLAN_1
 62
     2
  6
CONTINUOUS
 10
-1.459193
 20
3.770756
  0
VERTEX
  8
PLAN_1
 62
     2
  6
CONTINUOUS
 10
-1.459193
 20
3.770280
  0
VERTEX
  8
PLAN_1
 62
     2
  6
CONTINUOUS
 10
-1.456815
 20
3.769327
  0
VERTEX
  8
PLAN_1
 62
     2
  6
CONTINUOUS
 10
-1.454433
 20
3.768378
  0
VERTEX
  8
PLAN_1
 62
     2
  6
CONTINUOUS
 10
-1.452531
 20
3.766472
  0
VERTEX
  8
PLAN_1
 62
     2
  6
CONTINUOUS
 10
-1.450630
 20
3.764571
  0
VERTEX
  8
PLAN_1
 62
     2
  6
CONTINUOUS
 10
-1.449205
 20
3.762669
  0
VERTEX
  8
PLAN_1
 62
     2
  6
CONTINUOUS
 10
-1.448252
 20
3.759815
  0
VERTEX
  8
PLAN_1
 62
     2
  6
CONTINUOUS
 10
-1.447299
 20
3.756961
  0
VERTEX
  8
PLAN_1
 62
     2
  6
CONTINUOUS
 10
-1.447299
 20
3.753157
  0
VERTEX
  8
PLAN_1
 62
     2
  6
CONTINUOUS
 10
-1.447776
 20
3.748878
  0
VERTEX
  8
PLAN_1
 62
     2
  6
CONTINUOUS
 10
-1.448728
 20
3.744594
  0
VERTEX
  8
PLAN_1
 62
     2
  6
CONTINUOUS
 10
-1.450630
 20
3.740791
  0
VERTEX
  8
PLAN_1
 62
     2
  6
CONTINUOUS
 10
-1.453484
 20
3.736984
  0
VERTEX
  8
PLAN_1
 62
     2
  6
CONTINUOUS
 10
-1.454909
 20
3.735559
  0
VERTEX
  8
PLAN_1
 62
     2
  6
CONTINUOUS
 10
-1.457287
 20
3.734130
  0
VERTEX
  8
PLAN_1
 62
     2
  6
CONTINUOUS
 10
-1.459193
 20
3.732705
  0
VERTEX
  8
PLAN_1
 62
     2
  6
CONTINUOUS
 10
-1.461571
 20
3.731752
  0
VERTEX
  8
PLAN_1
 62
     2
  6
CONTINUOUS
 10
-1.464421
 20
3.730803
  0
VERTEX
  8
PLAN_1
 62
     2
  6
CONTINUOUS
 10
-1.467276
 20
3.730327
  0
VERTEX
  8
PLAN_1
 62
     2
  6
CONTINUOUS
 10
-1.470130
 20
3.729850
  0
VERTEX
  8
PLAN_1
 62
     2
  6
CONTINUOUS
 10
-1.473461
 20
3.729850
  0
VERTEX
  8
PLAN_1
 62
     2
  6
CONTINUOUS
 10
-1.475362
 20
3.729850
  0
VERTEX
  8
PLAN_1
 62
     2
  6
CONTINUOUS
 10
-1.477264
 20
3.730327
  0
VERTEX
  8
PLAN_1
 62
     2
  6
CONTINUOUS
 10
-1.479169
 20
3.730327
  0
VERTEX
  8
PLAN_1
 62
     2
  6
CONTINUOUS
 10
-1.481071
 20
3.730803
  0
VERTEX
  8
PLAN_1
 62
     2
  6
CONTINUOUS
 10
-1.482496
 20
3.731280
  0
VERTEX
  8
PLAN_1
 62
     2
  6
CONTINUOUS
 10
-1.484398
 20
3.731752
  0
VERTEX
  8
PLAN_1
 62
     2
  6
CONTINUOUS
 10
-1.485827
 20
3.732228
  0
VERTEX
  8
PLAN_1
 62
     2
  6
CONTINUOUS
 10
-1.487252
 20
3.733181
  0
VERTEX
  8
PLAN_1
 62
     2
  6
CONTINUOUS
 10
-1.490106
 20
3.735083
  0
VERTEX
  8
PLAN_1
 62
     2
  6
CONTINUOUS
 10
-1.492008
 20
3.736984
  0
VERTEX
  8
PLAN_1
 62
     2
  6
CONTINUOUS
 10
-1.493913
 20
3.739362
  0
VERTEX
  8
PLAN_1
 62
     2
  6
CONTINUOUS
 10
-1.495339
 20
3.742217
  0
VERTEX
  8
PLAN_1
 62
     2
  6
CONTINUOUS
 10
-1.496291
 20
3.745071
  0
VERTEX
  8
PLAN_1
 62
     2
  6
CONTINUOUS
 10
-1.497240
 20
3.747925
  0
VERTEX
  8
PLAN_1
 62
     2
  6
CONTINUOUS
 10
-1.497717
 20
3.751256
  0
VERTEX
  8
PLAN_1
 62
     2
  6
CONTINUOUS
 10
-1.498193
 20
3.754106
  0
VERTEX
  8
PLAN_1
 62
     2
  6
CONTINUOUS
 10
-1.488681
 20
3.754106
  0
VERTEX
  8
PLAN_1
 62
     2
  6
CONTINUOUS
 10
-1.488205
 20
3.751728
  0
VERTEX
  8
PLAN_1
 62
     2
  6
CONTINUOUS
 10
-1.487728
 20
3.748878
  0
VERTEX
  8
PLAN_1
 62
     2
  6
CONTINUOUS
 10
-1.487252
 20
3.746024
  0
VERTEX
  8
PLAN_1
 62
     2
  6
CONTINUOUS
 10
-1.485827
 20
3.743646
  0
VERTEX
  8
PLAN_1
 62
     2
  6
CONTINUOUS
 10
-1.483925
 20
3.741268
  0
VERTEX
  8
PLAN_1
 62
     2
  6
CONTINUOUS
 10
-1.481071
 20
3.739839
  0
VERTEX
  8
PLAN_1
 62
     2
  6
CONTINUOUS
 10
-1.477740
 20
3.738413
  0
VERTEX
  8
PLAN_1
 62
     2
  6
CONTINUOUS
 10
-1.472984
 20
3.737937
  0
VERTEX
  8
PLAN_1
 62
     2
  6
CONTINUOUS
 10
-1.469654
 20
3.738413
  0
VERTEX
  8
PLAN_1
 62
     2
  6
CONTINUOUS
 10
-1.466327
 20
3.738890
  0
VERTEX
  8
PLAN_1
 62
     2
  6
CONTINUOUS
 10
-1.463949
 20
3.740315
  0
VERTEX
  8
PLAN_1
 62
     2
  6
CONTINUOUS
 10
-1.461571
 20
3.742217
  0
VERTEX
  8
PLAN_1
 62
     2
  6
CONTINUOUS
 10
-1.459665
 20
3.744118
  0
VERTEX
  8
PLAN_1
 62
     2
  6
CONTINUOUS
 10
-1.458240
 20
3.746500
  0
VERTEX
  8
PLAN_1
 62
     2
  6
CONTINUOUS
 10
-1.457287
 20
3.749350
  0
VERTEX
  8
PLAN_1
 62
     2
  6
CONTINUOUS
 10
-1.456815
 20
3.752205
  0
VERTEX
  8
PLAN_1
 62
     2
  6
CONTINUOUS
 10
-1.457287
 20
3.754583
  0
VERTEX
  8
PLAN_1
 62
     2
  6
CONTINUOUS
 10
-1.457287
 20
3.756488
  0
VERTEX
  8
PLAN_1
 62
     2
  6
CONTINUOUS
 10
-1.458240
 20
3.757913
  0
VERTEX
  8
PLAN_1
 62
     2
  6
CONTINUOUS
 10
-1.458717
 20
3.759339
  0
VERTEX
  8
PLAN_1
 62
     2
  6
CONTINUOUS
 10
-1.460618
 20
3.761717
  0
VERTEX
  8
PLAN_1
 62
     2
  6
CONTINUOUS
 10
-1.462996
 20
3.763622
  0
VERTEX
  8
PLAN_1
 62
     2
  6
CONTINUOUS
 10
-1.465850
 20
3.764571
  0
VERTEX
  8
PLAN_1
 62
     2
  6
CONTINUOUS
 10
-1.468705
 20
3.765524
  0
VERTEX
  8
PLAN_1
 62
     2
  6
CONTINUOUS
 10
-1.471559
 20
3.765524
  0
VERTEX
  8
PLAN_1
 62
     2
  6
CONTINUOUS
 10
-1.473937
 20
3.765524
  0
VERTEX
  8
PLAN_1
 62
     2
  6
CONTINUOUS
 10
-1.474409
 20
3.765524
  0
VERTEX
  8
PLAN_1
 62
     2
  6
CONTINUOUS
 10
-1.475362
 20
3.765524
  0
VERTEX
  8
PLAN_1
 62
     2
  6
CONTINUOUS
 10
-1.475839
 20
3.765524
  0
VERTEX
  8
PLAN_1
 62
     2
  6
CONTINUOUS
 10
-1.476315
 20
3.765524
  0
VERTEX
  8
PLAN_1
 62
     2
  6
CONTINUOUS
 10
-1.476791
 20
3.765524
  0
VERTEX
  8
PLAN_1
 62
     2
  6
CONTINUOUS
 10
-1.477264
 20
3.765524
  0
VERTEX
  8
PLAN_1
 62
     2
  6
CONTINUOUS
 10
-1.477740
 20
3.765524
  0
VERTEX
  8
PLAN_1
 62
     2
  6
CONTINUOUS
 10
-1.478217
 20
3.765524
  0
VERTEX
  8
PLAN_1
 62
     2
  6
CONTINUOUS
 10
-1.478217
 20
3.773610
  0
SEQEND
  8
0
  0
POLYLINE
  8
PLAN_1
 62
     2
  6
CONTINUOUS
 66
     1
 40
0.003000
 41
0.003000
  0
VERTEX
  8
PLAN_1
 62
     2
  6
CONTINUOUS
 10
-1.406398
 20
3.731752
  0
VERTEX
  8
PLAN_1
 62
     2
  6
CONTINUOUS
 10
-1.415909
 20
3.731752
  0
VERTEX
  8
PLAN_1
 62
     2
  6
CONTINUOUS
 10
-1.415909
 20
3.783598
  0
VERTEX
  8
PLAN_1
 62
     2
  6
CONTINUOUS
 10
-1.433031
 20
3.783598
  0
VERTEX
  8
PLAN_1
 62
     2
  6
CONTINUOUS
 10
-1.433031
 20
3.791209
  0
VERTEX
  8
PLAN_1
 62
     2
  6
CONTINUOUS
 10
-1.429228
 20
3.791209
  0
VERTEX
  8
PLAN_1
 62
     2
  6
CONTINUOUS
 10
-1.425421
 20
3.791681
  0
VERTEX
  8
PLAN_1
 62
     2
  6
CONTINUOUS
 10
-1.422567
 20
3.792634
  0
VERTEX
  8
PLAN_1
 62
     2
  6
CONTINUOUS
 10
-1.420189
 20
3.794059
  0
VERTEX
  8
PLAN_1
 62
     2
  6
CONTINUOUS
 10
-1.417811
 20
3.795488
  0
VERTEX
  8
PLAN_1
 62
     2
  6
CONTINUOUS
 10
-1.415909
 20
3.797866
  0
VERTEX
  8
PLAN_1
 62
     2
  6
CONTINUOUS
 10
-1.414484
 20
3.801197
  0
VERTEX
  8
PLAN_1
 62
     2
  6
CONTINUOUS
 10
-1.413531
 20
3.805000
  0
VERTEX
  8
PLAN_1
 62
     2
  6
CONTINUOUS
 10
-1.406398
 20
3.805000
  0
VERTEX
  8
PLAN_1
 62
     2
  6
CONTINUOUS
 10
-1.406398
 20
3.731752
  0
SEQEND
  8
0
  0
POLYLINE
  8
PLAN_1
 62
     2
  6
CONTINUOUS
 66
     1
 40
0.003000
 41
0.003000
  0
VERTEX
  8
PLAN_1
 62
     2
  6
CONTINUOUS
 10
-1.376909
 20
3.731752
  0
VERTEX
  8
PLAN_1
 62
     2
  6
CONTINUOUS
 10
-1.371201
 20
3.731752
  0
VERTEX
  8
PLAN_1
 62
     2
  6
CONTINUOUS
 10
-1.371201
 20
3.729850
  0
VERTEX
  8
PLAN_1
 62
     2
  6
CONTINUOUS
 10
-1.371677
 20
3.728425
  0
VERTEX
  8
PLAN_1
 62
     2
  6
CONTINUOUS
 10
-1.371677
 20
3.726524
  0
VERTEX
  8
PLAN_1
 62
     2
  6
CONTINUOUS
 10
-1.372154
 20
3.725094
  0
VERTEX
  8
PLAN_1
 62
     2
  6
CONTINUOUS
 10
-1.373102
 20
3.723669
  0
VERTEX
  8
PLAN_1
 62
     2
  6
CONTINUOUS
 10
-1.374055
 20
3.722240
  0
VERTEX
  8
PLAN_1
 62
     2
  6
CONTINUOUS
 10
-1.375004
 20
3.721764
  0
VERTEX
  8
PLAN_1
 62
     2
  6
CONTINUOUS
 10
-1.376909
 20
3.721291
  0
VERTEX
  8
PLAN_1
 62
     2
  6
CONTINUOUS
 10
-1.376909
 20
3.716535
  0
VERTEX
  8
PLAN_1
 62
     2
  6
CONTINUOUS
 10
-1.375480
 20
3.716535
  0
VERTEX
  8
PLAN_1
 62
     2
  6
CONTINUOUS
 10
-1.374055
 20
3.717008
  0
VERTEX
  8
PLAN_1
 62
     2
  6
CONTINUOUS
 10
-1.372154
 20
3.717961
  0
VERTEX
  8
PLAN_1
 62
     2
  6
CONTINUOUS
 10
-1.370724
 20
3.719386
  0
VERTEX
  8
PLAN_1
 62
     2
  6
CONTINUOUS
 10
-1.368823
 20
3.721291
  0
VERTEX
  8
PLAN_1
 62
     2
  6
CONTINUOUS
 10
-1.367394
 20
3.724146
  0
VERTEX
  8
PLAN_1
 62
     2
  6
CONTINUOUS
 10
-1.366445
 20
3.727949
  0
VERTEX
  8
PLAN_1
 62
     2
  6
CONTINUOUS
 10
-1.365969
 20
3.732705
  0
VERTEX
  8
PLAN_1
 62
     2
  6
CONTINUOUS
 10
-1.365969
 20
3.742693
  0
VERTEX
  8
PLAN_1
 62
     2
  6
CONTINUOUS
 10
-1.376909
 20
3.742693
  0
VERTEX
  8
PLAN_1
 62
     2
  6
CONTINUOUS
 10
-1.376909
 20
3.731752
  0
SEQEND
  8
0
  0
POLYLINE
  8
PLAN_1
 62
     2
  6
CONTINUOUS
 66
     1
 40
0.003000
 41
0.003000
  0
VERTEX
  8
PLAN_1
 62
     2
  6
CONTINUOUS
 10
-1.353126
 20
3.803575
  0
VERTEX
  8
PLAN_1
 62
     2
  6
CONTINUOUS
 10
-1.302236
 20
3.803575
  0
VERTEX
  8
PLAN_1
 62
     2
  6
CONTINUOUS
 10
-1.302236
 20
3.795488
  0
VERTEX
  8
PLAN_1
 62
     2
  6
CONTINUOUS
 10
-1.305563
 20
3.791681
  0
VERTEX
  8
PLAN_1
 62
     2
  6
CONTINUOUS
 10
-1.309370
 20
3.786925
  0
VERTEX
  8
PLAN_1
 62
     2
  6
CONTINUOUS
 10
-1.313650
 20
3.780744
  0
VERTEX
  8
PLAN_1
 62
     2
  6
CONTINUOUS
 10
-1.318406
 20
3.773134
  0
VERTEX
  8
PLAN_1
 62
     2
  6
CONTINUOUS
 10
-1.322685
 20
3.764094
  0
VERTEX
  8
PLAN_1
 62
     2
  6
CONTINUOUS
 10
-1.326492
 20
3.754583
  0
VERTEX
  8
PLAN_1
 62
     2
  6
CONTINUOUS
 10
-1.328394
 20
3.749350
  0
VERTEX
  8
PLAN_1
 62
     2
  6
CONTINUOUS
 10
-1.329823
 20
3.743646
  0
VERTEX
  8
PLAN_1
 62
     2
  6
CONTINUOUS
 10
-1.331248
 20
3.737937
  0
VERTEX
  8
PLAN_1
 62
     2
  6
CONTINUOUS
 10
-1.332673
 20
3.731752
  0
VERTEX
  8
PLAN_1
 62
     2
  6
CONTINUOUS
 10
-1.342661
 20
3.731752
  0
VERTEX
  8
PLAN_1
 62
     2
  6
CONTINUOUS
 10
-1.341236
 20
3.739839
  0
VERTEX
  8
PLAN_1
 62
     2
  6
CONTINUOUS
 10
-1.338858
 20
3.747925
  0
VERTEX
  8
PLAN_1
 62
     2
  6
CONTINUOUS
 10
-1.335528
 20
3.756012
  0
VERTEX
  8
PLAN_1
 62
     2
  6
CONTINUOUS
 10
-1.332201
 20
3.764571
  0
VERTEX
  8
PLAN_1
 62
     2
  6
CONTINUOUS
 10
-1.327917
 20
3.772657
  0
VERTEX
  8
PLAN_1
 62
     2
  6
CONTINUOUS
 10
-1.323161
 20
3.780744
  0
VERTEX
  8
PLAN_1
 62
     2
  6
CONTINUOUS
 10
-1.317929
 20
3.787878
  0
VERTEX
  8
PLAN_1
 62
     2
  6
CONTINUOUS
 10
-1.312697
 20
3.794535
  0
VERTEX
  8
PLAN_1
 62
     2
  6
CONTINUOUS
 10
-1.353126
 20
3.794535
  0
VERTEX
  8
PLAN_1
 62
     2
  6
CONTINUOUS
 10
-1.353126
 20
3.803575
  0
SEQEND
  8
0
  0
POLYLINE
  8
PLAN_1
 62
     2
  6
CONTINUOUS
 66
     1
 40
0.004280
 41
0.004280
  0
VERTEX
  8
PLAN_1
 62
     2
  6
CONTINUOUS
 10
-1.133862
 20
2.986925
  0
VERTEX
  8
PLAN_1
 62
     2
  6
CONTINUOUS
 10
-0.635886
 20
2.986925
  0
SEQEND
  8
0
  0
SOLID
  8
PLAN_1
 62
     2
 10
-0.900807
 20
2.986925
 11
-0.959783
 21
3.002622
 12
-0.900807
 22
2.986925
 13
-0.959783
 23
2.971228
  0
POLYLINE
  8
PLAN_1
 62
     2
  6
CONTINUOUS
 66
     1
 40
0.003000
 41
0.003000
  0
VERTEX
  8
PLAN_1
 62
     2
  6
CONTINUOUS
 10
-0.900807
 20
2.986925
  0
VERTEX
  8
PLAN_1
 62
     2
  6
CONTINUOUS
 10
-0.959783
 20
3.002622
  0
VERTEX
  8
PLAN_1
 62
     2
  6
CONTINUOUS
 10
-0.959783
 20
2.971228
  0
VERTEX
  8
PLAN_1
 62
     2
  6
CONTINUOUS
 10
-0.900807
 20
2.986925
  0
SEQEND
  8
0
  0
SOLID
  8
PLAN_1
 62
     2
 10
-0.665374
 20
2.986925
 11
-0.606398
 21
3.002622
 12
-0.665374
 22
2.986925
 13
-0.606398
 23
2.971228
  0
POLYLINE
  8
PLAN_1
 62
     2
  6
CONTINUOUS
 66
     1
 40
0.003000
 41
0.003000
  0
VERTEX
  8
PLAN_1
 62
     2
  6
CONTINUOUS
 10
-0.665374
 20
2.986925
  0
VERTEX
  8
PLAN_1
 62
     2
  6
CONTINUOUS
 10
-0.606398
 20
3.002622
  0
VERTEX
  8
PLAN_1
 62
     2
  6
CONTINUOUS
 10
-0.606398
 20
2.971228
  0
VERTEX
  8
PLAN_1
 62
     2
  6
CONTINUOUS
 10
-0.665374
 20
2.986925
  0
SEQEND
  8
0
  0
POLYLINE
  8
PLAN_1
 62
     2
  6
CONTINUOUS
 66
     1
 40
0.003000
 41
0.003000
  0
VERTEX
  8
PLAN_1
 62
     2
  6
CONTINUOUS
 10
-1.053961
 20
3.074917
  0
VERTEX
  8
PLAN_1
 62
     2
  6
CONTINUOUS
 10
-1.051579
 20
3.071587
  0
VERTEX
  8
PLAN_1
 62
     2
  6
CONTINUOUS
 10
-1.050154
 20
3.068256
  0
VERTEX
  8
PLAN_1
 62
     2
  6
CONTINUOUS
 10
-1.048728
 20
3.064929
  0
VERTEX
  8
PLAN_1
 62
     2
  6
CONTINUOUS
 10
-1.047299
 20
3.061598
  0
VERTEX
  8
PLAN_1
 62
     2
  6
CONTINUOUS
 10
-1.046350
 20
3.058268
  0
VERTEX
  8
PLAN_1
 62
     2
  6
CONTINUOUS
 10
-1.045874
 20
3.054465
  0
VERTEX
  8
PLAN_1
 62
     2
  6
CONTINUOUS
 10
-1.045398
 20
3.051134
  0
VERTEX
  8
PLAN_1
 62
     2
  6
CONTINUOUS
 10
-1.045398
 20
3.048280
  0
VERTEX
  8
PLAN_1
 62
     2
  6
CONTINUOUS
 10
-1.045874
 20
3.041622
  0
VERTEX
  8
PLAN_1
 62
     2
  6
CONTINUOUS
 10
-1.047299
 20
3.034965
  0
VERTEX
  8
PLAN_1
 62
     2
  6
CONTINUOUS
 10
-1.048252
 20
3.031634
  0
VERTEX
  8
PLAN_1
 62
     2
  6
CONTINUOUS
 10
-1.049677
 20
3.028303
  0
VERTEX
  8
PLAN_1
 62
     2
  6
CONTINUOUS
 10
-1.051106
 20
3.025449
  0
VERTEX
  8
PLAN_1
 62
     2
  6
CONTINUOUS
 10
-1.053008
 20
3.022598
  0
VERTEX
  8
PLAN_1
 62
     2
  6
CONTINUOUS
 10
-1.055386
 20
3.019744
  0
VERTEX
  8
PLAN_1
 62
     2
  6
CONTINUOUS
 10
-1.058240
 20
3.016890
  0
VERTEX
  8
PLAN_1
 62
     2
  6
CONTINUOUS
 10
-1.061094
 20
3.014512
  0
VERTEX
  8
PLAN_1
 62
     2
  6
CONTINUOUS
 10
-1.064421
 20
3.012610
  0
VERTEX
  8
PLAN_1
 62
     2
  6
CONTINUOUS
 10
-1.068228
 20
3.011181
  0
VERTEX
  8
PLAN_1
 62
     2
  6
CONTINUOUS
 10
-1.072508
 20
3.009756
  0
VERTEX
  8
PLAN_1
 62
     2
  6
CONTINUOUS
 10
-1.076787
 20
3.008803
  0
VERTEX
  8
PLAN_1
 62
     2
  6
CONTINUOUS
 10
-1.082020
 20
3.008803
  0
VERTEX
  8
PLAN_1
 62
     2
  6
CONTINUOUS
 10
-1.085827
 20
3.008803
  0
VERTEX
  8
PLAN_1
 62
     2
  6
CONTINUOUS
 10
-1.089630
 20
3.009280
  0
VERTEX
  8
PLAN_1
 62
     2
  6
CONTINUOUS
 10
-1.092961
 20
3.010232
  0
VERTEX
  8
PLAN_1
 62
     2
  6
CONTINUOUS
 10
-1.096291
 20
3.011181
  0
VERTEX
  8
PLAN_1
 62
     2
  6
CONTINUOUS
 10
-1.099142
 20
3.012610
  0
VERTEX
  8
PLAN_1
 62
     2
  6
CONTINUOUS
 10
-1.101520
 20
3.014035
  0
VERTEX
  8
PLAN_1
 62
     2
  6
CONTINUOUS
 10
-1.104374
 20
3.015937
  0
VERTEX
  8
PLAN_1
 62
     2
  6
CONTINUOUS
 10
-1.106276
 20
3.017843
  0
VERTEX
  8
PLAN_1
 62
     2
  6
CONTINUOUS
 10
-1.114839
 20
3.008803
  0
VERTEX
  8
PLAN_1
 62
     2
  6
CONTINUOUS
 10
-1.118169
 20
3.011657
  0
VERTEX
  8
PLAN_1
 62
     2
  6
CONTINUOUS
 10
-1.109606
 20
3.021169
  0
VERTEX
  8
PLAN_1
 62
     2
  6
CONTINUOUS
 10
-1.111508
 20
3.024024
  0
VERTEX
  8
PLAN_1
 62
     2
  6
CONTINUOUS
 10
-1.113413
 20
3.027354
  0
VERTEX
  8
PLAN_1
 62
     2
  6
CONTINUOUS
 10
-1.114839
 20
3.030681
  0
VERTEX
  8
PLAN_1
 62
     2
  6
CONTINUOUS
 10
-1.116264
 20
3.034488
  0
VERTEX
  8
PLAN_1
 62
     2
  6
CONTINUOUS
 10
-1.117217
 20
3.037815
  0
VERTEX
  8
PLAN_1
 62
     2
  6
CONTINUOUS
 10
-1.117693
 20
3.041146
  0
VERTEX
  8
PLAN_1
 62
     2
  6
CONTINUOUS
 10
-1.118169
 20
3.044953
  0
VERTEX
  8
PLAN_1
 62
     2
  6
CONTINUOUS
 10
-1.118169
 20
3.048280
  0
VERTEX
  8
PLAN_1
 62
     2
  6
CONTINUOUS
 10
-1.117693
 20
3.054465
  0
VERTEX
  8
PLAN_1
 62
     2
  6
CONTINUOUS
 10
-1.116264
 20
3.061122
  0
VERTEX
  8
PLAN_1
 62
     2
  6
CONTINUOUS
 10
-1.115315
 20
3.064453
  0
VERTEX
  8
PLAN_1
 62
     2
  6
CONTINUOUS
 10
-1.113886
 20
3.067780
  0
VERTEX
  8
PLAN_1
 62
     2
  6
CONTINUOUS
 10
-1.112461
 20
3.070634
  0
VERTEX
  8
PLAN_1
 62
     2
  6
CONTINUOUS
 10
-1.110559
 20
3.073965
  0
VERTEX
  8
PLAN_1
 62
     2
  6
CONTINUOUS
 10
-1.108181
 20
3.076819
  0
VERTEX
  8
PLAN_1
 62
     2
  6
CONTINUOUS
 10
-1.105803
 20
3.079197
  0
VERTEX
  8
PLAN_1
 62
     2
  6
CONTINUOUS
 10
-1.102472
 20
3.081575
  0
VERTEX
  8
PLAN_1
 62
     2
  6
CONTINUOUS
 10
-1.099142
 20
3.083476
  0
VERTEX
  8
PLAN_1
 62
     2
  6
CONTINUOUS
 10
-1.095339
 20
3.085378
  0
VERTEX
  8
PLAN_1
 62
     2
  6
CONTINUOUS
 10
-1.091531
 20
3.086331
  0
VERTEX
  8
PLAN_1
 62
     2
  6
CONTINUOUS
 10
-1.086776
 20
3.087283
  0
VERTEX
  8
PLAN_1
 62
     2
  6
CONTINUOUS
 10
-1.082020
 20
3.087283
  0
VERTEX
  8
PLAN_1
 62
     2
  6
CONTINUOUS
 10
-1.077740
 20
3.087283
  0
VERTEX
  8
PLAN_1
 62
     2
  6
CONTINUOUS
 10
-1.073933
 20
3.086807
  0
VERTEX
  8
PLAN_1
 62
     2
  6
CONTINUOUS
 10
-1.070606
 20
3.085854
  0
VERTEX
  8
PLAN_1
 62
     2
  6
CONTINUOUS
 10
-1.067276
 20
3.084906
  0
VERTEX
  8
PLAN_1
 62
     2
  6
CONTINUOUS
 10
-1.064421
 20
3.083476
  0
VERTEX
  8
PLAN_1
 62
     2
  6
CONTINUOUS
 10
-1.061567
 20
3.082051
  0
VERTEX
  8
PLAN_1
 62
     2
  6
CONTINUOUS
 10
-1.059189
 20
3.080146
  0
VERTEX
  8
PLAN_1
 62
     2
  6
CONTINUOUS
 10
-1.056811
 20
3.078244
  0
VERTEX
  8
PLAN_1
 62
     2
  6
CONTINUOUS
 10
-1.048728
 20
3.087283
  0
VERTEX
  8
PLAN_1
 62
     2
  6
CONTINUOUS
 10
-1.045398
 20
3.084429
  0
VERTEX
  8
PLAN_1
 62
     2
  6
CONTINUOUS
 10
-1.053961
 20
3.074917
  0
SEQEND
  8
0
  0
POLYLINE
  8
PLAN_1
 62
     2
  6
CONTINUOUS
 66
     1
 40
0.003000
 41
0.003000
  0
VERTEX
  8
PLAN_1
 62
     2
  6
CONTINUOUS
 10
-1.099618
 20
3.024976
  0
VERTEX
  8
PLAN_1
 62
     2
  6
CONTINUOUS
 10
-1.098193
 20
3.023547
  0
VERTEX
  8
PLAN_1
 62
     2
  6
CONTINUOUS
 10
-1.096291
 20
3.022122
  0
VERTEX
  8
PLAN_1
 62
     2
  6
CONTINUOUS
 10
-1.093909
 20
3.020693
  0
VERTEX
  8
PLAN_1
 62
     2
  6
CONTINUOUS
 10
-1.092008
 20
3.019744
  0
VERTEX
  8
PLAN_1
 62
     2
  6
CONTINUOUS
 10
-1.089630
 20
3.018791
  0
VERTEX
  8
PLAN_1
 62
     2
  6
CONTINUOUS
 10
-1.087252
 20
3.018315
  0
VERTEX
  8
PLAN_1
 62
     2
  6
CONTINUOUS
 10
-1.084398
 20
3.017843
  0
VERTEX
  8
PLAN_1
 62
     2
  6
CONTINUOUS
 10
-1.082020
 20
3.017843
  0
VERTEX
  8
PLAN_1
 62
     2
  6
CONTINUOUS
 10
-1.078693
 20
3.017843
  0
VERTEX
  8
PLAN_1
 62
     2
  6
CONTINUOUS
 10
-1.075839
 20
3.018315
  0
VERTEX
  8
PLAN_1
 62
     2
  6
CONTINUOUS
 10
-1.073461
 20
3.018791
  0
VERTEX
  8
PLAN_1
 62
     2
  6
CONTINUOUS
 10
-1.071083
 20
3.019744
  0
VERTEX
  8
PLAN_1
 62
     2
  6
CONTINUOUS
 10
-1.068705
 20
3.021169
  0
VERTEX
  8
PLAN_1
 62
     2
  6
CONTINUOUS
 10
-1.066327
 20
3.022598
  0
VERTEX
  8
PLAN_1
 62
     2
  6
CONTINUOUS
 10
-1.064421
 20
3.024500
  0
VERTEX
  8
PLAN_1
 62
     2
  6
CONTINUOUS
 10
-1.062520
 20
3.026402
  0
VERTEX
  8
PLAN_1
 62
     2
  6
CONTINUOUS
 10
-1.061094
 20
3.028303
  0
VERTEX
  8
PLAN_1
 62
     2
  6
CONTINUOUS
 10
-1.059665
 20
3.030681
  0
VERTEX
  8
PLAN_1
 62
     2
  6
CONTINUOUS
 10
-1.058717
 20
3.033059
  0
VERTEX
  8
PLAN_1
 62
     2
  6
CONTINUOUS
 10
-1.057764
 20
3.035913
  0
VERTEX
  8
PLAN_1
 62
     2
  6
CONTINUOUS
 10
-1.056339
 20
3.041622
  0
VERTEX
  8
PLAN_1
 62
     2
  6
CONTINUOUS
 10
-1.055862
 20
3.048280
  0
VERTEX
  8
PLAN_1
 62
     2
  6
CONTINUOUS
 10
-1.055862
 20
3.050657
  0
VERTEX
  8
PLAN_1
 62
     2
  6
CONTINUOUS
 10
-1.056339
 20
3.053512
  0
VERTEX
  8
PLAN_1
 62
     2
  6
CONTINUOUS
 10
-1.056339
 20
3.055890
  0
VERTEX
  8
PLAN_1
 62
     2
  6
CONTINUOUS
 10
-1.057287
 20
3.058744
  0
VERTEX
  8
PLAN_1
 62
     2
  6
CONTINUOUS
 10
-1.057764
 20
3.061122
  0
VERTEX
  8
PLAN_1
 62
     2
  6
CONTINUOUS
 10
-1.058717
 20
3.063024
  0
VERTEX
  8
PLAN_1
 62
     2
  6
CONTINUOUS
 10
-1.059665
 20
3.065402
  0
VERTEX
  8
PLAN_1
 62
     2
  6
CONTINUOUS
 10
-1.061094
 20
3.067307
  0
VERTEX
  8
PLAN_1
 62
     2
  6
CONTINUOUS
 10
-1.099618
 20
3.024976
  0
SEQEND
  8
0
  0
POLYLINE
  8
PLAN_1
 62
     2
  6
CONTINUOUS
 66
     1
 40
0.003000
 41
0.003000
  0
VERTEX
  8
PLAN_1
 62
     2
  6
CONTINUOUS
 10
-1.063472
 20
3.070634
  0
VERTEX
  8
PLAN_1
 62
     2
  6
CONTINUOUS
 10
-1.065374
 20
3.072539
  0
VERTEX
  8
PLAN_1
 62
     2
  6
CONTINUOUS
 10
-1.067276
 20
3.073965
  0
VERTEX
  8
PLAN_1
 62
     2
  6
CONTINUOUS
 10
-1.069177
 20
3.075390
  0
VERTEX
  8
PLAN_1
 62
     2
  6
CONTINUOUS
 10
-1.071555
 20
3.076343
  0
VERTEX
  8
PLAN_1
 62
     2
  6
CONTINUOUS
 10
-1.073933
 20
3.077295
  0
VERTEX
  8
PLAN_1
 62
     2
  6
CONTINUOUS
 10
-1.076315
 20
3.077768
  0
VERTEX
  8
PLAN_1
 62
     2
  6
CONTINUOUS
 10
-1.079165
 20
3.078244
  0
VERTEX
  8
PLAN_1
 62
     2
  6
CONTINUOUS
 10
-1.082020
 20
3.078244
  0
VERTEX
  8
PLAN_1
 62
     2
  6
CONTINUOUS
 10
-1.084874
 20
3.078244
  0
VERTEX
  8
PLAN_1
 62
     2
  6
CONTINUOUS
 10
-1.087728
 20
3.077768
  0
VERTEX
  8
PLAN_1
 62
     2
  6
CONTINUOUS
 10
-1.090106
 20
3.077295
  0
VERTEX
  8
PLAN_1
 62
     2
  6
CONTINUOUS
 10
-1.092961
 20
3.076343
  0
VERTEX
  8
PLAN_1
 62
     2
  6
CONTINUOUS
 10
-1.094862
 20
3.074917
  0
VERTEX
  8
PLAN_1
 62
     2
  6
CONTINUOUS
 10
-1.097240
 20
3.073488
  0
VERTEX
  8
PLAN_1
 62
     2
  6
CONTINUOUS
 10
-1.099142
 20
3.071587
  0
VERTEX
  8
PLAN_1
 62
     2
  6
CONTINUOUS
 10
-1.101047
 20
3.069685
  0
VERTEX
  8
PLAN_1
 62
     2
  6
CONTINUOUS
 10
-1.102472
 20
3.067780
  0
VERTEX
  8
PLAN_1
 62
     2
  6
CONTINUOUS
 10
-1.103898
 20
3.065402
  0
VERTEX
  8
PLAN_1
 62
     2
  6
CONTINUOUS
 10
-1.105327
 20
3.063024
  0
VERTEX
  8
PLAN_1
 62
     2
  6
CONTINUOUS
 10
-1.106276
 20
3.060173
  0
VERTEX
  8
PLAN_1
 62
     2
  6
CONTINUOUS
 10
-1.107228
 20
3.054465
  0
VERTEX
  8
PLAN_1
 62
     2
  6
CONTINUOUS
 10
-1.107705
 20
3.048280
  0
VERTEX
  8
PLAN_1
 62
     2
  6
CONTINUOUS
 10
-1.107705
 20
3.045425
  0
VERTEX
  8
PLAN_1
 62
     2
  6
CONTINUOUS
 10
-1.107705
 20
3.042575
  0
VERTEX
  8
PLAN_1
 62
     2
  6
CONTINUOUS
 10
-1.107228
 20
3.039720
  0
VERTEX
  8
PLAN_1
 62
     2
  6
CONTINUOUS
 10
-1.106276
 20
3.037343
  0
VERTEX
  8
PLAN_1
 62
     2
  6
CONTINUOUS
 10
-1.105803
 20
3.034965
  0
VERTEX
  8
PLAN_1
 62
     2
  6
CONTINUOUS
 10
-1.104850
 20
3.032587
  0
VERTEX
  8
PLAN_1
 62
     2
  6
CONTINUOUS
 10
-1.103898
 20
3.030681
  0
VERTEX
  8
PLAN_1
 62
     2
  6
CONTINUOUS
 10
-1.102472
 20
3.028303
  0
VERTEX
  8
PLAN_1
 62
     2
  6
CONTINUOUS
 10
-1.063472
 20
3.070634
  0
SEQEND
  8
0
  0
POLYLINE
  8
PLAN_1
 62
     2
  6
CONTINUOUS
 66
     1
 40
0.003000
 41
0.003000
  0
VERTEX
  8
PLAN_1
 62
     2
  6
CONTINUOUS
 10
-0.997835
 20
3.064453
  0
VERTEX
  8
PLAN_1
 62
     2
  6
CONTINUOUS
 10
-0.998311
 20
3.066831
  0
VERTEX
  8
PLAN_1
 62
     2
  6
CONTINUOUS
 10
-0.999264
 20
3.068732
  0
VERTEX
  8
PLAN_1
 62
     2
  6
CONTINUOUS
 10
-1.000213
 20
3.070634
  0
VERTEX
  8
PLAN_1
 62
     2
  6
CONTINUOUS
 10
-1.001642
 20
3.072539
  0
VERTEX
  8
PLAN_1
 62
     2
  6
CONTINUOUS
 10
-1.003543
 20
3.073965
  0
VERTEX
  8
PLAN_1
 62
     2
  6
CONTINUOUS
 10
-1.005445
 20
3.074917
  0
VERTEX
  8
PLAN_1
 62
     2
  6
CONTINUOUS
 10
-1.007823
 20
3.075390
  0
VERTEX
  8
PLAN_1
 62
     2
  6
CONTINUOUS
 10
-1.010677
 20
3.075866
  0
VERTEX
  8
PLAN_1
 62
     2
  6
CONTINUOUS
 10
-1.013055
 20
3.075390
  0
VERTEX
  8
PLAN_1
 62
     2
  6
CONTINUOUS
 10
-1.015433
 20
3.074917
  0
VERTEX
  8
PLAN_1
 62
     2
  6
CONTINUOUS
 10
-1.017335
 20
3.073965
  0
VERTEX
  8
PLAN_1
 62
     2
  6
CONTINUOUS
 10
-1.019236
 20
3.072539
  0
VERTEX
  8
PLAN_1
 62
     2
  6
CONTINUOUS
 10
-1.021142
 20
3.071110
  0
VERTEX
  8
PLAN_1
 62
     2
  6
CONTINUOUS
 10
-1.022091
 20
3.069209
  0
VERTEX
  8
PLAN_1
 62
     2
  6
CONTINUOUS
 10
-1.023520
 20
3.067307
  0
VERTEX
  8
PLAN_1
 62
     2
  6
CONTINUOUS
 10
-1.024469
 20
3.064929
  0
VERTEX
  8
PLAN_1
 62
     2
  6
CONTINUOUS
 10
-1.026374
 20
3.060646
  0
VERTEX
  8
PLAN_1
 62
     2
  6
CONTINUOUS
 10
-1.027323
 20
3.055890
  0
VERTEX
  8
PLAN_1
 62
     2
  6
CONTINUOUS
 10
-1.027799
 20
3.052087
  0
VERTEX
  8
PLAN_1
 62
     2
  6
CONTINUOUS
 10
-1.027799
 20
3.048756
  0
VERTEX
  8
PLAN_1
 62
     2
  6
CONTINUOUS
 10
-1.027799
 20
3.048280
  0
VERTEX
  8
PLAN_1
 62
     2
  6
CONTINUOUS
 10
-1.026846
 20
3.049709
  0
VERTEX
  8
PLAN_1
 62
     2
  6
CONTINUOUS
 10
-1.025421
 20
3.051610
  0
VERTEX
  8
PLAN_1
 62
     2
  6
CONTINUOUS
 10
-1.023996
 20
3.053035
  0
VERTEX
  8
PLAN_1
 62
     2
  6
CONTINUOUS
 10
-1.022091
 20
3.054465
  0
VERTEX
  8
PLAN_1
 62
     2
  6
CONTINUOUS
 10
-1.019713
 20
3.055413
  0
VERTEX
  8
PLAN_1
 62
     2
  6
CONTINUOUS
 10
-1.016858
 20
3.056366
  0
VERTEX
  8
PLAN_1
 62
     2
  6
CONTINUOUS
 10
-1.014008
 20
3.057319
  0
VERTEX
  8
PLAN_1
 62
     2
  6
CONTINUOUS
 10
-1.010201
 20
3.057319
  0
VERTEX
  8
PLAN_1
 62
     2
  6
CONTINUOUS
 10
-1.006870
 20
3.056843
  0
VERTEX
  8
PLAN_1
 62
     2
  6
CONTINUOUS
 10
-1.003067
 20
3.056366
  0
VERTEX
  8
PLAN_1
 62
     2
  6
CONTINUOUS
 10
-0.999264
 20
3.054465
  0
VERTEX
  8
PLAN_1
 62
     2
  6
CONTINUOUS
 10
-0.995457
 20
3.052087
  0
VERTEX
  8
PLAN_1
 62
     2
  6
CONTINUOUS
 10
-0.994031
 20
3.050657
  0
VERTEX
  8
PLAN_1
 62
     2
  6
CONTINUOUS
 10
-0.992126
 20
3.049232
  0
VERTEX
  8
PLAN_1
 62
     2
  6
CONTINUOUS
 10
-0.990701
 20
3.047331
  0
VERTEX
  8
PLAN_1
 62
     2
  6
CONTINUOUS
 10
-0.989748
 20
3.044953
  0
VERTEX
  8
PLAN_1
 62
     2
  6
CONTINUOUS
 10
-0.988799
 20
3.042575
  0
VERTEX
  8
PLAN_1
 62
     2
  6
CONTINUOUS
 10
-0.987846
 20
3.040197
  0
VERTEX
  8
PLAN_1
 62
     2
  6
CONTINUOUS
 10
-0.987370
 20
3.037343
  0
VERTEX
  8
PLAN_1
 62
     2
  6
CONTINUOUS
 10
-0.987370
 20
3.034012
  0
VERTEX
  8
PLAN_1
 62
     2
  6
CONTINUOUS
 10
-0.987370
 20
3.031634
  0
VERTEX
  8
PLAN_1
 62
     2
  6
CONTINUOUS
 10
-0.987846
 20
3.028780
  0
VERTEX
  8
PLAN_1
 62
     2
  6
CONTINUOUS
 10
-0.988323
 20
3.026402
  0
VERTEX
  8
PLAN_1
 62
     2
  6
CONTINUOUS
 10
-0.988799
 20
3.024024
  0
VERTEX
  8
PLAN_1
 62
     2
  6
CONTINUOUS
 10
-0.989748
 20
3.022122
  0
VERTEX
  8
PLAN_1
 62
     2
  6
CONTINUOUS
 10
-0.991177
 20
3.019744
  0
VERTEX
  8
PLAN_1
 62
     2
  6
CONTINUOUS
 10
-0.992602
 20
3.017843
  0
VERTEX
  8
PLAN_1
 62
     2
  6
CONTINUOUS
 10
-0.994504
 20
3.015937
  0
VERTEX
  8
PLAN_1
 62
     2
  6
CONTINUOUS
 10
-0.995933
 20
3.014512
  0
VERTEX
  8
PLAN_1
 62
     2
  6
CONTINUOUS
 10
-0.997358
 20
3.013083
  0
VERTEX
  8
PLAN_1
 62
     2
  6
CONTINUOUS
 10
-0.999264
 20
3.011657
  0
VERTEX
  8
PLAN_1
 62
     2
  6
CONTINUOUS
 10
-1.001165
 20
3.010705
  0
VERTEX
  8
PLAN_1
 62
     2
  6
CONTINUOUS
 10
-1.003543
 20
3.009756
  0
VERTEX
  8
PLAN_1
 62
     2
  6
CONTINUOUS
 10
-1.006398
 20
3.009280
  0
VERTEX
  8
PLAN_1
 62
     2
  6
CONTINUOUS
 10
-1.009252
 20
3.008803
  0
VERTEX
  8
PLAN_1
 62
     2
  6
CONTINUOUS
 10
-1.013055
 20
3.008803
  0
VERTEX
  8
PLAN_1
 62
     2
  6
CONTINUOUS
 10
-1.014957
 20
3.008803
  0
VERTEX
  8
PLAN_1
 62
     2
  6
CONTINUOUS
 10
-1.017335
 20
3.009280
  0
VERTEX
  8
PLAN_1
 62
     2
  6
CONTINUOUS
 10
-1.020189
 20
3.009756
  0
VERTEX
  8
PLAN_1
 62
     2
  6
CONTINUOUS
 10
-1.022567
 20
3.011181
  0
VERTEX
  8
PLAN_1
 62
     2
  6
CONTINUOUS
 10
-1.024945
 20
3.012610
  0
VERTEX
  8
PLAN_1
 62
     2
  6
CONTINUOUS
 10
-1.027323
 20
3.014512
  0
VERTEX
  8
PLAN_1
 62
     2
  6
CONTINUOUS
 10
-1.029701
 20
3.016413
  0
VERTEX
  8
PLAN_1
 62
     2
  6
CONTINUOUS
 10
-1.031606
 20
3.019268
  0
VERTEX
  8
PLAN_1
 62
     2
  6
CONTINUOUS
 10
-1.033031
 20
3.022122
  0
VERTEX
  8
PLAN_1
 62
     2
  6
CONTINUOUS
 10
-1.034457
 20
3.024976
  0
VERTEX
  8
PLAN_1
 62
     2
  6
CONTINUOUS
 10
-1.035409
 20
3.027831
  0
VERTEX
  8
PLAN_1
 62
     2
  6
CONTINUOUS
 10
-1.036362
 20
3.031157
  0
VERTEX
  8
PLAN_1
 62
     2
  6
CONTINUOUS
 10
-1.036835
 20
3.034488
  0
VERTEX
  8
PLAN_1
 62
     2
  6
CONTINUOUS
 10
-1.037311
 20
3.037815
  0
VERTEX
  8
PLAN_1
 62
     2
  6
CONTINUOUS
 10
-1.037311
 20
3.041146
  0
VERTEX
  8
PLAN_1
 62
     2
  6
CONTINUOUS
 10
-1.037311
 20
3.044953
  0
VERTEX
  8
PLAN_1
 62
     2
  6
CONTINUOUS
 10
-1.037311
 20
3.051134
  0
VERTEX
  8
PLAN_1
 62
     2
  6
CONTINUOUS
 10
-1.036362
 20
3.057791
  0
VERTEX
  8
PLAN_1
 62
     2
  6
CONTINUOUS
 10
-1.035409
 20
3.061122
  0
VERTEX
  8
PLAN_1
 62
     2
  6
CONTINUOUS
 10
-1.034457
 20
3.063976
  0
VERTEX
  8
PLAN_1
 62
     2
  6
CONTINUOUS
 10
-1.033508
 20
3.067307
  0
VERTEX
  8
PLAN_1
 62
     2
  6
CONTINUOUS
 10
-1.032079
 20
3.070157
  0
VERTEX
  8
PLAN_1
 62
     2
  6
CONTINUOUS
 10
-1.030177
 20
3.073012
  0
VERTEX
  8
PLAN_1
 62
     2
  6
CONTINUOUS
 10
-1.028276
 20
3.075866
  0
VERTEX
  8
PLAN_1
 62
     2
  6
CONTINUOUS
 10
-1.026374
 20
3.078244
  0
VERTEX
  8
PLAN_1
 62
     2
  6
CONTINUOUS
 10
-1.023520
 20
3.080146
  0
VERTEX
  8
PLAN_1
 62
     2
  6
CONTINUOUS
 10
-1.021142
 20
3.081575
  0
VERTEX
  8
PLAN_1
 62
     2
  6
CONTINUOUS
 10
-1.017811
 20
3.083000
  0
VERTEX
  8
PLAN_1
 62
     2
  6
CONTINUOUS
 10
-1.014008
 20
3.083476
  0
VERTEX
  8
PLAN_1
 62
     2
  6
CONTINUOUS
 10
-1.010201
 20
3.083953
  0
VERTEX
  8
PLAN_1
 62
     2
  6
CONTINUOUS
 10
-1.006870
 20
3.083476
  0
VERTEX
  8
PLAN_1
 62
     2
  6
CONTINUOUS
 10
-1.003543
 20
3.083000
  0
VERTEX
  8
PLAN_1
 62
     2
  6
CONTINUOUS
 10
-1.000213
 20
3.081575
  0
VERTEX
  8
PLAN_1
 62
     2
  6
CONTINUOUS
 10
-0.996882
 20
3.079673
  0
VERTEX
  8
PLAN_1
 62
     2
  6
CONTINUOUS
 10
-0.994031
 20
3.077295
  0
VERTEX
  8
PLAN_1
 62
     2
  6
CONTINUOUS
 10
-0.991654
 20
3.073488
  0
VERTEX
  8
PLAN_1
 62
     2
  6
CONTINUOUS
 10
-0.990701
 20
3.071587
  0
VERTEX
  8
PLAN_1
 62
     2
  6
CONTINUOUS
 10
-0.989748
 20
3.069685
  0
VERTEX
  8
PLAN_1
 62
     2
  6
CONTINUOUS
 10
-0.989276
 20
3.067307
  0
VERTEX
  8
PLAN_1
 62
     2
  6
CONTINUOUS
 10
-0.988799
 20
3.064453
  0
VERTEX
  8
PLAN_1
 62
     2
  6
CONTINUOUS
 10
-0.997835
 20
3.064453
  0
SEQEND
  8
0
  0
POLYLINE
  8
PLAN_1
 62
     2
  6
CONTINUOUS
 66
     1
 40
0.003000
 41
0.003000
  0
VERTEX
  8
PLAN_1
 62
     2
  6
CONTINUOUS
 10
-1.011154
 20
3.016890
  0
VERTEX
  8
PLAN_1
 62
     2
  6
CONTINUOUS
 10
-1.008299
 20
3.017366
  0
VERTEX
  8
PLAN_1
 62
     2
  6
CONTINUOUS
 10
-1.005445
 20
3.018315
  0
VERTEX
  8
PLAN_1
 62
     2
  6
CONTINUOUS
 10
-1.003067
 20
3.019744
  0
VERTEX
  8
PLAN_1
 62
     2
  6
CONTINUOUS
 10
-1.000689
 20
3.021646
  0
VERTEX
  8
PLAN_1
 62
     2
  6
CONTINUOUS
 10
-0.999264
 20
3.024024
  0
VERTEX
  8
PLAN_1
 62
     2
  6
CONTINUOUS
 10
-0.997835
 20
3.026878
  0
VERTEX
  8
PLAN_1
 62
     2
  6
CONTINUOUS
 10
-0.997358
 20
3.030209
  0
VERTEX
  8
PLAN_1
 62
     2
  6
CONTINUOUS
 10
-0.996882
 20
3.033535
  0
VERTEX
  8
PLAN_1
 62
     2
  6
CONTINUOUS
 10
-0.996882
 20
3.036390
  0
VERTEX
  8
PLAN_1
 62
     2
  6
CONTINUOUS
 10
-0.997358
 20
3.038768
  0
VERTEX
  8
PLAN_1
 62
     2
  6
CONTINUOUS
 10
-0.998787
 20
3.041622
  0
VERTEX
  8
PLAN_1
 62
     2
  6
CONTINUOUS
 10
-1.000213
 20
3.044000
  0
VERTEX
  8
PLAN_1
 62
     2
  6
CONTINUOUS
 10
-1.002114
 20
3.045902
  0
VERTEX
  8
PLAN_1
 62
     2
  6
CONTINUOUS
 10
-1.004492
 20
3.047803
  0
VERTEX
  8
PLAN_1
 62
     2
  6
CONTINUOUS
 10
-1.007823
 20
3.048756
  0
VERTEX
  8
PLAN_1
 62
     2
  6
CONTINUOUS
 10
-1.011630
 20
3.049232
  0
VERTEX
  8
PLAN_1
 62
     2
  6
CONTINUOUS
 10
-1.015433
 20
3.048756
  0
VERTEX
  8
PLAN_1
 62
     2
  6
CONTINUOUS
 10
-1.018287
 20
3.047803
  0
VERTEX
  8
PLAN_1
 62
     2
  6
CONTINUOUS
 10
-1.020665
 20
3.046378
  0
VERTEX
  8
PLAN_1
 62
     2
  6
CONTINUOUS
 10
-1.023043
 20
3.044476
  0
VERTEX
  8
PLAN_1
 62
     2
  6
CONTINUOUS
 10
-1.024469
 20
3.042098
  0
VERTEX
  8
PLAN_1
 62
     2
  6
CONTINUOUS
 10
-1.025898
 20
3.039244
  0
VERTEX
  8
PLAN_1
 62
     2
  6
CONTINUOUS
 10
-1.026374
 20
3.036390
  0
VERTEX
  8
PLAN_1
 62
     2
  6
CONTINUOUS
 10
-1.026846
 20
3.033059
  0
VERTEX
  8
PLAN_1
 62
     2
  6
CONTINUOUS
 10
-1.026374
 20
3.030209
  0
VERTEX
  8
PLAN_1
 62
     2
  6
CONTINUOUS
 10
-1.025898
 20
3.027354
  0
VERTEX
  8
PLAN_1
 62
     2
  6
CONTINUOUS
 10
-1.024469
 20
3.024500
  0
VERTEX
  8
PLAN_1
 62
     2
  6
CONTINUOUS
 10
-1.023043
 20
3.022122
  0
VERTEX
  8
PLAN_1
 62
     2
  6
CONTINUOUS
 10
-1.020665
 20
3.020220
  0
VERTEX
  8
PLAN_1
 62
     2
  6
CONTINUOUS
 10
-1.018287
 20
3.018315
  0
VERTEX
  8
PLAN_1
 62
     2
  6
CONTINUOUS
 10
-1.014957
 20
3.017366
  0
VERTEX
  8
PLAN_1
 62
     2
  6
CONTINUOUS
 10
-1.011154
 20
3.016890
  0
SEQEND
  8
0
  0
POLYLINE
  8
PLAN_1
 62
     2
  6
CONTINUOUS
 66
     1
 40
0.004280
 41
0.004280
  0
VERTEX
  8
PLAN_1
 62
     2
  6
CONTINUOUS
 10
-0.788559
 20
3.575272
  0
VERTEX
  8
PLAN_1
 62
     2
  6
CONTINUOUS
 10
-0.788559
 20
3.731752
  0
SEQEND
  8
0
  0
POLYLINE
  8
PLAN_1
 62
     2
  6
CONTINUOUS
 66
     1
 40
0.004280
 41
0.004280
  0
VERTEX
  8
PLAN_1
 62
     2
  6
CONTINUOUS
 10
-2.012343
 20
0.753390
  0
VERTEX
  8
PLAN_1
 62
     2
  6
CONTINUOUS
 10
-2.012343
 20
3.731752
  0
SEQEND
  8
0
  0
POLYLINE
  8
PLAN_1
 62
     2
  6
CONTINUOUS
 66
     1
 40
0.004280
 41
0.004280
  0
VERTEX
  8
PLAN_1
 62
     2
  6
CONTINUOUS
 10
-0.436122
 20
1.346020
  0
VERTEX
  8
PLAN_1
 62
     2
  6
CONTINUOUS
 10
-0.436122
 20
3.514394
  0
SEQEND
  8
0
  0
SOLID
  8
PLAN_1
 62
     2
 10
-0.436122
 20
3.543882
 11
-0.451819
 21
3.484906
 12
-0.436122
 22
3.543882
 13
-0.420425
 23
3.484906
  0
POLYLINE
  8
PLAN_1
 62
     2
  6
CONTINUOUS
 66
     1
 40
0.003000
 41
0.003000
  0
VERTEX
  8
PLAN_1
 62
     2
  6
CONTINUOUS
 10
-0.436122
 20
3.543882
  0
VERTEX
  8
PLAN_1
 62
     2
  6
CONTINUOUS
 10
-0.451819
 20
3.484906
  0
VERTEX
  8
PLAN_1
 62
     2
  6
CONTINUOUS
 10
-0.420425
 20
3.484906
  0
VERTEX
  8
PLAN_1
 62
     2
  6
CONTINUOUS
 10
-0.436122
 20
3.543882
  0
SEQEND
  8
0
  0
SOLID
  8
PLAN_1
 62
     2
 10
-0.436122
 20
1.316531
 11
-0.451819
 21
1.375508
 12
-0.436122
 22
1.316531
 13
-0.420425
 23
1.375508
  0
POLYLINE
  8
PLAN_1
 62
     2
  6
CONTINUOUS
 66
     1
 40
0.003000
 41
0.003000
  0
VERTEX
  8
PLAN_1
 62
     2
  6
CONTINUOUS
 10
-0.436122
 20
1.316531
  0
VERTEX
  8
PLAN_1
 62
     2
  6
CONTINUOUS
 10
-0.451819
 20
1.375508
  0
VERTEX
  8
PLAN_1
 62
     2
  6
CONTINUOUS
 10
-0.420425
 20
1.375508
  0
VERTEX
  8
PLAN_1
 62
     2
  6
CONTINUOUS
 10
-0.436122
 20
1.316531
  0
SEQEND
  8
0
  0
POLYLINE
  8
PLAN_1
 62
     2
  6
CONTINUOUS
 66
     1
 40
0.003000
 41
0.003000
  0
VERTEX
  8
PLAN_1
 62
     2
  6
CONTINUOUS
 10
-0.459429
 20
2.256366
  0
VERTEX
  8
PLAN_1
 62
     2
  6
CONTINUOUS
 10
-0.459429
 20
2.246378
  0
VERTEX
  8
PLAN_1
 62
     2
  6
CONTINUOUS
 10
-0.511272
 20
2.246378
  0
VERTEX
  8
PLAN_1
 62
     2
  6
CONTINUOUS
 10
-0.511272
 20
2.229256
  0
VERTEX
  8
PLAN_1
 62
     2
  6
CONTINUOUS
 10
-0.518882
 20
2.229256
  0
VERTEX
  8
PLAN_1
 62
     2
  6
CONTINUOUS
 10
-0.519358
 20
2.233535
  0
VERTEX
  8
PLAN_1
 62
     2
  6
CONTINUOUS
 10
-0.519831
 20
2.237339
  0
VERTEX
  8
PLAN_1
 62
     2
  6
CONTINUOUS
 10
-0.520307
 20
2.240193
  0
VERTEX
  8
PLAN_1
 62
     2
  6
CONTINUOUS
 10
-0.521736
 20
2.242571
  0
VERTEX
  8
PLAN_1
 62
     2
  6
CONTINUOUS
 10
-0.523161
 20
2.244949
  0
VERTEX
  8
PLAN_1
 62
     2
  6
CONTINUOUS
 10
-0.525539
 20
2.246378
  0
VERTEX
  8
PLAN_1
 62
     2
  6
CONTINUOUS
 10
-0.528870
 20
2.247803
  0
VERTEX
  8
PLAN_1
 62
     2
  6
CONTINUOUS
 10
-0.532673
 20
2.249232
  0
VERTEX
  8
PLAN_1
 62
     2
  6
CONTINUOUS
 10
-0.532673
 20
2.256366
  0
VERTEX
  8
PLAN_1
 62
     2
  6
CONTINUOUS
 10
-0.459429
 20
2.256366
  0
SEQEND
  8
0
  0
POLYLINE
  8
PLAN_1
 62
     2
  6
CONTINUOUS
 66
     1
 40
0.003000
 41
0.003000
  0
VERTEX
  8
PLAN_1
 62
     2
  6
CONTINUOUS
 10
-0.507465
 20
2.281098
  0
VERTEX
  8
PLAN_1
 62
     2
  6
CONTINUOUS
 10
-0.512697
 20
2.281575
  0
VERTEX
  8
PLAN_1
 62
     2
  6
CONTINUOUS
 10
-0.516976
 20
2.282524
  0
VERTEX
  8
PLAN_1
 62
     2
  6
CONTINUOUS
 10
-0.521260
 20
2.284425
  0
VERTEX
  8
PLAN_1
 62
     2
  6
CONTINUOUS
 10
-0.525063
 20
2.287280
  0
VERTEX
  8
PLAN_1
 62
     2
  6
CONTINUOUS
 10
-0.526965
 20
2.288709
  0
VERTEX
  8
PLAN_1
 62
     2
  6
CONTINUOUS
 10
-0.528394
 20
2.290610
  0
VERTEX
  8
PLAN_1
 62
     2
  6
CONTINUOUS
 10
-0.529819
 20
2.292512
  0
VERTEX
  8
PLAN_1
 62
     2
  6
CONTINUOUS
 10
-0.530772
 20
2.294413
  0
VERTEX
  8
PLAN_1
 62
     2
  6
CONTINUOUS
 10
-0.531724
 20
2.296791
  0
VERTEX
  8
PLAN_1
 62
     2
  6
CONTINUOUS
 10
-0.532197
 20
2.299173
  0
VERTEX
  8
PLAN_1
 62
     2
  6
CONTINUOUS
 10
-0.532673
 20
2.302024
  0
VERTEX
  8
PLAN_1
 62
     2
  6
CONTINUOUS
 10
-0.532673
 20
2.304878
  0
VERTEX
  8
PLAN_1
 62
     2
  6
CONTINUOUS
 10
-0.532673
 20
2.308685
  0
VERTEX
  8
PLAN_1
 62
     2
  6
CONTINUOUS
 10
-0.531724
 20
2.312488
  0
VERTEX
  8
PLAN_1
 62
     2
  6
CONTINUOUS
 10
-0.530772
 20
2.315819
  0
VERTEX
  8
PLAN_1
 62
     2
  6
CONTINUOUS
 10
-0.528870
 20
2.318673
  0
VERTEX
  8
PLAN_1
 62
     2
  6
CONTINUOUS
 10
-0.527441
 20
2.321051
  0
VERTEX
  8
PLAN_1
 62
     2
  6
CONTINUOUS
 10
-0.525063
 20
2.322953
  0
VERTEX
  8
PLAN_1
 62
     2
  6
CONTINUOUS
 10
-0.522685
 20
2.324854
  0
VERTEX
  8
PLAN_1
 62
     2
  6
CONTINUOUS
 10
-0.520307
 20
2.326283
  0
VERTEX
  8
PLAN_1
 62
     2
  6
CONTINUOUS
 10
-0.514598
 20
2.328185
  0
VERTEX
  8
PLAN_1
 62
     2
  6
CONTINUOUS
 10
-0.508894
 20
2.329610
  0
VERTEX
  8
PLAN_1
 62
     2
  6
CONTINUOUS
 10
-0.503661
 20
2.330087
  0
VERTEX
  8
PLAN_1
 62
     2
  6
CONTINUOUS
 10
-0.498906
 20
2.330563
  0
VERTEX
  8
PLAN_1
 62
     2
  6
CONTINUOUS
 10
-0.494622
 20
2.330087
  0
VERTEX
  8
PLAN_1
 62
     2
  6
CONTINUOUS
 10
-0.488917
 20
2.329610
  0
VERTEX
  8
PLAN_1
 62
     2
  6
CONTINUOUS
 10
-0.482256
 20
2.328661
  0
VERTEX
  8
PLAN_1
 62
     2
  6
CONTINUOUS
 10
-0.475122
 20
2.326283
  0
VERTEX
  8
PLAN_1
 62
     2
  6
CONTINUOUS
 10
-0.471795
 20
2.324854
  0
VERTEX
  8
PLAN_1
 62
     2
  6
CONTINUOUS
 10
-0.468465
 20
2.323429
  0
VERTEX
  8
PLAN_1
 62
     2
  6
CONTINUOUS
 10
-0.465610
 20
2.321051
  0
VERTEX
  8
PLAN_1
 62
     2
  6
CONTINUOUS
 10
-0.462756
 20
2.318673
  0
VERTEX
  8
PLAN_1
 62
     2
  6
CONTINUOUS
 10
-0.460854
 20
2.315819
  0
VERTEX
  8
PLAN_1
 62
     2
  6
CONTINUOUS
 10
-0.458953
 20
2.312012
  0
VERTEX
  8
PLAN_1
 62
     2
  6
CONTINUOUS
 10
-0.458000
 20
2.308209
  0
VERTEX
  8
PLAN_1
 62
     2
  6
CONTINUOUS
 10
-0.457524
 20
2.303929
  0
VERTEX
  8
PLAN_1
 62
     2
  6
CONTINUOUS
 10
-0.457524
 20
2.300598
  0
VERTEX
  8
PLAN_1
 62
     2
  6
CONTINUOUS
 10
-0.458000
 20
2.297744
  0
VERTEX
  8
PLAN_1
 62
     2
  6
CONTINUOUS
 10
-0.458953
 20
2.295366
  0
VERTEX
  8
PLAN_1
 62
     2
  6
CONTINUOUS
 10
-0.459902
 20
2.292988
  0
VERTEX
  8
PLAN_1
 62
     2
  6
CONTINUOUS
 10
-0.460854
 20
2.291087
  0
VERTEX
  8
PLAN_1
 62
     2
  6
CONTINUOUS
 10
-0.461807
 20
2.289185
  0
VERTEX
  8
PLAN_1
 62
     2
  6
CONTINUOUS
 10
-0.463232
 20
2.287756
  0
VERTEX
  8
PLAN_1
 62
     2
  6
CONTINUOUS
 10
-0.464657
 20
2.286331
  0
VERTEX
  8
PLAN_1
 62
     2
  6
CONTINUOUS
 10
-0.467988
 20
2.284425
  0
VERTEX
  8
PLAN_1
 62
     2
  6
CONTINUOUS
 10
-0.471319
 20
2.283000
  0
VERTEX
  8
PLAN_1
 62
     2
  6
CONTINUOUS
 10
-0.474173
 20
2.282524
  0
VERTEX
  8
PLAN_1
 62
     2
  6
CONTINUOUS
 10
-0.477028
 20
2.282047
  0
VERTEX
  8
PLAN_1
 62
     2
  6
CONTINUOUS
 10
-0.477028
 20
2.291087
  0
VERTEX
  8
PLAN_1
 62
     2
  6
CONTINUOUS
 10
-0.474646
 20
2.291563
  0
VERTEX
  8
PLAN_1
 62
     2
  6
CONTINUOUS
 10
-0.472268
 20
2.292512
  0
VERTEX
  8
PLAN_1
 62
     2
  6
CONTINUOUS
 10
-0.470366
 20
2.293465
  0
VERTEX
  8
PLAN_1
 62
     2
  6
CONTINUOUS
 10
-0.468465
 20
2.294890
  0
VERTEX
  8
PLAN_1
 62
     2
  6
CONTINUOUS
 10
-0.467039
 20
2.296319
  0
VERTEX
  8
PLAN_1
 62
     2
  6
CONTINUOUS
 10
-0.466087
 20
2.298697
  0
VERTEX
  8
PLAN_1
 62
     2
  6
CONTINUOUS
 10
-0.465610
 20
2.301075
  0
VERTEX
  8
PLAN_1
 62
     2
  6
CONTINUOUS
 10
-0.465134
 20
2.303453
  0
VERTEX
  8
PLAN_1
 62
     2
  6
CONTINUOUS
 10
-0.465610
 20
2.307256
  0
VERTEX
  8
PLAN_1
 62
     2
  6
CONTINUOUS
 10
-0.467039
 20
2.310110
  0
VERTEX
  8
PLAN_1
 62
     2
  6
CONTINUOUS
 10
-0.468941
 20
2.312965
  0
VERTEX
  8
PLAN_1
 62
     2
  6
CONTINUOUS
 10
-0.471795
 20
2.315343
  0
VERTEX
  8
PLAN_1
 62
     2
  6
CONTINUOUS
 10
-0.475598
 20
2.317244
  0
VERTEX
  8
PLAN_1
 62
     2
  6
CONTINUOUS
 10
-0.480354
 20
2.318673
  0
VERTEX
  8
PLAN_1
 62
     2
  6
CONTINUOUS
 10
-0.486063
 20
2.320098
  0
VERTEX
  8
PLAN_1
 62
     2
  6
CONTINUOUS
 10
-0.492720
 20
2.321051
  0
VERTEX
  8
PLAN_1
 62
     2
  6
CONTINUOUS
 10
-0.490819
 20
2.319622
  0
VERTEX
  8
PLAN_1
 62
     2
  6
CONTINUOUS
 10
-0.488917
 20
2.318197
  0
VERTEX
  8
PLAN_1
 62
     2
  6
CONTINUOUS
 10
-0.487488
 20
2.316295
  0
VERTEX
  8
PLAN_1
 62
     2
  6
CONTINUOUS
 10
-0.486539
 20
2.313917
  0
VERTEX
  8
PLAN_1
 62
     2
  6
CONTINUOUS
 10
-0.485110
 20
2.312012
  0
VERTEX
  8
PLAN_1
 62
     2
  6
CONTINUOUS
 10
-0.484634
 20
2.309157
  0
VERTEX
  8
PLAN_1
 62
     2
  6
CONTINUOUS
 10
-0.484161
 20
2.306780
  0
VERTEX
  8
PLAN_1
 62
     2
  6
CONTINUOUS
 10
-0.484161
 20
2.304402
  0
VERTEX
  8
PLAN_1
 62
     2
  6
CONTINUOUS
 10
-0.484634
 20
2.299173
  0
VERTEX
  8
PLAN_1
 62
     2
  6
CONTINUOUS
 10
-0.485587
 20
2.294890
  0
VERTEX
  8
PLAN_1
 62
     2
  6
CONTINUOUS
 10
-0.487488
 20
2.291087
  0
VERTEX
  8
PLAN_1
 62
     2
  6
CONTINUOUS
 10
-0.490343
 20
2.287756
  0
VERTEX
  8
PLAN_1
 62
     2
  6
CONTINUOUS
 10
-0.493673
 20
2.284902
  0
VERTEX
  8
PLAN_1
 62
     2
  6
CONTINUOUS
 10
-0.497953
 20
2.283000
  0
VERTEX
  8
PLAN_1
 62
     2
  6
CONTINUOUS
 10
-0.502232
 20
2.281575
  0
VERTEX
  8
PLAN_1
 62
     2
  6
CONTINUOUS
 10
-0.507465
 20
2.281098
  0
SEQEND
  8
0
  0
POLYLINE
  8
PLAN_1
 62
     2
  6
CONTINUOUS
 66
     1
 40
0.003000
 41
0.003000
  0
VERTEX
  8
PLAN_1
 62
     2
  6
CONTINUOUS
 10
-0.508894
 20
2.319622
  0
VERTEX
  8
PLAN_1
 62
     2
  6
CONTINUOUS
 10
-0.511748
 20
2.319622
  0
VERTEX
  8
PLAN_1
 62
     2
  6
CONTINUOUS
 10
-0.515075
 20
2.318673
  0
VERTEX
  8
PLAN_1
 62
     2
  6
CONTINUOUS
 10
-0.517453
 20
2.317720
  0
VERTEX
  8
PLAN_1
 62
     2
  6
CONTINUOUS
 10
-0.519831
 20
2.316295
  0
VERTEX
  8
PLAN_1
 62
     2
  6
CONTINUOUS
 10
-0.521736
 20
2.313917
  0
VERTEX
  8
PLAN_1
 62
     2
  6
CONTINUOUS
 10
-0.523161
 20
2.311539
  0
VERTEX
  8
PLAN_1
 62
     2
  6
CONTINUOUS
 10
-0.524114
 20
2.308685
  0
VERTEX
  8
PLAN_1
 62
     2
  6
CONTINUOUS
 10
-0.524587
 20
2.304878
  0
VERTEX
  8
PLAN_1
 62
     2
  6
CONTINUOUS
 10
-0.524114
 20
2.302024
  0
VERTEX
  8
PLAN_1
 62
     2
  6
CONTINUOUS
 10
-0.523161
 20
2.299173
  0
VERTEX
  8
PLAN_1
 62
     2
  6
CONTINUOUS
 10
-0.521736
 20
2.296791
  0
VERTEX
  8
PLAN_1
 62
     2
  6
CONTINUOUS
 10
-0.519831
 20
2.294413
  0
VERTEX
  8
PLAN_1
 62
     2
  6
CONTINUOUS
 10
-0.517453
 20
2.292988
  0
VERTEX
  8
PLAN_1
 62
     2
  6
CONTINUOUS
 10
-0.514598
 20
2.291563
  0
VERTEX
  8
PLAN_1
 62
     2
  6
CONTINUOUS
 10
-0.511748
 20
2.291087
  0
VERTEX
  8
PLAN_1
 62
     2
  6
CONTINUOUS
 10
-0.507941
 20
2.290610
  0
VERTEX
  8
PLAN_1
 62
     2
  6
CONTINUOUS
 10
-0.503185
 20
2.291087
  0
VERTEX
  8
PLAN_1
 62
     2
  6
CONTINUOUS
 10
-0.499854
 20
2.292035
  0
VERTEX
  8
PLAN_1
 62
     2
  6
CONTINUOUS
 10
-0.497000
 20
2.293941
  0
VERTEX
  8
PLAN_1
 62
     2
  6
CONTINUOUS
 10
-0.495098
 20
2.295843
  0
VERTEX
  8
PLAN_1
 62
     2
  6
CONTINUOUS
 10
-0.493673
 20
2.298220
  0
VERTEX
  8
PLAN_1
 62
     2
  6
CONTINUOUS
 10
-0.492720
 20
2.300598
  0
VERTEX
  8
PLAN_1
 62
     2
  6
CONTINUOUS
 10
-0.492244
 20
2.302976
  0
VERTEX
  8
PLAN_1
 62
     2
  6
CONTINUOUS
 10
-0.492244
 20
2.305354
  0
VERTEX
  8
PLAN_1
 62
     2
  6
CONTINUOUS
 10
-0.492244
 20
2.307732
  0
VERTEX
  8
PLAN_1
 62
     2
  6
CONTINUOUS
 10
-0.492720
 20
2.309634
  0
VERTEX
  8
PLAN_1
 62
     2
  6
CONTINUOUS
 10
-0.493673
 20
2.312012
  0
VERTEX
  8
PLAN_1
 62
     2
  6
CONTINUOUS
 10
-0.495098
 20
2.314390
  0
VERTEX
  8
PLAN_1
 62
     2
  6
CONTINUOUS
 10
-0.497476
 20
2.316295
  0
VERTEX
  8
PLAN_1
 62
     2
  6
CONTINUOUS
 10
-0.500331
 20
2.318197
  0
VERTEX
  8
PLAN_1
 62
     2
  6
CONTINUOUS
 10
-0.504138
 20
2.319146
  0
VERTEX
  8
PLAN_1
 62
     2
  6
CONTINUOUS
 10
-0.508894
 20
2.319622
  0
SEQEND
  8
0
  0
POLYLINE
  8
PLAN_1
 62
     2
  6
CONTINUOUS
 66
     1
 40
0.003000
 41
0.003000
  0
VERTEX
  8
PLAN_1
 62
     2
  6
CONTINUOUS
 10
-0.457524
 20
2.363854
  0
VERTEX
  8
PLAN_1
 62
     2
  6
CONTINUOUS
 10
-0.458000
 20
2.360051
  0
VERTEX
  8
PLAN_1
 62
     2
  6
CONTINUOUS
 10
-0.458476
 20
2.356720
  0
VERTEX
  8
PLAN_1
 62
     2
  6
CONTINUOUS
 10
-0.459902
 20
2.353394
  0
VERTEX
  8
PLAN_1
 62
     2
  6
CONTINUOUS
 10
-0.461331
 20
2.351016
  0
VERTEX
  8
PLAN_1
 62
     2
  6
CONTINUOUS
 10
-0.463232
 20
2.348638
  0
VERTEX
  8
PLAN_1
 62
     2
  6
CONTINUOUS
 10
-0.465610
 20
2.346732
  0
VERTEX
  8
PLAN_1
 62
     2
  6
CONTINUOUS
 10
-0.467988
 20
2.344831
  0
VERTEX
  8
PLAN_1
 62
     2
  6
CONTINUOUS
 10
-0.470843
 20
2.343406
  0
VERTEX
  8
PLAN_1
 62
     2
  6
CONTINUOUS
 10
-0.476551
 20
2.341028
  0
VERTEX
  8
PLAN_1
 62
     2
  6
CONTINUOUS
 10
-0.482732
 20
2.339598
  0
VERTEX
  8
PLAN_1
 62
     2
  6
CONTINUOUS
 10
-0.489394
 20
2.338650
  0
VERTEX
  8
PLAN_1
 62
     2
  6
CONTINUOUS
 10
-0.495098
 20
2.338650
  0
VERTEX
  8
PLAN_1
 62
     2
  6
CONTINUOUS
 10
-0.501283
 20
2.338650
  0
VERTEX
  8
PLAN_1
 62
     2
  6
CONTINUOUS
 10
-0.507465
 20
2.339598
  0
VERTEX
  8
PLAN_1
 62
     2
  6
CONTINUOUS
 10
-0.513650
 20
2.341028
  0
VERTEX
  8
PLAN_1
 62
     2
  6
CONTINUOUS
 10
-0.519831
 20
2.343406
  0
VERTEX
  8
PLAN_1
 62
     2
  6
CONTINUOUS
 10
-0.522209
 20
2.344831
  0
VERTEX
  8
PLAN_1
 62
     2
  6
CONTINUOUS
 10
-0.525063
 20
2.346732
  0
VERTEX
  8
PLAN_1
 62
     2
  6
CONTINUOUS
 10
-0.526965
 20
2.348638
  0
VERTEX
  8
PLAN_1
 62
     2
  6
CONTINUOUS
 10
-0.528870
 20
2.351016
  0
VERTEX
  8
PLAN_1
 62
     2
  6
CONTINUOUS
 10
-0.530772
 20
2.353394
  0
VERTEX
  8
PLAN_1
 62
     2
  6
CONTINUOUS
 10
-0.531724
 20
2.356720
  0
VERTEX
  8
PLAN_1
 62
     2
  6
CONTINUOUS
 10
-0.532673
 20
2.360051
  0
VERTEX
  8
PLAN_1
 62
     2
  6
CONTINUOUS
 10
-0.532673
 20
2.363854
  0
VERTEX
  8
PLAN_1
 62
     2
  6
CONTINUOUS
 10
-0.532673
 20
2.367661
  0
VERTEX
  8
PLAN_1
 62
     2
  6
CONTINUOUS
 10
-0.531724
 20
2.370992
  0
VERTEX
  8
PLAN_1
 62
     2
  6
CONTINUOUS
 10
-0.530772
 20
2.373843
  0
VERTEX
  8
PLAN_1
 62
     2
  6
CONTINUOUS
 10
-0.528870
 20
2.376697
  0
VERTEX
  8
PLAN_1
 62
     2
  6
CONTINUOUS
 10
-0.526965
 20
2.378602
  0
VERTEX
  8
PLAN_1
 62
     2
  6
CONTINUOUS
 10
-0.525063
 20
2.380980
  0
VERTEX
  8
PLAN_1
 62
     2
  6
CONTINUOUS
 10
-0.522209
 20
2.382406
  0
VERTEX
  8
PLAN_1
 62
     2
  6
CONTINUOUS
 10
-0.519831
 20
2.384307
  0
VERTEX
  8
PLAN_1
 62
     2
  6
CONTINUOUS
 10
-0.513650
 20
2.386213
  0
VERTEX
  8
PLAN_1
 62
     2
  6
CONTINUOUS
 10
-0.507465
 20
2.387638
  0
VERTEX
  8
PLAN_1
 62
     2
  6
CONTINUOUS
 10
-0.501283
 20
2.388591
  0
VERTEX
  8
PLAN_1
 62
     2
  6
CONTINUOUS
 10
-0.495098
 20
2.388591
  0
VERTEX
  8
PLAN_1
 62
     2
  6
CONTINUOUS
 10
-0.489394
 20
2.388591
  0
VERTEX
  8
PLAN_1
 62
     2
  6
CONTINUOUS
 10
-0.482732
 20
2.387638
  0
VERTEX
  8
PLAN_1
 62
     2
  6
CONTINUOUS
 10
-0.476551
 20
2.386213
  0
VERTEX
  8
PLAN_1
 62
     2
  6
CONTINUOUS
 10
-0.470843
 20
2.384307
  0
VERTEX
  8
PLAN_1
 62
     2
  6
CONTINUOUS
 10
-0.467988
 20
2.382406
  0
VERTEX
  8
PLAN_1
 62
     2
  6
CONTINUOUS
 10
-0.465610
 20
2.380980
  0
VERTEX
  8
PLAN_1
 62
     2
  6
CONTINUOUS
 10
-0.463232
 20
2.378602
  0
VERTEX
  8
PLAN_1
 62
     2
  6
CONTINUOUS
 10
-0.461331
 20
2.376697
  0
VERTEX
  8
PLAN_1
 62
     2
  6
CONTINUOUS
 10
-0.459902
 20
2.373843
  0
VERTEX
  8
PLAN_1
 62
     2
  6
CONTINUOUS
 10
-0.458476
 20
2.370992
  0
VERTEX
  8
PLAN_1
 62
     2
  6
CONTINUOUS
 10
-0.458000
 20
2.367661
  0
VERTEX
  8
PLAN_1
 62
     2
  6
CONTINUOUS
 10
-0.457524
 20
2.363854
  0
SEQEND
  8
0
  0
POLYLINE
  8
PLAN_1
 62
     2
  6
CONTINUOUS
 66
     1
 40
0.003000
 41
0.003000
  0
VERTEX
  8
PLAN_1
 62
     2
  6
CONTINUOUS
 10
-0.524587
 20
2.363854
  0
VERTEX
  8
PLAN_1
 62
     2
  6
CONTINUOUS
 10
-0.524587
 20
2.361953
  0
VERTEX
  8
PLAN_1
 62
     2
  6
CONTINUOUS
 10
-0.524114
 20
2.360051
  0
VERTEX
  8
PLAN_1
 62
     2
  6
CONTINUOUS
 10
-0.523161
 20
2.358150
  0
VERTEX
  8
PLAN_1
 62
     2
  6
CONTINUOUS
 10
-0.522685
 20
2.356720
  0
VERTEX
  8
PLAN_1
 62
     2
  6
CONTINUOUS
 10
-0.521260
 20
2.355295
  0
VERTEX
  8
PLAN_1
 62
     2
  6
CONTINUOUS
 10
-0.519831
 20
2.354343
  0
VERTEX
  8
PLAN_1
 62
     2
  6
CONTINUOUS
 10
-0.518406
 20
2.352917
  0
VERTEX
  8
PLAN_1
 62
     2
  6
CONTINUOUS
 10
-0.516504
 20
2.351965
  0
VERTEX
  8
PLAN_1
 62
     2
  6
CONTINUOUS
 10
-0.512697
 20
2.350539
  0
VERTEX
  8
PLAN_1
 62
     2
  6
CONTINUOUS
 10
-0.507465
 20
2.349110
  0
VERTEX
  8
PLAN_1
 62
     2
  6
CONTINUOUS
 10
-0.501760
 20
2.348638
  0
VERTEX
  8
PLAN_1
 62
     2
  6
CONTINUOUS
 10
-0.495098
 20
2.348161
  0
VERTEX
  8
PLAN_1
 62
     2
  6
CONTINUOUS
 10
-0.488441
 20
2.348638
  0
VERTEX
  8
PLAN_1
 62
     2
  6
CONTINUOUS
 10
-0.482732
 20
2.349110
  0
VERTEX
  8
PLAN_1
 62
     2
  6
CONTINUOUS
 10
-0.477976
 20
2.350539
  0
VERTEX
  8
PLAN_1
 62
     2
  6
CONTINUOUS
 10
-0.473697
 20
2.351965
  0
VERTEX
  8
PLAN_1
 62
     2
  6
CONTINUOUS
 10
-0.471795
 20
2.352917
  0
VERTEX
  8
PLAN_1
 62
     2
  6
CONTINUOUS
 10
-0.470366
 20
2.354343
  0
VERTEX
  8
PLAN_1
 62
     2
  6
CONTINUOUS
 10
-0.468941
 20
2.355295
  0
VERTEX
  8
PLAN_1
 62
     2
  6
CONTINUOUS
 10
-0.467988
 20
2.356720
  0
VERTEX
  8
PLAN_1
 62
     2
  6
CONTINUOUS
 10
-0.467039
 20
2.358150
  0
VERTEX
  8
PLAN_1
 62
     2
  6
CONTINUOUS
 10
-0.466563
 20
2.360051
  0
VERTEX
  8
PLAN_1
 62
     2
  6
CONTINUOUS
 10
-0.466087
 20
2.361953
  0
VERTEX
  8
PLAN_1
 62
     2
  6
CONTINUOUS
 10
-0.465610
 20
2.363854
  0
VERTEX
  8
PLAN_1
 62
     2
  6
CONTINUOUS
 10
-0.466087
 20
2.365760
  0
VERTEX
  8
PLAN_1
 62
     2
  6
CONTINUOUS
 10
-0.466563
 20
2.367185
  0
VERTEX
  8
PLAN_1
 62
     2
  6
CONTINUOUS
 10
-0.467039
 20
2.369087
  0
VERTEX
  8
PLAN_1
 62
     2
  6
CONTINUOUS
 10
-0.467988
 20
2.370516
  0
VERTEX
  8
PLAN_1
 62
     2
  6
CONTINUOUS
 10
-0.470366
 20
2.373370
  0
VERTEX
  8
PLAN_1
 62
     2
  6
CONTINUOUS
 10
-0.473697
 20
2.375272
  0
VERTEX
  8
PLAN_1
 62
     2
  6
CONTINUOUS
 10
-0.477976
 20
2.376697
  0
VERTEX
  8
PLAN_1
 62
     2
  6
CONTINUOUS
 10
-0.482732
 20
2.378126
  0
VERTEX
  8
PLAN_1
 62
     2
  6
CONTINUOUS
 10
-0.488441
 20
2.378602
  0
VERTEX
  8
PLAN_1
 62
     2
  6
CONTINUOUS
 10
-0.495098
 20
2.379075
  0
VERTEX
  8
PLAN_1
 62
     2
  6
CONTINUOUS
 10
-0.501760
 20
2.378602
  0
VERTEX
  8
PLAN_1
 62
     2
  6
CONTINUOUS
 10
-0.507465
 20
2.378126
  0
VERTEX
  8
PLAN_1
 62
     2
  6
CONTINUOUS
 10
-0.512697
 20
2.376697
  0
VERTEX
  8
PLAN_1
 62
     2
  6
CONTINUOUS
 10
-0.516504
 20
2.375272
  0
VERTEX
  8
PLAN_1
 62
     2
  6
CONTINUOUS
 10
-0.518406
 20
2.374319
  0
VERTEX
  8
PLAN_1
 62
     2
  6
CONTINUOUS
 10
-0.519831
 20
2.373370
  0
VERTEX
  8
PLAN_1
 62
     2
  6
CONTINUOUS
 10
-0.521260
 20
2.371941
  0
VERTEX
  8
PLAN_1
 62
     2
  6
CONTINUOUS
 10
-0.522685
 20
2.370516
  0
VERTEX
  8
PLAN_1
 62
     2
  6
CONTINUOUS
 10
-0.523161
 20
2.369087
  0
VERTEX
  8
PLAN_1
 62
     2
  6
CONTINUOUS
 10
-0.524114
 20
2.367185
  0
VERTEX
  8
PLAN_1
 62
     2
  6
CONTINUOUS
 10
-0.524587
 20
2.365760
  0
VERTEX
  8
PLAN_1
 62
     2
  6
CONTINUOUS
 10
-0.524587
 20
2.363854
  0
SEQEND
  8
0
  0
POLYLINE
  8
PLAN_1
 62
     2
  6
CONTINUOUS
 66
     1
 40
0.003000
 41
0.003000
  0
VERTEX
  8
PLAN_1
 62
     2
  6
CONTINUOUS
 10
-0.514126
 20
2.428539
  0
VERTEX
  8
PLAN_1
 62
     2
  6
CONTINUOUS
 10
-0.514126
 20
2.437102
  0
VERTEX
  8
PLAN_1
 62
     2
  6
CONTINUOUS
 10
-0.506516
 20
2.437102
  0
VERTEX
  8
PLAN_1
 62
     2
  6
CONTINUOUS
 10
-0.507465
 20
2.438055
  0
VERTEX
  8
PLAN_1
 62
     2
  6
CONTINUOUS
 10
-0.508894
 20
2.439004
  0
VERTEX
  8
PLAN_1
 62
     2
  6
CONTINUOUS
 10
-0.510319
 20
2.440909
  0
VERTEX
  8
PLAN_1
 62
     2
  6
CONTINUOUS
 10
-0.512220
 20
2.442335
  0
VERTEX
  8
PLAN_1
 62
     2
  6
CONTINUOUS
 10
-0.513173
 20
2.444713
  0
VERTEX
  8
PLAN_1
 62
     2
  6
CONTINUOUS
 10
-0.514598
 20
2.447091
  0
VERTEX
  8
PLAN_1
 62
     2
  6
CONTINUOUS
 10
-0.515075
 20
2.450421
  0
VERTEX
  8
PLAN_1
 62
     2
  6
CONTINUOUS
 10
-0.515551
 20
2.453748
  0
VERTEX
  8
PLAN_1
 62
     2
  6
CONTINUOUS
 10
-0.515075
 20
2.457079
  0
VERTEX
  8
PLAN_1
 62
     2
  6
CONTINUOUS
 10
-0.514598
 20
2.459933
  0
VERTEX
  8
PLAN_1
 62
     2
  6
CONTINUOUS
 10
-0.513650
 20
2.462311
  0
VERTEX
  8
PLAN_1
 62
     2
  6
CONTINUOUS
 10
-0.512220
 20
2.463736
  0
VERTEX
  8
PLAN_1
 62
     2
  6
CONTINUOUS
 10
-0.510795
 20
2.465642
  0
VERTEX
  8
PLAN_1
 62
     2
  6
CONTINUOUS
 10
-0.509370
 20
2.466591
  0
VERTEX
  8
PLAN_1
 62
     2
  6
CONTINUOUS
 10
-0.507941
 20
2.467543
  0
VERTEX
  8
PLAN_1
 62
     2
  6
CONTINUOUS
 10
-0.506516
 20
2.468020
  0
VERTEX
  8
PLAN_1
 62
     2
  6
CONTINUOUS
 10
-0.508417
 20
2.469921
  0
VERTEX
  8
PLAN_1
 62
     2
  6
CONTINUOUS
 10
-0.510319
 20
2.471346
  0
VERTEX
  8
PLAN_1
 62
     2
  6
CONTINUOUS
 10
-0.511748
 20
2.473252
  0
VERTEX
  8
PLAN_1
 62
     2
  6
CONTINUOUS
 10
-0.513173
 20
2.475154
  0
VERTEX
  8
PLAN_1
 62
     2
  6
CONTINUOUS
 10
-0.514126
 20
2.477055
  0
VERTEX
  8
PLAN_1
 62
     2
  6
CONTINUOUS
 10
-0.515075
 20
2.479433
  0
VERTEX
  8
PLAN_1
 62
     2
  6
CONTINUOUS
 10
-0.515551
 20
2.481811
  0
VERTEX
  8
PLAN_1
 62
     2
  6
CONTINUOUS
 10
-0.515551
 20
2.484665
  0
VERTEX
  8
PLAN_1
 62
     2
  6
CONTINUOUS
 10
-0.515551
 20
2.487043
  0
VERTEX
  8
PLAN_1
 62
     2
  6
CONTINUOUS
 10
-0.515075
 20
2.489898
  0
VERTEX
  8
PLAN_1
 62
     2
  6
CONTINUOUS
 10
-0.513650
 20
2.492752
  0
VERTEX
  8
PLAN_1
 62
     2
  6
CONTINUOUS
 10
-0.512220
 20
2.495130
  0
VERTEX
  8
PLAN_1
 62
     2
  6
CONTINUOUS
 10
-0.509843
 20
2.497984
  0
VERTEX
  8
PLAN_1
 62
     2
  6
CONTINUOUS
 10
-0.506516
 20
2.499886
  0
VERTEX
  8
PLAN_1
 62
     2
  6
CONTINUOUS
 10
-0.504610
 20
2.500362
  0
VERTEX
  8
PLAN_1
 62
     2
  6
CONTINUOUS
 10
-0.502232
 20
2.501311
  0
VERTEX
  8
PLAN_1
 62
     2
  6
CONTINUOUS
 10
-0.499854
 20
2.501311
  0
VERTEX
  8
PLAN_1
 62
     2
  6
CONTINUOUS
 10
-0.497476
 20
2.501787
  0
VERTEX
  8
PLAN_1
 62
     2
  6
CONTINUOUS
 10
-0.459429
 20
2.501787
  0
VERTEX
  8
PLAN_1
 62
     2
  6
CONTINUOUS
 10
-0.459429
 20
2.492276
  0
VERTEX
  8
PLAN_1
 62
     2
  6
CONTINUOUS
 10
-0.494622
 20
2.492276
  0
VERTEX
  8
PLAN_1
 62
     2
  6
CONTINUOUS
 10
-0.497476
 20
2.492276
  0
VERTEX
  8
PLAN_1
 62
     2
  6
CONTINUOUS
 10
-0.499854
 20
2.491799
  0
VERTEX
  8
PLAN_1
 62
     2
  6
CONTINUOUS
 10
-0.502232
 20
2.491323
  0
VERTEX
  8
PLAN_1
 62
     2
  6
CONTINUOUS
 10
-0.503661
 20
2.490374
  0
VERTEX
  8
PLAN_1
 62
     2
  6
CONTINUOUS
 10
-0.505563
 20
2.488945
  0
VERTEX
  8
PLAN_1
 62
     2
  6
CONTINUOUS
 10
-0.506516
 20
2.487043
  0
VERTEX
  8
PLAN_1
 62
     2
  6
CONTINUOUS
 10
-0.506988
 20
2.485142
  0
VERTEX
  8
PLAN_1
 62
     2
  6
CONTINUOUS
 10
-0.507465
 20
2.482287
  0
VERTEX
  8
PLAN_1
 62
     2
  6
CONTINUOUS
 10
-0.506988
 20
2.479433
  0
VERTEX
  8
PLAN_1
 62
     2
  6
CONTINUOUS
 10
-0.506039
 20
2.477055
  0
VERTEX
  8
PLAN_1
 62
     2
  6
CONTINUOUS
 10
-0.504610
 20
2.475154
  0
VERTEX
  8
PLAN_1
 62
     2
  6
CONTINUOUS
 10
-0.502709
 20
2.473252
  0
VERTEX
  8
PLAN_1
 62
     2
  6
CONTINUOUS
 10
-0.500807
 20
2.471346
  0
VERTEX
  8
PLAN_1
 62
     2
  6
CONTINUOUS
 10
-0.497953
 20
2.470398
  0
VERTEX
  8
PLAN_1
 62
     2
  6
CONTINUOUS
 10
-0.495575
 20
2.469921
  0
VERTEX
  8
PLAN_1
 62
     2
  6
CONTINUOUS
 10
-0.492720
 20
2.469445
  0
VERTEX
  8
PLAN_1
 62
     2
  6
CONTINUOUS
 10
-0.459429
 20
2.469445
  0
VERTEX
  8
PLAN_1
 62
     2
  6
CONTINUOUS
 10
-0.459429
 20
2.460409
  0
VERTEX
  8
PLAN_1
 62
     2
  6
CONTINUOUS
 10
-0.497476
 20
2.460409
  0
VERTEX
  8
PLAN_1
 62
     2
  6
CONTINUOUS
 10
-0.498906
 20
2.460409
  0
VERTEX
  8
PLAN_1
 62
     2
  6
CONTINUOUS
 10
-0.500807
 20
2.459933
  0
VERTEX
  8
PLAN_1
 62
     2
  6
CONTINUOUS
 10
-0.502232
 20
2.459457
  0
VERTEX
  8
PLAN_1
 62
     2
  6
CONTINUOUS
 10
-0.504138
 20
2.458504
  0
VERTEX
  8
PLAN_1
 62
     2
  6
CONTINUOUS
 10
-0.505563
 20
2.457555
  0
VERTEX
  8
PLAN_1
 62
     2
  6
CONTINUOUS
 10
-0.506516
 20
2.456126
  0
VERTEX
  8
PLAN_1
 62
     2
  6
CONTINUOUS
 10
-0.506988
 20
2.454224
  0
VERTEX
  8
PLAN_1
 62
     2
  6
CONTINUOUS
 10
-0.507465
 20
2.451846
  0
VERTEX
  8
PLAN_1
 62
     2
  6
CONTINUOUS
 10
-0.506988
 20
2.449945
  0
VERTEX
  8
PLAN_1
 62
     2
  6
CONTINUOUS
 10
-0.506516
 20
2.447567
  0
VERTEX
  8
PLAN_1
 62
     2
  6
CONTINUOUS
 10
-0.505563
 20
2.445189
  0
VERTEX
  8
PLAN_1
 62
     2
  6
CONTINUOUS
 10
-0.503661
 20
2.442811
  0
VERTEX
  8
PLAN_1
 62
     2
  6
CONTINUOUS
 10
-0.501283
 20
2.440909
  0
VERTEX
  8
PLAN_1
 62
     2
  6
CONTINUOUS
 10
-0.498429
 20
2.439004
  0
VERTEX
  8
PLAN_1
 62
     2
  6
CONTINUOUS
 10
-0.494150
 20
2.438055
  0
VERTEX
  8
PLAN_1
 62
     2
  6
CONTINUOUS
 10
-0.489394
 20
2.437579
  0
VERTEX
  8
PLAN_1
 62
     2
  6
CONTINUOUS
 10
-0.459429
 20
2.437579
  0
VERTEX
  8
PLAN_1
 62
     2
  6
CONTINUOUS
 10
-0.459429
 20
2.428539
  0
VERTEX
  8
PLAN_1
 62
     2
  6
CONTINUOUS
 10
-0.514126
 20
2.428539
  0
SEQEND
  8
0
  0
POLYLINE
  8
PLAN_1
 62
     2
  6
CONTINUOUS
 66
     1
 40
0.003000
 41
0.003000
  0
VERTEX
  8
PLAN_1
 62
     2
  6
CONTINUOUS
 10
-0.497476
 20
2.514630
  0
VERTEX
  8
PLAN_1
 62
     2
  6
CONTINUOUS
 10
-0.501760
 20
2.515106
  0
VERTEX
  8
PLAN_1
 62
     2
  6
CONTINUOUS
 10
-0.505563
 20
2.516531
  0
VERTEX
  8
PLAN_1
 62
     2
  6
CONTINUOUS
 10
-0.508894
 20
2.518433
  0
VERTEX
  8
PLAN_1
 62
     2
  6
CONTINUOUS
 10
-0.511272
 20
2.521287
  0
VERTEX
  8
PLAN_1
 62
     2
  6
CONTINUOUS
 10
-0.513173
 20
2.524142
  0
VERTEX
  8
PLAN_1
 62
     2
  6
CONTINUOUS
 10
-0.514598
 20
2.527949
  0
VERTEX
  8
PLAN_1
 62
     2
  6
CONTINUOUS
 10
-0.515551
 20
2.532228
  0
VERTEX
  8
PLAN_1
 62
     2
  6
CONTINUOUS
 10
-0.515551
 20
2.537461
  0
VERTEX
  8
PLAN_1
 62
     2
  6
CONTINUOUS
 10
-0.515551
 20
2.539362
  0
VERTEX
  8
PLAN_1
 62
     2
  6
CONTINUOUS
 10
-0.515075
 20
2.542217
  0
VERTEX
  8
PLAN_1
 62
     2
  6
CONTINUOUS
 10
-0.514598
 20
2.545543
  0
VERTEX
  8
PLAN_1
 62
     2
  6
CONTINUOUS
 10
-0.513173
 20
2.548874
  0
VERTEX
  8
PLAN_1
 62
     2
  6
CONTINUOUS
 10
-0.511272
 20
2.552205
  0
VERTEX
  8
PLAN_1
 62
     2
  6
CONTINUOUS
 10
-0.508417
 20
2.555059
  0
VERTEX
  8
PLAN_1
 62
     2
  6
CONTINUOUS
 10
-0.506988
 20
2.556008
  0
VERTEX
  8
PLAN_1
 62
     2
  6
CONTINUOUS
 10
-0.505087
 20
2.556961
  0
VERTEX
  8
PLAN_1
 62
     2
  6
CONTINUOUS
 10
-0.502709
 20
2.557437
  0
VERTEX
  8
PLAN_1
 62
     2
  6
CONTINUOUS
 10
-0.500331
 20
2.557437
  0
VERTEX
  8
PLAN_1
 62
     2
  6
CONTINUOUS
 10
-0.468941
 20
2.557437
  0
VERTEX
  8
PLAN_1
 62
     2
  6
CONTINUOUS
 10
-0.468465
 20
2.557437
  0
VERTEX
  8
PLAN_1
 62
     2
  6
CONTINUOUS
 10
-0.467512
 20
2.557437
  0
VERTEX
  8
PLAN_1
 62
     2
  6
CONTINUOUS
 10
-0.467039
 20
2.557909
  0
VERTEX
  8
PLAN_1
 62
     2
  6
CONTINUOUS
 10
-0.466563
 20
2.558386
  0
VERTEX
  8
PLAN_1
 62
     2
  6
CONTINUOUS
 10
-0.466087
 20
2.558862
  0
VERTEX
  8
PLAN_1
 62
     2
  6
CONTINUOUS
 10
-0.466087
 20
2.559339
  0
VERTEX
  8
PLAN_1
 62
     2
  6
CONTINUOUS
 10
-0.466087
 20
2.559815
  0
VERTEX
  8
PLAN_1
 62
     2
  6
CONTINUOUS
 10
-0.465610
 20
2.560291
  0
VERTEX
  8
PLAN_1
 62
     2
  6
CONTINUOUS
 10
-0.465610
 20
2.560764
  0
VERTEX
  8
PLAN_1
 62
     2
  6
CONTINUOUS
 10
-0.466087
 20
2.561240
  0
VERTEX
  8
PLAN_1
 62
     2
  6
CONTINUOUS
 10
-0.466087
 20
2.561717
  0
VERTEX
  8
PLAN_1
 62
     2
  6
CONTINUOUS
 10
-0.466087
 20
2.562193
  0
VERTEX
  8
PLAN_1
 62
     2
  6
CONTINUOUS
 10
-0.466087
 20
2.562669
  0
VERTEX
  8
PLAN_1
 62
     2
  6
CONTINUOUS
 10
-0.466087
 20
2.563142
  0
VERTEX
  8
PLAN_1
 62
     2
  6
CONTINUOUS
 10
-0.466087
 20
2.563618
  0
VERTEX
  8
PLAN_1
 62
     2
  6
CONTINUOUS
 10
-0.459429
 20
2.563618
  0
VERTEX
  8
PLAN_1
 62
     2
  6
CONTINUOUS
 10
-0.459429
 20
2.562669
  0
VERTEX
  8
PLAN_1
 62
     2
  6
CONTINUOUS
 10
-0.459429
 20
2.562193
  0
VERTEX
  8
PLAN_1
 62
     2
  6
CONTINUOUS
 10
-0.458953
 20
2.561717
  0
VERTEX
  8
PLAN_1
 62
     2
  6
CONTINUOUS
 10
-0.458953
 20
2.561240
  0
VERTEX
  8
PLAN_1
 62
     2
  6
CONTINUOUS
 10
-0.458953
 20
2.560764
  0
VERTEX
  8
PLAN_1
 62
     2
  6
CONTINUOUS
 10
-0.458476
 20
2.559815
  0
VERTEX
  8
PLAN_1
 62
     2
  6
CONTINUOUS
 10
-0.458476
 20
2.559339
  0
VERTEX
  8
PLAN_1
 62
     2
  6
CONTINUOUS
 10
-0.458476
 20
2.558386
  0
VERTEX
  8
PLAN_1
 62
     2
  6
CONTINUOUS
 10
-0.458953
 20
2.555531
  0
VERTEX
  8
PLAN_1
 62
     2
  6
CONTINUOUS
 10
-0.459429
 20
2.553630
  0
VERTEX
  8
PLAN_1
 62
     2
  6
CONTINUOUS
 10
-0.459902
 20
2.551728
  0
VERTEX
  8
PLAN_1
 62
     2
  6
CONTINUOUS
 10
-0.461331
 20
2.550776
  0
VERTEX
  8
PLAN_1
 62
     2
  6
CONTINUOUS
 10
-0.462280
 20
2.549827
  0
VERTEX
  8
PLAN_1
 62
     2
  6
CONTINUOUS
 10
-0.463709
 20
2.549350
  0
VERTEX
  8
PLAN_1
 62
     2
  6
CONTINUOUS
 10
-0.465134
 20
2.548874
  0
VERTEX
  8
PLAN_1
 62
     2
  6
CONTINUOUS
 10
-0.467039
 20
2.548874
  0
VERTEX
  8
PLAN_1
 62
     2
  6
CONTINUOUS
 10
-0.465610
 20
2.547449
  0
VERTEX
  8
PLAN_1
 62
     2
  6
CONTINUOUS
 10
-0.463709
 20
2.545543
  0
VERTEX
  8
PLAN_1
 62
     2
  6
CONTINUOUS
 10
-0.462280
 20
2.543642
  0
VERTEX
  8
PLAN_1
 62
     2
  6
CONTINUOUS
 10
-0.460854
 20
2.541740
  0
VERTEX
  8
PLAN_1
 62
     2
  6
CONTINUOUS
 10
-0.459902
 20
2.538886
  0
VERTEX
  8
PLAN_1
 62
     2
  6
CONTINUOUS
 10
-0.458953
 20
2.536031
  0
VERTEX
  8
PLAN_1
 62
     2
  6
CONTINUOUS
 10
-0.458476
 20
2.532705
  0
VERTEX
  8
PLAN_1
 62
     2
  6
CONTINUOUS
 10
-0.458000
 20
2.529374
  0
VERTEX
  8
PLAN_1
 62
     2
  6
CONTINUOUS
 10
-0.458476
 20
2.525567
  0
VERTEX
  8
PLAN_1
 62
     2
  6
CONTINUOUS
 10
-0.458953
 20
2.522240
  0
VERTEX
  8
PLAN_1
 62
     2
  6
CONTINUOUS
 10
-0.460378
 20
2.519386
  0
VERTEX
  8
PLAN_1
 62
     2
  6
CONTINUOUS
 10
-0.462280
 20
2.517008
  0
VERTEX
  8
PLAN_1
 62
     2
  6
CONTINUOUS
 10
-0.464657
 20
2.514630
  0
VERTEX
  8
PLAN_1
 62
     2
  6
CONTINUOUS
 10
-0.467512
 20
2.513201
  0
VERTEX
  8
PLAN_1
 62
     2
  6
CONTINUOUS
 10
-0.470366
 20
2.512252
  0
VERTEX
  8
PLAN_1
 62
     2
  6
CONTINUOUS
 10
-0.473697
 20
2.512252
  0
VERTEX
  8
PLAN_1
 62
     2
  6
CONTINUOUS
 10
-0.475598
 20
2.512252
  0
VERTEX
  8
PLAN_1
 62
     2
  6
CONTINUOUS
 10
-0.477976
 20
2.512728
  0
VERTEX
  8
PLAN_1
 62
     2
  6
CONTINUOUS
 10
-0.480831
 20
2.513201
  0
VERTEX
  8
PLAN_1
 62
     2
  6
CONTINUOUS
 10
-0.483209
 20
2.514630
  0
VERTEX
  8
PLAN_1
 62
     2
  6
CONTINUOUS
 10
-0.485587
 20
2.516531
  0
VERTEX
  8
PLAN_1
 62
     2
  6
CONTINUOUS
 10
-0.487965
 20
2.519862
  0
VERTEX
  8
PLAN_1
 62
     2
  6
CONTINUOUS
 10
-0.488917
 20
2.521287
  0
VERTEX
  8
PLAN_1
 62
     2
  6
CONTINUOUS
 10
-0.489866
 20
2.523665
  0
VERTEX
  8
PLAN_1
 62
     2
  6
CONTINUOUS
 10
-0.490343
 20
2.526043
  0
VERTEX
  8
PLAN_1
 62
     2
  6
CONTINUOUS
 10
-0.490819
 20
2.528421
  0
VERTEX
  8
PLAN_1
 62
     2
  6
CONTINUOUS
 10
-0.492720
 20
2.543642
  0
VERTEX
  8
PLAN_1
 62
     2
  6
CONTINUOUS
 10
-0.492720
 20
2.544594
  0
VERTEX
  8
PLAN_1
 62
     2
  6
CONTINUOUS
 10
-0.493197
 20
2.545543
  0
VERTEX
  8
PLAN_1
 62
     2
  6
CONTINUOUS
 10
-0.493197
 20
2.546020
  0
VERTEX
  8
PLAN_1
 62
     2
  6
CONTINUOUS
 10
-0.494150
 20
2.546972
  0
VERTEX
  8
PLAN_1
 62
     2
  6
CONTINUOUS
 10
-0.494622
 20
2.547449
  0
VERTEX
  8
PLAN_1
 62
     2
  6
CONTINUOUS
 10
-0.496051
 20
2.547921
  0
VERTEX
  8
PLAN_1
 62
     2
  6
CONTINUOUS
 10
-0.497476
 20
2.548398
  0
VERTEX
  8
PLAN_1
 62
     2
  6
CONTINUOUS
 10
-0.498906
 20
2.548398
  0
VERTEX
  8
PLAN_1
 62
     2
  6
CONTINUOUS
 10
-0.501283
 20
2.548398
  0
VERTEX
  8
PLAN_1
 62
     2
  6
CONTINUOUS
 10
-0.502709
 20
2.547921
  0
VERTEX
  8
PLAN_1
 62
     2
  6
CONTINUOUS
 10
-0.504610
 20
2.546496
  0
VERTEX
  8
PLAN_1
 62
     2
  6
CONTINUOUS
 10
-0.505563
 20
2.545543
  0
VERTEX
  8
PLAN_1
 62
     2
  6
CONTINUOUS
 10
-0.506516
 20
2.543642
  0
VERTEX
  8
PLAN_1
 62
     2
  6
CONTINUOUS
 10
-0.507465
 20
2.541264
  0
VERTEX
  8
PLAN_1
 62
     2
  6
CONTINUOUS
 10
-0.507941
 20
2.538886
  0
VERTEX
  8
PLAN_1
 62
     2
  6
CONTINUOUS
 10
-0.507941
 20
2.535555
  0
VERTEX
  8
PLAN_1
 62
     2
  6
CONTINUOUS
 10
-0.507465
 20
2.532228
  0
VERTEX
  8
PLAN_1
 62
     2
  6
CONTINUOUS
 10
-0.506988
 20
2.529374
  0
VERTEX
  8
PLAN_1
 62
     2
  6
CONTINUOUS
 10
-0.505563
 20
2.527472
  0
VERTEX
  8
PLAN_1
 62
     2
  6
CONTINUOUS
 10
-0.504138
 20
2.525567
  0
VERTEX
  8
PLAN_1
 62
     2
  6
CONTINUOUS
 10
-0.502709
 20
2.524618
  0
VERTEX
  8
PLAN_1
 62
     2
  6
CONTINUOUS
 10
-0.500807
 20
2.524142
  0
VERTEX
  8
PLAN_1
 62
     2
  6
CONTINUOUS
 10
-0.498906
 20
2.523665
  0
VERTEX
  8
PLAN_1
 62
     2
  6
CONTINUOUS
 10
-0.497476
 20
2.523189
  0
VERTEX
  8
PLAN_1
 62
     2
  6
CONTINUOUS
 10
-0.497476
 20
2.514630
  0
SEQEND
  8
0
  0
POLYLINE
  8
PLAN_1
 62
     2
  6
CONTINUOUS
 66
     1
 40
0.003000
 41
0.003000
  0
VERTEX
  8
PLAN_1
 62
     2
  6
CONTINUOUS
 10
-0.487488
 20
2.548398
  0
VERTEX
  8
PLAN_1
 62
     2
  6
CONTINUOUS
 10
-0.487016
 20
2.547449
  0
VERTEX
  8
PLAN_1
 62
     2
  6
CONTINUOUS
 10
-0.486539
 20
2.546972
  0
VERTEX
  8
PLAN_1
 62
     2
  6
CONTINUOUS
 10
-0.486063
 20
2.546020
  0
VERTEX
  8
PLAN_1
 62
     2
  6
CONTINUOUS
 10
-0.485587
 20
2.544594
  0
VERTEX
  8
PLAN_1
 62
     2
  6
CONTINUOUS
 10
-0.485587
 20
2.542693
  0
VERTEX
  8
PLAN_1
 62
     2
  6
CONTINUOUS
 10
-0.485110
 20
2.540315
  0
VERTEX
  8
PLAN_1
 62
     2
  6
CONTINUOUS
 10
-0.484634
 20
2.536984
  0
VERTEX
  8
PLAN_1
 62
     2
  6
CONTINUOUS
 10
-0.484161
 20
2.533177
  0
VERTEX
  8
PLAN_1
 62
     2
  6
CONTINUOUS
 10
-0.483685
 20
2.531276
  0
VERTEX
  8
PLAN_1
 62
     2
  6
CONTINUOUS
 10
-0.483209
 20
2.529374
  0
VERTEX
  8
PLAN_1
 62
     2
  6
CONTINUOUS
 10
-0.482732
 20
2.527472
  0
VERTEX
  8
PLAN_1
 62
     2
  6
CONTINUOUS
 10
-0.481783
 20
2.525567
  0
VERTEX
  8
PLAN_1
 62
     2
  6
CONTINUOUS
 10
-0.480831
 20
2.524142
  0
VERTEX
  8
PLAN_1
 62
     2
  6
CONTINUOUS
 10
-0.479406
 20
2.522717
  0
VERTEX
  8
PLAN_1
 62
     2
  6
CONTINUOUS
 10
-0.477500
 20
2.521764
  0
VERTEX
  8
PLAN_1
 62
     2
  6
CONTINUOUS
 10
-0.475122
 20
2.521764
  0
VERTEX
  8
PLAN_1
 62
     2
  6
CONTINUOUS
 10
-0.473220
 20
2.521764
  0
VERTEX
  8
PLAN_1
 62
     2
  6
CONTINUOUS
 10
-0.471319
 20
2.522240
  0
VERTEX
  8
PLAN_1
 62
     2
  6
CONTINUOUS
 10
-0.469417
 20
2.522717
  0
VERTEX
  8
PLAN_1
 62
     2
  6
CONTINUOUS
 10
-0.467988
 20
2.524142
  0
VERTEX
  8
PLAN_1
 62
     2
  6
CONTINUOUS
 10
-0.467039
 20
2.525094
  0
VERTEX
  8
PLAN_1
 62
     2
  6
CONTINUOUS
 10
-0.466087
 20
2.526996
  0
VERTEX
  8
PLAN_1
 62
     2
  6
CONTINUOUS
 10
-0.465610
 20
2.528898
  0
VERTEX
  8
PLAN_1
 62
     2
  6
CONTINUOUS
 10
-0.465610
 20
2.531276
  0
VERTEX
  8
PLAN_1
 62
     2
  6
CONTINUOUS
 10
-0.466087
 20
2.534606
  0
VERTEX
  8
PLAN_1
 62
     2
  6
CONTINUOUS
 10
-0.466563
 20
2.537461
  0
VERTEX
  8
PLAN_1
 62
     2
  6
CONTINUOUS
 10
-0.467988
 20
2.540315
  0
VERTEX
  8
PLAN_1
 62
     2
  6
CONTINUOUS
 10
-0.469417
 20
2.543165
  0
VERTEX
  8
PLAN_1
 62
     2
  6
CONTINUOUS
 10
-0.471319
 20
2.545071
  0
VERTEX
  8
PLAN_1
 62
     2
  6
CONTINUOUS
 10
-0.473220
 20
2.546972
  0
VERTEX
  8
PLAN_1
 62
     2
  6
CONTINUOUS
 10
-0.475598
 20
2.547921
  0
VERTEX
  8
PLAN_1
 62
     2
  6
CONTINUOUS
 10
-0.478453
 20
2.548398
  0
VERTEX
  8
PLAN_1
 62
     2
  6
CONTINUOUS
 10
-0.487488
 20
2.548398
  0
SEQEND
  8
0
  0
POLYLINE
  8
PLAN_1
 62
     2
  6
CONTINUOUS
 66
     1
 40
0.003000
 41
0.003000
  0
VERTEX
  8
PLAN_1
 62
     2
  6
CONTINUOUS
 10
-0.459429
 20
2.617366
  0
VERTEX
  8
PLAN_1
 62
     2
  6
CONTINUOUS
 10
-0.459429
 20
2.605472
  0
VERTEX
  8
PLAN_1
 62
     2
  6
CONTINUOUS
 10
-0.479878
 20
2.592157
  0
VERTEX
  8
PLAN_1
 62
     2
  6
CONTINUOUS
 10
-0.459429
 20
2.578839
  0
VERTEX
  8
PLAN_1
 62
     2
  6
CONTINUOUS
 10
-0.459429
 20
2.567425
  0
VERTEX
  8
PLAN_1
 62
     2
  6
CONTINUOUS
 10
-0.487488
 20
2.586449
  0
VERTEX
  8
PLAN_1
 62
     2
  6
CONTINUOUS
 10
-0.514126
 20
2.568374
  0
VERTEX
  8
PLAN_1
 62
     2
  6
CONTINUOUS
 10
-0.514126
 20
2.580264
  0
VERTEX
  8
PLAN_1
 62
     2
  6
CONTINUOUS
 10
-0.494622
 20
2.592634
  0
VERTEX
  8
PLAN_1
 62
     2
  6
CONTINUOUS
 10
-0.514126
 20
2.605472
  0
VERTEX
  8
PLAN_1
 62
     2
  6
CONTINUOUS
 10
-0.514126
 20
2.616413
  0
VERTEX
  8
PLAN_1
 62
     2
  6
CONTINUOUS
 10
-0.487488
 20
2.597862
  0
VERTEX
  8
PLAN_1
 62
     2
  6
CONTINUOUS
 10
-0.459429
 20
2.617366
  0
SEQEND
  8
0
  0
SOLID
  8
PLAN_1
 62
     2
 10
-0.459429
 20
2.634488
 11
-0.459429
 21
2.625449
 12
-0.514126
 22
2.634488
 13
-0.514126
 23
2.625449
  0
POLYLINE
  8
PLAN_1
 62
     2
  6
CONTINUOUS
 66
     1
 40
0.003000
 41
0.003000
  0
VERTEX
  8
PLAN_1
 62
     2
  6
CONTINUOUS
 10
-0.459429
 20
2.634488
  0
VERTEX
  8
PLAN_1
 62
     2
  6
CONTINUOUS
 10
-0.459429
 20
2.625449
  0
VERTEX
  8
PLAN_1
 62
     2
  6
CONTINUOUS
 10
-0.514126
 20
2.625449
  0
VERTEX
  8
PLAN_1
 62
     2
  6
CONTINUOUS
 10
-0.514126
 20
2.634488
  0
VERTEX
  8
PLAN_1
 62
     2
  6
CONTINUOUS
 10
-0.459429
 20
2.634488
  0
SEQEND
  8
0
  0
SOLID
  8
PLAN_1
 62
     2
 10
-0.524114
 20
2.625449
 11
-0.534102
 21
2.625449
 12
-0.524114
 22
2.634488
 13
-0.534102
 23
2.634488
  0
POLYLINE
  8
PLAN_1
 62
     2
  6
CONTINUOUS
 66
     1
 40
0.003000
 41
0.003000
  0
VERTEX
  8
PLAN_1
 62
     2
  6
CONTINUOUS
 10
-0.524114
 20
2.625449
  0
VERTEX
  8
PLAN_1
 62
     2
  6
CONTINUOUS
 10
-0.534102
 20
2.625449
  0
VERTEX
  8
PLAN_1
 62
     2
  6
CONTINUOUS
 10
-0.534102
 20
2.634488
  0
VERTEX
  8
PLAN_1
 62
     2
  6
CONTINUOUS
 10
-0.524114
 20
2.634488
  0
VERTEX
  8
PLAN_1
 62
     2
  6
CONTINUOUS
 10
-0.524114
 20
2.625449
  0
SEQEND
  8
0
  0
POLYLINE
  8
PLAN_1
 62
     2
  6
CONTINUOUS
 66
     1
 40
0.004280
 41
0.004280
  0
VERTEX
  8
PLAN_1
 62
     2
  6
CONTINUOUS
 10
0.198362
 20
0.637815
  0
VERTEX
  8
PLAN_1
 62
     2
  6
CONTINUOUS
 10
0.198362
 20
3.513917
  0
SEQEND
  8
0
  0
SOLID
  8
PLAN_1
 62
     2
 10
0.198362
 20
3.543406
 11
0.182665
 21
3.484429
 12
0.198362
 22
3.543406
 13
0.214059
 23
3.484429
  0
POLYLINE
  8
PLAN_1
 62
     2
  6
CONTINUOUS
 66
     1
 40
0.003000
 41
0.003000
  0
VERTEX
  8
PLAN_1
 62
     2
  6
CONTINUOUS
 10
0.198362
 20
3.543406
  0
VERTEX
  8
PLAN_1
 62
     2
  6
CONTINUOUS
 10
0.182665
 20
3.484429
  0
VERTEX
  8
PLAN_1
 62
     2
  6
CONTINUOUS
 10
0.214059
 20
3.484429
  0
VERTEX
  8
PLAN_1
 62
     2
  6
CONTINUOUS
 10
0.198362
 20
3.543406
  0
SEQEND
  8
0
  0
SOLID
  8
PLAN_1
 62
     2
 10
0.198362
 20
0.608323
 11
0.182665
 21
0.667303
 12
0.198362
 22
0.608323
 13
0.214059
 23
0.667303
  0
POLYLINE
  8
PLAN_1
 62
     2
  6
CONTINUOUS
 66
     1
 40
0.003000
 41
0.003000
  0
VERTEX
  8
PLAN_1
 62
     2
  6
CONTINUOUS
 10
0.198362
 20
0.608323
  0
VERTEX
  8
PLAN_1
 62
     2
  6
CONTINUOUS
 10
0.182665
 20
0.667303
  0
VERTEX
  8
PLAN_1
 62
     2
  6
CONTINUOUS
 10
0.214059
 20
0.667303
  0
VERTEX
  8
PLAN_1
 62
     2
  6
CONTINUOUS
 10
0.198362
 20
0.608323
  0
SEQEND
  8
0
  0
POLYLINE
  8
PLAN_1
 62
     2
  6
CONTINUOUS
 66
     1
 40
0.003000
 41
0.003000
  0
VERTEX
  8
PLAN_1
 62
     2
  6
CONTINUOUS
 10
0.127969
 20
1.825925
  0
VERTEX
  8
PLAN_1
 62
     2
  6
CONTINUOUS
 10
0.123689
 20
1.825925
  0
VERTEX
  8
PLAN_1
 62
     2
  6
CONTINUOUS
 10
0.119882
 20
1.826402
  0
VERTEX
  8
PLAN_1
 62
     2
  6
CONTINUOUS
 10
0.116555
 20
1.827350
  0
VERTEX
  8
PLAN_1
 62
     2
  6
CONTINUOUS
 10
0.113701
 20
1.828303
  0
VERTEX
  8
PLAN_1
 62
     2
  6
CONTINUOUS
 10
0.111323
 20
1.830205
  0
VERTEX
  8
PLAN_1
 62
     2
  6
CONTINUOUS
 10
0.108945
 20
1.831634
  0
VERTEX
  8
PLAN_1
 62
     2
  6
CONTINUOUS
 10
0.107516
 20
1.833535
  0
VERTEX
  8
PLAN_1
 62
     2
  6
CONTINUOUS
 10
0.106091
 20
1.835437
  0
VERTEX
  8
PLAN_1
 62
     2
  6
CONTINUOUS
 10
0.103713
 20
1.839717
  0
VERTEX
  8
PLAN_1
 62
     2
  6
CONTINUOUS
 10
0.102287
 20
1.843524
  0
VERTEX
  8
PLAN_1
 62
     2
  6
CONTINUOUS
 10
0.101811
 20
1.847803
  0
VERTEX
  8
PLAN_1
 62
     2
  6
CONTINUOUS
 10
0.101811
 20
1.851134
  0
VERTEX
  8
PLAN_1
 62
     2
  6
CONTINUOUS
 10
0.102287
 20
1.855413
  0
VERTEX
  8
PLAN_1
 62
     2
  6
CONTINUOUS
 10
0.103236
 20
1.859693
  0
VERTEX
  8
PLAN_1
 62
     2
  6
CONTINUOUS
 10
0.105138
 20
1.863976
  0
VERTEX
  8
PLAN_1
 62
     2
  6
CONTINUOUS
 10
0.107516
 20
1.867303
  0
VERTEX
  8
PLAN_1
 62
     2
  6
CONTINUOUS
 10
0.110846
 20
1.870157
  0
VERTEX
  8
PLAN_1
 62
     2
  6
CONTINUOUS
 10
0.114177
 20
1.872059
  0
VERTEX
  8
PLAN_1
 62
     2
  6
CONTINUOUS
 10
0.116555
 20
1.873012
  0
VERTEX
  8
PLAN_1
 62
     2
  6
CONTINUOUS
 10
0.118933
 20
1.873488
  0
VERTEX
  8
PLAN_1
 62
     2
  6
CONTINUOUS
 10
0.121311
 20
1.873961
  0
VERTEX
  8
PLAN_1
 62
     2
  6
CONTINUOUS
 10
0.123689
 20
1.873961
  0
VERTEX
  8
PLAN_1
 62
     2
  6
CONTINUOUS
 10
0.127969
 20
1.873488
  0
VERTEX
  8
PLAN_1
 62
     2
  6
CONTINUOUS
 10
0.132248
 20
1.872535
  0
VERTEX
  8
PLAN_1
 62
     2
  6
CONTINUOUS
 10
0.135579
 20
1.870634
  0
VERTEX
  8
PLAN_1
 62
     2
  6
CONTINUOUS
 10
0.138433
 20
1.868256
  0
VERTEX
  8
PLAN_1
 62
     2
  6
CONTINUOUS
 10
0.141287
 20
1.865402
  0
VERTEX
  8
PLAN_1
 62
     2
  6
CONTINUOUS
 10
0.143665
 20
1.862071
  0
VERTEX
  8
PLAN_1
 62
     2
  6
CONTINUOUS
 10
0.146043
 20
1.858268
  0
VERTEX
  8
PLAN_1
 62
     2
  6
CONTINUOUS
 10
0.147945
 20
1.854461
  0
VERTEX
  8
PLAN_1
 62
     2
  6
CONTINUOUS
 10
0.152224
 20
1.846850
  0
VERTEX
  8
PLAN_1
 62
     2
  6
CONTINUOUS
 10
0.154130
 20
1.843524
  0
VERTEX
  8
PLAN_1
 62
     2
  6
CONTINUOUS
 10
0.156508
 20
1.840669
  0
VERTEX
  8
PLAN_1
 62
     2
  6
CONTINUOUS
 10
0.158409
 20
1.838291
  0
VERTEX
  8
PLAN_1
 62
     2
  6
CONTINUOUS
 10
0.160311
 20
1.836862
  0
VERTEX
  8
PLAN_1
 62
     2
  6
CONTINUOUS
 10
0.162213
 20
1.835437
  0
VERTEX
  8
PLAN_1
 62
     2
  6
CONTINUOUS
 10
0.163642
 20
1.834961
  0
VERTEX
  8
PLAN_1
 62
     2
  6
CONTINUOUS
 10
0.165067
 20
1.834484
  0
VERTEX
  8
PLAN_1
 62
     2
  6
CONTINUOUS
 10
0.166020
 20
1.834012
  0
VERTEX
  8
PLAN_1
 62
     2
  6
CONTINUOUS
 10
0.166020
 20
1.873961
  0
VERTEX
  8
PLAN_1
 62
     2
  6
CONTINUOUS
 10
0.175055
 20
1.873961
  0
VERTEX
  8
PLAN_1
 62
     2
  6
CONTINUOUS
 10
0.175055
 20
1.824024
  0
VERTEX
  8
PLAN_1
 62
     2
  6
CONTINUOUS
 10
0.169350
 20
1.824496
  0
VERTEX
  8
PLAN_1
 62
     2
  6
CONTINUOUS
 10
0.164591
 20
1.825449
  0
VERTEX
  8
PLAN_1
 62
     2
  6
CONTINUOUS
 10
0.160311
 20
1.826874
  0
VERTEX
  8
PLAN_1
 62
     2
  6
CONTINUOUS
 10
0.156984
 20
1.828780
  0
VERTEX
  8
PLAN_1
 62
     2
  6
CONTINUOUS
 10
0.153654
 20
1.831634
  0
VERTEX
  8
PLAN_1
 62
     2
  6
CONTINUOUS
 10
0.150799
 20
1.834484
  0
VERTEX
  8
PLAN_1
 62
     2
  6
CONTINUOUS
 10
0.147945
 20
1.837339
  0
VERTEX
  8
PLAN_1
 62
     2
  6
CONTINUOUS
 10
0.146043
 20
1.841146
  0
VERTEX
  8
PLAN_1
 62
     2
  6
CONTINUOUS
 10
0.140335
 20
1.850657
  0
VERTEX
  8
PLAN_1
 62
     2
  6
CONTINUOUS
 10
0.138433
 20
1.853512
  0
VERTEX
  8
PLAN_1
 62
     2
  6
CONTINUOUS
 10
0.137008
 20
1.855890
  0
VERTEX
  8
PLAN_1
 62
     2
  6
CONTINUOUS
 10
0.135579
 20
1.858268
  0
VERTEX
  8
PLAN_1
 62
     2
  6
CONTINUOUS
 10
0.133677
 20
1.860169
  0
VERTEX
  8
PLAN_1
 62
     2
  6
CONTINUOUS
 10
0.131776
 20
1.862071
  0
VERTEX
  8
PLAN_1
 62
     2
  6
CONTINUOUS
 10
0.129398
 20
1.863024
  0
VERTEX
  8
PLAN_1
 62
     2
  6
CONTINUOUS
 10
0.126543
 20
1.863976
  0
VERTEX
  8
PLAN_1
 62
     2
  6
CONTINUOUS
 10
0.123213
 20
1.863976
  0
VERTEX
  8
PLAN_1
 62
     2
  6
CONTINUOUS
 10
0.120835
 20
1.863976
  0
VERTEX
  8
PLAN_1
 62
     2
  6
CONTINUOUS
 10
0.118457
 20
1.863500
  0
VERTEX
  8
PLAN_1
 62
     2
  6
CONTINUOUS
 10
0.116555
 20
1.862547
  0
VERTEX
  8
PLAN_1
 62
     2
  6
CONTINUOUS
 10
0.114177
 20
1.860646
  0
VERTEX
  8
PLAN_1
 62
     2
  6
CONTINUOUS
 10
0.112748
 20
1.858744
  0
VERTEX
  8
PLAN_1
 62
     2
  6
CONTINUOUS
 10
0.111323
 20
1.856366
  0
VERTEX
  8
PLAN_1
 62
     2
  6
CONTINUOUS
 10
0.110370
 20
1.853512
  0
VERTEX
  8
PLAN_1
 62
     2
  6
CONTINUOUS
 10
0.109894
 20
1.849705
  0
VERTEX
  8
PLAN_1
 62
     2
  6
CONTINUOUS
 10
0.109894
 20
1.847327
  0
VERTEX
  8
PLAN_1
 62
     2
  6
CONTINUOUS
 10
0.110370
 20
1.844949
  0
VERTEX
  8
PLAN_1
 62
     2
  6
CONTINUOUS
 10
0.111323
 20
1.843047
  0
VERTEX
  8
PLAN_1
 62
     2
  6
CONTINUOUS
 10
0.112276
 20
1.841618
  0
VERTEX
  8
PLAN_1
 62
     2
  6
CONTINUOUS
 10
0.114177
 20
1.838768
  0
VERTEX
  8
PLAN_1
 62
     2
  6
CONTINUOUS
 10
0.117031
 20
1.837339
  0
VERTEX
  8
PLAN_1
 62
     2
  6
CONTINUOUS
 10
0.119882
 20
1.835913
  0
VERTEX
  8
PLAN_1
 62
     2
  6
CONTINUOUS
 10
0.123213
 20
1.835437
  0
VERTEX
  8
PLAN_1
 62
     2
  6
CONTINUOUS
 10
0.125591
 20
1.834961
  0
VERTEX
  8
PLAN_1
 62
     2
  6
CONTINUOUS
 10
0.127969
 20
1.834961
  0
VERTEX
  8
PLAN_1
 62
     2
  6
CONTINUOUS
 10
0.127969
 20
1.825925
  0
SEQEND
  8
0
  0
POLYLINE
  8
PLAN_1
 62
     2
  6
CONTINUOUS
 66
     1
 40
0.003000
 41
0.003000
  0
VERTEX
  8
PLAN_1
 62
     2
  6
CONTINUOUS
 10
0.175055
 20
1.916291
  0
VERTEX
  8
PLAN_1
 62
     2
  6
CONTINUOUS
 10
0.175055
 20
1.906780
  0
VERTEX
  8
PLAN_1
 62
     2
  6
CONTINUOUS
 10
0.122736
 20
1.906780
  0
VERTEX
  8
PLAN_1
 62
     2
  6
CONTINUOUS
 10
0.122736
 20
1.889657
  0
VERTEX
  8
PLAN_1
 62
     2
  6
CONTINUOUS
 10
0.115602
 20
1.889657
  0
VERTEX
  8
PLAN_1
 62
     2
  6
CONTINUOUS
 10
0.115126
 20
1.893465
  0
VERTEX
  8
PLAN_1
 62
     2
  6
CONTINUOUS
 10
0.114654
 20
1.897268
  0
VERTEX
  8
PLAN_1
 62
     2
  6
CONTINUOUS
 10
0.114177
 20
1.900122
  0
VERTEX
  8
PLAN_1
 62
     2
  6
CONTINUOUS
 10
0.112748
 20
1.902500
  0
VERTEX
  8
PLAN_1
 62
     2
  6
CONTINUOUS
 10
0.111323
 20
1.904878
  0
VERTEX
  8
PLAN_1
 62
     2
  6
CONTINUOUS
 10
0.108945
 20
1.906780
  0
VERTEX
  8
PLAN_1
 62
     2
  6
CONTINUOUS
 10
0.105614
 20
1.908209
  0
VERTEX
  8
PLAN_1
 62
     2
  6
CONTINUOUS
 10
0.101811
 20
1.909157
  0
VERTEX
  8
PLAN_1
 62
     2
  6
CONTINUOUS
 10
0.101811
 20
1.916291
  0
VERTEX
  8
PLAN_1
 62
     2
  6
CONTINUOUS
 10
0.175055
 20
1.916291
  0
SEQEND
  8
0
  0
POLYLINE
  8
PLAN_1
 62
     2
  6
CONTINUOUS
 66
     1
 40
0.003000
 41
0.003000
  0
VERTEX
  8
PLAN_1
 62
     2
  6
CONTINUOUS
 10
0.176961
 20
1.965760
  0
VERTEX
  8
PLAN_1
 62
     2
  6
CONTINUOUS
 10
0.176484
 20
1.961953
  0
VERTEX
  8
PLAN_1
 62
     2
  6
CONTINUOUS
 10
0.176008
 20
1.958622
  0
VERTEX
  8
PLAN_1
 62
     2
  6
CONTINUOUS
 10
0.174579
 20
1.955772
  0
VERTEX
  8
PLAN_1
 62
     2
  6
CONTINUOUS
 10
0.173154
 20
1.952917
  0
VERTEX
  8
PLAN_1
 62
     2
  6
CONTINUOUS
 10
0.171252
 20
1.950539
  0
VERTEX
  8
PLAN_1
 62
     2
  6
CONTINUOUS
 10
0.168874
 20
1.948634
  0
VERTEX
  8
PLAN_1
 62
     2
  6
CONTINUOUS
 10
0.166496
 20
1.946732
  0
VERTEX
  8
PLAN_1
 62
     2
  6
CONTINUOUS
 10
0.163642
 20
1.945307
  0
VERTEX
  8
PLAN_1
 62
     2
  6
CONTINUOUS
 10
0.157933
 20
1.942929
  0
VERTEX
  8
PLAN_1
 62
     2
  6
CONTINUOUS
 10
0.151752
 20
1.941500
  0
VERTEX
  8
PLAN_1
 62
     2
  6
CONTINUOUS
 10
0.145091
 20
1.941028
  0
VERTEX
  8
PLAN_1
 62
     2
  6
CONTINUOUS
 10
0.139386
 20
1.940551
  0
VERTEX
  8
PLAN_1
 62
     2
  6
CONTINUOUS
 10
0.133201
 20
1.941028
  0
VERTEX
  8
PLAN_1
 62
     2
  6
CONTINUOUS
 10
0.127020
 20
1.941500
  0
VERTEX
  8
PLAN_1
 62
     2
  6
CONTINUOUS
 10
0.120835
 20
1.942929
  0
VERTEX
  8
PLAN_1
 62
     2
  6
CONTINUOUS
 10
0.114654
 20
1.945307
  0
VERTEX
  8
PLAN_1
 62
     2
  6
CONTINUOUS
 10
0.112276
 20
1.946732
  0
VERTEX
  8
PLAN_1
 62
     2
  6
CONTINUOUS
 10
0.109421
 20
1.948634
  0
VERTEX
  8
PLAN_1
 62
     2
  6
CONTINUOUS
 10
0.107516
 20
1.950539
  0
VERTEX
  8
PLAN_1
 62
     2
  6
CONTINUOUS
 10
0.105614
 20
1.952917
  0
VERTEX
  8
PLAN_1
 62
     2
  6
CONTINUOUS
 10
0.103713
 20
1.955772
  0
VERTEX
  8
PLAN_1
 62
     2
  6
CONTINUOUS
 10
0.102760
 20
1.958622
  0
VERTEX
  8
PLAN_1
 62
     2
  6
CONTINUOUS
 10
0.101811
 20
1.961953
  0
VERTEX
  8
PLAN_1
 62
     2
  6
CONTINUOUS
 10
0.101811
 20
1.965760
  0
VERTEX
  8
PLAN_1
 62
     2
  6
CONTINUOUS
 10
0.101811
 20
1.969563
  0
VERTEX
  8
PLAN_1
 62
     2
  6
CONTINUOUS
 10
0.102760
 20
1.972894
  0
VERTEX
  8
PLAN_1
 62
     2
  6
CONTINUOUS
 10
0.103713
 20
1.975748
  0
VERTEX
  8
PLAN_1
 62
     2
  6
CONTINUOUS
 10
0.105614
 20
1.978598
  0
VERTEX
  8
PLAN_1
 62
     2
  6
CONTINUOUS
 10
0.107516
 20
1.980976
  0
VERTEX
  8
PLAN_1
 62
     2
  6
CONTINUOUS
 10
0.109421
 20
1.982882
  0
VERTEX
  8
PLAN_1
 62
     2
  6
CONTINUOUS
 10
0.112276
 20
1.984783
  0
VERTEX
  8
PLAN_1
 62
     2
  6
CONTINUOUS
 10
0.114654
 20
1.986209
  0
VERTEX
  8
PLAN_1
 62
     2
  6
CONTINUOUS
 10
0.120835
 20
1.988587
  0
VERTEX
  8
PLAN_1
 62
     2
  6
CONTINUOUS
 10
0.127020
 20
1.990016
  0
VERTEX
  8
PLAN_1
 62
     2
  6
CONTINUOUS
 10
0.133201
 20
1.990492
  0
VERTEX
  8
PLAN_1
 62
     2
  6
CONTINUOUS
 10
0.139386
 20
1.990965
  0
VERTEX
  8
PLAN_1
 62
     2
  6
CONTINUOUS
 10
0.145091
 20
1.990492
  0
VERTEX
  8
PLAN_1
 62
     2
  6
CONTINUOUS
 10
0.151752
 20
1.990016
  0
VERTEX
  8
PLAN_1
 62
     2
  6
CONTINUOUS
 10
0.157933
 20
1.988587
  0
VERTEX
  8
PLAN_1
 62
     2
  6
CONTINUOUS
 10
0.163642
 20
1.986209
  0
VERTEX
  8
PLAN_1
 62
     2
  6
CONTINUOUS
 10
0.166496
 20
1.984783
  0
VERTEX
  8
PLAN_1
 62
     2
  6
CONTINUOUS
 10
0.168874
 20
1.982882
  0
VERTEX
  8
PLAN_1
 62
     2
  6
CONTINUOUS
 10
0.171252
 20
1.980976
  0
VERTEX
  8
PLAN_1
 62
     2
  6
CONTINUOUS
 10
0.173154
 20
1.978598
  0
VERTEX
  8
PLAN_1
 62
     2
  6
CONTINUOUS
 10
0.174579
 20
1.975748
  0
VERTEX
  8
PLAN_1
 62
     2
  6
CONTINUOUS
 10
0.176008
 20
1.972894
  0
VERTEX
  8
PLAN_1
 62
     2
  6
CONTINUOUS
 10
0.176484
 20
1.969563
  0
VERTEX
  8
PLAN_1
 62
     2
  6
CONTINUOUS
 10
0.176961
 20
1.965760
  0
SEQEND
  8
0
  0
POLYLINE
  8
PLAN_1
 62
     2
  6
CONTINUOUS
 66
     1
 40
0.003000
 41
0.003000
  0
VERTEX
  8
PLAN_1
 62
     2
  6
CONTINUOUS
 10
0.109894
 20
1.965760
  0
VERTEX
  8
PLAN_1
 62
     2
  6
CONTINUOUS
 10
0.109894
 20
1.963854
  0
VERTEX
  8
PLAN_1
 62
     2
  6
CONTINUOUS
 10
0.110370
 20
1.961953
  0
VERTEX
  8
PLAN_1
 62
     2
  6
CONTINUOUS
 10
0.110846
 20
1.960528
  0
VERTEX
  8
PLAN_1
 62
     2
  6
CONTINUOUS
 10
0.111799
 20
1.959098
  0
VERTEX
  8
PLAN_1
 62
     2
  6
CONTINUOUS
 10
0.113224
 20
1.957673
  0
VERTEX
  8
PLAN_1
 62
     2
  6
CONTINUOUS
 10
0.114177
 20
1.956244
  0
VERTEX
  8
PLAN_1
 62
     2
  6
CONTINUOUS
 10
0.116079
 20
1.955295
  0
VERTEX
  8
PLAN_1
 62
     2
  6
CONTINUOUS
 10
0.117980
 20
1.954343
  0
VERTEX
  8
PLAN_1
 62
     2
  6
CONTINUOUS
 10
0.121787
 20
1.952441
  0
VERTEX
  8
PLAN_1
 62
     2
  6
CONTINUOUS
 10
0.127020
 20
1.951488
  0
VERTEX
  8
PLAN_1
 62
     2
  6
CONTINUOUS
 10
0.132724
 20
1.951016
  0
VERTEX
  8
PLAN_1
 62
     2
  6
CONTINUOUS
 10
0.139386
 20
1.950539
  0
VERTEX
  8
PLAN_1
 62
     2
  6
CONTINUOUS
 10
0.145567
 20
1.951016
  0
VERTEX
  8
PLAN_1
 62
     2
  6
CONTINUOUS
 10
0.151752
 20
1.951488
  0
VERTEX
  8
PLAN_1
 62
     2
  6
CONTINUOUS
 10
0.156508
 20
1.952441
  0
VERTEX
  8
PLAN_1
 62
     2
  6
CONTINUOUS
 10
0.160787
 20
1.954343
  0
VERTEX
  8
PLAN_1
 62
     2
  6
CONTINUOUS
 10
0.162689
 20
1.955295
  0
VERTEX
  8
PLAN_1
 62
     2
  6
CONTINUOUS
 10
0.164118
 20
1.956244
  0
VERTEX
  8
PLAN_1
 62
     2
  6
CONTINUOUS
 10
0.165543
 20
1.957673
  0
VERTEX
  8
PLAN_1
 62
     2
  6
CONTINUOUS
 10
0.166496
 20
1.959098
  0
VERTEX
  8
PLAN_1
 62
     2
  6
CONTINUOUS
 10
0.167445
 20
1.960528
  0
VERTEX
  8
PLAN_1
 62
     2
  6
CONTINUOUS
 10
0.167921
 20
1.961953
  0
VERTEX
  8
PLAN_1
 62
     2
  6
CONTINUOUS
 10
0.168398
 20
1.963854
  0
VERTEX
  8
PLAN_1
 62
     2
  6
CONTINUOUS
 10
0.168398
 20
1.965760
  0
VERTEX
  8
PLAN_1
 62
     2
  6
CONTINUOUS
 10
0.168398
 20
1.967661
  0
VERTEX
  8
PLAN_1
 62
     2
  6
CONTINUOUS
 10
0.167921
 20
1.969563
  0
VERTEX
  8
PLAN_1
 62
     2
  6
CONTINUOUS
 10
0.167445
 20
1.970988
  0
VERTEX
  8
PLAN_1
 62
     2
  6
CONTINUOUS
 10
0.166496
 20
1.972894
  0
VERTEX
  8
PLAN_1
 62
     2
  6
CONTINUOUS
 10
0.164118
 20
1.975272
  0
VERTEX
  8
PLAN_1
 62
     2
  6
CONTINUOUS
 10
0.160787
 20
1.977650
  0
VERTEX
  8
PLAN_1
 62
     2
  6
CONTINUOUS
 10
0.156508
 20
1.979075
  0
VERTEX
  8
PLAN_1
 62
     2
  6
CONTINUOUS
 10
0.151752
 20
1.980028
  0
VERTEX
  8
PLAN_1
 62
     2
  6
CONTINUOUS
 10
0.145567
 20
1.980976
  0
VERTEX
  8
PLAN_1
 62
     2
  6
CONTINUOUS
 10
0.139386
 20
1.980976
  0
VERTEX
  8
PLAN_1
 62
     2
  6
CONTINUOUS
 10
0.132724
 20
1.980976
  0
VERTEX
  8
PLAN_1
 62
     2
  6
CONTINUOUS
 10
0.127020
 20
1.980028
  0
VERTEX
  8
PLAN_1
 62
     2
  6
CONTINUOUS
 10
0.121787
 20
1.979075
  0
VERTEX
  8
PLAN_1
 62
     2
  6
CONTINUOUS
 10
0.117980
 20
1.977650
  0
VERTEX
  8
PLAN_1
 62
     2
  6
CONTINUOUS
 10
0.116079
 20
1.976220
  0
VERTEX
  8
PLAN_1
 62
     2
  6
CONTINUOUS
 10
0.114177
 20
1.975272
  0
VERTEX
  8
PLAN_1
 62
     2
  6
CONTINUOUS
 10
0.113224
 20
1.973843
  0
VERTEX
  8
PLAN_1
 62
     2
  6
CONTINUOUS
 10
0.111799
 20
1.972894
  0
VERTEX
  8
PLAN_1
 62
     2
  6
CONTINUOUS
 10
0.110846
 20
1.970988
  0
VERTEX
  8
PLAN_1
 62
     2
  6
CONTINUOUS
 10
0.110370
 20
1.969563
  0
VERTEX
  8
PLAN_1
 62
     2
  6
CONTINUOUS
 10
0.109894
 20
1.967661
  0
VERTEX
  8
PLAN_1
 62
     2
  6
CONTINUOUS
 10
0.109894
 20
1.965760
  0
SEQEND
  8
0
  0
POLYLINE
  8
PLAN_1
 62
     2
  6
CONTINUOUS
 66
     1
 40
0.003000
 41
0.003000
  0
VERTEX
  8
PLAN_1
 62
     2
  6
CONTINUOUS
 10
0.163642
 20
2.003807
  0
VERTEX
  8
PLAN_1
 62
     2
  6
CONTINUOUS
 10
0.163642
 20
2.014748
  0
VERTEX
  8
PLAN_1
 62
     2
  6
CONTINUOUS
 10
0.174106
 20
2.014748
  0
VERTEX
  8
PLAN_1
 62
     2
  6
CONTINUOUS
 10
0.178862
 20
2.014272
  0
VERTEX
  8
PLAN_1
 62
     2
  6
CONTINUOUS
 10
0.182665
 20
2.013319
  0
VERTEX
  8
PLAN_1
 62
     2
  6
CONTINUOUS
 10
0.185043
 20
2.011894
  0
VERTEX
  8
PLAN_1
 62
     2
  6
CONTINUOUS
 10
0.187421
 20
2.009992
  0
VERTEX
  8
PLAN_1
 62
     2
  6
CONTINUOUS
 10
0.188850
 20
2.008091
  0
VERTEX
  8
PLAN_1
 62
     2
  6
CONTINUOUS
 10
0.189327
 20
2.006661
  0
VERTEX
  8
PLAN_1
 62
     2
  6
CONTINUOUS
 10
0.189799
 20
2.004760
  0
VERTEX
  8
PLAN_1
 62
     2
  6
CONTINUOUS
 10
0.190276
 20
2.003807
  0
VERTEX
  8
PLAN_1
 62
     2
  6
CONTINUOUS
 10
0.185520
 20
2.003807
  0
VERTEX
  8
PLAN_1
 62
     2
  6
CONTINUOUS
 10
0.185043
 20
2.005236
  0
VERTEX
  8
PLAN_1
 62
     2
  6
CONTINUOUS
 10
0.184094
 20
2.006661
  0
VERTEX
  8
PLAN_1
 62
     2
  6
CONTINUOUS
 10
0.183142
 20
2.007614
  0
VERTEX
  8
PLAN_1
 62
     2
  6
CONTINUOUS
 10
0.181717
 20
2.008091
  0
VERTEX
  8
PLAN_1
 62
     2
  6
CONTINUOUS
 10
0.180287
 20
2.008563
  0
VERTEX
  8
PLAN_1
 62
     2
  6
CONTINUOUS
 10
0.178386
 20
2.009039
  0
VERTEX
  8
PLAN_1
 62
     2
  6
CONTINUOUS
 10
0.176484
 20
2.009516
  0
VERTEX
  8
PLAN_1
 62
     2
  6
CONTINUOUS
 10
0.175055
 20
2.009516
  0
VERTEX
  8
PLAN_1
 62
     2
  6
CONTINUOUS
 10
0.175055
 20
2.003807
  0
VERTEX
  8
PLAN_1
 62
     2
  6
CONTINUOUS
 10
0.163642
 20
2.003807
  0
SEQEND
  8
0
  0
POLYLINE
  8
PLAN_1
 62
     2
  6
CONTINUOUS
 66
     1
 40
0.003000
 41
0.003000
  0
VERTEX
  8
PLAN_1
 62
     2
  6
CONTINUOUS
 10
0.132248
 20
2.039004
  0
VERTEX
  8
PLAN_1
 62
     2
  6
CONTINUOUS
 10
0.131299
 20
2.040433
  0
VERTEX
  8
PLAN_1
 62
     2
  6
CONTINUOUS
 10
0.130823
 20
2.041858
  0
VERTEX
  8
PLAN_1
 62
     2
  6
CONTINUOUS
 10
0.129870
 20
2.043283
  0
VERTEX
  8
PLAN_1
 62
     2
  6
CONTINUOUS
 10
0.128921
 20
2.044713
  0
VERTEX
  8
PLAN_1
 62
     2
  6
CONTINUOUS
 10
0.128445
 20
2.046614
  0
VERTEX
  8
PLAN_1
 62
     2
  6
CONTINUOUS
 10
0.127969
 20
2.048516
  0
VERTEX
  8
PLAN_1
 62
     2
  6
CONTINUOUS
 10
0.127969
 20
2.050894
  0
VERTEX
  8
PLAN_1
 62
     2
  6
CONTINUOUS
 10
0.127969
 20
2.053272
  0
VERTEX
  8
PLAN_1
 62
     2
  6
CONTINUOUS
 10
0.127969
 20
2.057555
  0
VERTEX
  8
PLAN_1
 62
     2
  6
CONTINUOUS
 10
0.129398
 20
2.061835
  0
VERTEX
  8
PLAN_1
 62
     2
  6
CONTINUOUS
 10
0.131299
 20
2.066114
  0
VERTEX
  8
PLAN_1
 62
     2
  6
CONTINUOUS
 10
0.133677
 20
2.069445
  0
VERTEX
  8
PLAN_1
 62
     2
  6
CONTINUOUS
 10
0.135579
 20
2.071346
  0
VERTEX
  8
PLAN_1
 62
     2
  6
CONTINUOUS
 10
0.137008
 20
2.072776
  0
VERTEX
  8
PLAN_1
 62
     2
  6
CONTINUOUS
 10
0.138909
 20
2.074201
  0
VERTEX
  8
PLAN_1
 62
     2
  6
CONTINUOUS
 10
0.141287
 20
2.075154
  0
VERTEX
  8
PLAN_1
 62
     2
  6
CONTINUOUS
 10
0.143189
 20
2.076102
  0
VERTEX
  8
PLAN_1
 62
     2
  6
CONTINUOUS
 10
0.145567
 20
2.076579
  0
VERTEX
  8
PLAN_1
 62
     2
  6
CONTINUOUS
 10
0.148421
 20
2.077055
  0
VERTEX
  8
PLAN_1
 62
     2
  6
CONTINUOUS
 10
0.151276
 20
2.077055
  0
VERTEX
  8
PLAN_1
 62
     2
  6
CONTINUOUS
 10
0.154602
 20
2.077055
  0
VERTEX
  8
PLAN_1
 62
     2
  6
CONTINUOUS
 10
0.158409
 20
2.076102
  0
VERTEX
  8
PLAN_1
 62
     2
  6
CONTINUOUS
 10
0.162689
 20
2.074677
  0
VERTEX
  8
PLAN_1
 62
     2
  6
CONTINUOUS
 10
0.166972
 20
2.072776
  0
VERTEX
  8
PLAN_1
 62
     2
  6
CONTINUOUS
 10
0.168874
 20
2.070870
  0
VERTEX
  8
PLAN_1
 62
     2
  6
CONTINUOUS
 10
0.170776
 20
2.068969
  0
VERTEX
  8
PLAN_1
 62
     2
  6
CONTINUOUS
 10
0.172677
 20
2.067067
  0
VERTEX
  8
PLAN_1
 62
     2
  6
CONTINUOUS
 10
0.174106
 20
2.064689
  0
VERTEX
  8
PLAN_1
 62
     2
  6
CONTINUOUS
 10
0.175055
 20
2.061835
  0
VERTEX
  8
PLAN_1
 62
     2
  6
CONTINUOUS
 10
0.176008
 20
2.058504
  0
VERTEX
  8
PLAN_1
 62
     2
  6
CONTINUOUS
 10
0.176484
 20
2.054701
  0
VERTEX
  8
PLAN_1
 62
     2
  6
CONTINUOUS
 10
0.176961
 20
2.050894
  0
VERTEX
  8
PLAN_1
 62
     2
  6
CONTINUOUS
 10
0.176484
 20
2.047091
  0
VERTEX
  8
PLAN_1
 62
     2
  6
CONTINUOUS
 10
0.176008
 20
2.043283
  0
VERTEX
  8
PLAN_1
 62
     2
  6
CONTINUOUS
 10
0.174579
 20
2.039480
  0
VERTEX
  8
PLAN_1
 62
     2
  6
CONTINUOUS
 10
0.172677
 20
2.036150
  0
VERTEX
  8
PLAN_1
 62
     2
  6
CONTINUOUS
 10
0.171728
 20
2.034248
  0
VERTEX
  8
PLAN_1
 62
     2
  6
CONTINUOUS
 10
0.170299
 20
2.032823
  0
VERTEX
  8
PLAN_1
 62
     2
  6
CONTINUOUS
 10
0.168398
 20
2.031394
  0
VERTEX
  8
PLAN_1
 62
     2
  6
CONTINUOUS
 10
0.166496
 20
2.029969
  0
VERTEX
  8
PLAN_1
 62
     2
  6
CONTINUOUS
 10
0.164591
 20
2.029016
  0
VERTEX
  8
PLAN_1
 62
     2
  6
CONTINUOUS
 10
0.162213
 20
2.028067
  0
VERTEX
  8
PLAN_1
 62
     2
  6
CONTINUOUS
 10
0.159362
 20
2.027591
  0
VERTEX
  8
PLAN_1
 62
     2
  6
CONTINUOUS
 10
0.156508
 20
2.027114
  0
VERTEX
  8
PLAN_1
 62
     2
  6
CONTINUOUS
 10
0.156508
 20
2.036626
  0
VERTEX
  8
PLAN_1
 62
     2
  6
CONTINUOUS
 10
0.159835
 20
2.037102
  0
VERTEX
  8
PLAN_1
 62
     2
  6
CONTINUOUS
 10
0.162213
 20
2.038055
  0
VERTEX
  8
PLAN_1
 62
     2
  6
CONTINUOUS
 10
0.164118
 20
2.039480
  0
VERTEX
  8
PLAN_1
 62
     2
  6
CONTINUOUS
 10
0.166020
 20
2.041382
  0
VERTEX
  8
PLAN_1
 62
     2
  6
CONTINUOUS
 10
0.167445
 20
2.043760
  0
VERTEX
  8
PLAN_1
 62
     2
  6
CONTINUOUS
 10
0.168398
 20
2.046138
  0
VERTEX
  8
PLAN_1
 62
     2
  6
CONTINUOUS
 10
0.168874
 20
2.048992
  0
VERTEX
  8
PLAN_1
 62
     2
  6
CONTINUOUS
 10
0.168874
 20
2.051846
  0
VERTEX
  8
PLAN_1
 62
     2
  6
CONTINUOUS
 10
0.168398
 20
2.055650
  0
VERTEX
  8
PLAN_1
 62
     2
  6
CONTINUOUS
 10
0.167445
 20
2.058504
  0
VERTEX
  8
PLAN_1
 62
     2
  6
CONTINUOUS
 10
0.166020
 20
2.060882
  0
VERTEX
  8
PLAN_1
 62
     2
  6
CONTINUOUS
 10
0.164118
 20
2.063260
  0
VERTEX
  8
PLAN_1
 62
     2
  6
CONTINUOUS
 10
0.161740
 20
2.065165
  0
VERTEX
  8
PLAN_1
 62
     2
  6
CONTINUOUS
 10
0.158886
 20
2.066591
  0
VERTEX
  8
PLAN_1
 62
     2
  6
CONTINUOUS
 10
0.155555
 20
2.067067
  0
VERTEX
  8
PLAN_1
 62
     2
  6
CONTINUOUS
 10
0.152224
 20
2.067543
  0
VERTEX
  8
PLAN_1
 62
     2
  6
CONTINUOUS
 10
0.148421
 20
2.067067
  0
VERTEX
  8
PLAN_1
 62
     2
  6
CONTINUOUS
 10
0.145091
 20
2.066114
  0
VERTEX
  8
PLAN_1
 62
     2
  6
CONTINUOUS
 10
0.142236
 20
2.064689
  0
VERTEX
  8
PLAN_1
 62
     2
  6
CONTINUOUS
 10
0.140335
 20
2.062787
  0
VERTEX
  8
PLAN_1
 62
     2
  6
CONTINUOUS
 10
0.138433
 20
2.060409
  0
VERTEX
  8
PLAN_1
 62
     2
  6
CONTINUOUS
 10
0.137008
 20
2.057555
  0
VERTEX
  8
PLAN_1
 62
     2
  6
CONTINUOUS
 10
0.136055
 20
2.054701
  0
VERTEX
  8
PLAN_1
 62
     2
  6
CONTINUOUS
 10
0.136055
 20
2.051370
  0
VERTEX
  8
PLAN_1
 62
     2
  6
CONTINUOUS
 10
0.136055
 20
2.049469
  0
VERTEX
  8
PLAN_1
 62
     2
  6
CONTINUOUS
 10
0.136531
 20
2.047567
  0
VERTEX
  8
PLAN_1
 62
     2
  6
CONTINUOUS
 10
0.137008
 20
2.045661
  0
VERTEX
  8
PLAN_1
 62
     2
  6
CONTINUOUS
 10
0.137957
 20
2.043760
  0
VERTEX
  8
PLAN_1
 62
     2
  6
CONTINUOUS
 10
0.138909
 20
2.041858
  0
VERTEX
  8
PLAN_1
 62
     2
  6
CONTINUOUS
 10
0.139858
 20
2.040433
  0
VERTEX
  8
PLAN_1
 62
     2
  6
CONTINUOUS
 10
0.141287
 20
2.039004
  0
VERTEX
  8
PLAN_1
 62
     2
  6
CONTINUOUS
 10
0.142713
 20
2.037579
  0
VERTEX
  8
PLAN_1
 62
     2
  6
CONTINUOUS
 10
0.142713
 20
2.029969
  0
VERTEX
  8
PLAN_1
 62
     2
  6
CONTINUOUS
 10
0.103236
 20
2.035201
  0
VERTEX
  8
PLAN_1
 62
     2
  6
CONTINUOUS
 10
0.103236
 20
2.073248
  0
VERTEX
  8
PLAN_1
 62
     2
  6
CONTINUOUS
 10
0.112276
 20
2.073248
  0
VERTEX
  8
PLAN_1
 62
     2
  6
CONTINUOUS
 10
0.112276
 20
2.042335
  0
VERTEX
  8
PLAN_1
 62
     2
  6
CONTINUOUS
 10
0.132248
 20
2.039004
  0
SEQEND
  8
0
  0
POLYLINE
  8
PLAN_1
 62
     2
  6
CONTINUOUS
 66
     1
 40
0.003000
 41
0.003000
  0
VERTEX
  8
PLAN_1
 62
     2
  6
CONTINUOUS
 10
0.120358
 20
2.117484
  0
VERTEX
  8
PLAN_1
 62
     2
  6
CONTINUOUS
 10
0.120358
 20
2.126043
  0
VERTEX
  8
PLAN_1
 62
     2
  6
CONTINUOUS
 10
0.127969
 20
2.126043
  0
VERTEX
  8
PLAN_1
 62
     2
  6
CONTINUOUS
 10
0.127020
 20
2.126996
  0
VERTEX
  8
PLAN_1
 62
     2
  6
CONTINUOUS
 10
0.125591
 20
2.128421
  0
VERTEX
  8
PLAN_1
 62
     2
  6
CONTINUOUS
 10
0.124165
 20
2.129850
  0
VERTEX
  8
PLAN_1
 62
     2
  6
CONTINUOUS
 10
0.122260
 20
2.131276
  0
VERTEX
  8
PLAN_1
 62
     2
  6
CONTINUOUS
 10
0.120835
 20
2.133654
  0
VERTEX
  8
PLAN_1
 62
     2
  6
CONTINUOUS
 10
0.119882
 20
2.136031
  0
VERTEX
  8
PLAN_1
 62
     2
  6
CONTINUOUS
 10
0.119409
 20
2.139362
  0
VERTEX
  8
PLAN_1
 62
     2
  6
CONTINUOUS
 10
0.118933
 20
2.142689
  0
VERTEX
  8
PLAN_1
 62
     2
  6
CONTINUOUS
 10
0.118933
 20
2.146020
  0
VERTEX
  8
PLAN_1
 62
     2
  6
CONTINUOUS
 10
0.119882
 20
2.148874
  0
VERTEX
  8
PLAN_1
 62
     2
  6
CONTINUOUS
 10
0.120835
 20
2.151252
  0
VERTEX
  8
PLAN_1
 62
     2
  6
CONTINUOUS
 10
0.122260
 20
2.153154
  0
VERTEX
  8
PLAN_1
 62
     2
  6
CONTINUOUS
 10
0.123689
 20
2.154583
  0
VERTEX
  8
PLAN_1
 62
     2
  6
CONTINUOUS
 10
0.125114
 20
2.155531
  0
VERTEX
  8
PLAN_1
 62
     2
  6
CONTINUOUS
 10
0.126543
 20
2.156484
  0
VERTEX
  8
PLAN_1
 62
     2
  6
CONTINUOUS
 10
0.127969
 20
2.156961
  0
VERTEX
  8
PLAN_1
 62
     2
  6
CONTINUOUS
 10
0.126067
 20
2.158862
  0
VERTEX
  8
PLAN_1
 62
     2
  6
CONTINUOUS
 10
0.124165
 20
2.160287
  0
VERTEX
  8
PLAN_1
 62
     2
  6
CONTINUOUS
 10
0.122736
 20
2.162193
  0
VERTEX
  8
PLAN_1
 62
     2
  6
CONTINUOUS
 10
0.121311
 20
2.164094
  0
VERTEX
  8
PLAN_1
 62
     2
  6
CONTINUOUS
 10
0.120358
 20
2.165996
  0
VERTEX
  8
PLAN_1
 62
     2
  6
CONTINUOUS
 10
0.119409
 20
2.168374
  0
VERTEX
  8
PLAN_1
 62
     2
  6
CONTINUOUS
 10
0.118933
 20
2.170752
  0
VERTEX
  8
PLAN_1
 62
     2
  6
CONTINUOUS
 10
0.118933
 20
2.173606
  0
VERTEX
  8
PLAN_1
 62
     2
  6
CONTINUOUS
 10
0.118933
 20
2.175984
  0
VERTEX
  8
PLAN_1
 62
     2
  6
CONTINUOUS
 10
0.119409
 20
2.178839
  0
VERTEX
  8
PLAN_1
 62
     2
  6
CONTINUOUS
 10
0.120835
 20
2.181693
  0
VERTEX
  8
PLAN_1
 62
     2
  6
CONTINUOUS
 10
0.122260
 20
2.184547
  0
VERTEX
  8
PLAN_1
 62
     2
  6
CONTINUOUS
 10
0.124642
 20
2.186925
  0
VERTEX
  8
PLAN_1
 62
     2
  6
CONTINUOUS
 10
0.127969
 20
2.188827
  0
VERTEX
  8
PLAN_1
 62
     2
  6
CONTINUOUS
 10
0.129870
 20
2.189776
  0
VERTEX
  8
PLAN_1
 62
     2
  6
CONTINUOUS
 10
0.132248
 20
2.190252
  0
VERTEX
  8
PLAN_1
 62
     2
  6
CONTINUOUS
 10
0.134630
 20
2.190252
  0
VERTEX
  8
PLAN_1
 62
     2
  6
CONTINUOUS
 10
0.137008
 20
2.190728
  0
VERTEX
  8
PLAN_1
 62
     2
  6
CONTINUOUS
 10
0.175055
 20
2.190728
  0
VERTEX
  8
PLAN_1
 62
     2
  6
CONTINUOUS
 10
0.175055
 20
2.181217
  0
VERTEX
  8
PLAN_1
 62
     2
  6
CONTINUOUS
 10
0.139858
 20
2.181217
  0
VERTEX
  8
PLAN_1
 62
     2
  6
CONTINUOUS
 10
0.137008
 20
2.181217
  0
VERTEX
  8
PLAN_1
 62
     2
  6
CONTINUOUS
 10
0.134630
 20
2.180740
  0
VERTEX
  8
PLAN_1
 62
     2
  6
CONTINUOUS
 10
0.132248
 20
2.180264
  0
VERTEX
  8
PLAN_1
 62
     2
  6
CONTINUOUS
 10
0.130823
 20
2.179315
  0
VERTEX
  8
PLAN_1
 62
     2
  6
CONTINUOUS
 10
0.128921
 20
2.177886
  0
VERTEX
  8
PLAN_1
 62
     2
  6
CONTINUOUS
 10
0.127969
 20
2.175984
  0
VERTEX
  8
PLAN_1
 62
     2
  6
CONTINUOUS
 10
0.127492
 20
2.174083
  0
VERTEX
  8
PLAN_1
 62
     2
  6
CONTINUOUS
 10
0.127020
 20
2.171228
  0
VERTEX
  8
PLAN_1
 62
     2
  6
CONTINUOUS
 10
0.127492
 20
2.168374
  0
VERTEX
  8
PLAN_1
 62
     2
  6
CONTINUOUS
 10
0.128445
 20
2.165996
  0
VERTEX
  8
PLAN_1
 62
     2
  6
CONTINUOUS
 10
0.129870
 20
2.164094
  0
VERTEX
  8
PLAN_1
 62
     2
  6
CONTINUOUS
 10
0.131776
 20
2.162193
  0
VERTEX
  8
PLAN_1
 62
     2
  6
CONTINUOUS
 10
0.133677
 20
2.160764
  0
VERTEX
  8
PLAN_1
 62
     2
  6
CONTINUOUS
 10
0.136531
 20
2.159339
  0
VERTEX
  8
PLAN_1
 62
     2
  6
CONTINUOUS
 10
0.138909
 20
2.158862
  0
VERTEX
  8
PLAN_1
 62
     2
  6
CONTINUOUS
 10
0.141764
 20
2.158386
  0
VERTEX
  8
PLAN_1
 62
     2
  6
CONTINUOUS
 10
0.175055
 20
2.158386
  0
VERTEX
  8
PLAN_1
 62
     2
  6
CONTINUOUS
 10
0.175055
 20
2.149350
  0
VERTEX
  8
PLAN_1
 62
     2
  6
CONTINUOUS
 10
0.137008
 20
2.149350
  0
VERTEX
  8
PLAN_1
 62
     2
  6
CONTINUOUS
 10
0.135579
 20
2.149350
  0
VERTEX
  8
PLAN_1
 62
     2
  6
CONTINUOUS
 10
0.133677
 20
2.148874
  0
VERTEX
  8
PLAN_1
 62
     2
  6
CONTINUOUS
 10
0.131776
 20
2.148398
  0
VERTEX
  8
PLAN_1
 62
     2
  6
CONTINUOUS
 10
0.130346
 20
2.147449
  0
VERTEX
  8
PLAN_1
 62
     2
  6
CONTINUOUS
 10
0.128921
 20
2.146496
  0
VERTEX
  8
PLAN_1
 62
     2
  6
CONTINUOUS
 10
0.127969
 20
2.145067
  0
VERTEX
  8
PLAN_1
 62
     2
  6
CONTINUOUS
 10
0.127492
 20
2.143165
  0
VERTEX
  8
PLAN_1
 62
     2
  6
CONTINUOUS
 10
0.127020
 20
2.140787
  0
VERTEX
  8
PLAN_1
 62
     2
  6
CONTINUOUS
 10
0.127492
 20
2.138886
  0
VERTEX
  8
PLAN_1
 62
     2
  6
CONTINUOUS
 10
0.127969
 20
2.136508
  0
VERTEX
  8
PLAN_1
 62
     2
  6
CONTINUOUS
 10
0.128921
 20
2.134130
  0
VERTEX
  8
PLAN_1
 62
     2
  6
CONTINUOUS
 10
0.130823
 20
2.131752
  0
VERTEX
  8
PLAN_1
 62
     2
  6
CONTINUOUS
 10
0.133201
 20
2.129850
  0
VERTEX
  8
PLAN_1
 62
     2
  6
CONTINUOUS
 10
0.136055
 20
2.127945
  0
VERTEX
  8
PLAN_1
 62
     2
  6
CONTINUOUS
 10
0.140335
 20
2.126996
  0
VERTEX
  8
PLAN_1
 62
     2
  6
CONTINUOUS
 10
0.145091
 20
2.126520
  0
VERTEX
  8
PLAN_1
 62
     2
  6
CONTINUOUS
 10
0.175055
 20
2.126520
  0
VERTEX
  8
PLAN_1
 62
     2
  6
CONTINUOUS
 10
0.175055
 20
2.117484
  0
VERTEX
  8
PLAN_1
 62
     2
  6
CONTINUOUS
 10
0.120358
 20
2.117484
  0
SEQEND
  8
0
  0
POLYLINE
  8
PLAN_1
 62
     2
  6
CONTINUOUS
 66
     1
 40
0.003000
 41
0.003000
  0
VERTEX
  8
PLAN_1
 62
     2
  6
CONTINUOUS
 10
0.137008
 20
2.203571
  0
VERTEX
  8
PLAN_1
 62
     2
  6
CONTINUOUS
 10
0.132248
 20
2.204524
  0
VERTEX
  8
PLAN_1
 62
     2
  6
CONTINUOUS
 10
0.128921
 20
2.205472
  0
VERTEX
  8
PLAN_1
 62
     2
  6
CONTINUOUS
 10
0.125591
 20
2.207374
  0
VERTEX
  8
PLAN_1
 62
     2
  6
CONTINUOUS
 10
0.123213
 20
2.210228
  0
VERTEX
  8
PLAN_1
 62
     2
  6
CONTINUOUS
 10
0.121311
 20
2.213559
  0
VERTEX
  8
PLAN_1
 62
     2
  6
CONTINUOUS
 10
0.119882
 20
2.217362
  0
VERTEX
  8
PLAN_1
 62
     2
  6
CONTINUOUS
 10
0.118933
 20
2.221646
  0
VERTEX
  8
PLAN_1
 62
     2
  6
CONTINUOUS
 10
0.118933
 20
2.226402
  0
VERTEX
  8
PLAN_1
 62
     2
  6
CONTINUOUS
 10
0.118933
 20
2.228303
  0
VERTEX
  8
PLAN_1
 62
     2
  6
CONTINUOUS
 10
0.119409
 20
2.231157
  0
VERTEX
  8
PLAN_1
 62
     2
  6
CONTINUOUS
 10
0.119882
 20
2.234488
  0
VERTEX
  8
PLAN_1
 62
     2
  6
CONTINUOUS
 10
0.121311
 20
2.237815
  0
VERTEX
  8
PLAN_1
 62
     2
  6
CONTINUOUS
 10
0.123213
 20
2.241146
  0
VERTEX
  8
PLAN_1
 62
     2
  6
CONTINUOUS
 10
0.126067
 20
2.244000
  0
VERTEX
  8
PLAN_1
 62
     2
  6
CONTINUOUS
 10
0.127492
 20
2.244949
  0
VERTEX
  8
PLAN_1
 62
     2
  6
CONTINUOUS
 10
0.129398
 20
2.245902
  0
VERTEX
  8
PLAN_1
 62
     2
  6
CONTINUOUS
 10
0.131776
 20
2.246378
  0
VERTEX
  8
PLAN_1
 62
     2
  6
CONTINUOUS
 10
0.134154
 20
2.246378
  0
VERTEX
  8
PLAN_1
 62
     2
  6
CONTINUOUS
 10
0.165543
 20
2.246378
  0
VERTEX
  8
PLAN_1
 62
     2
  6
CONTINUOUS
 10
0.166020
 20
2.246378
  0
VERTEX
  8
PLAN_1
 62
     2
  6
CONTINUOUS
 10
0.166972
 20
2.246854
  0
VERTEX
  8
PLAN_1
 62
     2
  6
CONTINUOUS
 10
0.167445
 20
2.246854
  0
VERTEX
  8
PLAN_1
 62
     2
  6
CONTINUOUS
 10
0.167921
 20
2.247327
  0
VERTEX
  8
PLAN_1
 62
     2
  6
CONTINUOUS
 10
0.168398
 20
2.247803
  0
VERTEX
  8
PLAN_1
 62
     2
  6
CONTINUOUS
 10
0.168398
 20
2.248280
  0
VERTEX
  8
PLAN_1
 62
     2
  6
CONTINUOUS
 10
0.168398
 20
2.248756
  0
VERTEX
  8
PLAN_1
 62
     2
  6
CONTINUOUS
 10
0.168398
 20
2.249232
  0
VERTEX
  8
PLAN_1
 62
     2
  6
CONTINUOUS
 10
0.168398
 20
2.249705
  0
VERTEX
  8
PLAN_1
 62
     2
  6
CONTINUOUS
 10
0.168398
 20
2.250181
  0
VERTEX
  8
PLAN_1
 62
     2
  6
CONTINUOUS
 10
0.168398
 20
2.250657
  0
VERTEX
  8
PLAN_1
 62
     2
  6
CONTINUOUS
 10
0.168398
 20
2.251134
  0
VERTEX
  8
PLAN_1
 62
     2
  6
CONTINUOUS
 10
0.168398
 20
2.251610
  0
VERTEX
  8
PLAN_1
 62
     2
  6
CONTINUOUS
 10
0.168398
 20
2.252083
  0
VERTEX
  8
PLAN_1
 62
     2
  6
CONTINUOUS
 10
0.168398
 20
2.252559
  0
VERTEX
  8
PLAN_1
 62
     2
  6
CONTINUOUS
 10
0.175055
 20
2.252559
  0
VERTEX
  8
PLAN_1
 62
     2
  6
CONTINUOUS
 10
0.175055
 20
2.252083
  0
VERTEX
  8
PLAN_1
 62
     2
  6
CONTINUOUS
 10
0.175055
 20
2.251134
  0
VERTEX
  8
PLAN_1
 62
     2
  6
CONTINUOUS
 10
0.175531
 20
2.250657
  0
VERTEX
  8
PLAN_1
 62
     2
  6
CONTINUOUS
 10
0.175531
 20
2.250181
  0
VERTEX
  8
PLAN_1
 62
     2
  6
CONTINUOUS
 10
0.175531
 20
2.249705
  0
VERTEX
  8
PLAN_1
 62
     2
  6
CONTINUOUS
 10
0.176008
 20
2.248756
  0
VERTEX
  8
PLAN_1
 62
     2
  6
CONTINUOUS
 10
0.176008
 20
2.248280
  0
VERTEX
  8
PLAN_1
 62
     2
  6
CONTINUOUS
 10
0.176008
 20
2.247327
  0
VERTEX
  8
PLAN_1
 62
     2
  6
CONTINUOUS
 10
0.175531
 20
2.244949
  0
VERTEX
  8
PLAN_1
 62
     2
  6
CONTINUOUS
 10
0.175055
 20
2.242571
  0
VERTEX
  8
PLAN_1
 62
     2
  6
CONTINUOUS
 10
0.174579
 20
2.241146
  0
VERTEX
  8
PLAN_1
 62
     2
  6
CONTINUOUS
 10
0.173154
 20
2.239717
  0
VERTEX
  8
PLAN_1
 62
     2
  6
CONTINUOUS
 10
0.172201
 20
2.238768
  0
VERTEX
  8
PLAN_1
 62
     2
  6
CONTINUOUS
 10
0.170776
 20
2.238291
  0
VERTEX
  8
PLAN_1
 62
     2
  6
CONTINUOUS
 10
0.169350
 20
2.237815
  0
VERTEX
  8
PLAN_1
 62
     2
  6
CONTINUOUS
 10
0.167445
 20
2.237815
  0
VERTEX
  8
PLAN_1
 62
     2
  6
CONTINUOUS
 10
0.168874
 20
2.236390
  0
VERTEX
  8
PLAN_1
 62
     2
  6
CONTINUOUS
 10
0.170776
 20
2.234961
  0
VERTEX
  8
PLAN_1
 62
     2
  6
CONTINUOUS
 10
0.172201
 20
2.232583
  0
VERTEX
  8
PLAN_1
 62
     2
  6
CONTINUOUS
 10
0.173630
 20
2.230681
  0
VERTEX
  8
PLAN_1
 62
     2
  6
CONTINUOUS
 10
0.174579
 20
2.228303
  0
VERTEX
  8
PLAN_1
 62
     2
  6
CONTINUOUS
 10
0.175531
 20
2.224972
  0
VERTEX
  8
PLAN_1
 62
     2
  6
CONTINUOUS
 10
0.176008
 20
2.222118
  0
VERTEX
  8
PLAN_1
 62
     2
  6
CONTINUOUS
 10
0.176484
 20
2.218315
  0
VERTEX
  8
PLAN_1
 62
     2
  6
CONTINUOUS
 10
0.176008
 20
2.214512
  0
VERTEX
  8
PLAN_1
 62
     2
  6
CONTINUOUS
 10
0.175055
 20
2.211181
  0
VERTEX
  8
PLAN_1
 62
     2
  6
CONTINUOUS
 10
0.174106
 20
2.208327
  0
VERTEX
  8
PLAN_1
 62
     2
  6
CONTINUOUS
 10
0.172201
 20
2.205949
  0
VERTEX
  8
PLAN_1
 62
     2
  6
CONTINUOUS
 10
0.169823
 20
2.204047
  0
VERTEX
  8
PLAN_1
 62
     2
  6
CONTINUOUS
 10
0.166972
 20
2.202146
  0
VERTEX
  8
PLAN_1
 62
     2
  6
CONTINUOUS
 10
0.164118
 20
2.201193
  0
VERTEX
  8
PLAN_1
 62
     2
  6
CONTINUOUS
 10
0.160787
 20
2.201193
  0
VERTEX
  8
PLAN_1
 62
     2
  6
CONTINUOUS
 10
0.158886
 20
2.201193
  0
VERTEX
  8
PLAN_1
 62
     2
  6
CONTINUOUS
 10
0.156508
 20
2.201669
  0
VERTEX
  8
PLAN_1
 62
     2
  6
CONTINUOUS
 10
0.153654
 20
2.202146
  0
VERTEX
  8
PLAN_1
 62
     2
  6
CONTINUOUS
 10
0.151276
 20
2.203571
  0
VERTEX
  8
PLAN_1
 62
     2
  6
CONTINUOUS
 10
0.148898
 20
2.205472
  0
VERTEX
  8
PLAN_1
 62
     2
  6
CONTINUOUS
 10
0.146520
 20
2.208803
  0
VERTEX
  8
PLAN_1
 62
     2
  6
CONTINUOUS
 10
0.145567
 20
2.210228
  0
VERTEX
  8
PLAN_1
 62
     2
  6
CONTINUOUS
 10
0.144618
 20
2.212606
  0
VERTEX
  8
PLAN_1
 62
     2
  6
CONTINUOUS
 10
0.144142
 20
2.214984
  0
VERTEX
  8
PLAN_1
 62
     2
  6
CONTINUOUS
 10
0.143665
 20
2.217839
  0
VERTEX
  8
PLAN_1
 62
     2
  6
CONTINUOUS
 10
0.141764
 20
2.232583
  0
VERTEX
  8
PLAN_1
 62
     2
  6
CONTINUOUS
 10
0.141764
 20
2.233535
  0
VERTEX
  8
PLAN_1
 62
     2
  6
CONTINUOUS
 10
0.141287
 20
2.234488
  0
VERTEX
  8
PLAN_1
 62
     2
  6
CONTINUOUS
 10
0.141287
 20
2.234961
  0
VERTEX
  8
PLAN_1
 62
     2
  6
CONTINUOUS
 10
0.140335
 20
2.235913
  0
VERTEX
  8
PLAN_1
 62
     2
  6
CONTINUOUS
 10
0.139858
 20
2.236390
  0
VERTEX
  8
PLAN_1
 62
     2
  6
CONTINUOUS
 10
0.138433
 20
2.236866
  0
VERTEX
  8
PLAN_1
 62
     2
  6
CONTINUOUS
 10
0.137008
 20
2.237339
  0
VERTEX
  8
PLAN_1
 62
     2
  6
CONTINUOUS
 10
0.135102
 20
2.237339
  0
VERTEX
  8
PLAN_1
 62
     2
  6
CONTINUOUS
 10
0.133201
 20
2.237339
  0
VERTEX
  8
PLAN_1
 62
     2
  6
CONTINUOUS
 10
0.131776
 20
2.236866
  0
VERTEX
  8
PLAN_1
 62
     2
  6
CONTINUOUS
 10
0.129870
 20
2.235913
  0
VERTEX
  8
PLAN_1
 62
     2
  6
CONTINUOUS
 10
0.128921
 20
2.234488
  0
VERTEX
  8
PLAN_1
 62
     2
  6
CONTINUOUS
 10
0.127969
 20
2.232583
  0
VERTEX
  8
PLAN_1
 62
     2
  6
CONTINUOUS
 10
0.127020
 20
2.230205
  0
VERTEX
  8
PLAN_1
 62
     2
  6
CONTINUOUS
 10
0.126543
 20
2.227827
  0
VERTEX
  8
PLAN_1
 62
     2
  6
CONTINUOUS
 10
0.126543
 20
2.224500
  0
VERTEX
  8
PLAN_1
 62
     2
  6
CONTINUOUS
 10
0.126543
 20
2.221169
  0
VERTEX
  8
PLAN_1
 62
     2
  6
CONTINUOUS
 10
0.127492
 20
2.218315
  0
VERTEX
  8
PLAN_1
 62
     2
  6
CONTINUOUS
 10
0.128921
 20
2.216413
  0
VERTEX
  8
PLAN_1
 62
     2
  6
CONTINUOUS
 10
0.130346
 20
2.214984
  0
VERTEX
  8
PLAN_1
 62
     2
  6
CONTINUOUS
 10
0.131776
 20
2.213559
  0
VERTEX
  8
PLAN_1
 62
     2
  6
CONTINUOUS
 10
0.133677
 20
2.213083
  0
VERTEX
  8
PLAN_1
 62
     2
  6
CONTINUOUS
 10
0.135579
 20
2.212606
  0
VERTEX
  8
PLAN_1
 62
     2
  6
CONTINUOUS
 10
0.137008
 20
2.212134
  0
VERTEX
  8
PLAN_1
 62
     2
  6
CONTINUOUS
 10
0.137008
 20
2.203571
  0
SEQEND
  8
0
  0
POLYLINE
  8
PLAN_1
 62
     2
  6
CONTINUOUS
 66
     1
 40
0.003000
 41
0.003000
  0
VERTEX
  8
PLAN_1
 62
     2
  6
CONTINUOUS
 10
0.146996
 20
2.237339
  0
VERTEX
  8
PLAN_1
 62
     2
  6
CONTINUOUS
 10
0.147469
 20
2.236866
  0
VERTEX
  8
PLAN_1
 62
     2
  6
CONTINUOUS
 10
0.147945
 20
2.235913
  0
VERTEX
  8
PLAN_1
 62
     2
  6
CONTINUOUS
 10
0.148421
 20
2.234961
  0
VERTEX
  8
PLAN_1
 62
     2
  6
CONTINUOUS
 10
0.148898
 20
2.233535
  0
VERTEX
  8
PLAN_1
 62
     2
  6
CONTINUOUS
 10
0.148898
 20
2.231634
  0
VERTEX
  8
PLAN_1
 62
     2
  6
CONTINUOUS
 10
0.149374
 20
2.229256
  0
VERTEX
  8
PLAN_1
 62
     2
  6
CONTINUOUS
 10
0.149846
 20
2.225925
  0
VERTEX
  8
PLAN_1
 62
     2
  6
CONTINUOUS
 10
0.150323
 20
2.222118
  0
VERTEX
  8
PLAN_1
 62
     2
  6
CONTINUOUS
 10
0.150799
 20
2.220217
  0
VERTEX
  8
PLAN_1
 62
     2
  6
CONTINUOUS
 10
0.151276
 20
2.218315
  0
VERTEX
  8
PLAN_1
 62
     2
  6
CONTINUOUS
 10
0.151752
 20
2.216413
  0
VERTEX
  8
PLAN_1
 62
     2
  6
CONTINUOUS
 10
0.152701
 20
2.214512
  0
VERTEX
  8
PLAN_1
 62
     2
  6
CONTINUOUS
 10
0.153654
 20
2.213083
  0
VERTEX
  8
PLAN_1
 62
     2
  6
CONTINUOUS
 10
0.155079
 20
2.211657
  0
VERTEX
  8
PLAN_1
 62
     2
  6
CONTINUOUS
 10
0.156984
 20
2.210705
  0
VERTEX
  8
PLAN_1
 62
     2
  6
CONTINUOUS
 10
0.159362
 20
2.210705
  0
VERTEX
  8
PLAN_1
 62
     2
  6
CONTINUOUS
 10
0.161264
 20
2.210705
  0
VERTEX
  8
PLAN_1
 62
     2
  6
CONTINUOUS
 10
0.163165
 20
2.211181
  0
VERTEX
  8
PLAN_1
 62
     2
  6
CONTINUOUS
 10
0.165067
 20
2.211657
  0
VERTEX
  8
PLAN_1
 62
     2
  6
CONTINUOUS
 10
0.166496
 20
2.213083
  0
VERTEX
  8
PLAN_1
 62
     2
  6
CONTINUOUS
 10
0.167445
 20
2.214512
  0
VERTEX
  8
PLAN_1
 62
     2
  6
CONTINUOUS
 10
0.168398
 20
2.215937
  0
VERTEX
  8
PLAN_1
 62
     2
  6
CONTINUOUS
 10
0.168874
 20
2.217839
  0
VERTEX
  8
PLAN_1
 62
     2
  6
CONTINUOUS
 10
0.168874
 20
2.220217
  0
VERTEX
  8
PLAN_1
 62
     2
  6
CONTINUOUS
 10
0.168398
 20
2.223547
  0
VERTEX
  8
PLAN_1
 62
     2
  6
CONTINUOUS
 10
0.167921
 20
2.226878
  0
VERTEX
  8
PLAN_1
 62
     2
  6
CONTINUOUS
 10
0.166496
 20
2.229728
  0
VERTEX
  8
PLAN_1
 62
     2
  6
CONTINUOUS
 10
0.165067
 20
2.232106
  0
VERTEX
  8
PLAN_1
 62
     2
  6
CONTINUOUS
 10
0.163165
 20
2.234012
  0
VERTEX
  8
PLAN_1
 62
     2
  6
CONTINUOUS
 10
0.161264
 20
2.235913
  0
VERTEX
  8
PLAN_1
 62
     2
  6
CONTINUOUS
 10
0.158886
 20
2.236866
  0
VERTEX
  8
PLAN_1
 62
     2
  6
CONTINUOUS
 10
0.156031
 20
2.237339
  0
VERTEX
  8
PLAN_1
 62
     2
  6
CONTINUOUS
 10
0.146996
 20
2.237339
  0
SEQEND
  8
0
  0
POLYLINE
  8
PLAN_1
 62
     2
  6
CONTINUOUS
 66
     1
 40
0.003000
 41
0.003000
  0
VERTEX
  8
PLAN_1
 62
     2
  6
CONTINUOUS
 10
0.175055
 20
2.306307
  0
VERTEX
  8
PLAN_1
 62
     2
  6
CONTINUOUS
 10
0.175055
 20
2.294413
  0
VERTEX
  8
PLAN_1
 62
     2
  6
CONTINUOUS
 10
0.154602
 20
2.281098
  0
VERTEX
  8
PLAN_1
 62
     2
  6
CONTINUOUS
 10
0.175055
 20
2.267780
  0
VERTEX
  8
PLAN_1
 62
     2
  6
CONTINUOUS
 10
0.175055
 20
2.256366
  0
VERTEX
  8
PLAN_1
 62
     2
  6
CONTINUOUS
 10
0.146996
 20
2.275390
  0
VERTEX
  8
PLAN_1
 62
     2
  6
CONTINUOUS
 10
0.120358
 20
2.257315
  0
VERTEX
  8
PLAN_1
 62
     2
  6
CONTINUOUS
 10
0.120358
 20
2.269209
  0
VERTEX
  8
PLAN_1
 62
     2
  6
CONTINUOUS
 10
0.139386
 20
2.281575
  0
VERTEX
  8
PLAN_1
 62
     2
  6
CONTINUOUS
 10
0.120358
 20
2.294413
  0
VERTEX
  8
PLAN_1
 62
     2
  6
CONTINUOUS
 10
0.120358
 20
2.305354
  0
VERTEX
  8
PLAN_1
 62
     2
  6
CONTINUOUS
 10
0.146996
 20
2.287280
  0
VERTEX
  8
PLAN_1
 62
     2
  6
CONTINUOUS
 10
0.175055
 20
2.306307
  0
SEQEND
  8
0
  0
SOLID
  8
PLAN_1
 62
     2
 10
0.175055
 20
2.323429
 11
0.175055
 21
2.314390
 12
0.120358
 22
2.323429
 13
0.120358
 23
2.314390
  0
POLYLINE
  8
PLAN_1
 62
     2
  6
CONTINUOUS
 66
     1
 40
0.003000
 41
0.003000
  0
VERTEX
  8
PLAN_1
 62
     2
  6
CONTINUOUS
 10
0.175055
 20
2.323429
  0
VERTEX
  8
PLAN_1
 62
     2
  6
CONTINUOUS
 10
0.175055
 20
2.314390
  0
VERTEX
  8
PLAN_1
 62
     2
  6
CONTINUOUS
 10
0.120358
 20
2.314390
  0
VERTEX
  8
PLAN_1
 62
     2
  6
CONTINUOUS
 10
0.120358
 20
2.323429
  0
VERTEX
  8
PLAN_1
 62
     2
  6
CONTINUOUS
 10
0.175055
 20
2.323429
  0
SEQEND
  8
0
  0
SOLID
  8
PLAN_1
 62
     2
 10
0.110370
 20
2.314390
 11
0.100382
 21
2.314390
 12
0.110370
 22
2.323429
 13
0.100382
 23
2.323429
  0
POLYLINE
  8
PLAN_1
 62
     2
  6
CONTINUOUS
 66
     1
 40
0.003000
 41
0.003000
  0
VERTEX
  8
PLAN_1
 62
     2
  6
CONTINUOUS
 10
0.110370
 20
2.314390
  0
VERTEX
  8
PLAN_1
 62
     2
  6
CONTINUOUS
 10
0.100382
 20
2.314390
  0
VERTEX
  8
PLAN_1
 62
     2
  6
CONTINUOUS
 10
0.100382
 20
2.323429
  0
VERTEX
  8
PLAN_1
 62
     2
  6
CONTINUOUS
 10
0.110370
 20
2.323429
  0
VERTEX
  8
PLAN_1
 62
     2
  6
CONTINUOUS
 10
0.110370
 20
2.314390
  0
SEQEND
  8
0
  0
POLYLINE
  8
PLAN_1
 62
     2
  6
CONTINUOUS
 66
     1
 40
0.004280
 41
0.004280
  0
VERTEX
  8
PLAN_1
 62
     2
  6
CONTINUOUS
 10
-0.976433
 20
1.316531
  0
VERTEX
  8
PLAN_1
 62
     2
  6
CONTINUOUS
 10
-0.412343
 20
1.316531
  0
SEQEND
  8
0
  0
POLYLINE
  8
PLAN_1
 62
     2
  6
CONTINUOUS
 66
     1
 40
0.004280
 41
0.004280
  0
VERTEX
  8
PLAN_1
 62
     2
  6
CONTINUOUS
 10
-0.109843
 20
0.608323
  0
VERTEX
  8
PLAN_1
 62
     2
  6
CONTINUOUS
 10
0.222142
 20
0.608323
  0
SEQEND
  8
0
  0
POLYLINE
  8
PLAN_1
 62
     2
  6
CONTINUOUS
 66
     1
 40
0.004280
 41
0.004280
  0
VERTEX
  8
PLAN_1
 62
     2
  6
CONTINUOUS
 10
-0.640642
 20
3.543406
  0
VERTEX
  8
PLAN_1
 62
     2
  6
CONTINUOUS
 10
0.218339
 20
3.543406
  0
SEQEND
  8
0
  0
ENDSEC
  0
EOF
