  0
SECTION
  2
HEADER
  9
$ACADVER
  1
AC1006
  9
$EXTMIN
 10
-2.341236
 20
-3.811142
  9
$EXTMAX
 10
2.336000
 20
3.810000
  9
$LTSCALE
 40
0.000394
  9
$PDMODE
 70
    35
  9
$PDSIZE
 40
0.000315
  0
ENDSEC
  0
SECTION
  2
TABLES
  0
TABLE
  2
LTYPE
 70
     9
  0
LTYPE
  2
CONTINUOUS
 70
    64
  3
Solid line
 72
    65
 73
     0
 40
0.000000
  0
LTYPE
  2
DASHED
 70
    64
  3
__ __ __ __ __ __ __ __ __ __ __ __ __ __ __
 72
    65
 73
     2
 40
0.000003
 49
0.000002
 49
-0.000001
  0
LTYPE
  2
HIDDEN
 70
    64
  3
 _ _ _ _ _ _ _ _ _ _ _ _ _ _ _ _ _ _ _ _ _ _
 72
    65
 73
     2
 40
0.000001
 49
0.000001
 49
-0.000000
  0
LTYPE
  2
CENTER
 70
    64
  3
____ _ ____ _ ____ _ ____ _ ____ _ ____ _ ____
 72
    65
 73
     4
 40
0.000008
 49
0.000005
 49
-0.000001
 49
0.000001
 49
-0.000001
  0
LTYPE
  2
PHANTOM
 70
    64
  3
_____ _ _ _____ _ _ _____ _ _ _____ _ _ ____
 72
    65
 73
     6
 40
0.000010
 49
0.000005
 49
-0.000001
 49
0.000001
 49
-0.000001
 49
0.000001
 49
-0.000001
  0
LTYPE
  2
DOT
 70
    64
  3
...............................................
 72
    65
 73
     2
 40
0.000001
 49
0.000000
 49
-0.000001
  0
LTYPE
  2
DASHDOT
 70
    64
  3
__ . __ . __ . __ . __ . __ . __ . __ . __ . __
 72
    65
 73
     4
 40
0.000004
 49
0.000002
 49
-0.000001
 49
0.000000
 49
-0.000001
  0
LTYPE
  2
BORDER
 70
    64
  3
__ __ . __ __ . __ __ . __ __ . __ __ . __ __
 72
    65
 73
     6
 40
0.000007
 49
0.000002
 49
-0.000001
 49
0.000002
 49
-0.000001
 49
0.000000
 49
-0.000001
  0
LTYPE
  2
DIVIDE
 70
    64
  3
__ . . __ . . __ . . __ . . __ . . __ . . __
 72
    65
 73
     6
 40
0.000005
 49
0.000002
 49
-0.000001
 49
0.000000
 49
-0.000001
 49
0.000000
 49
-0.000001
  0
LTYPE
  2
DOTDOT
 70
    64
  3
 . .  . .  . .  . .  . .  . . 
 72
    65
 73
     5
 40
0.000002
 49
-0.000001
 49
0.000000
 49
-0.000001
 49
0.000000
 49
-0.000001
  0
ENDTAB
  0
TABLE
  2
STYLE
 70
     0
  0
ENDTAB
  0
TABLE
  2
LAYER
 70
     3
  0
LAYER
  2
FOREGROUND
 70
    64
 62
     7
  6
CONTINUOUS
  0
LAYER
  2
BACKGROUND
 70
    65
 62
    -7
  6
CONTINUOUS
  0
LAYER
  2
PLAN_1
 70
    64
 62
     7
  6
CONTINUOUS
  0
ENDTAB
  0
ENDSEC
  0
SECTION
  2
ENTITIES
  0
POLYLINE
  8
PLAN_1
  6
CONTINUOUS
 66
     1
 40
0.003000
 41
0.003000
  0
VERTEX
  8
PLAN_1
  6
CONTINUOUS
 10
0.532646
 20
-3.776370
  0
VERTEX
  8
PLAN_1
  6
CONTINUOUS
 10
0.375461
 20
-3.776370
  0
VERTEX
  8
PLAN_1
  6
CONTINUOUS
 10
0.375461
 20
-3.753984
  0
VERTEX
  8
PLAN_1
  6
CONTINUOUS
 10
0.497874
 20
-3.601087
  0
VERTEX
  8
PLAN_1
  6
CONTINUOUS
 10
0.384988
 20
-3.601087
  0
VERTEX
  8
PLAN_1
  6
CONTINUOUS
 10
0.384988
 20
-3.577268
  0
VERTEX
  8
PLAN_1
  6
CONTINUOUS
 10
0.532646
 20
-3.577268
  0
VERTEX
  8
PLAN_1
  6
CONTINUOUS
 10
0.532646
 20
-3.600610
  0
VERTEX
  8
PLAN_1
  6
CONTINUOUS
 10
0.409756
 20
-3.752555
  0
VERTEX
  8
PLAN_1
  6
CONTINUOUS
 10
0.532646
 20
-3.752555
  0
VERTEX
  8
PLAN_1
  6
CONTINUOUS
 10
0.532646
 20
-3.776370
  0
SEQEND
  8
0
  0
POLYLINE
  8
PLAN_1
  6
CONTINUOUS
 66
     1
 40
0.003000
 41
0.003000
  0
VERTEX
  8
PLAN_1
  6
CONTINUOUS
 10
0.699835
 20
-3.637283
  0
VERTEX
  8
PLAN_1
  6
CONTINUOUS
 10
0.698406
 20
-3.631094
  0
VERTEX
  8
PLAN_1
  6
CONTINUOUS
 10
0.696024
 20
-3.625378
  0
VERTEX
  8
PLAN_1
  6
CONTINUOUS
 10
0.693646
 20
-3.620138
  0
VERTEX
  8
PLAN_1
  6
CONTINUOUS
 10
0.690787
 20
-3.615850
  0
VERTEX
  8
PLAN_1
  6
CONTINUOUS
 10
0.687453
 20
-3.612039
  0
VERTEX
  8
PLAN_1
  6
CONTINUOUS
 10
0.684118
 20
-3.608705
  0
VERTEX
  8
PLAN_1
  6
CONTINUOUS
 10
0.680307
 20
-3.605846
  0
VERTEX
  8
PLAN_1
  6
CONTINUOUS
 10
0.676496
 20
-3.603469
  0
VERTEX
  8
PLAN_1
  6
CONTINUOUS
 10
0.672209
 20
-3.601087
  0
VERTEX
  8
PLAN_1
  6
CONTINUOUS
 10
0.668398
 20
-3.599657
  0
VERTEX
  8
PLAN_1
  6
CONTINUOUS
 10
0.664110
 20
-3.598228
  0
VERTEX
  8
PLAN_1
  6
CONTINUOUS
 10
0.659827
 20
-3.597276
  0
VERTEX
  8
PLAN_1
  6
CONTINUOUS
 10
0.651728
 20
-3.596323
  0
VERTEX
  8
PLAN_1
  6
CONTINUOUS
 10
0.644106
 20
-3.595846
  0
VERTEX
  8
PLAN_1
  6
CONTINUOUS
 10
0.637437
 20
-3.595846
  0
VERTEX
  8
PLAN_1
  6
CONTINUOUS
 10
0.630768
 20
-3.596799
  0
VERTEX
  8
PLAN_1
  6
CONTINUOUS
 10
0.624579
 20
-3.598705
  0
VERTEX
  8
PLAN_1
  6
CONTINUOUS
 10
0.618862
 20
-3.600610
  0
VERTEX
  8
PLAN_1
  6
CONTINUOUS
 10
0.613146
 20
-3.603469
  0
VERTEX
  8
PLAN_1
  6
CONTINUOUS
 10
0.607429
 20
-3.606799
  0
VERTEX
  8
PLAN_1
  6
CONTINUOUS
 10
0.602665
 20
-3.611087
  0
VERTEX
  8
PLAN_1
  6
CONTINUOUS
 10
0.597902
 20
-3.615850
  0
VERTEX
  8
PLAN_1
  6
CONTINUOUS
 10
0.593618
 20
-3.621091
  0
VERTEX
  8
PLAN_1
  6
CONTINUOUS
 10
0.589807
 20
-3.626807
  0
VERTEX
  8
PLAN_1
  6
CONTINUOUS
 10
0.586949
 20
-3.633476
  0
VERTEX
  8
PLAN_1
  6
CONTINUOUS
 10
0.584091
 20
-3.640142
  0
VERTEX
  8
PLAN_1
  6
CONTINUOUS
 10
0.581709
 20
-3.648240
  0
VERTEX
  8
PLAN_1
  6
CONTINUOUS
 10
0.580280
 20
-3.656339
  0
VERTEX
  8
PLAN_1
  6
CONTINUOUS
 10
0.579327
 20
-3.665390
  0
VERTEX
  8
PLAN_1
  6
CONTINUOUS
 10
0.578850
 20
-3.674913
  0
VERTEX
  8
PLAN_1
  6
CONTINUOUS
 10
0.578850
 20
-3.683488
  0
VERTEX
  8
PLAN_1
  6
CONTINUOUS
 10
0.579803
 20
-3.692063
  0
VERTEX
  8
PLAN_1
  6
CONTINUOUS
 10
0.580756
 20
-3.700161
  0
VERTEX
  8
PLAN_1
  6
CONTINUOUS
 10
0.582185
 20
-3.707780
  0
VERTEX
  8
PLAN_1
  6
CONTINUOUS
 10
0.584091
 20
-3.714925
  0
VERTEX
  8
PLAN_1
  6
CONTINUOUS
 10
0.586949
 20
-3.721594
  0
VERTEX
  8
PLAN_1
  6
CONTINUOUS
 10
0.589807
 20
-3.728264
  0
VERTEX
  8
PLAN_1
  6
CONTINUOUS
 10
0.593618
 20
-3.733980
  0
VERTEX
  8
PLAN_1
  6
CONTINUOUS
 10
0.597425
 20
-3.739217
  0
VERTEX
  8
PLAN_1
  6
CONTINUOUS
 10
0.602189
 20
-3.743980
  0
VERTEX
  8
PLAN_1
  6
CONTINUOUS
 10
0.607906
 20
-3.748268
  0
VERTEX
  8
PLAN_1
  6
CONTINUOUS
 10
0.613622
 20
-3.751602
  0
VERTEX
  8
PLAN_1
  6
CONTINUOUS
 10
0.620291
 20
-3.753984
  0
VERTEX
  8
PLAN_1
  6
CONTINUOUS
 10
0.627909
 20
-3.756366
  0
VERTEX
  8
PLAN_1
  6
CONTINUOUS
 10
0.636008
 20
-3.757319
  0
VERTEX
  8
PLAN_1
  6
CONTINUOUS
 10
0.645059
 20
-3.757795
  0
VERTEX
  8
PLAN_1
  6
CONTINUOUS
 10
0.648394
 20
-3.757795
  0
VERTEX
  8
PLAN_1
  6
CONTINUOUS
 10
0.652205
 20
-3.757319
  0
VERTEX
  8
PLAN_1
  6
CONTINUOUS
 10
0.656016
 20
-3.756843
  0
VERTEX
  8
PLAN_1
  6
CONTINUOUS
 10
0.659827
 20
-3.755890
  0
VERTEX
  8
PLAN_1
  6
CONTINUOUS
 10
0.664110
 20
-3.754461
  0
VERTEX
  8
PLAN_1
  6
CONTINUOUS
 10
0.668398
 20
-3.752555
  0
VERTEX
  8
PLAN_1
  6
CONTINUOUS
 10
0.672209
 20
-3.750650
  0
VERTEX
  8
PLAN_1
  6
CONTINUOUS
 10
0.676496
 20
-3.747791
  0
VERTEX
  8
PLAN_1
  6
CONTINUOUS
 10
0.680307
 20
-3.744457
  0
VERTEX
  8
PLAN_1
  6
CONTINUOUS
 10
0.684594
 20
-3.740646
  0
VERTEX
  8
PLAN_1
  6
CONTINUOUS
 10
0.687929
 20
-3.736358
  0
VERTEX
  8
PLAN_1
  6
CONTINUOUS
 10
0.691740
 20
-3.731122
  0
VERTEX
  8
PLAN_1
  6
CONTINUOUS
 10
0.694594
 20
-3.725406
  0
VERTEX
  8
PLAN_1
  6
CONTINUOUS
 10
0.697453
 20
-3.718736
  0
VERTEX
  8
PLAN_1
  6
CONTINUOUS
 10
0.699835
 20
-3.711591
  0
VERTEX
  8
PLAN_1
  6
CONTINUOUS
 10
0.701740
 20
-3.703020
  0
VERTEX
  8
PLAN_1
  6
CONTINUOUS
 10
0.727937
 20
-3.703020
  0
VERTEX
  8
PLAN_1
  6
CONTINUOUS
 10
0.726512
 20
-3.710161
  0
VERTEX
  8
PLAN_1
  6
CONTINUOUS
 10
0.725083
 20
-3.716354
  0
VERTEX
  8
PLAN_1
  6
CONTINUOUS
 10
0.723654
 20
-3.722547
  0
VERTEX
  8
PLAN_1
  6
CONTINUOUS
 10
0.721748
 20
-3.728264
  0
VERTEX
  8
PLAN_1
  6
CONTINUOUS
 10
0.719366
 20
-3.733504
  0
VERTEX
  8
PLAN_1
  6
CONTINUOUS
 10
0.716984
 20
-3.738264
  0
VERTEX
  8
PLAN_1
  6
CONTINUOUS
 10
0.714602
 20
-3.743028
  0
VERTEX
  8
PLAN_1
  6
CONTINUOUS
 10
0.711744
 20
-3.747315
  0
VERTEX
  8
PLAN_1
  6
CONTINUOUS
 10
0.708886
 20
-3.751126
  0
VERTEX
  8
PLAN_1
  6
CONTINUOUS
 10
0.706028
 20
-3.754937
  0
VERTEX
  8
PLAN_1
  6
CONTINUOUS
 10
0.702693
 20
-3.758272
  0
VERTEX
  8
PLAN_1
  6
CONTINUOUS
 10
0.699358
 20
-3.761130
  0
VERTEX
  8
PLAN_1
  6
CONTINUOUS
 10
0.692693
 20
-3.766370
  0
VERTEX
  8
PLAN_1
  6
CONTINUOUS
 10
0.686024
 20
-3.770654
  0
VERTEX
  8
PLAN_1
  6
CONTINUOUS
 10
0.678878
 20
-3.773988
  0
VERTEX
  8
PLAN_1
  6
CONTINUOUS
 10
0.672209
 20
-3.776846
  0
VERTEX
  8
PLAN_1
  6
CONTINUOUS
 10
0.665539
 20
-3.778752
  0
VERTEX
  8
PLAN_1
  6
CONTINUOUS
 10
0.659350
 20
-3.780181
  0
VERTEX
  8
PLAN_1
  6
CONTINUOUS
 10
0.648394
 20
-3.781610
  0
VERTEX
  8
PLAN_1
  6
CONTINUOUS
 10
0.640772
 20
-3.781610
  0
VERTEX
  8
PLAN_1
  6
CONTINUOUS
 10
0.632197
 20
-3.781610
  0
VERTEX
  8
PLAN_1
  6
CONTINUOUS
 10
0.624102
 20
-3.780181
  0
VERTEX
  8
PLAN_1
  6
CONTINUOUS
 10
0.615528
 20
-3.778276
  0
VERTEX
  8
PLAN_1
  6
CONTINUOUS
 10
0.607906
 20
-3.775894
  0
VERTEX
  8
PLAN_1
  6
CONTINUOUS
 10
0.599807
 20
-3.772559
  0
VERTEX
  8
PLAN_1
  6
CONTINUOUS
 10
0.592665
 20
-3.768276
  0
VERTEX
  8
PLAN_1
  6
CONTINUOUS
 10
0.588854
 20
-3.765894
  0
VERTEX
  8
PLAN_1
  6
CONTINUOUS
 10
0.585520
 20
-3.763512
  0
VERTEX
  8
PLAN_1
  6
CONTINUOUS
 10
0.582185
 20
-3.760654
  0
VERTEX
  8
PLAN_1
  6
CONTINUOUS
 10
0.578850
 20
-3.757319
  0
VERTEX
  8
PLAN_1
  6
CONTINUOUS
 10
0.575992
 20
-3.753984
  0
VERTEX
  8
PLAN_1
  6
CONTINUOUS
 10
0.573134
 20
-3.750650
  0
VERTEX
  8
PLAN_1
  6
CONTINUOUS
 10
0.570276
 20
-3.746839
  0
VERTEX
  8
PLAN_1
  6
CONTINUOUS
 10
0.567417
 20
-3.743028
  0
VERTEX
  8
PLAN_1
  6
CONTINUOUS
 10
0.565035
 20
-3.738740
  0
VERTEX
  8
PLAN_1
  6
CONTINUOUS
 10
0.562654
 20
-3.734457
  0
VERTEX
  8
PLAN_1
  6
CONTINUOUS
 10
0.560752
 20
-3.729693
  0
VERTEX
  8
PLAN_1
  6
CONTINUOUS
 10
0.558846
 20
-3.724453
  0
VERTEX
  8
PLAN_1
  6
CONTINUOUS
 10
0.556941
 20
-3.719213
  0
VERTEX
  8
PLAN_1
  6
CONTINUOUS
 10
0.555512
 20
-3.713972
  0
VERTEX
  8
PLAN_1
  6
CONTINUOUS
 10
0.554083
 20
-3.708256
  0
VERTEX
  8
PLAN_1
  6
CONTINUOUS
 10
0.553130
 20
-3.702067
  0
VERTEX
  8
PLAN_1
  6
CONTINUOUS
 10
0.552177
 20
-3.695874
  0
VERTEX
  8
PLAN_1
  6
CONTINUOUS
 10
0.551701
 20
-3.689681
  0
VERTEX
  8
PLAN_1
  6
CONTINUOUS
 10
0.551224
 20
-3.682535
  0
VERTEX
  8
PLAN_1
  6
CONTINUOUS
 10
0.551224
 20
-3.675866
  0
VERTEX
  8
PLAN_1
  6
CONTINUOUS
 10
0.551701
 20
-3.664437
  0
VERTEX
  8
PLAN_1
  6
CONTINUOUS
 10
0.552654
 20
-3.653480
  0
VERTEX
  8
PLAN_1
  6
CONTINUOUS
 10
0.554559
 20
-3.643476
  0
VERTEX
  8
PLAN_1
  6
CONTINUOUS
 10
0.557417
 20
-3.633476
  0
VERTEX
  8
PLAN_1
  6
CONTINUOUS
 10
0.561228
 20
-3.624425
  0
VERTEX
  8
PLAN_1
  6
CONTINUOUS
 10
0.565035
 20
-3.615850
  0
VERTEX
  8
PLAN_1
  6
CONTINUOUS
 10
0.567417
 20
-3.612039
  0
VERTEX
  8
PLAN_1
  6
CONTINUOUS
 10
0.570276
 20
-3.608228
  0
VERTEX
  8
PLAN_1
  6
CONTINUOUS
 10
0.573134
 20
-3.604417
  0
VERTEX
  8
PLAN_1
  6
CONTINUOUS
 10
0.575992
 20
-3.600610
  0
VERTEX
  8
PLAN_1
  6
CONTINUOUS
 10
0.578850
 20
-3.597276
  0
VERTEX
  8
PLAN_1
  6
CONTINUOUS
 10
0.582185
 20
-3.594417
  0
VERTEX
  8
PLAN_1
  6
CONTINUOUS
 10
0.585520
 20
-3.591559
  0
VERTEX
  8
PLAN_1
  6
CONTINUOUS
 10
0.589331
 20
-3.588701
  0
VERTEX
  8
PLAN_1
  6
CONTINUOUS
 10
0.593142
 20
-3.585843
  0
VERTEX
  8
PLAN_1
  6
CONTINUOUS
 10
0.596949
 20
-3.583461
  0
VERTEX
  8
PLAN_1
  6
CONTINUOUS
 10
0.600760
 20
-3.581555
  0
VERTEX
  8
PLAN_1
  6
CONTINUOUS
 10
0.605047
 20
-3.579650
  0
VERTEX
  8
PLAN_1
  6
CONTINUOUS
 10
0.609335
 20
-3.577744
  0
VERTEX
  8
PLAN_1
  6
CONTINUOUS
 10
0.614098
 20
-3.576315
  0
VERTEX
  8
PLAN_1
  6
CONTINUOUS
 10
0.618862
 20
-3.574886
  0
VERTEX
  8
PLAN_1
  6
CONTINUOUS
 10
0.623626
 20
-3.573933
  0
VERTEX
  8
PLAN_1
  6
CONTINUOUS
 10
0.628386
 20
-3.572980
  0
VERTEX
  8
PLAN_1
  6
CONTINUOUS
 10
0.633626
 20
-3.572504
  0
VERTEX
  8
PLAN_1
  6
CONTINUOUS
 10
0.638866
 20
-3.572028
  0
VERTEX
  8
PLAN_1
  6
CONTINUOUS
 10
0.644106
 20
-3.572028
  0
VERTEX
  8
PLAN_1
  6
CONTINUOUS
 10
0.653634
 20
-3.572028
  0
VERTEX
  8
PLAN_1
  6
CONTINUOUS
 10
0.662205
 20
-3.573457
  0
VERTEX
  8
PLAN_1
  6
CONTINUOUS
 10
0.670303
 20
-3.574886
  0
VERTEX
  8
PLAN_1
  6
CONTINUOUS
 10
0.677925
 20
-3.577268
  0
VERTEX
  8
PLAN_1
  6
CONTINUOUS
 10
0.685071
 20
-3.580126
  0
VERTEX
  8
PLAN_1
  6
CONTINUOUS
 10
0.691740
 20
-3.583937
  0
VERTEX
  8
PLAN_1
  6
CONTINUOUS
 10
0.697453
 20
-3.587748
  0
VERTEX
  8
PLAN_1
  6
CONTINUOUS
 10
0.702693
 20
-3.592035
  0
VERTEX
  8
PLAN_1
  6
CONTINUOUS
 10
0.707457
 20
-3.596799
  0
VERTEX
  8
PLAN_1
  6
CONTINUOUS
 10
0.711744
 20
-3.602039
  0
VERTEX
  8
PLAN_1
  6
CONTINUOUS
 10
0.715555
 20
-3.607276
  0
VERTEX
  8
PLAN_1
  6
CONTINUOUS
 10
0.718890
 20
-3.612992
  0
VERTEX
  8
PLAN_1
  6
CONTINUOUS
 10
0.721272
 20
-3.618709
  0
VERTEX
  8
PLAN_1
  6
CONTINUOUS
 10
0.723654
 20
-3.624902
  0
VERTEX
  8
PLAN_1
  6
CONTINUOUS
 10
0.725083
 20
-3.631094
  0
VERTEX
  8
PLAN_1
  6
CONTINUOUS
 10
0.726035
 20
-3.637283
  0
VERTEX
  8
PLAN_1
  6
CONTINUOUS
 10
0.699835
 20
-3.637283
  0
SEQEND
  8
0
  0
POLYLINE
  8
PLAN_1
  6
CONTINUOUS
 66
     1
 40
0.003000
 41
0.003000
  0
VERTEX
  8
PLAN_1
  6
CONTINUOUS
 10
0.787480
 20
-3.776370
  0
VERTEX
  8
PLAN_1
  6
CONTINUOUS
 10
0.760331
 20
-3.776370
  0
VERTEX
  8
PLAN_1
  6
CONTINUOUS
 10
0.760331
 20
-3.577268
  0
VERTEX
  8
PLAN_1
  6
CONTINUOUS
 10
0.787480
 20
-3.577268
  0
VERTEX
  8
PLAN_1
  6
CONTINUOUS
 10
0.787480
 20
-3.673961
  0
VERTEX
  8
PLAN_1
  6
CONTINUOUS
 10
0.884173
 20
-3.577268
  0
VERTEX
  8
PLAN_1
  6
CONTINUOUS
 10
0.921327
 20
-3.577268
  0
VERTEX
  8
PLAN_1
  6
CONTINUOUS
 10
0.838445
 20
-3.657768
  0
VERTEX
  8
PLAN_1
  6
CONTINUOUS
 10
0.923232
 20
-3.776370
  0
VERTEX
  8
PLAN_1
  6
CONTINUOUS
 10
0.888461
 20
-3.776370
  0
VERTEX
  8
PLAN_1
  6
CONTINUOUS
 10
0.818917
 20
-3.676343
  0
VERTEX
  8
PLAN_1
  6
CONTINUOUS
 10
0.787480
 20
-3.706350
  0
VERTEX
  8
PLAN_1
  6
CONTINUOUS
 10
0.787480
 20
-3.776370
  0
SEQEND
  8
0
  0
POLYLINE
  8
PLAN_1
  6
CONTINUOUS
 66
     1
 40
0.003000
 41
0.003000
  0
VERTEX
  8
PLAN_1
  6
CONTINUOUS
 10
0.947047
 20
-3.577268
  0
VERTEX
  8
PLAN_1
  6
CONTINUOUS
 10
1.028020
 20
-3.577268
  0
VERTEX
  8
PLAN_1
  6
CONTINUOUS
 10
1.037547
 20
-3.577744
  0
VERTEX
  8
PLAN_1
  6
CONTINUOUS
 10
1.046598
 20
-3.579173
  0
VERTEX
  8
PLAN_1
  6
CONTINUOUS
 10
1.054697
 20
-3.581079
  0
VERTEX
  8
PLAN_1
  6
CONTINUOUS
 10
1.062791
 20
-3.584413
  0
VERTEX
  8
PLAN_1
  6
CONTINUOUS
 10
1.070413
 20
-3.588224
  0
VERTEX
  8
PLAN_1
  6
CONTINUOUS
 10
1.077083
 20
-3.592512
  0
VERTEX
  8
PLAN_1
  6
CONTINUOUS
 10
1.083752
 20
-3.598228
  0
VERTEX
  8
PLAN_1
  6
CONTINUOUS
 10
1.089469
 20
-3.603941
  0
VERTEX
  8
PLAN_1
  6
CONTINUOUS
 10
1.094228
 20
-3.610610
  0
VERTEX
  8
PLAN_1
  6
CONTINUOUS
 10
1.098992
 20
-3.618232
  0
VERTEX
  8
PLAN_1
  6
CONTINUOUS
 10
1.102803
 20
-3.626331
  0
VERTEX
  8
PLAN_1
  6
CONTINUOUS
 10
1.106138
 20
-3.634429
  0
VERTEX
  8
PLAN_1
  6
CONTINUOUS
 10
1.108520
 20
-3.643953
  0
VERTEX
  8
PLAN_1
  6
CONTINUOUS
 10
1.110425
 20
-3.653480
  0
VERTEX
  8
PLAN_1
  6
CONTINUOUS
 10
1.111378
 20
-3.663484
  0
VERTEX
  8
PLAN_1
  6
CONTINUOUS
 10
1.111854
 20
-3.673961
  0
VERTEX
  8
PLAN_1
  6
CONTINUOUS
 10
1.111378
 20
-3.682535
  0
VERTEX
  8
PLAN_1
  6
CONTINUOUS
 10
1.110902
 20
-3.691110
  0
VERTEX
  8
PLAN_1
  6
CONTINUOUS
 10
1.109472
 20
-3.700161
  0
VERTEX
  8
PLAN_1
  6
CONTINUOUS
 10
1.107567
 20
-3.708732
  0
VERTEX
  8
PLAN_1
  6
CONTINUOUS
 10
1.105185
 20
-3.717783
  0
VERTEX
  8
PLAN_1
  6
CONTINUOUS
 10
1.102327
 20
-3.725882
  0
VERTEX
  8
PLAN_1
  6
CONTINUOUS
 10
1.098516
 20
-3.734457
  0
VERTEX
  8
PLAN_1
  6
CONTINUOUS
 10
1.093752
 20
-3.742075
  0
VERTEX
  8
PLAN_1
  6
CONTINUOUS
 10
1.091374
 20
-3.745886
  0
VERTEX
  8
PLAN_1
  6
CONTINUOUS
 10
1.088516
 20
-3.749220
  0
VERTEX
  8
PLAN_1
  6
CONTINUOUS
 10
1.085657
 20
-3.752555
  0
VERTEX
  8
PLAN_1
  6
CONTINUOUS
 10
1.082323
 20
-3.755890
  0
VERTEX
  8
PLAN_1
  6
CONTINUOUS
 10
1.078988
 20
-3.758748
  0
VERTEX
  8
PLAN_1
  6
CONTINUOUS
 10
1.075654
 20
-3.761606
  0
VERTEX
  8
PLAN_1
  6
CONTINUOUS
 10
1.071843
 20
-3.764465
  0
VERTEX
  8
PLAN_1
  6
CONTINUOUS
 10
1.067555
 20
-3.766846
  0
VERTEX
  8
PLAN_1
  6
CONTINUOUS
 10
1.063268
 20
-3.768752
  0
VERTEX
  8
PLAN_1
  6
CONTINUOUS
 10
1.058980
 20
-3.770654
  0
VERTEX
  8
PLAN_1
  6
CONTINUOUS
 10
1.054220
 20
-3.772559
  0
VERTEX
  8
PLAN_1
  6
CONTINUOUS
 10
1.049457
 20
-3.773988
  0
VERTEX
  8
PLAN_1
  6
CONTINUOUS
 10
1.044217
 20
-3.774941
  0
VERTEX
  8
PLAN_1
  6
CONTINUOUS
 10
1.038500
 20
-3.775894
  0
VERTEX
  8
PLAN_1
  6
CONTINUOUS
 10
1.032783
 20
-3.776370
  0
VERTEX
  8
PLAN_1
  6
CONTINUOUS
 10
1.026591
 20
-3.776370
  0
VERTEX
  8
PLAN_1
  6
CONTINUOUS
 10
0.947047
 20
-3.776370
  0
VERTEX
  8
PLAN_1
  6
CONTINUOUS
 10
0.947047
 20
-3.577268
  0
SEQEND
  8
0
  0
POLYLINE
  8
PLAN_1
  6
CONTINUOUS
 66
     1
 40
0.003000
 41
0.003000
  0
VERTEX
  8
PLAN_1
  6
CONTINUOUS
 10
0.974197
 20
-3.753508
  0
VERTEX
  8
PLAN_1
  6
CONTINUOUS
 10
1.026114
 20
-3.753508
  0
VERTEX
  8
PLAN_1
  6
CONTINUOUS
 10
1.032783
 20
-3.753031
  0
VERTEX
  8
PLAN_1
  6
CONTINUOUS
 10
1.038976
 20
-3.752079
  0
VERTEX
  8
PLAN_1
  6
CONTINUOUS
 10
1.044693
 20
-3.750650
  0
VERTEX
  8
PLAN_1
  6
CONTINUOUS
 10
1.049933
 20
-3.748268
  0
VERTEX
  8
PLAN_1
  6
CONTINUOUS
 10
1.055173
 20
-3.745409
  0
VERTEX
  8
PLAN_1
  6
CONTINUOUS
 10
1.059933
 20
-3.742075
  0
VERTEX
  8
PLAN_1
  6
CONTINUOUS
 10
1.064220
 20
-3.738264
  0
VERTEX
  8
PLAN_1
  6
CONTINUOUS
 10
1.068031
 20
-3.733504
  0
VERTEX
  8
PLAN_1
  6
CONTINUOUS
 10
1.071843
 20
-3.728264
  0
VERTEX
  8
PLAN_1
  6
CONTINUOUS
 10
1.074701
 20
-3.722547
  0
VERTEX
  8
PLAN_1
  6
CONTINUOUS
 10
1.077559
 20
-3.715878
  0
VERTEX
  8
PLAN_1
  6
CONTINUOUS
 10
1.079941
 20
-3.709209
  0
VERTEX
  8
PLAN_1
  6
CONTINUOUS
 10
1.081846
 20
-3.701591
  0
VERTEX
  8
PLAN_1
  6
CONTINUOUS
 10
1.082799
 20
-3.693492
  0
VERTEX
  8
PLAN_1
  6
CONTINUOUS
 10
1.083752
 20
-3.684917
  0
VERTEX
  8
PLAN_1
  6
CONTINUOUS
 10
1.083752
 20
-3.675866
  0
VERTEX
  8
PLAN_1
  6
CONTINUOUS
 10
1.083752
 20
-3.666343
  0
VERTEX
  8
PLAN_1
  6
CONTINUOUS
 10
1.082799
 20
-3.658244
  0
VERTEX
  8
PLAN_1
  6
CONTINUOUS
 10
1.081370
 20
-3.650146
  0
VERTEX
  8
PLAN_1
  6
CONTINUOUS
 10
1.079941
 20
-3.642524
  0
VERTEX
  8
PLAN_1
  6
CONTINUOUS
 10
1.077559
 20
-3.635858
  0
VERTEX
  8
PLAN_1
  6
CONTINUOUS
 10
1.074701
 20
-3.629665
  0
VERTEX
  8
PLAN_1
  6
CONTINUOUS
 10
1.071366
 20
-3.623949
  0
VERTEX
  8
PLAN_1
  6
CONTINUOUS
 10
1.068031
 20
-3.619185
  0
VERTEX
  8
PLAN_1
  6
CONTINUOUS
 10
1.063744
 20
-3.614898
  0
VERTEX
  8
PLAN_1
  6
CONTINUOUS
 10
1.059457
 20
-3.610610
  0
VERTEX
  8
PLAN_1
  6
CONTINUOUS
 10
1.054220
 20
-3.607752
  0
VERTEX
  8
PLAN_1
  6
CONTINUOUS
 10
1.048980
 20
-3.604894
  0
VERTEX
  8
PLAN_1
  6
CONTINUOUS
 10
1.043264
 20
-3.602992
  0
VERTEX
  8
PLAN_1
  6
CONTINUOUS
 10
1.037547
 20
-3.601563
  0
VERTEX
  8
PLAN_1
  6
CONTINUOUS
 10
1.030878
 20
-3.600610
  0
VERTEX
  8
PLAN_1
  6
CONTINUOUS
 10
1.024213
 20
-3.600134
  0
VERTEX
  8
PLAN_1
  6
CONTINUOUS
 10
0.974197
 20
-3.600134
  0
VERTEX
  8
PLAN_1
  6
CONTINUOUS
 10
0.974197
 20
-3.753508
  0
SEQEND
  8
0
  0
POLYLINE
  8
PLAN_1
  6
CONTINUOUS
 66
     1
 40
0.003000
 41
0.003000
  0
VERTEX
  8
PLAN_1
  6
CONTINUOUS
 10
1.241890
 20
-3.729217
  0
VERTEX
  8
PLAN_1
  6
CONTINUOUS
 10
1.241890
 20
-3.776370
  0
VERTEX
  8
PLAN_1
  6
CONTINUOUS
 10
1.217122
 20
-3.776370
  0
VERTEX
  8
PLAN_1
  6
CONTINUOUS
 10
1.217122
 20
-3.729217
  0
VERTEX
  8
PLAN_1
  6
CONTINUOUS
 10
1.131858
 20
-3.729217
  0
VERTEX
  8
PLAN_1
  6
CONTINUOUS
 10
1.131858
 20
-3.704921
  0
VERTEX
  8
PLAN_1
  6
CONTINUOUS
 10
1.221409
 20
-3.581555
  0
VERTEX
  8
PLAN_1
  6
CONTINUOUS
 10
1.241890
 20
-3.581555
  0
VERTEX
  8
PLAN_1
  6
CONTINUOUS
 10
1.241890
 20
-3.707780
  0
VERTEX
  8
PLAN_1
  6
CONTINUOUS
 10
1.270469
 20
-3.707780
  0
VERTEX
  8
PLAN_1
  6
CONTINUOUS
 10
1.270469
 20
-3.729217
  0
VERTEX
  8
PLAN_1
  6
CONTINUOUS
 10
1.241890
 20
-3.729217
  0
SEQEND
  8
0
  0
SOLID
  8
PLAN_1
 10
1.154724
 20
-3.707780
 11
1.217122
 21
-3.707780
 12
1.216646
 22
-3.619185
 13
1.217122
 23
-3.619185
  0
POLYLINE
  8
PLAN_1
  6
CONTINUOUS
 66
     1
 40
0.003000
 41
0.003000
  0
VERTEX
  8
PLAN_1
  6
CONTINUOUS
 10
1.154724
 20
-3.707780
  0
VERTEX
  8
PLAN_1
  6
CONTINUOUS
 10
1.217122
 20
-3.707780
  0
VERTEX
  8
PLAN_1
  6
CONTINUOUS
 10
1.217122
 20
-3.619185
  0
VERTEX
  8
PLAN_1
  6
CONTINUOUS
 10
1.216646
 20
-3.619185
  0
VERTEX
  8
PLAN_1
  6
CONTINUOUS
 10
1.154724
 20
-3.707780
  0
SEQEND
  8
0
  0
POLYLINE
  8
PLAN_1
  6
CONTINUOUS
 66
     1
 40
0.003000
 41
0.003000
  0
VERTEX
  8
PLAN_1
  6
CONTINUOUS
 10
1.379071
 20
-3.776370
  0
VERTEX
  8
PLAN_1
  6
CONTINUOUS
 10
1.352874
 20
-3.776370
  0
VERTEX
  8
PLAN_1
  6
CONTINUOUS
 10
1.352874
 20
-3.637760
  0
VERTEX
  8
PLAN_1
  6
CONTINUOUS
 10
1.307622
 20
-3.637760
  0
VERTEX
  8
PLAN_1
  6
CONTINUOUS
 10
1.307622
 20
-3.618709
  0
VERTEX
  8
PLAN_1
  6
CONTINUOUS
 10
1.318579
 20
-3.617756
  0
VERTEX
  8
PLAN_1
  6
CONTINUOUS
 10
1.328102
 20
-3.616327
  0
VERTEX
  8
PLAN_1
  6
CONTINUOUS
 10
1.332390
 20
-3.615374
  0
VERTEX
  8
PLAN_1
  6
CONTINUOUS
 10
1.336201
 20
-3.614421
  0
VERTEX
  8
PLAN_1
  6
CONTINUOUS
 10
1.339535
 20
-3.612992
  0
VERTEX
  8
PLAN_1
  6
CONTINUOUS
 10
1.342870
 20
-3.611087
  0
VERTEX
  8
PLAN_1
  6
CONTINUOUS
 10
1.345728
 20
-3.609181
  0
VERTEX
  8
PLAN_1
  6
CONTINUOUS
 10
1.348110
 20
-3.606323
  0
VERTEX
  8
PLAN_1
  6
CONTINUOUS
 10
1.350969
 20
-3.603469
  0
VERTEX
  8
PLAN_1
  6
CONTINUOUS
 10
1.352874
 20
-3.600134
  0
VERTEX
  8
PLAN_1
  6
CONTINUOUS
 10
1.354780
 20
-3.596323
  0
VERTEX
  8
PLAN_1
  6
CONTINUOUS
 10
1.356685
 20
-3.592035
  0
VERTEX
  8
PLAN_1
  6
CONTINUOUS
 10
1.358587
 20
-3.586795
  0
VERTEX
  8
PLAN_1
  6
CONTINUOUS
 10
1.360016
 20
-3.581555
  0
VERTEX
  8
PLAN_1
  6
CONTINUOUS
 10
1.379071
 20
-3.581555
  0
VERTEX
  8
PLAN_1
  6
CONTINUOUS
 10
1.379071
 20
-3.776370
  0
SEQEND
  8
0
  0
SOLID
  8
PLAN_1
 10
1.433846
 20
-3.811142
 11
1.433846
 21
-3.797331
 12
1.588177
 22
-3.811142
 13
1.588177
 23
-3.797331
  0
POLYLINE
  8
PLAN_1
  6
CONTINUOUS
 66
     1
 40
0.003000
 41
0.003000
  0
VERTEX
  8
PLAN_1
  6
CONTINUOUS
 10
1.433846
 20
-3.811142
  0
VERTEX
  8
PLAN_1
  6
CONTINUOUS
 10
1.433846
 20
-3.797331
  0
VERTEX
  8
PLAN_1
  6
CONTINUOUS
 10
1.588177
 20
-3.797331
  0
VERTEX
  8
PLAN_1
  6
CONTINUOUS
 10
1.588177
 20
-3.811142
  0
VERTEX
  8
PLAN_1
  6
CONTINUOUS
 10
1.433846
 20
-3.811142
  0
SEQEND
  8
0
  0
POLYLINE
  8
PLAN_1
  6
CONTINUOUS
 66
     1
 40
0.003000
 41
0.003000
  0
VERTEX
  8
PLAN_1
  6
CONTINUOUS
 10
1.639142
 20
-3.776370
  0
VERTEX
  8
PLAN_1
  6
CONTINUOUS
 10
1.611992
 20
-3.776370
  0
VERTEX
  8
PLAN_1
  6
CONTINUOUS
 10
1.611992
 20
-3.577268
  0
VERTEX
  8
PLAN_1
  6
CONTINUOUS
 10
1.750126
 20
-3.577268
  0
VERTEX
  8
PLAN_1
  6
CONTINUOUS
 10
1.750126
 20
-3.601087
  0
VERTEX
  8
PLAN_1
  6
CONTINUOUS
 10
1.639142
 20
-3.601087
  0
VERTEX
  8
PLAN_1
  6
CONTINUOUS
 10
1.639142
 20
-3.662055
  0
VERTEX
  8
PLAN_1
  6
CONTINUOUS
 10
1.736787
 20
-3.662055
  0
VERTEX
  8
PLAN_1
  6
CONTINUOUS
 10
1.736787
 20
-3.685870
  0
VERTEX
  8
PLAN_1
  6
CONTINUOUS
 10
1.639142
 20
-3.685870
  0
VERTEX
  8
PLAN_1
  6
CONTINUOUS
 10
1.639142
 20
-3.776370
  0
SEQEND
  8
0
  0
SOLID
  8
PLAN_1
 10
1.769177
 20
-3.776370
 11
1.740598
 21
-3.776370
 12
1.769177
 22
-3.746839
 13
1.740598
 23
-3.746839
  0
POLYLINE
  8
PLAN_1
  6
CONTINUOUS
 66
     1
 40
0.003000
 41
0.003000
  0
VERTEX
  8
PLAN_1
  6
CONTINUOUS
 10
1.769177
 20
-3.776370
  0
VERTEX
  8
PLAN_1
  6
CONTINUOUS
 10
1.740598
 20
-3.776370
  0
VERTEX
  8
PLAN_1
  6
CONTINUOUS
 10
1.740598
 20
-3.746839
  0
VERTEX
  8
PLAN_1
  6
CONTINUOUS
 10
1.769177
 20
-3.746839
  0
VERTEX
  8
PLAN_1
  6
CONTINUOUS
 10
1.769177
 20
-3.776370
  0
SEQEND
  8
0
  0
POLYLINE
  8
PLAN_1
  6
CONTINUOUS
 66
     1
 40
0.003000
 41
0.003000
  0
VERTEX
  8
PLAN_1
  6
CONTINUOUS
 10
1.964469
 20
-3.776370
  0
VERTEX
  8
PLAN_1
  6
CONTINUOUS
 10
1.817287
 20
-3.776370
  0
VERTEX
  8
PLAN_1
  6
CONTINUOUS
 10
1.817287
 20
-3.577268
  0
VERTEX
  8
PLAN_1
  6
CONTINUOUS
 10
1.962563
 20
-3.577268
  0
VERTEX
  8
PLAN_1
  6
CONTINUOUS
 10
1.962563
 20
-3.601087
  0
VERTEX
  8
PLAN_1
  6
CONTINUOUS
 10
1.844437
 20
-3.601087
  0
VERTEX
  8
PLAN_1
  6
CONTINUOUS
 10
1.844437
 20
-3.662055
  0
VERTEX
  8
PLAN_1
  6
CONTINUOUS
 10
1.953516
 20
-3.662055
  0
VERTEX
  8
PLAN_1
  6
CONTINUOUS
 10
1.953516
 20
-3.685870
  0
VERTEX
  8
PLAN_1
  6
CONTINUOUS
 10
1.844437
 20
-3.685870
  0
VERTEX
  8
PLAN_1
  6
CONTINUOUS
 10
1.844437
 20
-3.752555
  0
VERTEX
  8
PLAN_1
  6
CONTINUOUS
 10
1.964469
 20
-3.752555
  0
VERTEX
  8
PLAN_1
  6
CONTINUOUS
 10
1.964469
 20
-3.776370
  0
SEQEND
  8
0
  0
POLYLINE
  8
PLAN_1
  6
CONTINUOUS
 66
     1
 40
0.003000
 41
0.003000
  0
VERTEX
  8
PLAN_1
  6
CONTINUOUS
 10
2.029248
 20
-3.776370
  0
VERTEX
  8
PLAN_1
  6
CONTINUOUS
 10
2.002575
 20
-3.776370
  0
VERTEX
  8
PLAN_1
  6
CONTINUOUS
 10
2.002575
 20
-3.577268
  0
VERTEX
  8
PLAN_1
  6
CONTINUOUS
 10
2.092122
 20
-3.577268
  0
VERTEX
  8
PLAN_1
  6
CONTINUOUS
 10
2.098791
 20
-3.577268
  0
VERTEX
  8
PLAN_1
  6
CONTINUOUS
 10
2.105461
 20
-3.578220
  0
VERTEX
  8
PLAN_1
  6
CONTINUOUS
 10
2.111177
 20
-3.579650
  0
VERTEX
  8
PLAN_1
  6
CONTINUOUS
 10
2.116894
 20
-3.581555
  0
VERTEX
  8
PLAN_1
  6
CONTINUOUS
 10
2.122130
 20
-3.583461
  0
VERTEX
  8
PLAN_1
  6
CONTINUOUS
 10
2.126894
 20
-3.586319
  0
VERTEX
  8
PLAN_1
  6
CONTINUOUS
 10
2.131657
 20
-3.589654
  0
VERTEX
  8
PLAN_1
  6
CONTINUOUS
 10
2.135469
 20
-3.592988
  0
VERTEX
  8
PLAN_1
  6
CONTINUOUS
 10
2.139280
 20
-3.597276
  0
VERTEX
  8
PLAN_1
  6
CONTINUOUS
 10
2.142138
 20
-3.601563
  0
VERTEX
  8
PLAN_1
  6
CONTINUOUS
 10
2.144996
 20
-3.605846
  0
VERTEX
  8
PLAN_1
  6
CONTINUOUS
 10
2.147378
 20
-3.611087
  0
VERTEX
  8
PLAN_1
  6
CONTINUOUS
 10
2.148807
 20
-3.616327
  0
VERTEX
  8
PLAN_1
  6
CONTINUOUS
 10
2.150236
 20
-3.621567
  0
VERTEX
  8
PLAN_1
  6
CONTINUOUS
 10
2.151189
 20
-3.627283
  0
VERTEX
  8
PLAN_1
  6
CONTINUOUS
 10
2.151189
 20
-3.633000
  0
VERTEX
  8
PLAN_1
  6
CONTINUOUS
 10
2.151189
 20
-3.638236
  0
VERTEX
  8
PLAN_1
  6
CONTINUOUS
 10
2.150713
 20
-3.643953
  0
VERTEX
  8
PLAN_1
  6
CONTINUOUS
 10
2.149760
 20
-3.649193
  0
VERTEX
  8
PLAN_1
  6
CONTINUOUS
 10
2.148331
 20
-3.653957
  0
VERTEX
  8
PLAN_1
  6
CONTINUOUS
 10
2.146425
 20
-3.659197
  0
VERTEX
  8
PLAN_1
  6
CONTINUOUS
 10
2.144043
 20
-3.663961
  0
VERTEX
  8
PLAN_1
  6
CONTINUOUS
 10
2.141185
 20
-3.668724
  0
VERTEX
  8
PLAN_1
  6
CONTINUOUS
 10
2.137850
 20
-3.673008
  0
VERTEX
  8
PLAN_1
  6
CONTINUOUS
 10
2.134039
 20
-3.677295
  0
VERTEX
  8
PLAN_1
  6
CONTINUOUS
 10
2.129752
 20
-3.681106
  0
VERTEX
  8
PLAN_1
  6
CONTINUOUS
 10
2.124988
 20
-3.684441
  0
VERTEX
  8
PLAN_1
  6
CONTINUOUS
 10
2.119752
 20
-3.686823
  0
VERTEX
  8
PLAN_1
  6
CONTINUOUS
 10
2.113559
 20
-3.689205
  0
VERTEX
  8
PLAN_1
  6
CONTINUOUS
 10
2.107366
 20
-3.691110
  0
VERTEX
  8
PLAN_1
  6
CONTINUOUS
 10
2.100220
 20
-3.692063
  0
VERTEX
  8
PLAN_1
  6
CONTINUOUS
 10
2.092122
 20
-3.692539
  0
VERTEX
  8
PLAN_1
  6
CONTINUOUS
 10
2.029248
 20
-3.692539
  0
VERTEX
  8
PLAN_1
  6
CONTINUOUS
 10
2.029248
 20
-3.776370
  0
SEQEND
  8
0
  0
POLYLINE
  8
PLAN_1
  6
CONTINUOUS
 66
     1
 40
0.003000
 41
0.003000
  0
VERTEX
  8
PLAN_1
  6
CONTINUOUS
 10
2.029248
 20
-3.669201
  0
VERTEX
  8
PLAN_1
  6
CONTINUOUS
 10
2.083075
 20
-3.669201
  0
VERTEX
  8
PLAN_1
  6
CONTINUOUS
 10
2.087358
 20
-3.669201
  0
VERTEX
  8
PLAN_1
  6
CONTINUOUS
 10
2.091646
 20
-3.668724
  0
VERTEX
  8
PLAN_1
  6
CONTINUOUS
 10
2.095933
 20
-3.668248
  0
VERTEX
  8
PLAN_1
  6
CONTINUOUS
 10
2.099744
 20
-3.667295
  0
VERTEX
  8
PLAN_1
  6
CONTINUOUS
 10
2.103079
 20
-3.666343
  0
VERTEX
  8
PLAN_1
  6
CONTINUOUS
 10
2.106413
 20
-3.664913
  0
VERTEX
  8
PLAN_1
  6
CONTINUOUS
 10
2.109748
 20
-3.663484
  0
VERTEX
  8
PLAN_1
  6
CONTINUOUS
 10
2.112130
 20
-3.661579
  0
VERTEX
  8
PLAN_1
  6
CONTINUOUS
 10
2.114988
 20
-3.659197
  0
VERTEX
  8
PLAN_1
  6
CONTINUOUS
 10
2.116894
 20
-3.656815
  0
VERTEX
  8
PLAN_1
  6
CONTINUOUS
 10
2.118799
 20
-3.653957
  0
VERTEX
  8
PLAN_1
  6
CONTINUOUS
 10
2.120701
 20
-3.650622
  0
VERTEX
  8
PLAN_1
  6
CONTINUOUS
 10
2.121654
 20
-3.646811
  0
VERTEX
  8
PLAN_1
  6
CONTINUOUS
 10
2.122606
 20
-3.643000
  0
VERTEX
  8
PLAN_1
  6
CONTINUOUS
 10
2.123559
 20
-3.638236
  0
VERTEX
  8
PLAN_1
  6
CONTINUOUS
 10
2.123559
 20
-3.633476
  0
VERTEX
  8
PLAN_1
  6
CONTINUOUS
 10
2.123559
 20
-3.629189
  0
VERTEX
  8
PLAN_1
  6
CONTINUOUS
 10
2.122606
 20
-3.624902
  0
VERTEX
  8
PLAN_1
  6
CONTINUOUS
 10
2.121654
 20
-3.621091
  0
VERTEX
  8
PLAN_1
  6
CONTINUOUS
 10
2.120701
 20
-3.617756
  0
VERTEX
  8
PLAN_1
  6
CONTINUOUS
 10
2.118799
 20
-3.614421
  0
VERTEX
  8
PLAN_1
  6
CONTINUOUS
 10
2.116894
 20
-3.612039
  0
VERTEX
  8
PLAN_1
  6
CONTINUOUS
 10
2.114512
 20
-3.609657
  0
VERTEX
  8
PLAN_1
  6
CONTINUOUS
 10
2.112130
 20
-3.607276
  0
VERTEX
  8
PLAN_1
  6
CONTINUOUS
 10
2.109272
 20
-3.605370
  0
VERTEX
  8
PLAN_1
  6
CONTINUOUS
 10
2.106413
 20
-3.603941
  0
VERTEX
  8
PLAN_1
  6
CONTINUOUS
 10
2.103079
 20
-3.602992
  0
VERTEX
  8
PLAN_1
  6
CONTINUOUS
 10
2.099744
 20
-3.602039
  0
VERTEX
  8
PLAN_1
  6
CONTINUOUS
 10
2.092122
 20
-3.600610
  0
VERTEX
  8
PLAN_1
  6
CONTINUOUS
 10
2.084028
 20
-3.600134
  0
VERTEX
  8
PLAN_1
  6
CONTINUOUS
 10
2.029248
 20
-3.600134
  0
VERTEX
  8
PLAN_1
  6
CONTINUOUS
 10
2.029248
 20
-3.669201
  0
SEQEND
  8
0
  0
POLYLINE
  8
PLAN_1
  6
CONTINUOUS
 66
     1
 40
0.003000
 41
0.003000
  0
VERTEX
  8
PLAN_1
  6
CONTINUOUS
 10
2.305039
 20
-3.635382
  0
VERTEX
  8
PLAN_1
  6
CONTINUOUS
 10
2.304563
 20
-3.630142
  0
VERTEX
  8
PLAN_1
  6
CONTINUOUS
 10
2.303610
 20
-3.624902
  0
VERTEX
  8
PLAN_1
  6
CONTINUOUS
 10
2.302181
 20
-3.620138
  0
VERTEX
  8
PLAN_1
  6
CONTINUOUS
 10
2.300276
 20
-3.616327
  0
VERTEX
  8
PLAN_1
  6
CONTINUOUS
 10
2.297417
 20
-3.612516
  0
VERTEX
  8
PLAN_1
  6
CONTINUOUS
 10
2.295035
 20
-3.609181
  0
VERTEX
  8
PLAN_1
  6
CONTINUOUS
 10
2.291701
 20
-3.606323
  0
VERTEX
  8
PLAN_1
  6
CONTINUOUS
 10
2.288366
 20
-3.603469
  0
VERTEX
  8
PLAN_1
  6
CONTINUOUS
 10
2.284559
 20
-3.601563
  0
VERTEX
  8
PLAN_1
  6
CONTINUOUS
 10
2.280748
 20
-3.599657
  0
VERTEX
  8
PLAN_1
  6
CONTINUOUS
 10
2.276937
 20
-3.598228
  0
VERTEX
  8
PLAN_1
  6
CONTINUOUS
 10
2.272650
 20
-3.596799
  0
VERTEX
  8
PLAN_1
  6
CONTINUOUS
 10
2.268362
 20
-3.595846
  0
VERTEX
  8
PLAN_1
  6
CONTINUOUS
 10
2.264075
 20
-3.595370
  0
VERTEX
  8
PLAN_1
  6
CONTINUOUS
 10
2.260264
 20
-3.594894
  0
VERTEX
  8
PLAN_1
  6
CONTINUOUS
 10
2.255976
 20
-3.594894
  0
VERTEX
  8
PLAN_1
  6
CONTINUOUS
 10
2.248835
 20
-3.595370
  0
VERTEX
  8
PLAN_1
  6
CONTINUOUS
 10
2.241689
 20
-3.596323
  0
VERTEX
  8
PLAN_1
  6
CONTINUOUS
 10
2.237878
 20
-3.596799
  0
VERTEX
  8
PLAN_1
  6
CONTINUOUS
 10
2.234067
 20
-3.598228
  0
VERTEX
  8
PLAN_1
  6
CONTINUOUS
 10
2.230256
 20
-3.599181
  0
VERTEX
  8
PLAN_1
  6
CONTINUOUS
 10
2.226445
 20
-3.601087
  0
VERTEX
  8
PLAN_1
  6
CONTINUOUS
 10
2.223110
 20
-3.602992
  0
VERTEX
  8
PLAN_1
  6
CONTINUOUS
 10
2.220252
 20
-3.605370
  0
VERTEX
  8
PLAN_1
  6
CONTINUOUS
 10
2.217398
 20
-3.608228
  0
VERTEX
  8
PLAN_1
  6
CONTINUOUS
 10
2.215016
 20
-3.611563
  0
VERTEX
  8
PLAN_1
  6
CONTINUOUS
 10
2.213110
 20
-3.615374
  0
VERTEX
  8
PLAN_1
  6
CONTINUOUS
 10
2.211681
 20
-3.619661
  0
VERTEX
  8
PLAN_1
  6
CONTINUOUS
 10
2.210728
 20
-3.624425
  0
VERTEX
  8
PLAN_1
  6
CONTINUOUS
 10
2.210252
 20
-3.629665
  0
VERTEX
  8
PLAN_1
  6
CONTINUOUS
 10
2.210252
 20
-3.633000
  0
VERTEX
  8
PLAN_1
  6
CONTINUOUS
 10
2.210728
 20
-3.635858
  0
VERTEX
  8
PLAN_1
  6
CONTINUOUS
 10
2.211205
 20
-3.638236
  0
VERTEX
  8
PLAN_1
  6
CONTINUOUS
 10
2.212157
 20
-3.640618
  0
VERTEX
  8
PLAN_1
  6
CONTINUOUS
 10
2.213587
 20
-3.642524
  0
VERTEX
  8
PLAN_1
  6
CONTINUOUS
 10
2.214539
 20
-3.644429
  0
VERTEX
  8
PLAN_1
  6
CONTINUOUS
 10
2.215969
 20
-3.646335
  0
VERTEX
  8
PLAN_1
  6
CONTINUOUS
 10
2.217874
 20
-3.647764
  0
VERTEX
  8
PLAN_1
  6
CONTINUOUS
 10
2.221205
 20
-3.650622
  0
VERTEX
  8
PLAN_1
  6
CONTINUOUS
 10
2.225016
 20
-3.652528
  0
VERTEX
  8
PLAN_1
  6
CONTINUOUS
 10
2.229303
 20
-3.653957
  0
VERTEX
  8
PLAN_1
  6
CONTINUOUS
 10
2.234067
 20
-3.655386
  0
VERTEX
  8
PLAN_1
  6
CONTINUOUS
 10
2.290748
 20
-3.668248
  0
VERTEX
  8
PLAN_1
  6
CONTINUOUS
 10
2.295512
 20
-3.669677
  0
VERTEX
  8
PLAN_1
  6
CONTINUOUS
 10
2.300276
 20
-3.671102
  0
VERTEX
  8
PLAN_1
  6
CONTINUOUS
 10
2.304563
 20
-3.672531
  0
VERTEX
  8
PLAN_1
  6
CONTINUOUS
 10
2.308850
 20
-3.674437
  0
VERTEX
  8
PLAN_1
  6
CONTINUOUS
 10
2.312661
 20
-3.676819
  0
VERTEX
  8
PLAN_1
  6
CONTINUOUS
 10
2.316472
 20
-3.679201
  0
VERTEX
  8
PLAN_1
  6
CONTINUOUS
 10
2.319803
 20
-3.682059
  0
VERTEX
  8
PLAN_1
  6
CONTINUOUS
 10
2.323138
 20
-3.685394
  0
VERTEX
  8
PLAN_1
  6
CONTINUOUS
 10
2.325996
 20
-3.688728
  0
VERTEX
  8
PLAN_1
  6
CONTINUOUS
 10
2.328378
 20
-3.692539
  0
VERTEX
  8
PLAN_1
  6
CONTINUOUS
 10
2.330760
 20
-3.696350
  0
VERTEX
  8
PLAN_1
  6
CONTINUOUS
 10
2.332665
 20
-3.700638
  0
VERTEX
  8
PLAN_1
  6
CONTINUOUS
 10
2.334094
 20
-3.705398
  0
VERTEX
  8
PLAN_1
  6
CONTINUOUS
 10
2.335047
 20
-3.710161
  0
VERTEX
  8
PLAN_1
  6
CONTINUOUS
 10
2.336000
 20
-3.715878
  0
VERTEX
  8
PLAN_1
  6
CONTINUOUS
 10
2.336000
 20
-3.721594
  0
VERTEX
  8
PLAN_1
  6
CONTINUOUS
 10
2.336000
 20
-3.725882
  0
VERTEX
  8
PLAN_1
  6
CONTINUOUS
 10
2.335524
 20
-3.730169
  0
VERTEX
  8
PLAN_1
  6
CONTINUOUS
 10
2.335047
 20
-3.733980
  0
VERTEX
  8
PLAN_1
  6
CONTINUOUS
 10
2.334094
 20
-3.737787
  0
VERTEX
  8
PLAN_1
  6
CONTINUOUS
 10
2.333142
 20
-3.741122
  0
VERTEX
  8
PLAN_1
  6
CONTINUOUS
 10
2.331713
 20
-3.744457
  0
VERTEX
  8
PLAN_1
  6
CONTINUOUS
 10
2.330283
 20
-3.747791
  0
VERTEX
  8
PLAN_1
  6
CONTINUOUS
 10
2.328378
 20
-3.750650
  0
VERTEX
  8
PLAN_1
  6
CONTINUOUS
 10
2.324567
 20
-3.756366
  0
VERTEX
  8
PLAN_1
  6
CONTINUOUS
 10
2.320280
 20
-3.761130
  0
VERTEX
  8
PLAN_1
  6
CONTINUOUS
 10
2.315520
 20
-3.765417
  0
VERTEX
  8
PLAN_1
  6
CONTINUOUS
 10
2.309803
 20
-3.769228
  0
VERTEX
  8
PLAN_1
  6
CONTINUOUS
 10
2.304087
 20
-3.772559
  0
VERTEX
  8
PLAN_1
  6
CONTINUOUS
 10
2.297894
 20
-3.774941
  0
VERTEX
  8
PLAN_1
  6
CONTINUOUS
 10
2.291224
 20
-3.777323
  0
VERTEX
  8
PLAN_1
  6
CONTINUOUS
 10
2.284559
 20
-3.778752
  0
VERTEX
  8
PLAN_1
  6
CONTINUOUS
 10
2.277890
 20
-3.780181
  0
VERTEX
  8
PLAN_1
  6
CONTINUOUS
 10
2.271220
 20
-3.781134
  0
VERTEX
  8
PLAN_1
  6
CONTINUOUS
 10
2.264551
 20
-3.781610
  0
VERTEX
  8
PLAN_1
  6
CONTINUOUS
 10
2.257882
 20
-3.781610
  0
VERTEX
  8
PLAN_1
  6
CONTINUOUS
 10
2.251217
 20
-3.781610
  0
VERTEX
  8
PLAN_1
  6
CONTINUOUS
 10
2.245024
 20
-3.781134
  0
VERTEX
  8
PLAN_1
  6
CONTINUOUS
 10
2.239307
 20
-3.780657
  0
VERTEX
  8
PLAN_1
  6
CONTINUOUS
 10
2.234067
 20
-3.779705
  0
VERTEX
  8
PLAN_1
  6
CONTINUOUS
 10
2.225016
 20
-3.777799
  0
VERTEX
  8
PLAN_1
  6
CONTINUOUS
 10
2.217398
 20
-3.774941
  0
VERTEX
  8
PLAN_1
  6
CONTINUOUS
 10
2.211205
 20
-3.772083
  0
VERTEX
  8
PLAN_1
  6
CONTINUOUS
 10
2.205965
 20
-3.768752
  0
VERTEX
  8
PLAN_1
  6
CONTINUOUS
 10
2.201201
 20
-3.765894
  0
VERTEX
  8
PLAN_1
  6
CONTINUOUS
 10
2.197866
 20
-3.762559
  0
VERTEX
  8
PLAN_1
  6
CONTINUOUS
 10
2.194531
 20
-3.759701
  0
VERTEX
  8
PLAN_1
  6
CONTINUOUS
 10
2.192150
 20
-3.756843
  0
VERTEX
  8
PLAN_1
  6
CONTINUOUS
 10
2.189768
 20
-3.753984
  0
VERTEX
  8
PLAN_1
  6
CONTINUOUS
 10
2.187386
 20
-3.750650
  0
VERTEX
  8
PLAN_1
  6
CONTINUOUS
 10
2.184055
 20
-3.744933
  0
VERTEX
  8
PLAN_1
  6
CONTINUOUS
 10
2.181197
 20
-3.738740
  0
VERTEX
  8
PLAN_1
  6
CONTINUOUS
 10
2.179291
 20
-3.732075
  0
VERTEX
  8
PLAN_1
  6
CONTINUOUS
 10
2.178339
 20
-3.725882
  0
VERTEX
  8
PLAN_1
  6
CONTINUOUS
 10
2.177862
 20
-3.718736
  0
VERTEX
  8
PLAN_1
  6
CONTINUOUS
 10
2.177386
 20
-3.712067
  0
VERTEX
  8
PLAN_1
  6
CONTINUOUS
 10
2.202630
 20
-3.712067
  0
VERTEX
  8
PLAN_1
  6
CONTINUOUS
 10
2.203106
 20
-3.718736
  0
VERTEX
  8
PLAN_1
  6
CONTINUOUS
 10
2.204059
 20
-3.724453
  0
VERTEX
  8
PLAN_1
  6
CONTINUOUS
 10
2.205488
 20
-3.729693
  0
VERTEX
  8
PLAN_1
  6
CONTINUOUS
 10
2.207870
 20
-3.734457
  0
VERTEX
  8
PLAN_1
  6
CONTINUOUS
 10
2.210252
 20
-3.738740
  0
VERTEX
  8
PLAN_1
  6
CONTINUOUS
 10
2.213587
 20
-3.742551
  0
VERTEX
  8
PLAN_1
  6
CONTINUOUS
 10
2.216921
 20
-3.745886
  0
VERTEX
  8
PLAN_1
  6
CONTINUOUS
 10
2.220728
 20
-3.748744
  0
VERTEX
  8
PLAN_1
  6
CONTINUOUS
 10
2.224539
 20
-3.751602
  0
VERTEX
  8
PLAN_1
  6
CONTINUOUS
 10
2.229303
 20
-3.753508
  0
VERTEX
  8
PLAN_1
  6
CONTINUOUS
 10
2.233591
 20
-3.754937
  0
VERTEX
  8
PLAN_1
  6
CONTINUOUS
 10
2.238354
 20
-3.756366
  0
VERTEX
  8
PLAN_1
  6
CONTINUOUS
 10
2.243118
 20
-3.757319
  0
VERTEX
  8
PLAN_1
  6
CONTINUOUS
 10
2.247882
 20
-3.758272
  0
VERTEX
  8
PLAN_1
  6
CONTINUOUS
 10
2.253118
 20
-3.758748
  0
VERTEX
  8
PLAN_1
  6
CONTINUOUS
 10
2.257882
 20
-3.758748
  0
VERTEX
  8
PLAN_1
  6
CONTINUOUS
 10
2.265504
 20
-3.758272
  0
VERTEX
  8
PLAN_1
  6
CONTINUOUS
 10
2.274079
 20
-3.757319
  0
VERTEX
  8
PLAN_1
  6
CONTINUOUS
 10
2.278366
 20
-3.756843
  0
VERTEX
  8
PLAN_1
  6
CONTINUOUS
 10
2.282654
 20
-3.755413
  0
VERTEX
  8
PLAN_1
  6
CONTINUOUS
 10
2.286937
 20
-3.754461
  0
VERTEX
  8
PLAN_1
  6
CONTINUOUS
 10
2.291224
 20
-3.752555
  0
VERTEX
  8
PLAN_1
  6
CONTINUOUS
 10
2.295035
 20
-3.750650
  0
VERTEX
  8
PLAN_1
  6
CONTINUOUS
 10
2.298370
 20
-3.748268
  0
VERTEX
  8
PLAN_1
  6
CONTINUOUS
 10
2.301705
 20
-3.745409
  0
VERTEX
  8
PLAN_1
  6
CONTINUOUS
 10
2.304563
 20
-3.742551
  0
VERTEX
  8
PLAN_1
  6
CONTINUOUS
 10
2.306945
 20
-3.738740
  0
VERTEX
  8
PLAN_1
  6
CONTINUOUS
 10
2.308374
 20
-3.734933
  0
VERTEX
  8
PLAN_1
  6
CONTINUOUS
 10
2.309327
 20
-3.730169
  0
VERTEX
  8
PLAN_1
  6
CONTINUOUS
 10
2.309803
 20
-3.724929
  0
VERTEX
  8
PLAN_1
  6
CONTINUOUS
 10
2.309803
 20
-3.721594
  0
VERTEX
  8
PLAN_1
  6
CONTINUOUS
 10
2.309327
 20
-3.717783
  0
VERTEX
  8
PLAN_1
  6
CONTINUOUS
 10
2.308850
 20
-3.714925
  0
VERTEX
  8
PLAN_1
  6
CONTINUOUS
 10
2.307898
 20
-3.712067
  0
VERTEX
  8
PLAN_1
  6
CONTINUOUS
 10
2.306469
 20
-3.709209
  0
VERTEX
  8
PLAN_1
  6
CONTINUOUS
 10
2.305039
 20
-3.706827
  0
VERTEX
  8
PLAN_1
  6
CONTINUOUS
 10
2.303134
 20
-3.704445
  0
VERTEX
  8
PLAN_1
  6
CONTINUOUS
 10
2.300752
 20
-3.702543
  0
VERTEX
  8
PLAN_1
  6
CONTINUOUS
 10
2.298370
 20
-3.700638
  0
VERTEX
  8
PLAN_1
  6
CONTINUOUS
 10
2.295035
 20
-3.698732
  0
VERTEX
  8
PLAN_1
  6
CONTINUOUS
 10
2.291701
 20
-3.697303
  0
VERTEX
  8
PLAN_1
  6
CONTINUOUS
 10
2.287890
 20
-3.695874
  0
VERTEX
  8
PLAN_1
  6
CONTINUOUS
 10
2.278843
 20
-3.692539
  0
VERTEX
  8
PLAN_1
  6
CONTINUOUS
 10
2.267409
 20
-3.689681
  0
VERTEX
  8
PLAN_1
  6
CONTINUOUS
 10
2.226445
 20
-3.680630
  0
VERTEX
  8
PLAN_1
  6
CONTINUOUS
 10
2.221205
 20
-3.678724
  0
VERTEX
  8
PLAN_1
  6
CONTINUOUS
 10
2.214539
 20
-3.676819
  0
VERTEX
  8
PLAN_1
  6
CONTINUOUS
 10
2.211205
 20
-3.675390
  0
VERTEX
  8
PLAN_1
  6
CONTINUOUS
 10
2.207394
 20
-3.673484
  0
VERTEX
  8
PLAN_1
  6
CONTINUOUS
 10
2.204059
 20
-3.671102
  0
VERTEX
  8
PLAN_1
  6
CONTINUOUS
 10
2.200724
 20
-3.668724
  0
VERTEX
  8
PLAN_1
  6
CONTINUOUS
 10
2.197390
 20
-3.665866
  0
VERTEX
  8
PLAN_1
  6
CONTINUOUS
 10
2.194055
 20
-3.663008
  0
VERTEX
  8
PLAN_1
  6
CONTINUOUS
 10
2.191197
 20
-3.659197
  0
VERTEX
  8
PLAN_1
  6
CONTINUOUS
 10
2.188815
 20
-3.654909
  0
VERTEX
  8
PLAN_1
  6
CONTINUOUS
 10
2.186909
 20
-3.650622
  0
VERTEX
  8
PLAN_1
  6
CONTINUOUS
 10
2.185484
 20
-3.645382
  0
VERTEX
  8
PLAN_1
  6
CONTINUOUS
 10
2.184531
 20
-3.639665
  0
VERTEX
  8
PLAN_1
  6
CONTINUOUS
 10
2.184055
 20
-3.633476
  0
VERTEX
  8
PLAN_1
  6
CONTINUOUS
 10
2.184531
 20
-3.627760
  0
VERTEX
  8
PLAN_1
  6
CONTINUOUS
 10
2.185008
 20
-3.622043
  0
VERTEX
  8
PLAN_1
  6
CONTINUOUS
 10
2.186437
 20
-3.616327
  0
VERTEX
  8
PLAN_1
  6
CONTINUOUS
 10
2.187862
 20
-3.610610
  0
VERTEX
  8
PLAN_1
  6
CONTINUOUS
 10
2.190244
 20
-3.605370
  0
VERTEX
  8
PLAN_1
  6
CONTINUOUS
 10
2.193102
 20
-3.600134
  0
VERTEX
  8
PLAN_1
  6
CONTINUOUS
 10
2.196437
 20
-3.595370
  0
VERTEX
  8
PLAN_1
  6
CONTINUOUS
 10
2.200248
 20
-3.591083
  0
VERTEX
  8
PLAN_1
  6
CONTINUOUS
 10
2.205012
 20
-3.586795
  0
VERTEX
  8
PLAN_1
  6
CONTINUOUS
 10
2.209776
 20
-3.582984
  0
VERTEX
  8
PLAN_1
  6
CONTINUOUS
 10
2.215492
 20
-3.580126
  0
VERTEX
  8
PLAN_1
  6
CONTINUOUS
 10
2.221681
 20
-3.577268
  0
VERTEX
  8
PLAN_1
  6
CONTINUOUS
 10
2.228350
 20
-3.574886
  0
VERTEX
  8
PLAN_1
  6
CONTINUOUS
 10
2.235972
 20
-3.573457
  0
VERTEX
  8
PLAN_1
  6
CONTINUOUS
 10
2.244071
 20
-3.572028
  0
VERTEX
  8
PLAN_1
  6
CONTINUOUS
 10
2.252646
 20
-3.572028
  0
VERTEX
  8
PLAN_1
  6
CONTINUOUS
 10
2.259311
 20
-3.572028
  0
VERTEX
  8
PLAN_1
  6
CONTINUOUS
 10
2.265028
 20
-3.572504
  0
VERTEX
  8
PLAN_1
  6
CONTINUOUS
 10
2.270744
 20
-3.572980
  0
VERTEX
  8
PLAN_1
  6
CONTINUOUS
 10
2.275984
 20
-3.573933
  0
VERTEX
  8
PLAN_1
  6
CONTINUOUS
 10
2.281224
 20
-3.574886
  0
VERTEX
  8
PLAN_1
  6
CONTINUOUS
 10
2.285512
 20
-3.575839
  0
VERTEX
  8
PLAN_1
  6
CONTINUOUS
 10
2.289795
 20
-3.577268
  0
VERTEX
  8
PLAN_1
  6
CONTINUOUS
 10
2.294083
 20
-3.578697
  0
VERTEX
  8
PLAN_1
  6
CONTINUOUS
 10
2.297894
 20
-3.580602
  0
VERTEX
  8
PLAN_1
  6
CONTINUOUS
 10
2.301228
 20
-3.582031
  0
VERTEX
  8
PLAN_1
  6
CONTINUOUS
 10
2.304563
 20
-3.583937
  0
VERTEX
  8
PLAN_1
  6
CONTINUOUS
 10
2.307421
 20
-3.586319
  0
VERTEX
  8
PLAN_1
  6
CONTINUOUS
 10
2.313138
 20
-3.590606
  0
VERTEX
  8
PLAN_1
  6
CONTINUOUS
 10
2.317425
 20
-3.595370
  0
VERTEX
  8
PLAN_1
  6
CONTINUOUS
 10
2.320756
 20
-3.600610
  0
VERTEX
  8
PLAN_1
  6
CONTINUOUS
 10
2.323614
 20
-3.605846
  0
VERTEX
  8
PLAN_1
  6
CONTINUOUS
 10
2.325996
 20
-3.611087
  0
VERTEX
  8
PLAN_1
  6
CONTINUOUS
 10
2.327425
 20
-3.616327
  0
VERTEX
  8
PLAN_1
  6
CONTINUOUS
 10
2.328854
 20
-3.621567
  0
VERTEX
  8
PLAN_1
  6
CONTINUOUS
 10
2.329807
 20
-3.626331
  0
VERTEX
  8
PLAN_1
  6
CONTINUOUS
 10
2.330283
 20
-3.631094
  0
VERTEX
  8
PLAN_1
  6
CONTINUOUS
 10
2.330283
 20
-3.635382
  0
VERTEX
  8
PLAN_1
  6
CONTINUOUS
 10
2.305039
 20
-3.635382
  0
SEQEND
  8
0
  0
POLYLINE
  8
PLAN_1
  6
CONTINUOUS
 66
     1
 40
0.008094
 41
0.008094
  0
VERTEX
  8
PLAN_1
  6
CONTINUOUS
 10
-1.142575
 20
1.217382
  0
VERTEX
  8
PLAN_1
  6
CONTINUOUS
 10
-1.130193
 20
1.217858
  0
VERTEX
  8
PLAN_1
  6
CONTINUOUS
 10
-1.118283
 20
1.218811
  0
VERTEX
  8
PLAN_1
  6
CONTINUOUS
 10
-1.106374
 20
1.220240
  0
VERTEX
  8
PLAN_1
  6
CONTINUOUS
 10
-1.094945
 20
1.222146
  0
VERTEX
  8
PLAN_1
  6
CONTINUOUS
 10
-1.083512
 20
1.225004
  0
VERTEX
  8
PLAN_1
  6
CONTINUOUS
 10
-1.072079
 20
1.227862
  0
VERTEX
  8
PLAN_1
  6
CONTINUOUS
 10
-1.061126
 20
1.231673
  0
VERTEX
  8
PLAN_1
  6
CONTINUOUS
 10
-1.050646
 20
1.235961
  0
VERTEX
  8
PLAN_1
  6
CONTINUOUS
 10
-1.040165
 20
1.240720
  0
VERTEX
  8
PLAN_1
  6
CONTINUOUS
 10
-1.029689
 20
1.245961
  0
VERTEX
  8
PLAN_1
  6
CONTINUOUS
 10
-1.020161
 20
1.251677
  0
VERTEX
  8
PLAN_1
  6
CONTINUOUS
 10
-1.010634
 20
1.257870
  0
VERTEX
  8
PLAN_1
  6
CONTINUOUS
 10
-1.001106
 20
1.264539
  0
VERTEX
  8
PLAN_1
  6
CONTINUOUS
 10
-0.992059
 20
1.271209
  0
VERTEX
  8
PLAN_1
  6
CONTINUOUS
 10
-0.983484
 20
1.278827
  0
VERTEX
  8
PLAN_1
  6
CONTINUOUS
 10
-0.975386
 20
1.286449
  0
VERTEX
  8
PLAN_1
  6
CONTINUOUS
 10
-0.967764
 20
1.295024
  0
VERTEX
  8
PLAN_1
  6
CONTINUOUS
 10
-0.960146
 20
1.303598
  0
VERTEX
  8
PLAN_1
  6
CONTINUOUS
 10
-0.953000
 20
1.312169
  0
VERTEX
  8
PLAN_1
  6
CONTINUOUS
 10
-0.946807
 20
1.321697
  0
VERTEX
  8
PLAN_1
  6
CONTINUOUS
 10
-0.940614
 20
1.331224
  0
VERTEX
  8
PLAN_1
  6
CONTINUOUS
 10
-0.934898
 20
1.341224
  0
VERTEX
  8
PLAN_1
  6
CONTINUOUS
 10
-0.929661
 20
1.351228
  0
VERTEX
  8
PLAN_1
  6
CONTINUOUS
 10
-0.924898
 20
1.361709
  0
VERTEX
  8
PLAN_1
  6
CONTINUOUS
 10
-0.920610
 20
1.372185
  0
VERTEX
  8
PLAN_1
  6
CONTINUOUS
 10
-0.916799
 20
1.383142
  0
VERTEX
  8
PLAN_1
  6
CONTINUOUS
 10
-0.913465
 20
1.394575
  0
VERTEX
  8
PLAN_1
  6
CONTINUOUS
 10
-0.911083
 20
1.406004
  0
VERTEX
  8
PLAN_1
  6
CONTINUOUS
 10
-0.909177
 20
1.417437
  0
VERTEX
  8
PLAN_1
  6
CONTINUOUS
 10
-0.907272
 20
1.429346
  0
VERTEX
  8
PLAN_1
  6
CONTINUOUS
 10
-0.906795
 20
1.441252
  0
VERTEX
  8
PLAN_1
  6
CONTINUOUS
 10
-0.906319
 20
1.453638
  0
VERTEX
  8
PLAN_1
  6
CONTINUOUS
 10
-0.906795
 20
1.465547
  0
VERTEX
  8
PLAN_1
  6
CONTINUOUS
 10
-0.907272
 20
1.477929
  0
VERTEX
  8
PLAN_1
  6
CONTINUOUS
 10
-0.909177
 20
1.489362
  0
VERTEX
  8
PLAN_1
  6
CONTINUOUS
 10
-0.911083
 20
1.501272
  0
VERTEX
  8
PLAN_1
  6
CONTINUOUS
 10
-0.913465
 20
1.512701
  0
VERTEX
  8
PLAN_1
  6
CONTINUOUS
 10
-0.916799
 20
1.523657
  0
VERTEX
  8
PLAN_1
  6
CONTINUOUS
 10
-0.920610
 20
1.534614
  0
VERTEX
  8
PLAN_1
  6
CONTINUOUS
 10
-0.924898
 20
1.545567
  0
VERTEX
  8
PLAN_1
  6
CONTINUOUS
 10
-0.929661
 20
1.556047
  0
VERTEX
  8
PLAN_1
  6
CONTINUOUS
 10
-0.934898
 20
1.566051
  0
VERTEX
  8
PLAN_1
  6
CONTINUOUS
 10
-0.940614
 20
1.576051
  0
VERTEX
  8
PLAN_1
  6
CONTINUOUS
 10
-0.946807
 20
1.585579
  0
VERTEX
  8
PLAN_1
  6
CONTINUOUS
 10
-0.953000
 20
1.595106
  0
VERTEX
  8
PLAN_1
  6
CONTINUOUS
 10
-0.960146
 20
1.603681
  0
VERTEX
  8
PLAN_1
  6
CONTINUOUS
 10
-0.967764
 20
1.612252
  0
VERTEX
  8
PLAN_1
  6
CONTINUOUS
 10
-0.975386
 20
1.620827
  0
VERTEX
  8
PLAN_1
  6
CONTINUOUS
 10
-0.983484
 20
1.628449
  0
VERTEX
  8
PLAN_1
  6
CONTINUOUS
 10
-0.992059
 20
1.636071
  0
VERTEX
  8
PLAN_1
  6
CONTINUOUS
 10
-1.001106
 20
1.642736
  0
VERTEX
  8
PLAN_1
  6
CONTINUOUS
 10
-1.010634
 20
1.649406
  0
VERTEX
  8
PLAN_1
  6
CONTINUOUS
 10
-1.020161
 20
1.655598
  0
VERTEX
  8
PLAN_1
  6
CONTINUOUS
 10
-1.029689
 20
1.661315
  0
VERTEX
  8
PLAN_1
  6
CONTINUOUS
 10
-1.040165
 20
1.666555
  0
VERTEX
  8
PLAN_1
  6
CONTINUOUS
 10
-1.050646
 20
1.671315
  0
VERTEX
  8
PLAN_1
  6
CONTINUOUS
 10
-1.061126
 20
1.675602
  0
VERTEX
  8
PLAN_1
  6
CONTINUOUS
 10
-1.072079
 20
1.678937
  0
VERTEX
  8
PLAN_1
  6
CONTINUOUS
 10
-1.083512
 20
1.682272
  0
VERTEX
  8
PLAN_1
  6
CONTINUOUS
 10
-1.094945
 20
1.685130
  0
VERTEX
  8
PLAN_1
  6
CONTINUOUS
 10
-1.106374
 20
1.687035
  0
VERTEX
  8
PLAN_1
  6
CONTINUOUS
 10
-1.118283
 20
1.688465
  0
VERTEX
  8
PLAN_1
  6
CONTINUOUS
 10
-1.130193
 20
1.689417
  0
VERTEX
  8
PLAN_1
  6
CONTINUOUS
 10
-1.142575
 20
1.689894
  0
VERTEX
  8
PLAN_1
  6
CONTINUOUS
 10
-1.154484
 20
1.689417
  0
VERTEX
  8
PLAN_1
  6
CONTINUOUS
 10
-1.166390
 20
1.688465
  0
VERTEX
  8
PLAN_1
  6
CONTINUOUS
 10
-1.178299
 20
1.687035
  0
VERTEX
  8
PLAN_1
  6
CONTINUOUS
 10
-1.190209
 20
1.685130
  0
VERTEX
  8
PLAN_1
  6
CONTINUOUS
 10
-1.201638
 20
1.682272
  0
VERTEX
  8
PLAN_1
  6
CONTINUOUS
 10
-1.212594
 20
1.678937
  0
VERTEX
  8
PLAN_1
  6
CONTINUOUS
 10
-1.223551
 20
1.675602
  0
VERTEX
  8
PLAN_1
  6
CONTINUOUS
 10
-1.234504
 20
1.671315
  0
VERTEX
  8
PLAN_1
  6
CONTINUOUS
 10
-1.244984
 20
1.666555
  0
VERTEX
  8
PLAN_1
  6
CONTINUOUS
 10
-1.254988
 20
1.661315
  0
VERTEX
  8
PLAN_1
  6
CONTINUOUS
 10
-1.264988
 20
1.655598
  0
VERTEX
  8
PLAN_1
  6
CONTINUOUS
 10
-1.274516
 20
1.649406
  0
VERTEX
  8
PLAN_1
  6
CONTINUOUS
 10
-1.283567
 20
1.642736
  0
VERTEX
  8
PLAN_1
  6
CONTINUOUS
 10
-1.292618
 20
1.636071
  0
VERTEX
  8
PLAN_1
  6
CONTINUOUS
 10
-1.301189
 20
1.628449
  0
VERTEX
  8
PLAN_1
  6
CONTINUOUS
 10
-1.309287
 20
1.620827
  0
VERTEX
  8
PLAN_1
  6
CONTINUOUS
 10
-1.317386
 20
1.612252
  0
VERTEX
  8
PLAN_1
  6
CONTINUOUS
 10
-1.324531
 20
1.603681
  0
VERTEX
  8
PLAN_1
  6
CONTINUOUS
 10
-1.331673
 20
1.595106
  0
VERTEX
  8
PLAN_1
  6
CONTINUOUS
 10
-1.338343
 20
1.585579
  0
VERTEX
  8
PLAN_1
  6
CONTINUOUS
 10
-1.344535
 20
1.576051
  0
VERTEX
  8
PLAN_1
  6
CONTINUOUS
 10
-1.350252
 20
1.566051
  0
VERTEX
  8
PLAN_1
  6
CONTINUOUS
 10
-1.355492
 20
1.556047
  0
VERTEX
  8
PLAN_1
  6
CONTINUOUS
 10
-1.360256
 20
1.545567
  0
VERTEX
  8
PLAN_1
  6
CONTINUOUS
 10
-1.364063
 20
1.534614
  0
VERTEX
  8
PLAN_1
  6
CONTINUOUS
 10
-1.367874
 20
1.523657
  0
VERTEX
  8
PLAN_1
  6
CONTINUOUS
 10
-1.371209
 20
1.512701
  0
VERTEX
  8
PLAN_1
  6
CONTINUOUS
 10
-1.373591
 20
1.501272
  0
VERTEX
  8
PLAN_1
  6
CONTINUOUS
 10
-1.375972
 20
1.489362
  0
VERTEX
  8
PLAN_1
  6
CONTINUOUS
 10
-1.377402
 20
1.477929
  0
VERTEX
  8
PLAN_1
  6
CONTINUOUS
 10
-1.378354
 20
1.465547
  0
VERTEX
  8
PLAN_1
  6
CONTINUOUS
 10
-1.378831
 20
1.453638
  0
VERTEX
  8
PLAN_1
  6
CONTINUOUS
 10
-1.378354
 20
1.441252
  0
VERTEX
  8
PLAN_1
  6
CONTINUOUS
 10
-1.377402
 20
1.429346
  0
VERTEX
  8
PLAN_1
  6
CONTINUOUS
 10
-1.375972
 20
1.417437
  0
VERTEX
  8
PLAN_1
  6
CONTINUOUS
 10
-1.373591
 20
1.406004
  0
VERTEX
  8
PLAN_1
  6
CONTINUOUS
 10
-1.371209
 20
1.394575
  0
VERTEX
  8
PLAN_1
  6
CONTINUOUS
 10
-1.367874
 20
1.383142
  0
VERTEX
  8
PLAN_1
  6
CONTINUOUS
 10
-1.364063
 20
1.372185
  0
VERTEX
  8
PLAN_1
  6
CONTINUOUS
 10
-1.360256
 20
1.361709
  0
VERTEX
  8
PLAN_1
  6
CONTINUOUS
 10
-1.355492
 20
1.351228
  0
VERTEX
  8
PLAN_1
  6
CONTINUOUS
 10
-1.350252
 20
1.341224
  0
VERTEX
  8
PLAN_1
  6
CONTINUOUS
 10
-1.344535
 20
1.331224
  0
VERTEX
  8
PLAN_1
  6
CONTINUOUS
 10
-1.338343
 20
1.321697
  0
VERTEX
  8
PLAN_1
  6
CONTINUOUS
 10
-1.331673
 20
1.312169
  0
VERTEX
  8
PLAN_1
  6
CONTINUOUS
 10
-1.324531
 20
1.303598
  0
VERTEX
  8
PLAN_1
  6
CONTINUOUS
 10
-1.317386
 20
1.295024
  0
VERTEX
  8
PLAN_1
  6
CONTINUOUS
 10
-1.309287
 20
1.286449
  0
VERTEX
  8
PLAN_1
  6
CONTINUOUS
 10
-1.301189
 20
1.278827
  0
VERTEX
  8
PLAN_1
  6
CONTINUOUS
 10
-1.292618
 20
1.271209
  0
VERTEX
  8
PLAN_1
  6
CONTINUOUS
 10
-1.283567
 20
1.264539
  0
VERTEX
  8
PLAN_1
  6
CONTINUOUS
 10
-1.274516
 20
1.257870
  0
VERTEX
  8
PLAN_1
  6
CONTINUOUS
 10
-1.264988
 20
1.251677
  0
VERTEX
  8
PLAN_1
  6
CONTINUOUS
 10
-1.254988
 20
1.245961
  0
VERTEX
  8
PLAN_1
  6
CONTINUOUS
 10
-1.244984
 20
1.240720
  0
VERTEX
  8
PLAN_1
  6
CONTINUOUS
 10
-1.234504
 20
1.235961
  0
VERTEX
  8
PLAN_1
  6
CONTINUOUS
 10
-1.223551
 20
1.231673
  0
VERTEX
  8
PLAN_1
  6
CONTINUOUS
 10
-1.212594
 20
1.227862
  0
VERTEX
  8
PLAN_1
  6
CONTINUOUS
 10
-1.201638
 20
1.225004
  0
VERTEX
  8
PLAN_1
  6
CONTINUOUS
 10
-1.190209
 20
1.222146
  0
VERTEX
  8
PLAN_1
  6
CONTINUOUS
 10
-1.178299
 20
1.220240
  0
VERTEX
  8
PLAN_1
  6
CONTINUOUS
 10
-1.166390
 20
1.218811
  0
VERTEX
  8
PLAN_1
  6
CONTINUOUS
 10
-1.154484
 20
1.217858
  0
VERTEX
  8
PLAN_1
  6
CONTINUOUS
 10
-1.142575
 20
1.217382
  0
SEQEND
  8
0
  0
POLYLINE
  8
PLAN_1
  6
CONTINUOUS
 66
     1
 40
0.008094
 41
0.008094
  0
VERTEX
  8
PLAN_1
  6
CONTINUOUS
 10
-0.955858
 20
2.973579
  0
VERTEX
  8
PLAN_1
  6
CONTINUOUS
 10
-0.945854
 20
2.979772
  0
VERTEX
  8
PLAN_1
  6
CONTINUOUS
 10
-0.935850
 20
2.986441
  0
VERTEX
  8
PLAN_1
  6
CONTINUOUS
 10
-0.926327
 20
2.993110
  0
VERTEX
  8
PLAN_1
  6
CONTINUOUS
 10
-0.916799
 20
3.000252
  0
VERTEX
  8
PLAN_1
  6
CONTINUOUS
 10
-0.907748
 20
3.007874
  0
VERTEX
  8
PLAN_1
  6
CONTINUOUS
 10
-0.898697
 20
3.015496
  0
VERTEX
  8
PLAN_1
  6
CONTINUOUS
 10
-0.889650
 20
3.023594
  0
VERTEX
  8
PLAN_1
  6
CONTINUOUS
 10
-0.881551
 20
3.032165
  0
VERTEX
  8
PLAN_1
  6
CONTINUOUS
 10
-0.873453
 20
3.040740
  0
VERTEX
  8
PLAN_1
  6
CONTINUOUS
 10
-0.865354
 20
3.049315
  0
VERTEX
  8
PLAN_1
  6
CONTINUOUS
 10
-0.857736
 20
3.058366
  0
VERTEX
  8
PLAN_1
  6
CONTINUOUS
 10
-0.850114
 20
3.067890
  0
VERTEX
  8
PLAN_1
  6
CONTINUOUS
 10
-0.843445
 20
3.077417
  0
VERTEX
  8
PLAN_1
  6
CONTINUOUS
 10
-0.836299
 20
3.086945
  0
VERTEX
  8
PLAN_1
  6
CONTINUOUS
 10
-0.830110
 20
3.096945
  0
VERTEX
  8
PLAN_1
  6
CONTINUOUS
 10
-0.823917
 20
3.107425
  0
VERTEX
  8
PLAN_1
  6
CONTINUOUS
 10
-0.818201
 20
3.117906
  0
VERTEX
  8
PLAN_1
  6
CONTINUOUS
 10
-0.812484
 20
3.128386
  0
VERTEX
  8
PLAN_1
  6
CONTINUOUS
 10
-0.807720
 20
3.139339
  0
VERTEX
  8
PLAN_1
  6
CONTINUOUS
 10
-0.802480
 20
3.150295
  0
VERTEX
  8
PLAN_1
  6
CONTINUOUS
 10
-0.798197
 20
3.161252
  0
VERTEX
  8
PLAN_1
  6
CONTINUOUS
 10
-0.793909
 20
3.172681
  0
VERTEX
  8
PLAN_1
  6
CONTINUOUS
 10
-0.790098
 20
3.184114
  0
VERTEX
  8
PLAN_1
  6
CONTINUOUS
 10
-0.786764
 20
3.196024
  0
VERTEX
  8
PLAN_1
  6
CONTINUOUS
 10
-0.783906
 20
3.207929
  0
VERTEX
  8
PLAN_1
  6
CONTINUOUS
 10
-0.781047
 20
3.219839
  0
VERTEX
  8
PLAN_1
  6
CONTINUOUS
 10
-0.779142
 20
3.231744
  0
VERTEX
  8
PLAN_1
  6
CONTINUOUS
 10
-0.777236
 20
3.244130
  0
VERTEX
  8
PLAN_1
  6
CONTINUOUS
 10
-0.775807
 20
3.256516
  0
VERTEX
  8
PLAN_1
  6
CONTINUOUS
 10
-0.774854
 20
3.268898
  0
VERTEX
  8
PLAN_1
  6
CONTINUOUS
 10
-0.773902
 20
3.281760
  0
VERTEX
  8
PLAN_1
  6
CONTINUOUS
 10
-0.773902
 20
3.294622
  0
VERTEX
  8
PLAN_1
  6
CONTINUOUS
 10
-0.774378
 20
3.313673
  0
VERTEX
  8
PLAN_1
  6
CONTINUOUS
 10
-0.775807
 20
3.332724
  0
VERTEX
  8
PLAN_1
  6
CONTINUOUS
 10
-0.778189
 20
3.351303
  0
VERTEX
  8
PLAN_1
  6
CONTINUOUS
 10
-0.781524
 20
3.369878
  0
VERTEX
  8
PLAN_1
  6
CONTINUOUS
 10
-0.785811
 20
3.387980
  0
VERTEX
  8
PLAN_1
  6
CONTINUOUS
 10
-0.790575
 20
3.405602
  0
VERTEX
  8
PLAN_1
  6
CONTINUOUS
 10
-0.796291
 20
3.423228
  0
VERTEX
  8
PLAN_1
  6
CONTINUOUS
 10
-0.803433
 20
3.439898
  0
VERTEX
  8
PLAN_1
  6
CONTINUOUS
 10
-0.810579
 20
3.456571
  0
VERTEX
  8
PLAN_1
  6
CONTINUOUS
 10
-0.819154
 20
3.472764
  0
VERTEX
  8
PLAN_1
  6
CONTINUOUS
 10
-0.828205
 20
3.488484
  0
VERTEX
  8
PLAN_1
  6
CONTINUOUS
 10
-0.837728
 20
3.503724
  0
VERTEX
  8
PLAN_1
  6
CONTINUOUS
 10
-0.848209
 20
3.518016
  0
VERTEX
  8
PLAN_1
  6
CONTINUOUS
 10
-0.859165
 20
3.532303
  0
VERTEX
  8
PLAN_1
  6
CONTINUOUS
 10
-0.871071
 20
3.546118
  0
VERTEX
  8
PLAN_1
  6
CONTINUOUS
 10
-0.883457
 20
3.558980
  0
VERTEX
  8
PLAN_1
  6
CONTINUOUS
 10
-0.896319
 20
3.571362
  0
VERTEX
  8
PLAN_1
  6
CONTINUOUS
 10
-0.910130
 20
3.582795
  0
VERTEX
  8
PLAN_1
  6
CONTINUOUS
 10
-0.923945
 20
3.594228
  0
VERTEX
  8
PLAN_1
  6
CONTINUOUS
 10
-0.938709
 20
3.604705
  0
VERTEX
  8
PLAN_1
  6
CONTINUOUS
 10
-0.953953
 20
3.614232
  0
VERTEX
  8
PLAN_1
  6
CONTINUOUS
 10
-0.969669
 20
3.623283
  0
VERTEX
  8
PLAN_1
  6
CONTINUOUS
 10
-0.985866
 20
3.631378
  0
VERTEX
  8
PLAN_1
  6
CONTINUOUS
 10
-1.002059
 20
3.639000
  0
VERTEX
  8
PLAN_1
  6
CONTINUOUS
 10
-1.019209
 20
3.645669
  0
VERTEX
  8
PLAN_1
  6
CONTINUOUS
 10
-1.036354
 20
3.651386
  0
VERTEX
  8
PLAN_1
  6
CONTINUOUS
 10
-1.054457
 20
3.656626
  0
VERTEX
  8
PLAN_1
  6
CONTINUOUS
 10
-1.072555
 20
3.660909
  0
VERTEX
  8
PLAN_1
  6
CONTINUOUS
 10
-1.090657
 20
3.664244
  0
VERTEX
  8
PLAN_1
  6
CONTINUOUS
 10
-1.109709
 20
3.666626
  0
VERTEX
  8
PLAN_1
  6
CONTINUOUS
 10
-1.128287
 20
3.668055
  0
VERTEX
  8
PLAN_1
  6
CONTINUOUS
 10
-1.147815
 20
3.668531
  0
VERTEX
  8
PLAN_1
  6
CONTINUOUS
 10
-1.166866
 20
3.668055
  0
VERTEX
  8
PLAN_1
  6
CONTINUOUS
 10
-1.185921
 20
3.666626
  0
VERTEX
  8
PLAN_1
  6
CONTINUOUS
 10
-1.204496
 20
3.664244
  0
VERTEX
  8
PLAN_1
  6
CONTINUOUS
 10
-1.223075
 20
3.660909
  0
VERTEX
  8
PLAN_1
  6
CONTINUOUS
 10
-1.241173
 20
3.656626
  0
VERTEX
  8
PLAN_1
  6
CONTINUOUS
 10
-1.258799
 20
3.651386
  0
VERTEX
  8
PLAN_1
  6
CONTINUOUS
 10
-1.276421
 20
3.645669
  0
VERTEX
  8
PLAN_1
  6
CONTINUOUS
 10
-1.293094
 20
3.639000
  0
VERTEX
  8
PLAN_1
  6
CONTINUOUS
 10
-1.309764
 20
3.631378
  0
VERTEX
  8
PLAN_1
  6
CONTINUOUS
 10
-1.325961
 20
3.623283
  0
VERTEX
  8
PLAN_1
  6
CONTINUOUS
 10
-1.341677
 20
3.614232
  0
VERTEX
  8
PLAN_1
  6
CONTINUOUS
 10
-1.356921
 20
3.604705
  0
VERTEX
  8
PLAN_1
  6
CONTINUOUS
 10
-1.371685
 20
3.594228
  0
VERTEX
  8
PLAN_1
  6
CONTINUOUS
 10
-1.385500
 20
3.582795
  0
VERTEX
  8
PLAN_1
  6
CONTINUOUS
 10
-1.399311
 20
3.571362
  0
VERTEX
  8
PLAN_1
  6
CONTINUOUS
 10
-1.412173
 20
3.558980
  0
VERTEX
  8
PLAN_1
  6
CONTINUOUS
 10
-1.424559
 20
3.546118
  0
VERTEX
  8
PLAN_1
  6
CONTINUOUS
 10
-1.436465
 20
3.532303
  0
VERTEX
  8
PLAN_1
  6
CONTINUOUS
 10
-1.447421
 20
3.518016
  0
VERTEX
  8
PLAN_1
  6
CONTINUOUS
 10
-1.457902
 20
3.503724
  0
VERTEX
  8
PLAN_1
  6
CONTINUOUS
 10
-1.467425
 20
3.488484
  0
VERTEX
  8
PLAN_1
  6
CONTINUOUS
 10
-1.476476
 20
3.472764
  0
VERTEX
  8
PLAN_1
  6
CONTINUOUS
 10
-1.485051
 20
3.456571
  0
VERTEX
  8
PLAN_1
  6
CONTINUOUS
 10
-1.492197
 20
3.439898
  0
VERTEX
  8
PLAN_1
  6
CONTINUOUS
 10
-1.498862
 20
3.423228
  0
VERTEX
  8
PLAN_1
  6
CONTINUOUS
 10
-1.505055
 20
3.405602
  0
VERTEX
  8
PLAN_1
  6
CONTINUOUS
 10
-1.509819
 20
3.387980
  0
VERTEX
  8
PLAN_1
  6
CONTINUOUS
 10
-1.514106
 20
3.369878
  0
VERTEX
  8
PLAN_1
  6
CONTINUOUS
 10
-1.517441
 20
3.351303
  0
VERTEX
  8
PLAN_1
  6
CONTINUOUS
 10
-1.519823
 20
3.332724
  0
VERTEX
  8
PLAN_1
  6
CONTINUOUS
 10
-1.521252
 20
3.313673
  0
VERTEX
  8
PLAN_1
  6
CONTINUOUS
 10
-1.521728
 20
3.294622
  0
VERTEX
  8
PLAN_1
  6
CONTINUOUS
 10
-1.521252
 20
3.281760
  0
VERTEX
  8
PLAN_1
  6
CONTINUOUS
 10
-1.520776
 20
3.269374
  0
VERTEX
  8
PLAN_1
  6
CONTINUOUS
 10
-1.519823
 20
3.256992
  0
VERTEX
  8
PLAN_1
  6
CONTINUOUS
 10
-1.518394
 20
3.245083
  0
VERTEX
  8
PLAN_1
  6
CONTINUOUS
 10
-1.516488
 20
3.232697
  0
VERTEX
  8
PLAN_1
  6
CONTINUOUS
 10
-1.514583
 20
3.220791
  0
VERTEX
  8
PLAN_1
  6
CONTINUOUS
 10
-1.511724
 20
3.208882
  0
VERTEX
  8
PLAN_1
  6
CONTINUOUS
 10
-1.508866
 20
3.197449
  0
VERTEX
  8
PLAN_1
  6
CONTINUOUS
 10
-1.505531
 20
3.185543
  0
VERTEX
  8
PLAN_1
  6
CONTINUOUS
 10
-1.501720
 20
3.174110
  0
VERTEX
  8
PLAN_1
  6
CONTINUOUS
 10
-1.497909
 20
3.163157
  0
VERTEX
  8
PLAN_1
  6
CONTINUOUS
 10
-1.493626
 20
3.152201
  0
VERTEX
  8
PLAN_1
  6
CONTINUOUS
 10
-1.488862
 20
3.141244
  0
VERTEX
  8
PLAN_1
  6
CONTINUOUS
 10
-1.484098
 20
3.130287
  0
VERTEX
  8
PLAN_1
  6
CONTINUOUS
 10
-1.478382
 20
3.119811
  0
VERTEX
  8
PLAN_1
  6
CONTINUOUS
 10
-1.472665
 20
3.109807
  0
VERTEX
  8
PLAN_1
  6
CONTINUOUS
 10
-1.466949
 20
3.099327
  0
VERTEX
  8
PLAN_1
  6
CONTINUOUS
 10
-1.460760
 20
3.089327
  0
VERTEX
  8
PLAN_1
  6
CONTINUOUS
 10
-1.454091
 20
3.079799
  0
VERTEX
  8
PLAN_1
  6
CONTINUOUS
 10
-1.446945
 20
3.070272
  0
VERTEX
  8
PLAN_1
  6
CONTINUOUS
 10
-1.439799
 20
3.061224
  0
VERTEX
  8
PLAN_1
  6
CONTINUOUS
 10
-1.432654
 20
3.052173
  0
VERTEX
  8
PLAN_1
  6
CONTINUOUS
 10
-1.424559
 20
3.043122
  0
VERTEX
  8
PLAN_1
  6
CONTINUOUS
 10
-1.416937
 20
3.034547
  0
VERTEX
  8
PLAN_1
  6
CONTINUOUS
 10
-1.408362
 20
3.026453
  0
VERTEX
  8
PLAN_1
  6
CONTINUOUS
 10
-1.399787
 20
3.018354
  0
VERTEX
  8
PLAN_1
  6
CONTINUOUS
 10
-1.391217
 20
3.010732
  0
VERTEX
  8
PLAN_1
  6
CONTINUOUS
 10
-1.382165
 20
3.003110
  0
VERTEX
  8
PLAN_1
  6
CONTINUOUS
 10
-1.373114
 20
2.995969
  0
VERTEX
  8
PLAN_1
  6
CONTINUOUS
 10
-1.363587
 20
2.989299
  0
VERTEX
  8
PLAN_1
  6
CONTINUOUS
 10
-1.354063
 20
2.982630
  0
VERTEX
  8
PLAN_1
  6
CONTINUOUS
 10
-1.344059
 20
2.975961
  0
VERTEX
  8
PLAN_1
  6
CONTINUOUS
 10
-1.333102
 20
2.969768
  0
VERTEX
  8
PLAN_1
  6
CONTINUOUS
 10
-1.322150
 20
2.963579
  0
VERTEX
  8
PLAN_1
  6
CONTINUOUS
 10
-1.310717
 20
2.957862
  0
VERTEX
  8
PLAN_1
  6
CONTINUOUS
 10
-1.299283
 20
2.952622
  0
VERTEX
  8
PLAN_1
  6
CONTINUOUS
 10
-1.287854
 20
2.947858
  0
VERTEX
  8
PLAN_1
  6
CONTINUOUS
 10
-1.275945
 20
2.943094
  0
VERTEX
  8
PLAN_1
  6
CONTINUOUS
 10
-1.263559
 20
2.938807
  0
VERTEX
  8
PLAN_1
  6
CONTINUOUS
 10
-1.251654
 20
2.934996
  0
VERTEX
  8
PLAN_1
  6
CONTINUOUS
 10
-1.239268
 20
2.931661
  0
VERTEX
  8
PLAN_1
  6
CONTINUOUS
 10
-1.226409
 20
2.928807
  0
VERTEX
  8
PLAN_1
  6
CONTINUOUS
 10
-1.213547
 20
2.926425
  0
VERTEX
  8
PLAN_1
  6
CONTINUOUS
 10
-1.200685
 20
2.924520
  0
VERTEX
  8
PLAN_1
  6
CONTINUOUS
 10
-1.187827
 20
2.922614
  0
VERTEX
  8
PLAN_1
  6
CONTINUOUS
 10
-1.174488
 20
2.921661
  0
VERTEX
  8
PLAN_1
  6
CONTINUOUS
 10
-1.161154
 20
2.920709
  0
VERTEX
  8
PLAN_1
  6
CONTINUOUS
 10
-1.147815
 20
2.920709
  0
VERTEX
  8
PLAN_1
  6
CONTINUOUS
 10
-1.134476
 20
2.920709
  0
VERTEX
  8
PLAN_1
  6
CONTINUOUS
 10
-1.121618
 20
2.921661
  0
VERTEX
  8
PLAN_1
  6
CONTINUOUS
 10
-1.108756
 20
2.922614
  0
VERTEX
  8
PLAN_1
  6
CONTINUOUS
 10
-1.095898
 20
2.924043
  0
VERTEX
  8
PLAN_1
  6
CONTINUOUS
 10
-1.083512
 20
2.925949
  0
VERTEX
  8
PLAN_1
  6
CONTINUOUS
 10
-1.071126
 20
2.928331
  0
VERTEX
  8
PLAN_1
  6
CONTINUOUS
 10
-1.058744
 20
2.931185
  0
VERTEX
  8
PLAN_1
  6
CONTINUOUS
 10
-1.046358
 20
2.934520
  0
VERTEX
  8
PLAN_1
  6
CONTINUOUS
 10
-1.034449
 20
2.937854
  0
VERTEX
  8
PLAN_1
  6
CONTINUOUS
 10
-1.022543
 20
2.942142
  0
VERTEX
  8
PLAN_1
  6
CONTINUOUS
 10
-1.011110
 20
2.946429
  0
VERTEX
  8
PLAN_1
  6
CONTINUOUS
 10
-0.999677
 20
2.951193
  0
VERTEX
  8
PLAN_1
  6
CONTINUOUS
 10
-0.988248
 20
2.955957
  0
VERTEX
  8
PLAN_1
  6
CONTINUOUS
 10
-0.977291
 20
2.961673
  0
VERTEX
  8
PLAN_1
  6
CONTINUOUS
 10
-0.966335
 20
2.967386
  0
VERTEX
  8
PLAN_1
  6
CONTINUOUS
 10
-0.955858
 20
2.973579
  0
SEQEND
  8
0
  0
POLYLINE
  8
PLAN_1
  6
CONTINUOUS
 66
     1
 40
0.007142
 41
0.007142
  0
VERTEX
  8
PLAN_1
  6
CONTINUOUS
 10
-1.526492
 20
1.823264
  0
VERTEX
  8
PLAN_1
  6
CONTINUOUS
 10
-1.526492
 20
1.845650
  0
VERTEX
  8
PLAN_1
  6
CONTINUOUS
 10
-1.573169
 20
1.845650
  0
VERTEX
  8
PLAN_1
  6
CONTINUOUS
 10
-1.573169
 20
1.823264
  0
VERTEX
  8
PLAN_1
  6
CONTINUOUS
 10
-1.526492
 20
1.823264
  0
SEQEND
  8
0
  0
POLYLINE
  8
PLAN_1
  6
CONTINUOUS
 66
     1
 40
0.007142
 41
0.007142
  0
VERTEX
  8
PLAN_1
  6
CONTINUOUS
 10
-0.620528
 20
1.845650
  0
VERTEX
  8
PLAN_1
  6
CONTINUOUS
 10
-0.620528
 20
1.786587
  0
VERTEX
  8
PLAN_1
  6
CONTINUOUS
 10
-0.880598
 20
1.786587
  0
VERTEX
  8
PLAN_1
  6
CONTINUOUS
 10
-0.880598
 20
1.845650
  0
VERTEX
  8
PLAN_1
  6
CONTINUOUS
 10
-0.620528
 20
1.845650
  0
SEQEND
  8
0
  0
POLYLINE
  8
PLAN_1
  6
CONTINUOUS
 66
     1
 40
0.007142
 41
0.007142
  0
VERTEX
  8
PLAN_1
  6
CONTINUOUS
 10
-0.731512
 20
1.823264
  0
VERTEX
  8
PLAN_1
  6
CONTINUOUS
 10
-0.731512
 20
1.845650
  0
VERTEX
  8
PLAN_1
  6
CONTINUOUS
 10
-0.778189
 20
1.845650
  0
VERTEX
  8
PLAN_1
  6
CONTINUOUS
 10
-0.778189
 20
1.823264
  0
VERTEX
  8
PLAN_1
  6
CONTINUOUS
 10
-0.731512
 20
1.823264
  0
SEQEND
  8
0
  0
POLYLINE
  8
PLAN_1
  6
CONTINUOUS
 66
     1
 40
0.007142
 41
0.007142
  0
VERTEX
  8
PLAN_1
  6
CONTINUOUS
 10
-1.286425
 20
1.904713
  0
VERTEX
  8
PLAN_1
  6
CONTINUOUS
 10
-1.016827
 20
1.904713
  0
SEQEND
  8
0
  0
POLYLINE
  8
PLAN_1
  6
CONTINUOUS
 66
     1
 40
0.007142
 41
0.007142
  0
VERTEX
  8
PLAN_1
  6
CONTINUOUS
 10
-1.272610
 20
0.495280
  0
VERTEX
  8
PLAN_1
  6
CONTINUOUS
 10
-1.036831
 20
0.495280
  0
SEQEND
  8
0
  0
POLYLINE
  8
PLAN_1
  6
CONTINUOUS
 66
     1
 40
0.007142
 41
0.007142
  0
VERTEX
  8
PLAN_1
  6
CONTINUOUS
 10
-1.014921
 20
0.494327
  0
VERTEX
  8
PLAN_1
  6
CONTINUOUS
 10
-1.036831
 20
0.495280
  0
VERTEX
  8
PLAN_1
  6
CONTINUOUS
 10
-1.036831
 20
0.792980
  0
VERTEX
  8
PLAN_1
  6
CONTINUOUS
 10
-1.272610
 20
0.792980
  0
VERTEX
  8
PLAN_1
  6
CONTINUOUS
 10
-1.272610
 20
0.495280
  0
VERTEX
  8
PLAN_1
  6
CONTINUOUS
 10
-1.287378
 20
0.495280
  0
VERTEX
  8
PLAN_1
  6
CONTINUOUS
 10
-1.281185
 20
0.495280
  0
SEQEND
  8
0
  0
POLYLINE
  8
PLAN_1
  6
CONTINUOUS
 66
     1
 40
0.004283
 41
0.004283
  0
VERTEX
  8
PLAN_1
  6
CONTINUOUS
 10
-2.152378
 20
0.660563
  0
VERTEX
  8
PLAN_1
  6
CONTINUOUS
 10
-1.881350
 20
0.660563
  0
SEQEND
  8
0
  0
POLYLINE
  8
PLAN_1
  6
CONTINUOUS
 66
     1
 40
0.004283
 41
0.004283
  0
VERTEX
  8
PLAN_1
  6
CONTINUOUS
 10
-2.015673
 20
0.535768
  0
VERTEX
  8
PLAN_1
  6
CONTINUOUS
 10
-2.016150
 20
0.785358
  0
SEQEND
  8
0
  0
POLYLINE
  8
PLAN_1
  6
CONTINUOUS
 66
     1
 40
0.003000
 41
0.003000
  0
VERTEX
  8
PLAN_1
  6
CONTINUOUS
 10
-2.014720
 20
0.692000
  0
VERTEX
  8
PLAN_1
  6
CONTINUOUS
 10
-2.018055
 20
0.692000
  0
VERTEX
  8
PLAN_1
  6
CONTINUOUS
 10
-2.021390
 20
0.691524
  0
VERTEX
  8
PLAN_1
  6
CONTINUOUS
 10
-2.024248
 20
0.690571
  0
VERTEX
  8
PLAN_1
  6
CONTINUOUS
 10
-2.027579
 20
0.689618
  0
VERTEX
  8
PLAN_1
  6
CONTINUOUS
 10
-2.029961
 20
0.688189
  0
VERTEX
  8
PLAN_1
  6
CONTINUOUS
 10
-2.032819
 20
0.686760
  0
VERTEX
  8
PLAN_1
  6
CONTINUOUS
 10
-2.035201
 20
0.684854
  0
VERTEX
  8
PLAN_1
  6
CONTINUOUS
 10
-2.037583
 20
0.682949
  0
VERTEX
  8
PLAN_1
  6
CONTINUOUS
 10
-2.039488
 20
0.680567
  0
VERTEX
  8
PLAN_1
  6
CONTINUOUS
 10
-2.041394
 20
0.678185
  0
VERTEX
  8
PLAN_1
  6
CONTINUOUS
 10
-2.042823
 20
0.675331
  0
VERTEX
  8
PLAN_1
  6
CONTINUOUS
 10
-2.044252
 20
0.672472
  0
VERTEX
  8
PLAN_1
  6
CONTINUOUS
 10
-2.045205
 20
0.669614
  0
VERTEX
  8
PLAN_1
  6
CONTINUOUS
 10
-2.046157
 20
0.666756
  0
VERTEX
  8
PLAN_1
  6
CONTINUOUS
 10
-2.046634
 20
0.663421
  0
VERTEX
  8
PLAN_1
  6
CONTINUOUS
 10
-2.046634
 20
0.660087
  0
VERTEX
  8
PLAN_1
  6
CONTINUOUS
 10
-2.046634
 20
0.656752
  0
VERTEX
  8
PLAN_1
  6
CONTINUOUS
 10
-2.046157
 20
0.653894
  0
VERTEX
  8
PLAN_1
  6
CONTINUOUS
 10
-2.045205
 20
0.650559
  0
VERTEX
  8
PLAN_1
  6
CONTINUOUS
 10
-2.044252
 20
0.647701
  0
VERTEX
  8
PLAN_1
  6
CONTINUOUS
 10
-2.042823
 20
0.644843
  0
VERTEX
  8
PLAN_1
  6
CONTINUOUS
 10
-2.041394
 20
0.642461
  0
VERTEX
  8
PLAN_1
  6
CONTINUOUS
 10
-2.039488
 20
0.640083
  0
VERTEX
  8
PLAN_1
  6
CONTINUOUS
 10
-2.037583
 20
0.637701
  0
VERTEX
  8
PLAN_1
  6
CONTINUOUS
 10
-2.035201
 20
0.635795
  0
VERTEX
  8
PLAN_1
  6
CONTINUOUS
 10
-2.032819
 20
0.633890
  0
VERTEX
  8
PLAN_1
  6
CONTINUOUS
 10
-2.029961
 20
0.631984
  0
VERTEX
  8
PLAN_1
  6
CONTINUOUS
 10
-2.027579
 20
0.630555
  0
VERTEX
  8
PLAN_1
  6
CONTINUOUS
 10
-2.024248
 20
0.629602
  0
VERTEX
  8
PLAN_1
  6
CONTINUOUS
 10
-2.021390
 20
0.629126
  0
VERTEX
  8
PLAN_1
  6
CONTINUOUS
 10
-2.018055
 20
0.628650
  0
VERTEX
  8
PLAN_1
  6
CONTINUOUS
 10
-2.014720
 20
0.628173
  0
VERTEX
  8
PLAN_1
  6
CONTINUOUS
 10
-2.011862
 20
0.628650
  0
VERTEX
  8
PLAN_1
  6
CONTINUOUS
 10
-2.008528
 20
0.629126
  0
VERTEX
  8
PLAN_1
  6
CONTINUOUS
 10
-2.005669
 20
0.629602
  0
VERTEX
  8
PLAN_1
  6
CONTINUOUS
 10
-2.002335
 20
0.630555
  0
VERTEX
  8
PLAN_1
  6
CONTINUOUS
 10
-1.999953
 20
0.631984
  0
VERTEX
  8
PLAN_1
  6
CONTINUOUS
 10
-1.997094
 20
0.633890
  0
VERTEX
  8
PLAN_1
  6
CONTINUOUS
 10
-1.994713
 20
0.635795
  0
VERTEX
  8
PLAN_1
  6
CONTINUOUS
 10
-1.992335
 20
0.637701
  0
VERTEX
  8
PLAN_1
  6
CONTINUOUS
 10
-1.990429
 20
0.640083
  0
VERTEX
  8
PLAN_1
  6
CONTINUOUS
 10
-1.988524
 20
0.642461
  0
VERTEX
  8
PLAN_1
  6
CONTINUOUS
 10
-1.987094
 20
0.644843
  0
VERTEX
  8
PLAN_1
  6
CONTINUOUS
 10
-1.985665
 20
0.647701
  0
VERTEX
  8
PLAN_1
  6
CONTINUOUS
 10
-1.984713
 20
0.650559
  0
VERTEX
  8
PLAN_1
  6
CONTINUOUS
 10
-1.983760
 20
0.653894
  0
VERTEX
  8
PLAN_1
  6
CONTINUOUS
 10
-1.983283
 20
0.656752
  0
VERTEX
  8
PLAN_1
  6
CONTINUOUS
 10
-1.983283
 20
0.660087
  0
VERTEX
  8
PLAN_1
  6
CONTINUOUS
 10
-1.983283
 20
0.663421
  0
VERTEX
  8
PLAN_1
  6
CONTINUOUS
 10
-1.983760
 20
0.666756
  0
VERTEX
  8
PLAN_1
  6
CONTINUOUS
 10
-1.984713
 20
0.669614
  0
VERTEX
  8
PLAN_1
  6
CONTINUOUS
 10
-1.985665
 20
0.672472
  0
VERTEX
  8
PLAN_1
  6
CONTINUOUS
 10
-1.987094
 20
0.675331
  0
VERTEX
  8
PLAN_1
  6
CONTINUOUS
 10
-1.988524
 20
0.678185
  0
VERTEX
  8
PLAN_1
  6
CONTINUOUS
 10
-1.990429
 20
0.680567
  0
VERTEX
  8
PLAN_1
  6
CONTINUOUS
 10
-1.992335
 20
0.682949
  0
VERTEX
  8
PLAN_1
  6
CONTINUOUS
 10
-1.994713
 20
0.684854
  0
VERTEX
  8
PLAN_1
  6
CONTINUOUS
 10
-1.997094
 20
0.686760
  0
VERTEX
  8
PLAN_1
  6
CONTINUOUS
 10
-1.999953
 20
0.688189
  0
VERTEX
  8
PLAN_1
  6
CONTINUOUS
 10
-2.002335
 20
0.689618
  0
VERTEX
  8
PLAN_1
  6
CONTINUOUS
 10
-2.005669
 20
0.690571
  0
VERTEX
  8
PLAN_1
  6
CONTINUOUS
 10
-2.008528
 20
0.691524
  0
VERTEX
  8
PLAN_1
  6
CONTINUOUS
 10
-2.011862
 20
0.692000
  0
VERTEX
  8
PLAN_1
  6
CONTINUOUS
 10
-2.014720
 20
0.692000
  0
SEQEND
  8
0
  0
POLYLINE
  8
PLAN_1
  6
CONTINUOUS
 66
     1
 40
0.004283
 41
0.004283
  0
VERTEX
  8
PLAN_1
  6
CONTINUOUS
 10
-0.403799
 20
0.660563
  0
VERTEX
  8
PLAN_1
  6
CONTINUOUS
 10
-0.132299
 20
0.660563
  0
SEQEND
  8
0
  0
POLYLINE
  8
PLAN_1
  6
CONTINUOUS
 66
     1
 40
0.004283
 41
0.004283
  0
VERTEX
  8
PLAN_1
  6
CONTINUOUS
 10
-0.266622
 20
0.535768
  0
VERTEX
  8
PLAN_1
  6
CONTINUOUS
 10
-0.267575
 20
0.785358
  0
SEQEND
  8
0
  0
POLYLINE
  8
PLAN_1
  6
CONTINUOUS
 66
     1
 40
0.003000
 41
0.003000
  0
VERTEX
  8
PLAN_1
  6
CONTINUOUS
 10
-0.266146
 20
0.692000
  0
VERTEX
  8
PLAN_1
  6
CONTINUOUS
 10
-0.269476
 20
0.692000
  0
VERTEX
  8
PLAN_1
  6
CONTINUOUS
 10
-0.272335
 20
0.691524
  0
VERTEX
  8
PLAN_1
  6
CONTINUOUS
 10
-0.275669
 20
0.690571
  0
VERTEX
  8
PLAN_1
  6
CONTINUOUS
 10
-0.278528
 20
0.689618
  0
VERTEX
  8
PLAN_1
  6
CONTINUOUS
 10
-0.281386
 20
0.688189
  0
VERTEX
  8
PLAN_1
  6
CONTINUOUS
 10
-0.283768
 20
0.686760
  0
VERTEX
  8
PLAN_1
  6
CONTINUOUS
 10
-0.286150
 20
0.684854
  0
VERTEX
  8
PLAN_1
  6
CONTINUOUS
 10
-0.288531
 20
0.682949
  0
VERTEX
  8
PLAN_1
  6
CONTINUOUS
 10
-0.290437
 20
0.680567
  0
VERTEX
  8
PLAN_1
  6
CONTINUOUS
 10
-0.292343
 20
0.678185
  0
VERTEX
  8
PLAN_1
  6
CONTINUOUS
 10
-0.294248
 20
0.675331
  0
VERTEX
  8
PLAN_1
  6
CONTINUOUS
 10
-0.295201
 20
0.672472
  0
VERTEX
  8
PLAN_1
  6
CONTINUOUS
 10
-0.296630
 20
0.669614
  0
VERTEX
  8
PLAN_1
  6
CONTINUOUS
 10
-0.297106
 20
0.666756
  0
VERTEX
  8
PLAN_1
  6
CONTINUOUS
 10
-0.297583
 20
0.663421
  0
VERTEX
  8
PLAN_1
  6
CONTINUOUS
 10
-0.298059
 20
0.660087
  0
VERTEX
  8
PLAN_1
  6
CONTINUOUS
 10
-0.297583
 20
0.656752
  0
VERTEX
  8
PLAN_1
  6
CONTINUOUS
 10
-0.297106
 20
0.653894
  0
VERTEX
  8
PLAN_1
  6
CONTINUOUS
 10
-0.296630
 20
0.650559
  0
VERTEX
  8
PLAN_1
  6
CONTINUOUS
 10
-0.295201
 20
0.647701
  0
VERTEX
  8
PLAN_1
  6
CONTINUOUS
 10
-0.294248
 20
0.644843
  0
VERTEX
  8
PLAN_1
  6
CONTINUOUS
 10
-0.292343
 20
0.642461
  0
VERTEX
  8
PLAN_1
  6
CONTINUOUS
 10
-0.290437
 20
0.640083
  0
VERTEX
  8
PLAN_1
  6
CONTINUOUS
 10
-0.288531
 20
0.637701
  0
VERTEX
  8
PLAN_1
  6
CONTINUOUS
 10
-0.286150
 20
0.635795
  0
VERTEX
  8
PLAN_1
  6
CONTINUOUS
 10
-0.283768
 20
0.633890
  0
VERTEX
  8
PLAN_1
  6
CONTINUOUS
 10
-0.281386
 20
0.631984
  0
VERTEX
  8
PLAN_1
  6
CONTINUOUS
 10
-0.278528
 20
0.630555
  0
VERTEX
  8
PLAN_1
  6
CONTINUOUS
 10
-0.275669
 20
0.629602
  0
VERTEX
  8
PLAN_1
  6
CONTINUOUS
 10
-0.272335
 20
0.629126
  0
VERTEX
  8
PLAN_1
  6
CONTINUOUS
 10
-0.269476
 20
0.628650
  0
VERTEX
  8
PLAN_1
  6
CONTINUOUS
 10
-0.266146
 20
0.628173
  0
VERTEX
  8
PLAN_1
  6
CONTINUOUS
 10
-0.262811
 20
0.628650
  0
VERTEX
  8
PLAN_1
  6
CONTINUOUS
 10
-0.259476
 20
0.629126
  0
VERTEX
  8
PLAN_1
  6
CONTINUOUS
 10
-0.256618
 20
0.629602
  0
VERTEX
  8
PLAN_1
  6
CONTINUOUS
 10
-0.253760
 20
0.630555
  0
VERTEX
  8
PLAN_1
  6
CONTINUOUS
 10
-0.250902
 20
0.631984
  0
VERTEX
  8
PLAN_1
  6
CONTINUOUS
 10
-0.248043
 20
0.633890
  0
VERTEX
  8
PLAN_1
  6
CONTINUOUS
 10
-0.245661
 20
0.635795
  0
VERTEX
  8
PLAN_1
  6
CONTINUOUS
 10
-0.243280
 20
0.637701
  0
VERTEX
  8
PLAN_1
  6
CONTINUOUS
 10
-0.241374
 20
0.640083
  0
VERTEX
  8
PLAN_1
  6
CONTINUOUS
 10
-0.239469
 20
0.642461
  0
VERTEX
  8
PLAN_1
  6
CONTINUOUS
 10
-0.238039
 20
0.644843
  0
VERTEX
  8
PLAN_1
  6
CONTINUOUS
 10
-0.236610
 20
0.647701
  0
VERTEX
  8
PLAN_1
  6
CONTINUOUS
 10
-0.235657
 20
0.650559
  0
VERTEX
  8
PLAN_1
  6
CONTINUOUS
 10
-0.234705
 20
0.653894
  0
VERTEX
  8
PLAN_1
  6
CONTINUOUS
 10
-0.234232
 20
0.656752
  0
VERTEX
  8
PLAN_1
  6
CONTINUOUS
 10
-0.234232
 20
0.660087
  0
VERTEX
  8
PLAN_1
  6
CONTINUOUS
 10
-0.234232
 20
0.663421
  0
VERTEX
  8
PLAN_1
  6
CONTINUOUS
 10
-0.234705
 20
0.666756
  0
VERTEX
  8
PLAN_1
  6
CONTINUOUS
 10
-0.235657
 20
0.669614
  0
VERTEX
  8
PLAN_1
  6
CONTINUOUS
 10
-0.236610
 20
0.672472
  0
VERTEX
  8
PLAN_1
  6
CONTINUOUS
 10
-0.238039
 20
0.675331
  0
VERTEX
  8
PLAN_1
  6
CONTINUOUS
 10
-0.239469
 20
0.678185
  0
VERTEX
  8
PLAN_1
  6
CONTINUOUS
 10
-0.241374
 20
0.680567
  0
VERTEX
  8
PLAN_1
  6
CONTINUOUS
 10
-0.243280
 20
0.682949
  0
VERTEX
  8
PLAN_1
  6
CONTINUOUS
 10
-0.245661
 20
0.684854
  0
VERTEX
  8
PLAN_1
  6
CONTINUOUS
 10
-0.248043
 20
0.686760
  0
VERTEX
  8
PLAN_1
  6
CONTINUOUS
 10
-0.250902
 20
0.688189
  0
VERTEX
  8
PLAN_1
  6
CONTINUOUS
 10
-0.253760
 20
0.689618
  0
VERTEX
  8
PLAN_1
  6
CONTINUOUS
 10
-0.256618
 20
0.690571
  0
VERTEX
  8
PLAN_1
  6
CONTINUOUS
 10
-0.259476
 20
0.691524
  0
VERTEX
  8
PLAN_1
  6
CONTINUOUS
 10
-0.262811
 20
0.692000
  0
VERTEX
  8
PLAN_1
  6
CONTINUOUS
 10
-0.266146
 20
0.692000
  0
SEQEND
  8
0
  0
POLYLINE
  8
PLAN_1
  6
CONTINUOUS
 66
     1
 40
0.008094
 41
0.008094
  0
VERTEX
  8
PLAN_1
  6
CONTINUOUS
 10
-0.925374
 20
2.995016
  0
VERTEX
  8
PLAN_1
  6
CONTINUOUS
 10
-0.882504
 20
2.690169
  0
VERTEX
  8
PLAN_1
  6
CONTINUOUS
 10
-0.882504
 20
0.385724
  0
VERTEX
  8
PLAN_1
  6
CONTINUOUS
 10
-1.049217
 20
0.009433
  0
VERTEX
  8
PLAN_1
  6
CONTINUOUS
 10
-1.083988
 20
0.009433
  0
SEQEND
  8
0
  0
POLYLINE
  8
PLAN_1
  6
CONTINUOUS
 66
     1
 40
0.008094
 41
0.008094
  0
VERTEX
  8
PLAN_1
  6
CONTINUOUS
 10
-1.083988
 20
0.009433
  0
VERTEX
  8
PLAN_1
  6
CONTINUOUS
 10
-1.084465
 20
0.016098
  0
VERTEX
  8
PLAN_1
  6
CONTINUOUS
 10
-1.085417
 20
0.021815
  0
VERTEX
  8
PLAN_1
  6
CONTINUOUS
 10
-1.087323
 20
0.027055
  0
VERTEX
  8
PLAN_1
  6
CONTINUOUS
 10
-1.089228
 20
0.031819
  0
VERTEX
  8
PLAN_1
  6
CONTINUOUS
 10
-1.092087
 20
0.035630
  0
VERTEX
  8
PLAN_1
  6
CONTINUOUS
 10
-1.095898
 20
0.038488
  0
VERTEX
  8
PLAN_1
  6
CONTINUOUS
 10
-1.099705
 20
0.041346
  0
VERTEX
  8
PLAN_1
  6
CONTINUOUS
 10
-1.103992
 20
0.043728
  0
VERTEX
  8
PLAN_1
  6
CONTINUOUS
 10
-1.108756
 20
0.045630
  0
VERTEX
  8
PLAN_1
  6
CONTINUOUS
 10
-1.113996
 20
0.047059
  0
VERTEX
  8
PLAN_1
  6
CONTINUOUS
 10
-1.119713
 20
0.048012
  0
VERTEX
  8
PLAN_1
  6
CONTINUOUS
 10
-1.125429
 20
0.048488
  0
VERTEX
  8
PLAN_1
  6
CONTINUOUS
 10
-1.138287
 20
0.049441
  0
VERTEX
  8
PLAN_1
  6
CONTINUOUS
 10
-1.152102
 20
0.049441
  0
VERTEX
  8
PLAN_1
  6
CONTINUOUS
 10
-1.165913
 20
0.049441
  0
VERTEX
  8
PLAN_1
  6
CONTINUOUS
 10
-1.178299
 20
0.048488
  0
VERTEX
  8
PLAN_1
  6
CONTINUOUS
 10
-1.184492
 20
0.048012
  0
VERTEX
  8
PLAN_1
  6
CONTINUOUS
 10
-1.189732
 20
0.047059
  0
VERTEX
  8
PLAN_1
  6
CONTINUOUS
 10
-1.194972
 20
0.045630
  0
VERTEX
  8
PLAN_1
  6
CONTINUOUS
 10
-1.200209
 20
0.043728
  0
VERTEX
  8
PLAN_1
  6
CONTINUOUS
 10
-1.204496
 20
0.041346
  0
VERTEX
  8
PLAN_1
  6
CONTINUOUS
 10
-1.208307
 20
0.038488
  0
VERTEX
  8
PLAN_1
  6
CONTINUOUS
 10
-1.211642
 20
0.035630
  0
VERTEX
  8
PLAN_1
  6
CONTINUOUS
 10
-1.214500
 20
0.031819
  0
VERTEX
  8
PLAN_1
  6
CONTINUOUS
 10
-1.216882
 20
0.027055
  0
VERTEX
  8
PLAN_1
  6
CONTINUOUS
 10
-1.218311
 20
0.021815
  0
VERTEX
  8
PLAN_1
  6
CONTINUOUS
 10
-1.219740
 20
0.016098
  0
VERTEX
  8
PLAN_1
  6
CONTINUOUS
 10
-1.219740
 20
0.009433
  0
SEQEND
  8
0
  0
POLYLINE
  8
PLAN_1
  6
CONTINUOUS
 66
     1
 40
0.008094
 41
0.008094
  0
VERTEX
  8
PLAN_1
  6
CONTINUOUS
 10
-1.219740
 20
0.009433
  0
VERTEX
  8
PLAN_1
  6
CONTINUOUS
 10
-1.254512
 20
0.009433
  0
VERTEX
  8
PLAN_1
  6
CONTINUOUS
 10
-1.421701
 20
0.385724
  0
VERTEX
  8
PLAN_1
  6
CONTINUOUS
 10
-1.421701
 20
2.690169
  0
VERTEX
  8
PLAN_1
  6
CONTINUOUS
 10
-1.384071
 20
3.006445
  0
SEQEND
  8
0
  0
POLYLINE
  8
PLAN_1
  6
CONTINUOUS
 66
     1
 40
0.008094
 41
0.008094
  0
VERTEX
  8
PLAN_1
  6
CONTINUOUS
 10
-1.291665
 20
1.272161
  0
VERTEX
  8
PLAN_1
  6
CONTINUOUS
 10
-1.291665
 20
0.388583
  0
SEQEND
  8
0
  0
POLYLINE
  8
PLAN_1
  6
CONTINUOUS
 66
     1
 40
0.008094
 41
0.008094
  0
VERTEX
  8
PLAN_1
  6
CONTINUOUS
 10
-1.291665
 20
0.388583
  0
VERTEX
  8
PLAN_1
  6
CONTINUOUS
 10
-1.291665
 20
0.381913
  0
VERTEX
  8
PLAN_1
  6
CONTINUOUS
 10
-1.291189
 20
0.374772
  0
VERTEX
  8
PLAN_1
  6
CONTINUOUS
 10
-1.290236
 20
0.368102
  0
VERTEX
  8
PLAN_1
  6
CONTINUOUS
 10
-1.289283
 20
0.361433
  0
VERTEX
  8
PLAN_1
  6
CONTINUOUS
 10
-1.287378
 20
0.354764
  0
VERTEX
  8
PLAN_1
  6
CONTINUOUS
 10
-1.285949
 20
0.348094
  0
VERTEX
  8
PLAN_1
  6
CONTINUOUS
 10
-1.283567
 20
0.341906
  0
VERTEX
  8
PLAN_1
  6
CONTINUOUS
 10
-1.281185
 20
0.335713
  0
VERTEX
  8
PLAN_1
  6
CONTINUOUS
 10
-1.278327
 20
0.329520
  0
VERTEX
  8
PLAN_1
  6
CONTINUOUS
 10
-1.275469
 20
0.323803
  0
VERTEX
  8
PLAN_1
  6
CONTINUOUS
 10
-1.272134
 20
0.318087
  0
VERTEX
  8
PLAN_1
  6
CONTINUOUS
 10
-1.268799
 20
0.312370
  0
VERTEX
  8
PLAN_1
  6
CONTINUOUS
 10
-1.264988
 20
0.307134
  0
VERTEX
  8
PLAN_1
  6
CONTINUOUS
 10
-1.260705
 20
0.301894
  0
VERTEX
  8
PLAN_1
  6
CONTINUOUS
 10
-1.256417
 20
0.297130
  0
VERTEX
  8
PLAN_1
  6
CONTINUOUS
 10
-1.252130
 20
0.292366
  0
VERTEX
  8
PLAN_1
  6
CONTINUOUS
 10
-1.247366
 20
0.287602
  0
VERTEX
  8
PLAN_1
  6
CONTINUOUS
 10
-1.242126
 20
0.283315
  0
VERTEX
  8
PLAN_1
  6
CONTINUOUS
 10
-1.236886
 20
0.279504
  0
VERTEX
  8
PLAN_1
  6
CONTINUOUS
 10
-1.231646
 20
0.275697
  0
VERTEX
  8
PLAN_1
  6
CONTINUOUS
 10
-1.225933
 20
0.271886
  0
VERTEX
  8
PLAN_1
  6
CONTINUOUS
 10
-1.220217
 20
0.268551
  0
VERTEX
  8
PLAN_1
  6
CONTINUOUS
 10
-1.214500
 20
0.265693
  0
VERTEX
  8
PLAN_1
  6
CONTINUOUS
 10
-1.208307
 20
0.262835
  0
VERTEX
  8
PLAN_1
  6
CONTINUOUS
 10
-1.202114
 20
0.260453
  0
VERTEX
  8
PLAN_1
  6
CONTINUOUS
 10
-1.195925
 20
0.258547
  0
VERTEX
  8
PLAN_1
  6
CONTINUOUS
 10
-1.189256
 20
0.256642
  0
VERTEX
  8
PLAN_1
  6
CONTINUOUS
 10
-1.183063
 20
0.255213
  0
VERTEX
  8
PLAN_1
  6
CONTINUOUS
 10
-1.176394
 20
0.253783
  0
VERTEX
  8
PLAN_1
  6
CONTINUOUS
 10
-1.169248
 20
0.252831
  0
VERTEX
  8
PLAN_1
  6
CONTINUOUS
 10
-1.162583
 20
0.252354
  0
VERTEX
  8
PLAN_1
  6
CONTINUOUS
 10
-1.155437
 20
0.252354
  0
VERTEX
  8
PLAN_1
  6
CONTINUOUS
 10
-1.148291
 20
0.252354
  0
VERTEX
  8
PLAN_1
  6
CONTINUOUS
 10
-1.141622
 20
0.252831
  0
VERTEX
  8
PLAN_1
  6
CONTINUOUS
 10
-1.134476
 20
0.253783
  0
VERTEX
  8
PLAN_1
  6
CONTINUOUS
 10
-1.127811
 20
0.255213
  0
VERTEX
  8
PLAN_1
  6
CONTINUOUS
 10
-1.121142
 20
0.256642
  0
VERTEX
  8
PLAN_1
  6
CONTINUOUS
 10
-1.114949
 20
0.258547
  0
VERTEX
  8
PLAN_1
  6
CONTINUOUS
 10
-1.108280
 20
0.260453
  0
VERTEX
  8
PLAN_1
  6
CONTINUOUS
 10
-1.102087
 20
0.262835
  0
VERTEX
  8
PLAN_1
  6
CONTINUOUS
 10
-1.096374
 20
0.265693
  0
VERTEX
  8
PLAN_1
  6
CONTINUOUS
 10
-1.090181
 20
0.268551
  0
VERTEX
  8
PLAN_1
  6
CONTINUOUS
 10
-1.084465
 20
0.271886
  0
VERTEX
  8
PLAN_1
  6
CONTINUOUS
 10
-1.079224
 20
0.275697
  0
VERTEX
  8
PLAN_1
  6
CONTINUOUS
 10
-1.073508
 20
0.279504
  0
VERTEX
  8
PLAN_1
  6
CONTINUOUS
 10
-1.068744
 20
0.283315
  0
VERTEX
  8
PLAN_1
  6
CONTINUOUS
 10
-1.063508
 20
0.287602
  0
VERTEX
  8
PLAN_1
  6
CONTINUOUS
 10
-1.058744
 20
0.292366
  0
VERTEX
  8
PLAN_1
  6
CONTINUOUS
 10
-1.054457
 20
0.297130
  0
VERTEX
  8
PLAN_1
  6
CONTINUOUS
 10
-1.050169
 20
0.301894
  0
VERTEX
  8
PLAN_1
  6
CONTINUOUS
 10
-1.045882
 20
0.307134
  0
VERTEX
  8
PLAN_1
  6
CONTINUOUS
 10
-1.042071
 20
0.312370
  0
VERTEX
  8
PLAN_1
  6
CONTINUOUS
 10
-1.038736
 20
0.318087
  0
VERTEX
  8
PLAN_1
  6
CONTINUOUS
 10
-1.035402
 20
0.323803
  0
VERTEX
  8
PLAN_1
  6
CONTINUOUS
 10
-1.032543
 20
0.329520
  0
VERTEX
  8
PLAN_1
  6
CONTINUOUS
 10
-1.029689
 20
0.335713
  0
VERTEX
  8
PLAN_1
  6
CONTINUOUS
 10
-1.027307
 20
0.341906
  0
VERTEX
  8
PLAN_1
  6
CONTINUOUS
 10
-1.024925
 20
0.348094
  0
VERTEX
  8
PLAN_1
  6
CONTINUOUS
 10
-1.023020
 20
0.354764
  0
VERTEX
  8
PLAN_1
  6
CONTINUOUS
 10
-1.021591
 20
0.361433
  0
VERTEX
  8
PLAN_1
  6
CONTINUOUS
 10
-1.020638
 20
0.368102
  0
VERTEX
  8
PLAN_1
  6
CONTINUOUS
 10
-1.019685
 20
0.374772
  0
VERTEX
  8
PLAN_1
  6
CONTINUOUS
 10
-1.019209
 20
0.381913
  0
VERTEX
  8
PLAN_1
  6
CONTINUOUS
 10
-1.018732
 20
0.388583
  0
SEQEND
  8
0
  0
POLYLINE
  8
PLAN_1
  6
CONTINUOUS
 66
     1
 40
0.008094
 41
0.008094
  0
VERTEX
  8
PLAN_1
  6
CONTINUOUS
 10
-1.018732
 20
0.388583
  0
VERTEX
  8
PLAN_1
  6
CONTINUOUS
 10
-1.018732
 20
1.251201
  0
SEQEND
  8
0
  0
POLYLINE
  8
PLAN_1
  6
CONTINUOUS
 66
     1
 40
0.008094
 41
0.008094
  0
VERTEX
  8
PLAN_1
  6
CONTINUOUS
 10
-1.018732
 20
1.655598
  0
VERTEX
  8
PLAN_1
  6
CONTINUOUS
 10
-1.018732
 20
2.691122
  0
SEQEND
  8
0
  0
POLYLINE
  8
PLAN_1
  6
CONTINUOUS
 66
     1
 40
0.008094
 41
0.008094
  0
VERTEX
  8
PLAN_1
  6
CONTINUOUS
 10
-1.018732
 20
2.691122
  0
VERTEX
  8
PLAN_1
  6
CONTINUOUS
 10
-1.019209
 20
2.698268
  0
VERTEX
  8
PLAN_1
  6
CONTINUOUS
 10
-1.019685
 20
2.705409
  0
VERTEX
  8
PLAN_1
  6
CONTINUOUS
 10
-1.020638
 20
2.712079
  0
VERTEX
  8
PLAN_1
  6
CONTINUOUS
 10
-1.021591
 20
2.718748
  0
VERTEX
  8
PLAN_1
  6
CONTINUOUS
 10
-1.023020
 20
2.725417
  0
VERTEX
  8
PLAN_1
  6
CONTINUOUS
 10
-1.024925
 20
2.732083
  0
VERTEX
  8
PLAN_1
  6
CONTINUOUS
 10
-1.027307
 20
2.738276
  0
VERTEX
  8
PLAN_1
  6
CONTINUOUS
 10
-1.029689
 20
2.744469
  0
VERTEX
  8
PLAN_1
  6
CONTINUOUS
 10
-1.032543
 20
2.750661
  0
VERTEX
  8
PLAN_1
  6
CONTINUOUS
 10
-1.035402
 20
2.756378
  0
VERTEX
  8
PLAN_1
  6
CONTINUOUS
 10
-1.038736
 20
2.762094
  0
VERTEX
  8
PLAN_1
  6
CONTINUOUS
 10
-1.042071
 20
2.767807
  0
VERTEX
  8
PLAN_1
  6
CONTINUOUS
 10
-1.045882
 20
2.773047
  0
VERTEX
  8
PLAN_1
  6
CONTINUOUS
 10
-1.050169
 20
2.778287
  0
VERTEX
  8
PLAN_1
  6
CONTINUOUS
 10
-1.054457
 20
2.783051
  0
VERTEX
  8
PLAN_1
  6
CONTINUOUS
 10
-1.058744
 20
2.787815
  0
VERTEX
  8
PLAN_1
  6
CONTINUOUS
 10
-1.063508
 20
2.792579
  0
VERTEX
  8
PLAN_1
  6
CONTINUOUS
 10
-1.068744
 20
2.796866
  0
VERTEX
  8
PLAN_1
  6
CONTINUOUS
 10
-1.073508
 20
2.800673
  0
VERTEX
  8
PLAN_1
  6
CONTINUOUS
 10
-1.079224
 20
2.804484
  0
VERTEX
  8
PLAN_1
  6
CONTINUOUS
 10
-1.084465
 20
2.808295
  0
VERTEX
  8
PLAN_1
  6
CONTINUOUS
 10
-1.090181
 20
2.811630
  0
VERTEX
  8
PLAN_1
  6
CONTINUOUS
 10
-1.096374
 20
2.814488
  0
VERTEX
  8
PLAN_1
  6
CONTINUOUS
 10
-1.102087
 20
2.817346
  0
VERTEX
  8
PLAN_1
  6
CONTINUOUS
 10
-1.108280
 20
2.819728
  0
VERTEX
  8
PLAN_1
  6
CONTINUOUS
 10
-1.114949
 20
2.821634
  0
VERTEX
  8
PLAN_1
  6
CONTINUOUS
 10
-1.121142
 20
2.823539
  0
VERTEX
  8
PLAN_1
  6
CONTINUOUS
 10
-1.127811
 20
2.824969
  0
VERTEX
  8
PLAN_1
  6
CONTINUOUS
 10
-1.134476
 20
2.826398
  0
VERTEX
  8
PLAN_1
  6
CONTINUOUS
 10
-1.141622
 20
2.827350
  0
VERTEX
  8
PLAN_1
  6
CONTINUOUS
 10
-1.148291
 20
2.827827
  0
VERTEX
  8
PLAN_1
  6
CONTINUOUS
 10
-1.155437
 20
2.827827
  0
VERTEX
  8
PLAN_1
  6
CONTINUOUS
 10
-1.162583
 20
2.827827
  0
VERTEX
  8
PLAN_1
  6
CONTINUOUS
 10
-1.169248
 20
2.827350
  0
VERTEX
  8
PLAN_1
  6
CONTINUOUS
 10
-1.176394
 20
2.826398
  0
VERTEX
  8
PLAN_1
  6
CONTINUOUS
 10
-1.183063
 20
2.824969
  0
VERTEX
  8
PLAN_1
  6
CONTINUOUS
 10
-1.189256
 20
2.823539
  0
VERTEX
  8
PLAN_1
  6
CONTINUOUS
 10
-1.195925
 20
2.821634
  0
VERTEX
  8
PLAN_1
  6
CONTINUOUS
 10
-1.202114
 20
2.819728
  0
VERTEX
  8
PLAN_1
  6
CONTINUOUS
 10
-1.208307
 20
2.817346
  0
VERTEX
  8
PLAN_1
  6
CONTINUOUS
 10
-1.214500
 20
2.814488
  0
VERTEX
  8
PLAN_1
  6
CONTINUOUS
 10
-1.220217
 20
2.811630
  0
VERTEX
  8
PLAN_1
  6
CONTINUOUS
 10
-1.225933
 20
2.808295
  0
VERTEX
  8
PLAN_1
  6
CONTINUOUS
 10
-1.231646
 20
2.804484
  0
VERTEX
  8
PLAN_1
  6
CONTINUOUS
 10
-1.236886
 20
2.800673
  0
VERTEX
  8
PLAN_1
  6
CONTINUOUS
 10
-1.242126
 20
2.796866
  0
VERTEX
  8
PLAN_1
  6
CONTINUOUS
 10
-1.247366
 20
2.792579
  0
VERTEX
  8
PLAN_1
  6
CONTINUOUS
 10
-1.252130
 20
2.787815
  0
VERTEX
  8
PLAN_1
  6
CONTINUOUS
 10
-1.256417
 20
2.783051
  0
VERTEX
  8
PLAN_1
  6
CONTINUOUS
 10
-1.260705
 20
2.778287
  0
VERTEX
  8
PLAN_1
  6
CONTINUOUS
 10
-1.264988
 20
2.773047
  0
VERTEX
  8
PLAN_1
  6
CONTINUOUS
 10
-1.268799
 20
2.767807
  0
VERTEX
  8
PLAN_1
  6
CONTINUOUS
 10
-1.272134
 20
2.762094
  0
VERTEX
  8
PLAN_1
  6
CONTINUOUS
 10
-1.275469
 20
2.756378
  0
VERTEX
  8
PLAN_1
  6
CONTINUOUS
 10
-1.278327
 20
2.750661
  0
VERTEX
  8
PLAN_1
  6
CONTINUOUS
 10
-1.281185
 20
2.744469
  0
VERTEX
  8
PLAN_1
  6
CONTINUOUS
 10
-1.283567
 20
2.738276
  0
VERTEX
  8
PLAN_1
  6
CONTINUOUS
 10
-1.285949
 20
2.732083
  0
VERTEX
  8
PLAN_1
  6
CONTINUOUS
 10
-1.287378
 20
2.725417
  0
VERTEX
  8
PLAN_1
  6
CONTINUOUS
 10
-1.289283
 20
2.718748
  0
VERTEX
  8
PLAN_1
  6
CONTINUOUS
 10
-1.290236
 20
2.712079
  0
VERTEX
  8
PLAN_1
  6
CONTINUOUS
 10
-1.291189
 20
2.705409
  0
VERTEX
  8
PLAN_1
  6
CONTINUOUS
 10
-1.291665
 20
2.698268
  0
VERTEX
  8
PLAN_1
  6
CONTINUOUS
 10
-1.291665
 20
2.691122
  0
SEQEND
  8
0
  0
POLYLINE
  8
PLAN_1
  6
CONTINUOUS
 66
     1
 40
0.008094
 41
0.008094
  0
VERTEX
  8
PLAN_1
  6
CONTINUOUS
 10
-1.291665
 20
2.691122
  0
VERTEX
  8
PLAN_1
  6
CONTINUOUS
 10
-1.291665
 20
1.638449
  0
SEQEND
  8
0
  0
POLYLINE
  8
PLAN_1
  6
CONTINUOUS
 66
     1
 40
0.008094
 41
0.008094
  0
VERTEX
  8
PLAN_1
  6
CONTINUOUS
 10
-1.150673
 20
3.516110
  0
VERTEX
  8
PLAN_1
  6
CONTINUOUS
 10
-0.955858
 20
3.411319
  0
VERTEX
  8
PLAN_1
  6
CONTINUOUS
 10
-0.955858
 20
3.180780
  0
VERTEX
  8
PLAN_1
  6
CONTINUOUS
 10
-1.150673
 20
3.072654
  0
VERTEX
  8
PLAN_1
  6
CONTINUOUS
 10
-1.336437
 20
3.180780
  0
VERTEX
  8
PLAN_1
  6
CONTINUOUS
 10
-1.336437
 20
3.411319
  0
VERTEX
  8
PLAN_1
  6
CONTINUOUS
 10
-1.150673
 20
3.516110
  0
SEQEND
  8
0
  0
POLYLINE
  8
PLAN_1
  6
CONTINUOUS
 66
     1
 40
0.007142
 41
0.007142
  0
VERTEX
  8
PLAN_1
  6
CONTINUOUS
 10
-1.153055
 20
1.683224
  0
VERTEX
  8
PLAN_1
  6
CONTINUOUS
 10
-0.950142
 20
1.573669
  0
VERTEX
  8
PLAN_1
  6
CONTINUOUS
 10
-0.950142
 20
1.333130
  0
VERTEX
  8
PLAN_1
  6
CONTINUOUS
 10
-1.153055
 20
1.220717
  0
VERTEX
  8
PLAN_1
  6
CONTINUOUS
 10
-1.346917
 20
1.333130
  0
VERTEX
  8
PLAN_1
  6
CONTINUOUS
 10
-1.346917
 20
1.573669
  0
VERTEX
  8
PLAN_1
  6
CONTINUOUS
 10
-1.153055
 20
1.683224
  0
SEQEND
  8
0
  0
POLYLINE
  8
PLAN_1
  6
CONTINUOUS
 66
     1
 40
0.007142
 41
0.007142
  0
VERTEX
  8
PLAN_1
  6
CONTINUOUS
 10
-1.149720
 20
1.334559
  0
VERTEX
  8
PLAN_1
  6
CONTINUOUS
 10
-1.143528
 20
1.334559
  0
VERTEX
  8
PLAN_1
  6
CONTINUOUS
 10
-1.137335
 20
1.335035
  0
VERTEX
  8
PLAN_1
  6
CONTINUOUS
 10
-1.131618
 20
1.335988
  0
VERTEX
  8
PLAN_1
  6
CONTINUOUS
 10
-1.125906
 20
1.336941
  0
VERTEX
  8
PLAN_1
  6
CONTINUOUS
 10
-1.120189
 20
1.338370
  0
VERTEX
  8
PLAN_1
  6
CONTINUOUS
 10
-1.114472
 20
1.339795
  0
VERTEX
  8
PLAN_1
  6
CONTINUOUS
 10
-1.108756
 20
1.341701
  0
VERTEX
  8
PLAN_1
  6
CONTINUOUS
 10
-1.103516
 20
1.344083
  0
VERTEX
  8
PLAN_1
  6
CONTINUOUS
 10
-1.098276
 20
1.346465
  0
VERTEX
  8
PLAN_1
  6
CONTINUOUS
 10
-1.093039
 20
1.348846
  0
VERTEX
  8
PLAN_1
  6
CONTINUOUS
 10
-1.088276
 20
1.351705
  0
VERTEX
  8
PLAN_1
  6
CONTINUOUS
 10
-1.083512
 20
1.354563
  0
VERTEX
  8
PLAN_1
  6
CONTINUOUS
 10
-1.078748
 20
1.357898
  0
VERTEX
  8
PLAN_1
  6
CONTINUOUS
 10
-1.074461
 20
1.361709
  0
VERTEX
  8
PLAN_1
  6
CONTINUOUS
 10
-1.070173
 20
1.365520
  0
VERTEX
  8
PLAN_1
  6
CONTINUOUS
 10
-1.065886
 20
1.369331
  0
VERTEX
  8
PLAN_1
  6
CONTINUOUS
 10
-1.062079
 20
1.373138
  0
VERTEX
  8
PLAN_1
  6
CONTINUOUS
 10
-1.058268
 20
1.377425
  0
VERTEX
  8
PLAN_1
  6
CONTINUOUS
 10
-1.054933
 20
1.382189
  0
VERTEX
  8
PLAN_1
  6
CONTINUOUS
 10
-1.051598
 20
1.386476
  0
VERTEX
  8
PLAN_1
  6
CONTINUOUS
 10
-1.048740
 20
1.391717
  0
VERTEX
  8
PLAN_1
  6
CONTINUOUS
 10
-1.045882
 20
1.396480
  0
VERTEX
  8
PLAN_1
  6
CONTINUOUS
 10
-1.043024
 20
1.401720
  0
VERTEX
  8
PLAN_1
  6
CONTINUOUS
 10
-1.040642
 20
1.406957
  0
VERTEX
  8
PLAN_1
  6
CONTINUOUS
 10
-1.038736
 20
1.412197
  0
VERTEX
  8
PLAN_1
  6
CONTINUOUS
 10
-1.036831
 20
1.417437
  0
VERTEX
  8
PLAN_1
  6
CONTINUOUS
 10
-1.035402
 20
1.423154
  0
VERTEX
  8
PLAN_1
  6
CONTINUOUS
 10
-1.033972
 20
1.428870
  0
VERTEX
  8
PLAN_1
  6
CONTINUOUS
 10
-1.033020
 20
1.434587
  0
VERTEX
  8
PLAN_1
  6
CONTINUOUS
 10
-1.032067
 20
1.440776
  0
VERTEX
  8
PLAN_1
  6
CONTINUOUS
 10
-1.031591
 20
1.446492
  0
VERTEX
  8
PLAN_1
  6
CONTINUOUS
 10
-1.031591
 20
1.452685
  0
VERTEX
  8
PLAN_1
  6
CONTINUOUS
 10
-1.031591
 20
1.458878
  0
VERTEX
  8
PLAN_1
  6
CONTINUOUS
 10
-1.032067
 20
1.464594
  0
VERTEX
  8
PLAN_1
  6
CONTINUOUS
 10
-1.033020
 20
1.470787
  0
VERTEX
  8
PLAN_1
  6
CONTINUOUS
 10
-1.033972
 20
1.476500
  0
VERTEX
  8
PLAN_1
  6
CONTINUOUS
 10
-1.035402
 20
1.482217
  0
VERTEX
  8
PLAN_1
  6
CONTINUOUS
 10
-1.036831
 20
1.487933
  0
VERTEX
  8
PLAN_1
  6
CONTINUOUS
 10
-1.038736
 20
1.493173
  0
VERTEX
  8
PLAN_1
  6
CONTINUOUS
 10
-1.040642
 20
1.498890
  0
VERTEX
  8
PLAN_1
  6
CONTINUOUS
 10
-1.043024
 20
1.504130
  0
VERTEX
  8
PLAN_1
  6
CONTINUOUS
 10
-1.045882
 20
1.508890
  0
VERTEX
  8
PLAN_1
  6
CONTINUOUS
 10
-1.048740
 20
1.514130
  0
VERTEX
  8
PLAN_1
  6
CONTINUOUS
 10
-1.051598
 20
1.518894
  0
VERTEX
  8
PLAN_1
  6
CONTINUOUS
 10
-1.054933
 20
1.523181
  0
VERTEX
  8
PLAN_1
  6
CONTINUOUS
 10
-1.058268
 20
1.527945
  0
VERTEX
  8
PLAN_1
  6
CONTINUOUS
 10
-1.062079
 20
1.532232
  0
VERTEX
  8
PLAN_1
  6
CONTINUOUS
 10
-1.065886
 20
1.536043
  0
VERTEX
  8
PLAN_1
  6
CONTINUOUS
 10
-1.070173
 20
1.540327
  0
VERTEX
  8
PLAN_1
  6
CONTINUOUS
 10
-1.074461
 20
1.543661
  0
VERTEX
  8
PLAN_1
  6
CONTINUOUS
 10
-1.078748
 20
1.547472
  0
VERTEX
  8
PLAN_1
  6
CONTINUOUS
 10
-1.083512
 20
1.550807
  0
VERTEX
  8
PLAN_1
  6
CONTINUOUS
 10
-1.088276
 20
1.553665
  0
VERTEX
  8
PLAN_1
  6
CONTINUOUS
 10
-1.093039
 20
1.556524
  0
VERTEX
  8
PLAN_1
  6
CONTINUOUS
 10
-1.098276
 20
1.559382
  0
VERTEX
  8
PLAN_1
  6
CONTINUOUS
 10
-1.103516
 20
1.561764
  0
VERTEX
  8
PLAN_1
  6
CONTINUOUS
 10
-1.108756
 20
1.563669
  0
VERTEX
  8
PLAN_1
  6
CONTINUOUS
 10
-1.114472
 20
1.565575
  0
VERTEX
  8
PLAN_1
  6
CONTINUOUS
 10
-1.120189
 20
1.567004
  0
VERTEX
  8
PLAN_1
  6
CONTINUOUS
 10
-1.125906
 20
1.568433
  0
VERTEX
  8
PLAN_1
  6
CONTINUOUS
 10
-1.131618
 20
1.569386
  0
VERTEX
  8
PLAN_1
  6
CONTINUOUS
 10
-1.137335
 20
1.570339
  0
VERTEX
  8
PLAN_1
  6
CONTINUOUS
 10
-1.143528
 20
1.570815
  0
VERTEX
  8
PLAN_1
  6
CONTINUOUS
 10
-1.149720
 20
1.570815
  0
VERTEX
  8
PLAN_1
  6
CONTINUOUS
 10
-1.155437
 20
1.570815
  0
VERTEX
  8
PLAN_1
  6
CONTINUOUS
 10
-1.161630
 20
1.570339
  0
VERTEX
  8
PLAN_1
  6
CONTINUOUS
 10
-1.167343
 20
1.569386
  0
VERTEX
  8
PLAN_1
  6
CONTINUOUS
 10
-1.173535
 20
1.568433
  0
VERTEX
  8
PLAN_1
  6
CONTINUOUS
 10
-1.179252
 20
1.567004
  0
VERTEX
  8
PLAN_1
  6
CONTINUOUS
 10
-1.184492
 20
1.565575
  0
VERTEX
  8
PLAN_1
  6
CONTINUOUS
 10
-1.190209
 20
1.563669
  0
VERTEX
  8
PLAN_1
  6
CONTINUOUS
 10
-1.195449
 20
1.561764
  0
VERTEX
  8
PLAN_1
  6
CONTINUOUS
 10
-1.200685
 20
1.559382
  0
VERTEX
  8
PLAN_1
  6
CONTINUOUS
 10
-1.205925
 20
1.556524
  0
VERTEX
  8
PLAN_1
  6
CONTINUOUS
 10
-1.210689
 20
1.553665
  0
VERTEX
  8
PLAN_1
  6
CONTINUOUS
 10
-1.215453
 20
1.550807
  0
VERTEX
  8
PLAN_1
  6
CONTINUOUS
 10
-1.220217
 20
1.547472
  0
VERTEX
  8
PLAN_1
  6
CONTINUOUS
 10
-1.224504
 20
1.543661
  0
VERTEX
  8
PLAN_1
  6
CONTINUOUS
 10
-1.228791
 20
1.540327
  0
VERTEX
  8
PLAN_1
  6
CONTINUOUS
 10
-1.233075
 20
1.536043
  0
VERTEX
  8
PLAN_1
  6
CONTINUOUS
 10
-1.236886
 20
1.532232
  0
VERTEX
  8
PLAN_1
  6
CONTINUOUS
 10
-1.240697
 20
1.527945
  0
VERTEX
  8
PLAN_1
  6
CONTINUOUS
 10
-1.244031
 20
1.523181
  0
VERTEX
  8
PLAN_1
  6
CONTINUOUS
 10
-1.247366
 20
1.518894
  0
VERTEX
  8
PLAN_1
  6
CONTINUOUS
 10
-1.250701
 20
1.514130
  0
VERTEX
  8
PLAN_1
  6
CONTINUOUS
 10
-1.253559
 20
1.508890
  0
VERTEX
  8
PLAN_1
  6
CONTINUOUS
 10
-1.255941
 20
1.504130
  0
VERTEX
  8
PLAN_1
  6
CONTINUOUS
 10
-1.258323
 20
1.498890
  0
VERTEX
  8
PLAN_1
  6
CONTINUOUS
 10
-1.260705
 20
1.493173
  0
VERTEX
  8
PLAN_1
  6
CONTINUOUS
 10
-1.262134
 20
1.487933
  0
VERTEX
  8
PLAN_1
  6
CONTINUOUS
 10
-1.264035
 20
1.482217
  0
VERTEX
  8
PLAN_1
  6
CONTINUOUS
 10
-1.265465
 20
1.476500
  0
VERTEX
  8
PLAN_1
  6
CONTINUOUS
 10
-1.266417
 20
1.470787
  0
VERTEX
  8
PLAN_1
  6
CONTINUOUS
 10
-1.266894
 20
1.464594
  0
VERTEX
  8
PLAN_1
  6
CONTINUOUS
 10
-1.267370
 20
1.458878
  0
VERTEX
  8
PLAN_1
  6
CONTINUOUS
 10
-1.267846
 20
1.452685
  0
VERTEX
  8
PLAN_1
  6
CONTINUOUS
 10
-1.267370
 20
1.446492
  0
VERTEX
  8
PLAN_1
  6
CONTINUOUS
 10
-1.266894
 20
1.440776
  0
VERTEX
  8
PLAN_1
  6
CONTINUOUS
 10
-1.266417
 20
1.434587
  0
VERTEX
  8
PLAN_1
  6
CONTINUOUS
 10
-1.265465
 20
1.428870
  0
VERTEX
  8
PLAN_1
  6
CONTINUOUS
 10
-1.264035
 20
1.423154
  0
VERTEX
  8
PLAN_1
  6
CONTINUOUS
 10
-1.262134
 20
1.417437
  0
VERTEX
  8
PLAN_1
  6
CONTINUOUS
 10
-1.260705
 20
1.412197
  0
VERTEX
  8
PLAN_1
  6
CONTINUOUS
 10
-1.258323
 20
1.406957
  0
VERTEX
  8
PLAN_1
  6
CONTINUOUS
 10
-1.255941
 20
1.401720
  0
VERTEX
  8
PLAN_1
  6
CONTINUOUS
 10
-1.253559
 20
1.396480
  0
VERTEX
  8
PLAN_1
  6
CONTINUOUS
 10
-1.250701
 20
1.391717
  0
VERTEX
  8
PLAN_1
  6
CONTINUOUS
 10
-1.247366
 20
1.386476
  0
VERTEX
  8
PLAN_1
  6
CONTINUOUS
 10
-1.244031
 20
1.382189
  0
VERTEX
  8
PLAN_1
  6
CONTINUOUS
 10
-1.240697
 20
1.377425
  0
VERTEX
  8
PLAN_1
  6
CONTINUOUS
 10
-1.236886
 20
1.373138
  0
VERTEX
  8
PLAN_1
  6
CONTINUOUS
 10
-1.233075
 20
1.369331
  0
VERTEX
  8
PLAN_1
  6
CONTINUOUS
 10
-1.228791
 20
1.365520
  0
VERTEX
  8
PLAN_1
  6
CONTINUOUS
 10
-1.224504
 20
1.361709
  0
VERTEX
  8
PLAN_1
  6
CONTINUOUS
 10
-1.220217
 20
1.357898
  0
VERTEX
  8
PLAN_1
  6
CONTINUOUS
 10
-1.215453
 20
1.354563
  0
VERTEX
  8
PLAN_1
  6
CONTINUOUS
 10
-1.210689
 20
1.351705
  0
VERTEX
  8
PLAN_1
  6
CONTINUOUS
 10
-1.205925
 20
1.348846
  0
VERTEX
  8
PLAN_1
  6
CONTINUOUS
 10
-1.200685
 20
1.346465
  0
VERTEX
  8
PLAN_1
  6
CONTINUOUS
 10
-1.195449
 20
1.344083
  0
VERTEX
  8
PLAN_1
  6
CONTINUOUS
 10
-1.190209
 20
1.341701
  0
VERTEX
  8
PLAN_1
  6
CONTINUOUS
 10
-1.184492
 20
1.339795
  0
VERTEX
  8
PLAN_1
  6
CONTINUOUS
 10
-1.179252
 20
1.338370
  0
VERTEX
  8
PLAN_1
  6
CONTINUOUS
 10
-1.173535
 20
1.336941
  0
VERTEX
  8
PLAN_1
  6
CONTINUOUS
 10
-1.167343
 20
1.335988
  0
VERTEX
  8
PLAN_1
  6
CONTINUOUS
 10
-1.161630
 20
1.335035
  0
VERTEX
  8
PLAN_1
  6
CONTINUOUS
 10
-1.155437
 20
1.334559
  0
VERTEX
  8
PLAN_1
  6
CONTINUOUS
 10
-1.149720
 20
1.334559
  0
SEQEND
  8
0
  0
POLYLINE
  8
PLAN_1
  6
CONTINUOUS
 66
     1
 40
0.008094
 41
0.008094
  0
VERTEX
  8
PLAN_1
  6
CONTINUOUS
 10
-1.423606
 20
1.786110
  0
VERTEX
  8
PLAN_1
  6
CONTINUOUS
 10
-1.682724
 20
1.786110
  0
SEQEND
  8
0
  0
POLYLINE
  8
PLAN_1
  6
CONTINUOUS
 66
     1
 40
0.007142
 41
0.007142
  0
VERTEX
  8
PLAN_1
  6
CONTINUOUS
 10
-1.423606
 20
1.786587
  0
VERTEX
  8
PLAN_1
  6
CONTINUOUS
 10
-1.682724
 20
1.786587
  0
VERTEX
  8
PLAN_1
  6
CONTINUOUS
 10
-1.682724
 20
1.845650
  0
VERTEX
  8
PLAN_1
  6
CONTINUOUS
 10
-1.423606
 20
1.845650
  0
SEQEND
  8
0
  0
POLYLINE
  8
PLAN_1
  6
CONTINUOUS
 66
     1
 40
0.008094
 41
0.008094
  0
VERTEX
  8
PLAN_1
  6
CONTINUOUS
 10
-0.620051
 20
1.786110
  0
VERTEX
  8
PLAN_1
  6
CONTINUOUS
 10
-0.881551
 20
1.786110
  0
SEQEND
  8
0
  0
POLYLINE
  8
PLAN_1
  6
CONTINUOUS
 66
     1
 40
0.008094
 41
0.008094
  0
VERTEX
  8
PLAN_1
  6
CONTINUOUS
 10
-1.021591
 20
1.904236
  0
VERTEX
  8
PLAN_1
  6
CONTINUOUS
 10
-1.291665
 20
1.904236
  0
SEQEND
  8
0
  0
POLYLINE
  8
PLAN_1
  6
CONTINUOUS
 66
     1
 40
0.008094
 41
0.008094
  0
VERTEX
  8
PLAN_1
  6
CONTINUOUS
 10
-1.619374
 20
0.869669
  0
VERTEX
  8
PLAN_1
  6
CONTINUOUS
 10
-1.620327
 20
0.867287
  0
VERTEX
  8
PLAN_1
  6
CONTINUOUS
 10
-1.622232
 20
0.860618
  0
VERTEX
  8
PLAN_1
  6
CONTINUOUS
 10
-1.623185
 20
0.855854
  0
VERTEX
  8
PLAN_1
  6
CONTINUOUS
 10
-1.623661
 20
0.851091
  0
VERTEX
  8
PLAN_1
  6
CONTINUOUS
 10
-1.624138
 20
0.845850
  0
VERTEX
  8
PLAN_1
  6
CONTINUOUS
 10
-1.624138
 20
0.840138
  0
VERTEX
  8
PLAN_1
  6
CONTINUOUS
 10
-1.623661
 20
0.834898
  0
VERTEX
  8
PLAN_1
  6
CONTINUOUS
 10
-1.622232
 20
0.829181
  0
VERTEX
  8
PLAN_1
  6
CONTINUOUS
 10
-1.620803
 20
0.826799
  0
VERTEX
  8
PLAN_1
  6
CONTINUOUS
 10
-1.619850
 20
0.824417
  0
VERTEX
  8
PLAN_1
  6
CONTINUOUS
 10
-1.618421
 20
0.822035
  0
VERTEX
  8
PLAN_1
  6
CONTINUOUS
 10
-1.616516
 20
0.820130
  0
VERTEX
  8
PLAN_1
  6
CONTINUOUS
 10
-1.614134
 20
0.817748
  0
VERTEX
  8
PLAN_1
  6
CONTINUOUS
 10
-1.611752
 20
0.816319
  0
VERTEX
  8
PLAN_1
  6
CONTINUOUS
 10
-1.609370
 20
0.814413
  0
VERTEX
  8
PLAN_1
  6
CONTINUOUS
 10
-1.606035
 20
0.813461
  0
VERTEX
  8
PLAN_1
  6
CONTINUOUS
 10
-1.602701
 20
0.812031
  0
VERTEX
  8
PLAN_1
  6
CONTINUOUS
 10
-1.598890
 20
0.811555
  0
VERTEX
  8
PLAN_1
  6
CONTINUOUS
 10
-1.594606
 20
0.811079
  0
VERTEX
  8
PLAN_1
  6
CONTINUOUS
 10
-1.589843
 20
0.810602
  0
VERTEX
  8
PLAN_1
  6
CONTINUOUS
 10
-1.584602
 20
0.810602
  0
VERTEX
  8
PLAN_1
  6
CONTINUOUS
 10
-1.576980
 20
0.810602
  0
VERTEX
  8
PLAN_1
  6
CONTINUOUS
 10
-1.565547
 20
0.810602
  0
VERTEX
  8
PLAN_1
  6
CONTINUOUS
 10
-1.549831
 20
0.810602
  0
VERTEX
  8
PLAN_1
  6
CONTINUOUS
 10
-1.528394
 20
0.810602
  0
VERTEX
  8
PLAN_1
  6
CONTINUOUS
 10
-1.501244
 20
0.810602
  0
VERTEX
  8
PLAN_1
  6
CONTINUOUS
 10
-1.466472
 20
0.810602
  0
VERTEX
  8
PLAN_1
  6
CONTINUOUS
 10
-1.423606
 20
0.810602
  0
SEQEND
  8
0
  0
POLYLINE
  8
PLAN_1
  6
CONTINUOUS
 66
     1
 40
0.008094
 41
0.008094
  0
VERTEX
  8
PLAN_1
  6
CONTINUOUS
 10
-1.291665
 20
0.810602
  0
VERTEX
  8
PLAN_1
  6
CONTINUOUS
 10
-1.252130
 20
0.810602
  0
VERTEX
  8
PLAN_1
  6
CONTINUOUS
 10
-1.216406
 20
0.810602
  0
VERTEX
  8
PLAN_1
  6
CONTINUOUS
 10
-1.183063
 20
0.810602
  0
VERTEX
  8
PLAN_1
  6
CONTINUOUS
 10
-1.151626
 20
0.810602
  0
VERTEX
  8
PLAN_1
  6
CONTINUOUS
 10
-1.120665
 20
0.810602
  0
VERTEX
  8
PLAN_1
  6
CONTINUOUS
 10
-1.088752
 20
0.810602
  0
VERTEX
  8
PLAN_1
  6
CONTINUOUS
 10
-1.055409
 20
0.810602
  0
VERTEX
  8
PLAN_1
  6
CONTINUOUS
 10
-1.018256
 20
0.810602
  0
SEQEND
  8
0
  0
POLYLINE
  8
PLAN_1
  6
CONTINUOUS
 66
     1
 40
0.008094
 41
0.008094
  0
VERTEX
  8
PLAN_1
  6
CONTINUOUS
 10
-0.882028
 20
0.810602
  0
VERTEX
  8
PLAN_1
  6
CONTINUOUS
 10
-0.840587
 20
0.810602
  0
VERTEX
  8
PLAN_1
  6
CONTINUOUS
 10
-0.807244
 20
0.810602
  0
VERTEX
  8
PLAN_1
  6
CONTINUOUS
 10
-0.781047
 20
0.810602
  0
VERTEX
  8
PLAN_1
  6
CONTINUOUS
 10
-0.760091
 20
0.810602
  0
VERTEX
  8
PLAN_1
  6
CONTINUOUS
 10
-0.744370
 20
0.810602
  0
VERTEX
  8
PLAN_1
  6
CONTINUOUS
 10
-0.731988
 20
0.810602
  0
VERTEX
  8
PLAN_1
  6
CONTINUOUS
 10
-0.721984
 20
0.810602
  0
VERTEX
  8
PLAN_1
  6
CONTINUOUS
 10
-0.712933
 20
0.810602
  0
VERTEX
  8
PLAN_1
  6
CONTINUOUS
 10
-0.708646
 20
0.811079
  0
VERTEX
  8
PLAN_1
  6
CONTINUOUS
 10
-0.704835
 20
0.811555
  0
VERTEX
  8
PLAN_1
  6
CONTINUOUS
 10
-0.701024
 20
0.812031
  0
VERTEX
  8
PLAN_1
  6
CONTINUOUS
 10
-0.697693
 20
0.813461
  0
VERTEX
  8
PLAN_1
  6
CONTINUOUS
 10
-0.694835
 20
0.814413
  0
VERTEX
  8
PLAN_1
  6
CONTINUOUS
 10
-0.691976
 20
0.816319
  0
VERTEX
  8
PLAN_1
  6
CONTINUOUS
 10
-0.689118
 20
0.817748
  0
VERTEX
  8
PLAN_1
  6
CONTINUOUS
 10
-0.687213
 20
0.820130
  0
VERTEX
  8
PLAN_1
  6
CONTINUOUS
 10
-0.684831
 20
0.822035
  0
VERTEX
  8
PLAN_1
  6
CONTINUOUS
 10
-0.682925
 20
0.824417
  0
VERTEX
  8
PLAN_1
  6
CONTINUOUS
 10
-0.681496
 20
0.826799
  0
VERTEX
  8
PLAN_1
  6
CONTINUOUS
 10
-0.680067
 20
0.829657
  0
VERTEX
  8
PLAN_1
  6
CONTINUOUS
 10
-0.677685
 20
0.834898
  0
VERTEX
  8
PLAN_1
  6
CONTINUOUS
 10
-0.676256
 20
0.840138
  0
VERTEX
  8
PLAN_1
  6
CONTINUOUS
 10
-0.674827
 20
0.845850
  0
VERTEX
  8
PLAN_1
  6
CONTINUOUS
 10
-0.674350
 20
0.851091
  0
VERTEX
  8
PLAN_1
  6
CONTINUOUS
 10
-0.674350
 20
0.855854
  0
VERTEX
  8
PLAN_1
  6
CONTINUOUS
 10
-0.674350
 20
0.860618
  0
VERTEX
  8
PLAN_1
  6
CONTINUOUS
 10
-0.674350
 20
0.867287
  0
VERTEX
  8
PLAN_1
  6
CONTINUOUS
 10
-0.674827
 20
0.869669
  0
SEQEND
  8
0
  0
POLYLINE
  8
PLAN_1
  6
CONTINUOUS
 66
     1
 40
0.004283
 41
0.004283
  0
VERTEX
  8
PLAN_1
  6
CONTINUOUS
 10
-2.339094
 20
0.216630
  0
VERTEX
  8
PLAN_1
  6
CONTINUOUS
 10
-2.339094
 20
0.722961
  0
SEQEND
  8
0
  0
POLYLINE
  8
PLAN_1
  6
CONTINUOUS
 66
     1
 40
0.004283
 41
0.004283
  0
VERTEX
  8
PLAN_1
  6
CONTINUOUS
 10
-2.339094
 20
0.722961
  0
VERTEX
  8
PLAN_1
  6
CONTINUOUS
 10
-2.338618
 20
0.729154
  0
VERTEX
  8
PLAN_1
  6
CONTINUOUS
 10
-2.335760
 20
0.745823
  0
VERTEX
  8
PLAN_1
  6
CONTINUOUS
 10
-2.332902
 20
0.756780
  0
VERTEX
  8
PLAN_1
  6
CONTINUOUS
 10
-2.329091
 20
0.769165
  0
VERTEX
  8
PLAN_1
  6
CONTINUOUS
 10
-2.326232
 20
0.775831
  0
VERTEX
  8
PLAN_1
  6
CONTINUOUS
 10
-2.323378
 20
0.782500
  0
VERTEX
  8
PLAN_1
  6
CONTINUOUS
 10
-2.320043
 20
0.789169
  0
VERTEX
  8
PLAN_1
  6
CONTINUOUS
 10
-2.315756
 20
0.795839
  0
VERTEX
  8
PLAN_1
  6
CONTINUOUS
 10
-2.311469
 20
0.802984
  0
VERTEX
  8
PLAN_1
  6
CONTINUOUS
 10
-2.306705
 20
0.809650
  0
VERTEX
  8
PLAN_1
  6
CONTINUOUS
 10
-2.300988
 20
0.816319
  0
VERTEX
  8
PLAN_1
  6
CONTINUOUS
 10
-2.294795
 20
0.822512
  0
VERTEX
  8
PLAN_1
  6
CONTINUOUS
 10
-2.288130
 20
0.829181
  0
VERTEX
  8
PLAN_1
  6
CONTINUOUS
 10
-2.280984
 20
0.834898
  0
VERTEX
  8
PLAN_1
  6
CONTINUOUS
 10
-2.272886
 20
0.840614
  0
VERTEX
  8
PLAN_1
  6
CONTINUOUS
 10
-2.264311
 20
0.845850
  0
VERTEX
  8
PLAN_1
  6
CONTINUOUS
 10
-2.254787
 20
0.851091
  0
VERTEX
  8
PLAN_1
  6
CONTINUOUS
 10
-2.244783
 20
0.855378
  0
VERTEX
  8
PLAN_1
  6
CONTINUOUS
 10
-2.233350
 20
0.859189
  0
VERTEX
  8
PLAN_1
  6
CONTINUOUS
 10
-2.221445
 20
0.862524
  0
VERTEX
  8
PLAN_1
  6
CONTINUOUS
 10
-2.209059
 20
0.865382
  0
VERTEX
  8
PLAN_1
  6
CONTINUOUS
 10
-2.195244
 20
0.867287
  0
VERTEX
  8
PLAN_1
  6
CONTINUOUS
 10
-2.180957
 20
0.868240
  0
VERTEX
  8
PLAN_1
  6
CONTINUOUS
 10
-2.165236
 20
0.868717
  0
VERTEX
  8
PLAN_1
  6
CONTINUOUS
 10
-2.129988
 20
0.868717
  0
VERTEX
  8
PLAN_1
  6
CONTINUOUS
 10
-2.075213
 20
0.868717
  0
VERTEX
  8
PLAN_1
  6
CONTINUOUS
 10
-2.002811
 20
0.868717
  0
VERTEX
  8
PLAN_1
  6
CONTINUOUS
 10
-1.914217
 20
0.868717
  0
VERTEX
  8
PLAN_1
  6
CONTINUOUS
 10
-1.810378
 20
0.868717
  0
VERTEX
  8
PLAN_1
  6
CONTINUOUS
 10
-1.692728
 20
0.868717
  0
VERTEX
  8
PLAN_1
  6
CONTINUOUS
 10
-1.562689
 20
0.868717
  0
VERTEX
  8
PLAN_1
  6
CONTINUOUS
 10
-1.422177
 20
0.868717
  0
SEQEND
  8
0
  0
POLYLINE
  8
PLAN_1
  6
CONTINUOUS
 66
     1
 40
0.004283
 41
0.004283
  0
VERTEX
  8
PLAN_1
  6
CONTINUOUS
 10
-1.291189
 20
0.868717
  0
VERTEX
  8
PLAN_1
  6
CONTINUOUS
 10
-1.251654
 20
0.868717
  0
VERTEX
  8
PLAN_1
  6
CONTINUOUS
 10
-1.216406
 20
0.868717
  0
VERTEX
  8
PLAN_1
  6
CONTINUOUS
 10
-1.184016
 20
0.868717
  0
VERTEX
  8
PLAN_1
  6
CONTINUOUS
 10
-1.153531
 20
0.868717
  0
VERTEX
  8
PLAN_1
  6
CONTINUOUS
 10
-1.123047
 20
0.868717
  0
VERTEX
  8
PLAN_1
  6
CONTINUOUS
 10
-1.091134
 20
0.868717
  0
VERTEX
  8
PLAN_1
  6
CONTINUOUS
 10
-1.056362
 20
0.868717
  0
VERTEX
  8
PLAN_1
  6
CONTINUOUS
 10
-1.017780
 20
0.868717
  0
SEQEND
  8
0
  0
POLYLINE
  8
PLAN_1
  6
CONTINUOUS
 66
     1
 40
0.004283
 41
0.004283
  0
VERTEX
  8
PLAN_1
  6
CONTINUOUS
 10
-0.882028
 20
0.868717
  0
VERTEX
  8
PLAN_1
  6
CONTINUOUS
 10
-0.718650
 20
0.868717
  0
VERTEX
  8
PLAN_1
  6
CONTINUOUS
 10
-0.570035
 20
0.868717
  0
VERTEX
  8
PLAN_1
  6
CONTINUOUS
 10
-0.438571
 20
0.868717
  0
VERTEX
  8
PLAN_1
  6
CONTINUOUS
 10
-0.326161
 20
0.868717
  0
VERTEX
  8
PLAN_1
  6
CONTINUOUS
 10
-0.234705
 20
0.868717
  0
VERTEX
  8
PLAN_1
  6
CONTINUOUS
 10
-0.166594
 20
0.868717
  0
VERTEX
  8
PLAN_1
  6
CONTINUOUS
 10
-0.124201
 20
0.868717
  0
VERTEX
  8
PLAN_1
  6
CONTINUOUS
 10
-0.109909
 20
0.868717
  0
VERTEX
  8
PLAN_1
  6
CONTINUOUS
 10
-0.103240
 20
0.868717
  0
VERTEX
  8
PLAN_1
  6
CONTINUOUS
 10
-0.086094
 20
0.867287
  0
VERTEX
  8
PLAN_1
  6
CONTINUOUS
 10
-0.080378
 20
0.866335
  0
VERTEX
  8
PLAN_1
  6
CONTINUOUS
 10
-0.074185
 20
0.864906
  0
VERTEX
  8
PLAN_1
  6
CONTINUOUS
 10
-0.067996
 20
0.863476
  0
VERTEX
  8
PLAN_1
  6
CONTINUOUS
 10
-0.061327
 20
0.861571
  0
VERTEX
  8
PLAN_1
  6
CONTINUOUS
 10
-0.054657
 20
0.859189
  0
VERTEX
  8
PLAN_1
  6
CONTINUOUS
 10
-0.047512
 20
0.856331
  0
VERTEX
  8
PLAN_1
  6
CONTINUOUS
 10
-0.040843
 20
0.852996
  0
VERTEX
  8
PLAN_1
  6
CONTINUOUS
 10
-0.033701
 20
0.848709
  0
VERTEX
  8
PLAN_1
  6
CONTINUOUS
 10
-0.026555
 20
0.844421
  0
VERTEX
  8
PLAN_1
  6
CONTINUOUS
 10
-0.019409
 20
0.839185
  0
VERTEX
  8
PLAN_1
  6
CONTINUOUS
 10
-0.012264
 20
0.833469
  0
VERTEX
  8
PLAN_1
  6
CONTINUOUS
 10
-0.005594
 20
0.826799
  0
VERTEX
  8
PLAN_1
  6
CONTINUOUS
 10
0.001071
 20
0.819654
  0
VERTEX
  8
PLAN_1
  6
CONTINUOUS
 10
0.007264
 20
0.811555
  0
VERTEX
  8
PLAN_1
  6
CONTINUOUS
 10
0.013457
 20
0.802508
  0
VERTEX
  8
PLAN_1
  6
CONTINUOUS
 10
0.019173
 20
0.792504
  0
VERTEX
  8
PLAN_1
  6
CONTINUOUS
 10
0.023937
 20
0.782024
  0
VERTEX
  8
PLAN_1
  6
CONTINUOUS
 10
0.028701
 20
0.770118
  0
VERTEX
  8
PLAN_1
  6
CONTINUOUS
 10
0.032984
 20
0.757732
  0
VERTEX
  8
PLAN_1
  6
CONTINUOUS
 10
0.036319
 20
0.743917
  0
VERTEX
  8
PLAN_1
  6
CONTINUOUS
 10
0.039177
 20
0.729154
  0
VERTEX
  8
PLAN_1
  6
CONTINUOUS
 10
0.041083
 20
0.713433
  0
VERTEX
  8
PLAN_1
  6
CONTINUOUS
 10
0.042512
 20
0.696287
  0
VERTEX
  8
PLAN_1
  6
CONTINUOUS
 10
0.042988
 20
0.678185
  0
SEQEND
  8
0
  0
POLYLINE
  8
PLAN_1
  6
CONTINUOUS
 66
     1
 40
0.004283
 41
0.004283
  0
VERTEX
  8
PLAN_1
  6
CONTINUOUS
 10
0.042988
 20
0.678185
  0
VERTEX
  8
PLAN_1
  6
CONTINUOUS
 10
0.042988
 20
0.224252
  0
SEQEND
  8
0
  0
POLYLINE
  8
PLAN_1
  6
CONTINUOUS
 66
     1
 40
0.008094
 41
0.008094
  0
VERTEX
  8
PLAN_1
  6
CONTINUOUS
 10
-1.424559
 20
1.904236
  0
VERTEX
  8
PLAN_1
  6
CONTINUOUS
 10
-1.682724
 20
1.904236
  0
VERTEX
  8
PLAN_1
  6
CONTINUOUS
 10
-1.682724
 20
0.869669
  0
VERTEX
  8
PLAN_1
  6
CONTINUOUS
 10
-1.422177
 20
0.869669
  0
SEQEND
  8
0
  0
POLYLINE
  8
PLAN_1
  6
CONTINUOUS
 66
     1
 40
0.008094
 41
0.008094
  0
VERTEX
  8
PLAN_1
  6
CONTINUOUS
 10
-1.291189
 20
0.869669
  0
VERTEX
  8
PLAN_1
  6
CONTINUOUS
 10
-1.017780
 20
0.869669
  0
SEQEND
  8
0
  0
POLYLINE
  8
PLAN_1
  6
CONTINUOUS
 66
     1
 40
0.008094
 41
0.008094
  0
VERTEX
  8
PLAN_1
  6
CONTINUOUS
 10
-0.882028
 20
0.869669
  0
VERTEX
  8
PLAN_1
  6
CONTINUOUS
 10
-0.618622
 20
0.869669
  0
VERTEX
  8
PLAN_1
  6
CONTINUOUS
 10
-0.618622
 20
1.904236
  0
VERTEX
  8
PLAN_1
  6
CONTINUOUS
 10
-0.880598
 20
1.904236
  0
SEQEND
  8
0
  0
POLYLINE
  8
PLAN_1
  6
CONTINUOUS
 66
     1
 40
0.007142
 41
0.007142
  0
VERTEX
  8
PLAN_1
  6
CONTINUOUS
 10
-1.294047
 20
0.455268
  0
VERTEX
  8
PLAN_1
  6
CONTINUOUS
 10
-1.019685
 20
0.406685
  0
SEQEND
  8
0
  0
POLYLINE
  8
PLAN_1
  6
CONTINUOUS
 66
     1
 40
0.007142
 41
0.007142
  0
VERTEX
  8
PLAN_1
  6
CONTINUOUS
 10
-1.023020
 20
0.368102
  0
VERTEX
  8
PLAN_1
  6
CONTINUOUS
 10
-1.295476
 20
0.415256
  0
SEQEND
  8
0
  0
POLYLINE
  8
PLAN_1
  6
CONTINUOUS
 66
     1
 40
0.007142
 41
0.007142
  0
VERTEX
  8
PLAN_1
  6
CONTINUOUS
 10
-1.229268
 20
0.272362
  0
VERTEX
  8
PLAN_1
  6
CONTINUOUS
 10
-1.128764
 20
0.254260
  0
SEQEND
  8
0
  0
POLYLINE
  8
PLAN_1
  6
CONTINUOUS
 66
     1
 40
0.007142
 41
0.007142
  0
VERTEX
  8
PLAN_1
  6
CONTINUOUS
 10
-0.953476
 20
0.223299
  0
VERTEX
  8
PLAN_1
  6
CONTINUOUS
 10
-0.922516
 20
0.218059
  0
VERTEX
  8
PLAN_1
  6
CONTINUOUS
 10
-0.910606
 20
0.215677
  0
SEQEND
  8
0
  0
POLYLINE
  8
PLAN_1
  6
CONTINUOUS
 66
     1
 40
0.007142
 41
0.007142
  0
VERTEX
  8
PLAN_1
  6
CONTINUOUS
 10
-0.910606
 20
0.215677
  0
VERTEX
  8
PLAN_1
  6
CONTINUOUS
 10
-0.906795
 20
0.214724
  0
VERTEX
  8
PLAN_1
  6
CONTINUOUS
 10
-0.902984
 20
0.212819
  0
VERTEX
  8
PLAN_1
  6
CONTINUOUS
 10
-0.900126
 20
0.210441
  0
VERTEX
  8
PLAN_1
  6
CONTINUOUS
 10
-0.897748
 20
0.207583
  0
VERTEX
  8
PLAN_1
  6
CONTINUOUS
 10
-0.895843
 20
0.204248
  0
VERTEX
  8
PLAN_1
  6
CONTINUOUS
 10
-0.894890
 20
0.200913
  0
VERTEX
  8
PLAN_1
  6
CONTINUOUS
 10
-0.894413
 20
0.197102
  0
VERTEX
  8
PLAN_1
  6
CONTINUOUS
 10
-0.894413
 20
0.192815
  0
VERTEX
  8
PLAN_1
  6
CONTINUOUS
 10
-0.895366
 20
0.189004
  0
VERTEX
  8
PLAN_1
  6
CONTINUOUS
 10
-0.897272
 20
0.185669
  0
VERTEX
  8
PLAN_1
  6
CONTINUOUS
 10
-0.899650
 20
0.182811
  0
VERTEX
  8
PLAN_1
  6
CONTINUOUS
 10
-0.902508
 20
0.180429
  0
VERTEX
  8
PLAN_1
  6
CONTINUOUS
 10
-0.905843
 20
0.178524
  0
VERTEX
  8
PLAN_1
  6
CONTINUOUS
 10
-0.909654
 20
0.177098
  0
VERTEX
  8
PLAN_1
  6
CONTINUOUS
 10
-0.913465
 20
0.176622
  0
VERTEX
  8
PLAN_1
  6
CONTINUOUS
 10
-0.917276
 20
0.177098
  0
SEQEND
  8
0
  0
POLYLINE
  8
PLAN_1
  6
CONTINUOUS
 66
     1
 40
0.007142
 41
0.007142
  0
VERTEX
  8
PLAN_1
  6
CONTINUOUS
 10
-1.363110
 20
0.255689
  0
VERTEX
  8
PLAN_1
  6
CONTINUOUS
 10
-1.392169
 20
0.260929
  0
VERTEX
  8
PLAN_1
  6
CONTINUOUS
 10
-1.400264
 20
0.262358
  0
SEQEND
  8
0
  0
POLYLINE
  8
PLAN_1
  6
CONTINUOUS
 66
     1
 40
0.007142
 41
0.007142
  0
VERTEX
  8
PLAN_1
  6
CONTINUOUS
 10
-1.400264
 20
0.262358
  0
VERTEX
  8
PLAN_1
  6
CONTINUOUS
 10
-1.404075
 20
0.263311
  0
VERTEX
  8
PLAN_1
  6
CONTINUOUS
 10
-1.407409
 20
0.265217
  0
VERTEX
  8
PLAN_1
  6
CONTINUOUS
 10
-1.410268
 20
0.267598
  0
VERTEX
  8
PLAN_1
  6
CONTINUOUS
 10
-1.413126
 20
0.270457
  0
VERTEX
  8
PLAN_1
  6
CONTINUOUS
 10
-1.415031
 20
0.273791
  0
VERTEX
  8
PLAN_1
  6
CONTINUOUS
 10
-1.415984
 20
0.277598
  0
VERTEX
  8
PLAN_1
  6
CONTINUOUS
 10
-1.416461
 20
0.281409
  0
VERTEX
  8
PLAN_1
  6
CONTINUOUS
 10
-1.415984
 20
0.285220
  0
VERTEX
  8
PLAN_1
  6
CONTINUOUS
 10
-1.415031
 20
0.289031
  0
VERTEX
  8
PLAN_1
  6
CONTINUOUS
 10
-1.413126
 20
0.292366
  0
VERTEX
  8
PLAN_1
  6
CONTINUOUS
 10
-1.410744
 20
0.295701
  0
VERTEX
  8
PLAN_1
  6
CONTINUOUS
 10
-1.407886
 20
0.298083
  0
VERTEX
  8
PLAN_1
  6
CONTINUOUS
 10
-1.405028
 20
0.299988
  0
VERTEX
  8
PLAN_1
  6
CONTINUOUS
 10
-1.401217
 20
0.300941
  0
VERTEX
  8
PLAN_1
  6
CONTINUOUS
 10
-1.397406
 20
0.301417
  0
VERTEX
  8
PLAN_1
  6
CONTINUOUS
 10
-1.393598
 20
0.301417
  0
SEQEND
  8
0
  0
POLYLINE
  8
PLAN_1
  6
CONTINUOUS
 66
     1
 40
0.007142
 41
0.007142
  0
VERTEX
  8
PLAN_1
  6
CONTINUOUS
 10
-1.393598
 20
0.301417
  0
VERTEX
  8
PLAN_1
  6
CONTINUOUS
 10
-1.385500
 20
0.299988
  0
SEQEND
  8
0
  0
POLYLINE
  8
PLAN_1
  6
CONTINUOUS
 66
     1
 40
0.007142
 41
0.007142
  0
VERTEX
  8
PLAN_1
  6
CONTINUOUS
 10
-1.293571
 20
0.451933
  0
VERTEX
  8
PLAN_1
  6
CONTINUOUS
 10
-1.044929
 20
0.495756
  0
VERTEX
  8
PLAN_1
  6
CONTINUOUS
 10
-1.270705
 20
0.496232
  0
VERTEX
  8
PLAN_1
  6
CONTINUOUS
 10
-1.295476
 20
0.491469
  0
SEQEND
  8
0
  0
POLYLINE
  8
PLAN_1
  6
CONTINUOUS
 66
     1
 40
0.007142
 41
0.007142
  0
VERTEX
  8
PLAN_1
  6
CONTINUOUS
 10
-1.248319
 20
0.288555
  0
VERTEX
  8
PLAN_1
  6
CONTINUOUS
 10
-1.033496
 20
0.326661
  0
SEQEND
  8
0
  0
POLYLINE
  8
PLAN_1
  6
CONTINUOUS
 66
     1
 40
0.007142
 41
0.007142
  0
VERTEX
  8
PLAN_1
  6
CONTINUOUS
 10
-1.023020
 20
0.368102
  0
VERTEX
  8
PLAN_1
  6
CONTINUOUS
 10
-1.277850
 20
0.323327
  0
SEQEND
  8
0
  0
POLYLINE
  8
PLAN_1
  6
CONTINUOUS
 66
     1
 40
0.007142
 41
0.007142
  0
VERTEX
  8
PLAN_1
  6
CONTINUOUS
 10
-0.983008
 20
0.164236
  0
VERTEX
  8
PLAN_1
  6
CONTINUOUS
 10
-0.922516
 20
0.174717
  0
VERTEX
  8
PLAN_1
  6
CONTINUOUS
 10
-0.910606
 20
0.177098
  0
SEQEND
  8
0
  0
POLYLINE
  8
PLAN_1
  6
CONTINUOUS
 66
     1
 40
0.007142
 41
0.007142
  0
VERTEX
  8
PLAN_1
  6
CONTINUOUS
 10
-0.910606
 20
0.177098
  0
VERTEX
  8
PLAN_1
  6
CONTINUOUS
 10
-0.906795
 20
0.178047
  0
VERTEX
  8
PLAN_1
  6
CONTINUOUS
 10
-0.903461
 20
0.179953
  0
VERTEX
  8
PLAN_1
  6
CONTINUOUS
 10
-0.900126
 20
0.182335
  0
VERTEX
  8
PLAN_1
  6
CONTINUOUS
 10
-0.897748
 20
0.185193
  0
VERTEX
  8
PLAN_1
  6
CONTINUOUS
 10
-0.895843
 20
0.188528
  0
VERTEX
  8
PLAN_1
  6
CONTINUOUS
 10
-0.894890
 20
0.191862
  0
VERTEX
  8
PLAN_1
  6
CONTINUOUS
 10
-0.894413
 20
0.195673
  0
VERTEX
  8
PLAN_1
  6
CONTINUOUS
 10
-0.894413
 20
0.199961
  0
VERTEX
  8
PLAN_1
  6
CONTINUOUS
 10
-0.895843
 20
0.203772
  0
VERTEX
  8
PLAN_1
  6
CONTINUOUS
 10
-0.897272
 20
0.207106
  0
VERTEX
  8
PLAN_1
  6
CONTINUOUS
 10
-0.899650
 20
0.209965
  0
VERTEX
  8
PLAN_1
  6
CONTINUOUS
 10
-0.902508
 20
0.212343
  0
VERTEX
  8
PLAN_1
  6
CONTINUOUS
 10
-0.905843
 20
0.214248
  0
VERTEX
  8
PLAN_1
  6
CONTINUOUS
 10
-0.909654
 20
0.215677
  0
VERTEX
  8
PLAN_1
  6
CONTINUOUS
 10
-0.913465
 20
0.216154
  0
VERTEX
  8
PLAN_1
  6
CONTINUOUS
 10
-0.917276
 20
0.215677
  0
SEQEND
  8
0
  0
POLYLINE
  8
PLAN_1
  6
CONTINUOUS
 66
     1
 40
0.007142
 41
0.007142
  0
VERTEX
  8
PLAN_1
  6
CONTINUOUS
 10
-0.917276
 20
0.215677
  0
VERTEX
  8
PLAN_1
  6
CONTINUOUS
 10
-0.929661
 20
0.213772
  0
VERTEX
  8
PLAN_1
  6
CONTINUOUS
 10
-0.960146
 20
0.208059
  0
SEQEND
  8
0
  0
POLYLINE
  8
PLAN_1
  6
CONTINUOUS
 66
     1
 40
0.007142
 41
0.007142
  0
VERTEX
  8
PLAN_1
  6
CONTINUOUS
 10
-1.310717
 20
0.130894
  0
VERTEX
  8
PLAN_1
  6
CONTINUOUS
 10
-1.388835
 20
0.130894
  0
VERTEX
  8
PLAN_1
  6
CONTINUOUS
 10
-1.396453
 20
0.130894
  0
SEQEND
  8
0
  0
POLYLINE
  8
PLAN_1
  6
CONTINUOUS
 66
     1
 40
0.007142
 41
0.007142
  0
VERTEX
  8
PLAN_1
  6
CONTINUOUS
 10
-1.396453
 20
0.130894
  0
VERTEX
  8
PLAN_1
  6
CONTINUOUS
 10
-1.400740
 20
0.130417
  0
VERTEX
  8
PLAN_1
  6
CONTINUOUS
 10
-1.404551
 20
0.129465
  0
VERTEX
  8
PLAN_1
  6
CONTINUOUS
 10
-1.407886
 20
0.127559
  0
VERTEX
  8
PLAN_1
  6
CONTINUOUS
 10
-1.410744
 20
0.125177
  0
VERTEX
  8
PLAN_1
  6
CONTINUOUS
 10
-1.413126
 20
0.122319
  0
VERTEX
  8
PLAN_1
  6
CONTINUOUS
 10
-1.415031
 20
0.118508
  0
VERTEX
  8
PLAN_1
  6
CONTINUOUS
 10
-1.415984
 20
0.115173
  0
VERTEX
  8
PLAN_1
  6
CONTINUOUS
 10
-1.416461
 20
0.110890
  0
VERTEX
  8
PLAN_1
  6
CONTINUOUS
 10
-1.415984
 20
0.107079
  0
VERTEX
  8
PLAN_1
  6
CONTINUOUS
 10
-1.415031
 20
0.103268
  0
VERTEX
  8
PLAN_1
  6
CONTINUOUS
 10
-1.413126
 20
0.099933
  0
VERTEX
  8
PLAN_1
  6
CONTINUOUS
 10
-1.410744
 20
0.097075
  0
VERTEX
  8
PLAN_1
  6
CONTINUOUS
 10
-1.407886
 20
0.094693
  0
VERTEX
  8
PLAN_1
  6
CONTINUOUS
 10
-1.404551
 20
0.092787
  0
VERTEX
  8
PLAN_1
  6
CONTINUOUS
 10
-1.400740
 20
0.091835
  0
VERTEX
  8
PLAN_1
  6
CONTINUOUS
 10
-1.396453
 20
0.091358
  0
SEQEND
  8
0
  0
POLYLINE
  8
PLAN_1
  6
CONTINUOUS
 66
     1
 40
0.007142
 41
0.007142
  0
VERTEX
  8
PLAN_1
  6
CONTINUOUS
 10
-1.396453
 20
0.091358
  0
VERTEX
  8
PLAN_1
  6
CONTINUOUS
 10
-1.388835
 20
0.091358
  0
VERTEX
  8
PLAN_1
  6
CONTINUOUS
 10
-1.291665
 20
0.091358
  0
SEQEND
  8
0
  0
POLYLINE
  8
PLAN_1
  6
CONTINUOUS
 66
     1
 40
0.007142
 41
0.007142
  0
VERTEX
  8
PLAN_1
  6
CONTINUOUS
 10
-1.013969
 20
0.091358
  0
VERTEX
  8
PLAN_1
  6
CONTINUOUS
 10
-0.918705
 20
0.091835
  0
VERTEX
  8
PLAN_1
  6
CONTINUOUS
 10
-0.906319
 20
0.091835
  0
SEQEND
  8
0
  0
POLYLINE
  8
PLAN_1
  6
CONTINUOUS
 66
     1
 40
0.007142
 41
0.007142
  0
VERTEX
  8
PLAN_1
  6
CONTINUOUS
 10
-0.906319
 20
0.091835
  0
VERTEX
  8
PLAN_1
  6
CONTINUOUS
 10
-0.902508
 20
0.091835
  0
VERTEX
  8
PLAN_1
  6
CONTINUOUS
 10
-0.898697
 20
0.093264
  0
VERTEX
  8
PLAN_1
  6
CONTINUOUS
 10
-0.895366
 20
0.095169
  0
VERTEX
  8
PLAN_1
  6
CONTINUOUS
 10
-0.892508
 20
0.097551
  0
VERTEX
  8
PLAN_1
  6
CONTINUOUS
 10
-0.890126
 20
0.100409
  0
VERTEX
  8
PLAN_1
  6
CONTINUOUS
 10
-0.888220
 20
0.103744
  0
VERTEX
  8
PLAN_1
  6
CONTINUOUS
 10
-0.886791
 20
0.107555
  0
VERTEX
  8
PLAN_1
  6
CONTINUOUS
 10
-0.886791
 20
0.111366
  0
VERTEX
  8
PLAN_1
  6
CONTINUOUS
 10
-0.886791
 20
0.115173
  0
VERTEX
  8
PLAN_1
  6
CONTINUOUS
 10
-0.888220
 20
0.118984
  0
VERTEX
  8
PLAN_1
  6
CONTINUOUS
 10
-0.890126
 20
0.122319
  0
VERTEX
  8
PLAN_1
  6
CONTINUOUS
 10
-0.892508
 20
0.125177
  0
VERTEX
  8
PLAN_1
  6
CONTINUOUS
 10
-0.895366
 20
0.127559
  0
VERTEX
  8
PLAN_1
  6
CONTINUOUS
 10
-0.898697
 20
0.129465
  0
VERTEX
  8
PLAN_1
  6
CONTINUOUS
 10
-0.902508
 20
0.130417
  0
VERTEX
  8
PLAN_1
  6
CONTINUOUS
 10
-0.906319
 20
0.130894
  0
SEQEND
  8
0
  0
POLYLINE
  8
PLAN_1
  6
CONTINUOUS
 66
     1
 40
0.007142
 41
0.007142
  0
VERTEX
  8
PLAN_1
  6
CONTINUOUS
 10
-0.906319
 20
0.130894
  0
VERTEX
  8
PLAN_1
  6
CONTINUOUS
 10
-0.918705
 20
0.130894
  0
VERTEX
  8
PLAN_1
  6
CONTINUOUS
 10
-0.996823
 20
0.130894
  0
SEQEND
  8
0
  0
POLYLINE
  8
PLAN_1
  6
CONTINUOUS
 66
     1
 40
0.008094
 41
0.008094
  0
VERTEX
  8
PLAN_1
  6
CONTINUOUS
 10
-1.543638
 20
0.810602
  0
VERTEX
  8
PLAN_1
  6
CONTINUOUS
 10
-1.543638
 20
0.495756
  0
VERTEX
  8
PLAN_1
  6
CONTINUOUS
 10
-1.502197
 20
0.495756
  0
VERTEX
  8
PLAN_1
  6
CONTINUOUS
 10
-1.502197
 20
0.452409
  0
VERTEX
  8
PLAN_1
  6
CONTINUOUS
 10
-1.464091
 20
0.452409
  0
VERTEX
  8
PLAN_1
  6
CONTINUOUS
 10
-1.464091
 20
0.495756
  0
VERTEX
  8
PLAN_1
  6
CONTINUOUS
 10
-1.420272
 20
0.495756
  0
SEQEND
  8
0
  0
POLYLINE
  8
PLAN_1
  6
CONTINUOUS
 66
     1
 40
0.008094
 41
0.008094
  0
VERTEX
  8
PLAN_1
  6
CONTINUOUS
 10
-1.293571
 20
0.495756
  0
VERTEX
  8
PLAN_1
  6
CONTINUOUS
 10
-1.018256
 20
0.495756
  0
SEQEND
  8
0
  0
POLYLINE
  8
PLAN_1
  6
CONTINUOUS
 66
     1
 40
0.008094
 41
0.008094
  0
VERTEX
  8
PLAN_1
  6
CONTINUOUS
 10
-0.882980
 20
0.495756
  0
VERTEX
  8
PLAN_1
  6
CONTINUOUS
 10
-0.853925
 20
0.495756
  0
VERTEX
  8
PLAN_1
  6
CONTINUOUS
 10
-0.853925
 20
0.452409
  0
VERTEX
  8
PLAN_1
  6
CONTINUOUS
 10
-0.815819
 20
0.452409
  0
VERTEX
  8
PLAN_1
  6
CONTINUOUS
 10
-0.815819
 20
0.495756
  0
VERTEX
  8
PLAN_1
  6
CONTINUOUS
 10
-0.756756
 20
0.495756
  0
VERTEX
  8
PLAN_1
  6
CONTINUOUS
 10
-0.756756
 20
0.810602
  0
SEQEND
  8
0
  0
POLYLINE
  8
PLAN_1
 62
     2
  6
CONTINUOUS
 66
     1
 40
0.004283
 41
0.004283
  0
VERTEX
  8
PLAN_1
 62
     2
  6
CONTINUOUS
 10
0.199697
 20
0.689142
  0
VERTEX
  8
PLAN_1
 62
     2
  6
CONTINUOUS
 10
0.199697
 20
3.639476
  0
SEQEND
  8
0
  0
SOLID
  8
PLAN_1
 62
     2
 10
0.199697
 20
3.669008
 11
0.183980
 21
3.609945
 12
0.199697
 22
3.669008
 13
0.215417
 23
3.609945
  0
POLYLINE
  8
PLAN_1
 62
     2
  6
CONTINUOUS
 66
     1
 40
0.003000
 41
0.003000
  0
VERTEX
  8
PLAN_1
 62
     2
  6
CONTINUOUS
 10
0.199697
 20
3.669008
  0
VERTEX
  8
PLAN_1
 62
     2
  6
CONTINUOUS
 10
0.183980
 20
3.609945
  0
VERTEX
  8
PLAN_1
 62
     2
  6
CONTINUOUS
 10
0.215417
 20
3.609945
  0
VERTEX
  8
PLAN_1
 62
     2
  6
CONTINUOUS
 10
0.199697
 20
3.669008
  0
SEQEND
  8
0
  0
SOLID
  8
PLAN_1
 62
     2
 10
0.199697
 20
0.659610
 11
0.183980
 21
0.718673
 12
0.199697
 22
0.659610
 13
0.215417
 23
0.718673
  0
POLYLINE
  8
PLAN_1
 62
     2
  6
CONTINUOUS
 66
     1
 40
0.003000
 41
0.003000
  0
VERTEX
  8
PLAN_1
 62
     2
  6
CONTINUOUS
 10
0.199697
 20
0.659610
  0
VERTEX
  8
PLAN_1
 62
     2
  6
CONTINUOUS
 10
0.183980
 20
0.718673
  0
VERTEX
  8
PLAN_1
 62
     2
  6
CONTINUOUS
 10
0.215417
 20
0.718673
  0
VERTEX
  8
PLAN_1
 62
     2
  6
CONTINUOUS
 10
0.199697
 20
0.659610
  0
SEQEND
  8
0
  0
POLYLINE
  8
PLAN_1
 62
     2
  6
CONTINUOUS
 66
     1
 40
0.003000
 41
0.003000
  0
VERTEX
  8
PLAN_1
 62
     2
  6
CONTINUOUS
 10
0.133488
 20
1.948059
  0
VERTEX
  8
PLAN_1
 62
     2
  6
CONTINUOUS
 10
0.132535
 20
1.949488
  0
VERTEX
  8
PLAN_1
 62
     2
  6
CONTINUOUS
 10
0.131583
 20
1.950441
  0
VERTEX
  8
PLAN_1
 62
     2
  6
CONTINUOUS
 10
0.130630
 20
1.952346
  0
VERTEX
  8
PLAN_1
 62
     2
  6
CONTINUOUS
 10
0.130157
 20
1.953776
  0
VERTEX
  8
PLAN_1
 62
     2
  6
CONTINUOUS
 10
0.129681
 20
1.955681
  0
VERTEX
  8
PLAN_1
 62
     2
  6
CONTINUOUS
 10
0.129205
 20
1.957587
  0
VERTEX
  8
PLAN_1
 62
     2
  6
CONTINUOUS
 10
0.128728
 20
1.959969
  0
VERTEX
  8
PLAN_1
 62
     2
  6
CONTINUOUS
 10
0.128728
 20
1.962350
  0
VERTEX
  8
PLAN_1
 62
     2
  6
CONTINUOUS
 10
0.129205
 20
1.966638
  0
VERTEX
  8
PLAN_1
 62
     2
  6
CONTINUOUS
 10
0.130157
 20
1.970921
  0
VERTEX
  8
PLAN_1
 62
     2
  6
CONTINUOUS
 10
0.132059
 20
1.975209
  0
VERTEX
  8
PLAN_1
 62
     2
  6
CONTINUOUS
 10
0.134917
 20
1.978543
  0
VERTEX
  8
PLAN_1
 62
     2
  6
CONTINUOUS
 10
0.136346
 20
1.980449
  0
VERTEX
  8
PLAN_1
 62
     2
  6
CONTINUOUS
 10
0.138252
 20
1.981878
  0
VERTEX
  8
PLAN_1
 62
     2
  6
CONTINUOUS
 10
0.140157
 20
1.982831
  0
VERTEX
  8
PLAN_1
 62
     2
  6
CONTINUOUS
 10
0.142063
 20
1.984260
  0
VERTEX
  8
PLAN_1
 62
     2
  6
CONTINUOUS
 10
0.144445
 20
1.985213
  0
VERTEX
  8
PLAN_1
 62
     2
  6
CONTINUOUS
 10
0.146827
 20
1.985689
  0
VERTEX
  8
PLAN_1
 62
     2
  6
CONTINUOUS
 10
0.149209
 20
1.986165
  0
VERTEX
  8
PLAN_1
 62
     2
  6
CONTINUOUS
 10
0.152067
 20
1.986165
  0
VERTEX
  8
PLAN_1
 62
     2
  6
CONTINUOUS
 10
0.155402
 20
1.986165
  0
VERTEX
  8
PLAN_1
 62
     2
  6
CONTINUOUS
 10
0.159689
 20
1.985213
  0
VERTEX
  8
PLAN_1
 62
     2
  6
CONTINUOUS
 10
0.163972
 20
1.983783
  0
VERTEX
  8
PLAN_1
 62
     2
  6
CONTINUOUS
 10
0.168260
 20
1.981402
  0
VERTEX
  8
PLAN_1
 62
     2
  6
CONTINUOUS
 10
0.170165
 20
1.979972
  0
VERTEX
  8
PLAN_1
 62
     2
  6
CONTINUOUS
 10
0.172071
 20
1.978067
  0
VERTEX
  8
PLAN_1
 62
     2
  6
CONTINUOUS
 10
0.173500
 20
1.976161
  0
VERTEX
  8
PLAN_1
 62
     2
  6
CONTINUOUS
 10
0.174929
 20
1.973303
  0
VERTEX
  8
PLAN_1
 62
     2
  6
CONTINUOUS
 10
0.176358
 20
1.970445
  0
VERTEX
  8
PLAN_1
 62
     2
  6
CONTINUOUS
 10
0.177311
 20
1.967591
  0
VERTEX
  8
PLAN_1
 62
     2
  6
CONTINUOUS
 10
0.177787
 20
1.963780
  0
VERTEX
  8
PLAN_1
 62
     2
  6
CONTINUOUS
 10
0.177787
 20
1.959492
  0
VERTEX
  8
PLAN_1
 62
     2
  6
CONTINUOUS
 10
0.177787
 20
1.956157
  0
VERTEX
  8
PLAN_1
 62
     2
  6
CONTINUOUS
 10
0.176835
 20
1.952346
  0
VERTEX
  8
PLAN_1
 62
     2
  6
CONTINUOUS
 10
0.175882
 20
1.948535
  0
VERTEX
  8
PLAN_1
 62
     2
  6
CONTINUOUS
 10
0.173976
 20
1.945201
  0
VERTEX
  8
PLAN_1
 62
     2
  6
CONTINUOUS
 10
0.172547
 20
1.943295
  0
VERTEX
  8
PLAN_1
 62
     2
  6
CONTINUOUS
 10
0.171118
 20
1.941866
  0
VERTEX
  8
PLAN_1
 62
     2
  6
CONTINUOUS
 10
0.169689
 20
1.940437
  0
VERTEX
  8
PLAN_1
 62
     2
  6
CONTINUOUS
 10
0.167783
 20
1.939008
  0
VERTEX
  8
PLAN_1
 62
     2
  6
CONTINUOUS
 10
0.165402
 20
1.938055
  0
VERTEX
  8
PLAN_1
 62
     2
  6
CONTINUOUS
 10
0.163024
 20
1.937102
  0
VERTEX
  8
PLAN_1
 62
     2
  6
CONTINUOUS
 10
0.160642
 20
1.936626
  0
VERTEX
  8
PLAN_1
 62
     2
  6
CONTINUOUS
 10
0.157783
 20
1.936150
  0
VERTEX
  8
PLAN_1
 62
     2
  6
CONTINUOUS
 10
0.157783
 20
1.945677
  0
VERTEX
  8
PLAN_1
 62
     2
  6
CONTINUOUS
 10
0.160642
 20
1.946154
  0
VERTEX
  8
PLAN_1
 62
     2
  6
CONTINUOUS
 10
0.163024
 20
1.947106
  0
VERTEX
  8
PLAN_1
 62
     2
  6
CONTINUOUS
 10
0.165402
 20
1.948535
  0
VERTEX
  8
PLAN_1
 62
     2
  6
CONTINUOUS
 10
0.166831
 20
1.950441
  0
VERTEX
  8
PLAN_1
 62
     2
  6
CONTINUOUS
 10
0.168260
 20
1.952823
  0
VERTEX
  8
PLAN_1
 62
     2
  6
CONTINUOUS
 10
0.169213
 20
1.955205
  0
VERTEX
  8
PLAN_1
 62
     2
  6
CONTINUOUS
 10
0.169689
 20
1.958063
  0
VERTEX
  8
PLAN_1
 62
     2
  6
CONTINUOUS
 10
0.170165
 20
1.960921
  0
VERTEX
  8
PLAN_1
 62
     2
  6
CONTINUOUS
 10
0.169689
 20
1.964256
  0
VERTEX
  8
PLAN_1
 62
     2
  6
CONTINUOUS
 10
0.168736
 20
1.967591
  0
VERTEX
  8
PLAN_1
 62
     2
  6
CONTINUOUS
 10
0.167307
 20
1.969969
  0
VERTEX
  8
PLAN_1
 62
     2
  6
CONTINUOUS
 10
0.164925
 20
1.972350
  0
VERTEX
  8
PLAN_1
 62
     2
  6
CONTINUOUS
 10
0.162547
 20
1.974256
  0
VERTEX
  8
PLAN_1
 62
     2
  6
CONTINUOUS
 10
0.159689
 20
1.975209
  0
VERTEX
  8
PLAN_1
 62
     2
  6
CONTINUOUS
 10
0.156354
 20
1.976161
  0
VERTEX
  8
PLAN_1
 62
     2
  6
CONTINUOUS
 10
0.153020
 20
1.976638
  0
VERTEX
  8
PLAN_1
 62
     2
  6
CONTINUOUS
 10
0.149685
 20
1.976161
  0
VERTEX
  8
PLAN_1
 62
     2
  6
CONTINUOUS
 10
0.146350
 20
1.975209
  0
VERTEX
  8
PLAN_1
 62
     2
  6
CONTINUOUS
 10
0.143492
 20
1.973780
  0
VERTEX
  8
PLAN_1
 62
     2
  6
CONTINUOUS
 10
0.141110
 20
1.971874
  0
VERTEX
  8
PLAN_1
 62
     2
  6
CONTINUOUS
 10
0.139205
 20
1.969492
  0
VERTEX
  8
PLAN_1
 62
     2
  6
CONTINUOUS
 10
0.138252
 20
1.966638
  0
VERTEX
  8
PLAN_1
 62
     2
  6
CONTINUOUS
 10
0.137299
 20
1.963303
  0
VERTEX
  8
PLAN_1
 62
     2
  6
CONTINUOUS
 10
0.136823
 20
1.960445
  0
VERTEX
  8
PLAN_1
 62
     2
  6
CONTINUOUS
 10
0.137299
 20
1.958063
  0
VERTEX
  8
PLAN_1
 62
     2
  6
CONTINUOUS
 10
0.137299
 20
1.956157
  0
VERTEX
  8
PLAN_1
 62
     2
  6
CONTINUOUS
 10
0.137776
 20
1.954728
  0
VERTEX
  8
PLAN_1
 62
     2
  6
CONTINUOUS
 10
0.138728
 20
1.952823
  0
VERTEX
  8
PLAN_1
 62
     2
  6
CONTINUOUS
 10
0.139681
 20
1.950917
  0
VERTEX
  8
PLAN_1
 62
     2
  6
CONTINUOUS
 10
0.141110
 20
1.949488
  0
VERTEX
  8
PLAN_1
 62
     2
  6
CONTINUOUS
 10
0.142539
 20
1.948059
  0
VERTEX
  8
PLAN_1
 62
     2
  6
CONTINUOUS
 10
0.143969
 20
1.946630
  0
VERTEX
  8
PLAN_1
 62
     2
  6
CONTINUOUS
 10
0.143492
 20
1.939008
  0
VERTEX
  8
PLAN_1
 62
     2
  6
CONTINUOUS
 10
0.104433
 20
1.944248
  0
VERTEX
  8
PLAN_1
 62
     2
  6
CONTINUOUS
 10
0.104433
 20
1.982354
  0
VERTEX
  8
PLAN_1
 62
     2
  6
CONTINUOUS
 10
0.113484
 20
1.982354
  0
VERTEX
  8
PLAN_1
 62
     2
  6
CONTINUOUS
 10
0.113484
 20
1.951394
  0
VERTEX
  8
PLAN_1
 62
     2
  6
CONTINUOUS
 10
0.133488
 20
1.948059
  0
SEQEND
  8
0
  0
POLYLINE
  8
PLAN_1
 62
     2
  6
CONTINUOUS
 66
     1
 40
0.003000
 41
0.003000
  0
VERTEX
  8
PLAN_1
 62
     2
  6
CONTINUOUS
 10
0.177787
 20
2.019508
  0
VERTEX
  8
PLAN_1
 62
     2
  6
CONTINUOUS
 10
0.177787
 20
2.015697
  0
VERTEX
  8
PLAN_1
 62
     2
  6
CONTINUOUS
 10
0.176835
 20
2.012362
  0
VERTEX
  8
PLAN_1
 62
     2
  6
CONTINUOUS
 10
0.175882
 20
2.009504
  0
VERTEX
  8
PLAN_1
 62
     2
  6
CONTINUOUS
 10
0.173976
 20
2.006646
  0
VERTEX
  8
PLAN_1
 62
     2
  6
CONTINUOUS
 10
0.172071
 20
2.004264
  0
VERTEX
  8
PLAN_1
 62
     2
  6
CONTINUOUS
 10
0.170165
 20
2.002358
  0
VERTEX
  8
PLAN_1
 62
     2
  6
CONTINUOUS
 10
0.167307
 20
2.000457
  0
VERTEX
  8
PLAN_1
 62
     2
  6
CONTINUOUS
 10
0.164925
 20
1.999028
  0
VERTEX
  8
PLAN_1
 62
     2
  6
CONTINUOUS
 10
0.158736
 20
1.997122
  0
VERTEX
  8
PLAN_1
 62
     2
  6
CONTINUOUS
 10
0.152543
 20
1.995693
  0
VERTEX
  8
PLAN_1
 62
     2
  6
CONTINUOUS
 10
0.146350
 20
1.994740
  0
VERTEX
  8
PLAN_1
 62
     2
  6
CONTINUOUS
 10
0.140157
 20
1.994740
  0
VERTEX
  8
PLAN_1
 62
     2
  6
CONTINUOUS
 10
0.134441
 20
1.994740
  0
VERTEX
  8
PLAN_1
 62
     2
  6
CONTINUOUS
 10
0.128252
 20
1.995693
  0
VERTEX
  8
PLAN_1
 62
     2
  6
CONTINUOUS
 10
0.121583
 20
1.997122
  0
VERTEX
  8
PLAN_1
 62
     2
  6
CONTINUOUS
 10
0.115866
 20
1.999028
  0
VERTEX
  8
PLAN_1
 62
     2
  6
CONTINUOUS
 10
0.113008
 20
2.000457
  0
VERTEX
  8
PLAN_1
 62
     2
  6
CONTINUOUS
 10
0.110626
 20
2.002358
  0
VERTEX
  8
PLAN_1
 62
     2
  6
CONTINUOUS
 10
0.108244
 20
2.004264
  0
VERTEX
  8
PLAN_1
 62
     2
  6
CONTINUOUS
 10
0.106339
 20
2.006646
  0
VERTEX
  8
PLAN_1
 62
     2
  6
CONTINUOUS
 10
0.104909
 20
2.009504
  0
VERTEX
  8
PLAN_1
 62
     2
  6
CONTINUOUS
 10
0.103957
 20
2.012362
  0
VERTEX
  8
PLAN_1
 62
     2
  6
CONTINUOUS
 10
0.103004
 20
2.015697
  0
VERTEX
  8
PLAN_1
 62
     2
  6
CONTINUOUS
 10
0.102528
 20
2.019508
  0
VERTEX
  8
PLAN_1
 62
     2
  6
CONTINUOUS
 10
0.103004
 20
2.023319
  0
VERTEX
  8
PLAN_1
 62
     2
  6
CONTINUOUS
 10
0.103957
 20
2.026654
  0
VERTEX
  8
PLAN_1
 62
     2
  6
CONTINUOUS
 10
0.104909
 20
2.029512
  0
VERTEX
  8
PLAN_1
 62
     2
  6
CONTINUOUS
 10
0.106339
 20
2.032370
  0
VERTEX
  8
PLAN_1
 62
     2
  6
CONTINUOUS
 10
0.108244
 20
2.034752
  0
VERTEX
  8
PLAN_1
 62
     2
  6
CONTINUOUS
 10
0.110626
 20
2.036654
  0
VERTEX
  8
PLAN_1
 62
     2
  6
CONTINUOUS
 10
0.113008
 20
2.038559
  0
VERTEX
  8
PLAN_1
 62
     2
  6
CONTINUOUS
 10
0.115866
 20
2.039988
  0
VERTEX
  8
PLAN_1
 62
     2
  6
CONTINUOUS
 10
0.121583
 20
2.042370
  0
VERTEX
  8
PLAN_1
 62
     2
  6
CONTINUOUS
 10
0.128252
 20
2.043799
  0
VERTEX
  8
PLAN_1
 62
     2
  6
CONTINUOUS
 10
0.134441
 20
2.044276
  0
VERTEX
  8
PLAN_1
 62
     2
  6
CONTINUOUS
 10
0.140157
 20
2.044752
  0
VERTEX
  8
PLAN_1
 62
     2
  6
CONTINUOUS
 10
0.146350
 20
2.044276
  0
VERTEX
  8
PLAN_1
 62
     2
  6
CONTINUOUS
 10
0.152543
 20
2.043799
  0
VERTEX
  8
PLAN_1
 62
     2
  6
CONTINUOUS
 10
0.158736
 20
2.042370
  0
VERTEX
  8
PLAN_1
 62
     2
  6
CONTINUOUS
 10
0.164925
 20
2.039988
  0
VERTEX
  8
PLAN_1
 62
     2
  6
CONTINUOUS
 10
0.167307
 20
2.038559
  0
VERTEX
  8
PLAN_1
 62
     2
  6
CONTINUOUS
 10
0.170165
 20
2.036654
  0
VERTEX
  8
PLAN_1
 62
     2
  6
CONTINUOUS
 10
0.172071
 20
2.034752
  0
VERTEX
  8
PLAN_1
 62
     2
  6
CONTINUOUS
 10
0.173976
 20
2.032370
  0
VERTEX
  8
PLAN_1
 62
     2
  6
CONTINUOUS
 10
0.175882
 20
2.029512
  0
VERTEX
  8
PLAN_1
 62
     2
  6
CONTINUOUS
 10
0.176835
 20
2.026654
  0
VERTEX
  8
PLAN_1
 62
     2
  6
CONTINUOUS
 10
0.177787
 20
2.023319
  0
VERTEX
  8
PLAN_1
 62
     2
  6
CONTINUOUS
 10
0.177787
 20
2.019508
  0
SEQEND
  8
0
  0
POLYLINE
  8
PLAN_1
 62
     2
  6
CONTINUOUS
 66
     1
 40
0.003000
 41
0.003000
  0
VERTEX
  8
PLAN_1
 62
     2
  6
CONTINUOUS
 10
0.111102
 20
2.019508
  0
VERTEX
  8
PLAN_1
 62
     2
  6
CONTINUOUS
 10
0.111102
 20
2.017602
  0
VERTEX
  8
PLAN_1
 62
     2
  6
CONTINUOUS
 10
0.111579
 20
2.015697
  0
VERTEX
  8
PLAN_1
 62
     2
  6
CONTINUOUS
 10
0.112055
 20
2.014268
  0
VERTEX
  8
PLAN_1
 62
     2
  6
CONTINUOUS
 10
0.113008
 20
2.012839
  0
VERTEX
  8
PLAN_1
 62
     2
  6
CONTINUOUS
 10
0.113961
 20
2.011409
  0
VERTEX
  8
PLAN_1
 62
     2
  6
CONTINUOUS
 10
0.115390
 20
2.009980
  0
VERTEX
  8
PLAN_1
 62
     2
  6
CONTINUOUS
 10
0.116819
 20
2.009028
  0
VERTEX
  8
PLAN_1
 62
     2
  6
CONTINUOUS
 10
0.118724
 20
2.008075
  0
VERTEX
  8
PLAN_1
 62
     2
  6
CONTINUOUS
 10
0.123012
 20
2.006169
  0
VERTEX
  8
PLAN_1
 62
     2
  6
CONTINUOUS
 10
0.127776
 20
2.005217
  0
VERTEX
  8
PLAN_1
 62
     2
  6
CONTINUOUS
 10
0.133965
 20
2.004740
  0
VERTEX
  8
PLAN_1
 62
     2
  6
CONTINUOUS
 10
0.140157
 20
2.004264
  0
VERTEX
  8
PLAN_1
 62
     2
  6
CONTINUOUS
 10
0.146827
 20
2.004740
  0
VERTEX
  8
PLAN_1
 62
     2
  6
CONTINUOUS
 10
0.152543
 20
2.005217
  0
VERTEX
  8
PLAN_1
 62
     2
  6
CONTINUOUS
 10
0.157783
 20
2.006169
  0
VERTEX
  8
PLAN_1
 62
     2
  6
CONTINUOUS
 10
0.162071
 20
2.008075
  0
VERTEX
  8
PLAN_1
 62
     2
  6
CONTINUOUS
 10
0.163496
 20
2.009028
  0
VERTEX
  8
PLAN_1
 62
     2
  6
CONTINUOUS
 10
0.165402
 20
2.009980
  0
VERTEX
  8
PLAN_1
 62
     2
  6
CONTINUOUS
 10
0.166354
 20
2.011409
  0
VERTEX
  8
PLAN_1
 62
     2
  6
CONTINUOUS
 10
0.167783
 20
2.012839
  0
VERTEX
  8
PLAN_1
 62
     2
  6
CONTINUOUS
 10
0.168736
 20
2.014268
  0
VERTEX
  8
PLAN_1
 62
     2
  6
CONTINUOUS
 10
0.169213
 20
2.015697
  0
VERTEX
  8
PLAN_1
 62
     2
  6
CONTINUOUS
 10
0.169689
 20
2.017602
  0
VERTEX
  8
PLAN_1
 62
     2
  6
CONTINUOUS
 10
0.169689
 20
2.019508
  0
VERTEX
  8
PLAN_1
 62
     2
  6
CONTINUOUS
 10
0.169689
 20
2.021413
  0
VERTEX
  8
PLAN_1
 62
     2
  6
CONTINUOUS
 10
0.169213
 20
2.023319
  0
VERTEX
  8
PLAN_1
 62
     2
  6
CONTINUOUS
 10
0.168736
 20
2.024748
  0
VERTEX
  8
PLAN_1
 62
     2
  6
CONTINUOUS
 10
0.167783
 20
2.026177
  0
VERTEX
  8
PLAN_1
 62
     2
  6
CONTINUOUS
 10
0.166354
 20
2.027606
  0
VERTEX
  8
PLAN_1
 62
     2
  6
CONTINUOUS
 10
0.165402
 20
2.029035
  0
VERTEX
  8
PLAN_1
 62
     2
  6
CONTINUOUS
 10
0.163496
 20
2.029988
  0
VERTEX
  8
PLAN_1
 62
     2
  6
CONTINUOUS
 10
0.162071
 20
2.030941
  0
VERTEX
  8
PLAN_1
 62
     2
  6
CONTINUOUS
 10
0.157783
 20
2.032846
  0
VERTEX
  8
PLAN_1
 62
     2
  6
CONTINUOUS
 10
0.152543
 20
2.033799
  0
VERTEX
  8
PLAN_1
 62
     2
  6
CONTINUOUS
 10
0.146827
 20
2.034752
  0
VERTEX
  8
PLAN_1
 62
     2
  6
CONTINUOUS
 10
0.140157
 20
2.034752
  0
VERTEX
  8
PLAN_1
 62
     2
  6
CONTINUOUS
 10
0.133965
 20
2.034752
  0
VERTEX
  8
PLAN_1
 62
     2
  6
CONTINUOUS
 10
0.127776
 20
2.033799
  0
VERTEX
  8
PLAN_1
 62
     2
  6
CONTINUOUS
 10
0.123012
 20
2.032846
  0
VERTEX
  8
PLAN_1
 62
     2
  6
CONTINUOUS
 10
0.118724
 20
2.030941
  0
VERTEX
  8
PLAN_1
 62
     2
  6
CONTINUOUS
 10
0.116819
 20
2.029988
  0
VERTEX
  8
PLAN_1
 62
     2
  6
CONTINUOUS
 10
0.115390
 20
2.029035
  0
VERTEX
  8
PLAN_1
 62
     2
  6
CONTINUOUS
 10
0.113961
 20
2.027606
  0
VERTEX
  8
PLAN_1
 62
     2
  6
CONTINUOUS
 10
0.113008
 20
2.026177
  0
VERTEX
  8
PLAN_1
 62
     2
  6
CONTINUOUS
 10
0.112055
 20
2.024748
  0
VERTEX
  8
PLAN_1
 62
     2
  6
CONTINUOUS
 10
0.111579
 20
2.023319
  0
VERTEX
  8
PLAN_1
 62
     2
  6
CONTINUOUS
 10
0.111102
 20
2.021413
  0
VERTEX
  8
PLAN_1
 62
     2
  6
CONTINUOUS
 10
0.111102
 20
2.019508
  0
SEQEND
  8
0
  0
SOLID
  8
PLAN_1
 62
     2
 10
0.175882
 20
2.068567
 11
0.175882
 21
2.057614
 12
0.164925
 22
2.068567
 13
0.164925
 23
2.057614
  0
POLYLINE
  8
PLAN_1
 62
     2
  6
CONTINUOUS
 66
     1
 40
0.003000
 41
0.003000
  0
VERTEX
  8
PLAN_1
 62
     2
  6
CONTINUOUS
 10
0.175882
 20
2.068567
  0
VERTEX
  8
PLAN_1
 62
     2
  6
CONTINUOUS
 10
0.175882
 20
2.057614
  0
VERTEX
  8
PLAN_1
 62
     2
  6
CONTINUOUS
 10
0.164925
 20
2.057614
  0
VERTEX
  8
PLAN_1
 62
     2
  6
CONTINUOUS
 10
0.164925
 20
2.068567
  0
VERTEX
  8
PLAN_1
 62
     2
  6
CONTINUOUS
 10
0.175882
 20
2.068567
  0
SEQEND
  8
0
  0
SOLID
  8
PLAN_1
 62
     2
 10
0.164925
 20
2.097150
 11
0.164925
 21
2.086669
 12
0.175882
 22
2.097150
 13
0.175882
 23
2.086669
  0
POLYLINE
  8
PLAN_1
 62
     2
  6
CONTINUOUS
 66
     1
 40
0.003000
 41
0.003000
  0
VERTEX
  8
PLAN_1
 62
     2
  6
CONTINUOUS
 10
0.164925
 20
2.097150
  0
VERTEX
  8
PLAN_1
 62
     2
  6
CONTINUOUS
 10
0.164925
 20
2.086669
  0
VERTEX
  8
PLAN_1
 62
     2
  6
CONTINUOUS
 10
0.175882
 20
2.086669
  0
VERTEX
  8
PLAN_1
 62
     2
  6
CONTINUOUS
 10
0.175882
 20
2.097150
  0
VERTEX
  8
PLAN_1
 62
     2
  6
CONTINUOUS
 10
0.164925
 20
2.097150
  0
SEQEND
  8
0
  0
SOLID
  8
PLAN_1
 62
     2
 10
0.175882
 20
2.126205
 11
0.175882
 21
2.115724
 12
0.164925
 22
2.126205
 13
0.164925
 23
2.115724
  0
POLYLINE
  8
PLAN_1
 62
     2
  6
CONTINUOUS
 66
     1
 40
0.003000
 41
0.003000
  0
VERTEX
  8
PLAN_1
 62
     2
  6
CONTINUOUS
 10
0.175882
 20
2.126205
  0
VERTEX
  8
PLAN_1
 62
     2
  6
CONTINUOUS
 10
0.175882
 20
2.115724
  0
VERTEX
  8
PLAN_1
 62
     2
  6
CONTINUOUS
 10
0.164925
 20
2.115724
  0
VERTEX
  8
PLAN_1
 62
     2
  6
CONTINUOUS
 10
0.164925
 20
2.126205
  0
VERTEX
  8
PLAN_1
 62
     2
  6
CONTINUOUS
 10
0.175882
 20
2.126205
  0
SEQEND
  8
0
  0
POLYLINE
  8
PLAN_1
 62
     2
  6
CONTINUOUS
 66
     1
 40
0.003000
 41
0.003000
  0
VERTEX
  8
PLAN_1
 62
     2
  6
CONTINUOUS
 10
0.175882
 20
2.172882
  0
VERTEX
  8
PLAN_1
 62
     2
  6
CONTINUOUS
 10
0.175882
 20
2.162882
  0
VERTEX
  8
PLAN_1
 62
     2
  6
CONTINUOUS
 10
0.123965
 20
2.162882
  0
VERTEX
  8
PLAN_1
 62
     2
  6
CONTINUOUS
 10
0.123965
 20
2.145732
  0
VERTEX
  8
PLAN_1
 62
     2
  6
CONTINUOUS
 10
0.116819
 20
2.145732
  0
VERTEX
  8
PLAN_1
 62
     2
  6
CONTINUOUS
 10
0.116343
 20
2.150020
  0
VERTEX
  8
PLAN_1
 62
     2
  6
CONTINUOUS
 10
0.115866
 20
2.153354
  0
VERTEX
  8
PLAN_1
 62
     2
  6
CONTINUOUS
 10
0.114913
 20
2.156689
  0
VERTEX
  8
PLAN_1
 62
     2
  6
CONTINUOUS
 10
0.113961
 20
2.159071
  0
VERTEX
  8
PLAN_1
 62
     2
  6
CONTINUOUS
 10
0.112055
 20
2.160976
  0
VERTEX
  8
PLAN_1
 62
     2
  6
CONTINUOUS
 10
0.109673
 20
2.162882
  0
VERTEX
  8
PLAN_1
 62
     2
  6
CONTINUOUS
 10
0.106815
 20
2.164311
  0
VERTEX
  8
PLAN_1
 62
     2
  6
CONTINUOUS
 10
0.102528
 20
2.165740
  0
VERTEX
  8
PLAN_1
 62
     2
  6
CONTINUOUS
 10
0.102528
 20
2.172882
  0
VERTEX
  8
PLAN_1
 62
     2
  6
CONTINUOUS
 10
0.175882
 20
2.172882
  0
SEQEND
  8
0
  0
POLYLINE
  8
PLAN_1
 62
     2
  6
CONTINUOUS
 66
     1
 40
0.003000
 41
0.003000
  0
VERTEX
  8
PLAN_1
 62
     2
  6
CONTINUOUS
 10
0.177787
 20
2.221945
  0
VERTEX
  8
PLAN_1
 62
     2
  6
CONTINUOUS
 10
0.177787
 20
2.218610
  0
VERTEX
  8
PLAN_1
 62
     2
  6
CONTINUOUS
 10
0.176835
 20
2.215276
  0
VERTEX
  8
PLAN_1
 62
     2
  6
CONTINUOUS
 10
0.175882
 20
2.211941
  0
VERTEX
  8
PLAN_1
 62
     2
  6
CONTINUOUS
 10
0.173976
 20
2.209559
  0
VERTEX
  8
PLAN_1
 62
     2
  6
CONTINUOUS
 10
0.172071
 20
2.207177
  0
VERTEX
  8
PLAN_1
 62
     2
  6
CONTINUOUS
 10
0.170165
 20
2.204795
  0
VERTEX
  8
PLAN_1
 62
     2
  6
CONTINUOUS
 10
0.167307
 20
2.203366
  0
VERTEX
  8
PLAN_1
 62
     2
  6
CONTINUOUS
 10
0.164925
 20
2.201937
  0
VERTEX
  8
PLAN_1
 62
     2
  6
CONTINUOUS
 10
0.158736
 20
2.199559
  0
VERTEX
  8
PLAN_1
 62
     2
  6
CONTINUOUS
 10
0.152543
 20
2.198130
  0
VERTEX
  8
PLAN_1
 62
     2
  6
CONTINUOUS
 10
0.146350
 20
2.197177
  0
VERTEX
  8
PLAN_1
 62
     2
  6
CONTINUOUS
 10
0.140157
 20
2.197177
  0
VERTEX
  8
PLAN_1
 62
     2
  6
CONTINUOUS
 10
0.134441
 20
2.197177
  0
VERTEX
  8
PLAN_1
 62
     2
  6
CONTINUOUS
 10
0.128252
 20
2.198130
  0
VERTEX
  8
PLAN_1
 62
     2
  6
CONTINUOUS
 10
0.121583
 20
2.199559
  0
VERTEX
  8
PLAN_1
 62
     2
  6
CONTINUOUS
 10
0.115866
 20
2.201937
  0
VERTEX
  8
PLAN_1
 62
     2
  6
CONTINUOUS
 10
0.113008
 20
2.203366
  0
VERTEX
  8
PLAN_1
 62
     2
  6
CONTINUOUS
 10
0.110626
 20
2.204795
  0
VERTEX
  8
PLAN_1
 62
     2
  6
CONTINUOUS
 10
0.108244
 20
2.207177
  0
VERTEX
  8
PLAN_1
 62
     2
  6
CONTINUOUS
 10
0.106339
 20
2.209559
  0
VERTEX
  8
PLAN_1
 62
     2
  6
CONTINUOUS
 10
0.104909
 20
2.211941
  0
VERTEX
  8
PLAN_1
 62
     2
  6
CONTINUOUS
 10
0.103957
 20
2.215276
  0
VERTEX
  8
PLAN_1
 62
     2
  6
CONTINUOUS
 10
0.103004
 20
2.218610
  0
VERTEX
  8
PLAN_1
 62
     2
  6
CONTINUOUS
 10
0.102528
 20
2.221945
  0
VERTEX
  8
PLAN_1
 62
     2
  6
CONTINUOUS
 10
0.103004
 20
2.225756
  0
VERTEX
  8
PLAN_1
 62
     2
  6
CONTINUOUS
 10
0.103957
 20
2.229091
  0
VERTEX
  8
PLAN_1
 62
     2
  6
CONTINUOUS
 10
0.104909
 20
2.232425
  0
VERTEX
  8
PLAN_1
 62
     2
  6
CONTINUOUS
 10
0.106339
 20
2.234803
  0
VERTEX
  8
PLAN_1
 62
     2
  6
CONTINUOUS
 10
0.108244
 20
2.237185
  0
VERTEX
  8
PLAN_1
 62
     2
  6
CONTINUOUS
 10
0.110626
 20
2.239567
  0
VERTEX
  8
PLAN_1
 62
     2
  6
CONTINUOUS
 10
0.113008
 20
2.240996
  0
VERTEX
  8
PLAN_1
 62
     2
  6
CONTINUOUS
 10
0.115866
 20
2.242425
  0
VERTEX
  8
PLAN_1
 62
     2
  6
CONTINUOUS
 10
0.121583
 20
2.244807
  0
VERTEX
  8
PLAN_1
 62
     2
  6
CONTINUOUS
 10
0.128252
 20
2.246236
  0
VERTEX
  8
PLAN_1
 62
     2
  6
CONTINUOUS
 10
0.134441
 20
2.247189
  0
VERTEX
  8
PLAN_1
 62
     2
  6
CONTINUOUS
 10
0.140157
 20
2.247189
  0
VERTEX
  8
PLAN_1
 62
     2
  6
CONTINUOUS
 10
0.146350
 20
2.247189
  0
VERTEX
  8
PLAN_1
 62
     2
  6
CONTINUOUS
 10
0.152543
 20
2.246236
  0
VERTEX
  8
PLAN_1
 62
     2
  6
CONTINUOUS
 10
0.158736
 20
2.244807
  0
VERTEX
  8
PLAN_1
 62
     2
  6
CONTINUOUS
 10
0.164925
 20
2.242425
  0
VERTEX
  8
PLAN_1
 62
     2
  6
CONTINUOUS
 10
0.167307
 20
2.240996
  0
VERTEX
  8
PLAN_1
 62
     2
  6
CONTINUOUS
 10
0.170165
 20
2.239567
  0
VERTEX
  8
PLAN_1
 62
     2
  6
CONTINUOUS
 10
0.172071
 20
2.237185
  0
VERTEX
  8
PLAN_1
 62
     2
  6
CONTINUOUS
 10
0.173976
 20
2.234803
  0
VERTEX
  8
PLAN_1
 62
     2
  6
CONTINUOUS
 10
0.175882
 20
2.232425
  0
VERTEX
  8
PLAN_1
 62
     2
  6
CONTINUOUS
 10
0.176835
 20
2.229091
  0
VERTEX
  8
PLAN_1
 62
     2
  6
CONTINUOUS
 10
0.177787
 20
2.225756
  0
VERTEX
  8
PLAN_1
 62
     2
  6
CONTINUOUS
 10
0.177787
 20
2.221945
  0
SEQEND
  8
0
  0
POLYLINE
  8
PLAN_1
 62
     2
  6
CONTINUOUS
 66
     1
 40
0.003000
 41
0.003000
  0
VERTEX
  8
PLAN_1
 62
     2
  6
CONTINUOUS
 10
0.111102
 20
2.221945
  0
VERTEX
  8
PLAN_1
 62
     2
  6
CONTINUOUS
 10
0.111102
 20
2.220039
  0
VERTEX
  8
PLAN_1
 62
     2
  6
CONTINUOUS
 10
0.111579
 20
2.218610
  0
VERTEX
  8
PLAN_1
 62
     2
  6
CONTINUOUS
 10
0.112055
 20
2.216705
  0
VERTEX
  8
PLAN_1
 62
     2
  6
CONTINUOUS
 10
0.113008
 20
2.215276
  0
VERTEX
  8
PLAN_1
 62
     2
  6
CONTINUOUS
 10
0.113961
 20
2.213846
  0
VERTEX
  8
PLAN_1
 62
     2
  6
CONTINUOUS
 10
0.115390
 20
2.212894
  0
VERTEX
  8
PLAN_1
 62
     2
  6
CONTINUOUS
 10
0.116819
 20
2.211465
  0
VERTEX
  8
PLAN_1
 62
     2
  6
CONTINUOUS
 10
0.118724
 20
2.210512
  0
VERTEX
  8
PLAN_1
 62
     2
  6
CONTINUOUS
 10
0.123012
 20
2.209083
  0
VERTEX
  8
PLAN_1
 62
     2
  6
CONTINUOUS
 10
0.127776
 20
2.207654
  0
VERTEX
  8
PLAN_1
 62
     2
  6
CONTINUOUS
 10
0.133965
 20
2.207177
  0
VERTEX
  8
PLAN_1
 62
     2
  6
CONTINUOUS
 10
0.140157
 20
2.206701
  0
VERTEX
  8
PLAN_1
 62
     2
  6
CONTINUOUS
 10
0.146827
 20
2.207177
  0
VERTEX
  8
PLAN_1
 62
     2
  6
CONTINUOUS
 10
0.152543
 20
2.207654
  0
VERTEX
  8
PLAN_1
 62
     2
  6
CONTINUOUS
 10
0.157783
 20
2.209083
  0
VERTEX
  8
PLAN_1
 62
     2
  6
CONTINUOUS
 10
0.162071
 20
2.210512
  0
VERTEX
  8
PLAN_1
 62
     2
  6
CONTINUOUS
 10
0.163496
 20
2.211465
  0
VERTEX
  8
PLAN_1
 62
     2
  6
CONTINUOUS
 10
0.165402
 20
2.212894
  0
VERTEX
  8
PLAN_1
 62
     2
  6
CONTINUOUS
 10
0.166354
 20
2.213846
  0
VERTEX
  8
PLAN_1
 62
     2
  6
CONTINUOUS
 10
0.167783
 20
2.215276
  0
VERTEX
  8
PLAN_1
 62
     2
  6
CONTINUOUS
 10
0.168736
 20
2.216705
  0
VERTEX
  8
PLAN_1
 62
     2
  6
CONTINUOUS
 10
0.169213
 20
2.218610
  0
VERTEX
  8
PLAN_1
 62
     2
  6
CONTINUOUS
 10
0.169689
 20
2.220039
  0
VERTEX
  8
PLAN_1
 62
     2
  6
CONTINUOUS
 10
0.169689
 20
2.221945
  0
VERTEX
  8
PLAN_1
 62
     2
  6
CONTINUOUS
 10
0.169689
 20
2.223850
  0
VERTEX
  8
PLAN_1
 62
     2
  6
CONTINUOUS
 10
0.169213
 20
2.225756
  0
VERTEX
  8
PLAN_1
 62
     2
  6
CONTINUOUS
 10
0.168736
 20
2.227661
  0
VERTEX
  8
PLAN_1
 62
     2
  6
CONTINUOUS
 10
0.167783
 20
2.229091
  0
VERTEX
  8
PLAN_1
 62
     2
  6
CONTINUOUS
 10
0.166354
 20
2.230520
  0
VERTEX
  8
PLAN_1
 62
     2
  6
CONTINUOUS
 10
0.165402
 20
2.231472
  0
VERTEX
  8
PLAN_1
 62
     2
  6
CONTINUOUS
 10
0.163496
 20
2.232902
  0
VERTEX
  8
PLAN_1
 62
     2
  6
CONTINUOUS
 10
0.162071
 20
2.233854
  0
VERTEX
  8
PLAN_1
 62
     2
  6
CONTINUOUS
 10
0.157783
 20
2.235280
  0
VERTEX
  8
PLAN_1
 62
     2
  6
CONTINUOUS
 10
0.152543
 20
2.236709
  0
VERTEX
  8
PLAN_1
 62
     2
  6
CONTINUOUS
 10
0.146827
 20
2.237185
  0
VERTEX
  8
PLAN_1
 62
     2
  6
CONTINUOUS
 10
0.140157
 20
2.237661
  0
VERTEX
  8
PLAN_1
 62
     2
  6
CONTINUOUS
 10
0.133965
 20
2.237185
  0
VERTEX
  8
PLAN_1
 62
     2
  6
CONTINUOUS
 10
0.127776
 20
2.236709
  0
VERTEX
  8
PLAN_1
 62
     2
  6
CONTINUOUS
 10
0.123012
 20
2.235280
  0
VERTEX
  8
PLAN_1
 62
     2
  6
CONTINUOUS
 10
0.118724
 20
2.233854
  0
VERTEX
  8
PLAN_1
 62
     2
  6
CONTINUOUS
 10
0.116819
 20
2.232902
  0
VERTEX
  8
PLAN_1
 62
     2
  6
CONTINUOUS
 10
0.115390
 20
2.231472
  0
VERTEX
  8
PLAN_1
 62
     2
  6
CONTINUOUS
 10
0.113961
 20
2.230520
  0
VERTEX
  8
PLAN_1
 62
     2
  6
CONTINUOUS
 10
0.113008
 20
2.229091
  0
VERTEX
  8
PLAN_1
 62
     2
  6
CONTINUOUS
 10
0.112055
 20
2.227661
  0
VERTEX
  8
PLAN_1
 62
     2
  6
CONTINUOUS
 10
0.111579
 20
2.225756
  0
VERTEX
  8
PLAN_1
 62
     2
  6
CONTINUOUS
 10
0.111102
 20
2.223850
  0
VERTEX
  8
PLAN_1
 62
     2
  6
CONTINUOUS
 10
0.111102
 20
2.221945
  0
SEQEND
  8
0
  0
POLYLINE
  8
PLAN_1
 62
     2
  6
CONTINUOUS
 66
     1
 40
0.003000
 41
0.003000
  0
VERTEX
  8
PLAN_1
 62
     2
  6
CONTINUOUS
 10
0.158260
 20
2.294823
  0
VERTEX
  8
PLAN_1
 62
     2
  6
CONTINUOUS
 10
0.175882
 20
2.294823
  0
VERTEX
  8
PLAN_1
 62
     2
  6
CONTINUOUS
 10
0.175882
 20
2.285772
  0
VERTEX
  8
PLAN_1
 62
     2
  6
CONTINUOUS
 10
0.158260
 20
2.285772
  0
VERTEX
  8
PLAN_1
 62
     2
  6
CONTINUOUS
 10
0.158260
 20
2.253858
  0
VERTEX
  8
PLAN_1
 62
     2
  6
CONTINUOUS
 10
0.149209
 20
2.253858
  0
VERTEX
  8
PLAN_1
 62
     2
  6
CONTINUOUS
 10
0.102528
 20
2.287201
  0
VERTEX
  8
PLAN_1
 62
     2
  6
CONTINUOUS
 10
0.102528
 20
2.294823
  0
VERTEX
  8
PLAN_1
 62
     2
  6
CONTINUOUS
 10
0.150161
 20
2.294823
  0
VERTEX
  8
PLAN_1
 62
     2
  6
CONTINUOUS
 10
0.150161
 20
2.305776
  0
VERTEX
  8
PLAN_1
 62
     2
  6
CONTINUOUS
 10
0.158260
 20
2.305776
  0
VERTEX
  8
PLAN_1
 62
     2
  6
CONTINUOUS
 10
0.158260
 20
2.294823
  0
SEQEND
  8
0
  0
SOLID
  8
PLAN_1
 62
     2
 10
0.150161
 20
2.261957
 11
0.150161
 21
2.285772
 12
0.116819
 22
2.285295
 13
0.116819
 23
2.285772
  0
POLYLINE
  8
PLAN_1
 62
     2
  6
CONTINUOUS
 66
     1
 40
0.003000
 41
0.003000
  0
VERTEX
  8
PLAN_1
 62
     2
  6
CONTINUOUS
 10
0.150161
 20
2.261957
  0
VERTEX
  8
PLAN_1
 62
     2
  6
CONTINUOUS
 10
0.150161
 20
2.285772
  0
VERTEX
  8
PLAN_1
 62
     2
  6
CONTINUOUS
 10
0.116819
 20
2.285772
  0
VERTEX
  8
PLAN_1
 62
     2
  6
CONTINUOUS
 10
0.116819
 20
2.285295
  0
VERTEX
  8
PLAN_1
 62
     2
  6
CONTINUOUS
 10
0.150161
 20
2.261957
  0
SEQEND
  8
0
  0
POLYLINE
  8
PLAN_1
 62
     2
  6
CONTINUOUS
 66
     1
 40
0.003000
 41
0.003000
  0
VERTEX
  8
PLAN_1
 62
     2
  6
CONTINUOUS
 10
0.175882
 20
2.318161
  0
VERTEX
  8
PLAN_1
 62
     2
  6
CONTINUOUS
 10
0.175882
 20
2.323402
  0
VERTEX
  8
PLAN_1
 62
     2
  6
CONTINUOUS
 10
0.177787
 20
2.323402
  0
VERTEX
  8
PLAN_1
 62
     2
  6
CONTINUOUS
 10
0.179693
 20
2.323402
  0
VERTEX
  8
PLAN_1
 62
     2
  6
CONTINUOUS
 10
0.181122
 20
2.322925
  0
VERTEX
  8
PLAN_1
 62
     2
  6
CONTINUOUS
 10
0.183028
 20
2.322449
  0
VERTEX
  8
PLAN_1
 62
     2
  6
CONTINUOUS
 10
0.183980
 20
2.321972
  0
VERTEX
  8
PLAN_1
 62
     2
  6
CONTINUOUS
 10
0.185409
 20
2.321020
  0
VERTEX
  8
PLAN_1
 62
     2
  6
CONTINUOUS
 10
0.185886
 20
2.319591
  0
VERTEX
  8
PLAN_1
 62
     2
  6
CONTINUOUS
 10
0.186362
 20
2.318161
  0
VERTEX
  8
PLAN_1
 62
     2
  6
CONTINUOUS
 10
0.191126
 20
2.318161
  0
VERTEX
  8
PLAN_1
 62
     2
  6
CONTINUOUS
 10
0.191126
 20
2.319114
  0
VERTEX
  8
PLAN_1
 62
     2
  6
CONTINUOUS
 10
0.190650
 20
2.320543
  0
VERTEX
  8
PLAN_1
 62
     2
  6
CONTINUOUS
 10
0.189697
 20
2.322449
  0
VERTEX
  8
PLAN_1
 62
     2
  6
CONTINUOUS
 10
0.188268
 20
2.324354
  0
VERTEX
  8
PLAN_1
 62
     2
  6
CONTINUOUS
 10
0.186362
 20
2.326260
  0
VERTEX
  8
PLAN_1
 62
     2
  6
CONTINUOUS
 10
0.183504
 20
2.327689
  0
VERTEX
  8
PLAN_1
 62
     2
  6
CONTINUOUS
 10
0.179693
 20
2.328642
  0
VERTEX
  8
PLAN_1
 62
     2
  6
CONTINUOUS
 10
0.174929
 20
2.329118
  0
VERTEX
  8
PLAN_1
 62
     2
  6
CONTINUOUS
 10
0.164925
 20
2.329118
  0
VERTEX
  8
PLAN_1
 62
     2
  6
CONTINUOUS
 10
0.164925
 20
2.318161
  0
VERTEX
  8
PLAN_1
 62
     2
  6
CONTINUOUS
 10
0.175882
 20
2.318161
  0
SEQEND
  8
0
  0
POLYLINE
  8
PLAN_1
 62
     2
  6
CONTINUOUS
 66
     1
 40
0.003000
 41
0.003000
  0
VERTEX
  8
PLAN_1
 62
     2
  6
CONTINUOUS
 10
0.133488
 20
2.353409
  0
VERTEX
  8
PLAN_1
 62
     2
  6
CONTINUOUS
 10
0.132535
 20
2.354362
  0
VERTEX
  8
PLAN_1
 62
     2
  6
CONTINUOUS
 10
0.131583
 20
2.355791
  0
VERTEX
  8
PLAN_1
 62
     2
  6
CONTINUOUS
 10
0.130630
 20
2.357220
  0
VERTEX
  8
PLAN_1
 62
     2
  6
CONTINUOUS
 10
0.130157
 20
2.359126
  0
VERTEX
  8
PLAN_1
 62
     2
  6
CONTINUOUS
 10
0.129681
 20
2.361031
  0
VERTEX
  8
PLAN_1
 62
     2
  6
CONTINUOUS
 10
0.129205
 20
2.362937
  0
VERTEX
  8
PLAN_1
 62
     2
  6
CONTINUOUS
 10
0.128728
 20
2.364843
  0
VERTEX
  8
PLAN_1
 62
     2
  6
CONTINUOUS
 10
0.128728
 20
2.367220
  0
VERTEX
  8
PLAN_1
 62
     2
  6
CONTINUOUS
 10
0.129205
 20
2.371984
  0
VERTEX
  8
PLAN_1
 62
     2
  6
CONTINUOUS
 10
0.130157
 20
2.376272
  0
VERTEX
  8
PLAN_1
 62
     2
  6
CONTINUOUS
 10
0.132059
 20
2.380083
  0
VERTEX
  8
PLAN_1
 62
     2
  6
CONTINUOUS
 10
0.134917
 20
2.383894
  0
VERTEX
  8
PLAN_1
 62
     2
  6
CONTINUOUS
 10
0.136346
 20
2.385323
  0
VERTEX
  8
PLAN_1
 62
     2
  6
CONTINUOUS
 10
0.138252
 20
2.386752
  0
VERTEX
  8
PLAN_1
 62
     2
  6
CONTINUOUS
 10
0.140157
 20
2.388181
  0
VERTEX
  8
PLAN_1
 62
     2
  6
CONTINUOUS
 10
0.142063
 20
2.389610
  0
VERTEX
  8
PLAN_1
 62
     2
  6
CONTINUOUS
 10
0.144445
 20
2.390087
  0
VERTEX
  8
PLAN_1
 62
     2
  6
CONTINUOUS
 10
0.146827
 20
2.391039
  0
VERTEX
  8
PLAN_1
 62
     2
  6
CONTINUOUS
 10
0.149209
 20
2.391516
  0
VERTEX
  8
PLAN_1
 62
     2
  6
CONTINUOUS
 10
0.152067
 20
2.391516
  0
VERTEX
  8
PLAN_1
 62
     2
  6
CONTINUOUS
 10
0.155402
 20
2.391039
  0
VERTEX
  8
PLAN_1
 62
     2
  6
CONTINUOUS
 10
0.159689
 20
2.390563
  0
VERTEX
  8
PLAN_1
 62
     2
  6
CONTINUOUS
 10
0.163972
 20
2.389134
  0
VERTEX
  8
PLAN_1
 62
     2
  6
CONTINUOUS
 10
0.168260
 20
2.386752
  0
VERTEX
  8
PLAN_1
 62
     2
  6
CONTINUOUS
 10
0.170165
 20
2.385323
  0
VERTEX
  8
PLAN_1
 62
     2
  6
CONTINUOUS
 10
0.172071
 20
2.383417
  0
VERTEX
  8
PLAN_1
 62
     2
  6
CONTINUOUS
 10
0.173500
 20
2.381035
  0
VERTEX
  8
PLAN_1
 62
     2
  6
CONTINUOUS
 10
0.174929
 20
2.378654
  0
VERTEX
  8
PLAN_1
 62
     2
  6
CONTINUOUS
 10
0.176358
 20
2.375795
  0
VERTEX
  8
PLAN_1
 62
     2
  6
CONTINUOUS
 10
0.177311
 20
2.372461
  0
VERTEX
  8
PLAN_1
 62
     2
  6
CONTINUOUS
 10
0.177787
 20
2.369126
  0
VERTEX
  8
PLAN_1
 62
     2
  6
CONTINUOUS
 10
0.177787
 20
2.364843
  0
VERTEX
  8
PLAN_1
 62
     2
  6
CONTINUOUS
 10
0.177787
 20
2.361031
  0
VERTEX
  8
PLAN_1
 62
     2
  6
CONTINUOUS
 10
0.176835
 20
2.357220
  0
VERTEX
  8
PLAN_1
 62
     2
  6
CONTINUOUS
 10
0.175882
 20
2.353886
  0
VERTEX
  8
PLAN_1
 62
     2
  6
CONTINUOUS
 10
0.173976
 20
2.350075
  0
VERTEX
  8
PLAN_1
 62
     2
  6
CONTINUOUS
 10
0.172547
 20
2.348646
  0
VERTEX
  8
PLAN_1
 62
     2
  6
CONTINUOUS
 10
0.171118
 20
2.347217
  0
VERTEX
  8
PLAN_1
 62
     2
  6
CONTINUOUS
 10
0.169689
 20
2.345787
  0
VERTEX
  8
PLAN_1
 62
     2
  6
CONTINUOUS
 10
0.167783
 20
2.344358
  0
VERTEX
  8
PLAN_1
 62
     2
  6
CONTINUOUS
 10
0.165402
 20
2.343406
  0
VERTEX
  8
PLAN_1
 62
     2
  6
CONTINUOUS
 10
0.163024
 20
2.342453
  0
VERTEX
  8
PLAN_1
 62
     2
  6
CONTINUOUS
 10
0.160642
 20
2.341976
  0
VERTEX
  8
PLAN_1
 62
     2
  6
CONTINUOUS
 10
0.157783
 20
2.341500
  0
VERTEX
  8
PLAN_1
 62
     2
  6
CONTINUOUS
 10
0.157783
 20
2.350551
  0
VERTEX
  8
PLAN_1
 62
     2
  6
CONTINUOUS
 10
0.160642
 20
2.351504
  0
VERTEX
  8
PLAN_1
 62
     2
  6
CONTINUOUS
 10
0.163024
 20
2.352457
  0
VERTEX
  8
PLAN_1
 62
     2
  6
CONTINUOUS
 10
0.165402
 20
2.353886
  0
VERTEX
  8
PLAN_1
 62
     2
  6
CONTINUOUS
 10
0.166831
 20
2.355791
  0
VERTEX
  8
PLAN_1
 62
     2
  6
CONTINUOUS
 10
0.168260
 20
2.358173
  0
VERTEX
  8
PLAN_1
 62
     2
  6
CONTINUOUS
 10
0.169213
 20
2.360555
  0
VERTEX
  8
PLAN_1
 62
     2
  6
CONTINUOUS
 10
0.169689
 20
2.363413
  0
VERTEX
  8
PLAN_1
 62
     2
  6
CONTINUOUS
 10
0.170165
 20
2.366272
  0
VERTEX
  8
PLAN_1
 62
     2
  6
CONTINUOUS
 10
0.169689
 20
2.369602
  0
VERTEX
  8
PLAN_1
 62
     2
  6
CONTINUOUS
 10
0.168736
 20
2.372461
  0
VERTEX
  8
PLAN_1
 62
     2
  6
CONTINUOUS
 10
0.167307
 20
2.375319
  0
VERTEX
  8
PLAN_1
 62
     2
  6
CONTINUOUS
 10
0.164925
 20
2.377701
  0
VERTEX
  8
PLAN_1
 62
     2
  6
CONTINUOUS
 10
0.162547
 20
2.379130
  0
VERTEX
  8
PLAN_1
 62
     2
  6
CONTINUOUS
 10
0.159689
 20
2.380559
  0
VERTEX
  8
PLAN_1
 62
     2
  6
CONTINUOUS
 10
0.156354
 20
2.381512
  0
VERTEX
  8
PLAN_1
 62
     2
  6
CONTINUOUS
 10
0.153020
 20
2.381512
  0
VERTEX
  8
PLAN_1
 62
     2
  6
CONTINUOUS
 10
0.149685
 20
2.381512
  0
VERTEX
  8
PLAN_1
 62
     2
  6
CONTINUOUS
 10
0.146350
 20
2.380559
  0
VERTEX
  8
PLAN_1
 62
     2
  6
CONTINUOUS
 10
0.143492
 20
2.379130
  0
VERTEX
  8
PLAN_1
 62
     2
  6
CONTINUOUS
 10
0.141110
 20
2.376748
  0
VERTEX
  8
PLAN_1
 62
     2
  6
CONTINUOUS
 10
0.139205
 20
2.374366
  0
VERTEX
  8
PLAN_1
 62
     2
  6
CONTINUOUS
 10
0.138252
 20
2.371984
  0
VERTEX
  8
PLAN_1
 62
     2
  6
CONTINUOUS
 10
0.137299
 20
2.368650
  0
VERTEX
  8
PLAN_1
 62
     2
  6
CONTINUOUS
 10
0.136823
 20
2.365319
  0
VERTEX
  8
PLAN_1
 62
     2
  6
CONTINUOUS
 10
0.137299
 20
2.363413
  0
VERTEX
  8
PLAN_1
 62
     2
  6
CONTINUOUS
 10
0.137299
 20
2.361508
  0
VERTEX
  8
PLAN_1
 62
     2
  6
CONTINUOUS
 10
0.137776
 20
2.359602
  0
VERTEX
  8
PLAN_1
 62
     2
  6
CONTINUOUS
 10
0.138728
 20
2.358173
  0
VERTEX
  8
PLAN_1
 62
     2
  6
CONTINUOUS
 10
0.139681
 20
2.356268
  0
VERTEX
  8
PLAN_1
 62
     2
  6
CONTINUOUS
 10
0.141110
 20
2.354839
  0
VERTEX
  8
PLAN_1
 62
     2
  6
CONTINUOUS
 10
0.142539
 20
2.353409
  0
VERTEX
  8
PLAN_1
 62
     2
  6
CONTINUOUS
 10
0.143969
 20
2.351980
  0
VERTEX
  8
PLAN_1
 62
     2
  6
CONTINUOUS
 10
0.143492
 20
2.343882
  0
VERTEX
  8
PLAN_1
 62
     2
  6
CONTINUOUS
 10
0.104433
 20
2.349598
  0
VERTEX
  8
PLAN_1
 62
     2
  6
CONTINUOUS
 10
0.104433
 20
2.387228
  0
VERTEX
  8
PLAN_1
 62
     2
  6
CONTINUOUS
 10
0.113484
 20
2.387228
  0
VERTEX
  8
PLAN_1
 62
     2
  6
CONTINUOUS
 10
0.113484
 20
2.356268
  0
VERTEX
  8
PLAN_1
 62
     2
  6
CONTINUOUS
 10
0.133488
 20
2.353409
  0
SEQEND
  8
0
  0
SOLID
  8
PLAN_1
 62
     2
 10
-1.414079
 20
3.558504
 11
-1.444563
 21
3.611374
 12
-1.414079
 22
3.558504
 13
-1.466949
 23
3.589465
  0
POLYLINE
  8
PLAN_1
 62
     2
  6
CONTINUOUS
 66
     1
 40
0.003000
 41
0.003000
  0
VERTEX
  8
PLAN_1
 62
     2
  6
CONTINUOUS
 10
-1.414079
 20
3.558504
  0
VERTEX
  8
PLAN_1
 62
     2
  6
CONTINUOUS
 10
-1.444563
 20
3.611374
  0
VERTEX
  8
PLAN_1
 62
     2
  6
CONTINUOUS
 10
-1.466949
 20
3.589465
  0
VERTEX
  8
PLAN_1
 62
     2
  6
CONTINUOUS
 10
-1.414079
 20
3.558504
  0
SEQEND
  8
0
  0
POLYLINE
  8
PLAN_1
 62
     2
  6
CONTINUOUS
 66
     1
 40
0.004283
 41
0.004283
  0
VERTEX
  8
PLAN_1
 62
     2
  6
CONTINUOUS
 10
-1.440276
 20
3.585177
  0
VERTEX
  8
PLAN_1
 62
     2
  6
CONTINUOUS
 10
-1.569835
 20
3.709496
  0
VERTEX
  8
PLAN_1
 62
     2
  6
CONTINUOUS
 10
-1.858012
 20
3.709496
  0
SEQEND
  8
0
  0
POLYLINE
  8
PLAN_1
 62
     2
  6
CONTINUOUS
 66
     1
 40
0.003000
 41
0.003000
  0
VERTEX
  8
PLAN_1
 62
     2
  6
CONTINUOUS
 10
-1.763220
 20
3.797614
  0
VERTEX
  8
PLAN_1
 62
     2
  6
CONTINUOUS
 10
-1.761315
 20
3.794280
  0
VERTEX
  8
PLAN_1
 62
     2
  6
CONTINUOUS
 10
-1.759413
 20
3.790949
  0
VERTEX
  8
PLAN_1
 62
     2
  6
CONTINUOUS
 10
-1.757984
 20
3.787614
  0
VERTEX
  8
PLAN_1
 62
     2
  6
CONTINUOUS
 10
-1.756555
 20
3.784280
  0
VERTEX
  8
PLAN_1
 62
     2
  6
CONTINUOUS
 10
-1.756079
 20
3.780945
  0
VERTEX
  8
PLAN_1
 62
     2
  6
CONTINUOUS
 10
-1.755126
 20
3.777134
  0
VERTEX
  8
PLAN_1
 62
     2
  6
CONTINUOUS
 10
-1.755126
 20
3.773799
  0
VERTEX
  8
PLAN_1
 62
     2
  6
CONTINUOUS
 10
-1.754650
 20
3.770465
  0
VERTEX
  8
PLAN_1
 62
     2
  6
CONTINUOUS
 10
-1.755126
 20
3.764272
  0
VERTEX
  8
PLAN_1
 62
     2
  6
CONTINUOUS
 10
-1.756555
 20
3.757606
  0
VERTEX
  8
PLAN_1
 62
     2
  6
CONTINUOUS
 10
-1.757508
 20
3.754272
  0
VERTEX
  8
PLAN_1
 62
     2
  6
CONTINUOUS
 10
-1.758937
 20
3.750937
  0
VERTEX
  8
PLAN_1
 62
     2
  6
CONTINUOUS
 10
-1.760839
 20
3.748079
  0
VERTEX
  8
PLAN_1
 62
     2
  6
CONTINUOUS
 10
-1.762744
 20
3.744744
  0
VERTEX
  8
PLAN_1
 62
     2
  6
CONTINUOUS
 10
-1.764650
 20
3.741886
  0
VERTEX
  8
PLAN_1
 62
     2
  6
CONTINUOUS
 10
-1.767508
 20
3.739504
  0
VERTEX
  8
PLAN_1
 62
     2
  6
CONTINUOUS
 10
-1.770366
 20
3.737122
  0
VERTEX
  8
PLAN_1
 62
     2
  6
CONTINUOUS
 10
-1.773701
 20
3.735217
  0
VERTEX
  8
PLAN_1
 62
     2
  6
CONTINUOUS
 10
-1.777512
 20
3.733787
  0
VERTEX
  8
PLAN_1
 62
     2
  6
CONTINUOUS
 10
-1.781799
 20
3.732358
  0
VERTEX
  8
PLAN_1
 62
     2
  6
CONTINUOUS
 10
-1.786087
 20
3.731406
  0
VERTEX
  8
PLAN_1
 62
     2
  6
CONTINUOUS
 10
-1.791327
 20
3.731406
  0
VERTEX
  8
PLAN_1
 62
     2
  6
CONTINUOUS
 10
-1.795134
 20
3.731406
  0
VERTEX
  8
PLAN_1
 62
     2
  6
CONTINUOUS
 10
-1.798945
 20
3.731882
  0
VERTEX
  8
PLAN_1
 62
     2
  6
CONTINUOUS
 10
-1.802280
 20
3.732835
  0
VERTEX
  8
PLAN_1
 62
     2
  6
CONTINUOUS
 10
-1.805614
 20
3.733787
  0
VERTEX
  8
PLAN_1
 62
     2
  6
CONTINUOUS
 10
-1.808472
 20
3.735217
  0
VERTEX
  8
PLAN_1
 62
     2
  6
CONTINUOUS
 10
-1.810854
 20
3.736646
  0
VERTEX
  8
PLAN_1
 62
     2
  6
CONTINUOUS
 10
-1.813713
 20
3.738551
  0
VERTEX
  8
PLAN_1
 62
     2
  6
CONTINUOUS
 10
-1.815618
 20
3.740457
  0
VERTEX
  8
PLAN_1
 62
     2
  6
CONTINUOUS
 10
-1.824193
 20
3.731406
  0
VERTEX
  8
PLAN_1
 62
     2
  6
CONTINUOUS
 10
-1.827524
 20
3.734264
  0
VERTEX
  8
PLAN_1
 62
     2
  6
CONTINUOUS
 10
-1.818953
 20
3.743791
  0
VERTEX
  8
PLAN_1
 62
     2
  6
CONTINUOUS
 10
-1.820858
 20
3.746650
  0
VERTEX
  8
PLAN_1
 62
     2
  6
CONTINUOUS
 10
-1.822764
 20
3.749984
  0
VERTEX
  8
PLAN_1
 62
     2
  6
CONTINUOUS
 10
-1.824193
 20
3.753319
  0
VERTEX
  8
PLAN_1
 62
     2
  6
CONTINUOUS
 10
-1.825622
 20
3.757130
  0
VERTEX
  8
PLAN_1
 62
     2
  6
CONTINUOUS
 10
-1.826575
 20
3.760461
  0
VERTEX
  8
PLAN_1
 62
     2
  6
CONTINUOUS
 10
-1.827047
 20
3.763795
  0
VERTEX
  8
PLAN_1
 62
     2
  6
CONTINUOUS
 10
-1.827524
 20
3.767606
  0
VERTEX
  8
PLAN_1
 62
     2
  6
CONTINUOUS
 10
-1.827524
 20
3.770465
  0
VERTEX
  8
PLAN_1
 62
     2
  6
CONTINUOUS
 10
-1.827047
 20
3.777134
  0
VERTEX
  8
PLAN_1
 62
     2
  6
CONTINUOUS
 10
-1.825622
 20
3.783803
  0
VERTEX
  8
PLAN_1
 62
     2
  6
CONTINUOUS
 10
-1.824669
 20
3.787138
  0
VERTEX
  8
PLAN_1
 62
     2
  6
CONTINUOUS
 10
-1.823240
 20
3.789996
  0
VERTEX
  8
PLAN_1
 62
     2
  6
CONTINUOUS
 10
-1.821811
 20
3.793331
  0
VERTEX
  8
PLAN_1
 62
     2
  6
CONTINUOUS
 10
-1.819906
 20
3.796185
  0
VERTEX
  8
PLAN_1
 62
     2
  6
CONTINUOUS
 10
-1.817524
 20
3.799043
  0
VERTEX
  8
PLAN_1
 62
     2
  6
CONTINUOUS
 10
-1.815142
 20
3.801902
  0
VERTEX
  8
PLAN_1
 62
     2
  6
CONTINUOUS
 10
-1.811807
 20
3.804283
  0
VERTEX
  8
PLAN_1
 62
     2
  6
CONTINUOUS
 10
-1.808472
 20
3.806189
  0
VERTEX
  8
PLAN_1
 62
     2
  6
CONTINUOUS
 10
-1.805138
 20
3.807618
  0
VERTEX
  8
PLAN_1
 62
     2
  6
CONTINUOUS
 10
-1.800850
 20
3.809047
  0
VERTEX
  8
PLAN_1
 62
     2
  6
CONTINUOUS
 10
-1.796087
 20
3.809524
  0
VERTEX
  8
PLAN_1
 62
     2
  6
CONTINUOUS
 10
-1.791327
 20
3.810000
  0
VERTEX
  8
PLAN_1
 62
     2
  6
CONTINUOUS
 10
-1.787039
 20
3.810000
  0
VERTEX
  8
PLAN_1
 62
     2
  6
CONTINUOUS
 10
-1.783228
 20
3.809524
  0
VERTEX
  8
PLAN_1
 62
     2
  6
CONTINUOUS
 10
-1.779894
 20
3.808571
  0
VERTEX
  8
PLAN_1
 62
     2
  6
CONTINUOUS
 10
-1.776559
 20
3.807618
  0
VERTEX
  8
PLAN_1
 62
     2
  6
CONTINUOUS
 10
-1.773701
 20
3.806189
  0
VERTEX
  8
PLAN_1
 62
     2
  6
CONTINUOUS
 10
-1.770843
 20
3.804283
  0
VERTEX
  8
PLAN_1
 62
     2
  6
CONTINUOUS
 10
-1.768461
 20
3.802854
  0
VERTEX
  8
PLAN_1
 62
     2
  6
CONTINUOUS
 10
-1.766555
 20
3.800949
  0
VERTEX
  8
PLAN_1
 62
     2
  6
CONTINUOUS
 10
-1.757984
 20
3.810000
  0
VERTEX
  8
PLAN_1
 62
     2
  6
CONTINUOUS
 10
-1.754650
 20
3.806665
  0
VERTEX
  8
PLAN_1
 62
     2
  6
CONTINUOUS
 10
-1.763220
 20
3.797614
  0
SEQEND
  8
0
  0
POLYLINE
  8
PLAN_1
 62
     2
  6
CONTINUOUS
 66
     1
 40
0.003000
 41
0.003000
  0
VERTEX
  8
PLAN_1
 62
     2
  6
CONTINUOUS
 10
-1.808949
 20
3.747602
  0
VERTEX
  8
PLAN_1
 62
     2
  6
CONTINUOUS
 10
-1.807520
 20
3.746173
  0
VERTEX
  8
PLAN_1
 62
     2
  6
CONTINUOUS
 10
-1.805614
 20
3.744744
  0
VERTEX
  8
PLAN_1
 62
     2
  6
CONTINUOUS
 10
-1.803709
 20
3.743315
  0
VERTEX
  8
PLAN_1
 62
     2
  6
CONTINUOUS
 10
-1.801327
 20
3.742362
  0
VERTEX
  8
PLAN_1
 62
     2
  6
CONTINUOUS
 10
-1.798945
 20
3.741409
  0
VERTEX
  8
PLAN_1
 62
     2
  6
CONTINUOUS
 10
-1.796563
 20
3.740933
  0
VERTEX
  8
PLAN_1
 62
     2
  6
CONTINUOUS
 10
-1.794181
 20
3.740457
  0
VERTEX
  8
PLAN_1
 62
     2
  6
CONTINUOUS
 10
-1.791327
 20
3.740457
  0
VERTEX
  8
PLAN_1
 62
     2
  6
CONTINUOUS
 10
-1.788469
 20
3.740457
  0
VERTEX
  8
PLAN_1
 62
     2
  6
CONTINUOUS
 10
-1.785610
 20
3.740933
  0
VERTEX
  8
PLAN_1
 62
     2
  6
CONTINUOUS
 10
-1.782752
 20
3.741409
  0
VERTEX
  8
PLAN_1
 62
     2
  6
CONTINUOUS
 10
-1.780370
 20
3.742362
  0
VERTEX
  8
PLAN_1
 62
     2
  6
CONTINUOUS
 10
-1.777988
 20
3.743791
  0
VERTEX
  8
PLAN_1
 62
     2
  6
CONTINUOUS
 10
-1.776083
 20
3.745220
  0
VERTEX
  8
PLAN_1
 62
     2
  6
CONTINUOUS
 10
-1.773701
 20
3.747126
  0
VERTEX
  8
PLAN_1
 62
     2
  6
CONTINUOUS
 10
-1.772272
 20
3.749031
  0
VERTEX
  8
PLAN_1
 62
     2
  6
CONTINUOUS
 10
-1.770366
 20
3.750937
  0
VERTEX
  8
PLAN_1
 62
     2
  6
CONTINUOUS
 10
-1.768937
 20
3.753319
  0
VERTEX
  8
PLAN_1
 62
     2
  6
CONTINUOUS
 10
-1.767984
 20
3.755701
  0
VERTEX
  8
PLAN_1
 62
     2
  6
CONTINUOUS
 10
-1.767031
 20
3.758559
  0
VERTEX
  8
PLAN_1
 62
     2
  6
CONTINUOUS
 10
-1.765602
 20
3.764272
  0
VERTEX
  8
PLAN_1
 62
     2
  6
CONTINUOUS
 10
-1.765126
 20
3.770465
  0
VERTEX
  8
PLAN_1
 62
     2
  6
CONTINUOUS
 10
-1.765126
 20
3.773323
  0
VERTEX
  8
PLAN_1
 62
     2
  6
CONTINUOUS
 10
-1.765602
 20
3.776181
  0
VERTEX
  8
PLAN_1
 62
     2
  6
CONTINUOUS
 10
-1.766079
 20
3.778563
  0
VERTEX
  8
PLAN_1
 62
     2
  6
CONTINUOUS
 10
-1.766555
 20
3.780945
  0
VERTEX
  8
PLAN_1
 62
     2
  6
CONTINUOUS
 10
-1.767031
 20
3.783327
  0
VERTEX
  8
PLAN_1
 62
     2
  6
CONTINUOUS
 10
-1.767984
 20
3.785709
  0
VERTEX
  8
PLAN_1
 62
     2
  6
CONTINUOUS
 10
-1.768937
 20
3.788091
  0
VERTEX
  8
PLAN_1
 62
     2
  6
CONTINUOUS
 10
-1.770366
 20
3.789996
  0
VERTEX
  8
PLAN_1
 62
     2
  6
CONTINUOUS
 10
-1.808949
 20
3.747602
  0
SEQEND
  8
0
  0
POLYLINE
  8
PLAN_1
 62
     2
  6
CONTINUOUS
 66
     1
 40
0.003000
 41
0.003000
  0
VERTEX
  8
PLAN_1
 62
     2
  6
CONTINUOUS
 10
-1.773224
 20
3.793331
  0
VERTEX
  8
PLAN_1
 62
     2
  6
CONTINUOUS
 10
-1.774654
 20
3.795232
  0
VERTEX
  8
PLAN_1
 62
     2
  6
CONTINUOUS
 10
-1.776559
 20
3.796661
  0
VERTEX
  8
PLAN_1
 62
     2
  6
CONTINUOUS
 10
-1.778465
 20
3.798091
  0
VERTEX
  8
PLAN_1
 62
     2
  6
CONTINUOUS
 10
-1.780846
 20
3.799043
  0
VERTEX
  8
PLAN_1
 62
     2
  6
CONTINUOUS
 10
-1.783228
 20
3.799996
  0
VERTEX
  8
PLAN_1
 62
     2
  6
CONTINUOUS
 10
-1.785610
 20
3.800472
  0
VERTEX
  8
PLAN_1
 62
     2
  6
CONTINUOUS
 10
-1.788469
 20
3.800949
  0
VERTEX
  8
PLAN_1
 62
     2
  6
CONTINUOUS
 10
-1.791327
 20
3.800949
  0
VERTEX
  8
PLAN_1
 62
     2
  6
CONTINUOUS
 10
-1.794181
 20
3.800949
  0
VERTEX
  8
PLAN_1
 62
     2
  6
CONTINUOUS
 10
-1.797039
 20
3.800472
  0
VERTEX
  8
PLAN_1
 62
     2
  6
CONTINUOUS
 10
-1.799421
 20
3.799520
  0
VERTEX
  8
PLAN_1
 62
     2
  6
CONTINUOUS
 10
-1.802280
 20
3.798567
  0
VERTEX
  8
PLAN_1
 62
     2
  6
CONTINUOUS
 10
-1.804661
 20
3.797614
  0
VERTEX
  8
PLAN_1
 62
     2
  6
CONTINUOUS
 10
-1.806567
 20
3.796185
  0
VERTEX
  8
PLAN_1
 62
     2
  6
CONTINUOUS
 10
-1.808472
 20
3.794280
  0
VERTEX
  8
PLAN_1
 62
     2
  6
CONTINUOUS
 10
-1.810378
 20
3.792378
  0
VERTEX
  8
PLAN_1
 62
     2
  6
CONTINUOUS
 10
-1.811807
 20
3.790472
  0
VERTEX
  8
PLAN_1
 62
     2
  6
CONTINUOUS
 10
-1.813236
 20
3.788091
  0
VERTEX
  8
PLAN_1
 62
     2
  6
CONTINUOUS
 10
-1.814665
 20
3.785709
  0
VERTEX
  8
PLAN_1
 62
     2
  6
CONTINUOUS
 10
-1.815618
 20
3.782850
  0
VERTEX
  8
PLAN_1
 62
     2
  6
CONTINUOUS
 10
-1.816571
 20
3.777134
  0
VERTEX
  8
PLAN_1
 62
     2
  6
CONTINUOUS
 10
-1.817047
 20
3.770465
  0
VERTEX
  8
PLAN_1
 62
     2
  6
CONTINUOUS
 10
-1.817047
 20
3.768083
  0
VERTEX
  8
PLAN_1
 62
     2
  6
CONTINUOUS
 10
-1.817047
 20
3.765224
  0
VERTEX
  8
PLAN_1
 62
     2
  6
CONTINUOUS
 10
-1.816571
 20
3.762366
  0
VERTEX
  8
PLAN_1
 62
     2
  6
CONTINUOUS
 10
-1.815618
 20
3.759988
  0
VERTEX
  8
PLAN_1
 62
     2
  6
CONTINUOUS
 10
-1.815142
 20
3.757606
  0
VERTEX
  8
PLAN_1
 62
     2
  6
CONTINUOUS
 10
-1.814189
 20
3.755224
  0
VERTEX
  8
PLAN_1
 62
     2
  6
CONTINUOUS
 10
-1.813236
 20
3.753319
  0
VERTEX
  8
PLAN_1
 62
     2
  6
CONTINUOUS
 10
-1.811807
 20
3.750937
  0
VERTEX
  8
PLAN_1
 62
     2
  6
CONTINUOUS
 10
-1.773224
 20
3.793331
  0
SEQEND
  8
0
  0
POLYLINE
  8
PLAN_1
 62
     2
  6
CONTINUOUS
 66
     1
 40
0.003000
 41
0.003000
  0
VERTEX
  8
PLAN_1
 62
     2
  6
CONTINUOUS
 10
-1.713209
 20
3.733311
  0
VERTEX
  8
PLAN_1
 62
     2
  6
CONTINUOUS
 10
-1.723213
 20
3.733311
  0
VERTEX
  8
PLAN_1
 62
     2
  6
CONTINUOUS
 10
-1.723213
 20
3.785232
  0
VERTEX
  8
PLAN_1
 62
     2
  6
CONTINUOUS
 10
-1.740358
 20
3.785232
  0
VERTEX
  8
PLAN_1
 62
     2
  6
CONTINUOUS
 10
-1.740358
 20
3.792378
  0
VERTEX
  8
PLAN_1
 62
     2
  6
CONTINUOUS
 10
-1.736071
 20
3.792854
  0
VERTEX
  8
PLAN_1
 62
     2
  6
CONTINUOUS
 10
-1.732260
 20
3.793331
  0
VERTEX
  8
PLAN_1
 62
     2
  6
CONTINUOUS
 10
-1.729402
 20
3.794280
  0
VERTEX
  8
PLAN_1
 62
     2
  6
CONTINUOUS
 10
-1.727024
 20
3.795232
  0
VERTEX
  8
PLAN_1
 62
     2
  6
CONTINUOUS
 10
-1.724642
 20
3.797138
  0
VERTEX
  8
PLAN_1
 62
     2
  6
CONTINUOUS
 10
-1.723213
 20
3.799520
  0
VERTEX
  8
PLAN_1
 62
     2
  6
CONTINUOUS
 10
-1.721783
 20
3.802378
  0
VERTEX
  8
PLAN_1
 62
     2
  6
CONTINUOUS
 10
-1.720354
 20
3.806665
  0
VERTEX
  8
PLAN_1
 62
     2
  6
CONTINUOUS
 10
-1.713209
 20
3.806665
  0
VERTEX
  8
PLAN_1
 62
     2
  6
CONTINUOUS
 10
-1.713209
 20
3.733311
  0
SEQEND
  8
0
  0
POLYLINE
  8
PLAN_1
 62
     2
  6
CONTINUOUS
 66
     1
 40
0.003000
 41
0.003000
  0
VERTEX
  8
PLAN_1
 62
     2
  6
CONTINUOUS
 10
-1.688441
 20
3.781421
  0
VERTEX
  8
PLAN_1
 62
     2
  6
CONTINUOUS
 10
-1.687965
 20
3.786185
  0
VERTEX
  8
PLAN_1
 62
     2
  6
CONTINUOUS
 10
-1.687012
 20
3.790949
  0
VERTEX
  8
PLAN_1
 62
     2
  6
CONTINUOUS
 10
-1.685106
 20
3.795232
  0
VERTEX
  8
PLAN_1
 62
     2
  6
CONTINUOUS
 10
-1.682248
 20
3.799043
  0
VERTEX
  8
PLAN_1
 62
     2
  6
CONTINUOUS
 10
-1.680819
 20
3.800472
  0
VERTEX
  8
PLAN_1
 62
     2
  6
CONTINUOUS
 10
-1.678913
 20
3.801902
  0
VERTEX
  8
PLAN_1
 62
     2
  6
CONTINUOUS
 10
-1.677008
 20
3.803331
  0
VERTEX
  8
PLAN_1
 62
     2
  6
CONTINUOUS
 10
-1.675102
 20
3.804283
  0
VERTEX
  8
PLAN_1
 62
     2
  6
CONTINUOUS
 10
-1.672720
 20
3.805236
  0
VERTEX
  8
PLAN_1
 62
     2
  6
CONTINUOUS
 10
-1.670339
 20
3.805713
  0
VERTEX
  8
PLAN_1
 62
     2
  6
CONTINUOUS
 10
-1.667480
 20
3.806189
  0
VERTEX
  8
PLAN_1
 62
     2
  6
CONTINUOUS
 10
-1.665098
 20
3.806665
  0
VERTEX
  8
PLAN_1
 62
     2
  6
CONTINUOUS
 10
-1.660815
 20
3.806189
  0
VERTEX
  8
PLAN_1
 62
     2
  6
CONTINUOUS
 10
-1.657004
 20
3.805713
  0
VERTEX
  8
PLAN_1
 62
     2
  6
CONTINUOUS
 10
-1.653669
 20
3.804283
  0
VERTEX
  8
PLAN_1
 62
     2
  6
CONTINUOUS
 10
-1.651287
 20
3.802854
  0
VERTEX
  8
PLAN_1
 62
     2
  6
CONTINUOUS
 10
-1.648429
 20
3.800949
  0
VERTEX
  8
PLAN_1
 62
     2
  6
CONTINUOUS
 10
-1.646524
 20
3.799043
  0
VERTEX
  8
PLAN_1
 62
     2
  6
CONTINUOUS
 10
-1.644618
 20
3.796661
  0
VERTEX
  8
PLAN_1
 62
     2
  6
CONTINUOUS
 10
-1.643189
 20
3.793803
  0
VERTEX
  8
PLAN_1
 62
     2
  6
CONTINUOUS
 10
-1.641283
 20
3.788567
  0
VERTEX
  8
PLAN_1
 62
     2
  6
CONTINUOUS
 10
-1.639854
 20
3.782850
  0
VERTEX
  8
PLAN_1
 62
     2
  6
CONTINUOUS
 10
-1.639378
 20
3.777610
  0
VERTEX
  8
PLAN_1
 62
     2
  6
CONTINUOUS
 10
-1.639378
 20
3.772370
  0
VERTEX
  8
PLAN_1
 62
     2
  6
CONTINUOUS
 10
-1.639378
 20
3.768559
  0
VERTEX
  8
PLAN_1
 62
     2
  6
CONTINUOUS
 10
-1.639854
 20
3.762843
  0
VERTEX
  8
PLAN_1
 62
     2
  6
CONTINUOUS
 10
-1.641283
 20
3.756177
  0
VERTEX
  8
PLAN_1
 62
     2
  6
CONTINUOUS
 10
-1.643189
 20
3.749031
  0
VERTEX
  8
PLAN_1
 62
     2
  6
CONTINUOUS
 10
-1.644618
 20
3.745697
  0
VERTEX
  8
PLAN_1
 62
     2
  6
CONTINUOUS
 10
-1.646524
 20
3.742362
  0
VERTEX
  8
PLAN_1
 62
     2
  6
CONTINUOUS
 10
-1.648429
 20
3.739504
  0
VERTEX
  8
PLAN_1
 62
     2
  6
CONTINUOUS
 10
-1.651287
 20
3.736646
  0
VERTEX
  8
PLAN_1
 62
     2
  6
CONTINUOUS
 10
-1.654146
 20
3.734264
  0
VERTEX
  8
PLAN_1
 62
     2
  6
CONTINUOUS
 10
-1.657480
 20
3.732835
  0
VERTEX
  8
PLAN_1
 62
     2
  6
CONTINUOUS
 10
-1.661287
 20
3.731882
  0
VERTEX
  8
PLAN_1
 62
     2
  6
CONTINUOUS
 10
-1.666051
 20
3.731406
  0
VERTEX
  8
PLAN_1
 62
     2
  6
CONTINUOUS
 10
-1.668909
 20
3.731406
  0
VERTEX
  8
PLAN_1
 62
     2
  6
CONTINUOUS
 10
-1.671768
 20
3.731882
  0
VERTEX
  8
PLAN_1
 62
     2
  6
CONTINUOUS
 10
-1.674150
 20
3.732358
  0
VERTEX
  8
PLAN_1
 62
     2
  6
CONTINUOUS
 10
-1.676531
 20
3.733311
  0
VERTEX
  8
PLAN_1
 62
     2
  6
CONTINUOUS
 10
-1.678437
 20
3.734264
  0
VERTEX
  8
PLAN_1
 62
     2
  6
CONTINUOUS
 10
-1.680343
 20
3.735693
  0
VERTEX
  8
PLAN_1
 62
     2
  6
CONTINUOUS
 10
-1.681772
 20
3.737122
  0
VERTEX
  8
PLAN_1
 62
     2
  6
CONTINUOUS
 10
-1.683201
 20
3.738551
  0
VERTEX
  8
PLAN_1
 62
     2
  6
CONTINUOUS
 10
-1.685106
 20
3.741409
  0
VERTEX
  8
PLAN_1
 62
     2
  6
CONTINUOUS
 10
-1.686535
 20
3.744744
  0
VERTEX
  8
PLAN_1
 62
     2
  6
CONTINUOUS
 10
-1.687488
 20
3.748079
  0
VERTEX
  8
PLAN_1
 62
     2
  6
CONTINUOUS
 10
-1.687488
 20
3.750937
  0
VERTEX
  8
PLAN_1
 62
     2
  6
CONTINUOUS
 10
-1.678437
 20
3.750937
  0
VERTEX
  8
PLAN_1
 62
     2
  6
CONTINUOUS
 10
-1.677961
 20
3.748079
  0
VERTEX
  8
PLAN_1
 62
     2
  6
CONTINUOUS
 10
-1.677484
 20
3.745697
  0
VERTEX
  8
PLAN_1
 62
     2
  6
CONTINUOUS
 10
-1.676055
 20
3.743791
  0
VERTEX
  8
PLAN_1
 62
     2
  6
CONTINUOUS
 10
-1.674626
 20
3.742362
  0
VERTEX
  8
PLAN_1
 62
     2
  6
CONTINUOUS
 10
-1.673197
 20
3.740933
  0
VERTEX
  8
PLAN_1
 62
     2
  6
CONTINUOUS
 10
-1.671291
 20
3.739980
  0
VERTEX
  8
PLAN_1
 62
     2
  6
CONTINUOUS
 10
-1.668909
 20
3.739028
  0
VERTEX
  8
PLAN_1
 62
     2
  6
CONTINUOUS
 10
-1.666051
 20
3.739028
  0
VERTEX
  8
PLAN_1
 62
     2
  6
CONTINUOUS
 10
-1.662717
 20
3.739504
  0
VERTEX
  8
PLAN_1
 62
     2
  6
CONTINUOUS
 10
-1.659386
 20
3.740457
  0
VERTEX
  8
PLAN_1
 62
     2
  6
CONTINUOUS
 10
-1.656528
 20
3.742839
  0
VERTEX
  8
PLAN_1
 62
     2
  6
CONTINUOUS
 10
-1.654146
 20
3.745697
  0
VERTEX
  8
PLAN_1
 62
     2
  6
CONTINUOUS
 10
-1.652240
 20
3.749508
  0
VERTEX
  8
PLAN_1
 62
     2
  6
CONTINUOUS
 10
-1.650811
 20
3.754272
  0
VERTEX
  8
PLAN_1
 62
     2
  6
CONTINUOUS
 10
-1.649382
 20
3.759512
  0
VERTEX
  8
PLAN_1
 62
     2
  6
CONTINUOUS
 10
-1.648429
 20
3.766177
  0
VERTEX
  8
PLAN_1
 62
     2
  6
CONTINUOUS
 10
-1.648429
 20
3.766654
  0
VERTEX
  8
PLAN_1
 62
     2
  6
CONTINUOUS
 10
-1.649858
 20
3.764748
  0
VERTEX
  8
PLAN_1
 62
     2
  6
CONTINUOUS
 10
-1.651287
 20
3.762843
  0
VERTEX
  8
PLAN_1
 62
     2
  6
CONTINUOUS
 10
-1.653193
 20
3.761413
  0
VERTEX
  8
PLAN_1
 62
     2
  6
CONTINUOUS
 10
-1.655575
 20
3.759988
  0
VERTEX
  8
PLAN_1
 62
     2
  6
CONTINUOUS
 10
-1.657957
 20
3.759035
  0
VERTEX
  8
PLAN_1
 62
     2
  6
CONTINUOUS
 10
-1.660339
 20
3.758559
  0
VERTEX
  8
PLAN_1
 62
     2
  6
CONTINUOUS
 10
-1.662717
 20
3.758083
  0
VERTEX
  8
PLAN_1
 62
     2
  6
CONTINUOUS
 10
-1.665575
 20
3.757606
  0
VERTEX
  8
PLAN_1
 62
     2
  6
CONTINUOUS
 10
-1.670339
 20
3.758083
  0
VERTEX
  8
PLAN_1
 62
     2
  6
CONTINUOUS
 10
-1.674626
 20
3.759512
  0
VERTEX
  8
PLAN_1
 62
     2
  6
CONTINUOUS
 10
-1.678437
 20
3.761413
  0
VERTEX
  8
PLAN_1
 62
     2
  6
CONTINUOUS
 10
-1.681772
 20
3.764272
  0
VERTEX
  8
PLAN_1
 62
     2
  6
CONTINUOUS
 10
-1.684630
 20
3.767606
  0
VERTEX
  8
PLAN_1
 62
     2
  6
CONTINUOUS
 10
-1.686535
 20
3.771417
  0
VERTEX
  8
PLAN_1
 62
     2
  6
CONTINUOUS
 10
-1.687965
 20
3.776181
  0
VERTEX
  8
PLAN_1
 62
     2
  6
CONTINUOUS
 10
-1.688441
 20
3.781421
  0
SEQEND
  8
0
  0
POLYLINE
  8
PLAN_1
 62
     2
  6
CONTINUOUS
 66
     1
 40
0.003000
 41
0.003000
  0
VERTEX
  8
PLAN_1
 62
     2
  6
CONTINUOUS
 10
-1.649858
 20
3.782850
  0
VERTEX
  8
PLAN_1
 62
     2
  6
CONTINUOUS
 10
-1.650335
 20
3.785709
  0
VERTEX
  8
PLAN_1
 62
     2
  6
CONTINUOUS
 10
-1.650811
 20
3.788567
  0
VERTEX
  8
PLAN_1
 62
     2
  6
CONTINUOUS
 10
-1.651764
 20
3.791425
  0
VERTEX
  8
PLAN_1
 62
     2
  6
CONTINUOUS
 10
-1.653669
 20
3.793331
  0
VERTEX
  8
PLAN_1
 62
     2
  6
CONTINUOUS
 10
-1.655575
 20
3.795709
  0
VERTEX
  8
PLAN_1
 62
     2
  6
CONTINUOUS
 10
-1.657957
 20
3.797138
  0
VERTEX
  8
PLAN_1
 62
     2
  6
CONTINUOUS
 10
-1.661287
 20
3.798091
  0
VERTEX
  8
PLAN_1
 62
     2
  6
CONTINUOUS
 10
-1.664622
 20
3.798091
  0
VERTEX
  8
PLAN_1
 62
     2
  6
CONTINUOUS
 10
-1.667957
 20
3.798091
  0
VERTEX
  8
PLAN_1
 62
     2
  6
CONTINUOUS
 10
-1.670815
 20
3.797138
  0
VERTEX
  8
PLAN_1
 62
     2
  6
CONTINUOUS
 10
-1.673197
 20
3.795709
  0
VERTEX
  8
PLAN_1
 62
     2
  6
CONTINUOUS
 10
-1.675102
 20
3.793803
  0
VERTEX
  8
PLAN_1
 62
     2
  6
CONTINUOUS
 10
-1.676531
 20
3.791425
  0
VERTEX
  8
PLAN_1
 62
     2
  6
CONTINUOUS
 10
-1.677961
 20
3.788567
  0
VERTEX
  8
PLAN_1
 62
     2
  6
CONTINUOUS
 10
-1.678913
 20
3.785232
  0
VERTEX
  8
PLAN_1
 62
     2
  6
CONTINUOUS
 10
-1.678913
 20
3.781898
  0
VERTEX
  8
PLAN_1
 62
     2
  6
CONTINUOUS
 10
-1.678437
 20
3.777134
  0
VERTEX
  8
PLAN_1
 62
     2
  6
CONTINUOUS
 10
-1.677484
 20
3.773323
  0
VERTEX
  8
PLAN_1
 62
     2
  6
CONTINUOUS
 10
-1.676055
 20
3.770465
  0
VERTEX
  8
PLAN_1
 62
     2
  6
CONTINUOUS
 10
-1.673673
 20
3.768559
  0
VERTEX
  8
PLAN_1
 62
     2
  6
CONTINUOUS
 10
-1.671291
 20
3.767130
  0
VERTEX
  8
PLAN_1
 62
     2
  6
CONTINUOUS
 10
-1.668909
 20
3.766654
  0
VERTEX
  8
PLAN_1
 62
     2
  6
CONTINUOUS
 10
-1.666528
 20
3.766177
  0
VERTEX
  8
PLAN_1
 62
     2
  6
CONTINUOUS
 10
-1.664146
 20
3.766177
  0
VERTEX
  8
PLAN_1
 62
     2
  6
CONTINUOUS
 10
-1.662240
 20
3.766177
  0
VERTEX
  8
PLAN_1
 62
     2
  6
CONTINUOUS
 10
-1.659862
 20
3.766654
  0
VERTEX
  8
PLAN_1
 62
     2
  6
CONTINUOUS
 10
-1.657480
 20
3.767606
  0
VERTEX
  8
PLAN_1
 62
     2
  6
CONTINUOUS
 10
-1.655098
 20
3.769035
  0
VERTEX
  8
PLAN_1
 62
     2
  6
CONTINUOUS
 10
-1.653193
 20
3.770941
  0
VERTEX
  8
PLAN_1
 62
     2
  6
CONTINUOUS
 10
-1.651764
 20
3.773799
  0
VERTEX
  8
PLAN_1
 62
     2
  6
CONTINUOUS
 10
-1.650335
 20
3.777610
  0
VERTEX
  8
PLAN_1
 62
     2
  6
CONTINUOUS
 10
-1.649858
 20
3.782850
  0
SEQEND
  8
0
  0
POLYLINE
  8
PLAN_1
 62
     2
  6
CONTINUOUS
 66
     1
 40
0.004283
 41
0.004283
  0
VERTEX
  8
PLAN_1
 62
     2
  6
CONTINUOUS
 10
-0.461913
 20
1.482693
  0
VERTEX
  8
PLAN_1
 62
     2
  6
CONTINUOUS
 10
-0.461913
 20
3.639476
  0
SEQEND
  8
0
  0
SOLID
  8
PLAN_1
 62
     2
 10
-0.461913
 20
3.669008
 11
-0.477630
 21
3.609945
 12
-0.461913
 22
3.669008
 13
-0.446193
 23
3.609945
  0
POLYLINE
  8
PLAN_1
 62
     2
  6
CONTINUOUS
 66
     1
 40
0.003000
 41
0.003000
  0
VERTEX
  8
PLAN_1
 62
     2
  6
CONTINUOUS
 10
-0.461913
 20
3.669008
  0
VERTEX
  8
PLAN_1
 62
     2
  6
CONTINUOUS
 10
-0.477630
 20
3.609945
  0
VERTEX
  8
PLAN_1
 62
     2
  6
CONTINUOUS
 10
-0.446193
 20
3.609945
  0
VERTEX
  8
PLAN_1
 62
     2
  6
CONTINUOUS
 10
-0.461913
 20
3.669008
  0
SEQEND
  8
0
  0
SOLID
  8
PLAN_1
 62
     2
 10
-0.461913
 20
1.453161
 11
-0.477630
 21
1.512224
 12
-0.461913
 22
1.453161
 13
-0.446193
 23
1.512224
  0
POLYLINE
  8
PLAN_1
 62
     2
  6
CONTINUOUS
 66
     1
 40
0.003000
 41
0.003000
  0
VERTEX
  8
PLAN_1
 62
     2
  6
CONTINUOUS
 10
-0.461913
 20
1.453161
  0
VERTEX
  8
PLAN_1
 62
     2
  6
CONTINUOUS
 10
-0.477630
 20
1.512224
  0
VERTEX
  8
PLAN_1
 62
     2
  6
CONTINUOUS
 10
-0.446193
 20
1.512224
  0
VERTEX
  8
PLAN_1
 62
     2
  6
CONTINUOUS
 10
-0.461913
 20
1.453161
  0
SEQEND
  8
0
  0
POLYLINE
  8
PLAN_1
 62
     2
  6
CONTINUOUS
 66
     1
 40
0.003000
 41
0.003000
  0
VERTEX
  8
PLAN_1
 62
     2
  6
CONTINUOUS
 10
-0.532409
 20
2.363413
  0
VERTEX
  8
PLAN_1
 62
     2
  6
CONTINUOUS
 10
-0.536693
 20
2.363413
  0
VERTEX
  8
PLAN_1
 62
     2
  6
CONTINUOUS
 10
-0.540504
 20
2.363890
  0
VERTEX
  8
PLAN_1
 62
     2
  6
CONTINUOUS
 10
-0.543839
 20
2.364843
  0
VERTEX
  8
PLAN_1
 62
     2
  6
CONTINUOUS
 10
-0.546697
 20
2.366272
  0
VERTEX
  8
PLAN_1
 62
     2
  6
CONTINUOUS
 10
-0.549079
 20
2.367697
  0
VERTEX
  8
PLAN_1
 62
     2
  6
CONTINUOUS
 10
-0.550984
 20
2.369126
  0
VERTEX
  8
PLAN_1
 62
     2
  6
CONTINUOUS
 10
-0.552890
 20
2.371031
  0
VERTEX
  8
PLAN_1
 62
     2
  6
CONTINUOUS
 10
-0.554319
 20
2.372937
  0
VERTEX
  8
PLAN_1
 62
     2
  6
CONTINUOUS
 10
-0.556701
 20
2.377224
  0
VERTEX
  8
PLAN_1
 62
     2
  6
CONTINUOUS
 10
-0.557654
 20
2.381035
  0
VERTEX
  8
PLAN_1
 62
     2
  6
CONTINUOUS
 10
-0.558606
 20
2.385323
  0
VERTEX
  8
PLAN_1
 62
     2
  6
CONTINUOUS
 10
-0.558606
 20
2.388657
  0
VERTEX
  8
PLAN_1
 62
     2
  6
CONTINUOUS
 10
-0.558130
 20
2.392945
  0
VERTEX
  8
PLAN_1
 62
     2
  6
CONTINUOUS
 10
-0.557177
 20
2.397232
  0
VERTEX
  8
PLAN_1
 62
     2
  6
CONTINUOUS
 10
-0.555272
 20
2.401516
  0
VERTEX
  8
PLAN_1
 62
     2
  6
CONTINUOUS
 10
-0.552890
 20
2.404850
  0
VERTEX
  8
PLAN_1
 62
     2
  6
CONTINUOUS
 10
-0.549555
 20
2.407709
  0
VERTEX
  8
PLAN_1
 62
     2
  6
CONTINUOUS
 10
-0.545744
 20
2.409614
  0
VERTEX
  8
PLAN_1
 62
     2
  6
CONTINUOUS
 10
-0.543839
 20
2.410567
  0
VERTEX
  8
PLAN_1
 62
     2
  6
CONTINUOUS
 10
-0.541457
 20
2.411043
  0
VERTEX
  8
PLAN_1
 62
     2
  6
CONTINUOUS
 10
-0.539075
 20
2.411043
  0
VERTEX
  8
PLAN_1
 62
     2
  6
CONTINUOUS
 10
-0.536693
 20
2.411520
  0
VERTEX
  8
PLAN_1
 62
     2
  6
CONTINUOUS
 10
-0.531933
 20
2.411043
  0
VERTEX
  8
PLAN_1
 62
     2
  6
CONTINUOUS
 10
-0.528122
 20
2.410091
  0
VERTEX
  8
PLAN_1
 62
     2
  6
CONTINUOUS
 10
-0.524787
 20
2.408185
  0
VERTEX
  8
PLAN_1
 62
     2
  6
CONTINUOUS
 10
-0.521929
 20
2.405803
  0
VERTEX
  8
PLAN_1
 62
     2
  6
CONTINUOUS
 10
-0.519071
 20
2.402945
  0
VERTEX
  8
PLAN_1
 62
     2
  6
CONTINUOUS
 10
-0.516689
 20
2.399614
  0
VERTEX
  8
PLAN_1
 62
     2
  6
CONTINUOUS
 10
-0.514307
 20
2.395803
  0
VERTEX
  8
PLAN_1
 62
     2
  6
CONTINUOUS
 10
-0.512402
 20
2.391992
  0
VERTEX
  8
PLAN_1
 62
     2
  6
CONTINUOUS
 10
-0.508114
 20
2.384370
  0
VERTEX
  8
PLAN_1
 62
     2
  6
CONTINUOUS
 10
-0.506209
 20
2.381035
  0
VERTEX
  8
PLAN_1
 62
     2
  6
CONTINUOUS
 10
-0.503827
 20
2.378177
  0
VERTEX
  8
PLAN_1
 62
     2
  6
CONTINUOUS
 10
-0.501921
 20
2.375795
  0
VERTEX
  8
PLAN_1
 62
     2
  6
CONTINUOUS
 10
-0.500020
 20
2.374366
  0
VERTEX
  8
PLAN_1
 62
     2
  6
CONTINUOUS
 10
-0.498114
 20
2.372937
  0
VERTEX
  8
PLAN_1
 62
     2
  6
CONTINUOUS
 10
-0.496685
 20
2.372461
  0
VERTEX
  8
PLAN_1
 62
     2
  6
CONTINUOUS
 10
-0.495256
 20
2.371984
  0
VERTEX
  8
PLAN_1
 62
     2
  6
CONTINUOUS
 10
-0.493827
 20
2.371508
  0
VERTEX
  8
PLAN_1
 62
     2
  6
CONTINUOUS
 10
-0.493827
 20
2.411520
  0
VERTEX
  8
PLAN_1
 62
     2
  6
CONTINUOUS
 10
-0.485252
 20
2.411520
  0
VERTEX
  8
PLAN_1
 62
     2
  6
CONTINUOUS
 10
-0.485252
 20
2.361508
  0
VERTEX
  8
PLAN_1
 62
     2
  6
CONTINUOUS
 10
-0.490969
 20
2.361984
  0
VERTEX
  8
PLAN_1
 62
     2
  6
CONTINUOUS
 10
-0.495732
 20
2.362937
  0
VERTEX
  8
PLAN_1
 62
     2
  6
CONTINUOUS
 10
-0.499543
 20
2.364366
  0
VERTEX
  8
PLAN_1
 62
     2
  6
CONTINUOUS
 10
-0.503350
 20
2.366272
  0
VERTEX
  8
PLAN_1
 62
     2
  6
CONTINUOUS
 10
-0.506685
 20
2.369126
  0
VERTEX
  8
PLAN_1
 62
     2
  6
CONTINUOUS
 10
-0.509543
 20
2.371984
  0
VERTEX
  8
PLAN_1
 62
     2
  6
CONTINUOUS
 10
-0.512402
 20
2.374843
  0
VERTEX
  8
PLAN_1
 62
     2
  6
CONTINUOUS
 10
-0.514307
 20
2.378654
  0
VERTEX
  8
PLAN_1
 62
     2
  6
CONTINUOUS
 10
-0.520024
 20
2.388181
  0
VERTEX
  8
PLAN_1
 62
     2
  6
CONTINUOUS
 10
-0.521453
 20
2.391039
  0
VERTEX
  8
PLAN_1
 62
     2
  6
CONTINUOUS
 10
-0.523358
 20
2.393421
  0
VERTEX
  8
PLAN_1
 62
     2
  6
CONTINUOUS
 10
-0.524787
 20
2.395803
  0
VERTEX
  8
PLAN_1
 62
     2
  6
CONTINUOUS
 10
-0.526693
 20
2.397709
  0
VERTEX
  8
PLAN_1
 62
     2
  6
CONTINUOUS
 10
-0.528598
 20
2.399614
  0
VERTEX
  8
PLAN_1
 62
     2
  6
CONTINUOUS
 10
-0.530980
 20
2.400563
  0
VERTEX
  8
PLAN_1
 62
     2
  6
CONTINUOUS
 10
-0.533835
 20
2.401516
  0
VERTEX
  8
PLAN_1
 62
     2
  6
CONTINUOUS
 10
-0.537169
 20
2.401516
  0
VERTEX
  8
PLAN_1
 62
     2
  6
CONTINUOUS
 10
-0.539551
 20
2.401516
  0
VERTEX
  8
PLAN_1
 62
     2
  6
CONTINUOUS
 10
-0.541457
 20
2.401039
  0
VERTEX
  8
PLAN_1
 62
     2
  6
CONTINUOUS
 10
-0.543839
 20
2.399614
  0
VERTEX
  8
PLAN_1
 62
     2
  6
CONTINUOUS
 10
-0.545744
 20
2.398185
  0
VERTEX
  8
PLAN_1
 62
     2
  6
CONTINUOUS
 10
-0.547650
 20
2.396280
  0
VERTEX
  8
PLAN_1
 62
     2
  6
CONTINUOUS
 10
-0.549079
 20
2.393898
  0
VERTEX
  8
PLAN_1
 62
     2
  6
CONTINUOUS
 10
-0.550031
 20
2.391039
  0
VERTEX
  8
PLAN_1
 62
     2
  6
CONTINUOUS
 10
-0.550508
 20
2.387228
  0
VERTEX
  8
PLAN_1
 62
     2
  6
CONTINUOUS
 10
-0.550031
 20
2.384846
  0
VERTEX
  8
PLAN_1
 62
     2
  6
CONTINUOUS
 10
-0.549555
 20
2.382465
  0
VERTEX
  8
PLAN_1
 62
     2
  6
CONTINUOUS
 10
-0.549079
 20
2.380559
  0
VERTEX
  8
PLAN_1
 62
     2
  6
CONTINUOUS
 10
-0.548126
 20
2.379130
  0
VERTEX
  8
PLAN_1
 62
     2
  6
CONTINUOUS
 10
-0.545744
 20
2.376272
  0
VERTEX
  8
PLAN_1
 62
     2
  6
CONTINUOUS
 10
-0.543362
 20
2.374843
  0
VERTEX
  8
PLAN_1
 62
     2
  6
CONTINUOUS
 10
-0.540504
 20
2.373413
  0
VERTEX
  8
PLAN_1
 62
     2
  6
CONTINUOUS
 10
-0.537169
 20
2.372937
  0
VERTEX
  8
PLAN_1
 62
     2
  6
CONTINUOUS
 10
-0.534787
 20
2.372461
  0
VERTEX
  8
PLAN_1
 62
     2
  6
CONTINUOUS
 10
-0.532409
 20
2.372461
  0
VERTEX
  8
PLAN_1
 62
     2
  6
CONTINUOUS
 10
-0.532409
 20
2.363413
  0
SEQEND
  8
0
  0
POLYLINE
  8
PLAN_1
 62
     2
  6
CONTINUOUS
 66
     1
 40
0.003000
 41
0.003000
  0
VERTEX
  8
PLAN_1
 62
     2
  6
CONTINUOUS
 10
-0.533358
 20
2.421047
  0
VERTEX
  8
PLAN_1
 62
     2
  6
CONTINUOUS
 10
-0.538598
 20
2.421047
  0
VERTEX
  8
PLAN_1
 62
     2
  6
CONTINUOUS
 10
-0.542886
 20
2.422476
  0
VERTEX
  8
PLAN_1
 62
     2
  6
CONTINUOUS
 10
-0.547173
 20
2.424382
  0
VERTEX
  8
PLAN_1
 62
     2
  6
CONTINUOUS
 10
-0.550984
 20
2.426764
  0
VERTEX
  8
PLAN_1
 62
     2
  6
CONTINUOUS
 10
-0.552890
 20
2.428669
  0
VERTEX
  8
PLAN_1
 62
     2
  6
CONTINUOUS
 10
-0.554319
 20
2.430098
  0
VERTEX
  8
PLAN_1
 62
     2
  6
CONTINUOUS
 10
-0.555272
 20
2.432004
  0
VERTEX
  8
PLAN_1
 62
     2
  6
CONTINUOUS
 10
-0.556701
 20
2.434382
  0
VERTEX
  8
PLAN_1
 62
     2
  6
CONTINUOUS
 10
-0.557177
 20
2.436287
  0
VERTEX
  8
PLAN_1
 62
     2
  6
CONTINUOUS
 10
-0.558130
 20
2.439146
  0
VERTEX
  8
PLAN_1
 62
     2
  6
CONTINUOUS
 10
-0.558606
 20
2.441528
  0
VERTEX
  8
PLAN_1
 62
     2
  6
CONTINUOUS
 10
-0.558606
 20
2.444386
  0
VERTEX
  8
PLAN_1
 62
     2
  6
CONTINUOUS
 10
-0.558130
 20
2.448673
  0
VERTEX
  8
PLAN_1
 62
     2
  6
CONTINUOUS
 10
-0.557654
 20
2.452008
  0
VERTEX
  8
PLAN_1
 62
     2
  6
CONTINUOUS
 10
-0.556224
 20
2.455343
  0
VERTEX
  8
PLAN_1
 62
     2
  6
CONTINUOUS
 10
-0.554795
 20
2.458201
  0
VERTEX
  8
PLAN_1
 62
     2
  6
CONTINUOUS
 10
-0.552890
 20
2.460583
  0
VERTEX
  8
PLAN_1
 62
     2
  6
CONTINUOUS
 10
-0.550984
 20
2.462965
  0
VERTEX
  8
PLAN_1
 62
     2
  6
CONTINUOUS
 10
-0.548602
 20
2.464394
  0
VERTEX
  8
PLAN_1
 62
     2
  6
CONTINUOUS
 10
-0.546220
 20
2.465823
  0
VERTEX
  8
PLAN_1
 62
     2
  6
CONTINUOUS
 10
-0.540504
 20
2.468201
  0
VERTEX
  8
PLAN_1
 62
     2
  6
CONTINUOUS
 10
-0.534787
 20
2.469154
  0
VERTEX
  8
PLAN_1
 62
     2
  6
CONTINUOUS
 10
-0.529551
 20
2.469630
  0
VERTEX
  8
PLAN_1
 62
     2
  6
CONTINUOUS
 10
-0.524787
 20
2.470106
  0
VERTEX
  8
PLAN_1
 62
     2
  6
CONTINUOUS
 10
-0.520500
 20
2.470106
  0
VERTEX
  8
PLAN_1
 62
     2
  6
CONTINUOUS
 10
-0.514783
 20
2.469154
  0
VERTEX
  8
PLAN_1
 62
     2
  6
CONTINUOUS
 10
-0.508114
 20
2.468201
  0
VERTEX
  8
PLAN_1
 62
     2
  6
CONTINUOUS
 10
-0.500969
 20
2.466299
  0
VERTEX
  8
PLAN_1
 62
     2
  6
CONTINUOUS
 10
-0.497638
 20
2.464870
  0
VERTEX
  8
PLAN_1
 62
     2
  6
CONTINUOUS
 10
-0.494303
 20
2.462965
  0
VERTEX
  8
PLAN_1
 62
     2
  6
CONTINUOUS
 10
-0.491445
 20
2.460583
  0
VERTEX
  8
PLAN_1
 62
     2
  6
CONTINUOUS
 10
-0.488587
 20
2.458201
  0
VERTEX
  8
PLAN_1
 62
     2
  6
CONTINUOUS
 10
-0.486681
 20
2.455343
  0
VERTEX
  8
PLAN_1
 62
     2
  6
CONTINUOUS
 10
-0.484776
 20
2.452008
  0
VERTEX
  8
PLAN_1
 62
     2
  6
CONTINUOUS
 10
-0.483823
 20
2.447720
  0
VERTEX
  8
PLAN_1
 62
     2
  6
CONTINUOUS
 10
-0.483346
 20
2.443433
  0
VERTEX
  8
PLAN_1
 62
     2
  6
CONTINUOUS
 10
-0.483346
 20
2.440575
  0
VERTEX
  8
PLAN_1
 62
     2
  6
CONTINUOUS
 10
-0.483823
 20
2.437717
  0
VERTEX
  8
PLAN_1
 62
     2
  6
CONTINUOUS
 10
-0.484776
 20
2.434858
  0
VERTEX
  8
PLAN_1
 62
     2
  6
CONTINUOUS
 10
-0.485728
 20
2.432957
  0
VERTEX
  8
PLAN_1
 62
     2
  6
CONTINUOUS
 10
-0.486681
 20
2.431051
  0
VERTEX
  8
PLAN_1
 62
     2
  6
CONTINUOUS
 10
-0.487634
 20
2.429146
  0
VERTEX
  8
PLAN_1
 62
     2
  6
CONTINUOUS
 10
-0.489063
 20
2.427717
  0
VERTEX
  8
PLAN_1
 62
     2
  6
CONTINUOUS
 10
-0.490492
 20
2.426287
  0
VERTEX
  8
PLAN_1
 62
     2
  6
CONTINUOUS
 10
-0.493827
 20
2.423906
  0
VERTEX
  8
PLAN_1
 62
     2
  6
CONTINUOUS
 10
-0.497161
 20
2.422476
  0
VERTEX
  8
PLAN_1
 62
     2
  6
CONTINUOUS
 10
-0.500020
 20
2.422000
  0
VERTEX
  8
PLAN_1
 62
     2
  6
CONTINUOUS
 10
-0.502874
 20
2.421524
  0
VERTEX
  8
PLAN_1
 62
     2
  6
CONTINUOUS
 10
-0.502874
 20
2.431051
  0
VERTEX
  8
PLAN_1
 62
     2
  6
CONTINUOUS
 10
-0.500492
 20
2.431051
  0
VERTEX
  8
PLAN_1
 62
     2
  6
CONTINUOUS
 10
-0.498114
 20
2.432004
  0
VERTEX
  8
PLAN_1
 62
     2
  6
CONTINUOUS
 10
-0.495732
 20
2.432957
  0
VERTEX
  8
PLAN_1
 62
     2
  6
CONTINUOUS
 10
-0.494303
 20
2.434382
  0
VERTEX
  8
PLAN_1
 62
     2
  6
CONTINUOUS
 10
-0.492874
 20
2.436287
  0
VERTEX
  8
PLAN_1
 62
     2
  6
CONTINUOUS
 10
-0.491921
 20
2.438193
  0
VERTEX
  8
PLAN_1
 62
     2
  6
CONTINUOUS
 10
-0.491445
 20
2.440575
  0
VERTEX
  8
PLAN_1
 62
     2
  6
CONTINUOUS
 10
-0.490969
 20
2.443433
  0
VERTEX
  8
PLAN_1
 62
     2
  6
CONTINUOUS
 10
-0.491445
 20
2.446768
  0
VERTEX
  8
PLAN_1
 62
     2
  6
CONTINUOUS
 10
-0.492874
 20
2.450102
  0
VERTEX
  8
PLAN_1
 62
     2
  6
CONTINUOUS
 10
-0.494780
 20
2.452484
  0
VERTEX
  8
PLAN_1
 62
     2
  6
CONTINUOUS
 10
-0.497638
 20
2.454866
  0
VERTEX
  8
PLAN_1
 62
     2
  6
CONTINUOUS
 10
-0.501445
 20
2.456772
  0
VERTEX
  8
PLAN_1
 62
     2
  6
CONTINUOUS
 10
-0.506209
 20
2.458677
  0
VERTEX
  8
PLAN_1
 62
     2
  6
CONTINUOUS
 10
-0.511925
 20
2.459630
  0
VERTEX
  8
PLAN_1
 62
     2
  6
CONTINUOUS
 10
-0.518594
 20
2.461059
  0
VERTEX
  8
PLAN_1
 62
     2
  6
CONTINUOUS
 10
-0.518594
 20
2.460583
  0
VERTEX
  8
PLAN_1
 62
     2
  6
CONTINUOUS
 10
-0.516689
 20
2.459630
  0
VERTEX
  8
PLAN_1
 62
     2
  6
CONTINUOUS
 10
-0.514783
 20
2.457724
  0
VERTEX
  8
PLAN_1
 62
     2
  6
CONTINUOUS
 10
-0.513354
 20
2.455819
  0
VERTEX
  8
PLAN_1
 62
     2
  6
CONTINUOUS
 10
-0.511925
 20
2.453913
  0
VERTEX
  8
PLAN_1
 62
     2
  6
CONTINUOUS
 10
-0.510972
 20
2.451531
  0
VERTEX
  8
PLAN_1
 62
     2
  6
CONTINUOUS
 10
-0.510496
 20
2.449150
  0
VERTEX
  8
PLAN_1
 62
     2
  6
CONTINUOUS
 10
-0.510020
 20
2.446291
  0
VERTEX
  8
PLAN_1
 62
     2
  6
CONTINUOUS
 10
-0.510020
 20
2.443909
  0
VERTEX
  8
PLAN_1
 62
     2
  6
CONTINUOUS
 10
-0.510496
 20
2.439146
  0
VERTEX
  8
PLAN_1
 62
     2
  6
CONTINUOUS
 10
-0.511449
 20
2.434382
  0
VERTEX
  8
PLAN_1
 62
     2
  6
CONTINUOUS
 10
-0.513354
 20
2.430575
  0
VERTEX
  8
PLAN_1
 62
     2
  6
CONTINUOUS
 10
-0.516213
 20
2.427240
  0
VERTEX
  8
PLAN_1
 62
     2
  6
CONTINUOUS
 10
-0.519547
 20
2.424382
  0
VERTEX
  8
PLAN_1
 62
     2
  6
CONTINUOUS
 10
-0.523835
 20
2.422476
  0
VERTEX
  8
PLAN_1
 62
     2
  6
CONTINUOUS
 10
-0.528122
 20
2.421524
  0
VERTEX
  8
PLAN_1
 62
     2
  6
CONTINUOUS
 10
-0.533358
 20
2.421047
  0
SEQEND
  8
0
  0
POLYLINE
  8
PLAN_1
 62
     2
  6
CONTINUOUS
 66
     1
 40
0.003000
 41
0.003000
  0
VERTEX
  8
PLAN_1
 62
     2
  6
CONTINUOUS
 10
-0.534787
 20
2.459154
  0
VERTEX
  8
PLAN_1
 62
     2
  6
CONTINUOUS
 10
-0.537646
 20
2.459154
  0
VERTEX
  8
PLAN_1
 62
     2
  6
CONTINUOUS
 10
-0.540504
 20
2.458677
  0
VERTEX
  8
PLAN_1
 62
     2
  6
CONTINUOUS
 10
-0.543362
 20
2.457248
  0
VERTEX
  8
PLAN_1
 62
     2
  6
CONTINUOUS
 10
-0.545744
 20
2.455819
  0
VERTEX
  8
PLAN_1
 62
     2
  6
CONTINUOUS
 10
-0.547650
 20
2.453913
  0
VERTEX
  8
PLAN_1
 62
     2
  6
CONTINUOUS
 10
-0.549079
 20
2.451055
  0
VERTEX
  8
PLAN_1
 62
     2
  6
CONTINUOUS
 10
-0.550031
 20
2.448197
  0
VERTEX
  8
PLAN_1
 62
     2
  6
CONTINUOUS
 10
-0.550508
 20
2.444386
  0
VERTEX
  8
PLAN_1
 62
     2
  6
CONTINUOUS
 10
-0.550031
 20
2.441528
  0
VERTEX
  8
PLAN_1
 62
     2
  6
CONTINUOUS
 10
-0.549079
 20
2.438669
  0
VERTEX
  8
PLAN_1
 62
     2
  6
CONTINUOUS
 10
-0.547650
 20
2.436287
  0
VERTEX
  8
PLAN_1
 62
     2
  6
CONTINUOUS
 10
-0.545744
 20
2.434382
  0
VERTEX
  8
PLAN_1
 62
     2
  6
CONTINUOUS
 10
-0.543362
 20
2.432480
  0
VERTEX
  8
PLAN_1
 62
     2
  6
CONTINUOUS
 10
-0.540504
 20
2.431528
  0
VERTEX
  8
PLAN_1
 62
     2
  6
CONTINUOUS
 10
-0.537169
 20
2.430575
  0
VERTEX
  8
PLAN_1
 62
     2
  6
CONTINUOUS
 10
-0.533835
 20
2.430575
  0
VERTEX
  8
PLAN_1
 62
     2
  6
CONTINUOUS
 10
-0.529075
 20
2.430575
  0
VERTEX
  8
PLAN_1
 62
     2
  6
CONTINUOUS
 10
-0.525264
 20
2.432004
  0
VERTEX
  8
PLAN_1
 62
     2
  6
CONTINUOUS
 10
-0.522882
 20
2.433433
  0
VERTEX
  8
PLAN_1
 62
     2
  6
CONTINUOUS
 10
-0.520500
 20
2.435335
  0
VERTEX
  8
PLAN_1
 62
     2
  6
CONTINUOUS
 10
-0.519547
 20
2.437717
  0
VERTEX
  8
PLAN_1
 62
     2
  6
CONTINUOUS
 10
-0.518594
 20
2.440098
  0
VERTEX
  8
PLAN_1
 62
     2
  6
CONTINUOUS
 10
-0.518118
 20
2.442957
  0
VERTEX
  8
PLAN_1
 62
     2
  6
CONTINUOUS
 10
-0.518118
 20
2.445339
  0
VERTEX
  8
PLAN_1
 62
     2
  6
CONTINUOUS
 10
-0.518118
 20
2.447244
  0
VERTEX
  8
PLAN_1
 62
     2
  6
CONTINUOUS
 10
-0.518594
 20
2.449626
  0
VERTEX
  8
PLAN_1
 62
     2
  6
CONTINUOUS
 10
-0.519547
 20
2.452008
  0
VERTEX
  8
PLAN_1
 62
     2
  6
CONTINUOUS
 10
-0.520976
 20
2.453913
  0
VERTEX
  8
PLAN_1
 62
     2
  6
CONTINUOUS
 10
-0.522882
 20
2.456295
  0
VERTEX
  8
PLAN_1
 62
     2
  6
CONTINUOUS
 10
-0.526217
 20
2.457724
  0
VERTEX
  8
PLAN_1
 62
     2
  6
CONTINUOUS
 10
-0.530028
 20
2.458677
  0
VERTEX
  8
PLAN_1
 62
     2
  6
CONTINUOUS
 10
-0.534787
 20
2.459154
  0
SEQEND
  8
0
  0
POLYLINE
  8
PLAN_1
 62
     2
  6
CONTINUOUS
 66
     1
 40
0.003000
 41
0.003000
  0
VERTEX
  8
PLAN_1
 62
     2
  6
CONTINUOUS
 10
-0.485252
 20
2.483445
  0
VERTEX
  8
PLAN_1
 62
     2
  6
CONTINUOUS
 10
-0.485252
 20
2.489161
  0
VERTEX
  8
PLAN_1
 62
     2
  6
CONTINUOUS
 10
-0.483346
 20
2.489161
  0
VERTEX
  8
PLAN_1
 62
     2
  6
CONTINUOUS
 10
-0.481917
 20
2.488685
  0
VERTEX
  8
PLAN_1
 62
     2
  6
CONTINUOUS
 10
-0.480012
 20
2.488209
  0
VERTEX
  8
PLAN_1
 62
     2
  6
CONTINUOUS
 10
-0.478583
 20
2.487732
  0
VERTEX
  8
PLAN_1
 62
     2
  6
CONTINUOUS
 10
-0.477154
 20
2.487256
  0
VERTEX
  8
PLAN_1
 62
     2
  6
CONTINUOUS
 10
-0.476201
 20
2.486303
  0
VERTEX
  8
PLAN_1
 62
     2
  6
CONTINUOUS
 10
-0.475248
 20
2.484874
  0
VERTEX
  8
PLAN_1
 62
     2
  6
CONTINUOUS
 10
-0.474772
 20
2.483445
  0
VERTEX
  8
PLAN_1
 62
     2
  6
CONTINUOUS
 10
-0.470008
 20
2.483445
  0
VERTEX
  8
PLAN_1
 62
     2
  6
CONTINUOUS
 10
-0.470484
 20
2.484398
  0
VERTEX
  8
PLAN_1
 62
     2
  6
CONTINUOUS
 10
-0.470961
 20
2.485827
  0
VERTEX
  8
PLAN_1
 62
     2
  6
CONTINUOUS
 10
-0.471437
 20
2.487732
  0
VERTEX
  8
PLAN_1
 62
     2
  6
CONTINUOUS
 10
-0.472866
 20
2.489638
  0
VERTEX
  8
PLAN_1
 62
     2
  6
CONTINUOUS
 10
-0.474772
 20
2.491543
  0
VERTEX
  8
PLAN_1
 62
     2
  6
CONTINUOUS
 10
-0.477630
 20
2.492972
  0
VERTEX
  8
PLAN_1
 62
     2
  6
CONTINUOUS
 10
-0.481441
 20
2.493925
  0
VERTEX
  8
PLAN_1
 62
     2
  6
CONTINUOUS
 10
-0.486205
 20
2.494402
  0
VERTEX
  8
PLAN_1
 62
     2
  6
CONTINUOUS
 10
-0.496209
 20
2.494402
  0
VERTEX
  8
PLAN_1
 62
     2
  6
CONTINUOUS
 10
-0.496209
 20
2.483445
  0
VERTEX
  8
PLAN_1
 62
     2
  6
CONTINUOUS
 10
-0.485252
 20
2.483445
  0
SEQEND
  8
0
  0
POLYLINE
  8
PLAN_1
 62
     2
  6
CONTINUOUS
 66
     1
 40
0.003000
 41
0.003000
  0
VERTEX
  8
PLAN_1
 62
     2
  6
CONTINUOUS
 10
-0.528122
 20
2.518693
  0
VERTEX
  8
PLAN_1
 62
     2
  6
CONTINUOUS
 10
-0.529075
 20
2.519646
  0
VERTEX
  8
PLAN_1
 62
     2
  6
CONTINUOUS
 10
-0.529551
 20
2.521075
  0
VERTEX
  8
PLAN_1
 62
     2
  6
CONTINUOUS
 10
-0.530504
 20
2.522980
  0
VERTEX
  8
PLAN_1
 62
     2
  6
CONTINUOUS
 10
-0.530980
 20
2.524409
  0
VERTEX
  8
PLAN_1
 62
     2
  6
CONTINUOUS
 10
-0.531933
 20
2.526315
  0
VERTEX
  8
PLAN_1
 62
     2
  6
CONTINUOUS
 10
-0.531933
 20
2.528220
  0
VERTEX
  8
PLAN_1
 62
     2
  6
CONTINUOUS
 10
-0.532409
 20
2.530602
  0
VERTEX
  8
PLAN_1
 62
     2
  6
CONTINUOUS
 10
-0.532409
 20
2.532980
  0
VERTEX
  8
PLAN_1
 62
     2
  6
CONTINUOUS
 10
-0.531933
 20
2.537268
  0
VERTEX
  8
PLAN_1
 62
     2
  6
CONTINUOUS
 10
-0.530980
 20
2.541555
  0
VERTEX
  8
PLAN_1
 62
     2
  6
CONTINUOUS
 10
-0.529075
 20
2.545843
  0
VERTEX
  8
PLAN_1
 62
     2
  6
CONTINUOUS
 10
-0.526693
 20
2.549177
  0
VERTEX
  8
PLAN_1
 62
     2
  6
CONTINUOUS
 10
-0.524787
 20
2.551083
  0
VERTEX
  8
PLAN_1
 62
     2
  6
CONTINUOUS
 10
-0.523358
 20
2.552512
  0
VERTEX
  8
PLAN_1
 62
     2
  6
CONTINUOUS
 10
-0.521453
 20
2.553465
  0
VERTEX
  8
PLAN_1
 62
     2
  6
CONTINUOUS
 10
-0.519071
 20
2.554894
  0
VERTEX
  8
PLAN_1
 62
     2
  6
CONTINUOUS
 10
-0.516689
 20
2.555846
  0
VERTEX
  8
PLAN_1
 62
     2
  6
CONTINUOUS
 10
-0.514307
 20
2.556323
  0
VERTEX
  8
PLAN_1
 62
     2
  6
CONTINUOUS
 10
-0.511925
 20
2.556799
  0
VERTEX
  8
PLAN_1
 62
     2
  6
CONTINUOUS
 10
-0.509067
 20
2.556799
  0
VERTEX
  8
PLAN_1
 62
     2
  6
CONTINUOUS
 10
-0.505732
 20
2.556799
  0
VERTEX
  8
PLAN_1
 62
     2
  6
CONTINUOUS
 10
-0.501921
 20
2.555846
  0
VERTEX
  8
PLAN_1
 62
     2
  6
CONTINUOUS
 10
-0.497638
 20
2.554417
  0
VERTEX
  8
PLAN_1
 62
     2
  6
CONTINUOUS
 10
-0.493350
 20
2.552035
  0
VERTEX
  8
PLAN_1
 62
     2
  6
CONTINUOUS
 10
-0.491445
 20
2.550606
  0
VERTEX
  8
PLAN_1
 62
     2
  6
CONTINUOUS
 10
-0.489539
 20
2.548701
  0
VERTEX
  8
PLAN_1
 62
     2
  6
CONTINUOUS
 10
-0.487634
 20
2.546795
  0
VERTEX
  8
PLAN_1
 62
     2
  6
CONTINUOUS
 10
-0.486205
 20
2.543937
  0
VERTEX
  8
PLAN_1
 62
     2
  6
CONTINUOUS
 10
-0.485252
 20
2.541079
  0
VERTEX
  8
PLAN_1
 62
     2
  6
CONTINUOUS
 10
-0.484299
 20
2.538220
  0
VERTEX
  8
PLAN_1
 62
     2
  6
CONTINUOUS
 10
-0.483823
 20
2.534409
  0
VERTEX
  8
PLAN_1
 62
     2
  6
CONTINUOUS
 10
-0.483346
 20
2.530126
  0
VERTEX
  8
PLAN_1
 62
     2
  6
CONTINUOUS
 10
-0.483823
 20
2.526791
  0
VERTEX
  8
PLAN_1
 62
     2
  6
CONTINUOUS
 10
-0.484299
 20
2.522980
  0
VERTEX
  8
PLAN_1
 62
     2
  6
CONTINUOUS
 10
-0.485728
 20
2.519169
  0
VERTEX
  8
PLAN_1
 62
     2
  6
CONTINUOUS
 10
-0.487634
 20
2.515358
  0
VERTEX
  8
PLAN_1
 62
     2
  6
CONTINUOUS
 10
-0.488587
 20
2.513929
  0
VERTEX
  8
PLAN_1
 62
     2
  6
CONTINUOUS
 10
-0.490016
 20
2.512500
  0
VERTEX
  8
PLAN_1
 62
     2
  6
CONTINUOUS
 10
-0.491921
 20
2.511071
  0
VERTEX
  8
PLAN_1
 62
     2
  6
CONTINUOUS
 10
-0.493350
 20
2.509642
  0
VERTEX
  8
PLAN_1
 62
     2
  6
CONTINUOUS
 10
-0.495732
 20
2.508689
  0
VERTEX
  8
PLAN_1
 62
     2
  6
CONTINUOUS
 10
-0.498114
 20
2.507736
  0
VERTEX
  8
PLAN_1
 62
     2
  6
CONTINUOUS
 10
-0.500492
 20
2.507260
  0
VERTEX
  8
PLAN_1
 62
     2
  6
CONTINUOUS
 10
-0.503827
 20
2.506783
  0
VERTEX
  8
PLAN_1
 62
     2
  6
CONTINUOUS
 10
-0.503827
 20
2.516311
  0
VERTEX
  8
PLAN_1
 62
     2
  6
CONTINUOUS
 10
-0.500492
 20
2.516787
  0
VERTEX
  8
PLAN_1
 62
     2
  6
CONTINUOUS
 10
-0.498114
 20
2.517740
  0
VERTEX
  8
PLAN_1
 62
     2
  6
CONTINUOUS
 10
-0.496209
 20
2.519169
  0
VERTEX
  8
PLAN_1
 62
     2
  6
CONTINUOUS
 10
-0.494303
 20
2.521075
  0
VERTEX
  8
PLAN_1
 62
     2
  6
CONTINUOUS
 10
-0.492874
 20
2.523457
  0
VERTEX
  8
PLAN_1
 62
     2
  6
CONTINUOUS
 10
-0.491921
 20
2.525839
  0
VERTEX
  8
PLAN_1
 62
     2
  6
CONTINUOUS
 10
-0.491445
 20
2.528697
  0
VERTEX
  8
PLAN_1
 62
     2
  6
CONTINUOUS
 10
-0.491445
 20
2.531555
  0
VERTEX
  8
PLAN_1
 62
     2
  6
CONTINUOUS
 10
-0.491921
 20
2.534886
  0
VERTEX
  8
PLAN_1
 62
     2
  6
CONTINUOUS
 10
-0.492874
 20
2.538220
  0
VERTEX
  8
PLAN_1
 62
     2
  6
CONTINUOUS
 10
-0.494303
 20
2.540602
  0
VERTEX
  8
PLAN_1
 62
     2
  6
CONTINUOUS
 10
-0.496209
 20
2.542984
  0
VERTEX
  8
PLAN_1
 62
     2
  6
CONTINUOUS
 10
-0.498591
 20
2.544890
  0
VERTEX
  8
PLAN_1
 62
     2
  6
CONTINUOUS
 10
-0.501445
 20
2.545843
  0
VERTEX
  8
PLAN_1
 62
     2
  6
CONTINUOUS
 10
-0.504780
 20
2.546795
  0
VERTEX
  8
PLAN_1
 62
     2
  6
CONTINUOUS
 10
-0.508114
 20
2.547272
  0
VERTEX
  8
PLAN_1
 62
     2
  6
CONTINUOUS
 10
-0.511925
 20
2.546795
  0
VERTEX
  8
PLAN_1
 62
     2
  6
CONTINUOUS
 10
-0.515260
 20
2.545843
  0
VERTEX
  8
PLAN_1
 62
     2
  6
CONTINUOUS
 10
-0.517642
 20
2.544413
  0
VERTEX
  8
PLAN_1
 62
     2
  6
CONTINUOUS
 10
-0.520024
 20
2.542508
  0
VERTEX
  8
PLAN_1
 62
     2
  6
CONTINUOUS
 10
-0.521929
 20
2.540126
  0
VERTEX
  8
PLAN_1
 62
     2
  6
CONTINUOUS
 10
-0.523358
 20
2.537268
  0
VERTEX
  8
PLAN_1
 62
     2
  6
CONTINUOUS
 10
-0.523835
 20
2.533933
  0
VERTEX
  8
PLAN_1
 62
     2
  6
CONTINUOUS
 10
-0.524311
 20
2.530602
  0
VERTEX
  8
PLAN_1
 62
     2
  6
CONTINUOUS
 10
-0.524311
 20
2.528697
  0
VERTEX
  8
PLAN_1
 62
     2
  6
CONTINUOUS
 10
-0.523835
 20
2.526791
  0
VERTEX
  8
PLAN_1
 62
     2
  6
CONTINUOUS
 10
-0.523358
 20
2.524886
  0
VERTEX
  8
PLAN_1
 62
     2
  6
CONTINUOUS
 10
-0.522406
 20
2.523457
  0
VERTEX
  8
PLAN_1
 62
     2
  6
CONTINUOUS
 10
-0.521453
 20
2.521551
  0
VERTEX
  8
PLAN_1
 62
     2
  6
CONTINUOUS
 10
-0.520500
 20
2.520122
  0
VERTEX
  8
PLAN_1
 62
     2
  6
CONTINUOUS
 10
-0.519071
 20
2.518693
  0
VERTEX
  8
PLAN_1
 62
     2
  6
CONTINUOUS
 10
-0.517165
 20
2.517264
  0
VERTEX
  8
PLAN_1
 62
     2
  6
CONTINUOUS
 10
-0.517642
 20
2.509165
  0
VERTEX
  8
PLAN_1
 62
     2
  6
CONTINUOUS
 10
-0.557177
 20
2.514882
  0
VERTEX
  8
PLAN_1
 62
     2
  6
CONTINUOUS
 10
-0.557177
 20
2.552988
  0
VERTEX
  8
PLAN_1
 62
     2
  6
CONTINUOUS
 10
-0.548126
 20
2.552988
  0
VERTEX
  8
PLAN_1
 62
     2
  6
CONTINUOUS
 10
-0.548126
 20
2.521551
  0
VERTEX
  8
PLAN_1
 62
     2
  6
CONTINUOUS
 10
-0.528122
 20
2.518693
  0
SEQEND
  8
0
  0
SOLID
  8
PLAN_1
 62
     2
 10
-0.485252
 20
2.581091
 11
-0.485252
 21
2.570134
 12
-0.496209
 22
2.581091
 13
-0.496209
 23
2.570134
  0
POLYLINE
  8
PLAN_1
 62
     2
  6
CONTINUOUS
 66
     1
 40
0.003000
 41
0.003000
  0
VERTEX
  8
PLAN_1
 62
     2
  6
CONTINUOUS
 10
-0.485252
 20
2.581091
  0
VERTEX
  8
PLAN_1
 62
     2
  6
CONTINUOUS
 10
-0.485252
 20
2.570134
  0
VERTEX
  8
PLAN_1
 62
     2
  6
CONTINUOUS
 10
-0.496209
 20
2.570134
  0
VERTEX
  8
PLAN_1
 62
     2
  6
CONTINUOUS
 10
-0.496209
 20
2.581091
  0
VERTEX
  8
PLAN_1
 62
     2
  6
CONTINUOUS
 10
-0.485252
 20
2.581091
  0
SEQEND
  8
0
  0
SOLID
  8
PLAN_1
 62
     2
 10
-0.485252
 20
2.610146
 11
-0.485252
 21
2.599193
 12
-0.496209
 22
2.610146
 13
-0.496209
 23
2.599193
  0
POLYLINE
  8
PLAN_1
 62
     2
  6
CONTINUOUS
 66
     1
 40
0.003000
 41
0.003000
  0
VERTEX
  8
PLAN_1
 62
     2
  6
CONTINUOUS
 10
-0.485252
 20
2.610146
  0
VERTEX
  8
PLAN_1
 62
     2
  6
CONTINUOUS
 10
-0.485252
 20
2.599193
  0
VERTEX
  8
PLAN_1
 62
     2
  6
CONTINUOUS
 10
-0.496209
 20
2.599193
  0
VERTEX
  8
PLAN_1
 62
     2
  6
CONTINUOUS
 10
-0.496209
 20
2.610146
  0
VERTEX
  8
PLAN_1
 62
     2
  6
CONTINUOUS
 10
-0.485252
 20
2.610146
  0
SEQEND
  8
0
  0
SOLID
  8
PLAN_1
 62
     2
 10
-0.485252
 20
2.639201
 11
-0.485252
 21
2.628248
 12
-0.496209
 22
2.639201
 13
-0.496209
 23
2.628248
  0
POLYLINE
  8
PLAN_1
 62
     2
  6
CONTINUOUS
 66
     1
 40
0.003000
 41
0.003000
  0
VERTEX
  8
PLAN_1
 62
     2
  6
CONTINUOUS
 10
-0.485252
 20
2.639201
  0
VERTEX
  8
PLAN_1
 62
     2
  6
CONTINUOUS
 10
-0.485252
 20
2.628248
  0
VERTEX
  8
PLAN_1
 62
     2
  6
CONTINUOUS
 10
-0.496209
 20
2.628248
  0
VERTEX
  8
PLAN_1
 62
     2
  6
CONTINUOUS
 10
-0.496209
 20
2.639201
  0
VERTEX
  8
PLAN_1
 62
     2
  6
CONTINUOUS
 10
-0.485252
 20
2.639201
  0
SEQEND
  8
0
  0
POLYLINE
  8
PLAN_1
 62
     2
  6
CONTINUOUS
 66
     1
 40
0.003000
 41
0.003000
  0
VERTEX
  8
PLAN_1
 62
     2
  6
CONTINUOUS
 10
-0.524311
 20
2.689693
  0
VERTEX
  8
PLAN_1
 62
     2
  6
CONTINUOUS
 10
-0.522406
 20
2.693028
  0
VERTEX
  8
PLAN_1
 62
     2
  6
CONTINUOUS
 10
-0.520500
 20
2.695886
  0
VERTEX
  8
PLAN_1
 62
     2
  6
CONTINUOUS
 10
-0.518118
 20
2.697791
  0
VERTEX
  8
PLAN_1
 62
     2
  6
CONTINUOUS
 10
-0.515736
 20
2.699693
  0
VERTEX
  8
PLAN_1
 62
     2
  6
CONTINUOUS
 10
-0.513354
 20
2.700646
  0
VERTEX
  8
PLAN_1
 62
     2
  6
CONTINUOUS
 10
-0.510972
 20
2.701122
  0
VERTEX
  8
PLAN_1
 62
     2
  6
CONTINUOUS
 10
-0.508591
 20
2.701598
  0
VERTEX
  8
PLAN_1
 62
     2
  6
CONTINUOUS
 10
-0.506685
 20
2.702075
  0
VERTEX
  8
PLAN_1
 62
     2
  6
CONTINUOUS
 10
-0.502398
 20
2.701598
  0
VERTEX
  8
PLAN_1
 62
     2
  6
CONTINUOUS
 10
-0.498114
 20
2.700169
  0
VERTEX
  8
PLAN_1
 62
     2
  6
CONTINUOUS
 10
-0.493827
 20
2.698744
  0
VERTEX
  8
PLAN_1
 62
     2
  6
CONTINUOUS
 10
-0.490492
 20
2.695886
  0
VERTEX
  8
PLAN_1
 62
     2
  6
CONTINUOUS
 10
-0.489063
 20
2.694457
  0
VERTEX
  8
PLAN_1
 62
     2
  6
CONTINUOUS
 10
-0.487634
 20
2.692551
  0
VERTEX
  8
PLAN_1
 62
     2
  6
CONTINUOUS
 10
-0.486205
 20
2.690646
  0
VERTEX
  8
PLAN_1
 62
     2
  6
CONTINUOUS
 10
-0.485252
 20
2.688264
  0
VERTEX
  8
PLAN_1
 62
     2
  6
CONTINUOUS
 10
-0.484776
 20
2.685882
  0
VERTEX
  8
PLAN_1
 62
     2
  6
CONTINUOUS
 10
-0.483823
 20
2.683024
  0
VERTEX
  8
PLAN_1
 62
     2
  6
CONTINUOUS
 10
-0.483346
 20
2.680165
  0
VERTEX
  8
PLAN_1
 62
     2
  6
CONTINUOUS
 10
-0.483346
 20
2.677307
  0
VERTEX
  8
PLAN_1
 62
     2
  6
CONTINUOUS
 10
-0.483346
 20
2.675402
  0
VERTEX
  8
PLAN_1
 62
     2
  6
CONTINUOUS
 10
-0.483823
 20
2.673496
  0
VERTEX
  8
PLAN_1
 62
     2
  6
CONTINUOUS
 10
-0.483823
 20
2.671114
  0
VERTEX
  8
PLAN_1
 62
     2
  6
CONTINUOUS
 10
-0.484299
 20
2.668732
  0
VERTEX
  8
PLAN_1
 62
     2
  6
CONTINUOUS
 10
-0.485252
 20
2.666350
  0
VERTEX
  8
PLAN_1
 62
     2
  6
CONTINUOUS
 10
-0.486205
 20
2.663972
  0
VERTEX
  8
PLAN_1
 62
     2
  6
CONTINUOUS
 10
-0.487634
 20
2.661591
  0
VERTEX
  8
PLAN_1
 62
     2
  6
CONTINUOUS
 10
-0.489063
 20
2.659685
  0
VERTEX
  8
PLAN_1
 62
     2
  6
CONTINUOUS
 10
-0.491445
 20
2.656827
  0
VERTEX
  8
PLAN_1
 62
     2
  6
CONTINUOUS
 10
-0.493827
 20
2.655398
  0
VERTEX
  8
PLAN_1
 62
     2
  6
CONTINUOUS
 10
-0.496209
 20
2.653969
  0
VERTEX
  8
PLAN_1
 62
     2
  6
CONTINUOUS
 10
-0.498591
 20
2.653016
  0
VERTEX
  8
PLAN_1
 62
     2
  6
CONTINUOUS
 10
-0.500969
 20
2.652539
  0
VERTEX
  8
PLAN_1
 62
     2
  6
CONTINUOUS
 10
-0.502874
 20
2.652063
  0
VERTEX
  8
PLAN_1
 62
     2
  6
CONTINUOUS
 10
-0.504780
 20
2.652063
  0
VERTEX
  8
PLAN_1
 62
     2
  6
CONTINUOUS
 10
-0.506209
 20
2.652063
  0
VERTEX
  8
PLAN_1
 62
     2
  6
CONTINUOUS
 10
-0.509543
 20
2.652063
  0
VERTEX
  8
PLAN_1
 62
     2
  6
CONTINUOUS
 10
-0.512402
 20
2.653016
  0
VERTEX
  8
PLAN_1
 62
     2
  6
CONTINUOUS
 10
-0.515260
 20
2.653969
  0
VERTEX
  8
PLAN_1
 62
     2
  6
CONTINUOUS
 10
-0.517642
 20
2.655398
  0
VERTEX
  8
PLAN_1
 62
     2
  6
CONTINUOUS
 10
-0.519547
 20
2.657303
  0
VERTEX
  8
PLAN_1
 62
     2
  6
CONTINUOUS
 10
-0.521453
 20
2.659209
  0
VERTEX
  8
PLAN_1
 62
     2
  6
CONTINUOUS
 10
-0.522882
 20
2.661591
  0
VERTEX
  8
PLAN_1
 62
     2
  6
CONTINUOUS
 10
-0.524311
 20
2.664449
  0
VERTEX
  8
PLAN_1
 62
     2
  6
CONTINUOUS
 10
-0.525264
 20
2.662067
  0
VERTEX
  8
PLAN_1
 62
     2
  6
CONTINUOUS
 10
-0.526693
 20
2.660161
  0
VERTEX
  8
PLAN_1
 62
     2
  6
CONTINUOUS
 10
-0.528122
 20
2.658732
  0
VERTEX
  8
PLAN_1
 62
     2
  6
CONTINUOUS
 10
-0.529551
 20
2.657303
  0
VERTEX
  8
PLAN_1
 62
     2
  6
CONTINUOUS
 10
-0.531457
 20
2.655874
  0
VERTEX
  8
PLAN_1
 62
     2
  6
CONTINUOUS
 10
-0.533835
 20
2.655398
  0
VERTEX
  8
PLAN_1
 62
     2
  6
CONTINUOUS
 10
-0.536217
 20
2.654445
  0
VERTEX
  8
PLAN_1
 62
     2
  6
CONTINUOUS
 10
-0.538598
 20
2.654445
  0
VERTEX
  8
PLAN_1
 62
     2
  6
CONTINUOUS
 10
-0.541457
 20
2.654921
  0
VERTEX
  8
PLAN_1
 62
     2
  6
CONTINUOUS
 10
-0.544791
 20
2.655398
  0
VERTEX
  8
PLAN_1
 62
     2
  6
CONTINUOUS
 10
-0.548126
 20
2.656827
  0
VERTEX
  8
PLAN_1
 62
     2
  6
CONTINUOUS
 10
-0.551461
 20
2.659209
  0
VERTEX
  8
PLAN_1
 62
     2
  6
CONTINUOUS
 10
-0.552890
 20
2.660161
  0
VERTEX
  8
PLAN_1
 62
     2
  6
CONTINUOUS
 10
-0.554319
 20
2.662067
  0
VERTEX
  8
PLAN_1
 62
     2
  6
CONTINUOUS
 10
-0.555272
 20
2.663972
  0
VERTEX
  8
PLAN_1
 62
     2
  6
CONTINUOUS
 10
-0.556701
 20
2.665874
  0
VERTEX
  8
PLAN_1
 62
     2
  6
CONTINUOUS
 10
-0.557177
 20
2.668256
  0
VERTEX
  8
PLAN_1
 62
     2
  6
CONTINUOUS
 10
-0.558130
 20
2.670638
  0
VERTEX
  8
PLAN_1
 62
     2
  6
CONTINUOUS
 10
-0.558606
 20
2.673496
  0
VERTEX
  8
PLAN_1
 62
     2
  6
CONTINUOUS
 10
-0.558606
 20
2.676831
  0
VERTEX
  8
PLAN_1
 62
     2
  6
CONTINUOUS
 10
-0.558606
 20
2.679689
  0
VERTEX
  8
PLAN_1
 62
     2
  6
CONTINUOUS
 10
-0.558130
 20
2.682071
  0
VERTEX
  8
PLAN_1
 62
     2
  6
CONTINUOUS
 10
-0.557654
 20
2.684929
  0
VERTEX
  8
PLAN_1
 62
     2
  6
CONTINUOUS
 10
-0.556701
 20
2.686835
  0
VERTEX
  8
PLAN_1
 62
     2
  6
CONTINUOUS
 10
-0.554795
 20
2.691122
  0
VERTEX
  8
PLAN_1
 62
     2
  6
CONTINUOUS
 10
-0.552413
 20
2.693980
  0
VERTEX
  8
PLAN_1
 62
     2
  6
CONTINUOUS
 10
-0.549555
 20
2.696362
  0
VERTEX
  8
PLAN_1
 62
     2
  6
CONTINUOUS
 10
-0.546220
 20
2.697791
  0
VERTEX
  8
PLAN_1
 62
     2
  6
CONTINUOUS
 10
-0.542886
 20
2.698744
  0
VERTEX
  8
PLAN_1
 62
     2
  6
CONTINUOUS
 10
-0.539551
 20
2.699217
  0
VERTEX
  8
PLAN_1
 62
     2
  6
CONTINUOUS
 10
-0.536217
 20
2.698744
  0
VERTEX
  8
PLAN_1
 62
     2
  6
CONTINUOUS
 10
-0.532886
 20
2.698268
  0
VERTEX
  8
PLAN_1
 62
     2
  6
CONTINUOUS
 10
-0.530504
 20
2.697315
  0
VERTEX
  8
PLAN_1
 62
     2
  6
CONTINUOUS
 10
-0.528598
 20
2.695886
  0
VERTEX
  8
PLAN_1
 62
     2
  6
CONTINUOUS
 10
-0.527169
 20
2.694457
  0
VERTEX
  8
PLAN_1
 62
     2
  6
CONTINUOUS
 10
-0.525740
 20
2.692551
  0
VERTEX
  8
PLAN_1
 62
     2
  6
CONTINUOUS
 10
-0.525264
 20
2.691122
  0
VERTEX
  8
PLAN_1
 62
     2
  6
CONTINUOUS
 10
-0.524311
 20
2.689693
  0
SEQEND
  8
0
  0
POLYLINE
  8
PLAN_1
 62
     2
  6
CONTINUOUS
 66
     1
 40
0.003000
 41
0.003000
  0
VERTEX
  8
PLAN_1
 62
     2
  6
CONTINUOUS
 10
-0.506209
 20
2.661591
  0
VERTEX
  8
PLAN_1
 62
     2
  6
CONTINUOUS
 10
-0.503827
 20
2.662067
  0
VERTEX
  8
PLAN_1
 62
     2
  6
CONTINUOUS
 10
-0.501445
 20
2.662543
  0
VERTEX
  8
PLAN_1
 62
     2
  6
CONTINUOUS
 10
-0.499067
 20
2.663496
  0
VERTEX
  8
PLAN_1
 62
     2
  6
CONTINUOUS
 10
-0.496685
 20
2.664925
  0
VERTEX
  8
PLAN_1
 62
     2
  6
CONTINUOUS
 10
-0.494780
 20
2.666827
  0
VERTEX
  8
PLAN_1
 62
     2
  6
CONTINUOUS
 10
-0.492874
 20
2.669685
  0
VERTEX
  8
PLAN_1
 62
     2
  6
CONTINUOUS
 10
-0.491921
 20
2.673020
  0
VERTEX
  8
PLAN_1
 62
     2
  6
CONTINUOUS
 10
-0.491445
 20
2.677307
  0
VERTEX
  8
PLAN_1
 62
     2
  6
CONTINUOUS
 10
-0.491921
 20
2.680165
  0
VERTEX
  8
PLAN_1
 62
     2
  6
CONTINUOUS
 10
-0.492398
 20
2.682547
  0
VERTEX
  8
PLAN_1
 62
     2
  6
CONTINUOUS
 10
-0.492874
 20
2.684929
  0
VERTEX
  8
PLAN_1
 62
     2
  6
CONTINUOUS
 10
-0.494303
 20
2.687311
  0
VERTEX
  8
PLAN_1
 62
     2
  6
CONTINUOUS
 10
-0.496209
 20
2.689217
  0
VERTEX
  8
PLAN_1
 62
     2
  6
CONTINUOUS
 10
-0.498591
 20
2.690646
  0
VERTEX
  8
PLAN_1
 62
     2
  6
CONTINUOUS
 10
-0.501445
 20
2.691598
  0
VERTEX
  8
PLAN_1
 62
     2
  6
CONTINUOUS
 10
-0.505256
 20
2.692075
  0
VERTEX
  8
PLAN_1
 62
     2
  6
CONTINUOUS
 10
-0.509067
 20
2.691598
  0
VERTEX
  8
PLAN_1
 62
     2
  6
CONTINUOUS
 10
-0.511925
 20
2.690646
  0
VERTEX
  8
PLAN_1
 62
     2
  6
CONTINUOUS
 10
-0.514307
 20
2.689217
  0
VERTEX
  8
PLAN_1
 62
     2
  6
CONTINUOUS
 10
-0.516213
 20
2.687787
  0
VERTEX
  8
PLAN_1
 62
     2
  6
CONTINUOUS
 10
-0.517642
 20
2.685406
  0
VERTEX
  8
PLAN_1
 62
     2
  6
CONTINUOUS
 10
-0.519071
 20
2.682547
  0
VERTEX
  8
PLAN_1
 62
     2
  6
CONTINUOUS
 10
-0.519547
 20
2.679689
  0
VERTEX
  8
PLAN_1
 62
     2
  6
CONTINUOUS
 10
-0.519547
 20
2.676831
  0
VERTEX
  8
PLAN_1
 62
     2
  6
CONTINUOUS
 10
-0.519547
 20
2.673496
  0
VERTEX
  8
PLAN_1
 62
     2
  6
CONTINUOUS
 10
-0.518594
 20
2.670161
  0
VERTEX
  8
PLAN_1
 62
     2
  6
CONTINUOUS
 10
-0.517165
 20
2.667780
  0
VERTEX
  8
PLAN_1
 62
     2
  6
CONTINUOUS
 10
-0.515736
 20
2.665402
  0
VERTEX
  8
PLAN_1
 62
     2
  6
CONTINUOUS
 10
-0.513354
 20
2.663972
  0
VERTEX
  8
PLAN_1
 62
     2
  6
CONTINUOUS
 10
-0.510972
 20
2.662543
  0
VERTEX
  8
PLAN_1
 62
     2
  6
CONTINUOUS
 10
-0.508591
 20
2.662067
  0
VERTEX
  8
PLAN_1
 62
     2
  6
CONTINUOUS
 10
-0.506209
 20
2.661591
  0
SEQEND
  8
0
  0
POLYLINE
  8
PLAN_1
 62
     2
  6
CONTINUOUS
 66
     1
 40
0.003000
 41
0.003000
  0
VERTEX
  8
PLAN_1
 62
     2
  6
CONTINUOUS
 10
-0.539551
 20
2.689693
  0
VERTEX
  8
PLAN_1
 62
     2
  6
CONTINUOUS
 10
-0.540980
 20
2.689693
  0
VERTEX
  8
PLAN_1
 62
     2
  6
CONTINUOUS
 10
-0.542886
 20
2.689217
  0
VERTEX
  8
PLAN_1
 62
     2
  6
CONTINUOUS
 10
-0.544791
 20
2.688264
  0
VERTEX
  8
PLAN_1
 62
     2
  6
CONTINUOUS
 10
-0.546697
 20
2.686835
  0
VERTEX
  8
PLAN_1
 62
     2
  6
CONTINUOUS
 10
-0.548126
 20
2.684929
  0
VERTEX
  8
PLAN_1
 62
     2
  6
CONTINUOUS
 10
-0.549079
 20
2.683024
  0
VERTEX
  8
PLAN_1
 62
     2
  6
CONTINUOUS
 10
-0.550031
 20
2.679689
  0
VERTEX
  8
PLAN_1
 62
     2
  6
CONTINUOUS
 10
-0.550508
 20
2.676354
  0
VERTEX
  8
PLAN_1
 62
     2
  6
CONTINUOUS
 10
-0.550031
 20
2.673020
  0
VERTEX
  8
PLAN_1
 62
     2
  6
CONTINUOUS
 10
-0.549079
 20
2.670161
  0
VERTEX
  8
PLAN_1
 62
     2
  6
CONTINUOUS
 10
-0.548126
 20
2.667780
  0
VERTEX
  8
PLAN_1
 62
     2
  6
CONTINUOUS
 10
-0.546220
 20
2.666350
  0
VERTEX
  8
PLAN_1
 62
     2
  6
CONTINUOUS
 10
-0.544791
 20
2.665402
  0
VERTEX
  8
PLAN_1
 62
     2
  6
CONTINUOUS
 10
-0.542886
 20
2.664449
  0
VERTEX
  8
PLAN_1
 62
     2
  6
CONTINUOUS
 10
-0.540504
 20
2.663972
  0
VERTEX
  8
PLAN_1
 62
     2
  6
CONTINUOUS
 10
-0.539075
 20
2.663972
  0
VERTEX
  8
PLAN_1
 62
     2
  6
CONTINUOUS
 10
-0.536217
 20
2.664449
  0
VERTEX
  8
PLAN_1
 62
     2
  6
CONTINUOUS
 10
-0.534311
 20
2.664925
  0
VERTEX
  8
PLAN_1
 62
     2
  6
CONTINUOUS
 10
-0.532409
 20
2.666350
  0
VERTEX
  8
PLAN_1
 62
     2
  6
CONTINUOUS
 10
-0.530504
 20
2.667780
  0
VERTEX
  8
PLAN_1
 62
     2
  6
CONTINUOUS
 10
-0.529551
 20
2.669685
  0
VERTEX
  8
PLAN_1
 62
     2
  6
CONTINUOUS
 10
-0.528598
 20
2.672067
  0
VERTEX
  8
PLAN_1
 62
     2
  6
CONTINUOUS
 10
-0.527646
 20
2.674449
  0
VERTEX
  8
PLAN_1
 62
     2
  6
CONTINUOUS
 10
-0.527646
 20
2.676831
  0
VERTEX
  8
PLAN_1
 62
     2
  6
CONTINUOUS
 10
-0.527646
 20
2.679689
  0
VERTEX
  8
PLAN_1
 62
     2
  6
CONTINUOUS
 10
-0.528598
 20
2.682071
  0
VERTEX
  8
PLAN_1
 62
     2
  6
CONTINUOUS
 10
-0.529551
 20
2.684453
  0
VERTEX
  8
PLAN_1
 62
     2
  6
CONTINUOUS
 10
-0.530980
 20
2.686358
  0
VERTEX
  8
PLAN_1
 62
     2
  6
CONTINUOUS
 10
-0.532886
 20
2.687787
  0
VERTEX
  8
PLAN_1
 62
     2
  6
CONTINUOUS
 10
-0.534787
 20
2.688740
  0
VERTEX
  8
PLAN_1
 62
     2
  6
CONTINUOUS
 10
-0.537169
 20
2.689693
  0
VERTEX
  8
PLAN_1
 62
     2
  6
CONTINUOUS
 10
-0.539551
 20
2.689693
  0
SEQEND
  8
0
  0
POLYLINE
  8
PLAN_1
 62
     2
  6
CONTINUOUS
 66
     1
 40
0.003000
 41
0.003000
  0
VERTEX
  8
PLAN_1
 62
     2
  6
CONTINUOUS
 10
-0.503350
 20
2.749709
  0
VERTEX
  8
PLAN_1
 62
     2
  6
CONTINUOUS
 10
-0.485252
 20
2.749709
  0
VERTEX
  8
PLAN_1
 62
     2
  6
CONTINUOUS
 10
-0.485252
 20
2.740657
  0
VERTEX
  8
PLAN_1
 62
     2
  6
CONTINUOUS
 10
-0.503350
 20
2.740657
  0
VERTEX
  8
PLAN_1
 62
     2
  6
CONTINUOUS
 10
-0.503350
 20
2.708744
  0
VERTEX
  8
PLAN_1
 62
     2
  6
CONTINUOUS
 10
-0.511925
 20
2.708744
  0
VERTEX
  8
PLAN_1
 62
     2
  6
CONTINUOUS
 10
-0.558606
 20
2.742087
  0
VERTEX
  8
PLAN_1
 62
     2
  6
CONTINUOUS
 10
-0.558606
 20
2.749709
  0
VERTEX
  8
PLAN_1
 62
     2
  6
CONTINUOUS
 10
-0.510972
 20
2.749709
  0
VERTEX
  8
PLAN_1
 62
     2
  6
CONTINUOUS
 10
-0.510972
 20
2.760189
  0
VERTEX
  8
PLAN_1
 62
     2
  6
CONTINUOUS
 10
-0.503350
 20
2.760189
  0
VERTEX
  8
PLAN_1
 62
     2
  6
CONTINUOUS
 10
-0.503350
 20
2.749709
  0
SEQEND
  8
0
  0
SOLID
  8
PLAN_1
 62
     2
 10
-0.510972
 20
2.716843
 11
-0.510972
 21
2.740657
 12
-0.544315
 22
2.740181
 13
-0.544315
 23
2.740657
  0
POLYLINE
  8
PLAN_1
 62
     2
  6
CONTINUOUS
 66
     1
 40
0.003000
 41
0.003000
  0
VERTEX
  8
PLAN_1
 62
     2
  6
CONTINUOUS
 10
-0.510972
 20
2.716843
  0
VERTEX
  8
PLAN_1
 62
     2
  6
CONTINUOUS
 10
-0.510972
 20
2.740657
  0
VERTEX
  8
PLAN_1
 62
     2
  6
CONTINUOUS
 10
-0.544315
 20
2.740657
  0
VERTEX
  8
PLAN_1
 62
     2
  6
CONTINUOUS
 10
-0.544315
 20
2.740181
  0
VERTEX
  8
PLAN_1
 62
     2
  6
CONTINUOUS
 10
-0.510972
 20
2.716843
  0
SEQEND
  8
0
  0
POLYLINE
  8
PLAN_1
 62
     2
  6
CONTINUOUS
 66
     1
 40
0.004283
 41
0.004283
  0
VERTEX
  8
PLAN_1
 62
     2
  6
CONTINUOUS
 10
-0.882504
 20
1.453161
  0
VERTEX
  8
PLAN_1
 62
     2
  6
CONTINUOUS
 10
-0.438094
 20
1.453161
  0
SEQEND
  8
0
  0
POLYLINE
  8
PLAN_1
 62
     2
  6
CONTINUOUS
 66
     1
 40
0.004283
 41
0.004283
  0
VERTEX
  8
PLAN_1
 62
     2
  6
CONTINUOUS
 10
-0.108480
 20
0.659610
  0
VERTEX
  8
PLAN_1
 62
     2
  6
CONTINUOUS
 10
0.223039
 20
0.659610
  0
SEQEND
  8
0
  0
POLYLINE
  8
PLAN_1
 62
     2
  6
CONTINUOUS
 66
     1
 40
0.004283
 41
0.004283
  0
VERTEX
  8
PLAN_1
 62
     2
  6
CONTINUOUS
 10
-1.076843
 20
3.669008
  0
VERTEX
  8
PLAN_1
 62
     2
  6
CONTINUOUS
 10
0.223039
 20
3.669008
  0
SEQEND
  8
0
  0
ENDSEC
  0
EOF
